  0
SECTION
  2
HEADER
  9
$ACADVER
  1
AC1014
  9
$ACADMAINTVER
 70
     9
  9
$DWGCODEPAGE
  3
ANSI_1252
  9
$INSBASE
 10
0.0
 20
0.0
 30
0.0
  9
$EXTMIN
 10
0.1112893299106278
 20
-69.81245650236849
 30
-0.0000000239796316
  9
$EXTMAX
 10
54.91171742069583
 20
7.458962911966355
 30
0.000000008033605
  9
$LIMMIN
 10
-0.5
 20
-0.5
  9
$LIMMAX
 10
5.0
 20
5.0
  9
$ORTHOMODE
 70
     0
  9
$REGENMODE
 70
     1
  9
$FILLMODE
 70
     1
  9
$QTEXTMODE
 70
     0
  9
$MIRRTEXT
 70
     1
  9
$DRAGMODE
 70
     2
  9
$LTSCALE
 40
1.0
  9
$OSMODE
 70
   261
  9
$ATTMODE
 70
     1
  9
$TEXTSIZE
 40
0.0
  9
$TRACEWID
 40
0.05
  9
$TEXTSTYLE
  7
STANDARD
  9
$CLAYER
  8
0
  9
$CELTYPE
  6
CONTINUOUS
  9
$CECOLOR
 62
   256
  9
$CELTSCALE
 40
1.0
  9
$DELOBJ
 70
     1
  9
$DISPSILH
 70
     0
  9
$DIMSCALE
 40
1.0
  9
$DIMASZ
 40
0.18
  9
$DIMEXO
 40
0.0625
  9
$DIMDLI
 40
0.38
  9
$DIMRND
 40
0.0
  9
$DIMDLE
 40
0.0
  9
$DIMEXE
 40
0.18
  9
$DIMTP
 40
0.0
  9
$DIMTM
 40
0.0
  9
$DIMTXT
 40
0.18
  9
$DIMCEN
 40
0.09
  9
$DIMTSZ
 40
0.0
  9
$DIMTOL
 70
     0
  9
$DIMLIM
 70
     0
  9
$DIMTIH
 70
     1
  9
$DIMTOH
 70
     1
  9
$DIMSE1
 70
     0
  9
$DIMSE2
 70
     0
  9
$DIMTAD
 70
     0
  9
$DIMZIN
 70
     0
  9
$DIMBLK
  1

  9
$DIMASO
 70
     1
  9
$DIMSHO
 70
     1
  9
$DIMPOST
  1

  9
$DIMAPOST
  1

  9
$DIMALT
 70
     0
  9
$DIMALTD
 70
     2
  9
$DIMALTF
 40
25.4
  9
$DIMLFAC
 40
1.0
  9
$DIMTOFL
 70
     0
  9
$DIMTVP
 40
0.0
  9
$DIMTIX
 70
     0
  9
$DIMSOXD
 70
     0
  9
$DIMSAH
 70
     0
  9
$DIMBLK1
  1

  9
$DIMBLK2
  1

  9
$DIMSTYLE
  2
STANDARD
  9
$DIMCLRD
 70
     0
  9
$DIMCLRE
 70
     0
  9
$DIMCLRT
 70
     0
  9
$DIMTFAC
 40
1.0
  9
$DIMGAP
 40
0.09
  9
$DIMJUST
 70
     0
  9
$DIMSD1
 70
     0
  9
$DIMSD2
 70
     0
  9
$DIMTOLJ
 70
     1
  9
$DIMTZIN
 70
     0
  9
$DIMALTZ
 70
     0
  9
$DIMALTTZ
 70
     0
  9
$DIMFIT
 70
     3
  9
$DIMUPT
 70
     0
  9
$DIMUNIT
 70
     2
  9
$DIMDEC
 70
     4
  9
$DIMTDEC
 70
     4
  9
$DIMALTU
 70
     2
  9
$DIMALTTD
 70
     2
  9
$DIMTXSTY
  7
STANDARD
  9
$DIMAUNIT
 70
     0
  9
$LUNITS
 70
     2
  9
$LUPREC
 70
     4
  9
$SKETCHINC
 40
0.1
  9
$FILLETRAD
 40
0.0
  9
$AUNITS
 70
     0
  9
$AUPREC
 70
     0
  9
$MENU
  1
acad
  9
$ELEVATION
 40
0.0
  9
$PELEVATION
 40
0.0
  9
$THICKNESS
 40
0.0
  9
$LIMCHECK
 70
     0
  9
$BLIPMODE
 70
     0
  9
$CHAMFERA
 40
0.0
  9
$CHAMFERB
 40
0.0
  9
$CHAMFERC
 40
0.0
  9
$CHAMFERD
 40
0.0
  9
$SKPOLY
 70
     0
  9
$TDCREATE
 40
2452717.642589965
  9
$TDUPDATE
 40
2452717.648008623
  9
$TDINDWG
 40
0.0054202894
  9
$TDUSRTIMER
 40
0.0054202894
  9
$USRTIMER
 70
     1
  9
$ANGBASE
 50
0.0
  9
$ANGDIR
 70
     0
  9
$PDMODE
 70
     0
  9
$PDSIZE
 40
0.0
  9
$PLINEWID
 40
0.0
  9
$COORDS
 70
     1
  9
$SPLFRAME
 70
     0
  9
$SPLINETYPE
 70
     6
  9
$SPLINESEGS
 70
     8
  9
$ATTDIA
 70
     0
  9
$ATTREQ
 70
     1
  9
$HANDLING
 70
  4097
  9
$HANDSEED
  5
4B5
  9
$SURFTAB1
 70
     6
  9
$SURFTAB2
 70
     6
  9
$SURFTYPE
 70
     6
  9
$SURFU
 70
     6
  9
$SURFV
 70
     6
  9
$UCSNAME
  2

  9
$UCSORG
 10
0.0
 20
0.0
 30
0.0
  9
$UCSXDIR
 10
1.0
 20
0.0
 30
0.0
  9
$UCSYDIR
 10
0.0
 20
1.0
 30
0.0
  9
$PUCSNAME
  2

  9
$PUCSORG
 10
0.0
 20
0.0
 30
0.0
  9
$PUCSXDIR
 10
1.0
 20
0.0
 30
0.0
  9
$PUCSYDIR
 10
0.0
 20
1.0
 30
0.0
  9
$USERI1
 70
     0
  9
$USERI2
 70
     0
  9
$USERI3
 70
     0
  9
$USERI4
 70
     0
  9
$USERI5
 70
     0
  9
$USERR1
 40
0.0
  9
$USERR2
 40
0.0
  9
$USERR3
 40
0.0
  9
$USERR4
 40
0.0
  9
$USERR5
 40
0.0
  9
$WORLDVIEW
 70
     1
  9
$SHADEDGE
 70
     3
  9
$SHADEDIF
 70
    70
  9
$TILEMODE
 70
     1
  9
$MAXACTVP
 70
    16
  9
$PINSBASE
 10
0.0
 20
0.0
 30
0.0
  9
$PLIMCHECK
 70
     0
  9
$PEXTMIN
 10
1.000000000000000E+20
 20
1.000000000000000E+20
 30
1.000000000000000E+20
  9
$PEXTMAX
 10
-1.000000000000000E+20
 20
-1.000000000000000E+20
 30
-1.000000000000000E+20
  9
$PLIMMIN
 10
-0.1979161059762549
 20
-0.2112499935420479
  9
$PLIMMAX
 10
10.80208365372785
 20
8.288749766162061
  9
$UNITMODE
 70
     0
  9
$VISRETAIN
 70
     0
  9
$PLINEGEN
 70
     1
  9
$PSLTSCALE
 70
     0
  9
$TREEDEPTH
 70
  3020
  9
$PICKSTYLE
 70
     1
  9
$CMLSTYLE
  2
STANDARD
  9
$CMLJUST
 70
     0
  9
$CMLSCALE
 40
1.0
  9
$PROXYGRAPHICS
 70
     0
  9
$MEASUREMENT
 70
     0
  0
ENDSEC
  0
SECTION
  2
CLASSES
  0
CLASS
  1
LWPOLYLINE
  2
AcDbPolyline
  3
AutoCAD 2000
 90
        0
280
     0
281
     1
  0
CLASS
  1
IMAGE
  2
AcDbRasterImage
  3
ISM
 90
      127
280
     0
281
     1
  0
CLASS
  1
OLE2FRAME
  2
AcDbOle2Frame
  3
AutoCAD 2000
 90
        0
280
     0
281
     1
  0
CLASS
  1
HATCH
  2
AcDbHatch
  3
AutoCAD 2000
 90
        0
280
     0
281
     1
  0
CLASS
  1
DICTIONARYVAR
  2
AcDbDictionaryVar
  3
AutoCAD 2000
 90
        0
280
     0
281
     0
  0
CLASS
  1
RASTERVARIABLES
  2
AcDbRasterVariables
  3
ISM
 90
        0
280
     0
281
     0
  0
CLASS
  1
IMAGEDEF
  2
AcDbRasterImageDef
  3
ISM
 90
        0
280
     0
281
     0
  0
CLASS
  1
IMAGEDEF_REACTOR
  2
AcDbRasterImageDefReactor
  3
ISM
 90
        1
280
     0
281
     0
  0
CLASS
  1
IDBUFFER
  2
AcDbIdBuffer
  3
AutoCAD 2000
 90
        0
280
     0
281
     0
  0
CLASS
  1
SPATIAL_FILTER
  2
AcDbSpatialFilter
  3
AutoCAD 2000
 90
        0
280
     0
281
     0
  0
CLASS
  1
XRECORD
  2
AcDbXrecord
  3
AutoCAD 2000
 90
        0
280
     0
281
     0
  0
CLASS
  1
SORTENTSTABLE
  2
AcDbSortentsTable
  3
AutoCAD 2000
 90
        0
280
     0
281
     0
  0
CLASS
  1
LAYER_INDEX
  2
AcDbLayerIndex
  3
AutoCAD 2000
 90
        0
280
     0
281
     0
  0
CLASS
  1
SPATIAL_INDEX
  2
AcDbSpatialIndex
  3
AutoCAD 2000
 90
        0
280
     0
281
     0
  0
CLASS
  1
OBJECT_PTR
  2
CAseDLPNTableRecord
  3
ASE-LPNTableRecord
 90
        1
280
     0
281
     0
  0
CLASS
  1
LAYOUT
  2
AcDbLayout
  3
AutoCAD 2000
 90
        0
280
     0
281
     0
  0
CLASS
  1
PLOTSETTINGS
  2
AcDbPlotSettings
  3
AutoCAD 2000
 90
        0
280
     0
281
     0
  0
CLASS
  1
ACDBDICTIONARYWDFLT
  2
AcDbDictionaryWithDefault
  3
AutoCAD 2000
 90
        0
280
     0
281
     0
  0
CLASS
  1
ACDBPLACEHOLDER
  2
AcDbPlaceHolder
  3
AutoCAD 2000
 90
        0
280
     0
281
     0
  0
CLASS
  1
VBA_PROJECT
  2
AcDbVbaProject
  3
acadvba
 90
        0
280
     0
281
     0
  0
CLASS
  1
RTEXT
  2
RText
  3
RText|AutoCAD Express Tool|expresstools@autodesk.com
 90
        0
280
     0
281
     1
  0
CLASS
  1
ARCALIGNEDTEXT
  2
AcDbArcAlignedText
  3
ATEXT|AutoCAD Express Tool|expresstools@autodesk.com
 90
        0
280
     0
281
     1
  0
CLASS
  1
LONG_TRANSACTION
  2
AcDbLongTransaction
  3
AutoCAD 2000
 90
        0
280
     0
281
     0
  0
CLASS
  1
LWPOLYLINE
  2
AcDbPolyline
  3
AutoCAD 2000
 90
        0
280
     0
281
     1
  0
CLASS
  1
HATCH
  2
AcDbHatch
  3
AutoCAD 2000
 90
        0
280
     0
281
     1
  0
CLASS
  1
XRECORD
  2
AcDbXrecord
  3
AutoCAD 2000
 90
        0
280
     0
281
     0
  0
ENDSEC
  0
SECTION
  2
TABLES
  0
TABLE
  2
VPORT
  5
7
330
0
100
AcDbSymbolTable
 70
    21
  0
VPORT
  5
45A
330
7
100
AcDbSymbolTableRecord
100
AcDbViewportTableRecord
  2
L1
 70
     0
 10
0.0
 20
0.0
 11
1.0
 21
1.0
 12
0.0
 22
0.0
 13
0.0
 23
0.0
 14
1.0
 24
1.0
 15
0.0
 25
0.0
 16
0.0
 26
0.0
 36
1.0
 17
0.0
 27
0.0
 37
0.0
 40
7.926304133858266
 41
0.688564
 42
50.0
 43
22.86983526390032
 44
-22.86983526390032
 50
0.0
 51
0.0
 71
    16
 72
   100
 73
     1
 74
     1
 75
     0
 76
     0
 77
     0
 78
     0
  0
VPORT
  5
45B
330
7
100
AcDbSymbolTableRecord
100
AcDbViewportTableRecord
  2
L2
 70
     0
 10
0.0
 20
0.0
 11
0.5
 21
1.0
 12
0.0
 22
0.0
 13
0.0
 23
0.0
 14
1.0
 24
1.0
 15
0.0
 25
0.0
 16
0.0
 26
-1.0
 36
0.0
 17
0.0
 27
0.0
 37
0.0
 40
45.73967052780065
 41
0.688564
 42
50.0
 43
23.44633426093276
 44
-23.44633426093276
 50
0.0
 51
0.0
 71
    16
 72
   100
 73
     1
 74
     1
 75
     0
 76
     0
 77
     0
 78
     0
  0
VPORT
  5
45C
330
7
100
AcDbSymbolTableRecord
100
AcDbViewportTableRecord
  2
L2
 70
     0
 10
0.5
 20
0.0
 11
1.0
 21
1.0
 12
0.0
 22
0.0
 13
0.0
 23
0.0
 14
1.0
 24
1.0
 15
0.0
 25
0.0
 16
1.0
 26
0.0
 36
0.0
 17
0.0
 27
0.0
 37
0.0
 40
45.73967052780065
 41
0.688564
 42
50.0
 43
23.21068588610736
 44
-23.21068588610736
 50
0.0
 51
0.0
 71
    16
 72
   100
 73
     1
 74
     1
 75
     0
 76
     0
 77
     0
 78
     0
  0
VPORT
  5
45D
330
7
100
AcDbSymbolTableRecord
100
AcDbViewportTableRecord
  2
L3
 70
     0
 10
0.0
 20
0.5
 11
1.0
 21
1.0
 12
0.0
 22
0.0
 13
0.0
 23
0.0
 14
1.0
 24
1.0
 15
0.0
 25
0.0
 16
0.0
 26
0.0
 36
1.0
 17
0.0
 27
0.0
 37
0.0
 40
7.926304133858266
 41
0.688564
 42
50.0
 43
22.86983526390032
 44
-22.86983526390032
 50
0.0
 51
0.0
 71
    16
 72
   100
 73
     1
 74
     1
 75
     0
 76
     0
 77
     0
 78
     0
  0
VPORT
  5
45E
330
7
100
AcDbSymbolTableRecord
100
AcDbViewportTableRecord
  2
L3
 70
     0
 10
0.0
 20
0.0
 11
1.0
 21
0.5
 12
0.0
 22
0.0
 13
0.0
 23
0.0
 14
1.0
 24
1.0
 15
0.0
 25
0.0
 16
0.0
 26
-1.0
 36
0.0
 17
0.0
 27
0.0
 37
0.0
 40
45.73967052780065
 41
0.688564
 42
50.0
 43
23.44633426093276
 44
-23.44633426093276
 50
0.0
 51
0.0
 71
    16
 72
   100
 73
     1
 74
     1
 75
     0
 76
     0
 77
     0
 78
     0
  0
VPORT
  5
45F
330
7
100
AcDbSymbolTableRecord
100
AcDbViewportTableRecord
  2
L4
 70
     0
 10
0.0
 20
0.5
 11
0.5
 21
1.0
 12
0.0
 22
0.0
 13
0.0
 23
0.0
 14
1.0
 24
1.0
 15
0.0
 25
0.0
 16
0.0
 26
0.0
 36
1.0
 17
0.0
 27
0.0
 37
0.0
 40
7.926304133858266
 41
0.688564
 42
50.0
 43
22.86983526390032
 44
-22.86983526390032
 50
0.0
 51
0.0
 71
    16
 72
   100
 73
     1
 74
     1
 75
     0
 76
     0
 77
     0
 78
     0
  0
VPORT
  5
460
330
7
100
AcDbSymbolTableRecord
100
AcDbViewportTableRecord
  2
L4
 70
     0
 10
0.0
 20
0.0
 11
0.5
 21
0.5
 12
0.0
 22
0.0
 13
0.0
 23
0.0
 14
1.0
 24
1.0
 15
0.0
 25
0.0
 16
0.0
 26
-1.0
 36
0.0
 17
0.0
 27
0.0
 37
0.0
 40
45.73967052780065
 41
0.688564
 42
50.0
 43
23.44633426093276
 44
-23.44633426093276
 50
0.0
 51
0.0
 71
    16
 72
   100
 73
     1
 74
     1
 75
     0
 76
     0
 77
     0
 78
     0
  0
VPORT
  5
461
330
7
100
AcDbSymbolTableRecord
100
AcDbViewportTableRecord
  2
L4
 70
     0
 10
0.5
 20
0.0
 11
1.0
 21
0.5
 12
0.0
 22
0.0
 13
0.0
 23
0.0
 14
1.0
 24
1.0
 15
0.0
 25
0.0
 16
1.0
 26
0.0
 36
0.0
 17
0.0
 27
0.0
 37
0.0
 40
45.73967052780065
 41
0.688564
 42
50.0
 43
23.21068588610736
 44
-23.21068588610736
 50
0.0
 51
0.0
 71
    16
 72
   100
 73
     1
 74
     1
 75
     0
 76
     0
 77
     0
 78
     0
  0
VPORT
  5
462
330
7
100
AcDbSymbolTableRecord
100
AcDbViewportTableRecord
  2
L4
 70
     0
 10
0.5
 20
0.5
 11
1.0
 21
1.0
 12
0.0
 22
0.0
 13
0.0
 23
0.0
 14
1.0
 24
1.0
 15
0.0
 25
0.0
 16
0.5773502691896259
 26
-0.5773502691896259
 36
0.5773502691896259
 17
0.0
 27
0.0
 37
0.0
 40
44.80128613809216
 41
0.688564
 42
50.0
 43
23.31247725727461
 44
-23.31247725727461
 50
0.0
 51
0.0
 71
    16
 72
   100
 73
     1
 74
     1
 75
     0
 76
     0
 77
     0
 78
     0
  0
VPORT
  5
463
330
7
100
AcDbSymbolTableRecord
100
AcDbViewportTableRecord
  2
L6
 70
     0
 10
0.0
 20
0.5
 11
0.3333333333333334
 21
1.0
 12
0.0
 22
0.0
 13
0.0
 23
0.0
 14
1.0
 24
1.0
 15
0.0
 25
0.0
 16
0.7188730927569434
 26
-0.5850486126764432
 36
0.3754192287502549
 17
0.0
 27
0.0
 37
0.0
 40
47.28156778779488
 41
0.688564
 42
50.0
 43
24.4750051625393
 44
-24.4750051625393
 50
0.0
 51
0.0
 71
    16
 72
   100
 73
     1
 74
     1
 75
     0
 76
     0
 77
     0
 78
     0
  0
VPORT
  5
464
330
7
100
AcDbSymbolTableRecord
100
AcDbViewportTableRecord
  2
L6
 70
     0
 10
0.0
 20
0.0
 11
0.3333333333333334
 21
0.5
 12
0.0
 22
0.0
 13
0.0
 23
0.0
 14
1.0
 24
1.0
 15
0.0
 25
0.0
 16
-1.0
 26
0.0
 36
0.0
 17
0.0
 27
0.0
 37
0.0
 40
45.73967052780065
 41
0.688564
 42
50.0
 43
23.21068588610736
 44
-23.21068588610736
 50
0.0
 51
0.0
 71
    16
 72
   100
 73
     1
 74
     1
 75
     0
 76
     0
 77
     0
 78
     0
  0
VPORT
  5
465
330
7
100
AcDbSymbolTableRecord
100
AcDbViewportTableRecord
  2
L6
 70
     0
 10
0.3333333333333334
 20
0.5
 11
0.6666666666666666
 21
1.0
 12
0.0
 22
0.0
 13
0.0
 23
0.0
 14
1.0
 24
1.0
 15
0.0
 25
0.0
 16
0.0
 26
0.0
 36
1.0
 17
0.0
 27
0.0
 37
0.0
 40
7.926304133858266
 41
0.688564
 42
50.0
 43
22.86983526390032
 44
-22.86983526390032
 50
0.0
 51
0.0
 71
    16
 72
   100
 73
     1
 74
     1
 75
     0
 76
     0
 77
     0
 78
     0
  0
VPORT
  5
466
330
7
100
AcDbSymbolTableRecord
100
AcDbViewportTableRecord
  2
L6
 70
     0
 10
0.3333333333333334
 20
0.0
 11
0.6666666666666666
 21
0.5
 12
0.0
 22
0.0
 13
0.0
 23
0.0
 14
1.0
 24
1.0
 15
0.0
 25
0.0
 16
0.0
 26
-1.0
 36
0.0
 17
0.0
 27
0.0
 37
0.0
 40
45.73967052780065
 41
0.688564
 42
50.0
 43
23.44633426093276
 44
-23.44633426093276
 50
0.0
 51
0.0
 71
    16
 72
   100
 73
     1
 74
     1
 75
     0
 76
     0
 77
     0
 78
     0
  0
VPORT
  5
467
330
7
100
AcDbSymbolTableRecord
100
AcDbViewportTableRecord
  2
L6
 70
     0
 10
0.6666666666666666
 20
0.5
 11
1.0
 21
1.0
 12
0.0
 22
0.0
 13
0.0
 23
0.0
 14
1.0
 24
1.0
 15
0.0
 25
0.0
 16
0.5773502691896259
 26
-0.5773502691896259
 36
0.5773502691896259
 17
0.0
 27
0.0
 37
0.0
 40
44.80128613809216
 41
0.688564
 42
50.0
 43
23.31247725727461
 44
-23.31247725727461
 50
0.0
 51
0.0
 71
    16
 72
   100
 73
     1
 74
     1
 75
     0
 76
     0
 77
     0
 78
     0
  0
VPORT
  5
468
330
7
100
AcDbSymbolTableRecord
100
AcDbViewportTableRecord
  2
L6
 70
     0
 10
0.6666666666666666
 20
0.0
 11
1.0
 21
0.5
 12
0.0
 22
0.0
 13
0.0
 23
0.0
 14
1.0
 24
1.0
 15
0.0
 25
0.0
 16
1.0
 26
0.0
 36
0.0
 17
0.0
 27
0.0
 37
0.0
 40
45.73967052780065
 41
0.688564
 42
50.0
 43
23.21068588610736
 44
-23.21068588610736
 50
0.0
 51
0.0
 71
    16
 72
   100
 73
     1
 74
     1
 75
     0
 76
     0
 77
     0
 78
     0
  0
VPORT
  5
48F
330
7
100
AcDbSymbolTableRecord
100
AcDbViewportTableRecord
  2
*ACTIVE
 70
     0
 10
0.0
 20
0.0
 11
1.0
 21
1.0
 12
27.51150337530322
 22
-31.17674679520106
 13
0.0
 23
0.0
 14
1.0
 24
1.0
 15
0.0
 25
0.0
 16
0.0
 26
0.0
 36
1.0
 17
0.0
 27
0.0
 37
0.0
 40
77.83820244182385
 41
1.507955936352509
 42
50.0
 43
22.86983526390032
 44
-22.86983526390032
 50
0.0
 51
0.0
 71
    16
 72
   100
 73
     1
 74
     1
 75
     0
 76
     0
 77
     0
 78
     0
  0
ENDTAB
  0
TABLE
  2
LTYPE
  5
4
330
0
100
AcDbSymbolTable
 70
     7
  0
LTYPE
  5
11
330
4
100
AcDbSymbolTableRecord
100
AcDbLinetypeTableRecord
  2
BYBLOCK
 70
     0
  3

 72
    65
 73
     0
 40
0.0
  0
LTYPE
  5
12
330
4
100
AcDbSymbolTableRecord
100
AcDbLinetypeTableRecord
  2
BYLAYER
 70
     0
  3

 72
    65
 73
     0
 40
0.0
  0
LTYPE
  5
13
330
4
100
AcDbSymbolTableRecord
100
AcDbLinetypeTableRecord
  2
CONTINUOUS
 70
     0
  3
Solid line
 72
    65
 73
     0
 40
0.0
  0
LTYPE
  5
22
330
4
100
AcDbSymbolTableRecord
100
AcDbLinetypeTableRecord
  2
DASHED
 70
     0
  3
__ __ __ __ __ __ __ __ __
 72
    65
 73
     2
 40
0.75
 49
0.5
 74
     0
 49
-0.25
 74
     0
  0
LTYPE
  5
23
330
4
100
AcDbSymbolTableRecord
100
AcDbLinetypeTableRecord
  2
HIDDEN
 70
     0
  3
_ _ _ _ _ _ _ _ _ _ _ _ _ _ _
 72
    65
 73
     2
 40
0.5
 49
0.25
 74
     0
 49
-0.25
 74
     0
  0
LTYPE
  5
24
330
4
100
AcDbSymbolTableRecord
100
AcDbLinetypeTableRecord
  2
PHANTOM
 70
     0
  3
____ _ _ ____ _ _ _____ _ _ ____
 72
    65
 73
     6
 40
2.5
 49
1.25
 74
     0
 49
-0.25
 74
     0
 49
0.25
 74
     0
 49
-0.25
 74
     0
 49
0.25
 74
     0
 49
-0.25
 74
     0
  0
LTYPE
  5
25
330
4
100
AcDbSymbolTableRecord
100
AcDbLinetypeTableRecord
  2
CENTER
 70
     0
  3
____ _ ____ _ ____ _ ____
 72
    65
 73
     4
 40
2.0
 49
1.25
 74
     0
 49
-0.25
 74
     0
 49
0.25
 74
     0
 49
-0.25
 74
     0
  0
LTYPE
  5
26
330
4
100
AcDbSymbolTableRecord
100
AcDbLinetypeTableRecord
  2
DOT
 70
     0
  3
.........................
 72
    65
 73
     2
 40
0.25
 49
0.0
 74
     0
 49
-0.25
 74
     0
  0
LTYPE
  5
27
330
4
100
AcDbSymbolTableRecord
100
AcDbLinetypeTableRecord
  2
DASHDOT
 70
     0
  3
_._._._._._._._._._._._._._._._.
 72
    65
 73
     4
 40
1.0
 49
0.5
 74
     0
 49
-0.25
 74
     0
 49
0.0
 74
     0
 49
-0.25
 74
     0
  0
ENDTAB
  0
TABLE
  2
LAYER
  5
2
330
0
100
AcDbSymbolTable
 70
     4
  0
LAYER
  5
14
330
2
100
AcDbSymbolTableRecord
100
AcDbLayerTableRecord
  2
0
 70
     0
 62
     7
  6
CONTINUOUS
  0
LAYER
  5
29
330
2
100
AcDbSymbolTableRecord
100
AcDbLayerTableRecord
  2
1
 70
     0
 62
     7
  6
CONTINUOUS
  0
LAYER
  5
2A
330
2
100
AcDbSymbolTableRecord
100
AcDbLayerTableRecord
  2
TOP
 70
     0
 62
     7
  6
CONTINUOUS
  0
LAYER
  5
479
330
2
100
AcDbSymbolTableRecord
100
AcDbLayerTableRecord
  2
DEFPOINTS
 70
     0
 62
     7
  6
CONTINUOUS
  0
ENDTAB
  0
TABLE
  2
STYLE
  5
3
330
0
100
AcDbSymbolTable
 70
     1
  0
STYLE
  5
17
330
3
100
AcDbSymbolTableRecord
100
AcDbTextStyleTableRecord
  2
STANDARD
 70
     0
 40
0.0
 41
1.0
 50
0.0
 71
     0
 42
0.0
  3
txt
  4

  0
ENDTAB
  0
TABLE
  2
VIEW
  5
5
330
0
100
AcDbSymbolTable
 70
     8
  0
VIEW
  5
451
330
5
100
AcDbSymbolTableRecord
100
AcDbViewTableRecord
  2
TOP
 70
     0
 40
7.926304133858266
 10
0.0
 20
0.0
 41
10.33464566929133
 11
0.0
 21
0.0
 31
1.0
 12
0.0
 22
0.0
 32
0.0
 42
50.0
 43
22.86983526390032
 44
-22.86983526390032
 50
0.0
 71
    16
  0
VIEW
  5
452
330
5
100
AcDbSymbolTableRecord
100
AcDbViewTableRecord
  2
FRONT
 70
     0
 40
45.73967052780065
 10
0.0
 20
0.0
 41
10.33464566929133
 11
0.0
 21
-1.0
 31
0.0
 12
0.0
 22
0.0
 32
0.0
 42
50.0
 43
23.44633426093276
 44
-23.44633426093276
 50
0.0
 71
    16
  0
VIEW
  5
453
330
5
100
AcDbSymbolTableRecord
100
AcDbViewTableRecord
  2
RIGHT
 70
     0
 40
45.73967052780065
 10
0.0
 20
0.0
 41
7.926304133858266
 11
1.0
 21
0.0
 31
0.0
 12
0.0
 22
0.0
 32
0.0
 42
50.0
 43
23.21068588610736
 44
-23.21068588610736
 50
0.0
 71
    16
  0
VIEW
  5
454
330
5
100
AcDbSymbolTableRecord
100
AcDbViewTableRecord
  2
BACK
 70
     0
 40
45.73967052780065
 10
0.0
 20
0.0
 41
10.33464566929133
 11
0.0
 21
1.0
 31
0.0
 12
0.0
 22
0.0
 32
0.0
 42
50.0
 43
23.44633426093276
 44
-23.44633426093276
 50
0.0
 71
    16
  0
VIEW
  5
455
330
5
100
AcDbSymbolTableRecord
100
AcDbViewTableRecord
  2
BOTTOM
 70
     0
 40
7.926304133858266
 10
0.0
 20
0.0
 41
10.33464566929133
 11
0.0
 21
0.0
 31
-1.0
 12
0.0
 22
0.0
 32
0.0
 42
50.0
 43
22.86983526390032
 44
-22.86983526390032
 50
180.0
 71
    16
  0
VIEW
  5
456
330
5
100
AcDbSymbolTableRecord
100
AcDbViewTableRecord
  2
LEFT
 70
     0
 40
45.73967052780065
 10
0.0
 20
0.0
 41
7.926304133858266
 11
-1.0
 21
0.0
 31
0.0
 12
0.0
 22
0.0
 32
0.0
 42
50.0
 43
23.21068588610736
 44
-23.21068588610736
 50
0.0
 71
    16
  0
VIEW
  5
457
330
5
100
AcDbSymbolTableRecord
100
AcDbViewTableRecord
  2
TFR-ISO
 70
     0
 40
44.80128613809216
 10
0.0
 20
0.0
 41
12.91244143671423
 11
0.5773502691896259
 21
-0.5773502691896259
 31
0.5773502691896259
 12
0.0
 22
0.0
 32
0.0
 42
50.0
 43
23.31247725727461
 44
-23.31247725727461
 50
0.0
 71
    16
  0
VIEW
  5
458
330
5
100
AcDbSymbolTableRecord
100
AcDbViewTableRecord
  2
TFR-TRI
 70
     0
 40
47.28156778779488
 10
0.0
 20
0.0
 41
12.67110328082996
 11
0.7188730927569434
 21
-0.5850486126764432
 31
0.3754192287502549
 12
0.0
 22
0.0
 32
0.0
 42
50.0
 43
24.4750051625393
 44
-24.4750051625393
 50
0.0
 71
    16
  0
ENDTAB
  0
TABLE
  2
UCS
  5
6
330
0
100
AcDbSymbolTable
 70
     0
  0
ENDTAB
  0
TABLE
  2
APPID
  5
8
330
0
100
AcDbSymbolTable
 70
     2
  0
APPID
  5
16
330
8
100
AcDbSymbolTableRecord
100
AcDbRegAppTableRecord
  2
ACAD
 70
     0
  0
APPID
  5
489
330
8
100
AcDbSymbolTableRecord
100
AcDbRegAppTableRecord
  2
DCO15
 70
     0
  0
ENDTAB
  0
TABLE
  2
DIMSTYLE
  5
9
330
0
100
AcDbSymbolTable
 70
     1
  0
DIMSTYLE
105
18
102
{ACAD_REACTORS
330
478
102
}
330
9
100
AcDbSymbolTableRecord
100
AcDbDimStyleTableRecord
  2
STANDARD
 70
     0
  3

  4

  5

  6

  7

 40
1.0
 41
0.18
 42
0.0625
 43
0.38
 44
0.18
 45
0.0
 46
0.0
 47
0.0
 48
0.0
140
0.18
141
0.09
142
0.0
143
25.4
144
1.0
145
0.0
146
1.0
147
0.09
 71
     0
 72
     0
 73
     1
 74
     1
 75
     0
 76
     0
 77
     0
 78
     0
170
     0
171
     2
172
     0
173
     0
174
     0
175
     0
176
     0
177
     0
178
     0
270
     2
271
     4
272
     4
273
     2
274
     2
340
17
275
     0
280
     0
281
     0
282
     0
283
     1
284
     0
285
     0
286
     0
287
     0
288
     0
  0
ENDTAB
  0
TABLE
  2
BLOCK_RECORD
  5
1
330
0
100
AcDbSymbolTable
 70
     1
  0
BLOCK_RECORD
  5
A
102
{ACAD_XDICTIONARY
360
4B1
102
}
330
1
100
AcDbSymbolTableRecord
100
AcDbBlockTableRecord
  2
*MODEL_SPACE
  0
BLOCK_RECORD
  5
B
102
{ACAD_XDICTIONARY
360
4B3
102
}
330
1
100
AcDbSymbolTableRecord
100
AcDbBlockTableRecord
  2
*PAPER_SPACE
  0
BLOCK_RECORD
  5
47A
330
1
100
AcDbSymbolTableRecord
100
AcDbBlockTableRecord
  2
*D0
  0
ENDTAB
  0
ENDSEC
  0
SECTION
  2
BLOCKS
  0
BLOCK
  5
D
330
A
100
AcDbEntity
  8
0
100
AcDbBlockBegin
  2
*MODEL_SPACE
 70
     0
 71
     1
 10
0.0
 20
0.0
 30
0.0
  3
*MODEL_SPACE
  1

  0
ENDBLK
  5
E
330
A
100
AcDbEntity
  8
0
100
AcDbBlockEnd
  0
BLOCK
  5
F
330
B
100
AcDbEntity
 67
     1
  8
0
100
AcDbBlockBegin
  2
*PAPER_SPACE
 70
     0
 71
     1
 10
0.0
 20
0.0
 30
0.0
  3
*PAPER_SPACE
  1

  0
ENDBLK
  5
10
330
B
100
AcDbEntity
 67
     1
  8
0
100
AcDbBlockEnd
  0
BLOCK
  5
485
330
47A
100
AcDbEntity
  8
0
100
AcDbBlockBegin
  2
*D0
 70
     1
 10
0.0
 20
0.0
 30
0.0
  3
*D0
  1

  0
LINE
  5
47B
330
47A
100
AcDbEntity
  8
0
  6
CONTINUOUS
 62
     0
100
AcDbLine
 10
0.2367360591888192
 20
-54.33624394734824
 30
0.0
 11
0.2367360591888191
 21
-57.189222989406
 31
0.0
  0
LINE
  5
47C
330
47A
100
AcDbEntity
  8
0
  6
CONTINUOUS
 62
     0
100
AcDbLine
 10
8.736735900243269
 20
-54.33624394734824
 30
0.0
 11
8.736735900243269
 21
-57.189222989406
 31
0.0
  0
LINE
  5
47D
330
47A
100
AcDbEntity
  8
0
  6
CONTINUOUS
 62
     0
100
AcDbLine
 10
0.4167360591888191
 20
-57.009222989406
 30
0.0
 11
3.991735979716044
 21
-57.009222989406
 31
0.0
  0
LINE
  5
47E
330
47A
100
AcDbEntity
  8
0
  6
CONTINUOUS
 62
     0
100
AcDbLine
 10
8.556735900243269
 20
-57.009222989406
 30
0.0
 11
4.981735979716043
 21
-57.009222989406
 31
0.0
  0
SOLID
  5
47F
330
47A
100
AcDbEntity
  8
0
  6
CONTINUOUS
 62
     0
100
AcDbTrace
 10
0.4167360591888191
 20
-56.979222989406
 30
0.0
 11
0.4167360591888191
 21
-57.039222989406
 31
0.0
 12
0.2367360591888191
 22
-57.009222989406
 32
0.0
 13
0.2367360591888191
 23
-57.009222989406
 33
0.0
  0
SOLID
  5
480
330
47A
100
AcDbEntity
  8
0
  6
CONTINUOUS
 62
     0
100
AcDbTrace
 10
8.556735900243269
 20
-56.979222989406
 30
0.0
 11
8.556735900243269
 21
-57.039222989406
 31
0.0
 12
8.736735900243269
 22
-57.009222989406
 32
0.0
 13
8.736735900243269
 23
-57.009222989406
 33
0.0
  0
MTEXT
  5
481
330
47A
100
AcDbEntity
  8
0
  6
CONTINUOUS
 62
     0
100
AcDbMText
 10
4.486735979716044
 20
-57.009222989406
 30
0.0
 40
0.18
 41
0.0
 71
     5
 72
     1
  1
\A1;8.5000
1001
ACAD
1000
MTEXTBEGIN
1070
    73
1070
     1
1070
    44
1040
1.0
1070
    74
1070
     0
1000
MTEXTEND
  0
POINT
  5
482
330
47A
100
AcDbEntity
  8
DEFPOINTS
  6
CONTINUOUS
 62
     0
100
AcDbPoint
 10
0.2367360591888192
 20
-54.27374394734823
 30
0.0
  0
POINT
  5
483
330
47A
100
AcDbEntity
  8
DEFPOINTS
  6
CONTINUOUS
 62
     0
100
AcDbPoint
 10
8.736735900243269
 20
-54.27374394734823
 30
0.0
  0
POINT
  5
484
330
47A
100
AcDbEntity
  8
DEFPOINTS
  6
CONTINUOUS
 62
     0
100
AcDbPoint
 10
8.736735900243269
 20
-57.009222989406
 30
0.0
  0
ENDBLK
  5
486
330
47A
100
AcDbEntity
  8
0
100
AcDbBlockEnd
  0
ENDSEC
  0
SECTION
  2
ENTITIES
  0
LINE
  5
28
330
A
100
AcDbEntity
  8
TOP
  6
CONTINUOUS
 62
     3
100
AcDbLine
 10
51.29277936617633
 20
-15.61564556757655
 30
0.0
 11
51.29277936617633
 21
-16.20917272567796
 31
0.0
  0
LINE
  5
2B
330
A
100
AcDbEntity
  8
TOP
  6
CONTINUOUS
 62
     3
100
AcDbLine
 10
47.73028127352488
 20
-47.88529825210681
 30
0.0
 11
47.73028127352488
 21
-48.30292812983305
 31
0.0
  0
LINE
  5
2C
330
A
100
AcDbEntity
  8
TOP
  6
CONTINUOUS
 62
     3
100
AcDbLine
 10
47.82402745882762
 20
-47.89667876561593
 30
0.0
 11
47.90640902519318
 21
-47.89667876561593
 31
0.0
  0
LINE
  5
2D
330
A
100
AcDbEntity
  8
TOP
  6
CONTINUOUS
 62
     3
100
AcDbLine
 10
7.611735979716105
 20
-67.81383307775012
 30
0.0
 11
7.611735979716105
 21
-69.68883228302155
 31
0.0
  0
LINE
  5
2E
330
A
100
AcDbEntity
  8
TOP
  6
CONTINUOUS
 62
     3
100
AcDbLine
 10
3.301736036936479
 20
-66.37883138656762
 30
0.0
 11
2.926735401153594
 21
-66.37883138656762
 31
0.0
  0
LINE
  5
2F
330
A
100
AcDbEntity
  8
TOP
  6
CONTINUOUS
 62
     3
100
AcDbLine
 10
47.91318806012564
 20
-22.12340784072935
 30
0.0
 11
47.87913393974396
 21
-22.04929145177264
 31
0.0
  0
LINE
  5
30
330
A
100
AcDbEntity
  8
TOP
  6
CONTINUOUS
 62
     3
100
AcDbLine
 10
47.73002696037385
 20
-54.53592491150025
 30
0.0
 11
47.73002696037385
 21
-52.25292396545529
 31
0.0
  0
LINE
  5
31
330
A
100
AcDbEntity
  8
TOP
  6
CONTINUOUS
 62
     3
100
AcDbLine
 10
48.10528190930777
 20
2.690824349721177
 30
0.0
 11
47.90640902519318
 21
2.690824349721177
 31
0.0
  0
LINE
  5
32
330
A
100
AcDbEntity
  8
TOP
  6
CONTINUOUS
 62
     3
100
AcDbLine
 10
1.755021333694464
 20
-41.01998758316137
 30
0.0
 11
2.397704442342141
 21
-40.49930524826145
 31
0.0
  0
LINE
  5
33
330
A
100
AcDbEntity
  8
TOP
  6
CONTINUOUS
 62
     3
100
AcDbLine
 10
2.279673337936418
 20
-2.553613503774206
 30
0.0
 11
1.508766730626425
 21
-3.178182760874642
 31
0.0
  0
LINE
  5
34
330
A
100
AcDbEntity
  8
TOP
  6
CONTINUOUS
 62
     3
100
AcDbLine
 10
3.870239178339689
 20
-15.8199941317245
 30
0.0
 11
0.5469861825307037
 21
-15.8199941317245
 31
0.0
  0
LINE
  5
35
330
A
100
AcDbEntity
  8
TOP
  6
CONTINUOUS
 62
     3
100
AcDbLine
 10
8.236736377080417
 20
-46.72723563512273
 30
0.0
 11
8.236736377080417
 21
-46.50374205907293
 31
0.0
  0
LINE
  5
36
330
A
100
AcDbEntity
  8
TOP
  6
CONTINUOUS
 62
     3
100
AcDbLine
 10
8.625358661015971
 20
-28.60749514897736
 30
0.0
 11
8.707736253738548
 21
-28.60749514897736
 31
0.0
  0
LINE
  5
37
330
A
100
AcDbEntity
  8
TOP
  6
CONTINUOUS
 62
     3
100
AcDbLine
 10
47.91778159141633
 20
-16.80292240778653
 30
0.0
 11
47.91778159141633
 21
-16.39668099085537
 31
0.0
  0
LINE
  5
38
330
A
100
AcDbEntity
  8
TOP
  6
CONTINUOUS
 62
     3
100
AcDbLine
 10
47.75773914655141
 20
-48.34980122248443
 30
0.0
 11
47.82402745882762
 21
-48.36921644210926
 31
0.0
  0
LINE
  5
39
330
A
100
AcDbEntity
  8
TOP
  6
CONTINUOUS
 62
     3
100
AcDbLine
 10
54.91002631187545
 20
-46.5095356305451
 30
0.0
 11
54.91002631187545
 21
-46.59792534510402
 31
0.0
  0
LINE
  5
3A
330
A
100
AcDbEntity
  8
TOP
  6
CONTINUOUS
 62
     3
100
AcDbLine
 10
7.671736001968508
 20
2.816256364186512
 30
0.0
 11
7.689309438069786
 21
2.816256364186512
 31
0.0
  0
LINE
  5
3B
330
A
100
AcDbEntity
  8
TOP
  6
CONTINUOUS
 62
     3
100
AcDbLine
 10
7.671736001968508
 20
-47.58374643325915
 30
0.0
 11
7.689309438069786
 21
-47.58374643325915
 31
0.0
  0
LINE
  5
3C
330
A
100
AcDbEntity
  8
TOP
  6
CONTINUOUS
 62
     3
100
AcDbLine
 10
5.696521520614709
 20
-22.11998256047625
 30
0.0
 11
6.339204629262385
 21
-21.59930817286231
 31
0.0
  0
LINE
  5
3D
330
A
100
AcDbEntity
  8
TOP
  6
CONTINUOUS
 62
     3
100
AcDbLine
 10
51.29227868716021
 20
-34.51564264297569
 30
0.0
 11
51.29227868716021
 21
-35.1091698010771
 31
0.0
  0
LINE
  5
3E
330
A
100
AcDbEntity
  8
TOP
  6
CONTINUOUS
 62
     3
100
AcDbLine
 10
4.553026278813741
 20
-35.38003714879439
 30
0.0
 11
4.970650196075509
 21
-34.96240727106814
 31
0.0
  0
LINE
  5
3F
330
A
100
AcDbEntity
  8
TOP
  6
CONTINUOUS
 62
     3
100
AcDbLine
 10
51.30365125338336
 20
-47.89667876561593
 30
0.0
 11
51.38603281974892
 21
-47.89667876561593
 31
0.0
  0
LINE
  5
40
330
A
100
AcDbEntity
  8
TOP
  6
CONTINUOUS
 62
     3
100
AcDbLine
 10
7.671736001968508
 20
-67.68883021672717
 30
0.0
 11
7.671736001968508
 21
-67.72544336319119
 31
0.0
  0
LINE
  5
41
330
A
100
AcDbEntity
  8
TOP
  6
CONTINUOUS
 62
     3
100
AcDbLine
 10
47.76892892519724
 20
-34.64929215113405
 30
0.0
 11
47.73486685752961
 21
-34.72340854009076
 31
0.0
  0
LINE
  5
42
330
A
100
AcDbEntity
  8
TOP
  6
CONTINUOUS
 62
     3
100
AcDbLine
 10
52.79003214836222
 20
-22.89792648951272
 30
0.0
 11
52.79003214836222
 21
-46.34792757034409
 31
0.0
  0
LINE
  5
43
330
A
100
AcDbEntity
  8
TOP
  6
CONTINUOUS
 62
     3
100
AcDbLine
 10
47.73028127352488
 20
-23.10292673111022
 30
0.0
 11
47.75773914655141
 21
-23.14979982376159
 31
0.0
  0
LINE
  5
44
330
A
100
AcDbEntity
  8
TOP
  6
CONTINUOUS
 62
     3
100
AcDbLine
 10
4.486735979716043
 20
-47.91374158859363
 30
0.0
 11
4.553026278813741
 21
-47.9800378481558
 31
0.0
  0
LINE
  5
45
330
A
100
AcDbEntity
  8
TOP
  6
CONTINUOUS
 62
     3
100
AcDbLine
 10
0.7367355823516709
 20
-46.72723563512273
 30
0.0
 11
0.7367355823516709
 21
-46.50374205907293
 31
0.0
  0
LINE
  5
46
330
A
100
AcDbEntity
  8
TOP
  6
CONTINUOUS
 62
     3
100
AcDbLine
 10
51.29277936617633
 20
-9.252929210663173
 30
0.0
 11
51.29277936617633
 21
-9.269070148468349
 31
0.0
  0
LINE
  5
47
330
A
100
AcDbEntity
  8
TOP
  6
CONTINUOUS
 62
     3
100
AcDbLine
 10
4.838067611058621
 20
-28.52982632319204
 30
0.0
 11
4.420443693796853
 21
-28.94744825363231
 31
0.0
  0
LINE
  5
48
330
A
100
AcDbEntity
  8
TOP
  6
CONTINUOUS
 62
     3
100
AcDbLine
 10
51.30365125338336
 20
-3.609172026316544
 30
0.0
 11
51.10477836926877
 21
-3.609172026316544
 31
0.0
  0
LINE
  5
49
330
A
100
AcDbEntity
  8
TOP
  6
CONTINUOUS
 62
     3
100
AcDbLine
 10
6.575266838073832
 20
-34.19930887222373
 30
0.0
 11
7.21794994672151
 21
-34.71998325983767
 31
0.0
  0
LINE
  5
4A
330
A
100
AcDbEntity
  8
TOP
  6
CONTINUOUS
 62
     3
100
AcDbLine
 10
6.221173524856663
 20
-2.553613503774206
 30
0.0
 11
5.45026691754667
 21
-3.178182760874642
 31
0.0
  0
LINE
  5
4B
330
A
100
AcDbEntity
  8
TOP
  6
CONTINUOUS
 62
     3
100
AcDbLine
 10
4.838067611058621
 20
-9.629829247792901
 30
0.0
 11
4.420443693796853
 21
-10.04745117823317
 31
0.0
  0
LINE
  5
4C
330
A
100
AcDbEntity
  8
TOP
  6
CONTINUOUS
 62
     3
100
AcDbLine
 10
47.73028127352488
 20
-9.502926985423107
 30
0.0
 11
47.73028127352488
 21
-9.920548915863383
 31
0.0
  0
LINE
  5
4D
330
A
100
AcDbEntity
  8
TOP
  6
CONTINUOUS
 62
     3
100
AcDbLine
 10
48.10528190930777
 20
-28.80917342503937
 30
0.0
 11
47.90640902519318
 21
-28.80917342503937
 31
0.0
  0
LINE
  5
4E
330
A
100
AcDbEntity
  8
TOP
  6
CONTINUOUS
 62
     3
100
AcDbLine
 10
8.825123627980698
 20
-69.74883031845246
 30
0.0
 11
8.861734787623236
 21
-69.74883031845246
 31
0.0
  0
LINE
  5
4F
330
A
100
AcDbEntity
  8
TOP
  6
CONTINUOUS
 62
     3
100
AcDbLine
 10
47.82402745882762
 20
-48.36921644210926
 30
0.0
 11
47.8903237183898
 21
-48.34980122248443
 31
0.0
  0
LINE
  5
50
330
A
100
AcDbEntity
  8
TOP
  6
CONTINUOUS
 62
     3
100
AcDbLine
 10
47.87913393974396
 20
-9.449290752411224
 30
0.0
 11
47.76892892519724
 21
-9.449290752411224
 31
0.0
  0
LINE
  5
51
330
A
100
AcDbEntity
  8
TOP
  6
CONTINUOUS
 62
     3
100
AcDbLine
 10
4.486735979716043
 20
-22.71374018987079
 30
0.0
 11
4.553026278813741
 21
-22.78003644943297
 31
0.0
  0
LINE
  5
52
330
A
100
AcDbEntity
  8
TOP
  6
CONTINUOUS
 62
     3
100
AcDbLine
 10
54.91002631187545
 20
-47.84792216618966
 30
0.0
 11
54.91002631187545
 21
-47.93631188074857
 31
0.0
  0
LINE
  5
53
330
A
100
AcDbEntity
  8
TOP
  6
CONTINUOUS
 62
     3
100
AcDbLine
 10
7.551735957463704
 20
7.456255435943603
 30
0.0
 11
1.421736001968383
 21
7.456255435943603
 31
0.0
  0
LINE
  5
54
330
A
100
AcDbEntity
  8
TOP
  6
CONTINUOUS
 62
     3
100
AcDbLine
 10
8.625358661015971
 20
-34.90749152501508
 30
0.0
 11
8.707736253738548
 21
-34.90749152501508
 31
0.0
  0
LINE
  5
55
330
A
100
AcDbEntity
  8
TOP
  6
CONTINUOUS
 62
     3
100
AcDbLine
 10
51.29277936617633
 20
-47.1156433423371
 30
0.0
 11
51.29277936617633
 21
-47.70917050043851
 31
0.0
  0
LINE
  5
56
330
A
100
AcDbEntity
  8
TOP
  6
CONTINUOUS
 62
     3
100
AcDbLine
 10
47.73028127352488
 20
-9.981512546539653
 30
0.0
 11
47.73028127352488
 21
-10.00292253494297
 31
0.0
  0
LINE
  5
57
330
A
100
AcDbEntity
  8
TOP
  6
CONTINUOUS
 62
     3
100
AcDbLine
 10
7.464204549789548
 20
-15.77818346023605
 30
0.0
 11
6.693297942479556
 21
-15.15361420313562
 31
0.0
  0
LINE
  5
58
330
A
100
AcDbEntity
  8
TOP
  6
CONTINUOUS
 62
     3
100
AcDbLine
 10
0.5469861825307037
 20
-34.90749152501508
 30
0.0
 11
3.870239178339689
 21
-34.90749152501508
 31
0.0
  0
LINE
  5
59
330
A
100
AcDbEntity
  8
TOP
  6
CONTINUOUS
 62
     3
100
AcDbLine
 10
51.10477836926877
 20
2.503324031829735
 30
0.0
 11
51.30365125338336
 21
2.503324031829735
 31
0.0
  0
LINE
  5
5A
330
A
100
AcDbEntity
  8
TOP
  6
CONTINUOUS
 62
     3
100
AcDbLine
 10
47.73028127352488
 20
-41.58530187606909
 30
0.0
 11
47.73028127352488
 21
-42.00292380650936
 31
0.0
  0
LINE
  5
5B
330
A
100
AcDbEntity
  8
TOP
  6
CONTINUOUS
 62
     3
100
AcDbLine
 10
47.73028127352488
 20
-41.42054669062393
 30
0.0
 11
47.73028127352488
 21
-41.48151826858618
 31
0.0
  0
LINE
  5
5C
330
A
100
AcDbEntity
  8
TOP
  6
CONTINUOUS
 62
     3
100
AcDbLine
 10
7.671736001968508
 20
-66.49883143107243
 30
0.0
 11
7.671736001968508
 21
-67.56383132934719
 31
0.0
  0
LINE
  5
5D
330
A
100
AcDbEntity
  8
TOP
  6
CONTINUOUS
 62
     3
100
AcDbLine
 10
1.241735935211178
 20
-47.58374643325915
 30
0.0
 11
1.284162521362302
 21
-47.58374643325915
 31
0.0
  0
LINE
  5
5E
330
A
100
AcDbEntity
  8
TOP
  6
CONTINUOUS
 62
     3
100
AcDbLine
 10
0.1719855467478186
 20
-63.00407997767271
 30
0.0
 11
0.1719855467478186
 21
-66.00358041127669
 31
0.0
  0
LINE
  5
5F
330
A
100
AcDbEntity
  8
TOP
  6
CONTINUOUS
 62
     3
100
AcDbLine
 10
54.79003024101363
 20
-47.97292502721261
 30
0.0
 11
52.91502706209922
 21
-47.97292502721261
 31
0.0
  0
LINE
  5
60
330
A
100
AcDbEntity
  8
TOP
  6
CONTINUOUS
 62
     3
100
AcDbLine
 10
0.2367360591888192
 20
-46.08374389012761
 30
0.0
 11
1.241735935211178
 21
-46.08374389012761
 31
0.0
  0
LINE
  5
61
330
A
100
AcDbEntity
  8
TOP
  6
CONTINUOUS
 62
     3
100
AcDbLine
 10
51.4800333182027
 20
-50.00292412440096
 30
0.0
 11
51.4800333182027
 21
-50.07615041732902
 31
0.0
  0
LINE
  5
62
330
A
100
AcDbEntity
  8
TOP
  6
CONTINUOUS
 62
     3
100
AcDbLine
 10
0.11173518498736
 20
-46.20873880386459
 30
0.0
 11
0.11173518498736
 21
-47.4587435722362
 31
0.0
  0
LINE
  5
63
330
A
100
AcDbEntity
  8
TOP
  6
CONTINUOUS
 62
     3
100
AcDbLine
 10
47.76892892519724
 20
-9.449290752411224
 30
0.0
 11
47.73486685752961
 21
-9.523407141367933
 31
0.0
  0
LINE
  5
64
330
A
100
AcDbEntity
  8
TOP
  6
CONTINUOUS
 62
     3
100
AcDbLine
 10
51.29227868716021
 20
-47.05292336146145
 30
0.0
 11
51.29227868716021
 21
-47.06906429926663
 31
0.0
  0
LINE
  5
65
330
A
100
AcDbEntity
  8
TOP
  6
CONTINUOUS
 62
     3
100
AcDbLine
 10
51.38603281974892
 20
2.690824349721177
 30
0.0
 11
51.30365125338336
 21
2.690824349721177
 31
0.0
  0
LINE
  5
66
330
A
100
AcDbEntity
  8
TOP
  6
CONTINUOUS
 62
     3
100
AcDbLine
 10
51.10477836926877
 20
-3.796672344207987
 30
0.0
 11
51.30365125338336
 21
-3.796672344207987
 31
0.0
  0
LINE
  5
67
330
A
100
AcDbEntity
  8
TOP
  6
CONTINUOUS
 62
     3
100
AcDbLine
 10
2.633766651153588
 20
-34.19930887222373
 30
0.0
 11
3.276449759801265
 21
-34.71998325983767
 31
0.0
  0
LINE
  5
68
330
A
100
AcDbEntity
  8
TOP
  6
CONTINUOUS
 62
     3
100
AcDbLine
 10
3.522704362869304
 20
3.121821562449051
 30
0.0
 11
2.751797755559311
 21
3.746382872263516
 31
0.0
  0
LINE
  5
69
330
A
100
AcDbEntity
  8
TOP
  6
CONTINUOUS
 62
     3
100
AcDbLine
 10
8.426485776901383
 20
-9.51998980840081
 30
0.0
 11
5.103232781092398
 21
-9.51998980840081
 31
0.0
  0
LINE
  5
6A
330
A
100
AcDbEntity
  8
TOP
  6
CONTINUOUS
 62
     3
100
AcDbLine
 10
47.91778159141633
 20
-10.50292603174881
 30
0.0
 11
47.91778159141633
 21
-10.09668461481765
 31
0.0
  0
LINE
  5
6B
330
A
100
AcDbEntity
  8
TOP
  6
CONTINUOUS
 62
     3
100
AcDbLine
 10
51.30365125338336
 20
-28.80917342503937
 30
0.0
 11
51.10477836926877
 21
-28.80917342503937
 31
0.0
  0
LINE
  5
6C
330
A
100
AcDbEntity
  8
TOP
  6
CONTINUOUS
 62
     3
100
AcDbLine
 10
7.73173602422091
 20
-69.80883232752636
 30
0.0
 11
8.736735900243269
 21
-69.80883232752636
 31
0.0
  0
LINE
  5
6D
330
A
100
AcDbEntity
  8
TOP
  6
CONTINUOUS
 62
     3
100
AcDbLine
 10
47.75773914655141
 20
-10.54979912440017
 30
0.0
 11
47.82402745882762
 21
-10.56921434402501
 31
0.0
  0
LINE
  5
6E
330
A
100
AcDbEntity
  8
TOP
  6
CONTINUOUS
 62
     3
100
AcDbLine
 10
54.79003024101363
 20
-47.97292502721261
 30
0.0
 11
54.83245285352177
 21
-47.97292502721261
 31
0.0
  0
LINE
  5
6F
330
A
100
AcDbEntity
  8
TOP
  6
CONTINUOUS
 62
     3
100
AcDbLine
 10
7.671736001968508
 20
-9.520546118418712
 30
0.0
 11
7.671736001968508
 21
-3.40759706497214
 31
0.0
  0
LINE
  5
70
330
A
100
AcDbEntity
  8
TOP
  6
CONTINUOUS
 62
     3
100
AcDbLine
 10
0.11173518498736
 20
-21.00874535242773
 30
0.0
 11
0.11173518498736
 21
-22.25874217351337
 31
0.0
  0
LINE
  5
71
330
A
100
AcDbEntity
  8
TOP
  6
CONTINUOUS
 62
     3
100
AcDbLine
 10
0.3481113115946238
 20
-3.219993432363086
 30
0.0
 11
0.2657357056935398
 21
-3.219993432363086
 31
0.0
  0
LINE
  5
72
330
A
100
AcDbEntity
  8
TOP
  6
CONTINUOUS
 62
     3
100
AcDbLine
 10
54.83245285352177
 20
2.427077770233054
 30
0.0
 11
54.85003225008753
 21
2.427077770233054
 31
0.0
  0
LINE
  5
73
330
A
100
AcDbEntity
  8
TOP
  6
CONTINUOUS
 62
     3
100
AcDbLine
 10
47.82402745882762
 20
-23.16921504338643
 30
0.0
 11
47.8903237183898
 21
-23.14979982376159
 31
0.0
  0
LINE
  5
74
330
A
100
AcDbEntity
  8
TOP
  6
CONTINUOUS
 62
     3
100
AcDbLine
 10
47.82402745882762
 20
-16.3966730435694
 30
0.0
 11
47.90640902519318
 21
-16.3966730435694
 31
0.0
  0
LINE
  5
75
330
A
100
AcDbEntity
  8
TOP
  6
CONTINUOUS
 62
     3
100
AcDbLine
 10
3.93125049273178
 20
-16.00749444961594
 30
0.0
 11
4.760402758916285
 21
-16.00749444961594
 31
0.0
  0
LINE
  5
76
330
A
100
AcDbEntity
  8
TOP
  6
CONTINUOUS
 62
     3
100
AcDbLine
 10
4.135404348373467
 20
-34.79766003290896
 30
0.0
 11
4.553026278813741
 21
-34.38003015518271
 31
0.0
  0
LINE
  5
77
330
A
100
AcDbEntity
  8
TOP
  6
CONTINUOUS
 62
     3
100
AcDbLine
 10
51.10477836926877
 20
-41.40917412440079
 30
0.0
 11
48.10528190930777
 21
-41.40917412440079
 31
0.0
  0
LINE
  5
78
330
A
100
AcDbEntity
  8
TOP
  6
CONTINUOUS
 62
     3
100
AcDbLine
 10
47.90640902519318
 20
-41.40917412440079
 30
0.0
 11
47.82402745882762
 21
-41.40917412440079
 31
0.0
  0
LINE
  5
79
330
A
100
AcDbEntity
  8
TOP
  6
CONTINUOUS
 62
     3
100
AcDbLine
 10
47.8903237183898
 20
-35.74980052312301
 30
0.0
 11
47.91778159141633
 21
-35.70292743047164
 31
0.0
  0
LINE
  5
7A
330
A
100
AcDbEntity
  8
TOP
  6
CONTINUOUS
 62
     3
100
AcDbLine
 10
4.420443693796853
 20
3.552548567453942
 30
0.0
 11
4.486735979716043
 21
3.486260255177736
 31
0.0
  0
LINE
  5
7B
330
A
100
AcDbEntity
  8
TOP
  6
CONTINUOUS
 62
     3
100
AcDbLine
 10
51.41652655601601
 20
-54.53592491150025
 30
0.0
 11
51.41652655601601
 21
-50.25292587280389
 31
0.0
  0
LINE
  5
7C
330
A
100
AcDbEntity
  8
TOP
  6
CONTINUOUS
 62
     3
100
AcDbLine
 10
8.625358661015971
 20
-15.8199941317245
 30
0.0
 11
8.426485776901383
 21
-15.8199941317245
 31
0.0
  0
LINE
  5
7D
330
A
100
AcDbEntity
  8
TOP
  6
CONTINUOUS
 62
     3
100
AcDbLine
 10
47.8903237183898
 20
-4.249802748362456
 30
0.0
 11
47.91778159141633
 21
-4.202921708425117
 31
0.0
  0
LINE
  5
7E
330
A
100
AcDbEntity
  8
TOP
  6
CONTINUOUS
 62
     3
100
AcDbLine
 10
47.73028127352488
 20
2.57566817601512
 30
0.0
 11
47.73028127352488
 21
2.51469659805288
 31
0.0
  0
LINE
  5
7F
330
A
100
AcDbEntity
  8
TOP
  6
CONTINUOUS
 62
     3
100
AcDbLine
 10
2.279673337936418
 20
-34.05361922582073
 30
0.0
 11
1.508766730626425
 21
-34.6781805356352
 31
0.0
  0
LINE
  5
80
330
A
100
AcDbEntity
  8
TOP
  6
CONTINUOUS
 62
     3
100
AcDbLine
 10
5.103222846984936
 20
3.080010890960606
 30
0.0
 11
4.213071187337295
 21
3.080010890960606
 31
0.0
  0
LINE
  5
81
330
A
100
AcDbEntity
  8
TOP
  6
CONTINUOUS
 62
     3
100
AcDbLine
 10
4.420443693796853
 20
-9.047452131907473
 30
0.0
 11
4.002821763356577
 21
-9.465074062347749
 31
0.0
  0
LINE
  5
82
330
A
100
AcDbEntity
  8
TOP
  6
CONTINUOUS
 62
     3
100
AcDbLine
 10
3.93125049273178
 20
-47.5074922243765
 30
0.0
 11
4.760402758916285
 21
-47.5074922243765
 31
0.0
  0
LINE
  5
83
330
A
100
AcDbEntity
  8
TOP
  6
CONTINUOUS
 62
     3
100
AcDbLine
 10
47.73028127352488
 20
-3.202922662099414
 30
0.0
 11
47.73028127352488
 21
-3.620552539825659
 31
0.0
  0
LINE
  5
84
330
A
100
AcDbEntity
  8
TOP
  6
CONTINUOUS
 62
     3
100
AcDbLine
 10
51.10477836926877
 20
-28.99667374293082
 30
0.0
 11
51.30365125338336
 21
-28.99667374293082
 31
0.0
  0
LINE
  5
85
330
A
100
AcDbEntity
  8
TOP
  6
CONTINUOUS
 62
     3
100
AcDbLine
 10
54.91002631187545
 20
-22.77292362848978
 30
0.0
 11
54.85003225008753
 21
-22.77292362848978
 31
0.0
  0
LINE
  5
86
330
A
100
AcDbEntity
  8
TOP
  6
CONTINUOUS
 62
     3
100
AcDbLine
 10
47.82402745882762
 20
-10.56921434402501
 30
0.0
 11
47.8903237183898
 21
-10.54979912440017
 31
0.0
  0
LINE
  5
87
330
A
100
AcDbEntity
  8
TOP
  6
CONTINUOUS
 62
     3
100
AcDbLine
 10
54.85003225008753
 20
-22.73631048202574
 30
0.0
 11
54.85003225008753
 21
-22.64792871475279
 31
0.0
  0
LINE
  5
88
330
A
100
AcDbEntity
  8
TOP
  6
CONTINUOUS
 62
     3
100
AcDbLine
 10
7.671736001968508
 20
-28.41940673192413
 30
0.0
 11
7.671736001968508
 21
-22.30738751093605
 31
0.0
  0
LINE
  5
89
330
A
100
AcDbEntity
  8
TOP
  6
CONTINUOUS
 62
     3
100
AcDbLine
 10
0.2657357056935398
 20
-3.407493750254529
 30
0.0
 11
0.3481113115946238
 21
-3.407493750254529
 31
0.0
  0
LINE
  5
8A
330
A
100
AcDbEntity
  8
TOP
  6
CONTINUOUS
 62
     3
100
AcDbLine
 10
7.671736001968508
 20
-22.38374503453631
 30
0.0
 11
7.689309438069786
 21
-22.38374503453631
 31
0.0
  0
LINE
  5
8B
330
A
100
AcDbEntity
  8
TOP
  6
CONTINUOUS
 62
     3
100
AcDbLine
 10
47.73028127352488
 20
2.679451783498033
 30
0.0
 11
47.73028127352488
 21
2.618480205535792
 31
0.0
  0
LINE
  5
8C
330
A
100
AcDbEntity
  8
TOP
  6
CONTINUOUS
 62
     3
100
AcDbLine
 10
1.30173595746358
 20
-46.08374389012761
 30
0.0
 11
1.284162521362302
 21
-46.08374389012761
 31
0.0
  0
LINE
  5
8D
330
A
100
AcDbEntity
  8
TOP
  6
CONTINUOUS
 62
     3
100
AcDbLine
 10
8.486736138661843
 20
-46.72723563512273
 30
0.0
 11
8.486736138661843
 21
-46.50374205907293
 31
0.0
  0
LINE
  5
8E
330
A
100
AcDbEntity
  8
TOP
  6
CONTINUOUS
 62
     3
100
AcDbLine
 10
51.30365125338336
 20
-16.3966730435694
 30
0.0
 11
51.38603281974892
 21
-16.3966730435694
 31
0.0
  0
LINE
  5
8F
330
A
100
AcDbEntity
  8
TOP
  6
CONTINUOUS
 62
     3
100
AcDbLine
 10
47.73028127352488
 20
2.618480205535792
 30
0.0
 11
47.73028127352488
 21
2.597078164418441
 31
0.0
  0
LINE
  5
90
330
A
100
AcDbEntity
  8
TOP
  6
CONTINUOUS
 62
     3
100
AcDbLine
 10
1.755021333694464
 20
-15.81998618443853
 30
0.0
 11
2.397704442342141
 21
-15.29930384953862
 31
0.0
  0
LINE
  5
91
330
A
100
AcDbEntity
  8
TOP
  6
CONTINUOUS
 62
     3
100
AcDbLine
 10
5.103232781092398
 20
-28.60749514897736
 30
0.0
 11
8.426485776901383
 21
-28.60749514897736
 31
0.0
  0
LINE
  5
92
330
A
100
AcDbEntity
  8
TOP
  6
CONTINUOUS
 62
     3
100
AcDbLine
 10
47.91318806012564
 20
-3.223410765330209
 30
0.0
 11
47.87913393974396
 21
-3.149294376373501
 31
0.0
  0
LINE
  5
93
330
A
100
AcDbEntity
  8
TOP
  6
CONTINUOUS
 62
     3
100
AcDbLine
 10
0.2367360591888192
 20
-54.14674234390381
 30
0.0
 11
0.2367360591888192
 21
-51.86374139785884
 31
0.0
  0
LINE
  5
94
330
A
100
AcDbEntity
  8
TOP
  6
CONTINUOUS
 62
     3
100
AcDbLine
 10
47.73028127352488
 20
-35.2852975527454
 30
0.0
 11
47.73028127352488
 21
-35.70292743047164
 31
0.0
  0
LINE
  5
95
330
A
100
AcDbEntity
  8
TOP
  6
CONTINUOUS
 62
     3
100
AcDbLine
 10
47.82402745882762
 20
-41.59667444229223
 30
0.0
 11
47.90640902519318
 21
-41.59667444229223
 31
0.0
  0
LINE
  5
96
330
A
100
AcDbEntity
  8
TOP
  6
CONTINUOUS
 62
     3
100
AcDbLine
 10
1.361735979715981
 20
-67.68883021672717
 30
0.0
 11
1.361735979715981
 21
-67.72544336319119
 31
0.0
  0
LINE
  5
97
330
A
100
AcDbEntity
  8
TOP
  6
CONTINUOUS
 62
     3
100
AcDbLine
 10
0.4867358207702451
 20
3.672767162322922
 30
0.0
 11
0.4867358207702451
 21
3.896260738372732
 31
0.0
  0
LINE
  5
98
330
A
100
AcDbEntity
  8
TOP
  6
CONTINUOUS
 62
     3
100
AcDbLine
 10
51.35302774111529
 20
-54.59942372640097
 30
0.0
 11
47.85703253746125
 21
-54.59942372640097
 31
0.0
  0
LINE
  5
99
330
A
100
AcDbEntity
  8
TOP
  6
CONTINUOUS
 62
     3
100
AcDbLine
 10
51.29227868716021
 20
-2.969065825144657
 30
0.0
 11
51.29227868716021
 21
-3.015644868215133
 31
0.0
  0
LINE
  5
9A
330
A
100
AcDbEntity
  8
TOP
  6
CONTINUOUS
 62
     3
100
AcDbLine
 10
51.30365125338336
 20
-3.796672344207987
 30
0.0
 11
51.38603281974892
 21
-3.796672344207987
 31
0.0
  0
LINE
  5
9B
330
A
100
AcDbEntity
  8
TOP
  6
CONTINUOUS
 62
     3
100
AcDbLine
 10
51.29227868716021
 20
-47.06906429926663
 30
0.0
 11
51.29227868716021
 21
-47.1156433423371
 31
0.0
  0
LINE
  5
9C
330
A
100
AcDbEntity
  8
TOP
  6
CONTINUOUS
 62
     3
100
AcDbLine
 10
6.221173524856663
 20
-34.05361922582073
 30
0.0
 11
5.45026691754667
 21
-34.6781805356352
 31
0.0
  0
LINE
  5
9D
330
A
100
AcDbEntity
  8
TOP
  6
CONTINUOUS
 62
     3
100
AcDbLine
 10
5.696521520614709
 20
3.080010890960606
 30
0.0
 11
6.339204629262385
 21
3.600693225860518
 31
0.0
  0
LINE
  5
9E
330
A
100
AcDbEntity
  8
TOP
  6
CONTINUOUS
 62
     3
100
AcDbLine
 10
4.553026278813741
 20
-3.880031426747865
 30
0.0
 11
4.970650196075509
 21
-3.46240949630759
 31
0.0
  0
LINE
  5
9F
330
A
100
AcDbEntity
  8
TOP
  6
CONTINUOUS
 62
     3
100
AcDbLine
 10
47.73486685752961
 20
-3.223410765330209
 30
0.0
 11
47.82402745882762
 21
-3.26921892166159
 31
0.0
  0
LINE
  5
A0
330
A
100
AcDbEntity
  8
TOP
  6
CONTINUOUS
 62
     3
100
AcDbLine
 10
47.91778159141633
 20
-4.202921708425117
 30
0.0
 11
47.91778159141633
 21
-3.796680291493957
 31
0.0
  0
LINE
  5
A1
330
A
100
AcDbEntity
  8
TOP
  6
CONTINUOUS
 62
     3
100
AcDbLine
 10
47.73028127352488
 20
-22.62433322270771
 30
0.0
 11
47.73028127352488
 21
-22.68530480066995
 31
0.0
  0
LINE
  5
A2
330
A
100
AcDbEntity
  8
TOP
  6
CONTINUOUS
 62
     3
100
AcDbLine
 10
0.2367360591888192
 20
-62.66603024800758
 30
0.0
 11
0.2367360591888192
 21
-62.62883297602475
 31
0.0
  0
LINE
  5
A3
330
A
100
AcDbEntity
  8
TOP
  6
CONTINUOUS
 62
     3
100
AcDbLine
 10
54.91002631187545
 20
-47.97292502721261
 30
0.0
 11
54.85003225008753
 21
-47.97292502721261
 31
0.0
  0
LINE
  5
A4
330
A
100
AcDbEntity
  8
TOP
  6
CONTINUOUS
 62
     3
100
AcDbLine
 10
54.85003225008753
 20
-21.39792394638118
 30
0.0
 11
54.85003225008753
 21
-21.30953423182226
 31
0.0
  0
LINE
  5
A5
330
A
100
AcDbEntity
  8
TOP
  6
CONTINUOUS
 62
     3
100
AcDbLine
 10
7.671736001968508
 20
-47.31919717788804
 30
0.0
 11
7.671736001968508
 21
-41.20717795689997
 31
0.0
  0
LINE
  5
A6
330
A
100
AcDbEntity
  8
TOP
  6
CONTINUOUS
 62
     3
100
AcDbLine
 10
47.82402745882762
 20
-3.796672344207987
 30
0.0
 11
47.90640902519318
 21
-3.796672344207987
 31
0.0
  0
LINE
  5
A7
330
A
100
AcDbEntity
  8
TOP
  6
CONTINUOUS
 62
     3
100
AcDbLine
 10
51.38603281974892
 20
-16.20917272567796
 30
0.0
 11
51.30365125338336
 21
-16.20917272567796
 31
0.0
  0
LINE
  5
A8
330
A
100
AcDbEntity
  8
TOP
  6
CONTINUOUS
 62
     3
100
AcDbLine
 10
47.73028127352488
 20
-9.920548915863383
 30
0.0
 11
47.73028127352488
 21
-9.981512546539653
 31
0.0
  0
LINE
  5
A9
330
A
100
AcDbEntity
  8
TOP
  6
CONTINUOUS
 62
     3
100
AcDbLine
 10
6.575266838073832
 20
-8.999307473500897
 30
0.0
 11
7.21794994672151
 21
-9.519981861114839
 31
0.0
  0
LINE
  5
AA
330
A
100
AcDbEntity
  8
TOP
  6
CONTINUOUS
 62
     3
100
AcDbLine
 10
47.73486685752961
 20
-28.42341216405304
 30
0.0
 11
47.82402745882762
 21
-28.46922032038442
 31
0.0
  0
LINE
  5
AB
330
A
100
AcDbEntity
  8
TOP
  6
CONTINUOUS
 62
     3
100
AcDbLine
 10
51.10477836926877
 20
-35.10917774836307
 30
0.0
 11
48.10528190930777
 21
-35.10917774836307
 31
0.0
  0
LINE
  5
AC
330
A
100
AcDbEntity
  8
TOP
  6
CONTINUOUS
 62
     3
100
AcDbLine
 10
51.30365125338336
 20
-41.59667444229223
 30
0.0
 11
51.38603281974892
 21
-41.59667444229223
 31
0.0
  0
LINE
  5
AD
330
A
100
AcDbEntity
  8
TOP
  6
CONTINUOUS
 62
     3
100
AcDbLine
 10
1.30173595746358
 20
-67.65222104390611
 30
0.0
 11
1.30173595746358
 21
-67.56383132934719
 31
0.0
  0
LINE
  5
AE
330
A
100
AcDbEntity
  8
TOP
  6
CONTINUOUS
 62
     3
100
AcDbLine
 10
47.76892892519724
 20
-40.94929647445775
 30
0.0
 11
47.73486685752961
 21
-41.02341286341445
 31
0.0
  0
LINE
  5
AF
330
A
100
AcDbEntity
  8
TOP
  6
CONTINUOUS
 62
     3
100
AcDbLine
 10
4.420443693796853
 20
-2.74744780858378
 30
0.0
 11
4.486735979716043
 21
-2.813744068145956
 31
0.0
  0
LINE
  5
B0
330
A
100
AcDbEntity
  8
TOP
  6
CONTINUOUS
 62
     3
100
AcDbLine
 10
48.10528190930777
 20
-3.609172026316544
 30
0.0
 11
47.90640902519318
 21
-3.609172026316544
 31
0.0
  0
LINE
  5
B1
330
A
100
AcDbEntity
  8
TOP
  6
CONTINUOUS
 62
     3
100
AcDbLine
 10
1.284162521362302
 20
4.316258907318053
 30
0.0
 11
1.241735935211178
 21
4.316258907318053
 31
0.0
  0
LINE
  5
B2
330
A
100
AcDbEntity
  8
TOP
  6
CONTINUOUS
 62
     3
100
AcDbLine
 10
51.4800333182027
 20
6.379573027292866
 30
0.0
 11
51.4800333182027
 21
6.317075570424375
 31
0.0
  0
LINE
  5
B3
330
A
100
AcDbEntity
  8
TOP
  6
CONTINUOUS
 62
     3
100
AcDbLine
 10
51.29227868716021
 20
-2.952924887339481
 30
0.0
 11
51.29227868716021
 21
-2.969065825144657
 31
0.0
  0
LINE
  5
B4
330
A
100
AcDbEntity
  8
TOP
  6
CONTINUOUS
 62
     3
100
AcDbLine
 10
47.90640902519318
 20
-3.609172026316544
 30
0.0
 11
47.82402745882762
 21
-3.609172026316544
 31
0.0
  0
LINE
  5
B5
330
A
100
AcDbEntity
  8
TOP
  6
CONTINUOUS
 62
     3
100
AcDbLine
 10
47.8903237183898
 20
2.050201574961236
 30
0.0
 11
47.91778159141633
 21
2.097074667612604
 31
0.0
  0
LINE
  5
B6
330
A
100
AcDbEntity
  8
TOP
  6
CONTINUOUS
 62
     3
100
AcDbLine
 10
51.30365125338336
 20
2.690824349721177
 30
0.0
 11
51.10477836926877
 21
2.690824349721177
 31
0.0
  0
LINE
  5
B7
330
A
100
AcDbEntity
  8
TOP
  6
CONTINUOUS
 62
     3
100
AcDbLine
 10
3.522704362869304
 20
-28.37818415959747
 30
0.0
 11
2.751797755559311
 21
-27.75361490249704
 31
0.0
  0
LINE
  5
B8
330
A
100
AcDbEntity
  8
TOP
  6
CONTINUOUS
 62
     3
100
AcDbLine
 10
4.553026278813741
 20
-47.9800378481558
 30
0.0
 11
4.970650196075509
 21
-47.56240797042956
 31
0.0
  0
LINE
  5
B9
330
A
100
AcDbEntity
  8
TOP
  6
CONTINUOUS
 62
     3
100
AcDbLine
 10
0.5469861825307037
 20
-3.407493750254529
 30
0.0
 11
3.870239178339689
 21
-3.407493750254529
 31
0.0
  0
LINE
  5
BA
330
A
100
AcDbEntity
  8
TOP
  6
CONTINUOUS
 62
     3
100
AcDbLine
 10
47.73028127352488
 20
-3.702926158905251
 30
0.0
 11
47.73028127352488
 21
-3.724336147308572
 31
0.0
  0
LINE
  5
BB
330
A
100
AcDbEntity
  8
TOP
  6
CONTINUOUS
 62
     3
100
AcDbLine
 10
47.73028127352488
 20
3.097073713938308
 30
0.0
 11
47.73028127352488
 21
2.679451783498033
 31
0.0
  0
LINE
  5
BC
330
A
100
AcDbEntity
  8
TOP
  6
CONTINUOUS
 62
     3
100
AcDbLine
 10
48.10528190930777
 20
-22.50917704900165
 30
0.0
 11
47.90640902519318
 21
-22.50917704900165
 31
0.0
  0
LINE
  5
BD
330
A
100
AcDbEntity
  8
TOP
  6
CONTINUOUS
 62
     3
100
AcDbLine
 10
8.736735900243269
 20
-62.75583060582619
 30
0.0
 11
8.736735900243269
 21
-62.66603024800758
 31
0.0
  0
LINE
  5
BE
330
A
100
AcDbEntity
  8
TOP
  6
CONTINUOUS
 62
     3
100
AcDbLine
 10
54.85003225008753
 20
2.552072683970036
 30
0.0
 11
54.85003225008753
 21
3.802077452341642
 31
0.0
  0
LINE
  5
BF
330
A
100
AcDbEntity
  8
TOP
  6
CONTINUOUS
 62
     3
100
AcDbLine
 10
47.87913393974396
 20
-15.74929507573491
 30
0.0
 11
47.76892892519724
 21
-15.74929507573491
 31
0.0
  0
LINE
  5
C0
330
A
100
AcDbEntity
  8
TOP
  6
CONTINUOUS
 62
     3
100
AcDbLine
 10
4.486735979716043
 20
-35.31374088923221
 30
0.0
 11
4.553026278813741
 21
-35.38003714879439
 31
0.0
  0
LINE
  5
C1
330
A
100
AcDbEntity
  8
TOP
  6
CONTINUOUS
 62
     3
100
AcDbLine
 10
54.91002631187545
 20
-22.64792871475279
 30
0.0
 11
54.91002631187545
 21
-22.73631048202574
 31
0.0
  0
LINE
  5
C2
330
A
100
AcDbEntity
  8
TOP
  6
CONTINUOUS
 62
     3
100
AcDbLine
 10
47.73028127352488
 20
-3.724336147308572
 30
0.0
 11
47.73028127352488
 21
-3.785299777984842
 31
0.0
  0
LINE
  5
C3
330
A
100
AcDbEntity
  8
TOP
  6
CONTINUOUS
 62
     3
100
AcDbLine
 10
7.551735957463704
 20
7.456255435943603
 30
0.0
 11
7.636589129765952
 21
7.456255435943603
 31
0.0
  0
LINE
  5
C4
330
A
100
AcDbEntity
  8
TOP
  6
CONTINUOUS
 62
     3
100
AcDbLine
 10
8.707736253738548
 20
3.080010890960606
 30
0.0
 11
8.625358661015971
 21
3.080010890960606
 31
0.0
  0
LINE
  5
C5
330
A
100
AcDbEntity
  8
TOP
  6
CONTINUOUS
 62
     3
100
AcDbLine
 10
47.76892892519724
 20
-22.04929145177264
 30
0.0
 11
47.73486685752961
 21
-22.12340784072935
 31
0.0
  0
LINE
  5
C6
330
A
100
AcDbEntity
  8
TOP
  6
CONTINUOUS
 62
     3
100
AcDbLine
 10
7.464204549789548
 20
-47.27818123499662
 30
0.0
 11
6.693297942479556
 21
-46.65361992518215
 31
0.0
  0
LINE
  5
C7
330
A
100
AcDbEntity
  8
TOP
  6
CONTINUOUS
 62
     3
100
AcDbLine
 10
47.90640902519318
 20
-9.909176349640237
 30
0.0
 11
47.82402745882762
 21
-9.909176349640237
 31
0.0
  0
LINE
  5
C8
330
A
100
AcDbEntity
  8
TOP
  6
CONTINUOUS
 62
     3
100
AcDbLine
 10
6.575266838073832
 20
-46.79930162429918
 30
0.0
 11
7.21794994672151
 21
-47.31998395919908
 31
0.0
  0
LINE
  5
C9
330
A
100
AcDbEntity
  8
TOP
  6
CONTINUOUS
 62
     3
100
AcDbLine
 10
2.633766651153588
 20
-8.999307473500897
 30
0.0
 11
3.276449759801265
 21
-9.519981861114839
 31
0.0
  0
LINE
  5
CA
330
A
100
AcDbEntity
  8
TOP
  6
CONTINUOUS
 62
     3
100
AcDbLine
 10
4.838067611058621
 20
-22.22982994715431
 30
0.0
 11
4.420443693796853
 21
-22.64745187759459
 31
0.0
  0
LINE
  5
CB
330
A
100
AcDbEntity
  8
TOP
  6
CONTINUOUS
 62
     3
100
AcDbLine
 10
51.29277936617633
 20
-21.85292196273862
 30
0.0
 11
51.29277936617633
 21
-21.86907084782976
 31
0.0
  0
LINE
  5
CC
330
A
100
AcDbEntity
  8
TOP
  6
CONTINUOUS
 62
     3
100
AcDbLine
 10
47.73028127352488
 20
2.097074667612604
 30
0.0
 11
47.75773914655141
 21
2.050201574961236
 31
0.0
  0
LINE
  5
CD
330
A
100
AcDbEntity
  8
TOP
  6
CONTINUOUS
 62
     3
100
AcDbLine
 10
47.73028127352488
 20
-35.12055031458622
 30
0.0
 11
47.73028127352488
 21
-35.18151394526249
 31
0.0
  0
LINE
  5
CE
330
A
100
AcDbEntity
  8
TOP
  6
CONTINUOUS
 62
     3
100
AcDbLine
 10
1.30173595746358
 20
-67.81383307775012
 30
0.0
 11
1.30173595746358
 21
-67.72544336319119
 31
0.0
  0
LINE
  5
CF
330
A
100
AcDbEntity
  8
TOP
  6
CONTINUOUS
 62
     3
100
AcDbLine
 10
47.82402745882762
 20
-41.06921307245986
 30
0.0
 11
47.91318806012564
 21
-41.02341286341445
 31
0.0
  0
LINE
  5
D0
330
A
100
AcDbEntity
  8
TOP
  6
CONTINUOUS
 62
     3
100
AcDbLine
 10
52.91502706209922
 20
-21.2729290326442
 30
0.0
 11
54.79003024101363
 21
-21.2729290326442
 31
0.0
  0
LINE
  5
D1
330
A
100
AcDbEntity
  8
TOP
  6
CONTINUOUS
 62
     3
100
AcDbLine
 10
51.4800333182027
 20
6.317075570424375
 30
0.0
 11
51.4800333182027
 21
6.379573027292866
 31
0.0
  0
LINE
  5
D2
330
A
100
AcDbEntity
  8
TOP
  6
CONTINUOUS
 62
     3
100
AcDbLine
 10
47.82402745882762
 20
-29.46921936671012
 30
0.0
 11
47.8903237183898
 21
-29.44980414708529
 31
0.0
  0
LINE
  5
D3
330
A
100
AcDbEntity
  8
TOP
  6
CONTINUOUS
 62
     3
100
AcDbLine
 10
47.87913393974396
 20
3.15070199966422
 30
0.0
 11
47.76892892519724
 21
3.15070199966422
 31
0.0
  0
LINE
  5
D4
330
A
100
AcDbEntity
  8
TOP
  6
CONTINUOUS
 62
     3
100
AcDbLine
 10
47.75773914655141
 20
-29.44980414708529
 30
0.0
 11
47.82402745882762
 21
-29.46921936671012
 31
0.0
  0
LINE
  5
D5
330
A
100
AcDbEntity
  8
TOP
  6
CONTINUOUS
 62
     3
100
AcDbLine
 10
47.91318806012564
 20
-28.42341216405304
 30
0.0
 11
47.87913393974396
 21
-28.34929577509633
 31
0.0
  0
LINE
  5
D6
330
A
100
AcDbEntity
  8
TOP
  6
CONTINUOUS
 62
     3
100
AcDbLine
 10
51.30365125338336
 20
-10.09667666753168
 30
0.0
 11
51.38603281974892
 21
-10.09667666753168
 31
0.0
  0
LINE
  5
D7
330
A
100
AcDbEntity
  8
TOP
  6
CONTINUOUS
 62
     3
100
AcDbLine
 10
5.103222846984936
 20
-28.41999483108592
 30
0.0
 11
4.213071187337295
 21
-28.41999483108592
 31
0.0
  0
LINE
  5
D8
330
A
100
AcDbEntity
  8
TOP
  6
CONTINUOUS
 62
     3
100
AcDbLine
 10
0.5469861825307037
 20
-47.5074922243765
 30
0.0
 11
3.870239178339689
 21
-47.5074922243765
 31
0.0
  0
LINE
  5
D9
330
A
100
AcDbEntity
  8
TOP
  6
CONTINUOUS
 62
     3
100
AcDbLine
 10
4.135404348373467
 20
-3.297654310862437
 30
0.0
 11
4.553026278813741
 21
-2.880032380422162
 31
0.0
  0
LINE
  5
DA
330
A
100
AcDbEntity
  8
TOP
  6
CONTINUOUS
 62
     3
100
AcDbLine
 10
51.38603281974892
 20
-9.909176349640237
 30
0.0
 11
51.30365125338336
 21
-9.909176349640237
 31
0.0
  0
LINE
  5
DB
330
A
100
AcDbEntity
  8
TOP
  6
CONTINUOUS
 62
     3
100
AcDbLine
 10
47.91778159141633
 20
2.097074667612604
 30
0.0
 11
47.91778159141633
 21
2.503316084543765
 31
0.0
  0
LINE
  5
DC
330
A
100
AcDbEntity
  8
TOP
  6
CONTINUOUS
 62
     3
100
AcDbLine
 10
51.30365125338336
 20
-22.50917704900165
 30
0.0
 11
51.10477836926877
 21
-22.50917704900165
 31
0.0
  0
LINE
  5
DD
330
A
100
AcDbEntity
  8
TOP
  6
CONTINUOUS
 62
     3
100
AcDbLine
 10
47.73486685752961
 20
3.076593557993483
 30
0.0
 11
47.82402745882762
 21
3.030785401662102
 31
0.0
  0
LINE
  5
DE
330
A
100
AcDbEntity
  8
TOP
  6
CONTINUOUS
 62
     3
100
AcDbLine
 10
0.2367360591888192
 20
-66.2518337567662
 30
0.0
 11
0.2367360591888192
 21
-62.75583060582619
 31
0.0
  0
LINE
  5
DF
330
A
100
AcDbEntity
  8
TOP
  6
CONTINUOUS
 62
     3
100
AcDbLine
 10
8.707736253738548
 20
-47.31999190648505
 30
0.0
 11
8.625358661015971
 21
-47.31999190648505
 31
0.0
  0
LINE
  5
E0
330
A
100
AcDbEntity
  8
TOP
  6
CONTINUOUS
 62
     3
100
AcDbLine
 10
47.75773914655141
 20
-16.84980344772387
 30
0.0
 11
47.82402745882762
 21
-16.86921866734871
 31
0.0
  0
LINE
  5
E1
330
A
100
AcDbEntity
  8
TOP
  6
CONTINUOUS
 62
     3
100
AcDbLine
 10
54.91002631187545
 20
-21.2729290326442
 30
0.0
 11
54.91002631187545
 21
-21.30953423182226
 31
0.0
  0
LINE
  5
E2
330
A
100
AcDbEntity
  8
TOP
  6
CONTINUOUS
 62
     3
100
AcDbLine
 10
1.30173595746358
 20
-34.90694316228315
 30
0.0
 11
1.30173595746358
 21
-41.01988426844375
 31
0.0
  0
LINE
  5
E3
330
A
100
AcDbEntity
  8
TOP
  6
CONTINUOUS
 62
     3
100
AcDbLine
 10
0.3481113115946238
 20
3.080010890960606
 30
0.0
 11
0.2657357056935398
 21
3.080010890960606
 31
0.0
  0
LINE
  5
E4
330
A
100
AcDbEntity
  8
TOP
  6
CONTINUOUS
 62
     3
100
AcDbLine
 10
51.30365125338336
 20
-9.909176349640237
 30
0.0
 11
51.10477836926877
 21
-9.909176349640237
 31
0.0
  0
LINE
  5
E5
330
A
100
AcDbEntity
  8
TOP
  6
CONTINUOUS
 62
     3
100
AcDbLine
 10
0.5469861825307037
 20
3.080010890960606
 30
0.0
 11
0.3481113115946238
 21
3.080010890960606
 31
0.0
  0
LINE
  5
E6
330
A
100
AcDbEntity
  8
TOP
  6
CONTINUOUS
 62
     3
100
AcDbLine
 10
47.82402745882762
 20
-10.09667666753168
 30
0.0
 11
47.90640902519318
 21
-10.09667666753168
 31
0.0
  0
LINE
  5
E7
330
A
100
AcDbEntity
  8
TOP
  6
CONTINUOUS
 62
     3
100
AcDbLine
 10
8.861734787623236
 20
-47.4587435722362
 30
0.0
 11
8.861734787623236
 21
-46.20873880386459
 31
0.0
  0
LINE
  5
E8
330
A
100
AcDbEntity
  8
TOP
  6
CONTINUOUS
 62
     3
100
AcDbLine
 10
1.755021333694464
 20
-47.31998395919908
 30
0.0
 11
2.397704442342141
 21
-46.79930162429918
 31
0.0
  0
LINE
  5
E9
330
A
100
AcDbEntity
  8
TOP
  6
CONTINUOUS
 62
     3
100
AcDbLine
 10
2.279673337936418
 20
-8.853617827097899
 30
0.0
 11
1.508766730626425
 21
-9.478179136912364
 31
0.0
  0
LINE
  5
EA
330
A
100
AcDbEntity
  8
TOP
  6
CONTINUOUS
 62
     3
100
AcDbLine
 10
8.426485776901383
 20
-22.11999050776222
 30
0.0
 11
5.103232781092398
 21
-22.11999050776222
 31
0.0
  0
LINE
  5
EB
330
A
100
AcDbEntity
  8
TOP
  6
CONTINUOUS
 62
     3
100
AcDbLine
 10
47.73028127352488
 20
-29.40292310714795
 30
0.0
 11
47.75773914655141
 21
-29.44980414708529
 31
0.0
  0
LINE
  5
EC
330
A
100
AcDbEntity
  8
TOP
  6
CONTINUOUS
 62
     3
100
AcDbLine
 10
51.10477836926877
 20
-28.80917342503937
 30
0.0
 11
48.10528190930777
 21
-28.80917342503937
 31
0.0
  0
LINE
  5
ED
330
A
100
AcDbEntity
  8
TOP
  6
CONTINUOUS
 62
     3
100
AcDbLine
 10
47.90640902519318
 20
-35.10917774836307
 30
0.0
 11
47.82402745882762
 21
-35.10917774836307
 31
0.0
  0
LINE
  5
EE
330
A
100
AcDbEntity
  8
TOP
  6
CONTINUOUS
 62
     3
100
AcDbLine
 10
1.30173595746358
 20
-66.49883143107243
 30
0.0
 11
1.30173595746358
 21
-67.56383132934719
 31
0.0
  0
LINE
  5
EF
330
A
100
AcDbEntity
  8
TOP
  6
CONTINUOUS
 62
     3
100
AcDbLine
 10
47.8903237183898
 20
-42.04979689916073
 30
0.0
 11
47.91778159141633
 21
-42.00292380650936
 31
0.0
  0
LINE
  5
F0
330
A
100
AcDbEntity
  8
TOP
  6
CONTINUOUS
 62
     3
100
AcDbLine
 10
4.420443693796853
 20
-9.047452131907473
 30
0.0
 11
4.486735979716043
 21
-9.11374044418368
 31
0.0
  0
LINE
  5
F1
330
A
100
AcDbEntity
  8
TOP
  6
CONTINUOUS
 62
     3
100
AcDbLine
 10
51.4800333182027
 20
-50.00224065780754
 30
0.0
 11
51.4800333182027
 21
7.067076841990145
 31
0.0
  0
LINE
  5
F2
330
A
100
AcDbEntity
  8
TOP
  6
CONTINUOUS
 62
     3
100
AcDbLine
 10
47.73028127352488
 20
-47.7815146446239
 30
0.0
 11
47.73028127352488
 21
-47.80292463302722
 31
0.0
  0
LINE
  5
F3
330
A
100
AcDbEntity
  8
TOP
  6
CONTINUOUS
 62
     3
100
AcDbLine
 10
51.29227868716021
 20
3.330930550893065
 30
0.0
 11
51.29227868716021
 21
3.284359455108559
 31
0.0
  0
LINE
  5
F4
330
A
100
AcDbEntity
  8
TOP
  6
CONTINUOUS
 62
     3
100
AcDbLine
 10
5.696521520614709
 20
-28.41998688379995
 30
0.0
 11
6.339204629262385
 21
-27.89930454890003
 31
0.0
  0
LINE
  5
F5
330
A
100
AcDbEntity
  8
TOP
  6
CONTINUOUS
 62
     3
100
AcDbLine
 10
4.135404348373467
 20
-47.39766073227038
 30
0.0
 11
4.553026278813741
 21
-46.98003085454413
 31
0.0
  0
LINE
  5
F6
330
A
100
AcDbEntity
  8
TOP
  6
CONTINUOUS
 62
     3
100
AcDbLine
 10
5.103232781092398
 20
2.892510573069163
 30
0.0
 11
8.426485776901383
 21
2.892510573069163
 31
0.0
  0
LINE
  5
F7
330
A
100
AcDbEntity
  8
TOP
  6
CONTINUOUS
 62
     3
100
AcDbLine
 10
47.73028127352488
 20
-10.00292253494297
 30
0.0
 11
47.73028127352488
 21
-10.02433252334629
 31
0.0
  0
LINE
  5
F8
330
A
100
AcDbEntity
  8
TOP
  6
CONTINUOUS
 62
     3
100
AcDbLine
 10
7.671736001968508
 20
-67.68883021672717
 30
0.0
 11
7.611735979716105
 21
-67.68883021672717
 31
0.0
  0
LINE
  5
F9
330
A
100
AcDbEntity
  8
TOP
  6
CONTINUOUS
 62
     3
100
AcDbLine
 10
51.10477836926877
 20
-22.6966773668931
 30
0.0
 11
51.30365125338336
 21
-22.6966773668931
 31
0.0
  0
LINE
  5
FA
330
A
100
AcDbEntity
  8
TOP
  6
CONTINUOUS
 62
     3
100
AcDbLine
 10
0.2367360591888192
 20
-66.3416341145848
 30
0.0
 11
0.2367360591888192
 21
-66.2518337567662
 31
0.0
  0
LINE
  5
FB
330
A
100
AcDbEntity
  8
TOP
  6
CONTINUOUS
 62
     3
100
AcDbLine
 10
54.91002631187545
 20
2.552072683970036
 30
0.0
 11
54.91002631187545
 21
2.463682969411114
 31
0.0
  0
LINE
  5
FC
330
A
100
AcDbEntity
  8
TOP
  6
CONTINUOUS
 62
     3
100
AcDbLine
 10
47.82402745882762
 20
-16.86921866734871
 30
0.0
 11
47.8903237183898
 21
-16.84980344772387
 31
0.0
  0
LINE
  5
FD
330
A
100
AcDbEntity
  8
TOP
  6
CONTINUOUS
 62
     3
100
AcDbLine
 10
1.517633914947511
 20
-40.98912827173965
 30
0.0
 11
1.508766730626425
 21
-40.97817691167292
 31
0.0
  0
LINE
  5
FE
330
A
100
AcDbEntity
  8
TOP
  6
CONTINUOUS
 62
     3
100
AcDbLine
 10
54.83245285352177
 20
-21.2729290326442
 30
0.0
 11
54.79003024101363
 21
-21.2729290326442
 31
0.0
  0
LINE
  5
FF
330
A
100
AcDbEntity
  8
TOP
  6
CONTINUOUS
 62
     3
100
AcDbLine
 10
1.30173595746358
 20
-16.00807460149176
 30
0.0
 11
1.30173595746358
 21
-22.12009382247984
 31
0.0
  0
LINE
  5
100
330
A
100
AcDbEntity
  8
TOP
  6
CONTINUOUS
 62
     3
100
AcDbLine
 10
0.2657357056935398
 20
2.892510573069163
 30
0.0
 11
0.3481113115946238
 21
2.892510573069163
 31
0.0
  0
LINE
  5
101
330
A
100
AcDbEntity
  8
TOP
  6
CONTINUOUS
 62
     3
100
AcDbLine
 10
47.76892892519724
 20
-28.34929577509633
 30
0.0
 11
47.73486685752961
 21
-28.42341216405304
 31
0.0
  0
LINE
  5
102
330
A
100
AcDbEntity
  8
TOP
  6
CONTINUOUS
 62
     3
100
AcDbLine
 10
7.689309438069786
 20
-47.58374643325915
 30
0.0
 11
7.73173602422091
 21
-47.58374643325915
 31
0.0
  0
LINE
  5
103
330
A
100
AcDbEntity
  8
TOP
  6
CONTINUOUS
 62
     3
100
AcDbLine
 10
6.575266838073832
 20
-40.49930524826145
 30
0.0
 11
7.21794994672151
 21
-41.01998758316137
 31
0.0
  0
LINE
  5
104
330
A
100
AcDbEntity
  8
TOP
  6
CONTINUOUS
 62
     3
100
AcDbLine
 10
6.221173524856663
 20
-8.853617827097899
 30
0.0
 11
5.45026691754667
 21
-9.478179136912364
 31
0.0
  0
LINE
  5
105
330
A
100
AcDbEntity
  8
TOP
  6
CONTINUOUS
 62
     3
100
AcDbLine
 10
4.420443693796853
 20
-21.64745283126888
 30
0.0
 11
4.002821763356577
 21
-22.06507476170916
 31
0.0
  0
LINE
  5
106
330
A
100
AcDbEntity
  8
TOP
  6
CONTINUOUS
 62
     3
100
AcDbLine
 10
47.73028127352488
 20
-22.68530480066995
 30
0.0
 11
47.73028127352488
 21
-23.10292673111022
 31
0.0
  0
LINE
  5
107
330
A
100
AcDbEntity
  8
TOP
  6
CONTINUOUS
 62
     3
100
AcDbLine
 10
47.82402745882762
 20
-35.29667806625451
 30
0.0
 11
47.90640902519318
 21
-35.29667806625451
 31
0.0
  0
LINE
  5
108
330
A
100
AcDbEntity
  8
TOP
  6
CONTINUOUS
 62
     3
100
AcDbLine
 10
0.11173518498736
 20
-69.80883232752636
 30
0.0
 11
0.11173518498736
 21
-69.74883031845246
 31
0.0
  0
LINE
  5
109
330
A
100
AcDbEntity
  8
TOP
  6
CONTINUOUS
 62
     3
100
AcDbLine
 10
51.51517621676227
 20
-52.27292331059892
 30
0.0
 11
51.60002938906451
 21
-52.27292331059892
 31
0.0
  0
LINE
  5
10A
330
A
100
AcDbEntity
  8
TOP
  6
CONTINUOUS
 62
     3
100
AcDbLine
 10
51.29227868716021
 20
-47.06906429926663
 30
0.0
 11
51.29227868716021
 21
-47.1156433423371
 31
0.0
  0
LINE
  5
10B
330
A
100
AcDbEntity
  8
TOP
  6
CONTINUOUS
 62
     3
100
AcDbLine
 10
8.426485776901383
 20
-9.707490126292253
 30
0.0
 11
8.625358661015971
 21
-9.707490126292253
 31
0.0
  0
LINE
  5
10C
330
A
100
AcDbEntity
  8
TOP
  6
CONTINUOUS
 62
     3
100
AcDbLine
 10
51.29227868716021
 20
-15.61564556757655
 30
0.0
 11
51.29227868716021
 21
-16.20917272567796
 31
0.0
  0
LINE
  5
10D
330
A
100
AcDbEntity
  8
TOP
  6
CONTINUOUS
 62
     3
100
AcDbLine
 10
54.85003225008753
 20
-46.47292248408106
 30
0.0
 11
54.83245285352177
 21
-46.47292248408106
 31
0.0
  0
LINE
  5
10E
330
A
100
AcDbEntity
  8
TOP
  6
CONTINUOUS
 62
     3
100
AcDbLine
 10
51.4800333182027
 20
6.567073345184308
 30
0.0
 11
51.4800333182027
 21
6.504575888315817
 31
0.0
  0
LINE
  5
10F
330
A
100
AcDbEntity
  8
TOP
  6
CONTINUOUS
 62
     3
100
AcDbLine
 10
7.464204549789548
 20
-22.07817983627378
 30
0.0
 11
6.693297942479556
 21
-21.45361852645931
 31
0.0
  0
LINE
  5
110
330
A
100
AcDbEntity
  8
TOP
  6
CONTINUOUS
 62
     3
100
AcDbLine
 10
5.103232781092398
 20
-41.20749584833878
 30
0.0
 11
8.426485776901383
 21
-41.20749584833878
 31
0.0
  0
LINE
  5
111
330
A
100
AcDbEntity
  8
TOP
  6
CONTINUOUS
 62
     3
100
AcDbLine
 10
3.870239178339689
 20
3.080010890960606
 30
0.0
 11
0.5469861825307037
 21
3.080010890960606
 31
0.0
  0
LINE
  5
112
330
A
100
AcDbEntity
  8
TOP
  6
CONTINUOUS
 62
     3
100
AcDbLine
 10
51.29227868716021
 20
-28.15292628606231
 30
0.0
 11
51.29227868716021
 21
-28.16906722386748
 31
0.0
  0
LINE
  5
113
330
A
100
AcDbEntity
  8
TOP
  6
CONTINUOUS
 62
     3
100
AcDbLine
 10
47.73028127352488
 20
-47.80292463302722
 30
0.0
 11
47.73028127352488
 21
-47.82433462143054
 31
0.0
  0
LINE
  5
114
330
A
100
AcDbEntity
  8
TOP
  6
CONTINUOUS
 62
     3
100
AcDbLine
 10
7.611735979716105
 20
-67.65222104390611
 30
0.0
 11
7.611735979716105
 21
-67.56383132934719
 31
0.0
  0
LINE
  5
115
330
A
100
AcDbEntity
  8
TOP
  6
CONTINUOUS
 62
     3
100
AcDbLine
 10
47.73028127352488
 20
-16.32433684666999
 30
0.0
 11
47.73028127352488
 21
-16.38530047734626
 31
0.0
  0
LINE
  5
116
330
A
100
AcDbEntity
  8
TOP
  6
CONTINUOUS
 62
     3
100
AcDbLine
 10
8.736735900243269
 20
-66.37883138656762
 30
0.0
 11
8.736735900243269
 21
-66.3416341145848
 31
0.0
  0
LINE
  5
117
330
A
100
AcDbEntity
  8
TOP
  6
CONTINUOUS
 62
     3
100
AcDbLine
 10
54.85003225008753
 20
3.927072366078624
 30
0.0
 11
54.83245285352177
 21
3.927072366078624
 31
0.0
  0
LINE
  5
118
330
A
100
AcDbEntity
  8
TOP
  6
CONTINUOUS
 62
     3
100
AcDbLine
 10
4.420443693796853
 20
-41.54744895299373
 30
0.0
 11
4.486735979716043
 21
-41.61374521255591
 31
0.0
  0
LINE
  5
119
330
A
100
AcDbEntity
  8
TOP
  6
CONTINUOUS
 62
     3
100
AcDbLine
 10
47.79353372256053
 20
-52.07614850998043
 30
0.0
 11
47.79353372256053
 21
-52.25292396545529
 31
0.0
  0
LINE
  5
11A
330
A
100
AcDbEntity
  8
TOP
  6
CONTINUOUS
 62
     3
100
AcDbLine
 10
1.30173595746358
 20
2.891715844472158
 30
0.0
 11
1.30173595746358
 21
-3.220303376515918
 31
0.0
  0
LINE
  5
11B
330
A
100
AcDbEntity
  8
TOP
  6
CONTINUOUS
 62
     3
100
AcDbLine
 10
47.73028127352488
 20
-3.620552539825659
 30
0.0
 11
47.73028127352488
 21
-3.68151617050193
 31
0.0
  0
LINE
  5
11C
330
A
100
AcDbEntity
  8
TOP
  6
CONTINUOUS
 62
     3
100
AcDbLine
 10
2.633766651153588
 20
-40.49930524826145
 30
0.0
 11
3.276449759801265
 21
-41.01998758316137
 31
0.0
  0
LINE
  5
11D
330
A
100
AcDbEntity
  8
TOP
  6
CONTINUOUS
 62
     3
100
AcDbLine
 10
3.522704362869304
 20
-3.178182760874642
 30
0.0
 11
2.751797755559311
 21
-2.553613503774206
 31
0.0
  0
LINE
  5
11E
330
A
100
AcDbEntity
  8
TOP
  6
CONTINUOUS
 62
     3
100
AcDbLine
 10
4.553026278813741
 20
-16.48003212610928
 30
0.0
 11
4.970650196075509
 21
-16.062410195669
 31
0.0
  0
LINE
  5
11F
330
A
100
AcDbEntity
  8
TOP
  6
CONTINUOUS
 62
     3
100
AcDbLine
 10
51.10477836926877
 20
-22.50917704900165
 30
0.0
 11
48.10528190930777
 21
-22.50917704900165
 31
0.0
  0
LINE
  5
120
330
A
100
AcDbEntity
  8
TOP
  6
CONTINUOUS
 62
     3
100
AcDbLine
 10
51.30365125338336
 20
-35.29667806625451
 30
0.0
 11
51.38603281974892
 21
-35.29667806625451
 31
0.0
  0
LINE
  5
121
330
A
100
AcDbEntity
  8
TOP
  6
CONTINUOUS
 62
     3
100
AcDbLine
 10
0.11173518498736
 20
-69.74883031845246
 30
0.0
 11
0.1483483314513907
 21
-69.74883031845246
 31
0.0
  0
LINE
  5
122
330
A
100
AcDbEntity
  8
TOP
  6
CONTINUOUS
 62
     3
100
AcDbLine
 10
47.76892892519724
 20
-47.24929285049547
 30
0.0
 11
47.73486685752961
 21
-47.32340923945218
 31
0.0
  0
LINE
  5
123
330
A
100
AcDbEntity
  8
TOP
  6
CONTINUOUS
 62
     3
100
AcDbLine
 10
4.420443693796853
 20
-15.34744850794519
 30
0.0
 11
4.486735979716043
 21
-15.41374476750737
 31
0.0
  0
LINE
  5
124
330
A
100
AcDbEntity
  8
TOP
  6
CONTINUOUS
 62
     3
100
AcDbLine
 10
54.85003225008753
 20
-46.59792534510402
 30
0.0
 11
54.85003225008753
 21
-46.5095356305451
 31
0.0
  0
LINE
  5
125
330
A
100
AcDbEntity
  8
TOP
  6
CONTINUOUS
 62
     3
100
AcDbLine
 10
8.486736138661843
 20
3.672767162322922
 30
0.0
 11
8.486736138661843
 21
3.896260738372732
 31
0.0
  0
LINE
  5
126
330
A
100
AcDbEntity
  8
TOP
  6
CONTINUOUS
 62
     3
100
AcDbLine
 10
51.29277936617633
 20
-40.75292698542372
 30
0.0
 11
51.29277936617633
 21
-40.7690679232289
 31
0.0
  0
LINE
  5
127
330
A
100
AcDbEntity
  8
TOP
  6
CONTINUOUS
 62
     3
100
AcDbLine
 10
8.426485776901383
 20
-3.407493750254529
 30
0.0
 11
8.625358661015971
 21
-3.407493750254529
 31
0.0
  0
LINE
  5
128
330
A
100
AcDbEntity
  8
TOP
  6
CONTINUOUS
 62
     3
100
AcDbLine
 10
3.93125049273178
 20
-22.30749082565366
 30
0.0
 11
4.760402758916285
 21
-22.30749082565366
 31
0.0
  0
LINE
  5
129
330
A
100
AcDbEntity
  8
TOP
  6
CONTINUOUS
 62
     3
100
AcDbLine
 10
3.870239178339689
 20
-41.01999553044733
 30
0.0
 11
0.5469861825307037
 21
-41.01999553044733
 31
0.0
  0
LINE
  5
12A
330
A
100
AcDbEntity
  8
TOP
  6
CONTINUOUS
 62
     3
100
AcDbLine
 10
1.755021333694464
 20
-9.519981861114839
 30
0.0
 11
2.397704442342141
 21
-8.999307473500897
 31
0.0
  0
LINE
  5
12B
330
A
100
AcDbEntity
  8
TOP
  6
CONTINUOUS
 62
     3
100
AcDbLine
 10
47.91778159141633
 20
-47.70917844772448
 30
0.0
 11
47.91778159141633
 21
-47.30292908350736
 31
0.0
  0
LINE
  5
12C
330
A
100
AcDbEntity
  8
TOP
  6
CONTINUOUS
 62
     3
100
AcDbLine
 10
47.90640902519318
 20
-47.89667876561593
 30
0.0
 11
48.10528190930777
 21
-47.89667876561593
 31
0.0
  0
LINE
  5
12D
330
A
100
AcDbEntity
  8
TOP
  6
CONTINUOUS
 62
     3
100
AcDbLine
 10
8.707736253738548
 20
-3.219993432363086
 30
0.0
 11
8.625358661015971
 21
-3.219993432363086
 31
0.0
  0
LINE
  5
12E
330
A
100
AcDbEntity
  8
TOP
  6
CONTINUOUS
 62
     3
100
AcDbLine
 10
48.10528190930777
 20
-16.20917272567796
 30
0.0
 11
47.90640902519318
 21
-16.20917272567796
 31
0.0
  0
LINE
  5
12F
330
A
100
AcDbEntity
  8
TOP
  6
CONTINUOUS
 62
     3
100
AcDbLine
 10
2.176736116409316
 20
-66.37883138656762
 30
0.0
 11
1.801735480626431
 21
-66.37883138656762
 31
0.0
  0
LINE
  5
130
330
A
100
AcDbEntity
  8
TOP
  6
CONTINUOUS
 62
     3
100
AcDbLine
 10
47.87913393974396
 20
-22.04929145177264
 30
0.0
 11
47.76892892519724
 21
-22.04929145177264
 31
0.0
  0
LINE
  5
131
330
A
100
AcDbEntity
  8
TOP
  6
CONTINUOUS
 62
     3
100
AcDbLine
 10
1.541569153467816
 20
-41.01866833369033
 30
0.0
 11
1.517633914947511
 21
-40.98912827173965
 31
0.0
  0
LINE
  5
132
330
A
100
AcDbEntity
  8
TOP
  6
CONTINUOUS
 62
     3
100
AcDbLine
 10
47.73002696037385
 20
-52.25292396545529
 30
0.0
 11
47.73002696037385
 21
-52.07614850998043
 31
0.0
  0
LINE
  5
133
330
A
100
AcDbEntity
  8
TOP
  6
CONTINUOUS
 62
     3
100
AcDbLine
 10
1.421736001968383
 20
7.456255435943603
 30
0.0
 11
1.336882829666135
 21
7.456255435943603
 31
0.0
  0
LINE
  5
134
330
A
100
AcDbEntity
  8
TOP
  6
CONTINUOUS
 62
     3
100
AcDbLine
 10
8.625358661015971
 20
-22.30749082565366
 30
0.0
 11
8.707736253738548
 21
-22.30749082565366
 31
0.0
  0
LINE
  5
135
330
A
100
AcDbEntity
  8
TOP
  6
CONTINUOUS
 62
     3
100
AcDbLine
 10
8.625358661015971
 20
-3.219993432363086
 30
0.0
 11
8.426485776901383
 21
-3.219993432363086
 31
0.0
  0
LINE
  5
136
330
A
100
AcDbEntity
  8
TOP
  6
CONTINUOUS
 62
     3
100
AcDbLine
 10
2.279673337936418
 20
-40.35361560185846
 30
0.0
 11
1.508766730626425
 21
-40.97817691167292
 31
0.0
  0
LINE
  5
137
330
A
100
AcDbEntity
  8
TOP
  6
CONTINUOUS
 62
     3
100
AcDbLine
 10
5.103222846984936
 20
-3.219993432363086
 30
0.0
 11
4.213071187337295
 21
-3.219993432363086
 31
0.0
  0
LINE
  5
138
330
A
100
AcDbEntity
  8
TOP
  6
CONTINUOUS
 62
     3
100
AcDbLine
 10
0.5469861825307037
 20
-15.8199941317245
 30
0.0
 11
0.3481113115946238
 21
-15.8199941317245
 31
0.0
  0
LINE
  5
139
330
A
100
AcDbEntity
  8
TOP
  6
CONTINUOUS
 62
     3
100
AcDbLine
 10
0.5469861825307037
 20
-16.00749444961594
 30
0.0
 11
3.870239178339689
 21
-16.00749444961594
 31
0.0
  0
LINE
  5
13A
330
A
100
AcDbEntity
  8
TOP
  6
CONTINUOUS
 62
     3
100
AcDbLine
 10
7.671736001968508
 20
-67.72544336319119
 30
0.0
 11
7.671736001968508
 21
-67.81383307775012
 31
0.0
  0
LINE
  5
13B
330
A
100
AcDbEntity
  8
TOP
  6
CONTINUOUS
 62
     3
100
AcDbLine
 10
47.73028127352488
 20
-16.38530047734626
 30
0.0
 11
47.73028127352488
 21
-16.80292240778653
 31
0.0
  0
LINE
  5
13C
330
A
100
AcDbEntity
  8
TOP
  6
CONTINUOUS
 62
     3
100
AcDbLine
 10
47.73028127352488
 20
-28.82054599126252
 30
0.0
 11
47.73028127352488
 21
-28.88151756922476
 31
0.0
  0
LINE
  5
13D
330
A
100
AcDbEntity
  8
TOP
  6
CONTINUOUS
 62
     3
100
AcDbLine
 10
0.2367360591888192
 20
-69.80883232752636
 30
0.0
 11
1.241735935211178
 21
-69.80883232752636
 31
0.0
  0
LINE
  5
13E
330
A
100
AcDbEntity
  8
TOP
  6
CONTINUOUS
 62
     3
100
AcDbLine
 10
47.82402745882762
 20
-47.36921739578356
 30
0.0
 11
47.91318806012564
 21
-47.32340923945218
 31
0.0
  0
LINE
  5
13F
330
A
100
AcDbEntity
  8
TOP
  6
CONTINUOUS
 62
     3
100
AcDbLine
 10
54.85003225008753
 20
-47.97292502721261
 30
0.0
 11
54.85003225008753
 21
-47.93631188074857
 31
0.0
  0
LINE
  5
140
330
A
100
AcDbEntity
  8
TOP
  6
CONTINUOUS
 62
     3
100
AcDbLine
 10
7.689309438069786
 20
2.816256364186512
 30
0.0
 11
7.73173602422091
 21
2.816256364186512
 31
0.0
  0
LINE
  5
141
330
A
100
AcDbEntity
  8
TOP
  6
CONTINUOUS
 62
     3
100
AcDbLine
 10
7.73173602422091
 20
-46.08374389012761
 30
0.0
 11
7.689309438069786
 21
-46.08374389012761
 31
0.0
  0
LINE
  5
142
330
A
100
AcDbEntity
  8
TOP
  6
CONTINUOUS
 62
     3
100
AcDbLine
 10
1.755021333694464
 20
-22.11998256047625
 30
0.0
 11
2.397704442342141
 21
-21.59930817286231
 31
0.0
  0
LINE
  5
143
330
A
100
AcDbEntity
  8
TOP
  6
CONTINUOUS
 62
     3
100
AcDbLine
 10
4.838067611058621
 20
-34.82983064651573
 30
0.0
 11
4.420443693796853
 21
-35.24745257695601
 31
0.0
  0
LINE
  5
144
330
A
100
AcDbEntity
  8
TOP
  6
CONTINUOUS
 62
     3
100
AcDbLine
 10
7.611735979716105
 20
-67.81383307775012
 30
0.0
 11
7.611735979716105
 21
-67.72544336319119
 31
0.0
  0
LINE
  5
145
330
A
100
AcDbEntity
  8
TOP
  6
CONTINUOUS
 62
     3
100
AcDbLine
 10
0.5469861825307037
 20
-41.01999553044733
 30
0.0
 11
0.3481113115946238
 21
-41.01999553044733
 31
0.0
  0
LINE
  5
146
330
A
100
AcDbEntity
  8
TOP
  6
CONTINUOUS
 62
     3
100
AcDbLine
 10
48.10528190930777
 20
-47.89667876561593
 30
0.0
 11
51.10477836926877
 21
-47.89667876561593
 31
0.0
  0
LINE
  5
147
330
A
100
AcDbEntity
  8
TOP
  6
CONTINUOUS
 62
     3
100
AcDbLine
 10
8.426485776901383
 20
-41.20749584833878
 30
0.0
 11
8.625358661015971
 21
-41.20749584833878
 31
0.0
  0
LINE
  5
148
330
A
100
AcDbEntity
  8
TOP
  6
CONTINUOUS
 62
     3
100
AcDbLine
 10
47.73486685752961
 20
-34.72340854009076
 30
0.0
 11
47.82402745882762
 21
-34.76921669642214
 31
0.0
  0
LINE
  5
149
330
A
100
AcDbEntity
  8
TOP
  6
CONTINUOUS
 62
     3
100
AcDbLine
 10
47.75773914655141
 20
-23.14979982376159
 30
0.0
 11
47.82402745882762
 21
-23.16921504338643
 31
0.0
  0
LINE
  5
14A
330
A
100
AcDbEntity
  8
TOP
  6
CONTINUOUS
 62
     3
100
AcDbLine
 10
4.420443693796853
 20
-46.84745422999172
 30
0.0
 11
4.486735979716043
 21
-46.91374254226793
 31
0.0
  0
LINE
  5
14B
330
A
100
AcDbEntity
  8
TOP
  6
CONTINUOUS
 62
     3
100
AcDbLine
 10
51.29277936617633
 20
-9.269070148468349
 30
0.0
 11
51.29277936617633
 21
-9.315641244252857
 31
0.0
  0
LINE
  5
14C
330
A
100
AcDbEntity
  8
TOP
  6
CONTINUOUS
 62
     3
100
AcDbLine
 10
8.486736138661843
 20
-51.61374362309891
 30
0.0
 11
0.4867358207702451
 21
-51.61374362309891
 31
0.0
  0
LINE
  5
14D
330
A
100
AcDbEntity
  8
TOP
  6
CONTINUOUS
 62
     3
100
AcDbLine
 10
0.3481113115946238
 20
-9.707490126292253
 30
0.0
 11
0.5469861825307037
 21
-9.707490126292253
 31
0.0
  0
LINE
  5
14E
330
A
100
AcDbEntity
  8
TOP
  6
CONTINUOUS
 62
     3
100
AcDbLine
 10
5.103222846984936
 20
-22.11999050776222
 30
0.0
 11
4.213071187337295
 21
-22.11999050776222
 31
0.0
  0
LINE
  5
14F
330
A
100
AcDbEntity
  8
TOP
  6
CONTINUOUS
 62
     3
100
AcDbLine
 10
6.221173524856663
 20
-40.35361560185846
 30
0.0
 11
5.45026691754667
 21
-40.97817691167292
 31
0.0
  0
LINE
  5
150
330
A
100
AcDbEntity
  8
TOP
  6
CONTINUOUS
 62
     3
100
AcDbLine
 10
5.696521520614709
 20
-3.219985485077116
 30
0.0
 11
6.339204629262385
 21
-2.699303150177204
 31
0.0
  0
LINE
  5
151
330
A
100
AcDbEntity
  8
TOP
  6
CONTINUOUS
 62
     3
100
AcDbLine
 10
4.135404348373467
 20
-15.89765501022385
 30
0.0
 11
4.553026278813741
 21
-15.48003307978357
 31
0.0
  0
LINE
  5
152
330
A
100
AcDbEntity
  8
TOP
  6
CONTINUOUS
 62
     3
100
AcDbLine
 10
47.90640902519318
 20
-28.80917342503937
 30
0.0
 11
47.82402745882762
 21
-28.80917342503937
 31
0.0
  0
LINE
  5
153
330
A
100
AcDbEntity
  8
TOP
  6
CONTINUOUS
 62
     3
100
AcDbLine
 10
8.861734787623236
 20
-69.74883031845246
 30
0.0
 11
8.861734787623236
 21
-69.80883232752636
 31
0.0
  0
LINE
  5
154
330
A
100
AcDbEntity
  8
TOP
  6
CONTINUOUS
 62
     3
100
AcDbLine
 10
47.8903237183898
 20
-48.34980122248443
 30
0.0
 11
47.91778159141633
 21
-48.30292812983305
 31
0.0
  0
LINE
  5
155
330
A
100
AcDbEntity
  8
TOP
  6
CONTINUOUS
 62
     3
100
AcDbLine
 10
54.91002631187545
 20
-47.93631188074857
 30
0.0
 11
54.91002631187545
 21
-47.97292502721261
 31
0.0
  0
LINE
  5
156
330
A
100
AcDbEntity
  8
TOP
  6
CONTINUOUS
 62
     3
100
AcDbLine
 10
8.707736253738548
 20
-34.71999120712364
 30
0.0
 11
8.625358661015971
 21
-34.71999120712364
 31
0.0
  0
LINE
  5
157
330
A
100
AcDbEntity
  8
TOP
  6
CONTINUOUS
 62
     3
100
AcDbLine
 10
6.575266838073832
 20
-15.29930384953862
 30
0.0
 11
7.21794994672151
 21
-15.81998618443853
 31
0.0
  0
LINE
  5
158
330
A
100
AcDbEntity
  8
TOP
  6
CONTINUOUS
 62
     3
100
AcDbLine
 10
8.426485776901383
 20
-34.71999120712364
 30
0.0
 11
5.103232781092398
 21
-34.71999120712364
 31
0.0
  0
LINE
  5
159
330
A
100
AcDbEntity
  8
TOP
  6
CONTINUOUS
 62
     3
100
AcDbLine
 10
7.671736001968508
 20
-49.61306206385408
 30
0.0
 11
7.671736001968508
 21
-47.50742069880277
 31
0.0
  0
LINE
  5
15A
330
A
100
AcDbEntity
  8
TOP
  6
CONTINUOUS
 62
     3
100
AcDbLine
 10
8.625358661015971
 20
-9.707490126292253
 30
0.0
 11
8.707736253738548
 21
-9.707490126292253
 31
0.0
  0
LINE
  5
15B
330
A
100
AcDbEntity
  8
TOP
  6
CONTINUOUS
 62
     3
100
AcDbLine
 10
47.91778159141633
 20
-41.40917412440079
 30
0.0
 11
47.91778159141633
 21
-41.00292476018366
 31
0.0
  0
LINE
  5
15C
330
A
100
AcDbEntity
  8
TOP
  6
CONTINUOUS
 62
     3
100
AcDbLine
 10
47.73028127352488
 20
-41.48151826858618
 30
0.0
 11
47.73028127352488
 21
-41.5029282569895
 31
0.0
  0
LINE
  5
15D
330
A
100
AcDbEntity
  8
TOP
  6
CONTINUOUS
 62
     3
100
AcDbLine
 10
7.671736001968508
 20
-67.56383132934719
 30
0.0
 11
7.671736001968508
 21
-67.65222104390611
 31
0.0
  0
LINE
  5
15E
330
A
100
AcDbEntity
  8
TOP
  6
CONTINUOUS
 62
     3
100
AcDbLine
 10
47.91318806012564
 20
-34.72340854009076
 30
0.0
 11
47.87913393974396
 21
-34.64929215113405
 31
0.0
  0
LINE
  5
15F
330
A
100
AcDbEntity
  8
TOP
  6
CONTINUOUS
 62
     3
100
AcDbLine
 10
52.91502706209922
 20
-46.47292248408106
 30
0.0
 11
54.79003024101363
 21
-46.47292248408106
 31
0.0
  0
LINE
  5
160
330
A
100
AcDbEntity
  8
TOP
  6
CONTINUOUS
 62
     3
100
AcDbLine
 10
51.4800333182027
 20
-50.07615041732902
 30
0.0
 11
51.4800333182027
 21
-50.25292587280389
 31
0.0
  0
LINE
  5
161
330
A
100
AcDbEntity
  8
TOP
  6
CONTINUOUS
 62
     3
100
AcDbLine
 10
8.707736253738548
 20
-9.51998980840081
 30
0.0
 11
8.625358661015971
 21
-9.51998980840081
 31
0.0
  0
LINE
  5
162
330
A
100
AcDbEntity
  8
TOP
  6
CONTINUOUS
 62
     3
100
AcDbLine
 10
8.625358661015971
 20
-9.51998980840081
 30
0.0
 11
8.426485776901383
 21
-9.51998980840081
 31
0.0
  0
LINE
  5
163
330
A
100
AcDbEntity
  8
TOP
  6
CONTINUOUS
 62
     3
100
AcDbLine
 10
54.79003024101363
 20
2.427077770233054
 30
0.0
 11
54.83245285352177
 21
2.427077770233054
 31
0.0
  0
LINE
  5
164
330
A
100
AcDbEntity
  8
TOP
  6
CONTINUOUS
 62
     3
100
AcDbLine
 10
3.522704362869304
 20
-34.6781805356352
 30
0.0
 11
2.751797755559311
 21
-34.05361922582073
 31
0.0
  0
LINE
  5
165
330
A
100
AcDbEntity
  8
TOP
  6
CONTINUOUS
 62
     3
100
AcDbLine
 10
7.464204549789548
 20
3.121821562449051
 30
0.0
 11
6.693297942479556
 21
3.746382872263516
 31
0.0
  0
LINE
  5
166
330
A
100
AcDbEntity
  8
TOP
  6
CONTINUOUS
 62
     3
100
AcDbLine
 10
5.103232781092398
 20
-9.707490126292253
 30
0.0
 11
8.426485776901383
 21
-9.707490126292253
 31
0.0
  0
LINE
  5
167
330
A
100
AcDbEntity
  8
TOP
  6
CONTINUOUS
 62
     3
100
AcDbLine
 10
47.73028127352488
 20
-10.08530410130853
 30
0.0
 11
47.73028127352488
 21
-10.50292603174881
 31
0.0
  0
LINE
  5
168
330
A
100
AcDbEntity
  8
TOP
  6
CONTINUOUS
 62
     3
100
AcDbLine
 10
47.82402745882762
 20
-28.99667374293082
 30
0.0
 11
47.90640902519318
 21
-28.99667374293082
 31
0.0
  0
LINE
  5
169
330
A
100
AcDbEntity
  8
TOP
  6
CONTINUOUS
 62
     3
100
AcDbLine
 10
8.736735900243269
 20
-69.74883031845246
 30
0.0
 11
7.73173602422091
 21
-69.74883031845246
 31
0.0
  0
LINE
  5
16A
330
A
100
AcDbEntity
  8
TOP
  6
CONTINUOUS
 62
     3
100
AcDbLine
 10
47.82402745882762
 20
-9.569215297699313
 30
0.0
 11
47.91318806012564
 21
-9.523407141367933
 31
0.0
  0
LINE
  5
16B
330
A
100
AcDbEntity
  8
TOP
  6
CONTINUOUS
 62
     3
100
AcDbLine
 10
54.83245285352177
 20
-47.97292502721261
 30
0.0
 11
54.85003225008753
 21
-47.97292502721261
 31
0.0
  0
LINE
  5
16C
330
A
100
AcDbEntity
  8
TOP
  6
CONTINUOUS
 62
     3
100
AcDbLine
 10
7.671736001968508
 20
-3.220303376515918
 30
0.0
 11
7.671736001968508
 21
2.891715844472158
 31
0.0
  0
LINE
  5
16D
330
A
100
AcDbEntity
  8
TOP
  6
CONTINUOUS
 62
     3
100
AcDbLine
 10
2.633766651153588
 20
-15.29930384953862
 30
0.0
 11
3.276449759801265
 21
-15.81998618443853
 31
0.0
  0
LINE
  5
16E
330
A
100
AcDbEntity
  8
TOP
  6
CONTINUOUS
 62
     3
100
AcDbLine
 10
4.420443693796853
 20
-34.2474535306303
 30
0.0
 11
4.002821763356577
 21
-34.66507546107058
 31
0.0
  0
LINE
  5
16F
330
A
100
AcDbEntity
  8
TOP
  6
CONTINUOUS
 62
     3
100
AcDbLine
 10
48.10528190930777
 20
-41.59667444229223
 30
0.0
 11
51.10477836926877
 21
-41.59667444229223
 31
0.0
  0
LINE
  5
170
330
A
100
AcDbEntity
  8
TOP
  6
CONTINUOUS
 62
     3
100
AcDbLine
 10
47.73028127352488
 20
-41.5029282569895
 30
0.0
 11
47.73028127352488
 21
-41.52433029810684
 31
0.0
  0
LINE
  5
171
330
A
100
AcDbEntity
  8
TOP
  6
CONTINUOUS
 62
     3
100
AcDbLine
 10
47.73028127352488
 20
-35.70292743047164
 30
0.0
 11
47.75773914655141
 21
-35.74980052312301
 31
0.0
  0
LINE
  5
172
330
A
100
AcDbEntity
  8
TOP
  6
CONTINUOUS
 62
     3
100
AcDbLine
 10
4.486735979716043
 20
3.486260255177736
 30
0.0
 11
4.553026278813741
 21
3.419963995615561
 31
0.0
  0
LINE
  5
173
330
A
100
AcDbEntity
  8
TOP
  6
CONTINUOUS
 62
     3
100
AcDbLine
 10
52.79003214836222
 20
-48.09792788823556
 30
0.0
 11
52.79003214836222
 21
-52.14792442321896
 31
0.0
  0
LINE
  5
174
330
A
100
AcDbEntity
  8
TOP
  6
CONTINUOUS
 62
     3
100
AcDbLine
 10
8.707736253738548
 20
-22.11999050776222
 30
0.0
 11
8.625358661015971
 21
-22.11999050776222
 31
0.0
  0
LINE
  5
175
330
A
100
AcDbEntity
  8
TOP
  6
CONTINUOUS
 62
     3
100
AcDbLine
 10
51.41652655601601
 20
-50.25292587280389
 30
0.0
 11
51.41652655601601
 21
-50.07615041732902
 31
0.0
  0
LINE
  5
176
330
A
100
AcDbEntity
  8
TOP
  6
CONTINUOUS
 62
     3
100
AcDbLine
 10
5.103222846984936
 20
-34.71999120712364
 30
0.0
 11
4.213071187337295
 21
-34.71999120712364
 31
0.0
  0
LINE
  5
177
330
A
100
AcDbEntity
  8
TOP
  6
CONTINUOUS
 62
     3
100
AcDbLine
 10
3.93125049273178
 20
2.892510573069163
 30
0.0
 11
4.760402758916285
 21
2.892510573069163
 31
0.0
  0
LINE
  5
178
330
A
100
AcDbEntity
  8
TOP
  6
CONTINUOUS
 62
     3
100
AcDbLine
 10
7.671736001968508
 20
3.079931418100905
 30
0.0
 11
7.671736001968508
 21
7.456255435943603
 31
0.0
  0
LINE
  5
179
330
A
100
AcDbEntity
  8
TOP
  6
CONTINUOUS
 62
     3
100
AcDbLine
 10
47.91318806012564
 20
3.076593557993483
 30
0.0
 11
47.87913393974396
 21
3.15070199966422
 31
0.0
  0
LINE
  5
17A
330
A
100
AcDbEntity
  8
TOP
  6
CONTINUOUS
 62
     3
100
AcDbLine
 10
51.30365125338336
 20
-28.99667374293082
 30
0.0
 11
51.38603281974892
 21
-28.99667374293082
 31
0.0
  0
LINE
  5
17B
330
A
100
AcDbEntity
  8
TOP
  6
CONTINUOUS
 62
     3
100
AcDbLine
 10
8.861734787623236
 20
-69.80883232752636
 30
0.0
 11
8.825123627980698
 21
-69.80883232752636
 31
0.0
  0
LINE
  5
17C
330
A
100
AcDbEntity
  8
TOP
  6
CONTINUOUS
 62
     3
100
AcDbLine
 10
54.85003225008753
 20
-21.2729290326442
 30
0.0
 11
54.91002631187545
 21
-21.2729290326442
 31
0.0
  0
LINE
  5
17D
330
A
100
AcDbEntity
  8
TOP
  6
CONTINUOUS
 62
     3
100
AcDbLine
 10
47.8903237183898
 20
-10.54979912440017
 30
0.0
 11
47.91778159141633
 21
-10.50292603174881
 31
0.0
  0
LINE
  5
17E
330
A
100
AcDbEntity
  8
TOP
  6
CONTINUOUS
 62
     3
100
AcDbLine
 10
4.420443693796853
 20
-27.94744920730661
 30
0.0
 11
4.486735979716043
 21
-28.01374546686878
 31
0.0
  0
LINE
  5
17F
330
A
100
AcDbEntity
  8
TOP
  6
CONTINUOUS
 62
     3
100
AcDbLine
 10
7.671736001968508
 20
-22.12009382247984
 30
0.0
 11
7.671736001968508
 21
-16.00807460149176
 31
0.0
  0
LINE
  5
180
330
A
100
AcDbEntity
  8
TOP
  6
CONTINUOUS
 62
     3
100
AcDbLine
 10
0.2657357056935398
 20
-34.90749152501508
 30
0.0
 11
0.3481113115946238
 21
-34.90749152501508
 31
0.0
  0
LINE
  5
181
330
A
100
AcDbEntity
  8
TOP
  6
CONTINUOUS
 62
     3
100
AcDbLine
 10
2.279673337936418
 20
-15.15361420313562
 30
0.0
 11
1.508766730626425
 21
-15.77818346023605
 31
0.0
  0
LINE
  5
182
330
A
100
AcDbEntity
  8
TOP
  6
CONTINUOUS
 62
     3
100
AcDbLine
 10
4.553026278813741
 20
-29.0800328254707
 30
0.0
 11
4.970650196075509
 21
-28.66241089503042
 31
0.0
  0
LINE
  5
183
330
A
100
AcDbEntity
  8
TOP
  6
CONTINUOUS
 62
     3
100
AcDbLine
 10
8.426485776901383
 20
-16.00749444961594
 30
0.0
 11
8.625358661015971
 21
-16.00749444961594
 31
0.0
  0
LINE
  5
184
330
A
100
AcDbEntity
  8
TOP
  6
CONTINUOUS
 62
     3
100
AcDbLine
 10
47.91778159141633
 20
-35.10917774836307
 30
0.0
 11
47.91778159141633
 21
-34.70292838414594
 31
0.0
  0
LINE
  5
185
330
A
100
AcDbEntity
  8
TOP
  6
CONTINUOUS
 62
     3
100
AcDbLine
 10
47.90640902519318
 20
-41.59667444229223
 30
0.0
 11
48.10528190930777
 21
-41.59667444229223
 31
0.0
  0
LINE
  5
186
330
A
100
AcDbEntity
  8
TOP
  6
CONTINUOUS
 62
     3
100
AcDbLine
 10
1.361735979715981
 20
-67.72544336319119
 30
0.0
 11
1.361735979715981
 21
-67.81383307775012
 31
0.0
  0
LINE
  5
187
330
A
100
AcDbEntity
  8
TOP
  6
CONTINUOUS
 62
     3
100
AcDbLine
 10
8.625358661015971
 20
-16.00749444961594
 30
0.0
 11
8.707736253738548
 21
-16.00749444961594
 31
0.0
  0
LINE
  5
188
330
A
100
AcDbEntity
  8
TOP
  6
CONTINUOUS
 62
     3
100
AcDbLine
 10
52.79003214836222
 20
6.942073980967193
 30
0.0
 11
52.79003214836222
 21
4.052075227101576
 31
0.0
  0
LINE
  5
189
330
A
100
AcDbEntity
  8
TOP
  6
CONTINUOUS
 62
     3
100
AcDbLine
 10
51.35302774111529
 20
-54.66292651494468
 30
0.0
 11
47.85703253746125
 21
-54.66292651494468
 31
0.0
  0
LINE
  5
18A
330
A
100
AcDbEntity
  8
TOP
  6
CONTINUOUS
 62
     3
100
AcDbLine
 10
2.633766651153588
 20
-21.59930817286231
 30
0.0
 11
3.276449759801265
 21
-22.11998256047625
 31
0.0
  0
LINE
  5
18B
330
A
100
AcDbEntity
  8
TOP
  6
CONTINUOUS
 62
     3
100
AcDbLine
 10
51.29277936617633
 20
-34.51564264297569
 30
0.0
 11
51.29277936617633
 21
-35.1091698010771
 31
0.0
  0
LINE
  5
18C
330
A
100
AcDbEntity
  8
TOP
  6
CONTINUOUS
 62
     3
100
AcDbLine
 10
8.736735900243269
 20
-47.58374643325915
 30
0.0
 11
7.73173602422091
 21
-47.58374643325915
 31
0.0
  0
LINE
  5
18D
330
A
100
AcDbEntity
  8
TOP
  6
CONTINUOUS
 62
     3
100
AcDbLine
 10
47.90640902519318
 20
2.690824349721177
 30
0.0
 11
47.82402745882762
 21
2.690824349721177
 31
0.0
  0
LINE
  5
18E
330
A
100
AcDbEntity
  8
TOP
  6
CONTINUOUS
 62
     3
100
AcDbLine
 10
5.696521520614709
 20
-34.71998325983767
 30
0.0
 11
6.339204629262385
 21
-34.19930887222373
 31
0.0
  0
LINE
  5
18F
330
A
100
AcDbEntity
  8
TOP
  6
CONTINUOUS
 62
     3
100
AcDbLine
 10
1.755021333694464
 20
3.080010890960606
 30
0.0
 11
2.397704442342141
 21
3.600693225860518
 31
0.0
  0
LINE
  5
190
330
A
100
AcDbEntity
  8
TOP
  6
CONTINUOUS
 62
     3
100
AcDbLine
 10
4.838067611058621
 20
-3.329824924469208
 30
0.0
 11
4.420443693796853
 21
-3.747454802195453
 31
0.0
  0
LINE
  5
191
330
A
100
AcDbEntity
  8
TOP
  6
CONTINUOUS
 62
     3
100
AcDbLine
 10
48.10528190930777
 20
-10.09667666753168
 30
0.0
 11
51.10477836926877
 21
-10.09667666753168
 31
0.0
  0
LINE
  5
192
330
A
100
AcDbEntity
  8
TOP
  6
CONTINUOUS
 62
     3
100
AcDbLine
 10
47.73028127352488
 20
-3.785299777984842
 30
0.0
 11
47.73028127352488
 21
-4.202921708425117
 31
0.0
  0
LINE
  5
193
330
A
100
AcDbEntity
  8
TOP
  6
CONTINUOUS
 62
     3
100
AcDbLine
 10
47.73028127352488
 20
-22.5205496152248
 30
0.0
 11
47.73028127352488
 21
-22.58151324590107
 31
0.0
  0
LINE
  5
194
330
A
100
AcDbEntity
  8
TOP
  6
CONTINUOUS
 62
     3
100
AcDbLine
 10
8.736735900243269
 20
-62.62883297602475
 30
0.0
 11
0.2367360591888192
 21
-62.62883297602475
 31
0.0
  0
LINE
  5
195
330
A
100
AcDbEntity
  8
TOP
  6
CONTINUOUS
 62
     3
100
AcDbLine
 10
54.85003225008753
 20
3.927072366078624
 30
0.0
 11
54.91002631187545
 21
3.927072366078624
 31
0.0
  0
LINE
  5
196
330
A
100
AcDbEntity
  8
TOP
  6
CONTINUOUS
 62
     3
100
AcDbLine
 10
54.85003225008753
 20
-21.30953423182226
 30
0.0
 11
54.85003225008753
 21
-21.2729290326442
 31
0.0
  0
LINE
  5
197
330
A
100
AcDbEntity
  8
TOP
  6
CONTINUOUS
 62
     3
100
AcDbLine
 10
7.671736001968508
 20
-41.01988426844375
 30
0.0
 11
7.671736001968508
 21
-34.90694316228315
 31
0.0
  0
LINE
  5
198
330
A
100
AcDbEntity
  8
TOP
  6
CONTINUOUS
 62
     3
100
AcDbLine
 10
8.736735900243269
 20
-54.27374394734823
 30
0.0
 11
0.2367360591888192
 21
-54.27374394734823
 31
0.0
  0
LINE
  5
199
330
A
100
AcDbEntity
  8
TOP
  6
CONTINUOUS
 62
     3
100
AcDbLine
 10
6.221173524856663
 20
-15.15361420313562
 30
0.0
 11
5.45026691754667
 21
-15.77818346023605
 31
0.0
  0
LINE
  5
19A
330
A
100
AcDbEntity
  8
TOP
  6
CONTINUOUS
 62
     3
100
AcDbLine
 10
0.5469861825307037
 20
-28.60749514897736
 30
0.0
 11
3.870239178339689
 21
-28.60749514897736
 31
0.0
  0
LINE
  5
19B
330
A
100
AcDbEntity
  8
TOP
  6
CONTINUOUS
 62
     3
100
AcDbLine
 10
48.10528190930777
 20
-35.29667806625451
 30
0.0
 11
51.10477836926877
 21
-35.29667806625451
 31
0.0
  0
LINE
  5
19C
330
A
100
AcDbEntity
  8
TOP
  6
CONTINUOUS
 62
     3
100
AcDbLine
 10
51.38603281974892
 20
-41.40917412440079
 30
0.0
 11
51.30365125338336
 21
-41.40917412440079
 31
0.0
  0
LINE
  5
19D
330
A
100
AcDbEntity
  8
TOP
  6
CONTINUOUS
 62
     3
100
AcDbLine
 10
51.10477836926877
 20
-9.909176349640237
 30
0.0
 11
48.10528190930777
 21
-9.909176349640237
 31
0.0
  0
LINE
  5
19E
330
A
100
AcDbEntity
  8
TOP
  6
CONTINUOUS
 62
     3
100
AcDbLine
 10
47.73486685752961
 20
-41.02341286341445
 30
0.0
 11
47.82402745882762
 21
-41.06921307245986
 31
0.0
  0
LINE
  5
19F
330
A
100
AcDbEntity
  8
TOP
  6
CONTINUOUS
 62
     3
100
AcDbLine
 10
54.79003024101363
 20
2.427077770233054
 30
0.0
 11
52.91502706209922
 21
2.427077770233054
 31
0.0
  0
LINE
  5
1A0
330
A
100
AcDbEntity
  8
TOP
  6
CONTINUOUS
 62
     3
100
AcDbLine
 10
8.625358661015971
 20
3.080010890960606
 30
0.0
 11
8.426485776901383
 21
3.080010890960606
 31
0.0
  0
LINE
  5
1A1
330
A
100
AcDbEntity
  8
TOP
  6
CONTINUOUS
 62
     3
100
AcDbLine
 10
0.7367355823516709
 20
3.672767162322922
 30
0.0
 11
0.7367355823516709
 21
3.896260738372732
 31
0.0
  0
LINE
  5
1A2
330
A
100
AcDbEntity
  8
TOP
  6
CONTINUOUS
 62
     3
100
AcDbLine
 10
8.486736138661843
 20
-49.6137455304475
 30
0.0
 11
0.4867358207702451
 21
-49.6137455304475
 31
0.0
  0
LINE
  5
1A3
330
A
100
AcDbEntity
  8
TOP
  6
CONTINUOUS
 62
     3
100
AcDbLine
 10
47.75773914655141
 20
-4.249802748362456
 30
0.0
 11
47.82402745882762
 21
-4.269217967987294
 31
0.0
  0
LINE
  5
1A4
330
A
100
AcDbEntity
  8
TOP
  6
CONTINUOUS
 62
     3
100
AcDbLine
 10
51.10477836926877
 20
-16.20917272567796
 30
0.0
 11
48.10528190930777
 21
-16.20917272567796
 31
0.0
  0
LINE
  5
1A5
330
A
100
AcDbEntity
  8
TOP
  6
CONTINUOUS
 62
     3
100
AcDbLine
 10
47.82402745882762
 20
2.503324031829735
 30
0.0
 11
47.90640902519318
 21
2.503324031829735
 31
0.0
  0
LINE
  5
1A6
330
A
100
AcDbEntity
  8
TOP
  6
CONTINUOUS
 62
     3
100
AcDbLine
 10
7.464204549789548
 20
-28.37818415959747
 30
0.0
 11
6.693297942479556
 21
-27.75361490249704
 31
0.0
  0
LINE
  5
1A7
330
A
100
AcDbEntity
  8
TOP
  6
CONTINUOUS
 62
     3
100
AcDbLine
 10
4.838067611058621
 20
-47.42983134587714
 30
0.0
 11
4.420443693796853
 21
-47.84745327631742
 31
0.0
  0
LINE
  5
1A8
330
A
100
AcDbEntity
  8
TOP
  6
CONTINUOUS
 62
     3
100
AcDbLine
 10
8.426485776901383
 20
-3.219993432363086
 30
0.0
 11
5.103232781092398
 21
-3.219993432363086
 31
0.0
  0
LINE
  5
1A9
330
A
100
AcDbEntity
  8
TOP
  6
CONTINUOUS
 62
     3
100
AcDbLine
 10
51.10477836926877
 20
-3.609172026316544
 30
0.0
 11
48.10528190930777
 21
-3.609172026316544
 31
0.0
  0
LINE
  5
1AA
330
A
100
AcDbEntity
  8
TOP
  6
CONTINUOUS
 62
     3
100
AcDbLine
 10
47.90640902519318
 20
-22.50917704900165
 30
0.0
 11
47.82402745882762
 21
-22.50917704900165
 31
0.0
  0
LINE
  5
1AB
330
A
100
AcDbEntity
  8
TOP
  6
CONTINUOUS
 62
     3
100
AcDbLine
 10
8.736735900243269
 20
-62.66603024800758
 30
0.0
 11
8.736735900243269
 21
-62.62883297602475
 31
0.0
  0
LINE
  5
1AC
330
A
100
AcDbEntity
  8
TOP
  6
CONTINUOUS
 62
     3
100
AcDbLine
 10
54.85003225008753
 20
3.802077452341642
 30
0.0
 11
54.85003225008753
 21
3.890459219614593
 31
0.0
  0
LINE
  5
1AD
330
A
100
AcDbEntity
  8
TOP
  6
CONTINUOUS
 62
     3
100
AcDbLine
 10
47.76892892519724
 20
-15.74929507573491
 30
0.0
 11
47.73486685752961
 21
-15.82341146469162
 31
0.0
  0
LINE
  5
1AE
330
A
100
AcDbEntity
  8
TOP
  6
CONTINUOUS
 62
     3
100
AcDbLine
 10
4.420443693796853
 20
-34.2474535306303
 30
0.0
 11
4.486735979716043
 21
-34.31374184290651
 31
0.0
  0
LINE
  5
1AF
330
A
100
AcDbEntity
  8
TOP
  6
CONTINUOUS
 62
     3
100
AcDbLine
 10
54.91002631187545
 20
-22.73631048202574
 30
0.0
 11
54.91002631187545
 21
-22.77292362848978
 31
0.0
  0
LINE
  5
1B0
330
A
100
AcDbEntity
  8
TOP
  6
CONTINUOUS
 62
     3
100
AcDbLine
 10
7.636589129765952
 20
7.456255435943603
 30
0.0
 11
7.671736001968508
 21
7.456255435943603
 31
0.0
  0
LINE
  5
1B1
330
A
100
AcDbEntity
  8
TOP
  6
CONTINUOUS
 62
     3
100
AcDbLine
 10
8.707736253738548
 20
-28.41999483108592
 30
0.0
 11
8.625358661015971
 21
-28.41999483108592
 31
0.0
  0
LINE
  5
1B2
330
A
100
AcDbEntity
  8
TOP
  6
CONTINUOUS
 62
     3
100
AcDbLine
 10
3.522704362869304
 20
-9.478179136912364
 30
0.0
 11
2.751797755559311
 21
-8.853617827097899
 31
0.0
  0
LINE
  5
1B3
330
A
100
AcDbEntity
  8
TOP
  6
CONTINUOUS
 62
     3
100
AcDbLine
 10
4.135404348373467
 20
-28.49765570958527
 30
0.0
 11
4.553026278813741
 21
-28.08003377914499
 31
0.0
  0
LINE
  5
1B4
330
A
100
AcDbEntity
  8
TOP
  6
CONTINUOUS
 62
     3
100
AcDbLine
 10
47.75773914655141
 20
2.050201574961236
 30
0.0
 11
47.82402745882762
 21
2.030786355336399
 31
0.0
  0
LINE
  5
1B5
330
A
100
AcDbEntity
  8
TOP
  6
CONTINUOUS
 62
     3
100
AcDbLine
 10
47.73028127352488
 20
-35.18151394526249
 30
0.0
 11
47.73028127352488
 21
-35.20292393366581
 31
0.0
  0
LINE
  5
1B6
330
A
100
AcDbEntity
  8
TOP
  6
CONTINUOUS
 62
     3
100
AcDbLine
 10
1.30173595746358
 20
-67.72544336319119
 30
0.0
 11
1.30173595746358
 21
-67.68883021672717
 31
0.0
  0
LINE
  5
1B7
330
A
100
AcDbEntity
  8
TOP
  6
CONTINUOUS
 62
     3
100
AcDbLine
 10
47.91318806012564
 20
-41.02341286341445
 30
0.0
 11
47.87913393974396
 21
-40.94929647445775
 31
0.0
  0
LINE
  5
1B8
330
A
100
AcDbEntity
  8
TOP
  6
CONTINUOUS
 62
     3
100
AcDbLine
 10
4.420443693796853
 20
-3.747454802195453
 30
0.0
 11
4.486735979716043
 21
-3.813743114471659
 31
0.0
  0
LINE
  5
1B9
330
A
100
AcDbEntity
  8
TOP
  6
CONTINUOUS
 62
     3
100
AcDbLine
 10
1.284162521362302
 20
2.816256364186512
 30
0.0
 11
1.30173595746358
 21
2.816256364186512
 31
0.0
  0
LINE
  5
1BA
330
A
100
AcDbEntity
  8
TOP
  6
CONTINUOUS
 62
     3
100
AcDbLine
 10
51.4800333182027
 20
6.504575888315817
 30
0.0
 11
51.4800333182027
 21
6.567073345184308
 31
0.0
  0
LINE
  5
1BB
330
A
100
AcDbEntity
  8
TOP
  6
CONTINUOUS
 62
     3
100
AcDbLine
 10
51.29277936617633
 20
3.347071488698242
 30
0.0
 11
51.29277936617633
 21
3.330930550893065
 31
0.0
  0
LINE
  5
1BC
330
A
100
AcDbEntity
  8
TOP
  6
CONTINUOUS
 62
     3
100
AcDbLine
 10
47.8903237183898
 20
-23.14979982376159
 30
0.0
 11
47.91778159141633
 21
-23.10292673111022
 31
0.0
  0
LINE
  5
1BD
330
A
100
AcDbEntity
  8
TOP
  6
CONTINUOUS
 62
     3
100
AcDbLine
 10
3.93125049273178
 20
-28.60749514897736
 30
0.0
 11
4.760402758916285
 21
-28.60749514897736
 31
0.0
  0
LINE
  5
1BE
330
A
100
AcDbEntity
  8
TOP
  6
CONTINUOUS
 62
     3
100
AcDbLine
 10
8.426485776901383
 20
-47.31999190648505
 30
0.0
 11
5.103232781092398
 21
-47.31999190648505
 31
0.0
  0
LINE
  5
1BF
330
A
100
AcDbEntity
  8
TOP
  6
CONTINUOUS
 62
     3
100
AcDbLine
 10
4.420443693796853
 20
-2.74744780858378
 30
0.0
 11
4.002821763356577
 21
-3.165077686310025
 31
0.0
  0
LINE
  5
1C0
330
A
100
AcDbEntity
  8
TOP
  6
CONTINUOUS
 62
     3
100
AcDbLine
 10
8.625358661015971
 20
-22.11999050776222
 30
0.0
 11
8.426485776901383
 21
-22.11999050776222
 31
0.0
  0
LINE
  5
1C1
330
A
100
AcDbEntity
  8
TOP
  6
CONTINUOUS
 62
     3
100
AcDbLine
 10
47.73028127352488
 20
2.51469659805288
 30
0.0
 11
47.73028127352488
 21
2.097074667612604
 31
0.0
  0
LINE
  5
1C2
330
A
100
AcDbEntity
  8
TOP
  6
CONTINUOUS
 62
     3
100
AcDbLine
 10
47.82402745882762
 20
-22.6966773668931
 30
0.0
 11
47.90640902519318
 21
-22.6966773668931
 31
0.0
  0
LINE
  5
1C3
330
A
100
AcDbEntity
  8
TOP
  6
CONTINUOUS
 62
     3
100
AcDbLine
 10
54.85003225008753
 20
2.427077770233054
 30
0.0
 11
54.85003225008753
 21
2.463682969411114
 31
0.0
  0
LINE
  5
1C4
330
A
100
AcDbEntity
  8
TOP
  6
CONTINUOUS
 62
     3
100
AcDbLine
 10
47.82402745882762
 20
-15.869219621023
 30
0.0
 11
47.91318806012564
 21
-15.82341146469162
 31
0.0
  0
LINE
  5
1C5
330
A
100
AcDbEntity
  8
TOP
  6
CONTINUOUS
 62
     3
100
AcDbLine
 10
54.91002631187545
 20
-21.30953423182226
 30
0.0
 11
54.91002631187545
 21
-21.39792394638118
 31
0.0
  0
LINE
  5
1C6
330
A
100
AcDbEntity
  8
TOP
  6
CONTINUOUS
 62
     3
100
AcDbLine
 10
1.30173595746358
 20
-41.20717795689997
 30
0.0
 11
1.30173595746358
 21
-47.31919717788804
 31
0.0
  0
LINE
  5
1C7
330
A
100
AcDbEntity
  8
TOP
  6
CONTINUOUS
 62
     3
100
AcDbLine
 10
0.3481113115946238
 20
-28.41999483108592
 30
0.0
 11
0.2657357056935398
 21
-28.41999483108592
 31
0.0
  0
LINE
  5
1C8
330
A
100
AcDbEntity
  8
TOP
  6
CONTINUOUS
 62
     3
100
AcDbLine
 10
54.91002631187545
 20
3.802077452341642
 30
0.0
 11
54.91002631187545
 21
2.552072683970036
 31
0.0
  0
LINE
  5
1C9
330
A
100
AcDbEntity
  8
TOP
  6
CONTINUOUS
 62
     3
100
AcDbLine
 10
47.91778159141633
 20
-23.10292673111022
 30
0.0
 11
47.91778159141633
 21
-22.69668531417906
 31
0.0
  0
LINE
  5
1CA
330
A
100
AcDbEntity
  8
TOP
  6
CONTINUOUS
 62
     3
100
AcDbLine
 10
47.90640902519318
 20
-10.09667666753168
 30
0.0
 11
48.10528190930777
 21
-10.09667666753168
 31
0.0
  0
LINE
  5
1CB
330
A
100
AcDbEntity
  8
TOP
  6
CONTINUOUS
 62
     3
100
AcDbLine
 10
5.103222846984936
 20
-9.51998980840081
 30
0.0
 11
4.213071187337295
 21
-9.51998980840081
 31
0.0
  0
LINE
  5
1CC
330
A
100
AcDbEntity
  8
TOP
  6
CONTINUOUS
 62
     3
100
AcDbLine
 10
5.103232781092398
 20
-22.30749082565366
 30
0.0
 11
8.426485776901383
 21
-22.30749082565366
 31
0.0
  0
LINE
  5
1CD
330
A
100
AcDbEntity
  8
TOP
  6
CONTINUOUS
 62
     3
100
AcDbLine
 10
47.82402745882762
 20
2.030786355336399
 30
0.0
 11
47.8903237183898
 21
2.050201574961236
 31
0.0
  0
LINE
  5
1CE
330
A
100
AcDbEntity
  8
TOP
  6
CONTINUOUS
 62
     3
100
AcDbLine
 10
47.73028127352488
 20
-35.20292393366581
 30
0.0
 11
47.73028127352488
 21
-35.22433392206913
 31
0.0
  0
LINE
  5
1CF
330
A
100
AcDbEntity
  8
TOP
  6
CONTINUOUS
 62
     3
100
AcDbLine
 10
1.361735979715981
 20
-66.49883143107243
 30
0.0
 11
1.361735979715981
 21
-67.56383132934719
 31
0.0
  0
LINE
  5
1D0
330
A
100
AcDbEntity
  8
TOP
  6
CONTINUOUS
 62
     3
100
AcDbLine
 10
47.73028127352488
 20
-42.00292380650936
 30
0.0
 11
47.75773914655141
 21
-42.04979689916073
 31
0.0
  0
LINE
  5
1D1
330
A
100
AcDbEntity
  8
TOP
  6
CONTINUOUS
 62
     3
100
AcDbLine
 10
4.486735979716043
 20
-9.11374044418368
 30
0.0
 11
4.553026278813741
 21
-9.180036703745855
 31
0.0
  0
LINE
  5
1D2
330
A
100
AcDbEntity
  8
TOP
  6
CONTINUOUS
 62
     3
100
AcDbLine
 10
51.60002938906451
 20
-52.27292331059892
 30
0.0
 11
52.66502928733928
 21
-52.27292331059892
 31
0.0
  0
LINE
  5
1D3
330
A
100
AcDbEntity
  8
TOP
  6
CONTINUOUS
 62
     3
100
AcDbLine
 10
51.29277936617633
 20
-47.05292336146145
 30
0.0
 11
51.29277936617633
 21
-47.06906429926663
 31
0.0
  0
LINE
  5
1D4
330
A
100
AcDbEntity
  8
TOP
  6
CONTINUOUS
 62
     3
100
AcDbLine
 10
47.73028127352488
 20
-22.10292768478452
 30
0.0
 11
47.73028127352488
 21
-22.5205496152248
 31
0.0
  0
LINE
  5
1D5
330
A
100
AcDbEntity
  8
TOP
  6
CONTINUOUS
 62
     3
100
AcDbLine
 10
51.29227868716021
 20
-47.1156433423371
 30
0.0
 11
51.29227868716021
 21
-47.70917050043851
 31
0.0
  0
LINE
  5
1D6
330
A
100
AcDbEntity
  8
TOP
  6
CONTINUOUS
 62
     3
100
AcDbLine
 10
1.755021333694464
 20
-28.41998688379995
 30
0.0
 11
2.397704442342141
 21
-27.89930454890003
 31
0.0
  0
LINE
  5
1D7
330
A
100
AcDbEntity
  8
TOP
  6
CONTINUOUS
 62
     3
100
AcDbLine
 10
4.553026278813741
 20
2.419964949289857
 30
0.0
 11
4.970650196075509
 21
2.837586879730132
 31
0.0
  0
LINE
  5
1D8
330
A
100
AcDbEntity
  8
TOP
  6
CONTINUOUS
 62
     3
100
AcDbLine
 10
51.10477836926877
 20
2.690824349721177
 30
0.0
 11
48.10528190930777
 21
2.690824349721177
 31
0.0
  0
LINE
  5
1D9
330
A
100
AcDbEntity
  8
TOP
  6
CONTINUOUS
 62
     3
100
AcDbLine
 10
51.30365125338336
 20
-22.6966773668931
 30
0.0
 11
51.38603281974892
 21
-22.6966773668931
 31
0.0
  0
LINE
  5
1DA
330
A
100
AcDbEntity
  8
TOP
  6
CONTINUOUS
 62
     3
100
AcDbLine
 10
8.736735900243269
 20
-66.37883138656762
 30
0.0
 11
0.2367360591888192
 21
-66.37883138656762
 31
0.0
  0
LINE
  5
1DB
330
A
100
AcDbEntity
  8
TOP
  6
CONTINUOUS
 62
     3
100
AcDbLine
 10
54.91002631187545
 20
2.463682969411114
 30
0.0
 11
54.91002631187545
 21
2.427077770233054
 31
0.0
  0
LINE
  5
1DC
330
A
100
AcDbEntity
  8
TOP
  6
CONTINUOUS
 62
     3
100
AcDbLine
 10
47.8903237183898
 20
-16.84980344772387
 30
0.0
 11
47.91778159141633
 21
-16.80292240778653
 31
0.0
  0
LINE
  5
1DD
330
A
100
AcDbEntity
  8
TOP
  6
CONTINUOUS
 62
     3
100
AcDbLine
 10
4.420443693796853
 20
-40.54744990666803
 30
0.0
 11
4.486735979716043
 21
-40.6137461662302
 31
0.0
  0
LINE
  5
1DE
330
A
100
AcDbEntity
  8
TOP
  6
CONTINUOUS
 62
     3
100
AcDbLine
 10
54.79003024101363
 20
-22.77292362848978
 30
0.0
 11
54.83245285352177
 21
-22.77292362848978
 31
0.0
  0
LINE
  5
1DF
330
A
100
AcDbEntity
  8
TOP
  6
CONTINUOUS
 62
     3
100
AcDbLine
 10
1.30173595746358
 20
-22.30738751093605
 30
0.0
 11
1.30173595746358
 21
-28.41940673192413
 31
0.0
  0
LINE
  5
1E0
330
A
100
AcDbEntity
  8
TOP
  6
CONTINUOUS
 62
     3
100
AcDbLine
 10
0.2657357056935398
 20
-28.60749514897736
 30
0.0
 11
0.3481113115946238
 21
-28.60749514897736
 31
0.0
  0
LINE
  5
1E1
330
A
100
AcDbEntity
  8
TOP
  6
CONTINUOUS
 62
     3
100
AcDbLine
 10
0.3481113115946238
 20
2.892510573069163
 30
0.0
 11
0.5469861825307037
 21
2.892510573069163
 31
0.0
  0
LINE
  5
1E2
330
A
100
AcDbEntity
  8
TOP
  6
CONTINUOUS
 62
     3
100
AcDbLine
 10
6.221173524856663
 20
-46.65361992518215
 30
0.0
 11
5.45026691754667
 21
-47.27818123499662
 31
0.0
  0
LINE
  5
1E3
330
A
100
AcDbEntity
  8
TOP
  6
CONTINUOUS
 62
     3
100
AcDbLine
 10
5.696521520614709
 20
-9.519981861114839
 30
0.0
 11
6.339204629262385
 21
-8.999307473500897
 31
0.0
  0
LINE
  5
1E4
330
A
100
AcDbEntity
  8
TOP
  6
CONTINUOUS
 62
     3
100
AcDbLine
 10
3.870239178339689
 20
-22.11999050776222
 30
0.0
 11
0.5469861825307037
 21
-22.11999050776222
 31
0.0
  0
LINE
  5
1E5
330
A
100
AcDbEntity
  8
TOP
  6
CONTINUOUS
 62
     3
100
AcDbLine
 10
47.91778159141633
 20
-22.50917704900165
 30
0.0
 11
47.91778159141633
 21
-22.10292768478452
 31
0.0
  0
LINE
  5
1E6
330
A
100
AcDbEntity
  8
TOP
  6
CONTINUOUS
 62
     3
100
AcDbLine
 10
47.90640902519318
 20
-35.29667806625451
 30
0.0
 11
48.10528190930777
 21
-35.29667806625451
 31
0.0
  0
LINE
  5
1E7
330
A
100
AcDbEntity
  8
TOP
  6
CONTINUOUS
 62
     3
100
AcDbLine
 10
4.420443693796853
 20
-10.04745117823317
 30
0.0
 11
4.486735979716043
 21
-10.11373949050938
 31
0.0
  0
LINE
  5
1E8
330
A
100
AcDbEntity
  8
TOP
  6
CONTINUOUS
 62
     3
100
AcDbLine
 10
51.4800333182027
 20
7.067076841990145
 30
0.0
 11
51.51517621676227
 21
7.067076841990145
 31
0.0
  0
LINE
  5
1E9
330
A
100
AcDbEntity
  8
TOP
  6
CONTINUOUS
 62
     3
100
AcDbLine
 10
8.736735900243269
 20
2.816256364186512
 30
0.0
 11
7.73173602422091
 21
2.816256364186512
 31
0.0
  0
LINE
  5
1EA
330
A
100
AcDbEntity
  8
TOP
  6
CONTINUOUS
 62
     3
100
AcDbLine
 10
51.29227868716021
 20
-47.05292336146145
 30
0.0
 11
51.29227868716021
 21
-47.06906429926663
 31
0.0
  0
LINE
  5
1EB
330
A
100
AcDbEntity
  8
TOP
  6
CONTINUOUS
 62
     3
100
AcDbLine
 10
48.10528190930777
 20
-28.99667374293082
 30
0.0
 11
51.10477836926877
 21
-28.99667374293082
 31
0.0
  0
LINE
  5
1EC
330
A
100
AcDbEntity
  8
TOP
  6
CONTINUOUS
 62
     3
100
AcDbLine
 10
6.575266838073832
 20
-21.59930817286231
 30
0.0
 11
7.21794994672151
 21
-22.11998256047625
 31
0.0
  0
LINE
  5
1ED
330
A
100
AcDbEntity
  8
TOP
  6
CONTINUOUS
 62
     3
100
AcDbLine
 10
4.553026278813741
 20
-41.68003352483211
 30
0.0
 11
4.970650196075509
 21
-41.26241159439183
 31
0.0
  0
LINE
  5
1EE
330
A
100
AcDbEntity
  8
TOP
  6
CONTINUOUS
 62
     3
100
AcDbLine
 10
0.5469861825307037
 20
2.892510573069163
 30
0.0
 11
3.870239178339689
 21
2.892510573069163
 31
0.0
  0
LINE
  5
1EF
330
A
100
AcDbEntity
  8
TOP
  6
CONTINUOUS
 62
     3
100
AcDbLine
 10
47.73028127352488
 20
-47.82433462143054
 30
0.0
 11
47.73028127352488
 21
-47.88529825210681
 31
0.0
  0
LINE
  5
1F0
330
A
100
AcDbEntity
  8
TOP
  6
CONTINUOUS
 62
     3
100
AcDbLine
 10
7.551735957463704
 20
-66.43883339564152
 30
0.0
 11
1.421736001968383
 21
-66.43883339564152
 31
0.0
  0
LINE
  5
1F1
330
A
100
AcDbEntity
  8
TOP
  6
CONTINUOUS
 62
     3
100
AcDbLine
 10
47.73028127352488
 20
-16.2205452919011
 30
0.0
 11
47.73028127352488
 21
-16.28151686986334
 31
0.0
  0
LINE
  5
1F2
330
A
100
AcDbEntity
  8
TOP
  6
CONTINUOUS
 62
     3
100
AcDbLine
 10
8.736735900243269
 20
-66.3416341145848
 30
0.0
 11
8.736735900243269
 21
-66.2518337567662
 31
0.0
  0
LINE
  5
1F3
330
A
100
AcDbEntity
  8
TOP
  6
CONTINUOUS
 62
     3
100
AcDbLine
 10
54.83245285352177
 20
3.927072366078624
 30
0.0
 11
54.79003024101363
 21
3.927072366078624
 31
0.0
  0
LINE
  5
1F4
330
A
100
AcDbEntity
  8
TOP
  6
CONTINUOUS
 62
     3
100
AcDbLine
 10
4.486735979716043
 20
-41.61374521255591
 30
0.0
 11
4.553026278813741
 21
-41.68003352483211
 31
0.0
  0
LINE
  5
1F5
330
A
100
AcDbEntity
  8
TOP
  6
CONTINUOUS
 62
     3
100
AcDbLine
 10
47.73002696037385
 20
-52.00292619069536
 30
0.0
 11
47.79353372256053
 21
-52.00292619069536
 31
0.0
  0
LINE
  5
1F6
330
A
100
AcDbEntity
  8
TOP
  6
CONTINUOUS
 62
     3
100
AcDbLine
 10
1.30173595746358
 20
-3.40759706497214
 30
0.0
 11
1.30173595746358
 21
-9.520546118418712
 31
0.0
  0
LINE
  5
1F7
330
A
100
AcDbEntity
  8
TOP
  6
CONTINUOUS
 62
     3
100
AcDbLine
 10
51.29277936617633
 20
-15.56906652450607
 30
0.0
 11
51.29277936617633
 21
-15.61564556757655
 31
0.0
  0
LINE
  5
1F8
330
A
100
AcDbEntity
  8
TOP
  6
CONTINUOUS
 62
     3
100
AcDbLine
 10
47.73028127352488
 20
-3.68151617050193
 30
0.0
 11
47.73028127352488
 21
-3.702926158905251
 31
0.0
  0
LINE
  5
1F9
330
A
100
AcDbEntity
  8
TOP
  6
CONTINUOUS
 62
     3
100
AcDbLine
 10
3.522704362869304
 20
-40.97817691167292
 30
0.0
 11
2.751797755559311
 21
-40.35361560185846
 31
0.0
  0
LINE
  5
1FA
330
A
100
AcDbEntity
  8
TOP
  6
CONTINUOUS
 62
     3
100
AcDbLine
 10
4.838067611058621
 20
-15.92982562383062
 30
0.0
 11
4.420443693796853
 21
-16.3474475542709
 31
0.0
  0
LINE
  5
1FB
330
A
100
AcDbEntity
  8
TOP
  6
CONTINUOUS
 62
     3
100
AcDbLine
 10
1.284162521362302
 20
-46.08374389012761
 30
0.0
 11
1.241735935211178
 21
-46.08374389012761
 31
0.0
  0
LINE
  5
1FC
330
A
100
AcDbEntity
  8
TOP
  6
CONTINUOUS
 62
     3
100
AcDbLine
 10
48.10528190930777
 20
-22.6966773668931
 30
0.0
 11
51.10477836926877
 21
-22.6966773668931
 31
0.0
  0
LINE
  5
1FD
330
A
100
AcDbEntity
  8
TOP
  6
CONTINUOUS
 62
     3
100
AcDbLine
 10
51.38603281974892
 20
-35.10917774836307
 30
0.0
 11
51.30365125338336
 21
-35.10917774836307
 31
0.0
  0
LINE
  5
1FE
330
A
100
AcDbEntity
  8
TOP
  6
CONTINUOUS
 62
     3
100
AcDbLine
 10
0.1483483314513907
 20
-69.74883031845246
 30
0.0
 11
0.2367360591888192
 21
-69.74883031845246
 31
0.0
  0
LINE
  5
1FF
330
A
100
AcDbEntity
  8
TOP
  6
CONTINUOUS
 62
     3
100
AcDbLine
 10
47.73486685752961
 20
-47.32340923945218
 30
0.0
 11
47.82402745882762
 21
-47.36921739578356
 31
0.0
  0
LINE
  5
200
330
A
100
AcDbEntity
  8
TOP
  6
CONTINUOUS
 62
     3
100
AcDbLine
 10
4.486735979716043
 20
-15.41374476750737
 30
0.0
 11
4.553026278813741
 21
-15.48003307978357
 31
0.0
  0
LINE
  5
201
330
A
100
AcDbEntity
  8
TOP
  6
CONTINUOUS
 62
     3
100
AcDbLine
 10
54.85003225008753
 20
-46.5095356305451
 30
0.0
 11
54.85003225008753
 21
-46.47292248408106
 31
0.0
  0
LINE
  5
202
330
A
100
AcDbEntity
  8
TOP
  6
CONTINUOUS
 62
     3
100
AcDbLine
 10
51.29277936617633
 20
-40.7690679232289
 30
0.0
 11
51.29277936617633
 21
-40.81564696629938
 31
0.0
  0
LINE
  5
203
330
A
100
AcDbEntity
  8
TOP
  6
CONTINUOUS
 62
     3
100
AcDbLine
 10
0.5469861825307037
 20
-9.51998980840081
 30
0.0
 11
0.3481113115946238
 21
-9.51998980840081
 31
0.0
  0
LINE
  5
204
330
A
100
AcDbEntity
  8
TOP
  6
CONTINUOUS
 62
     3
100
AcDbLine
 10
0.5469861825307037
 20
-41.20749584833878
 30
0.0
 11
3.870239178339689
 21
-41.20749584833878
 31
0.0
  0
LINE
  5
205
330
A
100
AcDbEntity
  8
TOP
  6
CONTINUOUS
 62
     3
100
AcDbLine
 10
4.135404348373467
 20
3.002342065175285
 30
0.0
 11
4.553026278813741
 21
3.419963995615561
 31
0.0
  0
LINE
  5
206
330
A
100
AcDbEntity
  8
TOP
  6
CONTINUOUS
 62
     3
100
AcDbLine
 10
48.10528190930777
 20
-47.70917844772448
 30
0.0
 11
47.90640902519318
 21
-47.70917844772448
 31
0.0
  0
LINE
  5
207
330
A
100
AcDbEntity
  8
TOP
  6
CONTINUOUS
 62
     3
100
AcDbLine
 10
7.611735979716105
 20
-67.72544336319119
 30
0.0
 11
7.611735979716105
 21
-67.68883021672717
 31
0.0
  0
LINE
  5
208
330
A
100
AcDbEntity
  8
TOP
  6
CONTINUOUS
 62
     3
100
AcDbLine
 10
47.90640902519318
 20
-16.20917272567796
 30
0.0
 11
47.82402745882762
 21
-16.20917272567796
 31
0.0
  0
LINE
  5
209
330
A
100
AcDbEntity
  8
TOP
  6
CONTINUOUS
 62
     3
100
AcDbLine
 10
1.801735480626431
 20
-66.37883138656762
 30
0.0
 11
2.176736116409316
 21
-66.37883138656762
 31
0.0
  0
LINE
  5
20A
330
A
100
AcDbEntity
  8
TOP
  6
CONTINUOUS
 62
     3
100
AcDbLine
 10
2.279673337936418
 20
-46.65361992518215
 30
0.0
 11
1.508766730626425
 21
-47.27818123499662
 31
0.0
  0
LINE
  5
20B
330
A
100
AcDbEntity
  8
TOP
  6
CONTINUOUS
 62
     3
100
AcDbLine
 10
1.517633914947511
 20
-40.98912827173965
 30
0.0
 11
1.508766730626425
 21
-40.97817691167292
 31
0.0
  0
LINE
  5
20C
330
A
100
AcDbEntity
  8
TOP
  6
CONTINUOUS
 62
     3
100
AcDbLine
 10
47.73002696037385
 20
-52.07614850998043
 30
0.0
 11
47.73002696037385
 21
-52.00292619069536
 31
0.0
  0
LINE
  5
20D
330
A
100
AcDbEntity
  8
TOP
  6
CONTINUOUS
 62
     3
100
AcDbLine
 10
1.336882829666135
 20
7.456255435943603
 30
0.0
 11
1.30173595746358
 21
7.456255435943603
 31
0.0
  0
LINE
  5
20E
330
A
100
AcDbEntity
  8
TOP
  6
CONTINUOUS
 62
     3
100
AcDbLine
 10
51.29227868716021
 20
-15.56906652450607
 30
0.0
 11
51.29227868716021
 21
-15.61564556757655
 31
0.0
  0
LINE
  5
20F
330
A
100
AcDbEntity
  8
TOP
  6
CONTINUOUS
 62
     3
100
AcDbLine
 10
3.522704362869304
 20
-47.27818123499662
 30
0.0
 11
2.751797755559311
 21
-46.65361992518215
 31
0.0
  0
LINE
  5
210
330
A
100
AcDbEntity
  8
TOP
  6
CONTINUOUS
 62
     3
100
AcDbLine
 10
5.103222846984936
 20
-41.01999553044733
 30
0.0
 11
4.213071187337295
 21
-41.01999553044733
 31
0.0
  0
LINE
  5
211
330
A
100
AcDbEntity
  8
TOP
  6
CONTINUOUS
 62
     3
100
AcDbLine
 10
3.93125049273178
 20
-3.407493750254529
 30
0.0
 11
4.760402758916285
 21
-3.407493750254529
 31
0.0
  0
LINE
  5
212
330
A
100
AcDbEntity
  8
TOP
  6
CONTINUOUS
 62
     3
100
AcDbLine
 10
8.426485776901383
 20
-15.8199941317245
 30
0.0
 11
5.103232781092398
 21
-15.8199941317245
 31
0.0
  0
LINE
  5
213
330
A
100
AcDbEntity
  8
TOP
  6
CONTINUOUS
 62
     3
100
AcDbLine
 10
1.284162521362302
 20
-47.58374643325915
 30
0.0
 11
1.30173595746358
 21
-47.58374643325915
 31
0.0
  0
LINE
  5
214
330
A
100
AcDbEntity
  8
TOP
  6
CONTINUOUS
 62
     3
100
AcDbLine
 10
47.91778159141633
 20
-16.20917272567796
 30
0.0
 11
47.91778159141633
 21
-15.80292336146083
 31
0.0
  0
LINE
  5
215
330
A
100
AcDbEntity
  8
TOP
  6
CONTINUOUS
 62
     3
100
AcDbLine
 10
47.73028127352488
 20
-28.88151756922476
 30
0.0
 11
47.73028127352488
 21
-28.90292755762808
 31
0.0
  0
LINE
  5
216
330
A
100
AcDbEntity
  8
TOP
  6
CONTINUOUS
 62
     3
100
AcDbLine
 10
0.2367360591888192
 20
-69.80883232752636
 30
0.0
 11
0.1483483314513907
 21
-69.80883232752636
 31
0.0
  0
LINE
  5
217
330
A
100
AcDbEntity
  8
TOP
  6
CONTINUOUS
 62
     3
100
AcDbLine
 10
47.91318806012564
 20
-47.32340923945218
 30
0.0
 11
47.87913393974396
 21
-47.24929285049547
 31
0.0
  0
LINE
  5
218
330
A
100
AcDbEntity
  8
TOP
  6
CONTINUOUS
 62
     3
100
AcDbLine
 10
4.420443693796853
 20
-16.3474475542709
 30
0.0
 11
4.486735979716043
 21
-16.41374381383307
 31
0.0
  0
LINE
  5
219
330
A
100
AcDbEntity
  8
TOP
  6
CONTINUOUS
 62
     3
100
AcDbLine
 10
54.85003225008753
 20
-47.93631188074857
 30
0.0
 11
54.85003225008753
 21
-47.84792216618966
 31
0.0
  0
LINE
  5
21A
330
A
100
AcDbEntity
  8
TOP
  6
CONTINUOUS
 62
     3
100
AcDbLine
 10
7.73173602422091
 20
4.316258907318053
 30
0.0
 11
7.689309438069786
 21
4.316258907318053
 31
0.0
  0
LINE
  5
21B
330
A
100
AcDbEntity
  8
TOP
  6
CONTINUOUS
 62
     3
100
AcDbLine
 10
7.689309438069786
 20
-46.08374389012761
 30
0.0
 11
7.671736001968508
 21
-46.08374389012761
 31
0.0
  0
LINE
  5
21C
330
A
100
AcDbEntity
  8
TOP
  6
CONTINUOUS
 62
     3
100
AcDbLine
 10
47.91778159141633
 20
-28.80917342503937
 30
0.0
 11
47.91778159141633
 21
-28.40292406082224
 31
0.0
  0
LINE
  5
21D
330
A
100
AcDbEntity
  8
TOP
  6
CONTINUOUS
 62
     3
100
AcDbLine
 10
2.279673337936418
 20
-21.45361852645931
 30
0.0
 11
1.508766730626425
 21
-22.07817983627378
 31
0.0
  0
LINE
  5
21E
330
A
100
AcDbEntity
  8
TOP
  6
CONTINUOUS
 62
     3
100
AcDbLine
 10
4.135404348373467
 20
-41.09765640894668
 30
0.0
 11
4.553026278813741
 21
-40.68003447850641
 31
0.0
  0
LINE
  5
21F
330
A
100
AcDbEntity
  8
TOP
  6
CONTINUOUS
 62
     3
100
AcDbLine
 10
47.91778159141633
 20
-48.30292812983305
 30
0.0
 11
47.91778159141633
 21
-47.89667876561593
 31
0.0
  0
LINE
  5
220
330
A
100
AcDbEntity
  8
TOP
  6
CONTINUOUS
 62
     3
100
AcDbLine
 10
51.30365125338336
 20
-47.70917844772448
 30
0.0
 11
51.10477836926877
 21
-47.70917844772448
 31
0.0
  0
LINE
  5
221
330
A
100
AcDbEntity
  8
TOP
  6
CONTINUOUS
 62
     3
100
AcDbLine
 10
7.671736001968508
 20
-69.68883228302155
 30
0.0
 11
7.671736001968508
 21
-67.81383307775012
 31
0.0
  0
LINE
  5
222
330
A
100
AcDbEntity
  8
TOP
  6
CONTINUOUS
 62
     3
100
AcDbLine
 10
54.79003024101363
 20
-22.77292362848978
 30
0.0
 11
52.91502706209922
 21
-22.77292362848978
 31
0.0
  0
LINE
  5
223
330
A
100
AcDbEntity
  8
TOP
  6
CONTINUOUS
 62
     3
100
AcDbLine
 10
47.82402745882762
 20
-22.16921599706072
 30
0.0
 11
47.91318806012564
 21
-22.12340784072935
 31
0.0
  0
LINE
  5
224
330
A
100
AcDbEntity
  8
TOP
  6
CONTINUOUS
 62
     3
100
AcDbLine
 10
4.486735979716043
 20
-46.91374254226793
 30
0.0
 11
4.553026278813741
 21
-46.98003085454413
 31
0.0
  0
LINE
  5
225
330
A
100
AcDbEntity
  8
TOP
  6
CONTINUOUS
 62
     3
100
AcDbLine
 10
47.79353372256053
 20
-54.53592491150025
 30
0.0
 11
47.79353372256053
 21
-52.25292396545529
 31
0.0
  0
LINE
  5
226
330
A
100
AcDbEntity
  8
TOP
  6
CONTINUOUS
 62
     3
100
AcDbLine
 10
0.4867358207702451
 20
-46.72723563512273
 30
0.0
 11
0.4867358207702451
 21
-46.50374205907293
 31
0.0
  0
LINE
  5
227
330
A
100
AcDbEntity
  8
TOP
  6
CONTINUOUS
 62
     3
100
AcDbLine
 10
0.3481113115946238
 20
-22.11999050776222
 30
0.0
 11
0.2657357056935398
 21
-22.11999050776222
 31
0.0
  0
LINE
  5
228
330
A
100
AcDbEntity
  8
TOP
  6
CONTINUOUS
 62
     3
100
AcDbLine
 10
47.90640902519318
 20
-3.796672344207987
 30
0.0
 11
48.10528190930777
 21
-3.796672344207987
 31
0.0
  0
LINE
  5
229
330
A
100
AcDbEntity
  8
TOP
  6
CONTINUOUS
 62
     3
100
AcDbLine
 10
5.696521520614709
 20
-41.01998758316137
 30
0.0
 11
6.339204629262385
 21
-40.49930524826145
 31
0.0
  0
LINE
  5
22A
330
A
100
AcDbEntity
  8
TOP
  6
CONTINUOUS
 62
     3
100
AcDbLine
 10
1.755021333694464
 20
-3.219985485077116
 30
0.0
 11
2.397704442342141
 21
-2.699303150177204
 31
0.0
  0
LINE
  5
22B
330
A
100
AcDbEntity
  8
TOP
  6
CONTINUOUS
 62
     3
100
AcDbLine
 10
4.420443693796853
 20
-15.34744850794519
 30
0.0
 11
4.002821763356577
 21
-15.76507838567144
 31
0.0
  0
LINE
  5
22C
330
A
100
AcDbEntity
  8
TOP
  6
CONTINUOUS
 62
     3
100
AcDbLine
 10
51.29227868716021
 20
3.347071488698242
 30
0.0
 11
51.29227868716021
 21
3.330930550893065
 31
0.0
  0
LINE
  5
22D
330
A
100
AcDbEntity
  8
TOP
  6
CONTINUOUS
 62
     3
100
AcDbLine
 10
48.10528190930777
 20
-16.3966730435694
 30
0.0
 11
51.10477836926877
 21
-16.3966730435694
 31
0.0
  0
LINE
  5
22E
330
A
100
AcDbEntity
  8
TOP
  6
CONTINUOUS
 62
     3
100
AcDbLine
 10
47.73028127352488
 20
-28.90292755762808
 30
0.0
 11
47.73028127352488
 21
-28.9243375460314
 31
0.0
  0
LINE
  5
22F
330
A
100
AcDbEntity
  8
TOP
  6
CONTINUOUS
 62
     3
100
AcDbLine
 10
47.73028127352488
 20
-48.30292812983305
 30
0.0
 11
47.75773914655141
 21
-48.34980122248443
 31
0.0
  0
LINE
  5
230
330
A
100
AcDbEntity
  8
TOP
  6
CONTINUOUS
 62
     3
100
AcDbLine
 10
4.486735979716043
 20
-21.71374114354509
 30
0.0
 11
4.553026278813741
 21
-21.78003740310727
 31
0.0
  0
LINE
  5
231
330
A
100
AcDbEntity
  8
TOP
  6
CONTINUOUS
 62
     3
100
AcDbLine
 10
54.91002631187545
 20
-46.47292248408106
 30
0.0
 11
54.91002631187545
 21
-46.5095356305451
 31
0.0
  0
LINE
  5
232
330
A
100
AcDbEntity
  8
TOP
  6
CONTINUOUS
 62
     3
100
AcDbLine
 10
8.625358661015971
 20
-34.71999120712364
 30
0.0
 11
8.426485776901383
 21
-34.71999120712364
 31
0.0
  0
LINE
  5
233
330
A
100
AcDbEntity
  8
TOP
  6
CONTINUOUS
 62
     3
100
AcDbLine
 10
6.221173524856663
 20
-21.45361852645931
 30
0.0
 11
5.45026691754667
 21
-22.07817983627378
 31
0.0
  0
LINE
  5
234
330
A
100
AcDbEntity
  8
TOP
  6
CONTINUOUS
 62
     3
100
AcDbLine
 10
5.103232781092398
 20
-34.90749152501508
 30
0.0
 11
8.426485776901383
 21
-34.90749152501508
 31
0.0
  0
LINE
  5
235
330
A
100
AcDbEntity
  8
TOP
  6
CONTINUOUS
 62
     3
100
AcDbLine
 10
47.82402745882762
 20
-28.46922032038442
 30
0.0
 11
47.91318806012564
 21
-28.42341216405304
 31
0.0
  0
LINE
  5
236
330
A
100
AcDbEntity
  8
TOP
  6
CONTINUOUS
 62
     3
100
AcDbLine
 10
47.73028127352488
 20
-41.00292476018366
 30
0.0
 11
47.73028127352488
 21
-41.42054669062393
 31
0.0
  0
LINE
  5
237
330
A
100
AcDbEntity
  8
TOP
  6
CONTINUOUS
 62
     3
100
AcDbLine
 10
47.87913393974396
 20
-28.34929577509633
 30
0.0
 11
47.76892892519724
 21
-28.34929577509633
 31
0.0
  0
LINE
  5
238
330
A
100
AcDbEntity
  8
TOP
  6
CONTINUOUS
 62
     3
100
AcDbLine
 10
7.671736001968508
 20
-67.65222104390611
 30
0.0
 11
7.671736001968508
 21
-67.68883021672717
 31
0.0
  0
LINE
  5
239
330
A
100
AcDbEntity
  8
TOP
  6
CONTINUOUS
 62
     3
100
AcDbLine
 10
47.87913393974396
 20
-34.64929215113405
 30
0.0
 11
47.76892892519724
 21
-34.64929215113405
 31
0.0
  0
LINE
  5
23A
330
A
100
AcDbEntity
  8
TOP
  6
CONTINUOUS
 62
     3
100
AcDbLine
 10
4.420443693796853
 20
-47.84745327631742
 30
0.0
 11
4.486735979716043
 21
-47.91374158859363
 31
0.0
  0
LINE
  5
23B
330
A
100
AcDbEntity
  8
TOP
  6
CONTINUOUS
 62
     3
100
AcDbLine
 10
51.4800333182027
 20
-54.53592491150025
 30
0.0
 11
51.4800333182027
 21
-50.25292587280389
 31
0.0
  0
LINE
  5
23C
330
A
100
AcDbEntity
  8
TOP
  6
CONTINUOUS
 62
     3
100
AcDbLine
 10
1.241735935211178
 20
-47.58374643325915
 30
0.0
 11
0.2367360591888192
 21
-47.58374643325915
 31
0.0
  0
LINE
  5
23D
330
A
100
AcDbEntity
  8
TOP
  6
CONTINUOUS
 62
     3
100
AcDbLine
 10
0.2657357056935398
 20
-22.30749082565366
 30
0.0
 11
0.3481113115946238
 21
-22.30749082565366
 31
0.0
  0
LINE
  5
23E
330
A
100
AcDbEntity
  8
TOP
  6
CONTINUOUS
 62
     3
100
AcDbLine
 10
51.38603281974892
 20
-3.609172026316544
 30
0.0
 11
51.30365125338336
 21
-3.609172026316544
 31
0.0
  0
LINE
  5
23F
330
A
100
AcDbEntity
  8
TOP
  6
CONTINUOUS
 62
     3
100
AcDbLine
 10
7.464204549789548
 20
-34.6781805356352
 30
0.0
 11
6.693297942479556
 21
-34.05361922582073
 31
0.0
  0
LINE
  5
240
330
A
100
AcDbEntity
  8
TOP
  6
CONTINUOUS
 62
     3
100
AcDbLine
 10
6.575266838073832
 20
3.600693225860518
 30
0.0
 11
7.21794994672151
 21
3.080010890960606
 31
0.0
  0
LINE
  5
241
330
A
100
AcDbEntity
  8
TOP
  6
CONTINUOUS
 62
     3
100
AcDbLine
 10
4.553026278813741
 20
-10.18003575007155
 30
0.0
 11
4.970650196075509
 21
-9.762413819631284
 31
0.0
  0
LINE
  5
242
330
A
100
AcDbEntity
  8
TOP
  6
CONTINUOUS
 62
     3
100
AcDbLine
 10
47.91778159141633
 20
-9.909176349640237
 30
0.0
 11
47.91778159141633
 21
-9.502926985423107
 31
0.0
  0
LINE
  5
243
330
A
100
AcDbEntity
  8
TOP
  6
CONTINUOUS
 62
     3
100
AcDbLine
 10
47.90640902519318
 20
-28.99667374293082
 30
0.0
 11
48.10528190930777
 21
-28.99667374293082
 31
0.0
  0
LINE
  5
244
330
A
100
AcDbEntity
  8
TOP
  6
CONTINUOUS
 62
     3
100
AcDbLine
 10
8.736735900243269
 20
-69.74883031845246
 30
0.0
 11
8.825123627980698
 21
-69.74883031845246
 31
0.0
  0
LINE
  5
245
330
A
100
AcDbEntity
  8
TOP
  6
CONTINUOUS
 62
     3
100
AcDbLine
 10
47.91318806012564
 20
-9.523407141367933
 30
0.0
 11
47.87913393974396
 21
-9.449290752411224
 31
0.0
  0
LINE
  5
246
330
A
100
AcDbEntity
  8
TOP
  6
CONTINUOUS
 62
     3
100
AcDbLine
 10
4.420443693796853
 20
-22.64745187759459
 30
0.0
 11
4.486735979716043
 21
-22.71374018987079
 31
0.0
  0
LINE
  5
247
330
A
100
AcDbEntity
  8
TOP
  6
CONTINUOUS
 62
     3
100
AcDbLine
 10
54.91002631187545
 20
-46.59792534510402
 30
0.0
 11
54.91002631187545
 21
-47.84792216618966
 31
0.0
  0
LINE
  5
248
330
A
100
AcDbEntity
  8
TOP
  6
CONTINUOUS
 62
     3
100
AcDbLine
 10
8.426485776901383
 20
-34.90749152501508
 30
0.0
 11
8.625358661015971
 21
-34.90749152501508
 31
0.0
  0
LINE
  5
249
330
A
100
AcDbEntity
  8
TOP
  6
CONTINUOUS
 62
     3
100
AcDbLine
 10
8.625358661015971
 20
-3.407493750254529
 30
0.0
 11
8.707736253738548
 21
-3.407493750254529
 31
0.0
  0
LINE
  5
24A
330
A
100
AcDbEntity
  8
TOP
  6
CONTINUOUS
 62
     3
100
AcDbLine
 10
51.29227868716021
 20
3.347071488698242
 30
0.0
 11
51.29227868716021
 21
3.330930550893065
 31
0.0
  0
LINE
  5
24B
330
A
100
AcDbEntity
  8
TOP
  6
CONTINUOUS
 62
     3
100
AcDbLine
 10
51.29277936617633
 20
3.284359455108559
 30
0.0
 11
51.29277936617633
 21
2.690824349721177
 31
0.0
  0
LINE
  5
24C
330
A
100
AcDbEntity
  8
TOP
  6
CONTINUOUS
 62
     3
100
AcDbLine
 10
3.522704362869304
 20
-15.77818346023605
 30
0.0
 11
2.751797755559311
 21
-15.15361420313562
 31
0.0
  0
LINE
  5
24D
330
A
100
AcDbEntity
  8
TOP
  6
CONTINUOUS
 62
     3
100
AcDbLine
 10
3.870239178339689
 20
-34.71999120712364
 30
0.0
 11
0.5469861825307037
 21
-34.71999120712364
 31
0.0
  0
LINE
  5
24E
330
A
100
AcDbEntity
  8
TOP
  6
CONTINUOUS
 62
     3
100
AcDbLine
 10
47.91778159141633
 20
-42.00292380650936
 30
0.0
 11
47.91778159141633
 21
-41.5966823895782
 31
0.0
  0
LINE
  5
24F
330
A
100
AcDbEntity
  8
TOP
  6
CONTINUOUS
 62
     3
100
AcDbLine
 10
47.73028127352488
 20
-41.52433029810684
 30
0.0
 11
47.73028127352488
 21
-41.58530187606909
 31
0.0
  0
LINE
  5
250
330
A
100
AcDbEntity
  8
TOP
  6
CONTINUOUS
 62
     3
100
AcDbLine
 10
7.611735979716105
 20
-66.49883143107243
 30
0.0
 11
7.611735979716105
 21
-67.56383132934719
 31
0.0
  0
LINE
  5
251
330
A
100
AcDbEntity
  8
TOP
  6
CONTINUOUS
 62
     3
100
AcDbLine
 10
47.75773914655141
 20
-35.74980052312301
 30
0.0
 11
47.82402745882762
 21
-35.76921574274784
 31
0.0
  0
LINE
  5
252
330
A
100
AcDbEntity
  8
TOP
  6
CONTINUOUS
 62
     3
100
AcDbLine
 10
0.2367360591888192
 20
4.316258907318053
 30
0.0
 11
1.241735935211178
 21
4.316258907318053
 31
0.0
  0
LINE
  5
253
330
A
100
AcDbEntity
  8
TOP
  6
CONTINUOUS
 62
     3
100
AcDbLine
 10
51.41652655601601
 20
-50.07615041732902
 30
0.0
 11
51.41652655601601
 21
-50.00292412440096
 31
0.0
  0
LINE
  5
254
330
A
100
AcDbEntity
  8
TOP
  6
CONTINUOUS
 62
     3
100
AcDbLine
 10
3.93125049273178
 20
-34.90749152501508
 30
0.0
 11
4.760402758916285
 21
-34.90749152501508
 31
0.0
  0
LINE
  5
255
330
A
100
AcDbEntity
  8
TOP
  6
CONTINUOUS
 62
     3
100
AcDbLine
 10
2.633766651153588
 20
3.600693225860518
 30
0.0
 11
3.276449759801265
 21
3.080010890960606
 31
0.0
  0
LINE
  5
256
330
A
100
AcDbEntity
  8
TOP
  6
CONTINUOUS
 62
     3
100
AcDbLine
 10
0.5469861825307037
 20
-9.707490126292253
 30
0.0
 11
3.870239178339689
 21
-9.707490126292253
 31
0.0
  0
LINE
  5
257
330
A
100
AcDbEntity
  8
TOP
  6
CONTINUOUS
 62
     3
100
AcDbLine
 10
51.38603281974892
 20
-28.80917342503937
 30
0.0
 11
51.30365125338336
 21
-28.80917342503937
 31
0.0
  0
LINE
  5
258
330
A
100
AcDbEntity
  8
TOP
  6
CONTINUOUS
 62
     3
100
AcDbLine
 10
8.825123627980698
 20
-69.80883232752636
 30
0.0
 11
8.736735900243269
 21
-69.80883232752636
 31
0.0
  0
LINE
  5
259
330
A
100
AcDbEntity
  8
TOP
  6
CONTINUOUS
 62
     3
100
AcDbLine
 10
54.91002631187545
 20
2.427077770233054
 30
0.0
 11
54.85003225008753
 21
2.427077770233054
 31
0.0
  0
LINE
  5
25A
330
A
100
AcDbEntity
  8
TOP
  6
CONTINUOUS
 62
     3
100
AcDbLine
 10
47.73028127352488
 20
-10.50292603174881
 30
0.0
 11
47.75773914655141
 21
-10.54979912440017
 31
0.0
  0
LINE
  5
25B
330
A
100
AcDbEntity
  8
TOP
  6
CONTINUOUS
 62
     3
100
AcDbLine
 10
4.486735979716043
 20
-28.01374546686878
 30
0.0
 11
4.553026278813741
 21
-28.08003377914499
 31
0.0
  0
LINE
  5
25C
330
A
100
AcDbEntity
  8
TOP
  6
CONTINUOUS
 62
     3
100
AcDbLine
 10
7.671736001968508
 20
-15.82078091303553
 30
0.0
 11
7.671736001968508
 21
-9.707839806874934
 31
0.0
  0
LINE
  5
25D
330
A
100
AcDbEntity
  8
TOP
  6
CONTINUOUS
 62
     3
100
AcDbLine
 10
0.3481113115946238
 20
-34.90749152501508
 30
0.0
 11
0.5469861825307037
 21
-34.90749152501508
 31
0.0
  0
LINE
  5
25E
330
A
100
AcDbEntity
  8
TOP
  6
CONTINUOUS
 62
     3
100
AcDbLine
 10
51.29227868716021
 20
-9.269070148468349
 30
0.0
 11
51.29227868716021
 21
-9.315641244252857
 31
0.0
  0
LINE
  5
25F
330
A
100
AcDbEntity
  8
TOP
  6
CONTINUOUS
 62
     3
100
AcDbLine
 10
51.30365125338336
 20
-16.20917272567796
 30
0.0
 11
51.10477836926877
 21
-16.20917272567796
 31
0.0
  0
LINE
  5
260
330
A
100
AcDbEntity
  8
TOP
  6
CONTINUOUS
 62
     3
100
AcDbLine
 10
5.103222846984936
 20
-15.8199941317245
 30
0.0
 11
4.213071187337295
 21
-15.8199941317245
 31
0.0
  0
LINE
  5
261
330
A
100
AcDbEntity
  8
TOP
  6
CONTINUOUS
 62
     3
100
AcDbLine
 10
0.2367360591888192
 20
-51.86376921335973
 30
0.0
 11
0.2367360591888192
 21
-49.86374330520743
 31
0.0
  0
LINE
  5
262
330
A
100
AcDbEntity
  8
TOP
  6
CONTINUOUS
 62
     3
100
AcDbLine
 10
47.73028127352488
 20
-34.70292838414594
 30
0.0
 11
47.73028127352488
 21
-35.12055031458622
 31
0.0
  0
LINE
  5
263
330
A
100
AcDbEntity
  8
TOP
  6
CONTINUOUS
 62
     3
100
AcDbLine
 10
48.10528190930777
 20
-41.40917412440079
 30
0.0
 11
47.90640902519318
 21
-41.40917412440079
 31
0.0
  0
LINE
  5
264
330
A
100
AcDbEntity
  8
TOP
  6
CONTINUOUS
 62
     3
100
AcDbLine
 10
47.82402745882762
 20
-35.76921574274784
 30
0.0
 11
47.8903237183898
 21
-35.74980052312301
 31
0.0
  0
LINE
  5
265
330
A
100
AcDbEntity
  8
TOP
  6
CONTINUOUS
 62
     3
100
AcDbLine
 10
4.486735979716043
 20
2.486261208852033
 30
0.0
 11
4.553026278813741
 21
2.419964949289857
 31
0.0
  0
LINE
  5
266
330
A
100
AcDbEntity
  8
TOP
  6
CONTINUOUS
 62
     3
100
AcDbLine
 10
51.41652655601601
 20
-50.00292412440096
 30
0.0
 11
51.4800333182027
 21
-50.00292412440096
 31
0.0
  0
LINE
  5
267
330
A
100
AcDbEntity
  8
TOP
  6
CONTINUOUS
 62
     3
100
AcDbLine
 10
51.29277936617633
 20
-2.952924887339481
 30
0.0
 11
51.29277936617633
 21
-2.969065825144657
 31
0.0
  0
LINE
  5
268
330
A
100
AcDbEntity
  8
TOP
  6
CONTINUOUS
 62
     3
100
AcDbLine
 10
8.736735900243269
 20
-51.86376921335973
 30
0.0
 11
8.736735900243269
 21
-49.86374330520743
 31
0.0
  0
LINE
  5
269
330
A
100
AcDbEntity
  8
TOP
  6
CONTINUOUS
 62
     3
100
AcDbLine
 10
47.73028127352488
 20
2.597078164418441
 30
0.0
 11
47.73028127352488
 21
2.57566817601512
 31
0.0
  0
LINE
  5
26A
330
A
100
AcDbEntity
  8
TOP
  6
CONTINUOUS
 62
     3
100
AcDbLine
 10
1.755021333694464
 20
-34.71998325983767
 30
0.0
 11
2.397704442342141
 21
-34.19930887222373
 31
0.0
  0
LINE
  5
26B
330
A
100
AcDbEntity
  8
TOP
  6
CONTINUOUS
 62
     3
100
AcDbLine
 10
2.279673337936418
 20
3.746382872263516
 30
0.0
 11
1.508766730626425
 21
3.121821562449051
 31
0.0
  0
LINE
  5
26C
330
A
100
AcDbEntity
  8
TOP
  6
CONTINUOUS
 62
     3
100
AcDbLine
 10
4.135404348373467
 20
-9.59765863418613
 30
0.0
 11
4.553026278813741
 21
-9.180036703745855
 31
0.0
  0
LINE
  5
26D
330
A
100
AcDbEntity
  8
TOP
  6
CONTINUOUS
 62
     3
100
AcDbLine
 10
8.736735900243269
 20
-54.27374394734823
 30
0.0
 11
8.736735900243269
 21
-54.2365466753654
 31
0.0
  0
LINE
  5
26E
330
A
100
AcDbEntity
  8
TOP
  6
CONTINUOUS
 62
     3
100
AcDbLine
 10
47.91778159141633
 20
-3.609172026316544
 30
0.0
 11
47.91778159141633
 21
-3.202922662099414
 31
0.0
  0
LINE
  5
26F
330
A
100
AcDbEntity
  8
TOP
  6
CONTINUOUS
 62
     3
100
AcDbLine
 10
47.73028127352488
 20
-22.58151324590107
 30
0.0
 11
47.73028127352488
 21
-22.60292323430439
 31
0.0
  0
LINE
  5
270
330
A
100
AcDbEntity
  8
TOP
  6
CONTINUOUS
 62
     3
100
AcDbLine
 10
54.85003225008753
 20
-46.47292248408106
 30
0.0
 11
54.91002631187545
 21
-46.47292248408106
 31
0.0
  0
LINE
  5
271
330
A
100
AcDbEntity
  8
TOP
  6
CONTINUOUS
 62
     3
100
AcDbLine
 10
4.420443693796853
 20
-28.94744825363231
 30
0.0
 11
4.486735979716043
 21
-29.01374451319449
 31
0.0
  0
LINE
  5
272
330
A
100
AcDbEntity
  8
TOP
  6
CONTINUOUS
 62
     3
100
AcDbLine
 10
54.85003225008753
 20
-22.77292362848978
 30
0.0
 11
54.85003225008753
 21
-22.73631048202574
 31
0.0
  0
LINE
  5
273
330
A
100
AcDbEntity
  8
TOP
  6
CONTINUOUS
 62
     3
100
AcDbLine
 10
7.671736001968508
 20
-34.71964947382693
 30
0.0
 11
7.671736001968508
 21
-28.60670042038035
 31
0.0
  0
LINE
  5
274
330
A
100
AcDbEntity
  8
TOP
  6
CONTINUOUS
 62
     3
100
AcDbLine
 10
8.736735900243269
 20
-54.2365466753654
 30
0.0
 11
8.736735900243269
 21
-54.14674234390381
 31
0.0
  0
LINE
  5
275
330
A
100
AcDbEntity
  8
TOP
  6
CONTINUOUS
 62
     3
100
AcDbLine
 10
51.29227868716021
 20
-15.55292558670089
 30
0.0
 11
51.29227868716021
 21
-15.56906652450607
 31
0.0
  0
LINE
  5
276
330
A
100
AcDbEntity
  8
TOP
  6
CONTINUOUS
 62
     3
100
AcDbLine
 10
7.73173602422091
 20
-46.08374389012761
 30
0.0
 11
8.736735900243269
 21
-46.08374389012761
 31
0.0
  0
LINE
  5
277
330
A
100
AcDbEntity
  8
TOP
  6
CONTINUOUS
 62
     3
100
AcDbLine
 10
51.10477836926877
 20
-16.3966730435694
 30
0.0
 11
51.30365125338336
 21
-16.3966730435694
 31
0.0
  0
LINE
  5
278
330
A
100
AcDbEntity
  8
TOP
  6
CONTINUOUS
 62
     3
100
AcDbLine
 10
5.696521520614709
 20
-15.81998618443853
 30
0.0
 11
6.339204629262385
 21
-15.29930384953862
 31
0.0
  0
LINE
  5
279
330
A
100
AcDbEntity
  8
TOP
  6
CONTINUOUS
 62
     3
100
AcDbLine
 10
0.2367360591888192
 20
-54.27374394734823
 30
0.0
 11
0.2367360591888192
 21
-54.2365466753654
 31
0.0
  0
LINE
  5
27A
330
A
100
AcDbEntity
  8
TOP
  6
CONTINUOUS
 62
     3
100
AcDbLine
 10
8.426485776901383
 20
-28.41999483108592
 30
0.0
 11
5.103232781092398
 21
-28.41999483108592
 31
0.0
  0
LINE
  5
27B
330
A
100
AcDbEntity
  8
TOP
  6
CONTINUOUS
 62
     3
100
AcDbLine
 10
51.29227868716021
 20
-15.56906652450607
 30
0.0
 11
51.29227868716021
 21
-15.61564556757655
 31
0.0
  0
LINE
  5
27C
330
A
100
AcDbEntity
  8
TOP
  6
CONTINUOUS
 62
     3
100
AcDbLine
 10
47.76892892519724
 20
3.15070199966422
 30
0.0
 11
47.73486685752961
 21
3.076593557993483
 31
0.0
  0
LINE
  5
27D
330
A
100
AcDbEntity
  8
TOP
  6
CONTINUOUS
 62
     3
100
AcDbLine
 10
51.30365125338336
 20
-41.40917412440079
 30
0.0
 11
51.10477836926877
 21
-41.40917412440079
 31
0.0
  0
LINE
  5
27E
330
A
100
AcDbEntity
  8
TOP
  6
CONTINUOUS
 62
     3
100
AcDbLine
 10
1.361735979715981
 20
-67.65222104390611
 30
0.0
 11
1.361735979715981
 21
-67.68883021672717
 31
0.0
  0
LINE
  5
27F
330
A
100
AcDbEntity
  8
TOP
  6
CONTINUOUS
 62
     3
100
AcDbLine
 10
52.91502706209922
 20
3.927072366078624
 30
0.0
 11
54.79003024101363
 21
3.927072366078624
 31
0.0
  0
LINE
  5
280
330
A
100
AcDbEntity
  8
TOP
  6
CONTINUOUS
 62
     3
100
AcDbLine
 10
51.29227868716021
 20
-2.952924887339481
 30
0.0
 11
51.29227868716021
 21
-2.969065825144657
 31
0.0
  0
LINE
  5
281
330
A
100
AcDbEntity
  8
TOP
  6
CONTINUOUS
 62
     3
100
AcDbLine
 10
8.861734787623236
 20
2.941259225209464
 30
0.0
 11
8.861734787623236
 21
4.191256046295101
 31
0.0
  0
LINE
  5
282
330
A
100
AcDbEntity
  8
TOP
  6
CONTINUOUS
 62
     3
100
AcDbLine
 10
7.73173602422091
 20
-20.88374249140477
 30
0.0
 11
7.689309438069786
 21
-20.88374249140477
 31
0.0
  0
LINE
  5
283
330
A
100
AcDbEntity
  8
TOP
  6
CONTINUOUS
 62
     3
100
AcDbLine
 10
51.29227868716021
 20
-40.75292698542372
 30
0.0
 11
51.29227868716021
 21
-40.7690679232289
 31
0.0
  0
LINE
  5
284
330
A
100
AcDbEntity
  8
TOP
  6
CONTINUOUS
 62
     3
100
AcDbLine
 10
1.284162521362302
 20
-20.88374249140477
 30
0.0
 11
1.241735935211178
 21
-20.88374249140477
 31
0.0
  0
LINE
  5
285
330
A
100
AcDbEntity
  8
TOP
  6
CONTINUOUS
 62
     3
100
AcDbLine
 10
51.29277936617633
 20
-40.81564696629938
 30
0.0
 11
51.29277936617633
 21
-41.40917412440079
 31
0.0
  0
LINE
  5
286
330
A
100
AcDbEntity
  8
TOP
  6
CONTINUOUS
 62
     3
100
AcDbLine
 10
0.3481113115946238
 20
-47.31999190648505
 30
0.0
 11
0.2657357056935398
 21
-47.31999190648505
 31
0.0
  0
LINE
  5
287
330
A
100
AcDbEntity
  8
TOP
  6
CONTINUOUS
 62
     3
100
AcDbLine
 10
6.575266838073832
 20
-27.89930454890003
 30
0.0
 11
7.21794994672151
 21
-28.41998688379995
 31
0.0
  0
LINE
  5
288
330
A
100
AcDbEntity
  8
TOP
  6
CONTINUOUS
 62
     3
100
AcDbLine
 10
51.29227868716021
 20
-21.86907084782976
 30
0.0
 11
51.29227868716021
 21
-21.91564194361427
 31
0.0
  0
LINE
  5
289
330
A
100
AcDbEntity
  8
TOP
  6
CONTINUOUS
 62
     3
100
AcDbLine
 10
51.29227868716021
 20
-40.7690679232289
 30
0.0
 11
51.29227868716021
 21
-40.81564696629938
 31
0.0
  0
LINE
  5
28A
330
A
100
AcDbEntity
  8
TOP
  6
CONTINUOUS
 62
     3
100
AcDbLine
 10
54.83245285352177
 20
-46.47292248408106
 30
0.0
 11
54.79003024101363
 21
-46.47292248408106
 31
0.0
  0
LINE
  5
28B
330
A
100
AcDbEntity
  8
TOP
  6
CONTINUOUS
 62
     3
100
AcDbLine
 10
51.29227868716021
 20
-34.46907154719118
 30
0.0
 11
51.29227868716021
 21
-34.51564264297569
 31
0.0
  0
LINE
  5
28C
330
A
100
AcDbEntity
  8
TOP
  6
CONTINUOUS
 62
     3
100
AcDbLine
 10
0.5469861825307037
 20
-3.219993432363086
 30
0.0
 11
0.3481113115946238
 21
-3.219993432363086
 31
0.0
  0
LINE
  5
28D
330
A
100
AcDbEntity
  8
TOP
  6
CONTINUOUS
 62
     3
100
AcDbLine
 10
1.361735979715981
 20
-69.68883228302155
 30
0.0
 11
1.361735979715981
 21
-67.81383307775012
 31
0.0
  0
LINE
  5
28E
330
A
100
AcDbEntity
  8
TOP
  6
CONTINUOUS
 62
     3
100
AcDbLine
 10
1.284162521362302
 20
-22.38374503453631
 30
0.0
 11
1.30173595746358
 21
-22.38374503453631
 31
0.0
  0
LINE
  5
28F
330
A
100
AcDbEntity
  8
TOP
  6
CONTINUOUS
 62
     3
100
AcDbLine
 10
0.11173518498736
 20
4.191256046295101
 30
0.0
 11
0.11173518498736
 21
2.941259225209464
 31
0.0
  0
LINE
  5
290
330
A
100
AcDbEntity
  8
TOP
  6
CONTINUOUS
 62
     3
100
AcDbLine
 10
8.707736253738548
 20
-15.8199941317245
 30
0.0
 11
8.625358661015971
 21
-15.8199941317245
 31
0.0
  0
LINE
  5
291
330
A
100
AcDbEntity
  8
TOP
  6
CONTINUOUS
 62
     3
100
AcDbLine
 10
0.2657357056935398
 20
-47.5074922243765
 30
0.0
 11
0.3481113115946238
 21
-47.5074922243765
 31
0.0
  0
LINE
  5
292
330
A
100
AcDbEntity
  8
TOP
  6
CONTINUOUS
 62
     3
100
AcDbLine
 10
51.29277936617633
 20
-15.55292558670089
 30
0.0
 11
51.29277936617633
 21
-15.56906652450607
 31
0.0
  0
LINE
  5
293
330
A
100
AcDbEntity
  8
TOP
  6
CONTINUOUS
 62
     3
100
AcDbLine
 10
3.93125049273178
 20
-41.20749584833878
 30
0.0
 11
4.760402758916285
 21
-41.20749584833878
 31
0.0
  0
LINE
  5
294
330
A
100
AcDbEntity
  8
TOP
  6
CONTINUOUS
 62
     3
100
AcDbLine
 10
8.736735900243269
 20
-54.14674234390381
 30
0.0
 11
8.736735900243269
 21
-51.86374139785884
 31
0.0
  0
LINE
  5
295
330
A
100
AcDbEntity
  8
TOP
  6
CONTINUOUS
 62
     3
100
AcDbLine
 10
51.29227868716021
 20
-34.45292266210003
 30
0.0
 11
51.29227868716021
 21
-34.46907154719118
 31
0.0
  0
LINE
  5
296
330
A
100
AcDbEntity
  8
TOP
  6
CONTINUOUS
 62
     3
100
AcDbLine
 10
51.29277936617633
 20
-28.15292628606231
 30
0.0
 11
51.29277936617633
 21
-28.16906722386748
 31
0.0
  0
LINE
  5
297
330
A
100
AcDbEntity
  8
TOP
  6
CONTINUOUS
 62
     3
100
AcDbLine
 10
0.2657357056935398
 20
-41.20749584833878
 30
0.0
 11
0.3481113115946238
 21
-41.20749584833878
 31
0.0
  0
LINE
  5
298
330
A
100
AcDbEntity
  8
TOP
  6
CONTINUOUS
 62
     3
100
AcDbLine
 10
51.29277936617633
 20
3.330930550893065
 30
0.0
 11
51.29277936617633
 21
3.284359455108559
 31
0.0
  0
LINE
  5
299
330
A
100
AcDbEntity
  8
TOP
  6
CONTINUOUS
 62
     3
100
AcDbLine
 10
7.689309438069786
 20
-22.38374503453631
 30
0.0
 11
7.73173602422091
 21
-22.38374503453631
 31
0.0
  0
LINE
  5
29A
330
A
100
AcDbEntity
  8
TOP
  6
CONTINUOUS
 62
     3
100
AcDbLine
 10
47.91778159141633
 20
-35.70292743047164
 30
0.0
 11
47.91778159141633
 21
-35.29667806625451
 31
0.0
  0
LINE
  5
29B
330
A
100
AcDbEntity
  8
TOP
  6
CONTINUOUS
 62
     3
100
AcDbLine
 10
51.29277936617633
 20
-21.91564194361427
 30
0.0
 11
51.29277936617633
 21
-22.50917704900165
 31
0.0
  0
LINE
  5
29C
330
A
100
AcDbEntity
  8
TOP
  6
CONTINUOUS
 62
     3
100
AcDbLine
 10
0.3481113115946238
 20
-15.8199941317245
 30
0.0
 11
0.2657357056935398
 21
-15.8199941317245
 31
0.0
  0
LINE
  5
29D
330
A
100
AcDbEntity
  8
TOP
  6
CONTINUOUS
 62
     3
100
AcDbLine
 10
47.90640902519318
 20
2.503324031829735
 30
0.0
 11
48.10528190930777
 21
2.503324031829735
 31
0.0
  0
LINE
  5
29E
330
A
100
AcDbEntity
  8
TOP
  6
CONTINUOUS
 62
     3
100
AcDbLine
 10
51.29227868716021
 20
-15.55292558670089
 30
0.0
 11
51.29227868716021
 21
-15.56906652450607
 31
0.0
  0
LINE
  5
29F
330
A
100
AcDbEntity
  8
TOP
  6
CONTINUOUS
 62
     3
100
AcDbLine
 10
6.221173524856663
 20
3.746382872263516
 30
0.0
 11
5.45026691754667
 21
3.121821562449051
 31
0.0
  0
LINE
  5
2A0
330
A
100
AcDbEntity
  8
TOP
  6
CONTINUOUS
 62
     3
100
AcDbLine
 10
5.103232781092398
 20
-3.407493750254529
 30
0.0
 11
8.426485776901383
 21
-3.407493750254529
 31
0.0
  0
LINE
  5
2A1
330
A
100
AcDbEntity
  8
TOP
  6
CONTINUOUS
 62
     3
100
AcDbLine
 10
51.29227868716021
 20
-21.86907084782976
 30
0.0
 11
51.29227868716021
 21
-21.91564194361427
 31
0.0
  0
LINE
  5
2A2
330
A
100
AcDbEntity
  8
TOP
  6
CONTINUOUS
 62
     3
100
AcDbLine
 10
48.10528190930777
 20
-3.796672344207987
 30
0.0
 11
51.10477836926877
 21
-3.796672344207987
 31
0.0
  0
LINE
  5
2A3
330
A
100
AcDbEntity
  8
TOP
  6
CONTINUOUS
 62
     3
100
AcDbLine
 10
47.73028127352488
 20
-22.60292323430439
 30
0.0
 11
47.73028127352488
 21
-22.62433322270771
 31
0.0
  0
LINE
  5
2A4
330
A
100
AcDbEntity
  8
TOP
  6
CONTINUOUS
 62
     3
100
AcDbLine
 10
8.236736377080417
 20
-21.52723423639991
 30
0.0
 11
8.236736377080417
 21
-21.3037406603501
 31
0.0
  0
LINE
  5
2A5
330
A
100
AcDbEntity
  8
TOP
  6
CONTINUOUS
 62
     3
100
AcDbLine
 10
0.2367360591888192
 20
-62.75583060582619
 30
0.0
 11
0.2367360591888192
 21
-62.66603024800758
 31
0.0
  0
LINE
  5
2A6
330
A
100
AcDbEntity
  8
TOP
  6
CONTINUOUS
 62
     3
100
AcDbLine
 10
54.85003225008753
 20
3.890459219614593
 30
0.0
 11
54.85003225008753
 21
3.927072366078624
 31
0.0
  0
LINE
  5
2A7
330
A
100
AcDbEntity
  8
TOP
  6
CONTINUOUS
 62
     3
100
AcDbLine
 10
47.73486685752961
 20
-15.82341146469162
 30
0.0
 11
47.82402745882762
 21
-15.869219621023
 31
0.0
  0
LINE
  5
2A8
330
A
100
AcDbEntity
  8
TOP
  6
CONTINUOUS
 62
     3
100
AcDbLine
 10
4.486735979716043
 20
-34.31374184290651
 30
0.0
 11
4.553026278813741
 21
-34.38003015518271
 31
0.0
  0
LINE
  5
2A9
330
A
100
AcDbEntity
  8
TOP
  6
CONTINUOUS
 62
     3
100
AcDbLine
 10
54.85003225008753
 20
-22.64792871475279
 30
0.0
 11
54.85003225008753
 21
-21.39792394638118
 31
0.0
  0
LINE
  5
2AA
330
A
100
AcDbEntity
  8
TOP
  6
CONTINUOUS
 62
     3
100
AcDbLine
 10
8.625358661015971
 20
-28.41999483108592
 30
0.0
 11
8.426485776901383
 21
-28.41999483108592
 31
0.0
  0
LINE
  5
2AB
330
A
100
AcDbEntity
  8
TOP
  6
CONTINUOUS
 62
     3
100
AcDbLine
 10
47.73028127352488
 20
-4.202921708425117
 30
0.0
 11
47.75773914655141
 21
-4.249802748362456
 31
0.0
  0
LINE
  5
2AC
330
A
100
AcDbEntity
  8
TOP
  6
CONTINUOUS
 62
     3
100
AcDbLine
 10
47.73028127352488
 20
-10.02433252334629
 30
0.0
 11
47.73028127352488
 21
-10.08530410130853
 31
0.0
  0
LINE
  5
2AD
330
A
100
AcDbEntity
  8
TOP
  6
CONTINUOUS
 62
     3
100
AcDbLine
 10
4.420443693796853
 20
-27.94744920730661
 30
0.0
 11
4.002821763356577
 21
-28.36507113774688
 31
0.0
  0
LINE
  5
2AE
330
A
100
AcDbEntity
  8
TOP
  6
CONTINUOUS
 62
     3
100
AcDbLine
 10
47.73486685752961
 20
-22.12340784072935
 30
0.0
 11
47.82402745882762
 21
-22.16921599706072
 31
0.0
  0
LINE
  5
2AF
330
A
100
AcDbEntity
  8
TOP
  6
CONTINUOUS
 62
     3
100
AcDbLine
 10
47.73028127352488
 20
-28.40292406082224
 30
0.0
 11
47.73028127352488
 21
-28.82054599126252
 31
0.0
  0
LINE
  5
2B0
330
A
100
AcDbEntity
  8
TOP
  6
CONTINUOUS
 62
     3
100
AcDbLine
 10
51.10477836926877
 20
-41.59667444229223
 30
0.0
 11
51.30365125338336
 21
-41.59667444229223
 31
0.0
  0
LINE
  5
2B1
330
A
100
AcDbEntity
  8
TOP
  6
CONTINUOUS
 62
     3
100
AcDbLine
 10
1.30173595746358
 20
-67.68883021672717
 30
0.0
 11
1.30173595746358
 21
-67.65222104390611
 31
0.0
  0
LINE
  5
2B2
330
A
100
AcDbEntity
  8
TOP
  6
CONTINUOUS
 62
     3
100
AcDbLine
 10
47.87913393974396
 20
-40.94929647445775
 30
0.0
 11
47.76892892519724
 21
-40.94929647445775
 31
0.0
  0
LINE
  5
2B3
330
A
100
AcDbEntity
  8
TOP
  6
CONTINUOUS
 62
     3
100
AcDbLine
 10
4.486735979716043
 20
-3.813743114471659
 30
0.0
 11
4.553026278813741
 21
-3.880031426747865
 31
0.0
  0
LINE
  5
2B4
330
A
100
AcDbEntity
  8
TOP
  6
CONTINUOUS
 62
     3
100
AcDbLine
 10
52.79003214836222
 20
2.302074909210102
 30
0.0
 11
52.79003214836222
 21
-21.14792617162125
 31
0.0
  0
LINE
  5
2B5
330
A
100
AcDbEntity
  8
TOP
  6
CONTINUOUS
 62
     3
100
AcDbLine
 10
1.30173595746358
 20
4.316258907318053
 30
0.0
 11
1.284162521362302
 21
4.316258907318053
 31
0.0
  0
LINE
  5
2B6
330
A
100
AcDbEntity
  8
TOP
  6
CONTINUOUS
 62
     3
100
AcDbLine
 10
0.2657357056935398
 20
-16.00749444961594
 30
0.0
 11
0.3481113115946238
 21
-16.00749444961594
 31
0.0
  0
LINE
  5
2B7
330
A
100
AcDbEntity
  8
TOP
  6
CONTINUOUS
 62
     3
100
AcDbLine
 10
0.3481113115946238
 20
-41.20749584833878
 30
0.0
 11
0.5469861825307037
 21
-41.20749584833878
 31
0.0
  0
LINE
  5
2B8
330
A
100
AcDbEntity
  8
TOP
  6
CONTINUOUS
 62
     3
100
AcDbLine
 10
51.38603281974892
 20
-47.70917844772448
 30
0.0
 11
51.30365125338336
 21
-47.70917844772448
 31
0.0
  0
LINE
  5
2B9
330
A
100
AcDbEntity
  8
TOP
  6
CONTINUOUS
 62
     3
100
AcDbLine
 10
8.625358661015971
 20
-41.20749584833878
 30
0.0
 11
8.707736253738548
 21
-41.20749584833878
 31
0.0
  0
LINE
  5
2BA
330
A
100
AcDbEntity
  8
TOP
  6
CONTINUOUS
 62
     3
100
AcDbLine
 10
8.707736253738548
 20
-41.01999553044733
 30
0.0
 11
8.625358661015971
 21
-41.01999553044733
 31
0.0
  0
LINE
  5
2BB
330
A
100
AcDbEntity
  8
TOP
  6
CONTINUOUS
 62
     3
100
AcDbLine
 10
0.5469861825307037
 20
-22.11999050776222
 30
0.0
 11
0.3481113115946238
 21
-22.11999050776222
 31
0.0
  0
LINE
  5
2BC
330
A
100
AcDbEntity
  8
TOP
  6
CONTINUOUS
 62
     3
100
AcDbLine
 10
5.103232781092398
 20
-47.5074922243765
 30
0.0
 11
8.426485776901383
 21
-47.5074922243765
 31
0.0
  0
LINE
  5
2BD
330
A
100
AcDbEntity
  8
TOP
  6
CONTINUOUS
 62
     3
100
AcDbLine
 10
3.870239178339689
 20
-3.219993432363086
 30
0.0
 11
0.5469861825307037
 21
-3.219993432363086
 31
0.0
  0
LINE
  5
2BE
330
A
100
AcDbEntity
  8
TOP
  6
CONTINUOUS
 62
     3
100
AcDbLine
 10
7.464204549789548
 20
-40.97817691167292
 30
0.0
 11
6.693297942479556
 21
-40.35361560185846
 31
0.0
  0
LINE
  5
2BF
330
A
100
AcDbEntity
  8
TOP
  6
CONTINUOUS
 62
     3
100
AcDbLine
 10
47.91778159141633
 20
2.690824349721177
 30
0.0
 11
47.91778159141633
 21
3.097073713938308
 31
0.0
  0
LINE
  5
2C0
330
A
100
AcDbEntity
  8
TOP
  6
CONTINUOUS
 62
     3
100
AcDbLine
 10
47.90640902519318
 20
-22.6966773668931
 30
0.0
 11
48.10528190930777
 21
-22.6966773668931
 31
0.0
  0
LINE
  5
2C1
330
A
100
AcDbEntity
  8
TOP
  6
CONTINUOUS
 62
     3
100
AcDbLine
 10
54.85003225008753
 20
2.463682969411114
 30
0.0
 11
54.85003225008753
 21
2.552072683970036
 31
0.0
  0
LINE
  5
2C2
330
A
100
AcDbEntity
  8
TOP
  6
CONTINUOUS
 62
     3
100
AcDbLine
 10
47.91318806012564
 20
-15.82341146469162
 30
0.0
 11
47.87913393974396
 21
-15.74929507573491
 31
0.0
  0
LINE
  5
2C3
330
A
100
AcDbEntity
  8
TOP
  6
CONTINUOUS
 62
     3
100
AcDbLine
 10
4.420443693796853
 20
-35.24745257695601
 30
0.0
 11
4.486735979716043
 21
-35.31374088923221
 31
0.0
  0
LINE
  5
2C4
330
A
100
AcDbEntity
  8
TOP
  6
CONTINUOUS
 62
     3
100
AcDbLine
 10
54.91002631187545
 20
-21.39792394638118
 30
0.0
 11
54.91002631187545
 21
-22.64792871475279
 31
0.0
  0
LINE
  5
2C5
330
A
100
AcDbEntity
  8
TOP
  6
CONTINUOUS
 62
     3
100
AcDbLine
 10
1.30173595746358
 20
-47.50742069880277
 30
0.0
 11
1.30173595746358
 21
-49.61306206385408
 31
0.0
  0
LINE
  5
2C6
330
A
100
AcDbEntity
  8
TOP
  6
CONTINUOUS
 62
     3
100
AcDbLine
 10
8.426485776901383
 20
-28.60749514897736
 30
0.0
 11
8.625358661015971
 21
-28.60749514897736
 31
0.0
  0
LINE
  5
2C7
330
A
100
AcDbEntity
  8
TOP
  6
CONTINUOUS
 62
     3
100
AcDbLine
 10
8.625358661015971
 20
2.892510573069163
 30
0.0
 11
8.707736253738548
 21
2.892510573069163
 31
0.0
  0
LINE
  5
2C8
330
A
100
AcDbEntity
  8
TOP
  6
CONTINUOUS
 62
     3
100
AcDbLine
 10
7.464204549789548
 20
-9.478179136912364
 30
0.0
 11
6.693297942479556
 21
-8.853617827097899
 31
0.0
  0
LINE
  5
2C9
330
A
100
AcDbEntity
  8
TOP
  6
CONTINUOUS
 62
     3
100
AcDbLine
 10
4.420443693796853
 20
-21.64745283126888
 30
0.0
 11
4.486735979716043
 21
-21.71374114354509
 31
0.0
  0
LINE
  5
2CA
330
A
100
AcDbEntity
  8
TOP
  6
CONTINUOUS
 62
     3
100
AcDbLine
 10
48.10528190930777
 20
-9.909176349640237
 30
0.0
 11
47.90640902519318
 21
-9.909176349640237
 31
0.0
  0
LINE
  5
2CB
330
A
100
AcDbEntity
  8
TOP
  6
CONTINUOUS
 62
     3
100
AcDbLine
 10
51.29277936617633
 20
-34.46907154719118
 30
0.0
 11
51.29277936617633
 21
-34.51564264297569
 31
0.0
  0
LINE
  5
2CC
330
A
100
AcDbEntity
  8
TOP
  6
CONTINUOUS
 62
     3
100
AcDbLine
 10
3.93125049273178
 20
-9.707490126292253
 30
0.0
 11
4.760402758916285
 21
-9.707490126292253
 31
0.0
  0
LINE
  5
2CD
330
A
100
AcDbEntity
  8
TOP
  6
CONTINUOUS
 62
     3
100
AcDbLine
 10
4.553026278813741
 20
-22.78003644943297
 30
0.0
 11
4.970650196075509
 21
-22.36240657170672
 31
0.0
  0
LINE
  5
2CE
330
A
100
AcDbEntity
  8
TOP
  6
CONTINUOUS
 62
     3
100
AcDbLine
 10
47.91778159141633
 20
-29.40292310714795
 30
0.0
 11
47.91778159141633
 21
-28.99668169021679
 31
0.0
  0
LINE
  5
2CF
330
A
100
AcDbEntity
  8
TOP
  6
CONTINUOUS
 62
     3
100
AcDbLine
 10
47.73028127352488
 20
-35.22433392206913
 30
0.0
 11
47.73028127352488
 21
-35.2852975527454
 31
0.0
  0
LINE
  5
2D0
330
A
100
AcDbEntity
  8
TOP
  6
CONTINUOUS
 62
     3
100
AcDbLine
 10
7.73173602422091
 20
-20.88374249140477
 30
0.0
 11
8.736735900243269
 21
-20.88374249140477
 31
0.0
  0
LINE
  5
2D1
330
A
100
AcDbEntity
  8
TOP
  6
CONTINUOUS
 62
     3
100
AcDbLine
 10
1.30173595746358
 20
-67.81383307775012
 30
0.0
 11
1.30173595746358
 21
-69.68883228302155
 31
0.0
  0
LINE
  5
2D2
330
A
100
AcDbEntity
  8
TOP
  6
CONTINUOUS
 62
     3
100
AcDbLine
 10
47.75773914655141
 20
-42.04979689916073
 30
0.0
 11
47.82402745882762
 21
-42.06922006607154
 31
0.0
  0
LINE
  5
2D3
330
A
100
AcDbEntity
  8
TOP
  6
CONTINUOUS
 62
     3
100
AcDbLine
 10
7.73173602422091
 20
4.316258907318053
 30
0.0
 11
8.736735900243269
 21
4.316258907318053
 31
0.0
  0
LINE
  5
2D4
330
A
100
AcDbEntity
  8
TOP
  6
CONTINUOUS
 62
     3
100
AcDbLine
 10
51.29277936617633
 20
-47.06906429926663
 30
0.0
 11
51.29277936617633
 21
-47.1156433423371
 31
0.0
  0
LINE
  5
2D5
330
A
100
AcDbEntity
  8
TOP
  6
CONTINUOUS
 62
     3
100
AcDbLine
 10
51.29277936617633
 20
-3.015644868215133
 30
0.0
 11
51.29277936617633
 21
-3.609172026316544
 31
0.0
  0
LINE
  5
2D6
330
A
100
AcDbEntity
  8
TOP
  6
CONTINUOUS
 62
     3
100
AcDbLine
 10
51.29227868716021
 20
3.330930550893065
 30
0.0
 11
51.29227868716021
 21
3.284359455108559
 31
0.0
  0
LINE
  5
2D7
330
A
100
AcDbEntity
  8
TOP
  6
CONTINUOUS
 62
     3
100
AcDbLine
 10
5.103232781092398
 20
-16.00749444961594
 30
0.0
 11
8.426485776901383
 21
-16.00749444961594
 31
0.0
  0
LINE
  5
2D8
330
A
100
AcDbEntity
  8
TOP
  6
CONTINUOUS
 62
     3
100
AcDbLine
 10
8.801486412684269
 20
-66.00358041127669
 30
0.0
 11
8.801486412684269
 21
-63.00407997767271
 31
0.0
  0
LINE
  5
2D9
330
A
100
AcDbEntity
  8
TOP
  6
CONTINUOUS
 62
     3
100
AcDbLine
 10
51.29227868716021
 20
-9.269070148468349
 30
0.0
 11
51.29227868716021
 21
-9.315641244252857
 31
0.0
  0
LINE
  5
2DA
330
A
100
AcDbEntity
  8
TOP
  6
CONTINUOUS
 62
     3
100
AcDbLine
 10
3.870239178339689
 20
-47.31999190648505
 30
0.0
 11
0.5469861825307037
 21
-47.31999190648505
 31
0.0
  0
LINE
  5
2DB
330
A
100
AcDbEntity
  8
TOP
  6
CONTINUOUS
 62
     3
100
AcDbLine
 10
4.838067611058621
 20
2.970171451568514
 30
0.0
 11
4.420443693796853
 21
2.552549521128239
 31
0.0
  0
LINE
  5
2DC
330
A
100
AcDbEntity
  8
TOP
  6
CONTINUOUS
 62
     3
100
AcDbLine
 10
51.29277936617633
 20
-21.86907084782976
 30
0.0
 11
51.29277936617633
 21
-21.91564194361427
 31
0.0
  0
LINE
  5
2DD
330
A
100
AcDbEntity
  8
TOP
  6
CONTINUOUS
 62
     3
100
AcDbLine
 10
48.10528190930777
 20
2.503324031829735
 30
0.0
 11
51.10477836926877
 21
2.503324031829735
 31
0.0
  0
LINE
  5
2DE
330
A
100
AcDbEntity
  8
TOP
  6
CONTINUOUS
 62
     3
100
AcDbLine
 10
51.38603281974892
 20
-22.50917704900165
 30
0.0
 11
51.30365125338336
 21
-22.50917704900165
 31
0.0
  0
LINE
  5
2DF
330
A
100
AcDbEntity
  8
TOP
  6
CONTINUOUS
 62
     3
100
AcDbLine
 10
8.736735900243269
 20
-66.2518337567662
 30
0.0
 11
8.736735900243269
 21
-62.75583060582619
 31
0.0
  0
LINE
  5
2E0
330
A
100
AcDbEntity
  8
TOP
  6
CONTINUOUS
 62
     3
100
AcDbLine
 10
54.91002631187545
 20
3.927072366078624
 30
0.0
 11
54.91002631187545
 21
3.890459219614593
 31
0.0
  0
LINE
  5
2E1
330
A
100
AcDbEntity
  8
TOP
  6
CONTINUOUS
 62
     3
100
AcDbLine
 10
54.83245285352177
 20
-22.77292362848978
 30
0.0
 11
54.85003225008753
 21
-22.77292362848978
 31
0.0
  0
LINE
  5
2E2
330
A
100
AcDbEntity
  8
TOP
  6
CONTINUOUS
 62
     3
100
AcDbLine
 10
1.30173595746358
 20
-28.60670042038035
 30
0.0
 11
1.30173595746358
 21
-34.71964947382693
 31
0.0
  0
LINE
  5
2E3
330
A
100
AcDbEntity
  8
TOP
  6
CONTINUOUS
 62
     3
100
AcDbLine
 10
0.3481113115946238
 20
-28.60749514897736
 30
0.0
 11
0.5469861825307037
 21
-28.60749514897736
 31
0.0
  0
LINE
  5
2E4
330
A
100
AcDbEntity
  8
TOP
  6
CONTINUOUS
 62
     3
100
AcDbLine
 10
47.73486685752961
 20
-9.523407141367933
 30
0.0
 11
47.82402745882762
 21
-9.569215297699313
 31
0.0
  0
LINE
  5
2E5
330
A
100
AcDbEntity
  8
TOP
  6
CONTINUOUS
 62
     3
100
AcDbLine
 10
0.3481113115946238
 20
-34.71999120712364
 30
0.0
 11
0.2657357056935398
 21
-34.71999120712364
 31
0.0
  0
LINE
  5
2E6
330
A
100
AcDbEntity
  8
TOP
  6
CONTINUOUS
 62
     3
100
AcDbLine
 10
0.5469861825307037
 20
-22.30749082565366
 30
0.0
 11
3.870239178339689
 21
-22.30749082565366
 31
0.0
  0
LINE
  5
2E7
330
A
100
AcDbEntity
  8
TOP
  6
CONTINUOUS
 62
     3
100
AcDbLine
 10
51.60002938906451
 20
7.067076841990145
 30
0.0
 11
52.66502928733928
 21
7.067076841990145
 31
0.0
  0
LINE
  5
2E8
330
A
100
AcDbEntity
  8
TOP
  6
CONTINUOUS
 62
     3
100
AcDbLine
 10
47.82402745882762
 20
-42.06922006607154
 30
0.0
 11
47.8903237183898
 21
-42.04979689916073
 31
0.0
  0
LINE
  5
2E9
330
A
100
AcDbEntity
  8
TOP
  6
CONTINUOUS
 62
     3
100
AcDbLine
 10
4.486735979716043
 20
-10.11373949050938
 30
0.0
 11
4.553026278813741
 21
-10.18003575007155
 31
0.0
  0
LINE
  5
2EA
330
A
100
AcDbEntity
  8
TOP
  6
CONTINUOUS
 62
     3
100
AcDbLine
 10
51.51517621676227
 20
7.067076841990145
 30
0.0
 11
51.60002938906451
 21
7.067076841990145
 31
0.0
  0
LINE
  5
2EB
330
A
100
AcDbEntity
  8
TOP
  6
CONTINUOUS
 62
     3
100
AcDbLine
 10
51.29227868716021
 20
3.284359455108559
 30
0.0
 11
51.29227868716021
 21
2.690824349721177
 31
0.0
  0
LINE
  5
2EC
330
A
100
AcDbEntity
  8
TOP
  6
CONTINUOUS
 62
     3
100
AcDbLine
 10
1.241735935211178
 20
2.816256364186512
 30
0.0
 11
0.2367360591888192
 21
2.816256364186512
 31
0.0
  0
LINE
  5
2ED
330
A
100
AcDbEntity
  8
TOP
  6
CONTINUOUS
 62
     3
100
AcDbLine
 10
51.29227868716021
 20
-40.81564696629938
 30
0.0
 11
51.29227868716021
 21
-41.40917412440079
 31
0.0
  0
LINE
  5
2EE
330
A
100
AcDbEntity
  8
TOP
  6
CONTINUOUS
 62
     3
100
AcDbLine
 10
51.29227868716021
 20
-9.252929210663173
 30
0.0
 11
51.29227868716021
 21
-9.269070148468349
 31
0.0
  0
LINE
  5
2EF
330
A
100
AcDbEntity
  8
TOP
  6
CONTINUOUS
 62
     3
100
AcDbLine
 10
4.838067611058621
 20
-41.12982702255346
 30
0.0
 11
4.420443693796853
 21
-41.54744895299373
 31
0.0
  0
LINE
  5
2F0
330
A
100
AcDbEntity
  8
TOP
  6
CONTINUOUS
 62
     3
100
AcDbLine
 10
8.426485776901383
 20
3.080010890960606
 30
0.0
 11
5.103232781092398
 21
3.080010890960606
 31
0.0
  0
LINE
  5
2F1
330
A
100
AcDbEntity
  8
TOP
  6
CONTINUOUS
 62
     3
100
AcDbLine
 10
47.73028127352488
 20
-47.72055101394762
 30
0.0
 11
47.73028127352488
 21
-47.7815146446239
 31
0.0
  0
LINE
  5
2F2
330
A
100
AcDbEntity
  8
TOP
  6
CONTINUOUS
 62
     3
100
AcDbLine
 10
5.696521520614709
 20
-47.31998395919908
 30
0.0
 11
6.339204629262385
 21
-46.79930162429918
 31
0.0
  0
LINE
  5
2F3
330
A
100
AcDbEntity
  8
TOP
  6
CONTINUOUS
 62
     3
100
AcDbLine
 10
7.689309438069786
 20
-20.88374249140477
 30
0.0
 11
7.671736001968508
 21
-20.88374249140477
 31
0.0
  0
LINE
  5
2F4
330
A
100
AcDbEntity
  8
TOP
  6
CONTINUOUS
 62
     3
100
AcDbLine
 10
0.2367360591888192
 20
-66.37883138656762
 30
0.0
 11
0.2367360591888192
 21
-66.3416341145848
 31
0.0
  0
LINE
  5
2F5
330
A
100
AcDbEntity
  8
TOP
  6
CONTINUOUS
 62
     3
100
AcDbLine
 10
0.5469861825307037
 20
-47.31999190648505
 30
0.0
 11
0.3481113115946238
 21
-47.31999190648505
 31
0.0
  0
LINE
  5
2F6
330
A
100
AcDbEntity
  8
TOP
  6
CONTINUOUS
 62
     3
100
AcDbLine
 10
1.541569153467816
 20
-41.01866833369033
 30
0.0
 11
1.517633914947511
 21
-40.98912827173965
 31
0.0
  0
LINE
  5
2F7
330
A
100
AcDbEntity
  8
TOP
  6
CONTINUOUS
 62
     3
100
AcDbLine
 10
54.85003225008753
 20
-21.2729290326442
 30
0.0
 11
54.83245285352177
 21
-21.2729290326442
 31
0.0
  0
LINE
  5
2F8
330
A
100
AcDbEntity
  8
TOP
  6
CONTINUOUS
 62
     3
100
AcDbLine
 10
1.30173595746358
 20
-9.707839806874934
 30
0.0
 11
1.30173595746358
 21
-15.82078091303553
 31
0.0
  0
LINE
  5
2F9
330
A
100
AcDbEntity
  8
TOP
  6
CONTINUOUS
 62
     3
100
AcDbLine
 10
51.29227868716021
 20
-21.85292196273862
 30
0.0
 11
51.29227868716021
 21
-21.86907084782976
 31
0.0
  0
LINE
  5
2FA
330
A
100
AcDbEntity
  8
TOP
  6
CONTINUOUS
 62
     3
100
AcDbLine
 10
3.870239178339689
 20
-9.51998980840081
 30
0.0
 11
0.5469861825307037
 21
-9.51998980840081
 31
0.0
  0
LINE
  5
2FB
330
A
100
AcDbEntity
  8
TOP
  6
CONTINUOUS
 62
     3
100
AcDbLine
 10
51.29227868716021
 20
-34.45292266210003
 30
0.0
 11
51.29227868716021
 21
-34.46907154719118
 31
0.0
  0
LINE
  5
2FC
330
A
100
AcDbEntity
  8
TOP
  6
CONTINUOUS
 62
     3
100
AcDbLine
 10
6.575266838073832
 20
-2.699303150177204
 30
0.0
 11
7.21794994672151
 21
-3.219985485077116
 31
0.0
  0
LINE
  5
2FD
330
A
100
AcDbEntity
  8
TOP
  6
CONTINUOUS
 62
     3
100
AcDbLine
 10
4.135404348373467
 20
-22.19765933354754
 30
0.0
 11
4.553026278813741
 21
-21.78003740310727
 31
0.0
  0
LINE
  5
2FE
330
A
100
AcDbEntity
  8
TOP
  6
CONTINUOUS
 62
     3
100
AcDbLine
 10
47.82402745882762
 20
-4.269217967987294
 30
0.0
 11
47.8903237183898
 21
-4.249802748362456
 31
0.0
  0
LINE
  5
2FF
330
A
100
AcDbEntity
  8
TOP
  6
CONTINUOUS
 62
     3
100
AcDbLine
 10
0.4867358207702451
 20
-21.52723423639991
 30
0.0
 11
0.4867358207702451
 21
-21.3037406603501
 31
0.0
  0
LINE
  5
300
330
A
100
AcDbEntity
  8
TOP
  6
CONTINUOUS
 62
     3
100
AcDbLine
 10
47.76892892519724
 20
-3.149294376373501
 30
0.0
 11
47.73486685752961
 21
-3.223410765330209
 31
0.0
  0
LINE
  5
301
330
A
100
AcDbEntity
  8
TOP
  6
CONTINUOUS
 62
     3
100
AcDbLine
 10
51.30365125338336
 20
-35.10917774836307
 30
0.0
 11
51.10477836926877
 21
-35.10917774836307
 31
0.0
  0
LINE
  5
302
330
A
100
AcDbEntity
  8
TOP
  6
CONTINUOUS
 62
     3
100
AcDbLine
 10
1.241735935211178
 20
-69.74883031845246
 30
0.0
 11
0.2367360591888192
 21
-69.74883031845246
 31
0.0
  0
LINE
  5
303
330
A
100
AcDbEntity
  8
TOP
  6
CONTINUOUS
 62
     3
100
AcDbLine
 10
51.4800333182027
 20
-52.27292331059892
 30
0.0
 11
51.51517621676227
 21
-52.27292331059892
 31
0.0
  0
LINE
  5
304
330
A
100
AcDbEntity
  8
TOP
  6
CONTINUOUS
 62
     3
100
AcDbLine
 10
8.236736377080417
 20
3.672767162322922
 30
0.0
 11
8.236736377080417
 21
3.896260738372732
 31
0.0
  0
LINE
  5
305
330
A
100
AcDbEntity
  8
TOP
  6
CONTINUOUS
 62
     3
100
AcDbLine
 10
0.3481113115946238
 20
-9.51998980840081
 30
0.0
 11
0.2657357056935398
 21
-9.51998980840081
 31
0.0
  0
LINE
  5
306
330
A
100
AcDbEntity
  8
TOP
  6
CONTINUOUS
 62
     3
100
AcDbLine
 10
47.73028127352488
 20
-28.98530117670767
 30
0.0
 11
47.73028127352488
 21
-29.40292310714795
 31
0.0
  0
LINE
  5
307
330
A
100
AcDbEntity
  8
TOP
  6
CONTINUOUS
 62
     3
100
AcDbLine
 10
1.241735935211178
 20
2.816256364186512
 30
0.0
 11
1.284162521362302
 21
2.816256364186512
 31
0.0
  0
LINE
  5
308
330
A
100
AcDbEntity
  8
TOP
  6
CONTINUOUS
 62
     3
100
AcDbLine
 10
51.29227868716021
 20
-9.315641244252857
 30
0.0
 11
51.29227868716021
 21
-9.909176349640237
 31
0.0
  0
LINE
  5
309
330
A
100
AcDbEntity
  8
TOP
  6
CONTINUOUS
 62
     3
100
AcDbLine
 10
47.8903237183898
 20
-29.44980414708529
 30
0.0
 11
47.91778159141633
 21
-29.40292310714795
 31
0.0
  0
LINE
  5
30A
330
A
100
AcDbEntity
  8
TOP
  6
CONTINUOUS
 62
     3
100
AcDbLine
 10
4.420443693796853
 20
2.552549521128239
 30
0.0
 11
4.486735979716043
 21
2.486261208852033
 31
0.0
  0
LINE
  5
30B
330
A
100
AcDbEntity
  8
TOP
  6
CONTINUOUS
 62
     3
100
AcDbLine
 10
51.29277936617633
 20
-28.21564626693796
 30
0.0
 11
51.29277936617633
 21
-28.80917342503937
 31
0.0
  0
LINE
  5
30C
330
A
100
AcDbEntity
  8
TOP
  6
CONTINUOUS
 62
     3
100
AcDbLine
 10
8.426485776901383
 20
-41.01999553044733
 30
0.0
 11
5.103232781092398
 21
-41.01999553044733
 31
0.0
  0
LINE
  5
30D
330
A
100
AcDbEntity
  8
TOP
  6
CONTINUOUS
 62
     3
100
AcDbLine
 10
51.10477836926877
 20
-47.89667876561593
 30
0.0
 11
51.30365125338336
 21
-47.89667876561593
 31
0.0
  0
LINE
  5
30E
330
A
100
AcDbEntity
  8
TOP
  6
CONTINUOUS
 62
     3
100
AcDbLine
 10
4.420443693796853
 20
3.552548567453942
 30
0.0
 11
4.002821763356577
 21
3.134926637013667
 31
0.0
  0
LINE
  5
30F
330
A
100
AcDbEntity
  8
TOP
  6
CONTINUOUS
 62
     3
100
AcDbLine
 10
0.2367360591888192
 20
-54.2365466753654
 30
0.0
 11
0.2367360591888192
 21
-54.14674234390381
 31
0.0
  0
LINE
  5
310
330
A
100
AcDbEntity
  8
TOP
  6
CONTINUOUS
 62
     3
100
AcDbLine
 10
47.90640902519318
 20
-47.70917844772448
 30
0.0
 11
47.82402745882762
 21
-47.70917844772448
 31
0.0
  0
LINE
  5
311
330
A
100
AcDbEntity
  8
TOP
  6
CONTINUOUS
 62
     3
100
AcDbLine
 10
7.611735979716105
 20
-67.68883021672717
 30
0.0
 11
7.611735979716105
 21
-67.65222104390611
 31
0.0
  0
LINE
  5
312
330
A
100
AcDbEntity
  8
TOP
  6
CONTINUOUS
 62
     3
100
AcDbLine
 10
47.73028127352488
 20
-16.30292685826666
 30
0.0
 11
47.73028127352488
 21
-16.32433684666999
 31
0.0
  0
LINE
  5
313
330
A
100
AcDbEntity
  8
TOP
  6
CONTINUOUS
 62
     3
100
AcDbLine
 10
2.926735401153594
 20
-66.37883138656762
 30
0.0
 11
3.301736036936479
 21
-66.37883138656762
 31
0.0
  0
LINE
  5
314
330
A
100
AcDbEntity
  8
TOP
  6
CONTINUOUS
 62
     3
100
AcDbLine
 10
47.79353372256053
 20
-52.00292619069536
 30
0.0
 11
47.79353372256053
 21
-52.07614850998043
 31
0.0
  0
LINE
  5
315
330
A
100
AcDbEntity
  8
TOP
  6
CONTINUOUS
 62
     3
100
AcDbLine
 10
1.30173595746358
 20
7.456255435943603
 30
0.0
 11
1.30173595746358
 21
3.079931418100905
 31
0.0
  0
LINE
  5
316
330
A
100
AcDbEntity
  8
TOP
  6
CONTINUOUS
 62
     3
100
AcDbLine
 10
54.91002631187545
 20
3.890459219614593
 30
0.0
 11
54.91002631187545
 21
3.802077452341642
 31
0.0
  0
LINE
  5
317
330
A
100
AcDbEntity
  8
TOP
  6
CONTINUOUS
 62
     3
100
AcDbLine
 10
8.736735900243269
 20
-22.38374503453631
 30
0.0
 11
7.73173602422091
 21
-22.38374503453631
 31
0.0
  0
LINE
  5
318
330
A
100
AcDbEntity
  8
TOP
  6
CONTINUOUS
 62
     3
100
AcDbLine
 10
2.633766651153588
 20
-2.699303150177204
 30
0.0
 11
3.276449759801265
 21
-3.219985485077116
 31
0.0
  0
LINE
  5
319
330
A
100
AcDbEntity
  8
TOP
  6
CONTINUOUS
 62
     3
100
AcDbLine
 10
1.241735935211178
 20
-22.38374503453631
 30
0.0
 11
0.2367360591888192
 21
-22.38374503453631
 31
0.0
  0
LINE
  5
31A
330
A
100
AcDbEntity
  8
TOP
  6
CONTINUOUS
 62
     3
100
AcDbLine
 10
47.73028127352488
 20
-15.80292336146083
 30
0.0
 11
47.73028127352488
 21
-16.2205452919011
 31
0.0
  0
LINE
  5
31B
330
A
100
AcDbEntity
  8
TOP
  6
CONTINUOUS
 62
     3
100
AcDbLine
 10
51.10477836926877
 20
-35.29667806625451
 30
0.0
 11
51.30365125338336
 21
-35.29667806625451
 31
0.0
  0
LINE
  5
31C
330
A
100
AcDbEntity
  8
TOP
  6
CONTINUOUS
 62
     3
100
AcDbLine
 10
47.87913393974396
 20
-47.24929285049547
 30
0.0
 11
47.76892892519724
 21
-47.24929285049547
 31
0.0
  0
LINE
  5
31D
330
A
100
AcDbEntity
  8
TOP
  6
CONTINUOUS
 62
     3
100
AcDbLine
 10
4.486735979716043
 20
-16.41374381383307
 30
0.0
 11
4.553026278813741
 21
-16.48003212610928
 31
0.0
  0
LINE
  5
31E
330
A
100
AcDbEntity
  8
TOP
  6
CONTINUOUS
 62
     3
100
AcDbLine
 10
54.85003225008753
 20
-47.84792216618966
 30
0.0
 11
54.85003225008753
 21
-46.59792534510402
 31
0.0
  0
LINE
  5
31F
330
A
100
AcDbEntity
  8
TOP
  6
CONTINUOUS
 62
     3
100
AcDbLine
 10
7.689309438069786
 20
4.316258907318053
 30
0.0
 11
7.671736001968508
 21
4.316258907318053
 31
0.0
  0
LINE
  5
320
330
A
100
AcDbEntity
  8
TOP
  6
CONTINUOUS
 62
     3
100
AcDbLine
 10
0.2657357056935398
 20
-9.707490126292253
 30
0.0
 11
0.3481113115946238
 21
-9.707490126292253
 31
0.0
  0
LINE
  5
321
330
A
100
AcDbEntity
  8
TOP
  6
CONTINUOUS
 62
     3
100
AcDbLine
 10
1.361735979715981
 20
-67.56383132934719
 30
0.0
 11
1.361735979715981
 21
-67.65222104390611
 31
0.0
  0
LINE
  5
322
330
A
100
AcDbEntity
  8
TOP
  6
CONTINUOUS
 62
     3
100
AcDbLine
 10
51.29227868716021
 20
-21.91564194361427
 30
0.0
 11
51.29227868716021
 21
-22.50917704900165
 31
0.0
  0
LINE
  5
323
330
A
100
AcDbEntity
  8
TOP
  6
CONTINUOUS
 62
     3
100
AcDbLine
 10
3.522704362869304
 20
-22.07817983627378
 30
0.0
 11
2.751797755559311
 21
-21.45361852645931
 31
0.0
  0
LINE
  5
324
330
A
100
AcDbEntity
  8
TOP
  6
CONTINUOUS
 62
     3
100
AcDbLine
 10
4.420443693796853
 20
-40.54744990666803
 30
0.0
 11
4.002821763356577
 21
-40.9650718371083
 31
0.0
  0
LINE
  5
325
330
A
100
AcDbEntity
  8
TOP
  6
CONTINUOUS
 62
     3
100
AcDbLine
 10
0.2367360591888192
 20
-20.88374249140477
 30
0.0
 11
1.241735935211178
 21
-20.88374249140477
 31
0.0
  0
LINE
  5
326
330
A
100
AcDbEntity
  8
TOP
  6
CONTINUOUS
 62
     3
100
AcDbLine
 10
51.10477836926877
 20
-10.09667666753168
 30
0.0
 11
51.30365125338336
 21
-10.09667666753168
 31
0.0
  0
LINE
  5
327
330
A
100
AcDbEntity
  8
TOP
  6
CONTINUOUS
 62
     3
100
AcDbLine
 10
8.426485776901383
 20
-22.30749082565366
 30
0.0
 11
8.625358661015971
 21
-22.30749082565366
 31
0.0
  0
LINE
  5
328
330
A
100
AcDbEntity
  8
TOP
  6
CONTINUOUS
 62
     3
100
AcDbLine
 10
8.861734787623236
 20
-22.25874217351337
 30
0.0
 11
8.861734787623236
 21
-21.00874535242773
 31
0.0
  0
LINE
  5
329
330
A
100
AcDbEntity
  8
TOP
  6
CONTINUOUS
 62
     3
100
AcDbLine
 10
51.29227868716021
 20
-28.16906722386748
 30
0.0
 11
51.29227868716021
 21
-28.21564626693796
 31
0.0
  0
LINE
  5
32A
330
A
100
AcDbEntity
  8
TOP
  6
CONTINUOUS
 62
     3
100
AcDbLine
 10
47.73028127352488
 20
-28.9243375460314
 30
0.0
 11
47.73028127352488
 21
-28.98530117670767
 31
0.0
  0
LINE
  5
32B
330
A
100
AcDbEntity
  8
TOP
  6
CONTINUOUS
 62
     3
100
AcDbLine
 10
2.279673337936418
 20
-27.75361490249704
 30
0.0
 11
1.508766730626425
 21
-28.37818415959747
 31
0.0
  0
LINE
  5
32C
330
A
100
AcDbEntity
  8
TOP
  6
CONTINUOUS
 62
     3
100
AcDbLine
 10
0.7367355823516709
 20
-21.52723423639991
 30
0.0
 11
0.7367355823516709
 21
-21.3037406603501
 31
0.0
  0
LINE
  5
32D
330
A
100
AcDbEntity
  8
TOP
  6
CONTINUOUS
 62
     3
100
AcDbLine
 10
5.103222846984936
 20
-47.31999190648505
 30
0.0
 11
4.213071187337295
 21
-47.31999190648505
 31
0.0
  0
LINE
  5
32E
330
A
100
AcDbEntity
  8
TOP
  6
CONTINUOUS
 62
     3
100
AcDbLine
 10
2.633766651153588
 20
-46.79930162429918
 30
0.0
 11
3.276449759801265
 21
-47.31998395919908
 31
0.0
  0
LINE
  5
32F
330
A
100
AcDbEntity
  8
TOP
  6
CONTINUOUS
 62
     3
100
AcDbLine
 10
0.3481113115946238
 20
-16.00749444961594
 30
0.0
 11
0.5469861825307037
 21
-16.00749444961594
 31
0.0
  0
LINE
  5
330
330
A
100
AcDbEntity
  8
TOP
  6
CONTINUOUS
 62
     3
100
AcDbLine
 10
8.625358661015971
 20
-47.5074922243765
 30
0.0
 11
8.707736253738548
 21
-47.5074922243765
 31
0.0
  0
LINE
  5
331
330
A
100
AcDbEntity
  8
TOP
  6
CONTINUOUS
 62
     3
100
AcDbLine
 10
47.73028127352488
 20
-16.80292240778653
 30
0.0
 11
47.75773914655141
 21
-16.84980344772387
 31
0.0
  0
LINE
  5
332
330
A
100
AcDbEntity
  8
TOP
  6
CONTINUOUS
 62
     3
100
AcDbLine
 10
4.486735979716043
 20
-40.6137461662302
 30
0.0
 11
4.553026278813741
 21
-40.68003447850641
 31
0.0
  0
LINE
  5
333
330
A
100
AcDbEntity
  8
TOP
  6
CONTINUOUS
 62
     3
100
AcDbLine
 10
51.29277936617633
 20
-9.315641244252857
 30
0.0
 11
51.29277936617633
 21
-9.909176349640237
 31
0.0
  0
LINE
  5
334
330
A
100
AcDbEntity
  8
TOP
  6
CONTINUOUS
 62
     3
100
AcDbLine
 10
1.30173595746358
 20
-20.88374249140477
 30
0.0
 11
1.284162521362302
 21
-20.88374249140477
 31
0.0
  0
LINE
  5
335
330
A
100
AcDbEntity
  8
TOP
  6
CONTINUOUS
 62
     3
100
AcDbLine
 10
51.29227868716021
 20
-28.16906722386748
 30
0.0
 11
51.29227868716021
 21
-28.21564626693796
 31
0.0
  0
LINE
  5
336
330
A
100
AcDbEntity
  8
TOP
  6
CONTINUOUS
 62
     3
100
AcDbLine
 10
51.10477836926877
 20
-47.70917844772448
 30
0.0
 11
48.10528190930777
 21
-47.70917844772448
 31
0.0
  0
LINE
  5
337
330
A
100
AcDbEntity
  8
TOP
  6
CONTINUOUS
 62
     3
100
AcDbLine
 10
51.30365125338336
 20
2.503324031829735
 30
0.0
 11
51.38603281974892
 21
2.503324031829735
 31
0.0
  0
LINE
  5
338
330
A
100
AcDbEntity
  8
TOP
  6
CONTINUOUS
 62
     3
100
AcDbLine
 10
8.736735900243269
 20
-54.14674234390381
 30
0.0
 11
0.2367360591888192
 21
-54.14674234390381
 31
0.0
  0
LINE
  5
339
330
A
100
AcDbEntity
  8
TOP
  6
CONTINUOUS
 62
     3
100
AcDbLine
 10
51.29227868716021
 20
-40.7690679232289
 30
0.0
 11
51.29227868716021
 21
-40.81564696629938
 31
0.0
  0
LINE
  5
33A
330
A
100
AcDbEntity
  8
TOP
  6
CONTINUOUS
 62
     3
100
AcDbLine
 10
3.870239178339689
 20
-28.41999483108592
 30
0.0
 11
0.5469861825307037
 21
-28.41999483108592
 31
0.0
  0
LINE
  5
33B
330
A
100
AcDbEntity
  8
TOP
  6
CONTINUOUS
 62
     3
100
AcDbLine
 10
51.29227868716021
 20
-21.85292196273862
 30
0.0
 11
51.29227868716021
 21
-21.86907084782976
 31
0.0
  0
LINE
  5
33C
330
A
100
AcDbEntity
  8
TOP
  6
CONTINUOUS
 62
     3
100
AcDbLine
 10
8.625358661015971
 20
-47.31999190648505
 30
0.0
 11
8.426485776901383
 21
-47.31999190648505
 31
0.0
  0
LINE
  5
33D
330
A
100
AcDbEntity
  8
TOP
  6
CONTINUOUS
 62
     3
100
AcDbLine
 10
2.633766651153588
 20
-27.89930454890003
 30
0.0
 11
3.276449759801265
 21
-28.41998688379995
 31
0.0
  0
LINE
  5
33E
330
A
100
AcDbEntity
  8
TOP
  6
CONTINUOUS
 62
     3
100
AcDbLine
 10
8.426485776901383
 20
2.892510573069163
 30
0.0
 11
8.625358661015971
 21
2.892510573069163
 31
0.0
  0
LINE
  5
33F
330
A
100
AcDbEntity
  8
TOP
  6
CONTINUOUS
 62
     3
100
AcDbLine
 10
1.241735935211178
 20
-22.38374503453631
 30
0.0
 11
1.284162521362302
 21
-22.38374503453631
 31
0.0
  0
LINE
  5
340
330
A
100
AcDbEntity
  8
TOP
  6
CONTINUOUS
 62
     3
100
AcDbLine
 10
6.221173524856663
 20
-27.75361490249704
 30
0.0
 11
5.45026691754667
 21
-28.37818415959747
 31
0.0
  0
LINE
  5
341
330
A
100
AcDbEntity
  8
TOP
  6
CONTINUOUS
 62
     3
100
AcDbLine
 10
0.3481113115946238
 20
-22.30749082565366
 30
0.0
 11
0.5469861825307037
 21
-22.30749082565366
 31
0.0
  0
LINE
  5
342
330
A
100
AcDbEntity
  8
TOP
  6
CONTINUOUS
 62
     3
100
AcDbLine
 10
51.29277936617633
 20
-34.45292266210003
 30
0.0
 11
51.29277936617633
 21
-34.46907154719118
 31
0.0
  0
LINE
  5
343
330
A
100
AcDbEntity
  8
TOP
  6
CONTINUOUS
 62
     3
100
AcDbLine
 10
8.625358661015971
 20
-41.01999553044733
 30
0.0
 11
8.426485776901383
 21
-41.01999553044733
 31
0.0
  0
LINE
  5
344
330
A
100
AcDbEntity
  8
TOP
  6
CONTINUOUS
 62
     3
100
AcDbLine
 10
1.361735979715981
 20
-67.68883021672717
 30
0.0
 11
1.30173595746358
 21
-67.68883021672717
 31
0.0
  0
LINE
  5
345
330
A
100
AcDbEntity
  8
TOP
  6
CONTINUOUS
 62
     3
100
AcDbLine
 10
47.73028127352488
 20
-16.28151686986334
 30
0.0
 11
47.73028127352488
 21
-16.30292685826666
 31
0.0
  0
LINE
  5
346
330
A
100
AcDbEntity
  8
TOP
  6
CONTINUOUS
 62
     3
100
AcDbLine
 10
51.29227868716021
 20
-3.015644868215133
 30
0.0
 11
51.29227868716021
 21
-3.609172026316544
 31
0.0
  0
LINE
  5
347
330
A
100
AcDbEntity
  8
TOP
  6
CONTINUOUS
 62
     3
100
AcDbLine
 10
47.82402745882762
 20
-34.76921669642214
 30
0.0
 11
47.91318806012564
 21
-34.72340854009076
 31
0.0
  0
LINE
  5
348
330
A
100
AcDbEntity
  8
TOP
  6
CONTINUOUS
 62
     3
100
AcDbLine
 10
0.3481113115946238
 20
-3.407493750254529
 30
0.0
 11
0.5469861825307037
 21
-3.407493750254529
 31
0.0
  0
LINE
  5
349
330
A
100
AcDbEntity
  8
TOP
  6
CONTINUOUS
 62
     3
100
AcDbLine
 10
51.29227868716021
 20
-9.252929210663173
 30
0.0
 11
51.29227868716021
 21
-9.269070148468349
 31
0.0
  0
LINE
  5
34A
330
A
100
AcDbEntity
  8
TOP
  6
CONTINUOUS
 62
     3
100
AcDbLine
 10
4.420443693796853
 20
-46.84745422999172
 30
0.0
 11
4.002821763356577
 21
-47.26507616043199
 31
0.0
  0
LINE
  5
34B
330
A
100
AcDbEntity
  8
TOP
  6
CONTINUOUS
 62
     3
100
AcDbLine
 10
47.90640902519318
 20
-16.3966730435694
 30
0.0
 11
48.10528190930777
 21
-16.3966730435694
 31
0.0
  0
LINE
  5
34C
330
A
100
AcDbEntity
  8
TOP
  6
CONTINUOUS
 62
     3
100
AcDbLine
 10
51.29227868716021
 20
-28.21564626693796
 30
0.0
 11
51.29227868716021
 21
-28.80917342503937
 31
0.0
  0
LINE
  5
34D
330
A
100
AcDbEntity
  8
TOP
  6
CONTINUOUS
 62
     3
100
AcDbLine
 10
8.426485776901383
 20
-47.5074922243765
 30
0.0
 11
8.625358661015971
 21
-47.5074922243765
 31
0.0
  0
LINE
  5
34E
330
A
100
AcDbEntity
  8
TOP
  6
CONTINUOUS
 62
     3
100
AcDbLine
 10
51.29227868716021
 20
-28.15292628606231
 30
0.0
 11
51.29227868716021
 21
-28.16906722386748
 31
0.0
  0
LINE
  5
34F
330
A
100
AcDbEntity
  8
TOP
  6
CONTINUOUS
 62
     3
100
AcDbLine
 10
0.5469861825307037
 20
-34.71999120712364
 30
0.0
 11
0.3481113115946238
 21
-34.71999120712364
 31
0.0
  0
LINE
  5
350
330
A
100
AcDbEntity
  8
TOP
  6
CONTINUOUS
 62
     3
100
AcDbLine
 10
51.29227868716021
 20
-40.75292698542372
 30
0.0
 11
51.29227868716021
 21
-40.7690679232289
 31
0.0
  0
LINE
  5
351
330
A
100
AcDbEntity
  8
TOP
  6
CONTINUOUS
 62
     3
100
AcDbLine
 10
47.73028127352488
 20
-47.30292908350736
 30
0.0
 11
47.73028127352488
 21
-47.72055101394762
 31
0.0
  0
LINE
  5
352
330
A
100
AcDbEntity
  8
TOP
  6
CONTINUOUS
 62
     3
100
AcDbLine
 10
51.29227868716021
 20
-34.46907154719118
 30
0.0
 11
51.29227868716021
 21
-34.51564264297569
 31
0.0
  0
LINE
  5
353
330
A
100
AcDbEntity
  8
TOP
  6
CONTINUOUS
 62
     3
100
AcDbLine
 10
47.82402745882762
 20
3.030785401662102
 30
0.0
 11
47.91318806012564
 21
3.076593557993483
 31
0.0
  0
LINE
  5
354
330
A
100
AcDbEntity
  8
TOP
  6
CONTINUOUS
 62
     3
100
AcDbLine
 10
0.5469861825307037
 20
-28.41999483108592
 30
0.0
 11
0.3481113115946238
 21
-28.41999483108592
 31
0.0
  0
LINE
  5
355
330
A
100
AcDbEntity
  8
TOP
  6
CONTINUOUS
 62
     3
100
AcDbLine
 10
48.10528190930777
 20
-35.10917774836307
 30
0.0
 11
47.90640902519318
 21
-35.10917774836307
 31
0.0
  0
LINE
  5
356
330
A
100
AcDbEntity
  8
TOP
  6
CONTINUOUS
 62
     3
100
AcDbLine
 10
51.29277936617633
 20
-2.969065825144657
 30
0.0
 11
51.29277936617633
 21
-3.015644868215133
 31
0.0
  0
LINE
  5
357
330
A
100
AcDbEntity
  8
TOP
  6
CONTINUOUS
 62
     3
100
AcDbLine
 10
0.3481113115946238
 20
-41.01999553044733
 30
0.0
 11
0.2657357056935398
 21
-41.01999553044733
 31
0.0
  0
LINE
  5
358
330
A
100
AcDbEntity
  8
TOP
  6
CONTINUOUS
 62
     3
100
AcDbLine
 10
47.82402745882762
 20
-3.26921892166159
 30
0.0
 11
47.91318806012564
 21
-3.223410765330209
 31
0.0
  0
LINE
  5
359
330
A
100
AcDbEntity
  8
TOP
  6
CONTINUOUS
 62
     3
100
AcDbLine
 10
0.1483483314513907
 20
-69.80883232752636
 30
0.0
 11
0.11173518498736
 21
-69.80883232752636
 31
0.0
  0
LINE
  5
35A
330
A
100
AcDbEntity
  8
TOP
  6
CONTINUOUS
 62
     3
100
AcDbLine
 10
0.3481113115946238
 20
-47.5074922243765
 30
0.0
 11
0.5469861825307037
 21
-47.5074922243765
 31
0.0
  0
LINE
  5
35B
330
A
100
AcDbEntity
  8
TOP
  6
CONTINUOUS
 62
     3
100
AcDbLine
 10
8.486736138661843
 20
-21.52723423639991
 30
0.0
 11
8.486736138661843
 21
-21.3037406603501
 31
0.0
  0
LINE
  5
35C
330
A
100
AcDbEntity
  8
TOP
  6
CONTINUOUS
 62
     3
100
AcDbLine
 10
4.486735979716043
 20
-2.813744068145956
 30
0.0
 11
4.553026278813741
 21
-2.880032380422162
 31
0.0
  0
LINE
  5
35D
330
A
100
AcDbEntity
  8
TOP
  6
CONTINUOUS
 62
     3
100
AcDbLine
 10
47.87913393974396
 20
-3.149294376373501
 30
0.0
 11
47.76892892519724
 21
-3.149294376373501
 31
0.0
  0
LINE
  5
35E
330
A
100
AcDbEntity
  8
TOP
  6
CONTINUOUS
 62
     3
100
AcDbLine
 10
51.29227868716021
 20
-2.969065825144657
 30
0.0
 11
51.29227868716021
 21
-3.015644868215133
 31
0.0
  0
LINE
  5
35F
330
A
100
AcDbEntity
  8
TOP
  6
CONTINUOUS
 62
     3
100
AcDbLine
 10
51.29277936617633
 20
-28.16906722386748
 30
0.0
 11
51.29277936617633
 21
-28.21564626693796
 31
0.0
  0
LINE
  5
360
330
A
100
AcDbEntity
  8
TOP
  6
CONTINUOUS
 62
     3
100
AcDbLine
 10
4.486735979716043
 20
-29.01374451319449
 30
0.0
 11
4.553026278813741
 21
-29.0800328254707
 31
0.0
  0
LINE
  5
361
330
A
100
AcDbEntity
  8
TOP
  6
CONTINUOUS
 62
     3
100
AcDbLine
 10
7.464204549789548
 20
-3.178182760874642
 30
0.0
 11
6.693297942479556
 21
-2.553613503774206
 31
0.0
  0
ARC
  5
362
330
A
100
AcDbEntity
  8
TOP
  6
CONTINUOUS
 62
     3
100
AcDbCircle
 10
52.40002703666789
 20
-50.77292474111037
 30
0.0
 40
0.0934999979411581
100
AcDbArc
 50
90.0
 51
90.0
  0
ARC
  5
363
330
A
100
AcDbEntity
  8
TOP
  6
CONTINUOUS
 62
     3
100
AcDbCircle
 10
0.2657357056935399
 20
-47.41374603907376
 30
0.0
 40
0.0937500037252922
100
AcDbArc
 50
90.0
 51
270.0
  0
ARC
  5
364
330
A
100
AcDbEntity
  8
TOP
  6
CONTINUOUS
 62
     3
100
AcDbCircle
 10
0.6117366949717043
 20
-46.50374205907293
 30
0.0
 40
0.1249999972060348
100
AcDbArc
 50
0.0
 51
180.0
  0
ARC
  5
365
330
A
100
AcDbEntity
  8
TOP
  6
CONTINUOUS
 62
     3
100
AcDbCircle
 10
8.486736138661843
 20
-51.86374139785884
 30
0.0
 40
0.2499999944120695
100
AcDbArc
 50
0.0
 51
90.0
  0
ARC
  5
366
330
A
100
AcDbEntity
  8
TOP
  6
CONTINUOUS
 62
     3
100
AcDbCircle
 10
2.515735546747865
 20
-21.74498987197934
 30
0.0
 40
0.1875000074505843
100
AcDbArc
 50
50.9867530057282
 51
90.0
  0
ARC
  5
367
330
A
100
AcDbEntity
  8
TOP
  6
CONTINUOUS
 62
     3
100
AcDbCircle
 10
7.582235654195272
 20
3.267511208852049
 30
0.0
 40
0.1875000074505843
100
AcDbArc
 50
230.9867530057281
 51
270.0
  0
ARC
  5
368
330
A
100
AcDbEntity
  8
TOP
  6
CONTINUOUS
 62
     3
100
AcDbCircle
 10
2.515735546747865
 20
3.455003579457521
 30
0.0
 40
0.1875000074505843
100
AcDbArc
 50
50.9867530057282
 51
90.0
  0
ARC
  5
369
330
A
100
AcDbEntity
  8
TOP
  6
CONTINUOUS
 62
     3
100
AcDbCircle
 10
3.640735467275027
 20
3.267511208852049
 30
0.0
 40
0.1875000074505843
100
AcDbArc
 50
230.9867530057281
 51
270.0
  0
ARC
  5
36A
330
A
100
AcDbEntity
  8
TOP
  6
CONTINUOUS
 62
     3
100
AcDbCircle
 10
1.241735935211178
 20
-69.68883228302155
 30
0.0
 40
0.0599999989693376
100
AcDbArc
 50
270.0
 51
0.0
  0
ARC
  5
36B
330
A
100
AcDbEntity
  8
TOP
  6
CONTINUOUS
 62
     3
100
AcDbCircle
 10
0.2657357056935399
 20
-22.21374464035093
 30
0.0
 40
0.0937500037252922
100
AcDbArc
 50
90.0
 51
270.0
  0
ARC
  5
36C
330
A
100
AcDbEntity
  8
TOP
  6
CONTINUOUS
 62
     3
100
AcDbCircle
 10
0.6117366949717043
 20
-21.3037406603501
 30
0.0
 40
0.1249999972060348
100
AcDbArc
 50
0.0
 51
180.0
  0
ARC
  5
36D
330
A
100
AcDbEntity
  8
TOP
  6
CONTINUOUS
 62
     3
100
AcDbCircle
 10
5.103232781092398
 20
-3.594994068145972
 30
0.0
 40
0.3750000149011686
100
AcDbArc
 50
90.0
 51
135.0
  0
ARC
  5
36E
330
A
100
AcDbEntity
  8
TOP
  6
CONTINUOUS
 62
     3
100
AcDbCircle
 10
1.390735626220702
 20
-3.032493114471643
 30
0.0
 40
0.1875000074505843
100
AcDbArc
 50
286.9049280286008
 51
309.0132469942718
  0
ARC
  5
36F
330
A
100
AcDbEntity
  8
TOP
  6
CONTINUOUS
 62
     3
100
AcDbCircle
 10
5.103232781092398
 20
-47.69499254226793
 30
0.0
 40
0.3750000149011686
100
AcDbArc
 50
90.0
 51
135.0
  0
ARC
  5
370
330
A
100
AcDbEntity
  8
TOP
  6
CONTINUOUS
 62
     3
100
AcDbCircle
 10
2.515735546747865
 20
3.455003579457521
 30
0.0
 40
0.1875000074505843
100
AcDbArc
 50
90.0
 51
129.0132469942718
  0
ARC
  5
371
330
A
100
AcDbEntity
  8
TOP
  6
CONTINUOUS
 62
     3
100
AcDbCircle
 10
51.38603281974892
 20
-22.60292323430439
 30
0.0
 40
0.0937500037252922
100
AcDbArc
 50
270.0
 51
90.0
  0
ARC
  5
372
330
A
100
AcDbEntity
  8
TOP
  6
CONTINUOUS
 62
     3
100
AcDbCircle
 10
8.426485776901383
 20
-66.00358041127669
 30
0.0
 40
0.3750000149011686
100
AcDbArc
 50
330.3534384822207
 51
0.0
  0
ARC
  5
373
330
A
100
AcDbEntity
  8
TOP
  6
CONTINUOUS
 62
     3
100
AcDbCircle
 10
47.85703253746125
 20
-54.53592491150025
 30
0.0
 40
0.0634999984564893
100
AcDbArc
 50
180.0
 51
270.0
  0
ARC
  5
374
330
A
100
AcDbEntity
  8
TOP
  6
CONTINUOUS
 62
     3
100
AcDbCircle
 10
2.515735546747865
 20
-21.74498987197934
 30
0.0
 40
0.3750000149011686
100
AcDbArc
 50
90.0
 51
129.0132469942718
  0
ARC
  5
375
330
A
100
AcDbEntity
  8
TOP
  6
CONTINUOUS
 62
     3
100
AcDbCircle
 10
5.332235813140947
 20
-9.332489490509367
 30
0.0
 40
0.1875000074505843
100
AcDbArc
 50
286.9049280286008
 51
309.0132469942718
  0
ARC
  5
376
330
A
100
AcDbEntity
  8
TOP
  6
CONTINUOUS
 62
     3
100
AcDbCircle
 10
6.457235733668109
 20
3.455003579457521
 30
0.0
 40
0.3750000149011686
100
AcDbArc
 50
50.9867530057282
 51
129.0132469942718
  0
ARC
  5
377
330
A
100
AcDbEntity
  8
TOP
  6
CONTINUOUS
 62
     3
100
AcDbCircle
 10
5.332235813140947
 20
-40.83249521255589
 30
0.0
 40
0.1875000074505843
100
AcDbArc
 50
286.9049280286008
 51
309.0132469942718
  0
ARC
  5
378
330
A
100
AcDbEntity
  8
TOP
  6
CONTINUOUS
 62
     3
100
AcDbCircle
 10
2.515735546747865
 20
-2.844992796580202
 30
0.0
 40
0.1875000074505843
100
AcDbArc
 50
90.0
 51
129.0132469942718
  0
ARC
  5
379
330
A
100
AcDbEntity
  8
TOP
  6
CONTINUOUS
 62
     3
100
AcDbCircle
 10
0.2367360591888192
 20
4.191256046295101
 30
0.0
 40
0.1249999972060348
100
AcDbArc
 50
90.0
 51
180.0
  0
ARC
  5
37A
330
A
100
AcDbEntity
  8
TOP
  6
CONTINUOUS
 62
     3
100
AcDbCircle
 10
3.870239178339689
 20
-21.93249018987078
 30
0.0
 40
0.1875000074505843
100
AcDbArc
 50
270.0
 51
315.0001073260672
  0
ARC
  5
37B
330
A
100
AcDbEntity
  8
TOP
  6
CONTINUOUS
 62
     3
100
AcDbCircle
 10
6.457235733668109
 20
-15.44499349594161
 30
0.0
 40
0.3750000149011686
100
AcDbArc
 50
50.9867530057282
 51
129.0132469942718
  0
ARC
  5
37C
330
A
100
AcDbEntity
  8
TOP
  6
CONTINUOUS
 62
     3
100
AcDbCircle
 10
3.870239178339689
 20
-3.032493114471643
 30
0.0
 40
0.1875000074505843
100
AcDbArc
 50
270.0
 51
315.0001073260672
  0
ARC
  5
37D
330
A
100
AcDbEntity
  8
TOP
  6
CONTINUOUS
 62
     3
100
AcDbCircle
 10
51.38603281974892
 20
-3.702926158905251
 30
0.0
 40
0.0937500037252922
100
AcDbArc
 50
276.4912499079114
 51
90.0
  0
ARC
  5
37E
330
A
100
AcDbEntity
  8
TOP
  6
CONTINUOUS
 62
     3
100
AcDbCircle
 10
51.38603281974892
 20
-47.80292463302722
 30
0.0
 40
0.0937500037252922
100
AcDbArc
 50
276.4912499079114
 51
90.0
  0
ARC
  5
37F
330
A
100
AcDbEntity
  8
TOP
  6
CONTINUOUS
 62
     3
100
AcDbCircle
 10
0.2657357056935399
 20
-28.51374101638866
 30
0.0
 40
0.0937500037252922
100
AcDbArc
 50
90.0
 51
270.0
  0
ARC
  5
380
330
A
100
AcDbEntity
  8
TOP
  6
CONTINUOUS
 62
     3
100
AcDbCircle
 10
51.38603281974892
 20
-3.702926158905251
 30
0.0
 40
0.0937500037252922
100
AcDbArc
 50
270.0
 51
90.0
  0
ARC
  5
381
330
A
100
AcDbEntity
  8
TOP
  6
CONTINUOUS
 62
     3
100
AcDbCircle
 10
7.551735957463704
 20
-66.49883143107243
 30
0.0
 40
0.0599999989693376
100
AcDbArc
 50
0.0
 51
90.0
  0
ARC
  5
382
330
A
100
AcDbEntity
  8
TOP
  6
CONTINUOUS
 62
     3
100
AcDbCircle
 10
52.66502928733928
 20
-52.14792442321896
 30
0.0
 40
0.1249999972060348
100
AcDbArc
 50
270.0
 51
0.0
  0
ARC
  5
383
330
A
100
AcDbEntity
  8
TOP
  6
CONTINUOUS
 62
     3
100
AcDbCircle
 10
0.2367360591888192
 20
2.941259225209464
 30
0.0
 40
0.1249999972060348
100
AcDbArc
 50
180.0
 51
270.0
  0
ARC
  5
384
330
A
100
AcDbEntity
  8
TOP
  6
CONTINUOUS
 62
     3
100
AcDbCircle
 10
2.515735546747865
 20
-15.44499349594161
 30
0.0
 40
0.3750000149011686
100
AcDbArc
 50
50.9867530057282
 51
90.0
  0
ARC
  5
385
330
A
100
AcDbEntity
  8
TOP
  6
CONTINUOUS
 62
     3
100
AcDbCircle
 10
7.73173602422091
 20
-69.68883228302155
 30
0.0
 40
0.0599999989693376
100
AcDbArc
 50
180.0
 51
270.0
  0
ARC
  5
386
330
A
100
AcDbEntity
  8
TOP
  6
CONTINUOUS
 62
     3
100
AcDbCircle
 10
3.870239178339689
 20
-34.5324908892322
 30
0.0
 40
0.3750000149011686
100
AcDbArc
 50
270.0
 51
315.0001073260672
  0
ARC
  5
387
330
A
100
AcDbEntity
  8
TOP
  6
CONTINUOUS
 62
     3
100
AcDbCircle
 10
51.38603281974892
 20
-35.20292393366581
 30
0.0
 40
0.0937500037252922
100
AcDbArc
 50
270.0
 51
90.0
  0
ARC
  5
388
330
A
100
AcDbEntity
  8
TOP
  6
CONTINUOUS
 62
     3
100
AcDbCircle
 10
8.707736253738548
 20
2.9862567583719
 30
0.0
 40
0.0937500037252922
100
AcDbArc
 50
270.0
 51
90.0
  0
ARC
  5
389
330
A
100
AcDbEntity
  8
TOP
  6
CONTINUOUS
 62
     3
100
AcDbCircle
 10
52.91502706209922
 20
4.052075227101576
 30
0.0
 40
0.1249999972060348
100
AcDbArc
 50
180.0
 51
270.0
  0
ARC
  5
38A
330
A
100
AcDbEntity
  8
TOP
  6
CONTINUOUS
 62
     3
100
AcDbCircle
 10
51.38603281974892
 20
-10.00292253494297
 30
0.0
 40
0.0937500037252922
100
AcDbArc
 50
276.4912499079114
 51
90.0
  0
ARC
  5
38B
330
A
100
AcDbEntity
  8
TOP
  6
CONTINUOUS
 62
     3
100
AcDbCircle
 10
0.2657357056935399
 20
-34.81374533971234
 30
0.0
 40
0.0937500037252922
100
AcDbArc
 50
90.0
 51
270.0
  0
ARC
  5
38C
330
A
100
AcDbEntity
  8
TOP
  6
CONTINUOUS
 62
     3
100
AcDbCircle
 10
8.486736138661843
 20
-49.86374330520743
 30
0.0
 40
0.2499999944120695
100
AcDbArc
 50
0.0
 51
90.0
  0
ARC
  5
38D
330
A
100
AcDbEntity
  8
TOP
  6
CONTINUOUS
 62
     3
100
AcDbCircle
 10
5.103232781092398
 20
-28.7949954668688
 30
0.0
 40
0.1875000074505843
100
AcDbArc
 50
90.0
 51
135.0
  0
ARC
  5
38E
330
A
100
AcDbEntity
  8
TOP
  6
CONTINUOUS
 62
     3
100
AcDbCircle
 10
2.515735546747865
 20
-34.34499057134075
 30
0.0
 40
0.1875000074505843
100
AcDbArc
 50
90.0
 51
129.0132469942718
  0
ARC
  5
38F
330
A
100
AcDbEntity
  8
TOP
  6
CONTINUOUS
 62
     3
100
AcDbCircle
 10
47.82402745882762
 20
-28.90292755762808
 30
0.0
 40
0.0937500037252922
100
AcDbArc
 50
90.0
 51
270.0
  0
ARC
  5
390
330
A
100
AcDbEntity
  8
TOP
  6
CONTINUOUS
 62
     3
100
AcDbCircle
 10
47.82402745882762
 20
2.597078164418441
 30
0.0
 40
0.0937500037252922
100
AcDbArc
 50
90.0
 51
270.0
  0
ARC
  5
391
330
A
100
AcDbEntity
  8
TOP
  6
CONTINUOUS
 62
     3
100
AcDbCircle
 10
52.91502706209922
 20
2.302074909210102
 30
0.0
 40
0.1249999972060348
100
AcDbArc
 50
90.0
 51
180.0
  0
ARC
  5
392
330
A
100
AcDbEntity
  8
TOP
  6
CONTINUOUS
 62
     3
100
AcDbCircle
 10
5.332235813140947
 20
-15.63249381383306
 30
0.0
 40
0.1875000074505843
100
AcDbArc
 50
286.9049280286008
 51
309.0132469942718
  0
ARC
  5
393
330
A
100
AcDbEntity
  8
TOP
  6
CONTINUOUS
 62
     3
100
AcDbCircle
 10
1.390735626220702
 20
-47.13249158859361
 30
0.0
 40
0.1875000074505843
100
AcDbArc
 50
286.9049280286008
 51
309.0132469942718
  0
ARC
  5
394
330
A
100
AcDbEntity
  8
TOP
  6
CONTINUOUS
 62
     3
100
AcDbCircle
 10
8.361735264460383
 20
-21.74374214808204
 30
0.0
 40
0.2499999944120695
100
AcDbArc
 50
120.0000002464888
 51
59.99999975351119
  0
ARC
  5
395
330
A
100
AcDbEntity
  8
TOP
  6
CONTINUOUS
 62
     3
100
AcDbCircle
 10
51.38653349876503
 20
3.347071488698241
 30
0.0
 40
0.0937500037252922
100
AcDbArc
 50
0.0
 51
180.0
  0
ARC
  5
396
330
A
100
AcDbEntity
  8
TOP
  6
CONTINUOUS
 62
     3
100
AcDbCircle
 10
8.707736253738548
 20
-3.313739617665822
 30
0.0
 40
0.0937500037252922
100
AcDbArc
 50
270.0
 51
90.0
  0
ARC
  5
397
330
A
100
AcDbEntity
  8
TOP
  6
CONTINUOUS
 62
     3
100
AcDbCircle
 10
51.38603281974892
 20
-28.90292755762808
 30
0.0
 40
0.0937500037252922
100
AcDbArc
 50
270.0
 51
90.0
  0
ARC
  5
398
330
A
100
AcDbEntity
  8
TOP
  6
CONTINUOUS
 62
     3
100
AcDbCircle
 10
3.640735467275027
 20
-9.332489490509367
 30
0.0
 40
0.1875000074505843
100
AcDbArc
 50
230.9867530057281
 51
270.0
  0
ARC
  5
399
330
A
100
AcDbEntity
  8
TOP
  6
CONTINUOUS
 62
     3
100
AcDbCircle
 10
51.38603281974892
 20
-16.30292685826666
 30
0.0
 40
0.0937500037252922
100
AcDbArc
 50
270.0
 51
90.0
  0
ARC
  5
39A
330
A
100
AcDbEntity
  8
TOP
  6
CONTINUOUS
 62
     3
100
AcDbCircle
 10
0.2657357056935399
 20
-41.11374171575007
 30
0.0
 40
0.0937500037252922
100
AcDbArc
 50
90.0
 51
270.0
  0
ARC
  5
39B
330
A
100
AcDbEntity
  8
TOP
  6
CONTINUOUS
 62
     3
100
AcDbCircle
 10
51.38653349876503
 20
-21.85292196273862
 30
0.0
 40
0.0937500037252922
100
AcDbArc
 50
0.0
 51
180.0
  0
ARC
  5
39C
330
A
100
AcDbEntity
  8
TOP
  6
CONTINUOUS
 62
     3
100
AcDbCircle
 10
51.38653349876503
 20
-47.05292336146145
 30
0.0
 40
0.0937500037252922
100
AcDbArc
 50
0.0
 51
180.0
  0
ARC
  5
39D
330
A
100
AcDbEntity
  8
TOP
  6
CONTINUOUS
 62
     3
100
AcDbCircle
 10
1.390735626220702
 20
-9.332489490509367
 30
0.0
 40
0.1875000074505843
100
AcDbArc
 50
286.9049280286008
 51
309.0132469942718
  0
ARC
  5
39E
330
A
100
AcDbEntity
  8
TOP
  6
CONTINUOUS
 62
     3
100
AcDbCircle
 10
3.870239178339689
 20
-28.23249451319447
 30
0.0
 40
0.3750000149011686
100
AcDbArc
 50
270.0
 51
315.0001073260672
  0
ARC
  5
39F
330
A
100
AcDbEntity
  8
TOP
  6
CONTINUOUS
 62
     3
100
AcDbCircle
 10
5.103232781092398
 20
2.705010255177721
 30
0.0
 40
0.1875000074505843
100
AcDbArc
 50
90.0
 51
135.0
  0
ARC
  5
3A0
330
A
100
AcDbEntity
  8
TOP
  6
CONTINUOUS
 62
     3
100
AcDbCircle
 10
5.103232781092398
 20
2.705010255177721
 30
0.0
 40
0.3750000149011686
100
AcDbArc
 50
90.0
 51
135.0
  0
ARC
  5
3A1
330
A
100
AcDbEntity
  8
TOP
  6
CONTINUOUS
 62
     3
100
AcDbCircle
 10
51.38603281974892
 20
-41.5029282569895
 30
0.0
 40
0.0937500037252922
100
AcDbArc
 50
270.0
 51
90.0
  0
ARC
  5
3A2
330
A
100
AcDbEntity
  8
TOP
  6
CONTINUOUS
 62
     3
100
AcDbCircle
 10
8.707736253738548
 20
-9.613743940989515
 30
0.0
 40
0.0937500037252922
100
AcDbArc
 50
270.0
 51
90.0
  0
ARC
  5
3A3
330
A
100
AcDbEntity
  8
TOP
  6
CONTINUOUS
 62
     3
100
AcDbCircle
 10
8.361735264460383
 20
3.896260738372732
 30
0.0
 40
0.1249999972060348
100
AcDbArc
 50
0.0
 51
180.0
  0
ARC
  5
3A4
330
A
100
AcDbEntity
  8
TOP
  6
CONTINUOUS
 62
     3
100
AcDbCircle
 10
2.515735546747865
 20
-9.144989172617925
 30
0.0
 40
0.1875000074505843
100
AcDbArc
 50
90.0
 51
129.0132469942718
  0
ARC
  5
3A5
330
A
100
AcDbEntity
  8
TOP
  6
CONTINUOUS
 62
     3
100
AcDbCircle
 10
2.515735546747865
 20
-2.844992796580202
 30
0.0
 40
0.1875000074505843
100
AcDbArc
 50
50.9867530057282
 51
90.0
  0
ARC
  5
3A6
330
A
100
AcDbEntity
  8
TOP
  6
CONTINUOUS
 62
     3
100
AcDbCircle
 10
1.390735626220702
 20
-40.83249521255589
 30
0.0
 40
0.1875000074505843
100
AcDbArc
 50
286.9049280286008
 51
309.0132469942718
  0
ARC
  5
3A7
330
A
100
AcDbEntity
  8
TOP
  6
CONTINUOUS
 62
     3
100
AcDbCircle
 10
51.38603281974892
 20
-16.30292685826666
 30
0.0
 40
0.0937500037252922
100
AcDbArc
 50
276.4912499079114
 51
90.0
  0
ARC
  5
3A8
330
A
100
AcDbEntity
  8
TOP
  6
CONTINUOUS
 62
     3
100
AcDbCircle
 10
5.103232781092398
 20
-22.49499114354511
 30
0.0
 40
0.1875000074505843
100
AcDbArc
 50
90.0
 51
135.0
  0
ARC
  5
3A9
330
A
100
AcDbEntity
  8
TOP
  6
CONTINUOUS
 62
     3
100
AcDbCircle
 10
6.457235733668109
 20
-21.74498987197934
 30
0.0
 40
0.3750000149011686
100
AcDbArc
 50
50.9867530057282
 51
129.0132469942718
  0
ARC
  5
3AA
330
A
100
AcDbEntity
  8
TOP
  6
CONTINUOUS
 62
     3
100
AcDbCircle
 10
8.736735900243267
 20
-46.20873880386459
 30
0.0
 40
0.1249999972060348
100
AcDbArc
 50
0.0
 51
90.0
  0
ARC
  5
3AB
330
A
100
AcDbEntity
  8
TOP
  6
CONTINUOUS
 62
     3
100
AcDbCircle
 10
6.457235733668109
 20
-40.64499489466444
 30
0.0
 40
0.1875000074505843
100
AcDbArc
 50
50.9867530057282
 51
129.0132469942718
  0
ARC
  5
3AC
330
A
100
AcDbEntity
  8
TOP
  6
CONTINUOUS
 62
     3
100
AcDbCircle
 10
6.457235733668109
 20
-2.844992796580202
 30
0.0
 40
0.1875000074505843
100
AcDbArc
 50
50.9867530057282
 51
129.0132469942718
  0
ARC
  5
3AD
330
A
100
AcDbEntity
  8
TOP
  6
CONTINUOUS
 62
     3
100
AcDbCircle
 10
52.40002703666789
 20
5.567074298858605
 30
0.0
 40
0.0934999979411581
100
AcDbArc
 50
90.0
 51
90.0
  0
ARC
  5
3AE
330
A
100
AcDbEntity
  8
TOP
  6
CONTINUOUS
 62
     3
100
AcDbCircle
 10
2.515735546747865
 20
-21.74498987197934
 30
0.0
 40
0.3750000149011686
100
AcDbArc
 50
50.9867530057282
 51
90.0
  0
ARC
  5
3AF
330
A
100
AcDbEntity
  8
TOP
  6
CONTINUOUS
 62
     3
100
AcDbCircle
 10
8.707736253738548
 20
-15.91374031702724
 30
0.0
 40
0.0937500037252922
100
AcDbArc
 50
270.0
 51
90.0
  0
ARC
  5
3B0
330
A
100
AcDbEntity
  8
TOP
  6
CONTINUOUS
 62
     3
100
AcDbCircle
 10
3.870239178339689
 20
-9.332489490509367
 30
0.0
 40
0.1875000074505843
100
AcDbArc
 50
270.0
 51
315.0001073260672
  0
ARC
  5
3B1
330
A
100
AcDbEntity
  8
TOP
  6
CONTINUOUS
 62
     3
100
AcDbCircle
 10
2.515735546747865
 20
-28.04499419530303
 30
0.0
 40
0.3750000149011686
100
AcDbArc
 50
90.0
 51
129.0132469942718
  0
ARC
  5
3B2
330
A
100
AcDbEntity
  8
TOP
  6
CONTINUOUS
 62
     3
100
AcDbCircle
 10
2.515735546747865
 20
3.455003579457521
 30
0.0
 40
0.3750000149011686
100
AcDbArc
 50
90.0
 51
129.0132469942718
  0
ARC
  5
3B3
330
A
100
AcDbEntity
  8
TOP
  6
CONTINUOUS
 62
     3
100
AcDbCircle
 10
3.640735467275027
 20
-40.83249521255589
 30
0.0
 40
0.1875000074505843
100
AcDbArc
 50
230.9867530057281
 51
270.0
  0
ARC
  5
3B4
330
A
100
AcDbEntity
  8
TOP
  6
CONTINUOUS
 62
     3
100
AcDbCircle
 10
8.426485776901383
 20
-63.0040799776727
 30
0.0
 40
0.3750000149011686
100
AcDbArc
 50
0.0
 51
22.913438134334
  0
ARC
  5
3B5
330
A
100
AcDbEntity
  8
TOP
  6
CONTINUOUS
 62
     3
100
AcDbCircle
 10
52.91502706209922
 20
-22.89792648951272
 30
0.0
 40
0.1249999972060348
100
AcDbArc
 50
90.0
 51
180.0
  0
ARC
  5
3B6
330
A
100
AcDbEntity
  8
TOP
  6
CONTINUOUS
 62
     3
100
AcDbCircle
 10
47.85703253746125
 20
-54.53592491150025
 30
0.0
 40
0.1269999969129786
100
AcDbArc
 50
180.0
 51
270.0
  0
ARC
  5
3B7
330
A
100
AcDbEntity
  8
TOP
  6
CONTINUOUS
 62
     3
100
AcDbCircle
 10
0.6117366949717043
 20
-46.94374354680487
 30
0.0
 40
0.2499999944120695
100
AcDbArc
 50
120.0000002464888
 51
59.99999975351119
  0
ARC
  5
3B8
330
A
100
AcDbEntity
  8
TOP
  6
CONTINUOUS
 62
     3
100
AcDbCircle
 10
7.582235654195272
 20
-21.93249018987078
 30
0.0
 40
0.1875000074505843
100
AcDbArc
 50
230.9867530057281
 51
270.0
  0
ARC
  5
3B9
330
A
100
AcDbEntity
  8
TOP
  6
CONTINUOUS
 62
     3
100
AcDbCircle
 10
8.707736253738548
 20
-41.11374171575007
 30
0.0
 40
0.0937500037252922
100
AcDbArc
 50
270.0
 51
90.0
  0
ARC
  5
3BA
330
A
100
AcDbEntity
  8
TOP
  6
CONTINUOUS
 62
     3
100
AcDbCircle
 10
7.286735693613804
 20
-50.11374107996737
 30
0.0
 40
0.0934999979411581
100
AcDbArc
 50
270.0
 51
270.0
  0
ARC
  5
3BB
330
A
100
AcDbEntity
  8
TOP
  6
CONTINUOUS
 62
     3
100
AcDbCircle
 10
2.515735546747865
 20
-40.64499489466444
 30
0.0
 40
0.1875000074505843
100
AcDbArc
 50
90.0
 51
129.0132469942718
  0
ARC
  5
3BC
330
A
100
AcDbEntity
  8
TOP
  6
CONTINUOUS
 62
     3
100
AcDbCircle
 10
2.515735546747865
 20
-2.844992796580202
 30
0.0
 40
0.3750000149011686
100
AcDbArc
 50
90.0
 51
129.0132469942718
  0
ARC
  5
3BD
330
A
100
AcDbEntity
  8
TOP
  6
CONTINUOUS
 62
     3
100
AcDbCircle
 10
8.707736253738548
 20
-47.41374603907376
 30
0.0
 40
0.0937500037252922
100
AcDbArc
 50
270.0
 51
90.0
  0
ARC
  5
3BE
330
A
100
AcDbEntity
  8
TOP
  6
CONTINUOUS
 62
     3
100
AcDbCircle
 10
0.2367360591888192
 20
-47.4587435722362
 30
0.0
 40
0.1249999972060348
100
AcDbArc
 50
180.0
 51
270.0
  0
ARC
  5
3BF
330
A
100
AcDbEntity
  8
TOP
  6
CONTINUOUS
 62
     3
100
AcDbCircle
 10
3.870239178339689
 20
-21.93249018987078
 30
0.0
 40
0.3750000149011686
100
AcDbArc
 50
270.0
 51
315.0001073260672
  0
ARC
  5
3C0
330
A
100
AcDbEntity
  8
TOP
  6
CONTINUOUS
 62
     3
100
AcDbCircle
 10
5.332235813140947
 20
-21.93249018987078
 30
0.0
 40
0.1875000074505843
100
AcDbArc
 50
286.9049280286008
 51
309.0132469942718
  0
ARC
  5
3C1
330
A
100
AcDbEntity
  8
TOP
  6
CONTINUOUS
 62
     3
100
AcDbCircle
 10
5.103232781092398
 20
-9.894990444183694
 30
0.0
 40
0.1875000074505843
100
AcDbArc
 50
90.0
 51
135.0
  0
ARC
  5
3C2
330
A
100
AcDbEntity
  8
TOP
  6
CONTINUOUS
 62
     3
100
AcDbCircle
 10
51.38603281974892
 20
-47.80292463302722
 30
0.0
 40
0.0937500037252922
100
AcDbArc
 50
270.0
 51
90.0
  0
ARC
  5
3C3
330
A
100
AcDbEntity
  8
TOP
  6
CONTINUOUS
 62
     3
100
AcDbCircle
 10
8.707736253738548
 20
-22.21374464035093
 30
0.0
 40
0.0937500037252922
100
AcDbArc
 50
270.0
 51
90.0
  0
ARC
  5
3C4
330
A
100
AcDbEntity
  8
TOP
  6
CONTINUOUS
 62
     3
100
AcDbCircle
 10
0.2367360591888192
 20
-22.25874217351337
 30
0.0
 40
0.1249999972060348
100
AcDbArc
 50
180.0
 51
270.0
  0
ARC
  5
3C5
330
A
100
AcDbEntity
  8
TOP
  6
CONTINUOUS
 62
     3
100
AcDbCircle
 10
6.457235733668109
 20
-34.34499057134075
 30
0.0
 40
0.1875000074505843
100
AcDbArc
 50
50.9867530057282
 51
129.0132469942718
  0
ARC
  5
3C6
330
A
100
AcDbEntity
  8
TOP
  6
CONTINUOUS
 62
     3
100
AcDbCircle
 10
5.103232781092398
 20
-9.894990444183694
 30
0.0
 40
0.3750000149011686
100
AcDbArc
 50
90.0
 51
135.0
  0
ARC
  5
3C7
330
A
100
AcDbEntity
  8
TOP
  6
CONTINUOUS
 62
     3
100
AcDbCircle
 10
7.582235654195272
 20
-15.63249381383306
 30
0.0
 40
0.1875000074505843
100
AcDbArc
 50
230.9867530057281
 51
270.0
  0
ARC
  5
3C8
330
A
100
AcDbEntity
  8
TOP
  6
CONTINUOUS
 62
     3
100
AcDbCircle
 10
3.870239178339689
 20
-15.63249381383306
 30
0.0
 40
0.1875000074505843
100
AcDbArc
 50
270.0
 51
315.0001073260672
  0
ARC
  5
3C9
330
A
100
AcDbEntity
  8
TOP
  6
CONTINUOUS
 62
     3
100
AcDbCircle
 10
1.390735626220702
 20
-15.63249381383306
 30
0.0
 40
0.1875000074505843
100
AcDbArc
 50
286.9049280286008
 51
309.0132469942718
  0
ARC
  5
3CA
330
A
100
AcDbEntity
  8
TOP
  6
CONTINUOUS
 62
     3
100
AcDbCircle
 10
3.870239178339689
 20
-15.63249381383306
 30
0.0
 40
0.3750000149011686
100
AcDbArc
 50
270.0
 51
315.0001073260672
  0
ARC
  5
3CB
330
A
100
AcDbEntity
  8
TOP
  6
CONTINUOUS
 62
     3
100
AcDbCircle
 10
7.551735957463704
 20
-66.49883143107243
 30
0.0
 40
0.1199999979386751
100
AcDbArc
 50
0.0
 51
90.0
  0
ARC
  5
3CC
330
A
100
AcDbEntity
  8
TOP
  6
CONTINUOUS
 62
     3
100
AcDbCircle
 10
5.332235813140947
 20
-47.13249158859361
 30
0.0
 40
0.1875000074505843
100
AcDbArc
 50
286.9049280286008
 51
309.0132469942718
  0
ARC
  5
3CD
330
A
100
AcDbEntity
  8
TOP
  6
CONTINUOUS
 62
     3
100
AcDbCircle
 10
5.103232781092398
 20
-16.19499476750738
 30
0.0
 40
0.1875000074505843
100
AcDbArc
 50
90.0
 51
135.0
  0
ARC
  5
3CE
330
A
100
AcDbEntity
  8
TOP
  6
CONTINUOUS
 62
     3
100
AcDbCircle
 10
3.640735467275027
 20
-15.63249381383306
 30
0.0
 40
0.1875000074505843
100
AcDbArc
 50
230.9867530057281
 51
270.0
  0
ARC
  5
3CF
330
A
100
AcDbEntity
  8
TOP
  6
CONTINUOUS
 62
     3
100
AcDbCircle
 10
5.103232781092398
 20
-22.49499114354511
 30
0.0
 40
0.3750000149011686
100
AcDbArc
 50
90.0
 51
135.0
  0
ARC
  5
3D0
330
A
100
AcDbEntity
  8
TOP
  6
CONTINUOUS
 62
     3
100
AcDbCircle
 10
2.515735546747865
 20
-34.34499057134075
 30
0.0
 40
0.1875000074505843
100
AcDbArc
 50
50.9867530057282
 51
90.0
  0
ARC
  5
3D1
330
A
100
AcDbEntity
  8
TOP
  6
CONTINUOUS
 62
     3
100
AcDbCircle
 10
47.82402745882762
 20
-35.20292393366581
 30
0.0
 40
0.0937500037252922
100
AcDbArc
 50
90.0
 51
270.0
  0
ARC
  5
3D2
330
A
100
AcDbEntity
  8
TOP
  6
CONTINUOUS
 62
     3
100
AcDbCircle
 10
0.6117366949717043
 20
3.896260738372732
 30
0.0
 40
0.1249999972060348
100
AcDbArc
 50
0.0
 51
180.0
  0
ARC
  5
3D3
330
A
100
AcDbEntity
  8
TOP
  6
CONTINUOUS
 62
     3
100
AcDbCircle
 10
51.38653349876503
 20
-2.952924887339481
 30
0.0
 40
0.0937500037252922
100
AcDbArc
 50
0.0
 51
180.0
  0
ARC
  5
3D4
330
A
100
AcDbEntity
  8
TOP
  6
CONTINUOUS
 62
     3
100
AcDbCircle
 10
51.38603281974892
 20
-10.00292253494297
 30
0.0
 40
0.0937500037252922
100
AcDbArc
 50
270.0
 51
90.0
  0
ARC
  5
3D5
330
A
100
AcDbEntity
  8
TOP
  6
CONTINUOUS
 62
     3
100
AcDbCircle
 10
8.707736253738548
 20
-28.51374101638866
 30
0.0
 40
0.0937500037252922
100
AcDbArc
 50
270.0
 51
90.0
  0
ARC
  5
3D6
330
A
100
AcDbEntity
  8
TOP
  6
CONTINUOUS
 62
     3
100
AcDbCircle
 10
5.103232781092398
 20
-28.7949954668688
 30
0.0
 40
0.3750000149011686
100
AcDbArc
 50
90.0
 51
135.0
  0
ARC
  5
3D7
330
A
100
AcDbEntity
  8
TOP
  6
CONTINUOUS
 62
     3
100
AcDbCircle
 10
2.515735546747865
 20
-34.34499057134075
 30
0.0
 40
0.3750000149011686
100
AcDbArc
 50
90.0
 51
129.0132469942718
  0
ARC
  5
3D8
330
A
100
AcDbEntity
  8
TOP
  6
CONTINUOUS
 62
     3
100
AcDbCircle
 10
52.91502706209922
 20
-46.34792757034409
 30
0.0
 40
0.1249999972060348
100
AcDbArc
 50
180.0
 51
270.0
  0
ARC
  5
3D9
330
A
100
AcDbEntity
  8
TOP
  6
CONTINUOUS
 62
     3
100
AcDbCircle
 10
7.582235654195272
 20
-28.23249451319447
 30
0.0
 40
0.1875000074505843
100
AcDbArc
 50
230.9867530057281
 51
270.0
  0
ARC
  5
3DA
330
A
100
AcDbEntity
  8
TOP
  6
CONTINUOUS
 62
     3
100
AcDbCircle
 10
51.35302774111529
 20
-54.53592491150025
 30
0.0
 40
0.0634999984564893
100
AcDbArc
 50
270.0
 51
0.0
  0
ARC
  5
3DB
330
A
100
AcDbEntity
  8
TOP
  6
CONTINUOUS
 62
     3
100
AcDbCircle
 10
2.515735546747865
 20
-15.44499349594161
 30
0.0
 40
0.1875000074505843
100
AcDbArc
 50
90.0
 51
129.0132469942718
  0
ARC
  5
3DC
330
A
100
AcDbEntity
  8
TOP
  6
CONTINUOUS
 62
     3
100
AcDbCircle
 10
3.640735467275027
 20
-21.93249018987078
 30
0.0
 40
0.1875000074505843
100
AcDbArc
 50
230.9867530057281
 51
270.0
  0
ARC
  5
3DD
330
A
100
AcDbEntity
  8
TOP
  6
CONTINUOUS
 62
     3
100
AcDbCircle
 10
6.457235733668109
 20
-21.74498987197934
 30
0.0
 40
0.1875000074505843
100
AcDbArc
 50
50.9867530057282
 51
129.0132469942718
  0
ARC
  5
3DE
330
A
100
AcDbEntity
  8
TOP
  6
CONTINUOUS
 62
     3
100
AcDbCircle
 10
1.390735626220702
 20
3.267511208852049
 30
0.0
 40
0.1875000074505843
100
AcDbArc
 50
286.9049280286008
 51
309.0132469942718
  0
ARC
  5
3DF
330
A
100
AcDbEntity
  8
TOP
  6
CONTINUOUS
 62
     3
100
AcDbCircle
 10
2.515735546747865
 20
3.455003579457521
 30
0.0
 40
0.3750000149011686
100
AcDbArc
 50
50.9867530057282
 51
90.0
  0
ARC
  5
3E0
330
A
100
AcDbEntity
  8
TOP
  6
CONTINUOUS
 62
     3
100
AcDbCircle
 10
6.457235733668109
 20
3.455003579457521
 30
0.0
 40
0.1875000074505843
100
AcDbArc
 50
50.9867530057282
 51
129.0132469942718
  0
ARC
  5
3E1
330
A
100
AcDbEntity
  8
TOP
  6
CONTINUOUS
 62
     3
100
AcDbCircle
 10
6.457235733668109
 20
-28.04499419530303
 30
0.0
 40
0.3750000149011686
100
AcDbArc
 50
50.9867530057282
 51
129.0132469942718
  0
ARC
  5
3E2
330
A
100
AcDbEntity
  8
TOP
  6
CONTINUOUS
 62
     3
100
AcDbCircle
 10
8.361735264460383
 20
-46.94374354680487
 30
0.0
 40
0.2499999944120695
100
AcDbArc
 50
120.0000002464888
 51
59.99999975351119
  0
ARC
  5
3E3
330
A
100
AcDbEntity
  8
TOP
  6
CONTINUOUS
 62
     3
100
AcDbCircle
 10
52.91502706209922
 20
-21.14792617162125
 30
0.0
 40
0.1249999972060348
100
AcDbArc
 50
180.0
 51
270.0
  0
ARC
  5
3E4
330
A
100
AcDbEntity
  8
TOP
  6
CONTINUOUS
 62
     3
100
AcDbCircle
 10
6.457235733668109
 20
-9.144989172617925
 30
0.0
 40
0.1875000074505843
100
AcDbArc
 50
50.9867530057282
 51
129.0132469942718
  0
ARC
  5
3E5
330
A
100
AcDbEntity
  8
TOP
  6
CONTINUOUS
 62
     3
100
AcDbCircle
 10
5.332235813140947
 20
3.267511208852049
 30
0.0
 40
0.1875000074505843
100
AcDbArc
 50
286.9049280286008
 51
309.0132469942718
  0
ARC
  5
3E6
330
A
100
AcDbEntity
  8
TOP
  6
CONTINUOUS
 62
     3
100
AcDbCircle
 10
47.82402745882762
 20
-22.60292323430439
 30
0.0
 40
0.0937500037252922
100
AcDbArc
 50
90.0
 51
270.0
  0
ARC
  5
3E7
330
A
100
AcDbEntity
  8
TOP
  6
CONTINUOUS
 62
     3
100
AcDbCircle
 10
7.23673534393322
 20
-64.50383218129619
 30
0.0
 40
0.1559999926636647
100
AcDbArc
 50
180.0
 51
180.0
  0
ARC
  5
3E8
330
A
100
AcDbEntity
  8
TOP
  6
CONTINUOUS
 62
     3
100
AcDbCircle
 10
8.707736253738548
 20
-34.81374533971234
 30
0.0
 40
0.0937500037252922
100
AcDbArc
 50
270.0
 51
90.0
  0
ARC
  5
3E9
330
A
100
AcDbEntity
  8
TOP
  6
CONTINUOUS
 62
     3
100
AcDbCircle
 10
2.515735546747865
 20
-28.04499419530303
 30
0.0
 40
0.3750000149011686
100
AcDbArc
 50
50.9867530057282
 51
90.0
  0
ARC
  5
3EA
330
A
100
AcDbEntity
  8
TOP
  6
CONTINUOUS
 62
     3
100
AcDbCircle
 10
5.332235813140947
 20
-3.032493114471643
 30
0.0
 40
0.1875000074505843
100
AcDbArc
 50
286.9049280286008
 51
309.0132469942718
  0
ARC
  5
3EB
330
A
100
AcDbEntity
  8
TOP
  6
CONTINUOUS
 62
     3
100
AcDbCircle
 10
3.870239178339689
 20
-28.23249451319447
 30
0.0
 40
0.1875000074505843
100
AcDbArc
 50
270.0
 51
315.0001073260672
  0
ARC
  5
3EC
330
A
100
AcDbEntity
  8
TOP
  6
CONTINUOUS
 62
     3
100
AcDbCircle
 10
8.736735900243267
 20
4.191256046295101
 30
0.0
 40
0.1249999972060348
100
AcDbArc
 50
0.0
 51
90.0
  0
ARC
  5
3ED
330
A
100
AcDbEntity
  8
TOP
  6
CONTINUOUS
 62
     3
100
AcDbCircle
 10
2.515735546747865
 20
-46.94499127070217
 30
0.0
 40
0.1875000074505843
100
AcDbArc
 50
50.9867530057282
 51
90.0
  0
ARC
  5
3EE
330
A
100
AcDbEntity
  8
TOP
  6
CONTINUOUS
 62
     3
100
AcDbCircle
 10
2.515735546747865
 20
-9.144989172617925
 30
0.0
 40
0.1875000074505843
100
AcDbArc
 50
50.9867530057282
 51
90.0
  0
ARC
  5
3EF
330
A
100
AcDbEntity
  8
TOP
  6
CONTINUOUS
 62
     3
100
AcDbCircle
 10
0.2367360591888192
 20
-46.20873880386459
 30
0.0
 40
0.1249999972060348
100
AcDbArc
 50
90.0
 51
180.0
  0
ARC
  5
3F0
330
A
100
AcDbEntity
  8
TOP
  6
CONTINUOUS
 62
     3
100
AcDbCircle
 10
1.421736001968383
 20
-66.49883143107243
 30
0.0
 40
0.1199999979386751
100
AcDbArc
 50
90.0
 51
180.0
  0
ARC
  5
3F1
330
A
100
AcDbEntity
  8
TOP
  6
CONTINUOUS
 62
     3
100
AcDbCircle
 10
47.82402745882762
 20
-41.5029282569895
 30
0.0
 40
0.0937500037252922
100
AcDbArc
 50
90.0
 51
270.0
  0
ARC
  5
3F2
330
A
100
AcDbEntity
  8
TOP
  6
CONTINUOUS
 62
     3
100
AcDbCircle
 10
2.515735546747865
 20
-46.94499127070217
 30
0.0
 40
0.3750000149011686
100
AcDbArc
 50
90.0
 51
129.0132469942718
  0
ARC
  5
3F3
330
A
100
AcDbEntity
  8
TOP
  6
CONTINUOUS
 62
     3
100
AcDbCircle
 10
2.515735546747865
 20
-9.144989172617925
 30
0.0
 40
0.3750000149011686
100
AcDbArc
 50
90.0
 51
129.0132469942718
  0
ARC
  5
3F4
330
A
100
AcDbEntity
  8
TOP
  6
CONTINUOUS
 62
     3
100
AcDbCircle
 10
5.332235813140947
 20
-28.23249451319447
 30
0.0
 40
0.1875000074505843
100
AcDbArc
 50
286.9049280286008
 51
309.0132469942718
  0
ARC
  5
3F5
330
A
100
AcDbEntity
  8
TOP
  6
CONTINUOUS
 62
     3
100
AcDbCircle
 10
8.361735264460383
 20
-46.50374205907293
 30
0.0
 40
0.1249999972060348
100
AcDbArc
 50
0.0
 51
180.0
  0
ARC
  5
3F6
330
A
100
AcDbEntity
  8
TOP
  6
CONTINUOUS
 62
     3
100
AcDbCircle
 10
8.361735264460383
 20
3.456259250640789
 30
0.0
 40
0.2499999944120695
100
AcDbArc
 50
120.0000002464888
 51
59.99999975351119
  0
ARC
  5
3F7
330
A
100
AcDbEntity
  8
TOP
  6
CONTINUOUS
 62
     3
100
AcDbCircle
 10
6.457235733668109
 20
-2.844992796580202
 30
0.0
 40
0.3750000149011686
100
AcDbArc
 50
50.9867530057282
 51
129.0132469942718
  0
ARC
  5
3F8
330
A
100
AcDbEntity
  8
TOP
  6
CONTINUOUS
 62
     3
100
AcDbCircle
 10
3.870239178339689
 20
-47.13249158859361
 30
0.0
 40
0.1875000074505843
100
AcDbArc
 50
270.0
 51
315.0001073260672
  0
ARC
  5
3F9
330
A
100
AcDbEntity
  8
TOP
  6
CONTINUOUS
 62
     3
100
AcDbCircle
 10
3.870239178339689
 20
-9.332489490509367
 30
0.0
 40
0.3750000149011686
100
AcDbArc
 50
270.0
 51
315.0001073260672
  0
ARC
  5
3FA
330
A
100
AcDbEntity
  8
TOP
  6
CONTINUOUS
 62
     3
100
AcDbCircle
 10
2.515735546747865
 20
-2.844992796580202
 30
0.0
 40
0.3750000149011686
100
AcDbArc
 50
50.9867530057282
 51
90.0
  0
ARC
  5
3FB
330
A
100
AcDbEntity
  8
TOP
  6
CONTINUOUS
 62
     3
100
AcDbCircle
 10
2.515735546747865
 20
-40.64499489466444
 30
0.0
 40
0.3750000149011686
100
AcDbArc
 50
50.9867530057282
 51
90.0
  0
ARC
  5
3FC
330
A
100
AcDbEntity
  8
TOP
  6
CONTINUOUS
 62
     3
100
AcDbCircle
 10
51.38603281974892
 20
-28.90292755762808
 30
0.0
 40
0.0937500037252922
100
AcDbArc
 50
276.4912499079114
 51
90.0
  0
ARC
  5
3FD
330
A
100
AcDbEntity
  8
TOP
  6
CONTINUOUS
 62
     3
100
AcDbCircle
 10
0.5469861825307037
 20
-66.00358041127669
 30
0.0
 40
0.3750000149011686
100
AcDbArc
 50
180.0
 51
202.913438134334
  0
ARC
  5
3FE
330
A
100
AcDbEntity
  8
TOP
  6
CONTINUOUS
 62
     3
100
AcDbCircle
 10
1.390735626220702
 20
-21.93249018987078
 30
0.0
 40
0.1875000074505843
100
AcDbArc
 50
286.9049280286008
 51
309.0132469942718
  0
ARC
  5
3FF
330
A
100
AcDbEntity
  8
TOP
  6
CONTINUOUS
 62
     3
100
AcDbCircle
 10
6.457235733668109
 20
-40.64499489466444
 30
0.0
 40
0.3750000149011686
100
AcDbArc
 50
50.9867530057282
 51
129.0132469942718
  0
ARC
  5
400
330
A
100
AcDbEntity
  8
TOP
  6
CONTINUOUS
 62
     3
100
AcDbCircle
 10
1.241735935211178
 20
-69.68883228302155
 30
0.0
 40
0.1199999979386751
100
AcDbArc
 50
270.0
 51
0.0
  0
ARC
  5
401
330
A
100
AcDbEntity
  8
TOP
  6
CONTINUOUS
 62
     3
100
AcDbCircle
 10
1.686736265818283
 20
-50.11374107996737
 30
0.0
 40
0.0934999979411581
100
AcDbArc
 50
270.0
 51
270.0
  0
ARC
  5
402
330
A
100
AcDbEntity
  8
TOP
  6
CONTINUOUS
 62
     3
100
AcDbCircle
 10
2.515735546747865
 20
-40.64499489466444
 30
0.0
 40
0.3750000149011686
100
AcDbArc
 50
90.0
 51
129.0132469942718
  0
ARC
  5
403
330
A
100
AcDbEntity
  8
TOP
  6
CONTINUOUS
 62
     3
100
AcDbCircle
 10
7.582235654195272
 20
-3.032493114471643
 30
0.0
 40
0.1875000074505843
100
AcDbArc
 50
230.9867530057281
 51
270.0
  0
ARC
  5
404
330
A
100
AcDbEntity
  8
TOP
  6
CONTINUOUS
 62
     3
100
AcDbCircle
 10
3.870239178339689
 20
-40.83249521255589
 30
0.0
 40
0.1875000074505843
100
AcDbArc
 50
270.0
 51
315.0001073260672
  0
ARC
  5
405
330
A
100
AcDbEntity
  8
TOP
  6
CONTINUOUS
 62
     3
100
AcDbCircle
 10
0.5469861825307037
 20
-63.0040799776727
 30
0.0
 40
0.3750000149011686
100
AcDbArc
 50
150.3534384822207
 51
180.0
  0
ARC
  5
406
330
A
100
AcDbEntity
  8
TOP
  6
CONTINUOUS
 62
     3
100
AcDbCircle
 10
2.515735546747865
 20
-21.74498987197934
 30
0.0
 40
0.1875000074505843
100
AcDbArc
 50
90.0
 51
129.0132469942718
  0
ARC
  5
407
330
A
100
AcDbEntity
  8
TOP
  6
CONTINUOUS
 62
     3
100
AcDbCircle
 10
47.82402745882762
 20
-47.80292463302722
 30
0.0
 40
0.0937500037252922
100
AcDbArc
 50
90.0
 51
270.0
  0
ARC
  5
408
330
A
100
AcDbEntity
  8
TOP
  6
CONTINUOUS
 62
     3
100
AcDbCircle
 10
6.457235733668109
 20
-46.94499127070217
 30
0.0
 40
0.1875000074505843
100
AcDbArc
 50
50.9867530057282
 51
129.0132469942718
  0
ARC
  5
409
330
A
100
AcDbEntity
  8
TOP
  6
CONTINUOUS
 62
     3
100
AcDbCircle
 10
6.457235733668109
 20
-46.94499127070217
 30
0.0
 40
0.3750000149011686
100
AcDbArc
 50
50.9867530057282
 51
129.0132469942718
  0
ARC
  5
40A
330
A
100
AcDbEntity
  8
TOP
  6
CONTINUOUS
 62
     3
100
AcDbCircle
 10
0.2657357056935399
 20
2.9862567583719
 30
0.0
 40
0.0937500037252922
100
AcDbArc
 50
90.0
 51
270.0
  0
ARC
  5
40B
330
A
100
AcDbEntity
  8
TOP
  6
CONTINUOUS
 62
     3
100
AcDbCircle
 10
52.91502706209922
 20
-48.09792788823556
 30
0.0
 40
0.1249999972060348
100
AcDbArc
 50
90.0
 51
180.0
  0
ARC
  5
40C
330
A
100
AcDbEntity
  8
TOP
  6
CONTINUOUS
 62
     3
100
AcDbCircle
 10
5.103232781092398
 20
-16.19499476750738
 30
0.0
 40
0.3750000149011686
100
AcDbArc
 50
90.0
 51
135.0
  0
ARC
  5
40D
330
A
100
AcDbEntity
  8
TOP
  6
CONTINUOUS
 62
     3
100
AcDbCircle
 10
6.457235733668109
 20
-15.44499349594161
 30
0.0
 40
0.1875000074505843
100
AcDbArc
 50
50.9867530057282
 51
129.0132469942718
  0
ARC
  5
40E
330
A
100
AcDbEntity
  8
TOP
  6
CONTINUOUS
 62
     3
100
AcDbCircle
 10
5.103232781092398
 20
-47.69499254226793
 30
0.0
 40
0.1875000074505843
100
AcDbArc
 50
90.0
 51
135.0
  0
ARC
  5
40F
330
A
100
AcDbEntity
  8
TOP
  6
CONTINUOUS
 62
     3
100
AcDbCircle
 10
7.286735693613804
 20
-50.11374107996737
 30
0.0
 40
0.1249999972060348
100
AcDbArc
 50
270.0
 51
270.0
  0
ARC
  5
410
330
A
100
AcDbEntity
  8
TOP
  6
CONTINUOUS
 62
     3
100
AcDbCircle
 10
2.515735546747865
 20
-34.34499057134075
 30
0.0
 40
0.3750000149011686
100
AcDbArc
 50
50.9867530057282
 51
90.0
  0
ARC
  5
411
330
A
100
AcDbEntity
  8
TOP
  6
CONTINUOUS
 62
     3
100
AcDbCircle
 10
52.66502928733928
 20
6.942073980967193
 30
0.0
 40
0.1249999972060348
100
AcDbArc
 50
0.0
 51
90.0
  0
ARC
  5
412
330
A
100
AcDbEntity
  8
TOP
  6
CONTINUOUS
 62
     3
100
AcDbCircle
 10
2.515735546747865
 20
-15.44499349594161
 30
0.0
 40
0.1875000074505843
100
AcDbArc
 50
50.9867530057282
 51
90.0
  0
ARC
  5
413
330
A
100
AcDbEntity
  8
TOP
  6
CONTINUOUS
 62
     3
100
AcDbCircle
 10
51.38653349876503
 20
-9.252929210663175
 30
0.0
 40
0.0937500037252922
100
AcDbArc
 50
0.0
 51
180.0
  0
ARC
  5
414
330
A
100
AcDbEntity
  8
TOP
  6
CONTINUOUS
 62
     3
100
AcDbCircle
 10
7.73173602422091
 20
-69.68883228302155
 30
0.0
 40
0.1199999979386751
100
AcDbArc
 50
180.0
 51
270.0
  0
ARC
  5
415
330
A
100
AcDbEntity
  8
TOP
  6
CONTINUOUS
 62
     3
100
AcDbCircle
 10
47.82402745882762
 20
-10.00292253494297
 30
0.0
 40
0.0937500037252922
100
AcDbArc
 50
90.0
 51
270.0
  0
ARC
  5
416
330
A
100
AcDbEntity
  8
TOP
  6
CONTINUOUS
 62
     3
100
AcDbCircle
 10
3.870239178339689
 20
-34.5324908892322
 30
0.0
 40
0.1875000074505843
100
AcDbArc
 50
270.0
 51
315.0001073260672
  0
ARC
  5
417
330
A
100
AcDbEntity
  8
TOP
  6
CONTINUOUS
 62
     3
100
AcDbCircle
 10
3.870239178339689
 20
-3.032493114471643
 30
0.0
 40
0.3750000149011686
100
AcDbArc
 50
270.0
 51
315.0001073260672
  0
ARC
  5
418
330
A
100
AcDbEntity
  8
TOP
  6
CONTINUOUS
 62
     3
100
AcDbCircle
 10
51.38603281974892
 20
-35.20292393366581
 30
0.0
 40
0.0937500037252922
100
AcDbArc
 50
276.4912499079114
 51
90.0
  0
ARC
  5
419
330
A
100
AcDbEntity
  8
TOP
  6
CONTINUOUS
 62
     3
100
AcDbCircle
 10
51.35302774111529
 20
-54.53592491150025
 30
0.0
 40
0.1269999969129786
100
AcDbArc
 50
270.0
 51
0.0
  0
ARC
  5
41A
330
A
100
AcDbEntity
  8
TOP
  6
CONTINUOUS
 62
     3
100
AcDbCircle
 10
3.640735467275027
 20
-28.23249451319447
 30
0.0
 40
0.1875000074505843
100
AcDbArc
 50
230.9867530057281
 51
270.0
  0
ARC
  5
41B
330
A
100
AcDbEntity
  8
TOP
  6
CONTINUOUS
 62
     3
100
AcDbCircle
 10
2.515735546747865
 20
-46.94499127070217
 30
0.0
 40
0.1875000074505843
100
AcDbArc
 50
90.0
 51
129.0132469942718
  0
ARC
  5
41C
330
A
100
AcDbEntity
  8
TOP
  6
CONTINUOUS
 62
     3
100
AcDbCircle
 10
7.582235654195272
 20
-34.5324908892322
 30
0.0
 40
0.1875000074505843
100
AcDbArc
 50
230.9867530057281
 51
270.0
  0
ARC
  5
41D
330
A
100
AcDbEntity
  8
TOP
  6
CONTINUOUS
 62
     3
100
AcDbCircle
 10
0.2657357056935399
 20
-3.313739617665822
 30
0.0
 40
0.0937500037252922
100
AcDbArc
 50
90.0
 51
270.0
  0
ARC
  5
41E
330
A
100
AcDbEntity
  8
TOP
  6
CONTINUOUS
 62
     3
100
AcDbCircle
 10
0.6117366949717043
 20
3.456259250640789
 30
0.0
 40
0.2499999944120695
100
AcDbArc
 50
120.0000002464888
 51
59.99999975351119
  0
ARC
  5
41F
330
A
100
AcDbEntity
  8
TOP
  6
CONTINUOUS
 62
     3
100
AcDbCircle
 10
2.515735546747865
 20
-15.44499349594161
 30
0.0
 40
0.3750000149011686
100
AcDbArc
 50
90.0
 51
129.0132469942718
  0
ARC
  5
420
330
A
100
AcDbEntity
  8
TOP
  6
CONTINUOUS
 62
     3
100
AcDbCircle
 10
5.103232781092398
 20
-41.39499616623022
 30
0.0
 40
0.3750000149011686
100
AcDbArc
 50
90.0
 51
135.0
  0
ARC
  5
421
330
A
100
AcDbEntity
  8
TOP
  6
CONTINUOUS
 62
     3
100
AcDbCircle
 10
5.332235813140947
 20
-34.5324908892322
 30
0.0
 40
0.1875000074505843
100
AcDbArc
 50
286.9049280286008
 51
309.0132469942718
  0
ARC
  5
422
330
A
100
AcDbEntity
  8
TOP
  6
CONTINUOUS
 62
     3
100
AcDbCircle
 10
5.103232781092398
 20
-35.09499184290652
 30
0.0
 40
0.3750000149011686
100
AcDbArc
 50
90.0
 51
135.0
  0
ARC
  5
423
330
A
100
AcDbEntity
  8
TOP
  6
CONTINUOUS
 62
     3
100
AcDbCircle
 10
2.515735546747865
 20
-40.64499489466444
 30
0.0
 40
0.1875000074505843
100
AcDbArc
 50
50.9867530057282
 51
90.0
  0
ARC
  5
424
330
A
100
AcDbEntity
  8
TOP
  6
CONTINUOUS
 62
     3
100
AcDbCircle
 10
6.457235733668109
 20
-9.144989172617925
 30
0.0
 40
0.3750000149011686
100
AcDbArc
 50
50.9867530057282
 51
129.0132469942718
  0
ARC
  5
425
330
A
100
AcDbEntity
  8
TOP
  6
CONTINUOUS
 62
     3
100
AcDbCircle
 10
1.736736615498867
 20
-64.50383218129619
 30
0.0
 40
0.1559999926636647
100
AcDbArc
 50
180.0
 51
180.0
  0
ARC
  5
426
330
A
100
AcDbEntity
  8
TOP
  6
CONTINUOUS
 62
     3
100
AcDbCircle
 10
47.82402745882762
 20
-3.702926158905251
 30
0.0
 40
0.0937500037252922
100
AcDbArc
 50
90.0
 51
270.0
  0
ARC
  5
427
330
A
100
AcDbEntity
  8
TOP
  6
CONTINUOUS
 62
     3
100
AcDbCircle
 10
0.2657357056935399
 20
-9.613743940989515
 30
0.0
 40
0.0937500037252922
100
AcDbArc
 50
90.0
 51
270.0
  0
ARC
  5
428
330
A
100
AcDbEntity
  8
TOP
  6
CONTINUOUS
 62
     3
100
AcDbCircle
 10
2.515735546747865
 20
-9.144989172617925
 30
0.0
 40
0.3750000149011686
100
AcDbArc
 50
50.9867530057282
 51
90.0
  0
ARC
  5
429
330
A
100
AcDbEntity
  8
TOP
  6
CONTINUOUS
 62
     3
100
AcDbCircle
 10
1.390735626220702
 20
-28.23249451319447
 30
0.0
 40
0.1875000074505843
100
AcDbArc
 50
286.9049280286008
 51
309.0132469942718
  0
ARC
  5
42A
330
A
100
AcDbEntity
  8
TOP
  6
CONTINUOUS
 62
     3
100
AcDbCircle
 10
8.736735900243267
 20
-47.4587435722362
 30
0.0
 40
0.1249999972060348
100
AcDbArc
 50
270.0
 51
0.0
  0
ARC
  5
42B
330
A
100
AcDbEntity
  8
TOP
  6
CONTINUOUS
 62
     3
100
AcDbCircle
 10
51.38603281974892
 20
2.597078164418441
 30
0.0
 40
0.0937500037252922
100
AcDbArc
 50
270.0
 51
90.0
  0
ARC
  5
42C
330
A
100
AcDbEntity
  8
TOP
  6
CONTINUOUS
 62
     3
100
AcDbCircle
 10
1.421736001968383
 20
-66.49883143107243
 30
0.0
 40
0.0599999989693376
100
AcDbArc
 50
90.0
 51
180.0
  0
ARC
  5
42D
330
A
100
AcDbEntity
  8
TOP
  6
CONTINUOUS
 62
     3
100
AcDbCircle
 10
7.582235654195272
 20
-47.13249158859361
 30
0.0
 40
0.1875000074505843
100
AcDbArc
 50
230.9867530057281
 51
270.0
  0
ARC
  5
42E
330
A
100
AcDbEntity
  8
TOP
  6
CONTINUOUS
 62
     3
100
AcDbCircle
 10
7.582235654195272
 20
-9.332489490509367
 30
0.0
 40
0.1875000074505843
100
AcDbArc
 50
230.9867530057281
 51
270.0
  0
ARC
  5
42F
330
A
100
AcDbEntity
  8
TOP
  6
CONTINUOUS
 62
     3
100
AcDbCircle
 10
47.82402745882762
 20
-16.30292685826666
 30
0.0
 40
0.0937500037252922
100
AcDbArc
 50
90.0
 51
270.0
  0
ARC
  5
430
330
A
100
AcDbEntity
  8
TOP
  6
CONTINUOUS
 62
     3
100
AcDbCircle
 10
2.515735546747865
 20
-28.04499419530303
 30
0.0
 40
0.1875000074505843
100
AcDbArc
 50
90.0
 51
129.0132469942718
  0
ARC
  5
431
330
A
100
AcDbEntity
  8
TOP
  6
CONTINUOUS
 62
     3
100
AcDbCircle
 10
6.457235733668109
 20
-28.04499419530303
 30
0.0
 40
0.1875000074505843
100
AcDbArc
 50
50.9867530057282
 51
129.0132469942718
  0
ARC
  5
432
330
A
100
AcDbEntity
  8
TOP
  6
CONTINUOUS
 62
     3
100
AcDbCircle
 10
5.103232781092398
 20
-3.594994068145972
 30
0.0
 40
0.1875000074505843
100
AcDbArc
 50
90.0
 51
135.0
  0
ARC
  5
433
330
A
100
AcDbEntity
  8
TOP
  6
CONTINUOUS
 62
     3
100
AcDbCircle
 10
51.38603281974892
 20
-41.5029282569895
 30
0.0
 40
0.0937500037252922
100
AcDbArc
 50
276.4912499079114
 51
90.0
  0
ARC
  5
434
330
A
100
AcDbEntity
  8
TOP
  6
CONTINUOUS
 62
     3
100
AcDbCircle
 10
0.2657357056935399
 20
-15.91374031702724
 30
0.0
 40
0.0937500037252922
100
AcDbArc
 50
90.0
 51
270.0
  0
ARC
  5
435
330
A
100
AcDbEntity
  8
TOP
  6
CONTINUOUS
 62
     3
100
AcDbCircle
 10
3.640735467275027
 20
-47.13249158859361
 30
0.0
 40
0.1875000074505843
100
AcDbArc
 50
230.9867530057281
 51
270.0
  0
ARC
  5
436
330
A
100
AcDbEntity
  8
TOP
  6
CONTINUOUS
 62
     3
100
AcDbCircle
 10
0.4867358207702451
 20
-49.86374330520743
 30
0.0
 40
0.2499999944120695
100
AcDbArc
 50
90.0
 51
180.0
  0
ARC
  5
437
330
A
100
AcDbEntity
  8
TOP
  6
CONTINUOUS
 62
     3
100
AcDbCircle
 10
3.870239178339689
 20
-47.13249158859361
 30
0.0
 40
0.3750000149011686
100
AcDbArc
 50
270.0
 51
315.0001073260672
  0
ARC
  5
438
330
A
100
AcDbEntity
  8
TOP
  6
CONTINUOUS
 62
     3
100
AcDbCircle
 10
51.38653349876503
 20
-15.55292558670089
 30
0.0
 40
0.0937500037252922
100
AcDbArc
 50
0.0
 51
180.0
  0
ARC
  5
439
330
A
100
AcDbEntity
  8
TOP
  6
CONTINUOUS
 62
     3
100
AcDbCircle
 10
2.515735546747865
 20
-28.04499419530303
 30
0.0
 40
0.1875000074505843
100
AcDbArc
 50
50.9867530057282
 51
90.0
  0
ARC
  5
43A
330
A
100
AcDbEntity
  8
TOP
  6
CONTINUOUS
 62
     3
100
AcDbCircle
 10
51.38653349876503
 20
-28.15292628606231
 30
0.0
 40
0.0937500037252922
100
AcDbArc
 50
0.0
 51
180.0
  0
ARC
  5
43B
330
A
100
AcDbEntity
  8
TOP
  6
CONTINUOUS
 62
     3
100
AcDbCircle
 10
6.457235733668109
 20
-34.34499057134075
 30
0.0
 40
0.3750000149011686
100
AcDbArc
 50
50.9867530057282
 51
129.0132469942718
  0
ARC
  5
43C
330
A
100
AcDbEntity
  8
TOP
  6
CONTINUOUS
 62
     3
100
AcDbCircle
 10
51.38653349876503
 20
-40.75292698542372
 30
0.0
 40
0.0937500037252922
100
AcDbArc
 50
0.0
 51
180.0
  0
ARC
  5
43D
330
A
100
AcDbEntity
  8
TOP
  6
CONTINUOUS
 62
     3
100
AcDbCircle
 10
3.640735467275027
 20
-3.032493114471643
 30
0.0
 40
0.1875000074505843
100
AcDbArc
 50
230.9867530057281
 51
270.0
  0
ARC
  5
43E
330
A
100
AcDbEntity
  8
TOP
  6
CONTINUOUS
 62
     3
100
AcDbCircle
 10
5.103232781092398
 20
-41.39499616623022
 30
0.0
 40
0.1875000074505843
100
AcDbArc
 50
90.0
 51
135.0
  0
ARC
  5
43F
330
A
100
AcDbEntity
  8
TOP
  6
CONTINUOUS
 62
     3
100
AcDbCircle
 10
0.2367360591888192
 20
-21.00874535242773
 30
0.0
 40
0.1249999972060348
100
AcDbArc
 50
90.0
 51
180.0
  0
ARC
  5
440
330
A
100
AcDbEntity
  8
TOP
  6
CONTINUOUS
 62
     3
100
AcDbCircle
 10
5.103232781092398
 20
-35.09499184290652
 30
0.0
 40
0.1875000074505843
100
AcDbArc
 50
90.0
 51
135.0
  0
ARC
  5
441
330
A
100
AcDbEntity
  8
TOP
  6
CONTINUOUS
 62
     3
100
AcDbCircle
 10
0.4867358207702451
 20
-51.86374139785884
 30
0.0
 40
0.2499999944120695
100
AcDbArc
 50
90.0
 51
180.0
  0
ARC
  5
442
330
A
100
AcDbEntity
  8
TOP
  6
CONTINUOUS
 62
     3
100
AcDbCircle
 10
51.38603281974892
 20
-22.60292323430439
 30
0.0
 40
0.0937500037252922
100
AcDbArc
 50
276.4912499079114
 51
90.0
  0
ARC
  5
443
330
A
100
AcDbEntity
  8
TOP
  6
CONTINUOUS
 62
     3
100
AcDbCircle
 10
8.736735900243267
 20
-22.25874217351337
 30
0.0
 40
0.1249999972060348
100
AcDbArc
 50
270.0
 51
0.0
  0
ARC
  5
444
330
A
100
AcDbEntity
  8
TOP
  6
CONTINUOUS
 62
     3
100
AcDbCircle
 10
3.870239178339689
 20
3.267511208852049
 30
0.0
 40
0.3750000149011686
100
AcDbArc
 50
270.0
 51
315.0001073260672
  0
ARC
  5
445
330
A
100
AcDbEntity
  8
TOP
  6
CONTINUOUS
 62
     3
100
AcDbCircle
 10
1.686736265818283
 20
-50.11374107996737
 30
0.0
 40
0.1249999972060348
100
AcDbArc
 50
270.0
 51
270.0
  0
ARC
  5
446
330
A
100
AcDbEntity
  8
TOP
  6
CONTINUOUS
 62
     3
100
AcDbCircle
 10
8.736735900243267
 20
-21.00874535242773
 30
0.0
 40
0.1249999972060348
100
AcDbArc
 50
0.0
 51
90.0
  0
ARC
  5
447
330
A
100
AcDbEntity
  8
TOP
  6
CONTINUOUS
 62
     3
100
AcDbCircle
 10
8.361735264460383
 20
-21.3037406603501
 30
0.0
 40
0.1249999972060348
100
AcDbArc
 50
0.0
 51
180.0
  0
ARC
  5
448
330
A
100
AcDbEntity
  8
TOP
  6
CONTINUOUS
 62
     3
100
AcDbCircle
 10
3.640735467275027
 20
-34.5324908892322
 30
0.0
 40
0.1875000074505843
100
AcDbArc
 50
230.9867530057281
 51
270.0
  0
ARC
  5
449
330
A
100
AcDbEntity
  8
TOP
  6
CONTINUOUS
 62
     3
100
AcDbCircle
 10
51.38603281974892
 20
2.597078164418441
 30
0.0
 40
0.0937500037252922
100
AcDbArc
 50
276.4912499079114
 51
90.0
  0
ARC
  5
44A
330
A
100
AcDbEntity
  8
TOP
  6
CONTINUOUS
 62
     3
100
AcDbCircle
 10
2.515735546747865
 20
-46.94499127070217
 30
0.0
 40
0.3750000149011686
100
AcDbArc
 50
50.9867530057282
 51
90.0
  0
ARC
  5
44B
330
A
100
AcDbEntity
  8
TOP
  6
CONTINUOUS
 62
     3
100
AcDbCircle
 10
8.736735900243267
 20
2.941259225209464
 30
0.0
 40
0.1249999972060348
100
AcDbArc
 50
270.0
 51
0.0
  0
ARC
  5
44C
330
A
100
AcDbEntity
  8
TOP
  6
CONTINUOUS
 62
     3
100
AcDbCircle
 10
51.38653349876503
 20
-34.45292266210003
 30
0.0
 40
0.0937500037252922
100
AcDbArc
 50
0.0
 51
180.0
  0
ARC
  5
44D
330
A
100
AcDbEntity
  8
TOP
  6
CONTINUOUS
 62
     3
100
AcDbCircle
 10
3.870239178339689
 20
-40.83249521255589
 30
0.0
 40
0.3750000149011686
100
AcDbArc
 50
270.0
 51
315.0001073260672
  0
ARC
  5
44E
330
A
100
AcDbEntity
  8
TOP
  6
CONTINUOUS
 62
     3
100
AcDbCircle
 10
3.870239178339689
 20
3.267511208852049
 30
0.0
 40
0.1875000074505843
100
AcDbArc
 50
270.0
 51
315.0001073260672
  0
ARC
  5
44F
330
A
100
AcDbEntity
  8
TOP
  6
CONTINUOUS
 62
     3
100
AcDbCircle
 10
1.390735626220702
 20
-34.5324908892322
 30
0.0
 40
0.1875000074505843
100
AcDbArc
 50
286.9049280286008
 51
309.0132469942718
  0
ARC
  5
450
330
A
100
AcDbEntity
  8
TOP
  6
CONTINUOUS
 62
     3
100
AcDbCircle
 10
0.6117366949717043
 20
-21.74374214808204
 30
0.0
 40
0.2499999944120695
100
AcDbArc
 50
120.0000002464888
 51
59.99999975351119
  0
CIRCLE
  5
470
330
A
100
AcDbEntity
  8
0
  6
CONTINUOUS
100
AcDbCircle
 10
1.736736615498867
 20
-64.50383218129619
 30
0.0
 40
0.1559999926636647
  0
CIRCLE
  5
471
330
A
100
AcDbEntity
  8
0
  6
CONTINUOUS
100
AcDbCircle
 10
7.23673534393322
 20
-64.50383218129619
 30
0.0
 40
0.1559999926636647
  0
CIRCLE
  5
472
330
A
100
AcDbEntity
  8
0
  6
CONTINUOUS
100
AcDbCircle
 10
1.686736265818283
 20
-50.11374107996737
 30
0.0
 40
0.0934999979411581
  0
CIRCLE
  5
473
330
A
100
AcDbEntity
  8
0
  6
CONTINUOUS
100
AcDbCircle
 10
1.686736265818283
 20
-50.11374107996737
 30
0.0
 40
0.1249999972060348
  0
CIRCLE
  5
474
330
A
100
AcDbEntity
  8
0
  6
CONTINUOUS
100
AcDbCircle
 10
7.286735693613804
 20
-50.11374107996737
 30
0.0
 40
0.0934999979411581
  0
CIRCLE
  5
475
330
A
100
AcDbEntity
  8
0
  6
CONTINUOUS
100
AcDbCircle
 10
7.286735693613804
 20
-50.11374107996737
 30
0.0
 40
0.1249999972060348
  0
CIRCLE
  5
476
330
A
100
AcDbEntity
  8
0
  6
CONTINUOUS
100
AcDbCircle
 10
52.40002703666789
 20
5.567074298858605
 30
0.0
 40
0.0934999979411581
  0
CIRCLE
  5
477
330
A
100
AcDbEntity
  8
0
  6
CONTINUOUS
100
AcDbCircle
 10
52.40002703666789
 20
-50.77292474111037
 30
0.0
 40
0.0934999979411581
  0
VIEWPORT
  5
46F
330
B
100
AcDbEntity
 67
     1
  8
0
  6
CONTINUOUS
100
AcDbViewport
 10
3.6468788249694
 20
2.25
 30
0.0
 40
8.2937576499388
 41
5.5
 68
     1
 69
     1
1001
ACAD
1000
MVIEW
1002
{
1070
    16
1010
0.0
1020
0.0
1030
0.0
1010
0.0
1020
0.0
1030
1.0
1040
0.0
1040
5.5
1040
3.6468788249694
1040
2.25
1040
50.0
1040
0.0
1040
0.0
1070
     0
1070
   100
1070
     1
1070
     1
1070
     0
1070
     0
1070
     0
1070
     0
1040
0.0
1040
0.0
1040
0.0
1040
1.0
1040
1.0
1040
0.0
1040
0.0
1070
     0
1002
{
1002
}
1002
}
  0
ENDSEC
  0
SECTION
  2
OBJECTS
  0
DICTIONARY
  5
19
330
0
100
AcDbDictionary
  3
ACAD_GROUP
350
1A
  3
ACAD_MLINESTYLE
350
1B
  3
ACAD_LAYOUT
350
1E
  3
ACAD_PLOTSETTINGS
350
21
  3
ACAD_PLOTSTYLENAME
350
1F
  3
ACDBHEADERROUNDTRIPXREC
350
490
  0
DICTIONARY
  5
4B1
330
A
100
AcDbDictionary
280
     1
  3
ACAD_LAYOUTSELFREF
360
4B2
  0
DICTIONARY
  5
4B3
330
B
100
AcDbDictionary
280
     1
  3
ACAD_LAYOUTSELFREF
360
4B4
  0
DICTIONARY
  5
1A
102
{ACAD_REACTORS
330
19
102
}
330
19
100
AcDbDictionary
  0
DICTIONARY
  5
1B
102
{ACAD_REACTORS
330
19
102
}
330
19
100
AcDbDictionary
  3
STANDARD
350
1C
  0
DICTIONARY
  5
1E
102
{ACAD_REACTORS
330
19
102
}
330
19
100
AcDbDictionary
  0
DICTIONARY
  5
21
102
{ACAD_REACTORS
330
19
102
}
330
19
100
AcDbDictionary
  0
ACDBDICTIONARYWDFLT
  5
1F
102
{ACAD_REACTORS
330
19
102
}
330
19
100
AcDbDictionary
281
     1
  3
Normal
350
1D
100
AcDbDictionaryWithDefault
340
1D
  0
DICTIONARY
  5
490
102
{ACAD_REACTORS
330
19
102
}
330
19
100
AcDbDictionary
  3
TSTACKALIGN
350
491
  3
TSTACKSIZE
350
492
  3
HYPERLINKBASE
350
493
  3
STYLESHEET
350
494
  3
LAYOUTDICT
350
495
  3
PLOTSETDICT
350
496
  3
PLOTSTYLNAMDICT
350
497
  3
LWETCUNION
350
498
  3
INSUNITS
350
499
  3
CEPSNTYPE
350
49A
  3
FINGERPRINTGUID
350
49B
  3
VERSIONGUID
350
49C
  3
PSVPSCALE
350
49D
  3
DIMSTYLEDATA
350
49E
  3
PUCSORTHOREF
350
49F
  3
PUCSORTHOVIEW
350
4A0
  3
PUCSBASE
350
4A1
  3
PUCSORGTOP
350
4A2
  3
PUCSORGBOTTOM
350
4A3
  3
PUCSORGLEFT
350
4A4
  3
PUCSORGRIGHT
350
4A5
  3
PUCSORGFRONT
350
4A6
  3
PUCSORGBACK
350
4A7
  3
UCSORTHOREF
350
4A8
  3
UCSORTHOVIEW
350
4A9
  3
UCSBASE
350
4AA
  3
UCSORGTOP
350
4AB
  3
UCSORGBOTTOM
350
4AC
  3
UCSORGLEFT
350
4AD
  3
UCSORGRIGHT
350
4AE
  3
UCSORGFRONT
350
4AF
  3
UCSORGBACK
350
4B0
  0
XRECORD
  5
4B2
102
{ACAD_REACTORS
330
4B1
102
}
330
4B1
100
AcDbXrecord
340
A
  0
XRECORD
  5
4B4
102
{ACAD_REACTORS
330
4B3
102
}
330
4B3
100
AcDbXrecord
340
B
  0
MLINESTYLE
  5
1C
102
{ACAD_REACTORS
330
1B
102
}
330
1B
100
AcDbMlineStyle
  2
STANDARD
 70
     0
  3

 62
     0
 51
90.00000000000019
 52
90.00000000000019
 71
     2
 49
0.5
 62
   256
  6
BYLAYER
 49
-0.5
 62
   256
  6
BYLAYER
  0
ACDBPLACEHOLDER
  5
1D
102
{ACAD_REACTORS
330
1F
102
}
330
1F
100
AcDbPlaceHolder
280
     0
  0
XRECORD
  5
491
102
{ACAD_REACTORS
330
490
102
}
330
490
100
AcDbXrecord
 90
        0
  0
XRECORD
  5
492
102
{ACAD_REACTORS
330
490
102
}
330
490
100
AcDbXrecord
 90
        0
  0
XRECORD
  5
493
102
{ACAD_REACTORS
330
490
102
}
330
490
100
AcDbXrecord
  1

  0
XRECORD
  5
494
102
{ACAD_REACTORS
330
490
102
}
330
490
100
AcDbXrecord
  1

  0
XRECORD
  5
495
102
{ACAD_REACTORS
330
490
102
}
330
490
100
AcDbXrecord
340
1E
  0
XRECORD
  5
496
102
{ACAD_REACTORS
330
490
102
}
330
490
100
AcDbXrecord
340
21
  0
XRECORD
  5
497
102
{ACAD_REACTORS
330
490
102
}
330
490
100
AcDbXrecord
340
1F
  0
XRECORD
  5
498
102
{ACAD_REACTORS
330
490
102
}
330
490
100
AcDbXrecord
 90
    10752
  0
XRECORD
  5
499
102
{ACAD_REACTORS
330
490
102
}
330
490
100
AcDbXrecord
 90
        0
  0
XRECORD
  5
49A
102
{ACAD_REACTORS
330
490
102
}
330
490
100
AcDbXrecord
 90
        0
  0
XRECORD
  5
49B
102
{ACAD_REACTORS
330
490
102
}
330
490
100
AcDbXrecord
  1

  0
XRECORD
  5
49C
102
{ACAD_REACTORS
330
490
102
}
330
490
100
AcDbXrecord
  1
{3CE22EFF-597F-11D7-9DF2-00B0D0207C84}
  0
XRECORD
  5
49D
102
{ACAD_REACTORS
330
490
102
}
330
490
100
AcDbXrecord
 40
0.0
  0
XRECORD
  5
49E
102
{ACAD_REACTORS
330
490
102
}
330
490
100
AcDbXrecord
1000
DSTYLE
1002
{
1070
   278
 70
     0
1070
   371
 70
     0
1070
   372
 70
     0
1002
}
  0
XRECORD
  5
49F
102
{ACAD_REACTORS
330
490
102
}
330
490
100
AcDbXrecord
340
0
  0
XRECORD
  5
4A0
102
{ACAD_REACTORS
330
490
102
}
330
490
100
AcDbXrecord
 70
     0
  0
XRECORD
  5
4A1
102
{ACAD_REACTORS
330
490
102
}
330
490
100
AcDbXrecord
340
0
  0
XRECORD
  5
4A2
102
{ACAD_REACTORS
330
490
102
}
330
490
100
AcDbXrecord
 10
0.0
 20
0.0
 30
0.0
  0
XRECORD
  5
4A3
102
{ACAD_REACTORS
330
490
102
}
330
490
100
AcDbXrecord
 10
0.0
 20
0.0
 30
0.0
  0
XRECORD
  5
4A4
102
{ACAD_REACTORS
330
490
102
}
330
490
100
AcDbXrecord
 10
0.0
 20
0.0
 30
0.0
  0
XRECORD
  5
4A5
102
{ACAD_REACTORS
330
490
102
}
330
490
100
AcDbXrecord
 10
0.0
 20
0.0
 30
0.0
  0
XRECORD
  5
4A6
102
{ACAD_REACTORS
330
490
102
}
330
490
100
AcDbXrecord
 10
0.0
 20
0.0
 30
0.0
  0
XRECORD
  5
4A7
102
{ACAD_REACTORS
330
490
102
}
330
490
100
AcDbXrecord
 10
0.0
 20
0.0
 30
0.0
  0
XRECORD
  5
4A8
102
{ACAD_REACTORS
330
490
102
}
330
490
100
AcDbXrecord
340
0
  0
XRECORD
  5
4A9
102
{ACAD_REACTORS
330
490
102
}
330
490
100
AcDbXrecord
 70
     0
  0
XRECORD
  5
4AA
102
{ACAD_REACTORS
330
490
102
}
330
490
100
AcDbXrecord
340
0
  0
XRECORD
  5
4AB
102
{ACAD_REACTORS
330
490
102
}
330
490
100
AcDbXrecord
 10
0.0
 20
0.0
 30
0.0
  0
XRECORD
  5
4AC
102
{ACAD_REACTORS
330
490
102
}
330
490
100
AcDbXrecord
 10
0.0
 20
0.0
 30
0.0
  0
XRECORD
  5
4AD
102
{ACAD_REACTORS
330
490
102
}
330
490
100
AcDbXrecord
 10
0.0
 20
0.0
 30
0.0
  0
XRECORD
  5
4AE
102
{ACAD_REACTORS
330
490
102
}
330
490
100
AcDbXrecord
 10
0.0
 20
0.0
 30
0.0
  0
XRECORD
  5
4AF
102
{ACAD_REACTORS
330
490
102
}
330
490
100
AcDbXrecord
 10
0.0
 20
0.0
 30
0.0
  0
XRECORD
  5
4B0
102
{ACAD_REACTORS
330
490
102
}
330
490
100
AcDbXrecord
 10
0.0
 20
0.0
 30
0.0
  0
ENDSEC
  0
EOF
