  0
SECTION
  2
HEADER
  9
$ACADVER
  1
AC1012
  9
$DWGCODEPAGE
  3
ANSI_1252
  9
$INSBASE
 10
0.0
 20
0.0
 30
0.0
  9
$EXTMIN
 10
1.175170927745256
 20
4.049560572544066
 30
-0.0000000000112498
  9
$EXTMAX
 10
4.575439472421351
 20
6.300384539296366
 30
0.0000000000002956
  9
$LIMMIN
 10
0.0
 20
0.0
  9
$LIMMAX
 10
12.0
 20
9.0
  9
$ORTHOMODE
 70
     0
  9
$REGENMODE
 70
     1
  9
$FILLMODE
 70
     1
  9
$QTEXTMODE
 70
     0
  9
$MIRRTEXT
 70
     1
  9
$DRAGMODE
 70
     2
  9
$LTSCALE
 40
1.0
  9
$OSMODE
 70
   547
  9
$ATTMODE
 70
     1
  9
$TEXTSIZE
 40
0.2
  9
$TRACEWID
 40
0.05
  9
$TEXTSTYLE
  7
STANDARD
  9
$CLAYER
  8
0
  9
$CELTYPE
  6
BYLAYER
  9
$CECOLOR
 62
   256
  9
$CELTSCALE
 40
1.0
  9
$DELOBJ
 70
     1
  9
$DISPSILH
 70
     0
  9
$DIMSCALE
 40
1.0
  9
$DIMASZ
 40
0.18
  9
$DIMEXO
 40
0.0625
  9
$DIMDLI
 40
0.38
  9
$DIMRND
 40
0.0
  9
$DIMDLE
 40
0.0
  9
$DIMEXE
 40
0.18
  9
$DIMTP
 40
0.0
  9
$DIMTM
 40
0.0
  9
$DIMTXT
 40
0.18
  9
$DIMCEN
 40
0.09
  9
$DIMTSZ
 40
0.0
  9
$DIMTOL
 70
     0
  9
$DIMLIM
 70
     0
  9
$DIMTIH
 70
     1
  9
$DIMTOH
 70
     1
  9
$DIMSE1
 70
     0
  9
$DIMSE2
 70
     0
  9
$DIMTAD
 70
     0
  9
$DIMZIN
 70
     0
  9
$DIMBLK
  1

  9
$DIMASO
 70
     1
  9
$DIMSHO
 70
     1
  9
$DIMPOST
  1

  9
$DIMAPOST
  1

  9
$DIMALT
 70
     0
  9
$DIMALTD
 70
     2
  9
$DIMALTF
 40
25.4
  9
$DIMLFAC
 40
1.0
  9
$DIMTOFL
 70
     0
  9
$DIMTVP
 40
0.0
  9
$DIMTIX
 70
     0
  9
$DIMSOXD
 70
     0
  9
$DIMSAH
 70
     0
  9
$DIMBLK1
  1

  9
$DIMBLK2
  1

  9
$DIMSTYLE
  2
STANDARD
  9
$DIMCLRD
 70
     0
  9
$DIMCLRE
 70
     0
  9
$DIMCLRT
 70
     0
  9
$DIMTFAC
 40
1.0
  9
$DIMGAP
 40
0.09
  9
$DIMJUST
 70
     0
  9
$DIMSD1
 70
     0
  9
$DIMSD2
 70
     0
  9
$DIMTOLJ
 70
     1
  9
$DIMTZIN
 70
     0
  9
$DIMALTZ
 70
     0
  9
$DIMALTTZ
 70
     0
  9
$DIMFIT
 70
     5
  9
$DIMUPT
 70
     0
  9
$DIMUNIT
 70
     2
  9
$DIMDEC
 70
     4
  9
$DIMTDEC
 70
     4
  9
$DIMALTU
 70
     2
  9
$DIMALTTD
 70
     2
  9
$DIMTXSTY
  7
STANDARD
  9
$DIMAUNIT
 70
     0
  9
$LUNITS
 70
     2
  9
$LUPREC
 70
     4
  9
$SKETCHINC
 40
0.1
  9
$FILLETRAD
 40
0.0
  9
$AUNITS
 70
     0
  9
$AUPREC
 70
     0
  9
$MENU
  1
acad
  9
$ELEVATION
 40
0.0
  9
$PELEVATION
 40
0.0
  9
$THICKNESS
 40
0.0
  9
$LIMCHECK
 70
     0
  9
$BLIPMODE
 70
     0
  9
$CHAMFERA
 40
0.0
  9
$CHAMFERB
 40
0.0
  9
$CHAMFERC
 40
0.0
  9
$CHAMFERD
 40
0.0
  9
$SKPOLY
 70
     0
  9
$TDCREATE
 40
2452255.372777778
  9
$TDUPDATE
 40
2453944.522587627
  9
$TDINDWG
 40
0.0015505903
  9
$TDUSRTIMER
 40
0.0015505903
  9
$USRTIMER
 70
     1
  9
$ANGBASE
 50
0.0
  9
$ANGDIR
 70
     0
  9
$PDMODE
 70
     0
  9
$PDSIZE
 40
0.0
  9
$PLINEWID
 40
0.0
  9
$COORDS
 70
     1
  9
$SPLFRAME
 70
     0
  9
$SPLINETYPE
 70
     6
  9
$SPLINESEGS
 70
     8
  9
$ATTDIA
 70
     0
  9
$ATTREQ
 70
     1
  9
$HANDLING
 70
  4097
  9
$HANDSEED
  5
46F7
  9
$SURFTAB1
 70
     6
  9
$SURFTAB2
 70
     6
  9
$SURFTYPE
 70
     6
  9
$SURFU
 70
     6
  9
$SURFV
 70
     6
  9
$UCSNAME
  2

  9
$UCSORG
 10
0.0
 20
0.0
 30
0.0
  9
$UCSXDIR
 10
1.0
 20
0.0
 30
0.0
  9
$UCSYDIR
 10
0.0
 20
1.0
 30
0.0
  9
$PUCSNAME
  2

  9
$PUCSORG
 10
0.0
 20
0.0
 30
0.0
  9
$PUCSXDIR
 10
1.0
 20
0.0
 30
0.0
  9
$PUCSYDIR
 10
0.0
 20
1.0
 30
0.0
  9
$USERI1
 70
     0
  9
$USERI2
 70
     0
  9
$USERI3
 70
     0
  9
$USERI4
 70
     0
  9
$USERI5
 70
     0
  9
$USERR1
 40
0.0
  9
$USERR2
 40
0.0
  9
$USERR3
 40
0.0
  9
$USERR4
 40
0.0
  9
$USERR5
 40
0.0
  9
$WORLDVIEW
 70
     1
  9
$SHADEDGE
 70
     3
  9
$SHADEDIF
 70
    70
  9
$TILEMODE
 70
     1
  9
$MAXACTVP
 70
    16
  9
$PINSBASE
 10
0.0
 20
0.0
 30
0.0
  9
$PLIMCHECK
 70
     0
  9
$PEXTMIN
 10
1.000000000000000E+20
 20
1.000000000000000E+20
 30
1.000000000000000E+20
  9
$PEXTMAX
 10
-1.000000000000000E+20
 20
-1.000000000000000E+20
 30
-1.000000000000000E+20
  9
$PLIMMIN
 10
0.0
 20
0.0
  9
$PLIMMAX
 10
12.0
 20
9.0
  9
$UNITMODE
 70
     0
  9
$VISRETAIN
 70
     0
  9
$PLINEGEN
 70
     0
  9
$PSLTSCALE
 70
     1
  9
$TREEDEPTH
 70
  3020
  9
$PICKSTYLE
 70
     1
  9
$CMLSTYLE
  2
STANDARD
  9
$CMLJUST
 70
     0
  9
$CMLSCALE
 40
1.0
  9
$SAVEIMAGES
 70
     1
  0
ENDSEC
  0
SECTION
  2
CLASSES
  0
CLASS
  1
ACDBDICTIONARYWDFLT
  2
AcDbDictionaryWithDefault
  3
AutoCAD 2000
 90
    32768
280
     0
281
     0
  0
CLASS
  1
ACDBPLACEHOLDER
  2
AcDbPlaceHolder
  3
AutoCAD 2000
 90
    32768
280
     0
281
     0
  0
CLASS
  1
LAYOUT
  2
AcDbLayout
  3
AutoCAD 2000
 90
    32768
280
     0
281
     0
  0
CLASS
  1
LONG_TRANSACTION
  2
AcDbLongTransaction
  3
AutoCAD 2000
 90
    32768
280
     0
281
     0
  0
CLASS
  1
LWPOLYLINE
  2
AcDbPolyline
  3
AutoCAD 2000
 90
    32768
280
     0
281
     1
  0
CLASS
  1
HATCH
  2
AcDbHatch
  3
AutoCAD 2000
 90
    32768
280
     0
281
     1
  0
CLASS
  1
XRECORD
  2
AcDbXrecord
  3
AutoCAD 2000
 90
    32768
280
     0
281
     0
  0
CLASS
  1
LONG_TRANSACTION
  2
AcDbLongTransaction
  3
AutoCAD 2000
 90
    32768
280
     0
281
     0
  0
CLASS
  1
LWPOLYLINE
  2
AcDbPolyline
  3
AutoCAD 2000
 90
    32768
280
     0
281
     1
  0
CLASS
  1
HATCH
  2
AcDbHatch
  3
AutoCAD 2000
 90
    32768
280
     0
281
     1
  0
CLASS
  1
XRECORD
  2
AcDbXrecord
  3
AutoCAD 2000
 90
    32768
280
     0
281
     0
  0
CLASS
  1
LONG_TRANSACTION
  2
AcDbLongTransaction
  3
AutoCAD 2000
 90
    32768
280
     0
281
     0
  0
CLASS
  1
LWPOLYLINE
  2
AcDbPolyline
  3
AutoCAD 2000
 90
    32768
280
     0
281
     1
  0
CLASS
  1
HATCH
  2
AcDbHatch
  3
AutoCAD 2000
 90
    32768
280
     0
281
     1
  0
CLASS
  1
XRECORD
  2
AcDbXrecord
  3
AutoCAD 2000
 90
    32768
280
     0
281
     0
  0
ENDSEC
  0
SECTION
  2
TABLES
  0
TABLE
  2
VPORT
  5
8
330
0
100
AcDbSymbolTable
 70
     3
  0
VPORT
  5
46F4
330
8
100
AcDbSymbolTableRecord
100
AcDbViewportTableRecord
  2
*ACTIVE
 70
     0
 10
0.0
 20
0.0
 11
1.0
 21
1.0
 12
2.875305200083304
 22
5.174972555920216
 13
0.0
 23
0.0
 14
1.0
 24
1.0
 15
0.0
 25
0.0
 16
0.0
 26
0.0
 36
1.0
 17
0.0
 27
0.0
 37
0.0
 40
2.274229415280053
 41
1.647569444444444
 42
50.0
 43
0.0
 44
0.0
 50
0.0
 51
0.0
 71
     0
 72
   100
 73
     1
 74
     1
 75
     0
 76
     0
 77
     0
 78
     0
  0
ENDTAB
  0
TABLE
  2
LTYPE
  5
5
330
0
100
AcDbSymbolTable
 70
    25
  0
LTYPE
  5
13
330
5
100
AcDbSymbolTableRecord
100
AcDbLinetypeTableRecord
  2
BYBLOCK
 70
     0
  3

 72
    65
 73
     0
 40
0.0
  0
LTYPE
  5
14
330
5
100
AcDbSymbolTableRecord
100
AcDbLinetypeTableRecord
  2
BYLAYER
 70
     0
  3

 72
    65
 73
     0
 40
0.0
  0
LTYPE
  5
15
330
5
100
AcDbSymbolTableRecord
100
AcDbLinetypeTableRecord
  2
CONTINUOUS
 70
     0
  3
Solid line
 72
    65
 73
     0
 40
0.0
  0
LTYPE
  5
22
330
5
100
AcDbSymbolTableRecord
100
AcDbLinetypeTableRecord
  2
BORDER
 70
     0
  3
__ __ . __ __ . __ __ . __ __ . __ __ . __ __ .
 72
    65
 73
     6
 40
1.75
 49
0.5
 74
     0
 49
-0.25
 74
     0
 49
0.5
 74
     0
 49
-0.25
 74
     0
 49
0.5
 74
     0
 49
-0.25
 74
     0
  0
LTYPE
  5
23
330
5
100
AcDbSymbolTableRecord
100
AcDbLinetypeTableRecord
  2
BORDER2
 70
     0
  3
__.__.__.__.__.__.__.__.__.__.__.__.__.__.__.__
 72
    65
 73
     6
 40
0.875
 49
0.25
 74
     0
 49
-0.125
 74
     0
 49
0.25
 74
     0
 49
-0.125
 74
     0
 49
0.25
 74
     0
 49
-0.125
 74
     0
  0
LTYPE
  5
24
330
5
100
AcDbSymbolTableRecord
100
AcDbLinetypeTableRecord
  2
BORDERX2
 70
     0
  3
____  ____  .  ____  ____  .  
 72
    65
 73
     6
 40
3.5
 49
1.0
 74
     0
 49
-0.5
 74
     0
 49
1.0
 74
     0
 49
-0.5
 74
     0
 49
1.0
 74
     0
 49
-0.5
 74
     0
  0
LTYPE
  5
25
330
5
100
AcDbSymbolTableRecord
100
AcDbLinetypeTableRecord
  2
CENTER
 70
     0
  3
____ _ ____ _ ____ _ ____ _ ____ _ ____ _ ____
 72
    65
 73
     4
 40
2.0
 49
1.25
 74
     0
 49
-0.25
 74
     0
 49
0.25
 74
     0
 49
-0.25
 74
     0
  0
LTYPE
  5
26
330
5
100
AcDbSymbolTableRecord
100
AcDbLinetypeTableRecord
  2
CENTER2
 70
     0
  3
____ _ ____ _ ____ _ ____ _ ____ _ ____ _ ____
 72
    65
 73
     4
 40
1.125
 49
0.75
 74
     0
 49
-0.125
 74
     0
 49
0.125
 74
     0
 49
-0.125
 74
     0
  0
LTYPE
  5
27
330
5
100
AcDbSymbolTableRecord
100
AcDbLinetypeTableRecord
  2
CENTERX2
 70
     0
  3
________  __  ________  __  ________  __  
 72
    65
 73
     4
 40
4.0
 49
2.5
 74
     0
 49
-0.5
 74
     0
 49
0.5
 74
     0
 49
-0.5
 74
     0
  0
LTYPE
  5
28
330
5
100
AcDbSymbolTableRecord
100
AcDbLinetypeTableRecord
  2
DASHDOT
 70
     0
  3
__ . __ . __ . __ . __ . __ . __ . 
 72
    65
 73
     4
 40
1.0
 49
0.5
 74
     0
 49
-0.25
 74
     0
 49
0.0
 74
     0
 49
-0.25
 74
     0
  0
LTYPE
  5
29
330
5
100
AcDbSymbolTableRecord
100
AcDbLinetypeTableRecord
  2
DASHDOT2
 70
     0
  3
_._._._._._._._._._._._._._._._.
 72
    65
 73
     4
 40
0.5
 49
0.25
 74
     0
 49
-0.125
 74
     0
 49
0.0
 74
     0
 49
-0.125
 74
     0
  0
LTYPE
  5
2A
330
5
100
AcDbSymbolTableRecord
100
AcDbLinetypeTableRecord
  2
DASHDOTX2
 70
     0
  3
____  .  ____  .  ____  .  ____  .  
 72
    65
 73
     4
 40
2.0
 49
1.0
 74
     0
 49
-0.5
 74
     0
 49
0.0
 74
     0
 49
-0.5
 74
     0
  0
LTYPE
  5
2B
330
5
100
AcDbSymbolTableRecord
100
AcDbLinetypeTableRecord
  2
DASHED
 70
     0
  3
__ __ __ __ __ __ __ __ __ __ __ __ 
 72
    65
 73
     2
 40
0.75
 49
0.5
 74
     0
 49
-0.25
 74
     0
  0
LTYPE
  5
2C
330
5
100
AcDbSymbolTableRecord
100
AcDbLinetypeTableRecord
  2
DASHED2
 70
     0
  3
_ _ _ _ _ _ _ _ _ _ _ _ _ _ _ _ _ _ 
 72
    65
 73
     2
 40
0.375
 49
0.25
 74
     0
 49
-0.125
 74
     0
  0
LTYPE
  5
2D
330
5
100
AcDbSymbolTableRecord
100
AcDbLinetypeTableRecord
  2
DASHEDX2
 70
     0
  3
____  ____  ____  ____  ____  ____  
 72
    65
 73
     2
 40
1.5
 49
1.0
 74
     0
 49
-0.5
 74
     0
  0
LTYPE
  5
2E
330
5
100
AcDbSymbolTableRecord
100
AcDbLinetypeTableRecord
  2
DIVIDE
 70
     0
  3
____ . . ____ . . ____ . . ____ . . 
 72
    65
 73
     6
 40
1.25
 49
0.5
 74
     0
 49
-0.25
 74
     0
 49
0.0
 74
     0
 49
-0.25
 74
     0
 49
0.0
 74
     0
 49
-0.25
 74
     0
  0
LTYPE
  5
2F
330
5
100
AcDbSymbolTableRecord
100
AcDbLinetypeTableRecord
  2
DIVIDE2
 70
     0
  3
__..__..__..__..__..__..__..__..__..
 72
    65
 73
     6
 40
0.625
 49
0.25
 74
     0
 49
-0.125
 74
     0
 49
0.0
 74
     0
 49
-0.125
 74
     0
 49
0.0
 74
     0
 49
-0.125
 74
     0
  0
LTYPE
  5
30
330
5
100
AcDbSymbolTableRecord
100
AcDbLinetypeTableRecord
  2
DIVIDEX2
 70
     0
  3
________  .  .  ________  .  .  ________  .  . 
 72
    65
 73
     6
 40
2.5
 49
1.0
 74
     0
 49
-0.5
 74
     0
 49
0.0
 74
     0
 49
-0.5
 74
     0
 49
0.0
 74
     0
 49
-0.5
 74
     0
  0
LTYPE
  5
31
330
5
100
AcDbSymbolTableRecord
100
AcDbLinetypeTableRecord
  2
DOT
 70
     0
  3
. . . . . . . . . . . . . . . . . . 
 72
    65
 73
     2
 40
0.25
 49
0.0
 74
     0
 49
-0.25
 74
     0
  0
LTYPE
  5
32
330
5
100
AcDbSymbolTableRecord
100
AcDbLinetypeTableRecord
  2
DOT2
 70
     0
  3
....................................
 72
    65
 73
     2
 40
0.125
 49
0.0
 74
     0
 49
-0.125
 74
     0
  0
LTYPE
  5
33
330
5
100
AcDbSymbolTableRecord
100
AcDbLinetypeTableRecord
  2
DOTX2
 70
     0
  3
.  .  .  .  .  .  .  .  .  .  .  .  .  
 72
    65
 73
     2
 40
0.5
 49
0.0
 74
     0
 49
-0.5
 74
     0
  0
LTYPE
  5
34
330
5
100
AcDbSymbolTableRecord
100
AcDbLinetypeTableRecord
  2
HIDDEN
 70
     0
  3
__ __ __ __ __ __ __ __ __ __ __ __ 
 72
    65
 73
     2
 40
0.375
 49
0.25
 74
     0
 49
-0.125
 74
     0
  0
LTYPE
  5
35
330
5
100
AcDbSymbolTableRecord
100
AcDbLinetypeTableRecord
  2
HIDDEN2
 70
     0
  3
_ _ _ _ _ _ _ _ _ _ _ _ _ _ _ _ _ _ 
 72
    65
 73
     2
 40
0.1875
 49
0.125
 74
     0
 49
-0.0625
 74
     0
  0
LTYPE
  5
36
330
5
100
AcDbSymbolTableRecord
100
AcDbLinetypeTableRecord
  2
HIDDENX2
 70
     0
  3
____ ____ ____ ____ ____ ____ ____ 
 72
    65
 73
     2
 40
0.75
 49
0.5
 74
     0
 49
-0.25
 74
     0
  0
LTYPE
  5
37
330
5
100
AcDbSymbolTableRecord
100
AcDbLinetypeTableRecord
  2
PHANTOM
 70
     0
  3
______  __  __  ______  __  __  
 72
    65
 73
     6
 40
2.5
 49
1.25
 74
     0
 49
-0.25
 74
     0
 49
0.25
 74
     0
 49
-0.25
 74
     0
 49
0.25
 74
     0
 49
-0.25
 74
     0
  0
LTYPE
  5
38
330
5
100
AcDbSymbolTableRecord
100
AcDbLinetypeTableRecord
  2
PHANTOM2
 70
     0
  3
___ _ _ ___ _ _ ___ _ _ ___ _ _ 
 72
    65
 73
     6
 40
1.25
 49
0.625
 74
     0
 49
-0.125
 74
     0
 49
0.125
 74
     0
 49
-0.125
 74
     0
 49
0.125
 74
     0
 49
-0.125
 74
     0
  0
LTYPE
  5
39
330
5
100
AcDbSymbolTableRecord
100
AcDbLinetypeTableRecord
  2
PHANTOMX2
 70
     0
  3
___ _ _ ___ _ _ ___ _ _ ___ _ _ 
 72
    65
 73
     6
 40
5.0
 49
2.5
 74
     0
 49
-0.5
 74
     0
 49
0.5
 74
     0
 49
-0.5
 74
     0
 49
0.5
 74
     0
 49
-0.5
 74
     0
  0
ENDTAB
  0
TABLE
  2
LAYER
  5
2
330
0
100
AcDbSymbolTable
 70
   256
  0
LAYER
  5
10
330
2
100
AcDbSymbolTableRecord
100
AcDbLayerTableRecord
  2
0
 70
     0
 62
     7
  6
CONTINUOUS
  0
LAYER
  5
3A
330
2
100
AcDbSymbolTableRecord
100
AcDbLayerTableRecord
  2
1
 70
     0
 62
     1
  6
CONTINUOUS
  0
LAYER
  5
3B
330
2
100
AcDbSymbolTableRecord
100
AcDbLayerTableRecord
  2
2
 70
     0
 62
     2
  6
CONTINUOUS
  0
LAYER
  5
3C
330
2
100
AcDbSymbolTableRecord
100
AcDbLayerTableRecord
  2
3
 70
     0
 62
     3
  6
CONTINUOUS
  0
LAYER
  5
3D
330
2
100
AcDbSymbolTableRecord
100
AcDbLayerTableRecord
  2
4
 70
     0
 62
     4
  6
CONTINUOUS
  0
LAYER
  5
3E
330
2
100
AcDbSymbolTableRecord
100
AcDbLayerTableRecord
  2
5
 70
     0
 62
     5
  6
CONTINUOUS
  0
LAYER
  5
3F
330
2
100
AcDbSymbolTableRecord
100
AcDbLayerTableRecord
  2
6
 70
     0
 62
     6
  6
CONTINUOUS
  0
LAYER
  5
40
330
2
100
AcDbSymbolTableRecord
100
AcDbLayerTableRecord
  2
7
 70
     0
 62
     7
  6
CONTINUOUS
  0
LAYER
  5
41
330
2
100
AcDbSymbolTableRecord
100
AcDbLayerTableRecord
  2
8
 70
     0
 62
     8
  6
CONTINUOUS
  0
LAYER
  5
42
330
2
100
AcDbSymbolTableRecord
100
AcDbLayerTableRecord
  2
9
 70
     0
 62
     9
  6
CONTINUOUS
  0
LAYER
  5
43
330
2
100
AcDbSymbolTableRecord
100
AcDbLayerTableRecord
  2
10
 70
     0
 62
    10
  6
CONTINUOUS
  0
LAYER
  5
44
330
2
100
AcDbSymbolTableRecord
100
AcDbLayerTableRecord
  2
11
 70
     0
 62
    11
  6
CONTINUOUS
  0
LAYER
  5
45
330
2
100
AcDbSymbolTableRecord
100
AcDbLayerTableRecord
  2
12
 70
     0
 62
    12
  6
CONTINUOUS
  0
LAYER
  5
46
330
2
100
AcDbSymbolTableRecord
100
AcDbLayerTableRecord
  2
13
 70
     0
 62
    13
  6
CONTINUOUS
  0
LAYER
  5
47
330
2
100
AcDbSymbolTableRecord
100
AcDbLayerTableRecord
  2
14
 70
     0
 62
    14
  6
CONTINUOUS
  0
LAYER
  5
48
330
2
100
AcDbSymbolTableRecord
100
AcDbLayerTableRecord
  2
15
 70
     0
 62
    15
  6
CONTINUOUS
  0
LAYER
  5
49
330
2
100
AcDbSymbolTableRecord
100
AcDbLayerTableRecord
  2
16
 70
     0
 62
    16
  6
CONTINUOUS
  0
LAYER
  5
4A
330
2
100
AcDbSymbolTableRecord
100
AcDbLayerTableRecord
  2
17
 70
     0
 62
    17
  6
CONTINUOUS
  0
LAYER
  5
4B
330
2
100
AcDbSymbolTableRecord
100
AcDbLayerTableRecord
  2
18
 70
     0
 62
    18
  6
CONTINUOUS
  0
LAYER
  5
4C
330
2
100
AcDbSymbolTableRecord
100
AcDbLayerTableRecord
  2
19
 70
     0
 62
    19
  6
CONTINUOUS
  0
LAYER
  5
4D
330
2
100
AcDbSymbolTableRecord
100
AcDbLayerTableRecord
  2
20
 70
     0
 62
    20
  6
CONTINUOUS
  0
LAYER
  5
4E
330
2
100
AcDbSymbolTableRecord
100
AcDbLayerTableRecord
  2
21
 70
     0
 62
    21
  6
CONTINUOUS
  0
LAYER
  5
4F
330
2
100
AcDbSymbolTableRecord
100
AcDbLayerTableRecord
  2
22
 70
     0
 62
    22
  6
CONTINUOUS
  0
LAYER
  5
50
330
2
100
AcDbSymbolTableRecord
100
AcDbLayerTableRecord
  2
23
 70
     0
 62
    23
  6
CONTINUOUS
  0
LAYER
  5
51
330
2
100
AcDbSymbolTableRecord
100
AcDbLayerTableRecord
  2
24
 70
     0
 62
    24
  6
CONTINUOUS
  0
LAYER
  5
52
330
2
100
AcDbSymbolTableRecord
100
AcDbLayerTableRecord
  2
25
 70
     0
 62
    25
  6
CONTINUOUS
  0
LAYER
  5
53
330
2
100
AcDbSymbolTableRecord
100
AcDbLayerTableRecord
  2
26
 70
     0
 62
    26
  6
CONTINUOUS
  0
LAYER
  5
54
330
2
100
AcDbSymbolTableRecord
100
AcDbLayerTableRecord
  2
27
 70
     0
 62
    27
  6
CONTINUOUS
  0
LAYER
  5
55
330
2
100
AcDbSymbolTableRecord
100
AcDbLayerTableRecord
  2
28
 70
     0
 62
    28
  6
CONTINUOUS
  0
LAYER
  5
56
330
2
100
AcDbSymbolTableRecord
100
AcDbLayerTableRecord
  2
29
 70
     0
 62
    29
  6
CONTINUOUS
  0
LAYER
  5
57
330
2
100
AcDbSymbolTableRecord
100
AcDbLayerTableRecord
  2
30
 70
     0
 62
    30
  6
CONTINUOUS
  0
LAYER
  5
58
330
2
100
AcDbSymbolTableRecord
100
AcDbLayerTableRecord
  2
31
 70
     0
 62
    31
  6
CONTINUOUS
  0
LAYER
  5
59
330
2
100
AcDbSymbolTableRecord
100
AcDbLayerTableRecord
  2
32
 70
     0
 62
    32
  6
CONTINUOUS
  0
LAYER
  5
5A
330
2
100
AcDbSymbolTableRecord
100
AcDbLayerTableRecord
  2
33
 70
     0
 62
    33
  6
CONTINUOUS
  0
LAYER
  5
5B
330
2
100
AcDbSymbolTableRecord
100
AcDbLayerTableRecord
  2
34
 70
     0
 62
    34
  6
CONTINUOUS
  0
LAYER
  5
5C
330
2
100
AcDbSymbolTableRecord
100
AcDbLayerTableRecord
  2
35
 70
     0
 62
    35
  6
CONTINUOUS
  0
LAYER
  5
5D
330
2
100
AcDbSymbolTableRecord
100
AcDbLayerTableRecord
  2
36
 70
     0
 62
    36
  6
CONTINUOUS
  0
LAYER
  5
5E
330
2
100
AcDbSymbolTableRecord
100
AcDbLayerTableRecord
  2
37
 70
     0
 62
    37
  6
CONTINUOUS
  0
LAYER
  5
5F
330
2
100
AcDbSymbolTableRecord
100
AcDbLayerTableRecord
  2
38
 70
     0
 62
    38
  6
CONTINUOUS
  0
LAYER
  5
60
330
2
100
AcDbSymbolTableRecord
100
AcDbLayerTableRecord
  2
39
 70
     0
 62
    39
  6
CONTINUOUS
  0
LAYER
  5
61
330
2
100
AcDbSymbolTableRecord
100
AcDbLayerTableRecord
  2
40
 70
     0
 62
    40
  6
CONTINUOUS
  0
LAYER
  5
62
330
2
100
AcDbSymbolTableRecord
100
AcDbLayerTableRecord
  2
41
 70
     0
 62
    41
  6
CONTINUOUS
  0
LAYER
  5
63
330
2
100
AcDbSymbolTableRecord
100
AcDbLayerTableRecord
  2
42
 70
     0
 62
    42
  6
CONTINUOUS
  0
LAYER
  5
64
330
2
100
AcDbSymbolTableRecord
100
AcDbLayerTableRecord
  2
43
 70
     0
 62
    43
  6
CONTINUOUS
  0
LAYER
  5
65
330
2
100
AcDbSymbolTableRecord
100
AcDbLayerTableRecord
  2
44
 70
     0
 62
    44
  6
CONTINUOUS
  0
LAYER
  5
66
330
2
100
AcDbSymbolTableRecord
100
AcDbLayerTableRecord
  2
45
 70
     0
 62
    45
  6
CONTINUOUS
  0
LAYER
  5
67
330
2
100
AcDbSymbolTableRecord
100
AcDbLayerTableRecord
  2
46
 70
     0
 62
    46
  6
CONTINUOUS
  0
LAYER
  5
68
330
2
100
AcDbSymbolTableRecord
100
AcDbLayerTableRecord
  2
47
 70
     0
 62
    47
  6
CONTINUOUS
  0
LAYER
  5
69
330
2
100
AcDbSymbolTableRecord
100
AcDbLayerTableRecord
  2
48
 70
     0
 62
    48
  6
CONTINUOUS
  0
LAYER
  5
6A
330
2
100
AcDbSymbolTableRecord
100
AcDbLayerTableRecord
  2
49
 70
     0
 62
    49
  6
CONTINUOUS
  0
LAYER
  5
6B
330
2
100
AcDbSymbolTableRecord
100
AcDbLayerTableRecord
  2
50
 70
     0
 62
    50
  6
CONTINUOUS
  0
LAYER
  5
6C
330
2
100
AcDbSymbolTableRecord
100
AcDbLayerTableRecord
  2
51
 70
     0
 62
    51
  6
CONTINUOUS
  0
LAYER
  5
6D
330
2
100
AcDbSymbolTableRecord
100
AcDbLayerTableRecord
  2
52
 70
     0
 62
    52
  6
CONTINUOUS
  0
LAYER
  5
6E
330
2
100
AcDbSymbolTableRecord
100
AcDbLayerTableRecord
  2
53
 70
     0
 62
    53
  6
CONTINUOUS
  0
LAYER
  5
6F
330
2
100
AcDbSymbolTableRecord
100
AcDbLayerTableRecord
  2
54
 70
     0
 62
    54
  6
CONTINUOUS
  0
LAYER
  5
70
330
2
100
AcDbSymbolTableRecord
100
AcDbLayerTableRecord
  2
55
 70
     0
 62
    55
  6
CONTINUOUS
  0
LAYER
  5
71
330
2
100
AcDbSymbolTableRecord
100
AcDbLayerTableRecord
  2
56
 70
     0
 62
    56
  6
CONTINUOUS
  0
LAYER
  5
72
330
2
100
AcDbSymbolTableRecord
100
AcDbLayerTableRecord
  2
57
 70
     0
 62
    57
  6
CONTINUOUS
  0
LAYER
  5
73
330
2
100
AcDbSymbolTableRecord
100
AcDbLayerTableRecord
  2
58
 70
     0
 62
    58
  6
CONTINUOUS
  0
LAYER
  5
74
330
2
100
AcDbSymbolTableRecord
100
AcDbLayerTableRecord
  2
59
 70
     0
 62
    59
  6
CONTINUOUS
  0
LAYER
  5
75
330
2
100
AcDbSymbolTableRecord
100
AcDbLayerTableRecord
  2
60
 70
     0
 62
    60
  6
CONTINUOUS
  0
LAYER
  5
76
330
2
100
AcDbSymbolTableRecord
100
AcDbLayerTableRecord
  2
61
 70
     0
 62
    61
  6
CONTINUOUS
  0
LAYER
  5
77
330
2
100
AcDbSymbolTableRecord
100
AcDbLayerTableRecord
  2
62
 70
     0
 62
    62
  6
CONTINUOUS
  0
LAYER
  5
78
330
2
100
AcDbSymbolTableRecord
100
AcDbLayerTableRecord
  2
63
 70
     0
 62
    63
  6
CONTINUOUS
  0
LAYER
  5
79
330
2
100
AcDbSymbolTableRecord
100
AcDbLayerTableRecord
  2
64
 70
     0
 62
    64
  6
CONTINUOUS
  0
LAYER
  5
7A
330
2
100
AcDbSymbolTableRecord
100
AcDbLayerTableRecord
  2
65
 70
     0
 62
    65
  6
CONTINUOUS
  0
LAYER
  5
7B
330
2
100
AcDbSymbolTableRecord
100
AcDbLayerTableRecord
  2
66
 70
     0
 62
    66
  6
CONTINUOUS
  0
LAYER
  5
7C
330
2
100
AcDbSymbolTableRecord
100
AcDbLayerTableRecord
  2
67
 70
     0
 62
    67
  6
CONTINUOUS
  0
LAYER
  5
7D
330
2
100
AcDbSymbolTableRecord
100
AcDbLayerTableRecord
  2
68
 70
     0
 62
    68
  6
CONTINUOUS
  0
LAYER
  5
7E
330
2
100
AcDbSymbolTableRecord
100
AcDbLayerTableRecord
  2
69
 70
     0
 62
    69
  6
CONTINUOUS
  0
LAYER
  5
7F
330
2
100
AcDbSymbolTableRecord
100
AcDbLayerTableRecord
  2
70
 70
     0
 62
    70
  6
CONTINUOUS
  0
LAYER
  5
80
330
2
100
AcDbSymbolTableRecord
100
AcDbLayerTableRecord
  2
71
 70
     0
 62
    71
  6
CONTINUOUS
  0
LAYER
  5
81
330
2
100
AcDbSymbolTableRecord
100
AcDbLayerTableRecord
  2
72
 70
     0
 62
    72
  6
CONTINUOUS
  0
LAYER
  5
82
330
2
100
AcDbSymbolTableRecord
100
AcDbLayerTableRecord
  2
73
 70
     0
 62
    73
  6
CONTINUOUS
  0
LAYER
  5
83
330
2
100
AcDbSymbolTableRecord
100
AcDbLayerTableRecord
  2
74
 70
     0
 62
    74
  6
CONTINUOUS
  0
LAYER
  5
84
330
2
100
AcDbSymbolTableRecord
100
AcDbLayerTableRecord
  2
75
 70
     0
 62
    75
  6
CONTINUOUS
  0
LAYER
  5
85
330
2
100
AcDbSymbolTableRecord
100
AcDbLayerTableRecord
  2
76
 70
     0
 62
    76
  6
CONTINUOUS
  0
LAYER
  5
86
330
2
100
AcDbSymbolTableRecord
100
AcDbLayerTableRecord
  2
77
 70
     0
 62
    77
  6
CONTINUOUS
  0
LAYER
  5
87
330
2
100
AcDbSymbolTableRecord
100
AcDbLayerTableRecord
  2
78
 70
     0
 62
    78
  6
CONTINUOUS
  0
LAYER
  5
88
330
2
100
AcDbSymbolTableRecord
100
AcDbLayerTableRecord
  2
79
 70
     0
 62
    79
  6
CONTINUOUS
  0
LAYER
  5
89
330
2
100
AcDbSymbolTableRecord
100
AcDbLayerTableRecord
  2
80
 70
     0
 62
    80
  6
CONTINUOUS
  0
LAYER
  5
8A
330
2
100
AcDbSymbolTableRecord
100
AcDbLayerTableRecord
  2
81
 70
     0
 62
    81
  6
CONTINUOUS
  0
LAYER
  5
8B
330
2
100
AcDbSymbolTableRecord
100
AcDbLayerTableRecord
  2
82
 70
     0
 62
    82
  6
CONTINUOUS
  0
LAYER
  5
8C
330
2
100
AcDbSymbolTableRecord
100
AcDbLayerTableRecord
  2
83
 70
     0
 62
    83
  6
CONTINUOUS
  0
LAYER
  5
8D
330
2
100
AcDbSymbolTableRecord
100
AcDbLayerTableRecord
  2
84
 70
     0
 62
    84
  6
CONTINUOUS
  0
LAYER
  5
8E
330
2
100
AcDbSymbolTableRecord
100
AcDbLayerTableRecord
  2
85
 70
     0
 62
    85
  6
CONTINUOUS
  0
LAYER
  5
8F
330
2
100
AcDbSymbolTableRecord
100
AcDbLayerTableRecord
  2
86
 70
     0
 62
    86
  6
CONTINUOUS
  0
LAYER
  5
90
330
2
100
AcDbSymbolTableRecord
100
AcDbLayerTableRecord
  2
87
 70
     0
 62
    87
  6
CONTINUOUS
  0
LAYER
  5
91
330
2
100
AcDbSymbolTableRecord
100
AcDbLayerTableRecord
  2
88
 70
     0
 62
    88
  6
CONTINUOUS
  0
LAYER
  5
92
330
2
100
AcDbSymbolTableRecord
100
AcDbLayerTableRecord
  2
89
 70
     0
 62
    89
  6
CONTINUOUS
  0
LAYER
  5
93
330
2
100
AcDbSymbolTableRecord
100
AcDbLayerTableRecord
  2
90
 70
     0
 62
    90
  6
CONTINUOUS
  0
LAYER
  5
94
330
2
100
AcDbSymbolTableRecord
100
AcDbLayerTableRecord
  2
91
 70
     0
 62
    91
  6
CONTINUOUS
  0
LAYER
  5
95
330
2
100
AcDbSymbolTableRecord
100
AcDbLayerTableRecord
  2
92
 70
     0
 62
    92
  6
CONTINUOUS
  0
LAYER
  5
96
330
2
100
AcDbSymbolTableRecord
100
AcDbLayerTableRecord
  2
93
 70
     0
 62
    93
  6
CONTINUOUS
  0
LAYER
  5
97
330
2
100
AcDbSymbolTableRecord
100
AcDbLayerTableRecord
  2
94
 70
     0
 62
    94
  6
CONTINUOUS
  0
LAYER
  5
98
330
2
100
AcDbSymbolTableRecord
100
AcDbLayerTableRecord
  2
95
 70
     0
 62
    95
  6
CONTINUOUS
  0
LAYER
  5
99
330
2
100
AcDbSymbolTableRecord
100
AcDbLayerTableRecord
  2
96
 70
     0
 62
    96
  6
CONTINUOUS
  0
LAYER
  5
9A
330
2
100
AcDbSymbolTableRecord
100
AcDbLayerTableRecord
  2
97
 70
     0
 62
    97
  6
CONTINUOUS
  0
LAYER
  5
9B
330
2
100
AcDbSymbolTableRecord
100
AcDbLayerTableRecord
  2
98
 70
     0
 62
    98
  6
CONTINUOUS
  0
LAYER
  5
9C
330
2
100
AcDbSymbolTableRecord
100
AcDbLayerTableRecord
  2
99
 70
     0
 62
    99
  6
CONTINUOUS
  0
LAYER
  5
9D
330
2
100
AcDbSymbolTableRecord
100
AcDbLayerTableRecord
  2
100
 70
     0
 62
   100
  6
CONTINUOUS
  0
LAYER
  5
9E
330
2
100
AcDbSymbolTableRecord
100
AcDbLayerTableRecord
  2
101
 70
     0
 62
   101
  6
CONTINUOUS
  0
LAYER
  5
9F
330
2
100
AcDbSymbolTableRecord
100
AcDbLayerTableRecord
  2
102
 70
     0
 62
   102
  6
CONTINUOUS
  0
LAYER
  5
A0
330
2
100
AcDbSymbolTableRecord
100
AcDbLayerTableRecord
  2
103
 70
     0
 62
   103
  6
CONTINUOUS
  0
LAYER
  5
A1
330
2
100
AcDbSymbolTableRecord
100
AcDbLayerTableRecord
  2
104
 70
     0
 62
   104
  6
CONTINUOUS
  0
LAYER
  5
A2
330
2
100
AcDbSymbolTableRecord
100
AcDbLayerTableRecord
  2
105
 70
     0
 62
   105
  6
CONTINUOUS
  0
LAYER
  5
A3
330
2
100
AcDbSymbolTableRecord
100
AcDbLayerTableRecord
  2
106
 70
     0
 62
   106
  6
CONTINUOUS
  0
LAYER
  5
A4
330
2
100
AcDbSymbolTableRecord
100
AcDbLayerTableRecord
  2
107
 70
     0
 62
   107
  6
CONTINUOUS
  0
LAYER
  5
A5
330
2
100
AcDbSymbolTableRecord
100
AcDbLayerTableRecord
  2
108
 70
     0
 62
   108
  6
CONTINUOUS
  0
LAYER
  5
A6
330
2
100
AcDbSymbolTableRecord
100
AcDbLayerTableRecord
  2
109
 70
     0
 62
   109
  6
CONTINUOUS
  0
LAYER
  5
A7
330
2
100
AcDbSymbolTableRecord
100
AcDbLayerTableRecord
  2
110
 70
     0
 62
   110
  6
CONTINUOUS
  0
LAYER
  5
A8
330
2
100
AcDbSymbolTableRecord
100
AcDbLayerTableRecord
  2
111
 70
     0
 62
   111
  6
CONTINUOUS
  0
LAYER
  5
A9
330
2
100
AcDbSymbolTableRecord
100
AcDbLayerTableRecord
  2
112
 70
     0
 62
   112
  6
CONTINUOUS
  0
LAYER
  5
AA
330
2
100
AcDbSymbolTableRecord
100
AcDbLayerTableRecord
  2
113
 70
     0
 62
   113
  6
CONTINUOUS
  0
LAYER
  5
AB
330
2
100
AcDbSymbolTableRecord
100
AcDbLayerTableRecord
  2
114
 70
     0
 62
   114
  6
CONTINUOUS
  0
LAYER
  5
AC
330
2
100
AcDbSymbolTableRecord
100
AcDbLayerTableRecord
  2
115
 70
     0
 62
   115
  6
CONTINUOUS
  0
LAYER
  5
AD
330
2
100
AcDbSymbolTableRecord
100
AcDbLayerTableRecord
  2
116
 70
     0
 62
   116
  6
CONTINUOUS
  0
LAYER
  5
AE
330
2
100
AcDbSymbolTableRecord
100
AcDbLayerTableRecord
  2
117
 70
     0
 62
   117
  6
CONTINUOUS
  0
LAYER
  5
AF
330
2
100
AcDbSymbolTableRecord
100
AcDbLayerTableRecord
  2
118
 70
     0
 62
   118
  6
CONTINUOUS
  0
LAYER
  5
B0
330
2
100
AcDbSymbolTableRecord
100
AcDbLayerTableRecord
  2
119
 70
     0
 62
   119
  6
CONTINUOUS
  0
LAYER
  5
B1
330
2
100
AcDbSymbolTableRecord
100
AcDbLayerTableRecord
  2
120
 70
     0
 62
   120
  6
CONTINUOUS
  0
LAYER
  5
B2
330
2
100
AcDbSymbolTableRecord
100
AcDbLayerTableRecord
  2
121
 70
     0
 62
   121
  6
CONTINUOUS
  0
LAYER
  5
B3
330
2
100
AcDbSymbolTableRecord
100
AcDbLayerTableRecord
  2
122
 70
     0
 62
   122
  6
CONTINUOUS
  0
LAYER
  5
B4
330
2
100
AcDbSymbolTableRecord
100
AcDbLayerTableRecord
  2
123
 70
     0
 62
   123
  6
CONTINUOUS
  0
LAYER
  5
B5
330
2
100
AcDbSymbolTableRecord
100
AcDbLayerTableRecord
  2
124
 70
     0
 62
   124
  6
CONTINUOUS
  0
LAYER
  5
B6
330
2
100
AcDbSymbolTableRecord
100
AcDbLayerTableRecord
  2
125
 70
     0
 62
   125
  6
CONTINUOUS
  0
LAYER
  5
B7
330
2
100
AcDbSymbolTableRecord
100
AcDbLayerTableRecord
  2
126
 70
     0
 62
   126
  6
CONTINUOUS
  0
LAYER
  5
B8
330
2
100
AcDbSymbolTableRecord
100
AcDbLayerTableRecord
  2
127
 70
     0
 62
   127
  6
CONTINUOUS
  0
LAYER
  5
B9
330
2
100
AcDbSymbolTableRecord
100
AcDbLayerTableRecord
  2
128
 70
     0
 62
   128
  6
CONTINUOUS
  0
LAYER
  5
BA
330
2
100
AcDbSymbolTableRecord
100
AcDbLayerTableRecord
  2
129
 70
     0
 62
   129
  6
CONTINUOUS
  0
LAYER
  5
BB
330
2
100
AcDbSymbolTableRecord
100
AcDbLayerTableRecord
  2
130
 70
     0
 62
   130
  6
CONTINUOUS
  0
LAYER
  5
BC
330
2
100
AcDbSymbolTableRecord
100
AcDbLayerTableRecord
  2
131
 70
     0
 62
   131
  6
CONTINUOUS
  0
LAYER
  5
BD
330
2
100
AcDbSymbolTableRecord
100
AcDbLayerTableRecord
  2
132
 70
     0
 62
   132
  6
CONTINUOUS
  0
LAYER
  5
BE
330
2
100
AcDbSymbolTableRecord
100
AcDbLayerTableRecord
  2
133
 70
     0
 62
   133
  6
CONTINUOUS
  0
LAYER
  5
BF
330
2
100
AcDbSymbolTableRecord
100
AcDbLayerTableRecord
  2
134
 70
     0
 62
   134
  6
CONTINUOUS
  0
LAYER
  5
C0
330
2
100
AcDbSymbolTableRecord
100
AcDbLayerTableRecord
  2
135
 70
     0
 62
   135
  6
CONTINUOUS
  0
LAYER
  5
C1
330
2
100
AcDbSymbolTableRecord
100
AcDbLayerTableRecord
  2
136
 70
     0
 62
   136
  6
CONTINUOUS
  0
LAYER
  5
C2
330
2
100
AcDbSymbolTableRecord
100
AcDbLayerTableRecord
  2
137
 70
     0
 62
   137
  6
CONTINUOUS
  0
LAYER
  5
C3
330
2
100
AcDbSymbolTableRecord
100
AcDbLayerTableRecord
  2
138
 70
     0
 62
   138
  6
CONTINUOUS
  0
LAYER
  5
C4
330
2
100
AcDbSymbolTableRecord
100
AcDbLayerTableRecord
  2
139
 70
     0
 62
   139
  6
CONTINUOUS
  0
LAYER
  5
C5
330
2
100
AcDbSymbolTableRecord
100
AcDbLayerTableRecord
  2
140
 70
     0
 62
   140
  6
CONTINUOUS
  0
LAYER
  5
C6
330
2
100
AcDbSymbolTableRecord
100
AcDbLayerTableRecord
  2
141
 70
     0
 62
   141
  6
CONTINUOUS
  0
LAYER
  5
C7
330
2
100
AcDbSymbolTableRecord
100
AcDbLayerTableRecord
  2
142
 70
     0
 62
   142
  6
CONTINUOUS
  0
LAYER
  5
C8
330
2
100
AcDbSymbolTableRecord
100
AcDbLayerTableRecord
  2
143
 70
     0
 62
   143
  6
CONTINUOUS
  0
LAYER
  5
C9
330
2
100
AcDbSymbolTableRecord
100
AcDbLayerTableRecord
  2
144
 70
     0
 62
   144
  6
CONTINUOUS
  0
LAYER
  5
CA
330
2
100
AcDbSymbolTableRecord
100
AcDbLayerTableRecord
  2
145
 70
     0
 62
   145
  6
CONTINUOUS
  0
LAYER
  5
CB
330
2
100
AcDbSymbolTableRecord
100
AcDbLayerTableRecord
  2
146
 70
     0
 62
   146
  6
CONTINUOUS
  0
LAYER
  5
CC
330
2
100
AcDbSymbolTableRecord
100
AcDbLayerTableRecord
  2
147
 70
     0
 62
   147
  6
CONTINUOUS
  0
LAYER
  5
CD
330
2
100
AcDbSymbolTableRecord
100
AcDbLayerTableRecord
  2
148
 70
     0
 62
   148
  6
CONTINUOUS
  0
LAYER
  5
CE
330
2
100
AcDbSymbolTableRecord
100
AcDbLayerTableRecord
  2
149
 70
     0
 62
   149
  6
CONTINUOUS
  0
LAYER
  5
CF
330
2
100
AcDbSymbolTableRecord
100
AcDbLayerTableRecord
  2
150
 70
     0
 62
   150
  6
CONTINUOUS
  0
LAYER
  5
D0
330
2
100
AcDbSymbolTableRecord
100
AcDbLayerTableRecord
  2
151
 70
     0
 62
   151
  6
CONTINUOUS
  0
LAYER
  5
D1
330
2
100
AcDbSymbolTableRecord
100
AcDbLayerTableRecord
  2
152
 70
     0
 62
   152
  6
CONTINUOUS
  0
LAYER
  5
D2
330
2
100
AcDbSymbolTableRecord
100
AcDbLayerTableRecord
  2
153
 70
     0
 62
   153
  6
CONTINUOUS
  0
LAYER
  5
D3
330
2
100
AcDbSymbolTableRecord
100
AcDbLayerTableRecord
  2
154
 70
     0
 62
   154
  6
CONTINUOUS
  0
LAYER
  5
D4
330
2
100
AcDbSymbolTableRecord
100
AcDbLayerTableRecord
  2
155
 70
     0
 62
   155
  6
CONTINUOUS
  0
LAYER
  5
D5
330
2
100
AcDbSymbolTableRecord
100
AcDbLayerTableRecord
  2
156
 70
     0
 62
   156
  6
CONTINUOUS
  0
LAYER
  5
D6
330
2
100
AcDbSymbolTableRecord
100
AcDbLayerTableRecord
  2
157
 70
     0
 62
   157
  6
CONTINUOUS
  0
LAYER
  5
D7
330
2
100
AcDbSymbolTableRecord
100
AcDbLayerTableRecord
  2
158
 70
     0
 62
   158
  6
CONTINUOUS
  0
LAYER
  5
D8
330
2
100
AcDbSymbolTableRecord
100
AcDbLayerTableRecord
  2
159
 70
     0
 62
   159
  6
CONTINUOUS
  0
LAYER
  5
D9
330
2
100
AcDbSymbolTableRecord
100
AcDbLayerTableRecord
  2
160
 70
     0
 62
   160
  6
CONTINUOUS
  0
LAYER
  5
DA
330
2
100
AcDbSymbolTableRecord
100
AcDbLayerTableRecord
  2
161
 70
     0
 62
   161
  6
CONTINUOUS
  0
LAYER
  5
DB
330
2
100
AcDbSymbolTableRecord
100
AcDbLayerTableRecord
  2
162
 70
     0
 62
   162
  6
CONTINUOUS
  0
LAYER
  5
DC
330
2
100
AcDbSymbolTableRecord
100
AcDbLayerTableRecord
  2
163
 70
     0
 62
   163
  6
CONTINUOUS
  0
LAYER
  5
DD
330
2
100
AcDbSymbolTableRecord
100
AcDbLayerTableRecord
  2
164
 70
     0
 62
   164
  6
CONTINUOUS
  0
LAYER
  5
DE
330
2
100
AcDbSymbolTableRecord
100
AcDbLayerTableRecord
  2
165
 70
     0
 62
   165
  6
CONTINUOUS
  0
LAYER
  5
DF
330
2
100
AcDbSymbolTableRecord
100
AcDbLayerTableRecord
  2
166
 70
     0
 62
   166
  6
CONTINUOUS
  0
LAYER
  5
E0
330
2
100
AcDbSymbolTableRecord
100
AcDbLayerTableRecord
  2
167
 70
     0
 62
   167
  6
CONTINUOUS
  0
LAYER
  5
E1
330
2
100
AcDbSymbolTableRecord
100
AcDbLayerTableRecord
  2
168
 70
     0
 62
   168
  6
CONTINUOUS
  0
LAYER
  5
E2
330
2
100
AcDbSymbolTableRecord
100
AcDbLayerTableRecord
  2
169
 70
     0
 62
   169
  6
CONTINUOUS
  0
LAYER
  5
E3
330
2
100
AcDbSymbolTableRecord
100
AcDbLayerTableRecord
  2
170
 70
     0
 62
   170
  6
CONTINUOUS
  0
LAYER
  5
E4
330
2
100
AcDbSymbolTableRecord
100
AcDbLayerTableRecord
  2
171
 70
     0
 62
   171
  6
CONTINUOUS
  0
LAYER
  5
E5
330
2
100
AcDbSymbolTableRecord
100
AcDbLayerTableRecord
  2
172
 70
     0
 62
   172
  6
CONTINUOUS
  0
LAYER
  5
E6
330
2
100
AcDbSymbolTableRecord
100
AcDbLayerTableRecord
  2
173
 70
     0
 62
   173
  6
CONTINUOUS
  0
LAYER
  5
E7
330
2
100
AcDbSymbolTableRecord
100
AcDbLayerTableRecord
  2
174
 70
     0
 62
   174
  6
CONTINUOUS
  0
LAYER
  5
E8
330
2
100
AcDbSymbolTableRecord
100
AcDbLayerTableRecord
  2
175
 70
     0
 62
   175
  6
CONTINUOUS
  0
LAYER
  5
E9
330
2
100
AcDbSymbolTableRecord
100
AcDbLayerTableRecord
  2
176
 70
     0
 62
   176
  6
CONTINUOUS
  0
LAYER
  5
EA
330
2
100
AcDbSymbolTableRecord
100
AcDbLayerTableRecord
  2
177
 70
     0
 62
   177
  6
CONTINUOUS
  0
LAYER
  5
EB
330
2
100
AcDbSymbolTableRecord
100
AcDbLayerTableRecord
  2
178
 70
     0
 62
   178
  6
CONTINUOUS
  0
LAYER
  5
EC
330
2
100
AcDbSymbolTableRecord
100
AcDbLayerTableRecord
  2
179
 70
     0
 62
   179
  6
CONTINUOUS
  0
LAYER
  5
ED
330
2
100
AcDbSymbolTableRecord
100
AcDbLayerTableRecord
  2
180
 70
     0
 62
   180
  6
CONTINUOUS
  0
LAYER
  5
EE
330
2
100
AcDbSymbolTableRecord
100
AcDbLayerTableRecord
  2
181
 70
     0
 62
   181
  6
CONTINUOUS
  0
LAYER
  5
EF
330
2
100
AcDbSymbolTableRecord
100
AcDbLayerTableRecord
  2
182
 70
     0
 62
   182
  6
CONTINUOUS
  0
LAYER
  5
F0
330
2
100
AcDbSymbolTableRecord
100
AcDbLayerTableRecord
  2
183
 70
     0
 62
   183
  6
CONTINUOUS
  0
LAYER
  5
F1
330
2
100
AcDbSymbolTableRecord
100
AcDbLayerTableRecord
  2
184
 70
     0
 62
   184
  6
CONTINUOUS
  0
LAYER
  5
F2
330
2
100
AcDbSymbolTableRecord
100
AcDbLayerTableRecord
  2
185
 70
     0
 62
   185
  6
CONTINUOUS
  0
LAYER
  5
F3
330
2
100
AcDbSymbolTableRecord
100
AcDbLayerTableRecord
  2
186
 70
     0
 62
   186
  6
CONTINUOUS
  0
LAYER
  5
F4
330
2
100
AcDbSymbolTableRecord
100
AcDbLayerTableRecord
  2
187
 70
     0
 62
   187
  6
CONTINUOUS
  0
LAYER
  5
F5
330
2
100
AcDbSymbolTableRecord
100
AcDbLayerTableRecord
  2
188
 70
     0
 62
   188
  6
CONTINUOUS
  0
LAYER
  5
F6
330
2
100
AcDbSymbolTableRecord
100
AcDbLayerTableRecord
  2
189
 70
     0
 62
   189
  6
CONTINUOUS
  0
LAYER
  5
F7
330
2
100
AcDbSymbolTableRecord
100
AcDbLayerTableRecord
  2
190
 70
     0
 62
   190
  6
CONTINUOUS
  0
LAYER
  5
F8
330
2
100
AcDbSymbolTableRecord
100
AcDbLayerTableRecord
  2
191
 70
     0
 62
   191
  6
CONTINUOUS
  0
LAYER
  5
F9
330
2
100
AcDbSymbolTableRecord
100
AcDbLayerTableRecord
  2
192
 70
     0
 62
   192
  6
CONTINUOUS
  0
LAYER
  5
FA
330
2
100
AcDbSymbolTableRecord
100
AcDbLayerTableRecord
  2
193
 70
     0
 62
   193
  6
CONTINUOUS
  0
LAYER
  5
FB
330
2
100
AcDbSymbolTableRecord
100
AcDbLayerTableRecord
  2
194
 70
     0
 62
   194
  6
CONTINUOUS
  0
LAYER
  5
FC
330
2
100
AcDbSymbolTableRecord
100
AcDbLayerTableRecord
  2
195
 70
     0
 62
   195
  6
CONTINUOUS
  0
LAYER
  5
FD
330
2
100
AcDbSymbolTableRecord
100
AcDbLayerTableRecord
  2
196
 70
     0
 62
   196
  6
CONTINUOUS
  0
LAYER
  5
FE
330
2
100
AcDbSymbolTableRecord
100
AcDbLayerTableRecord
  2
197
 70
     0
 62
   197
  6
CONTINUOUS
  0
LAYER
  5
FF
330
2
100
AcDbSymbolTableRecord
100
AcDbLayerTableRecord
  2
198
 70
     0
 62
   198
  6
CONTINUOUS
  0
LAYER
  5
100
330
2
100
AcDbSymbolTableRecord
100
AcDbLayerTableRecord
  2
199
 70
     0
 62
   199
  6
CONTINUOUS
  0
LAYER
  5
101
330
2
100
AcDbSymbolTableRecord
100
AcDbLayerTableRecord
  2
200
 70
     0
 62
   200
  6
CONTINUOUS
  0
LAYER
  5
102
330
2
100
AcDbSymbolTableRecord
100
AcDbLayerTableRecord
  2
201
 70
     0
 62
   201
  6
CONTINUOUS
  0
LAYER
  5
103
330
2
100
AcDbSymbolTableRecord
100
AcDbLayerTableRecord
  2
202
 70
     0
 62
   202
  6
CONTINUOUS
  0
LAYER
  5
104
330
2
100
AcDbSymbolTableRecord
100
AcDbLayerTableRecord
  2
203
 70
     0
 62
   203
  6
CONTINUOUS
  0
LAYER
  5
105
330
2
100
AcDbSymbolTableRecord
100
AcDbLayerTableRecord
  2
204
 70
     0
 62
   204
  6
CONTINUOUS
  0
LAYER
  5
106
330
2
100
AcDbSymbolTableRecord
100
AcDbLayerTableRecord
  2
205
 70
     0
 62
   205
  6
CONTINUOUS
  0
LAYER
  5
107
330
2
100
AcDbSymbolTableRecord
100
AcDbLayerTableRecord
  2
206
 70
     0
 62
   206
  6
CONTINUOUS
  0
LAYER
  5
108
330
2
100
AcDbSymbolTableRecord
100
AcDbLayerTableRecord
  2
207
 70
     0
 62
   207
  6
CONTINUOUS
  0
LAYER
  5
109
330
2
100
AcDbSymbolTableRecord
100
AcDbLayerTableRecord
  2
208
 70
     0
 62
   208
  6
CONTINUOUS
  0
LAYER
  5
10A
330
2
100
AcDbSymbolTableRecord
100
AcDbLayerTableRecord
  2
209
 70
     0
 62
   209
  6
CONTINUOUS
  0
LAYER
  5
10B
330
2
100
AcDbSymbolTableRecord
100
AcDbLayerTableRecord
  2
210
 70
     0
 62
   210
  6
CONTINUOUS
  0
LAYER
  5
10C
330
2
100
AcDbSymbolTableRecord
100
AcDbLayerTableRecord
  2
211
 70
     0
 62
   211
  6
CONTINUOUS
  0
LAYER
  5
10D
330
2
100
AcDbSymbolTableRecord
100
AcDbLayerTableRecord
  2
212
 70
     0
 62
   212
  6
CONTINUOUS
  0
LAYER
  5
10E
330
2
100
AcDbSymbolTableRecord
100
AcDbLayerTableRecord
  2
213
 70
     0
 62
   213
  6
CONTINUOUS
  0
LAYER
  5
10F
330
2
100
AcDbSymbolTableRecord
100
AcDbLayerTableRecord
  2
214
 70
     0
 62
   214
  6
CONTINUOUS
  0
LAYER
  5
110
330
2
100
AcDbSymbolTableRecord
100
AcDbLayerTableRecord
  2
215
 70
     0
 62
   215
  6
CONTINUOUS
  0
LAYER
  5
111
330
2
100
AcDbSymbolTableRecord
100
AcDbLayerTableRecord
  2
216
 70
     0
 62
   216
  6
CONTINUOUS
  0
LAYER
  5
112
330
2
100
AcDbSymbolTableRecord
100
AcDbLayerTableRecord
  2
217
 70
     0
 62
   217
  6
CONTINUOUS
  0
LAYER
  5
113
330
2
100
AcDbSymbolTableRecord
100
AcDbLayerTableRecord
  2
218
 70
     0
 62
   218
  6
CONTINUOUS
  0
LAYER
  5
114
330
2
100
AcDbSymbolTableRecord
100
AcDbLayerTableRecord
  2
219
 70
     0
 62
   219
  6
CONTINUOUS
  0
LAYER
  5
115
330
2
100
AcDbSymbolTableRecord
100
AcDbLayerTableRecord
  2
220
 70
     0
 62
   220
  6
CONTINUOUS
  0
LAYER
  5
116
330
2
100
AcDbSymbolTableRecord
100
AcDbLayerTableRecord
  2
221
 70
     0
 62
   221
  6
CONTINUOUS
  0
LAYER
  5
117
330
2
100
AcDbSymbolTableRecord
100
AcDbLayerTableRecord
  2
222
 70
     0
 62
   222
  6
CONTINUOUS
  0
LAYER
  5
118
330
2
100
AcDbSymbolTableRecord
100
AcDbLayerTableRecord
  2
223
 70
     0
 62
   223
  6
CONTINUOUS
  0
LAYER
  5
119
330
2
100
AcDbSymbolTableRecord
100
AcDbLayerTableRecord
  2
224
 70
     0
 62
   224
  6
CONTINUOUS
  0
LAYER
  5
11A
330
2
100
AcDbSymbolTableRecord
100
AcDbLayerTableRecord
  2
225
 70
     0
 62
   225
  6
CONTINUOUS
  0
LAYER
  5
11B
330
2
100
AcDbSymbolTableRecord
100
AcDbLayerTableRecord
  2
226
 70
     0
 62
   226
  6
CONTINUOUS
  0
LAYER
  5
11C
330
2
100
AcDbSymbolTableRecord
100
AcDbLayerTableRecord
  2
227
 70
     0
 62
   227
  6
CONTINUOUS
  0
LAYER
  5
11D
330
2
100
AcDbSymbolTableRecord
100
AcDbLayerTableRecord
  2
228
 70
     0
 62
   228
  6
CONTINUOUS
  0
LAYER
  5
11E
330
2
100
AcDbSymbolTableRecord
100
AcDbLayerTableRecord
  2
229
 70
     0
 62
   229
  6
CONTINUOUS
  0
LAYER
  5
11F
330
2
100
AcDbSymbolTableRecord
100
AcDbLayerTableRecord
  2
230
 70
     0
 62
   230
  6
CONTINUOUS
  0
LAYER
  5
120
330
2
100
AcDbSymbolTableRecord
100
AcDbLayerTableRecord
  2
231
 70
     0
 62
   231
  6
CONTINUOUS
  0
LAYER
  5
121
330
2
100
AcDbSymbolTableRecord
100
AcDbLayerTableRecord
  2
232
 70
     0
 62
   232
  6
CONTINUOUS
  0
LAYER
  5
122
330
2
100
AcDbSymbolTableRecord
100
AcDbLayerTableRecord
  2
233
 70
     0
 62
   233
  6
CONTINUOUS
  0
LAYER
  5
123
330
2
100
AcDbSymbolTableRecord
100
AcDbLayerTableRecord
  2
234
 70
     0
 62
   234
  6
CONTINUOUS
  0
LAYER
  5
124
330
2
100
AcDbSymbolTableRecord
100
AcDbLayerTableRecord
  2
235
 70
     0
 62
   235
  6
CONTINUOUS
  0
LAYER
  5
125
330
2
100
AcDbSymbolTableRecord
100
AcDbLayerTableRecord
  2
236
 70
     0
 62
   236
  6
CONTINUOUS
  0
LAYER
  5
126
330
2
100
AcDbSymbolTableRecord
100
AcDbLayerTableRecord
  2
237
 70
     0
 62
   237
  6
CONTINUOUS
  0
LAYER
  5
127
330
2
100
AcDbSymbolTableRecord
100
AcDbLayerTableRecord
  2
238
 70
     0
 62
   238
  6
CONTINUOUS
  0
LAYER
  5
128
330
2
100
AcDbSymbolTableRecord
100
AcDbLayerTableRecord
  2
239
 70
     0
 62
   239
  6
CONTINUOUS
  0
LAYER
  5
129
330
2
100
AcDbSymbolTableRecord
100
AcDbLayerTableRecord
  2
240
 70
     0
 62
   240
  6
CONTINUOUS
  0
LAYER
  5
12A
330
2
100
AcDbSymbolTableRecord
100
AcDbLayerTableRecord
  2
241
 70
     0
 62
   241
  6
CONTINUOUS
  0
LAYER
  5
12B
330
2
100
AcDbSymbolTableRecord
100
AcDbLayerTableRecord
  2
242
 70
     0
 62
   242
  6
CONTINUOUS
  0
LAYER
  5
12C
330
2
100
AcDbSymbolTableRecord
100
AcDbLayerTableRecord
  2
243
 70
     0
 62
   243
  6
CONTINUOUS
  0
LAYER
  5
12D
330
2
100
AcDbSymbolTableRecord
100
AcDbLayerTableRecord
  2
244
 70
     0
 62
   244
  6
CONTINUOUS
  0
LAYER
  5
12E
330
2
100
AcDbSymbolTableRecord
100
AcDbLayerTableRecord
  2
245
 70
     0
 62
   245
  6
CONTINUOUS
  0
LAYER
  5
12F
330
2
100
AcDbSymbolTableRecord
100
AcDbLayerTableRecord
  2
246
 70
     0
 62
   246
  6
CONTINUOUS
  0
LAYER
  5
130
330
2
100
AcDbSymbolTableRecord
100
AcDbLayerTableRecord
  2
247
 70
     0
 62
   247
  6
CONTINUOUS
  0
LAYER
  5
131
330
2
100
AcDbSymbolTableRecord
100
AcDbLayerTableRecord
  2
248
 70
     0
 62
   248
  6
CONTINUOUS
  0
LAYER
  5
132
330
2
100
AcDbSymbolTableRecord
100
AcDbLayerTableRecord
  2
249
 70
     0
 62
   249
  6
CONTINUOUS
  0
LAYER
  5
133
330
2
100
AcDbSymbolTableRecord
100
AcDbLayerTableRecord
  2
250
 70
     0
 62
   250
  6
CONTINUOUS
  0
LAYER
  5
134
330
2
100
AcDbSymbolTableRecord
100
AcDbLayerTableRecord
  2
251
 70
     0
 62
   251
  6
CONTINUOUS
  0
LAYER
  5
135
330
2
100
AcDbSymbolTableRecord
100
AcDbLayerTableRecord
  2
252
 70
     0
 62
   252
  6
CONTINUOUS
  0
LAYER
  5
136
330
2
100
AcDbSymbolTableRecord
100
AcDbLayerTableRecord
  2
253
 70
     0
 62
   253
  6
CONTINUOUS
  0
LAYER
  5
137
330
2
100
AcDbSymbolTableRecord
100
AcDbLayerTableRecord
  2
254
 70
     0
 62
   254
  6
CONTINUOUS
  0
LAYER
  5
138
330
2
100
AcDbSymbolTableRecord
100
AcDbLayerTableRecord
  2
255
 70
     0
 62
   255
  6
CONTINUOUS
  0
ENDTAB
  0
TABLE
  2
STYLE
  5
3
330
0
100
AcDbSymbolTable
 70
     1
  0
STYLE
  5
11
330
3
100
AcDbSymbolTableRecord
100
AcDbTextStyleTableRecord
  2
STANDARD
 70
     0
 40
0.0
 41
1.0
 50
0.0
 71
     0
 42
0.2
  3
monotxt
  4

  0
ENDTAB
  0
TABLE
  2
VIEW
  5
6
330
0
100
AcDbSymbolTable
 70
     0
  0
ENDTAB
  0
TABLE
  2
UCS
  5
7
330
0
100
AcDbSymbolTable
 70
     0
  0
ENDTAB
  0
TABLE
  2
APPID
  5
9
330
0
100
AcDbSymbolTable
 70
     1
  0
APPID
  5
12
330
9
100
AcDbSymbolTableRecord
100
AcDbRegAppTableRecord
  2
ACAD
 70
     0
  0
ENDTAB
  0
TABLE
  2
DIMSTYLE
  5
A
330
0
100
AcDbSymbolTable
 70
     1
  0
DIMSTYLE
105
33D2
330
A
100
AcDbSymbolTableRecord
100
AcDbDimStyleTableRecord
  2
STANDARD
 70
     0
  3

  4

  5

  6

  7

 40
1.0
 41
0.18
 42
0.0625
 43
0.38
 44
0.18
 45
0.0
 46
0.0
 47
0.0
 48
0.0
140
0.18
141
0.09
142
0.0
143
25.4
144
1.0
145
0.0
146
1.0
147
0.09
 71
     0
 72
     0
 73
     1
 74
     1
 75
     0
 76
     0
 77
     0
 78
     0
170
     0
171
     2
172
     0
173
     0
174
     0
175
     0
176
     0
177
     0
178
     0
270
     2
271
     4
272
     4
273
     2
274
     2
340
11
275
     0
280
     0
281
     0
282
     0
283
     1
284
     0
285
     0
286
     0
287
     3
288
     0
  0
ENDTAB
  0
TABLE
  2
BLOCK_RECORD
  5
1
330
0
100
AcDbSymbolTable
 70
     0
  0
BLOCK_RECORD
  5
1E
102
{ACAD_XDICTIONARY
360
4685
102
}
330
1
100
AcDbSymbolTableRecord
100
AcDbBlockTableRecord
  2
*MODEL_SPACE
  0
BLOCK_RECORD
  5
1A
102
{ACAD_XDICTIONARY
360
4687
102
}
330
1
100
AcDbSymbolTableRecord
100
AcDbBlockTableRecord
  2
*PAPER_SPACE
  0
ENDTAB
  0
ENDSEC
  0
SECTION
  2
BLOCKS
  0
BLOCK
  5
13B
330
1E
100
AcDbEntity
  8
0
100
AcDbBlockBegin
  2
*MODEL_SPACE
 70
     0
 10
0.0
 20
0.0
 30
0.0
  3
*MODEL_SPACE
  1

  0
ENDBLK
  5
13C
330
1E
100
AcDbEntity
  8
0
100
AcDbBlockEnd
  0
BLOCK
  5
139
330
1A
100
AcDbEntity
 67
     1
  8
0
100
AcDbBlockBegin
  2
*PAPER_SPACE
 70
     0
 10
0.0
 20
0.0
 30
0.0
  3
*PAPER_SPACE
  1

  0
ENDBLK
  5
13A
330
1A
100
AcDbEntity
 67
     1
  8
0
100
AcDbBlockEnd
  0
ENDSEC
  0
SECTION
  2
ENTITIES
  0
LINE
  5
2D5D
330
1E
100
AcDbEntity
  8
7
100
AcDbLine
 10
1.697834645669291
 20
5.167322834645669
 30
0.0
 11
1.656496062992125
 21
5.167322834645669
 31
0.0
  0
LINE
  5
2D5E
330
1E
100
AcDbEntity
  8
7
100
AcDbLine
 10
1.697834645669291
 20
5.167322834645669
 30
0.0
 11
1.656496062992125
 21
5.167322834645669
 31
0.0
  0
LINE
  5
2D5F
330
1E
100
AcDbEntity
  8
7
100
AcDbLine
 10
1.656496062992125
 20
5.194881889763779
 30
0.0
 11
1.697834645669291
 21
5.194881889763779
 31
0.0
  0
LINE
  5
2D60
330
1E
100
AcDbEntity
  8
7
100
AcDbLine
 10
1.656496062992125
 20
5.194881889763779
 30
0.0
 11
1.65255905511811
 21
5.191929133858267
 31
0.0
  0
LINE
  5
2D61
330
1E
100
AcDbEntity
  8
7
100
AcDbLine
 10
1.65255905511811
 20
5.171259842519685
 30
0.0
 11
1.656496062992125
 21
5.167322834645669
 31
0.0
  0
LINE
  5
2D67
330
1E
100
AcDbEntity
  8
7
100
AcDbLine
 10
2.015748031496062
 20
5.167322834645669
 30
0.0
 11
1.973425196850393
 21
5.167322834645669
 31
0.0
  0
LINE
  5
2D68
330
1E
100
AcDbEntity
  8
7
100
AcDbLine
 10
2.015748031496062
 20
5.167322834645669
 30
0.0
 11
1.973425196850393
 21
5.167322834645669
 31
0.0
  0
LINE
  5
2D69
330
1E
100
AcDbEntity
  8
7
100
AcDbLine
 10
1.973425196850393
 20
5.194881889763779
 30
0.0
 11
2.015748031496062
 21
5.194881889763779
 31
0.0
  0
LINE
  5
2D6A
330
1E
100
AcDbEntity
  8
7
100
AcDbLine
 10
1.973425196850393
 20
5.194881889763779
 30
0.0
 11
1.969488188976377
 21
5.191929133858267
 31
0.0
  0
LINE
  5
2D6B
330
1E
100
AcDbEntity
  8
7
100
AcDbLine
 10
1.969488188976377
 20
5.171259842519685
 30
0.0
 11
1.973425196850393
 21
5.167322834645669
 31
0.0
  0
LINE
  5
2D81
330
1E
100
AcDbEntity
  8
7
100
AcDbLine
 10
1.289370078740157
 20
6.186023622047243
 30
0.0
 11
1.289370078740157
 21
4.163385826771653
 31
0.0
  0
LINE
  5
2D8E
330
1E
100
AcDbEntity
  8
7
100
AcDbLine
 10
1.51771653543307
 20
4.764763779527559
 30
0.0
 11
1.581692913385826
 21
4.764763779527559
 31
0.0
  0
LINE
  5
2DAB
330
1E
100
AcDbEntity
  8
7
100
AcDbLine
 10
2.083661417322834
 20
4.764763779527559
 30
0.0
 11
2.143700787401574
 21
4.764763779527559
 31
0.0
  0
LINE
  5
2DAC
330
1E
100
AcDbEntity
  8
7
100
AcDbLine
 10
2.083661417322834
 20
4.764763779527559
 30
0.0
 11
1.958661417322834
 21
4.764763779527559
 31
0.0
  0
LINE
  5
2DAD
330
1E
100
AcDbEntity
  8
7
100
AcDbLine
 10
1.898622047244094
 20
4.764763779527559
 30
0.0
 11
1.958661417322834
 21
4.764763779527559
 31
0.0
  0
LINE
  5
2DB3
330
1E
100
AcDbEntity
  8
7
100
AcDbLine
 10
1.641732283464566
 20
4.764763779527559
 30
0.0
 11
1.766732283464566
 21
4.764763779527559
 31
0.0
  0
LINE
  5
2DB4
330
1E
100
AcDbEntity
  8
7
100
AcDbLine
 10
1.641732283464566
 20
4.764763779527559
 30
0.0
 11
1.581692913385826
 21
4.764763779527559
 31
0.0
  0
LINE
  5
2DB5
330
1E
100
AcDbEntity
  8
7
100
AcDbLine
 10
2.315944881889763
 20
6.098425196850393
 30
0.0
 11
1.409448818897637
 21
6.098425196850393
 31
0.0
  0
LINE
  5
2DBB
330
1E
100
AcDbEntity
  8
7
100
AcDbLine
 10
2.331692913385826
 20
5.907480314960629
 30
0.0
 11
2.331692913385826
 21
6.08267716535433
 31
0.0
  0
LINE
  5
2DC1
330
1E
100
AcDbEntity
  8
7
100
AcDbLine
 10
1.409448818897637
 20
5.891732283464566
 30
0.0
 11
2.315944881889763
 21
5.891732283464566
 31
0.0
  0
LINE
  5
2DC7
330
1E
100
AcDbEntity
  8
7
100
AcDbLine
 10
1.393700787401574
 20
6.08267716535433
 30
0.0
 11
1.393700787401574
 21
5.907480314960629
 31
0.0
  0
LINE
  5
2DE5
330
1E
100
AcDbEntity
  8
7
100
AcDbLine
 10
2.5501968503937
 20
4.079724409448818
 30
0.0
 11
2.5501968503937
 21
6.269685039370078
 31
0.0
  0
LINE
  5
2DEC
330
1E
100
AcDbEntity
  8
7
100
AcDbLine
 10
1.204724409448818
 20
4.0501968503937
 30
0.0
 11
2.519685039370078
 21
4.0501968503937
 31
0.0
  0
LINE
  5
2DF9
330
1E
100
AcDbEntity
  8
7
100
AcDbLine
 10
2.519685039370078
 20
6.3001968503937
 30
0.0
 11
1.204724409448818
 21
6.3001968503937
 31
0.0
  0
LINE
  5
2DFA
330
1E
100
AcDbEntity
  8
7
100
AcDbLine
 10
2.519685039370078
 20
6.3001968503937
 30
0.0
 11
2.535433070866141
 21
6.296259842519685
 31
0.0
  0
LINE
  5
2E05
330
1E
100
AcDbEntity
  8
7
100
AcDbLine
 10
2.5501968503937
 20
6.269685039370078
 30
0.0
 11
2.548228346456693
 21
6.268700787401574
 31
0.0
  0
LINE
  5
2E20
330
1E
100
AcDbEntity
  8
7
100
AcDbLine
 10
2.18011811023622
 20
5.020669291338582
 30
0.0
 11
2.18011811023622
 21
4.787401574803149
 31
0.0
  0
LINE
  5
2E21
330
1E
100
AcDbEntity
  8
7
100
AcDbLine
 10
1.545275590551181
 20
5.020669291338582
 30
0.0
 11
1.545275590551181
 21
4.787401574803149
 31
0.0
  0
LINE
  5
2E22
330
1E
100
AcDbEntity
  8
7
100
AcDbLine
 10
2.143700787401574
 20
4.797244094488188
 30
0.0
 11
2.081692913385826
 21
4.797244094488188
 31
0.0
  0
LINE
  5
2E23
330
1E
100
AcDbEntity
  8
7
100
AcDbLine
 10
2.144685039370078
 20
4.819881889763779
 30
0.0
 11
2.18011811023622
 21
4.819881889763779
 31
0.0
  0
LINE
  5
2E24
330
1E
100
AcDbEntity
  8
7
100
AcDbLine
 10
1.580708661417322
 20
4.819881889763779
 30
0.0
 11
1.545275590551181
 21
4.819881889763779
 31
0.0
  0
LINE
  5
2E25
330
1E
100
AcDbEntity
  8
7
100
AcDbLine
 10
1.580708661417322
 20
4.797244094488188
 30
0.0
 11
1.643700787401574
 21
4.797244094488188
 31
0.0
  0
LINE
  5
2E2B
330
1E
100
AcDbEntity
  8
7
100
AcDbLine
 10
1.581692913385826
 20
4.787401574803149
 30
0.0
 11
1.581692913385826
 21
4.764763779527559
 31
0.0
  0
LINE
  5
2E2C
330
1E
100
AcDbEntity
  8
7
100
AcDbLine
 10
1.581692913385826
 20
4.787401574803149
 30
0.0
 11
1.545275590551181
 21
4.787401574803149
 31
0.0
  0
LINE
  5
2E2D
330
1E
100
AcDbEntity
  8
7
100
AcDbLine
 10
1.545275590551181
 20
5.020669291338582
 30
0.0
 11
1.65255905511811
 21
5.020669291338582
 31
0.0
  0
LINE
  5
2E2E
330
1E
100
AcDbEntity
  8
7
100
AcDbLine
 10
1.651574803149606
 20
5.037401574803149
 30
0.0
 11
1.65255905511811
 21
5.020669291338582
 31
0.0
  0
LINE
  5
2E2F
330
1E
100
AcDbEntity
  8
7
100
AcDbLine
 10
2.207677165354331
 20
4.764763779527559
 30
0.0
 11
2.202755905511811
 21
5.037401574803149
 31
0.0
  0
LINE
  5
2E30
330
1E
100
AcDbEntity
  8
7
100
AcDbLine
 10
2.072834645669291
 20
5.037401574803149
 30
0.0
 11
2.202755905511811
 21
5.037401574803149
 31
0.0
  0
LINE
  5
2E31
330
1E
100
AcDbEntity
  8
7
100
AcDbLine
 10
2.072834645669291
 20
5.037401574803149
 30
0.0
 11
2.072834645669291
 21
5.020669291338582
 31
0.0
  0
LINE
  5
2E32
330
1E
100
AcDbEntity
  8
7
100
AcDbLine
 10
2.18011811023622
 20
5.020669291338582
 30
0.0
 11
2.072834645669291
 21
5.020669291338582
 31
0.0
  0
LINE
  5
2E33
330
1E
100
AcDbEntity
  8
7
100
AcDbLine
 10
2.143700787401574
 20
4.787401574803149
 30
0.0
 11
2.18011811023622
 21
4.787401574803149
 31
0.0
  0
LINE
  5
2E34
330
1E
100
AcDbEntity
  8
7
100
AcDbLine
 10
2.143700787401574
 20
4.787401574803149
 30
0.0
 11
2.143700787401574
 21
4.764763779527559
 31
0.0
  0
LINE
  5
2E3A
330
1E
100
AcDbEntity
  8
7
100
AcDbLine
 10
1.697834645669291
 20
5.167322834645669
 30
0.0
 11
1.697834645669291
 21
5.204724409448818
 31
0.0
  0
LINE
  5
2E41
330
1E
100
AcDbEntity
  8
7
100
AcDbLine
 10
1.709645669291338
 20
5.204724409448818
 30
0.0
 11
1.709645669291338
 21
5.167322834645669
 31
0.0
  0
LINE
  5
2E42
330
1E
100
AcDbEntity
  8
7
100
AcDbLine
 10
1.750984251968503
 20
5.204724409448818
 30
0.0
 11
1.709645669291338
 21
5.204724409448818
 31
0.0
  0
LINE
  5
2E43
330
1E
100
AcDbEntity
  8
7
100
AcDbLine
 10
1.750984251968503
 20
5.204724409448818
 30
0.0
 11
1.754921259842519
 21
5.201771653543307
 31
0.0
  0
LINE
  5
2E44
330
1E
100
AcDbEntity
  8
7
100
AcDbLine
 10
1.754921259842519
 20
5.171259842519685
 30
0.0
 11
1.754921259842519
 21
5.201771653543307
 31
0.0
  0
LINE
  5
2E4A
330
1E
100
AcDbEntity
  8
7
100
AcDbLine
 10
2.015748031496062
 20
5.167322834645669
 30
0.0
 11
2.015748031496062
 21
5.204724409448818
 31
0.0
  0
LINE
  5
2E4B
330
1E
100
AcDbEntity
  8
7
100
AcDbLine
 10
1.973425196850393
 20
5.167322834645669
 30
0.0
 11
1.969488188976377
 21
5.171259842519685
 31
0.0
  0
LINE
  5
2E51
330
1E
100
AcDbEntity
  8
7
100
AcDbLine
 10
2.02755905511811
 20
5.204724409448818
 30
0.0
 11
2.02755905511811
 21
5.167322834645669
 31
0.0
  0
LINE
  5
2E52
330
1E
100
AcDbEntity
  8
7
100
AcDbLine
 10
2.068897637795275
 20
5.204724409448818
 30
0.0
 11
2.02755905511811
 21
5.204724409448818
 31
0.0
  0
LINE
  5
2E53
330
1E
100
AcDbEntity
  8
7
100
AcDbLine
 10
2.068897637795275
 20
5.204724409448818
 30
0.0
 11
2.072834645669291
 21
5.201771653543307
 31
0.0
  0
LINE
  5
2E54
330
1E
100
AcDbEntity
  8
7
100
AcDbLine
 10
2.072834645669291
 20
5.171259842519685
 30
0.0
 11
2.072834645669291
 21
5.201771653543307
 31
0.0
  0
LINE
  5
2E5A
330
1E
100
AcDbEntity
  8
7
100
AcDbLine
 10
2.202755905511811
 20
5.09251968503937
 30
0.0
 11
1.52263779527559
 21
5.09251968503937
 31
0.0
  0
LINE
  5
2E5B
330
1E
100
AcDbEntity
  8
7
100
AcDbLine
 10
2.202755905511811
 20
5.09251968503937
 30
0.0
 11
2.207677165354331
 21
5.618110236220472
 31
0.0
  0
LINE
  5
2E5C
330
1E
100
AcDbEntity
  8
7
100
AcDbLine
 10
1.51771653543307
 20
5.618110236220472
 30
0.0
 11
1.52263779527559
 21
5.09251968503937
 31
0.0
  0
LINE
  5
2E5D
330
1E
100
AcDbEntity
  8
7
100
AcDbLine
 10
1.394685039370078
 20
5.907480314960629
 30
0.0
 11
1.393700787401574
 21
5.907480314960629
 31
0.0
  0
LINE
  5
2E5E
330
1E
100
AcDbEntity
  8
7
100
AcDbLine
 10
1.394685039370078
 20
5.907480314960629
 30
0.0
 11
1.394685039370078
 21
6.08267716535433
 31
0.0
  0
LINE
  5
2E5F
330
1E
100
AcDbEntity
  8
7
100
AcDbLine
 10
1.393700787401574
 20
6.08267716535433
 30
0.0
 11
1.394685039370078
 21
6.08267716535433
 31
0.0
  0
LINE
  5
2E60
330
1E
100
AcDbEntity
  8
7
100
AcDbLine
 10
1.426181102362204
 20
5.89271653543307
 30
0.0
 11
1.426181102362204
 21
6.097440944881889
 31
0.0
  0
LINE
  5
2E67
330
1E
100
AcDbEntity
  8
7
100
AcDbLine
 10
1.426181102362204
 20
5.89271653543307
 30
0.0
 11
1.4251968503937
 21
5.89271653543307
 31
0.0
  0
LINE
  5
2E68
330
1E
100
AcDbEntity
  8
7
100
AcDbLine
 10
1.426181102362204
 20
6.097440944881889
 30
0.0
 11
1.4251968503937
 21
6.097440944881889
 31
0.0
  0
LINE
  5
2E69
330
1E
100
AcDbEntity
  8
7
100
AcDbLine
 10
1.410433070866141
 20
6.097440944881889
 30
0.0
 11
1.4251968503937
 21
6.097440944881889
 31
0.0
  0
LINE
  5
2E6F
330
1E
100
AcDbEntity
  8
7
100
AcDbLine
 10
1.4251968503937
 20
5.89271653543307
 30
0.0
 11
1.410433070866141
 21
5.89271653543307
 31
0.0
  0
LINE
  5
2E70
330
1E
100
AcDbEntity
  8
7
100
AcDbLine
 10
1.410433070866141
 20
6.097440944881889
 30
0.0
 11
1.409448818897637
 21
6.098425196850393
 31
0.0
  0
LINE
  5
2E80
330
1E
100
AcDbEntity
  8
7
100
AcDbLine
 10
1.204724409448818
 20
6.3001968503937
 30
0.0
 11
1.206692913385826
 21
6.298228346456692
 31
0.0
  0
LINE
  5
2E81
330
1E
100
AcDbEntity
  8
7
100
AcDbLine
 10
2.31496062992126
 20
5.89271653543307
 30
0.0
 11
2.315944881889763
 21
5.891732283464566
 31
0.0
  0
LINE
  5
2E82
330
1E
100
AcDbEntity
  8
7
100
AcDbLine
 10
2.31496062992126
 20
5.89271653543307
 30
0.0
 11
2.3001968503937
 21
5.89271653543307
 31
0.0
  0
LINE
  5
2E83
330
1E
100
AcDbEntity
  8
7
100
AcDbLine
 10
2.299212598425197
 20
5.89271653543307
 30
0.0
 11
2.3001968503937
 21
5.89271653543307
 31
0.0
  0
LINE
  5
2E84
330
1E
100
AcDbEntity
  8
7
100
AcDbLine
 10
1.426181102362204
 20
5.89271653543307
 30
0.0
 11
2.299212598425197
 21
5.89271653543307
 31
0.0
  0
LINE
  5
2E85
330
1E
100
AcDbEntity
  8
7
100
AcDbLine
 10
2.299212598425197
 20
6.097440944881889
 30
0.0
 11
1.426181102362204
 21
6.097440944881889
 31
0.0
  0
LINE
  5
2E8B
330
1E
100
AcDbEntity
  8
7
100
AcDbLine
 10
2.315944881889763
 20
6.098425196850393
 30
0.0
 11
2.31496062992126
 21
6.097440944881889
 31
0.0
  0
LINE
  5
2E8C
330
1E
100
AcDbEntity
  8
7
100
AcDbLine
 10
2.299212598425197
 20
5.89271653543307
 30
0.0
 11
2.299212598425197
 21
6.097440944881889
 31
0.0
  0
LINE
  5
2E8D
330
1E
100
AcDbEntity
  8
7
100
AcDbLine
 10
1.89271653543307
 20
5.919291338582676
 30
0.0
 11
1.83267716535433
 21
5.919291338582676
 31
0.0
  0
LINE
  5
2E9A
330
1E
100
AcDbEntity
  8
7
100
AcDbLine
 10
1.83267716535433
 20
6.070866141732283
 30
0.0
 11
1.89271653543307
 21
6.070866141732283
 31
0.0
  0
LINE
  5
2EB5
330
1E
100
AcDbEntity
  8
7
100
AcDbLine
 10
1.763779527559055
 20
4.798228346456692
 30
0.0
 11
1.643700787401574
 21
4.798228346456692
 31
0.0
  0
LINE
  5
2EB6
330
1E
100
AcDbEntity
  8
7
100
AcDbLine
 10
1.961614173228346
 20
4.798228346456692
 30
0.0
 11
2.081692913385826
 21
4.798228346456692
 31
0.0
  0
LINE
  5
2EB7
330
1E
100
AcDbEntity
  8
7
100
AcDbLine
 10
1.763779527559055
 20
4.798228346456692
 30
0.0
 11
1.766732283464566
 21
4.764763779527559
 31
0.0
  0
LINE
  5
2EB8
330
1E
100
AcDbEntity
  8
7
100
AcDbLine
 10
1.643700787401574
 20
4.798228346456692
 30
0.0
 11
1.641732283464566
 21
4.764763779527559
 31
0.0
  0
LINE
  5
2EB9
330
1E
100
AcDbEntity
  8
7
100
AcDbLine
 10
1.766732283464566
 20
4.764763779527559
 30
0.0
 11
1.641732283464566
 21
4.764763779527559
 31
0.0
  0
LINE
  5
2EBA
330
1E
100
AcDbEntity
  8
7
100
AcDbLine
 10
1.763779527559055
 20
4.799212598425196
 30
0.0
 11
1.763779527559055
 21
4.798228346456692
 31
0.0
  0
LINE
  5
2EBB
330
1E
100
AcDbEntity
  8
7
100
AcDbLine
 10
1.763779527559055
 20
4.797244094488188
 30
0.0
 11
1.826771653543307
 21
4.797244094488188
 31
0.0
  0
LINE
  5
2EBC
330
1E
100
AcDbEntity
  8
7
100
AcDbLine
 10
1.826771653543307
 20
4.764763779527559
 30
0.0
 11
1.826771653543307
 21
4.787401574803149
 31
0.0
  0
LINE
  5
2EBD
330
1E
100
AcDbEntity
  8
7
100
AcDbLine
 10
1.826771653543307
 20
4.819881889763779
 30
0.0
 11
1.826771653543307
 21
4.787401574803149
 31
0.0
  0
LINE
  5
2EBE
330
1E
100
AcDbEntity
  8
7
100
AcDbLine
 10
1.826771653543307
 20
4.819881889763779
 30
0.0
 11
1.89763779527559
 21
4.819881889763779
 31
0.0
  0
LINE
  5
2EBF
330
1E
100
AcDbEntity
  8
7
100
AcDbLine
 10
1.826771653543307
 20
4.787401574803149
 30
0.0
 11
1.898622047244094
 21
4.787401574803149
 31
0.0
  0
LINE
  5
2EC0
330
1E
100
AcDbEntity
  8
7
100
AcDbLine
 10
1.89763779527559
 20
4.819881889763779
 30
0.0
 11
1.898622047244094
 21
4.787401574803149
 31
0.0
  0
LINE
  5
2EC1
330
1E
100
AcDbEntity
  8
7
100
AcDbLine
 10
1.898622047244094
 20
4.764763779527559
 30
0.0
 11
1.898622047244094
 21
4.787401574803149
 31
0.0
  0
LINE
  5
2EC2
330
1E
100
AcDbEntity
  8
7
100
AcDbLine
 10
1.961614173228346
 20
4.797244094488188
 30
0.0
 11
1.898622047244094
 21
4.797244094488188
 31
0.0
  0
LINE
  5
2EC3
330
1E
100
AcDbEntity
  8
7
100
AcDbLine
 10
1.961614173228346
 20
4.798228346456692
 30
0.0
 11
1.958661417322834
 21
4.764763779527559
 31
0.0
  0
LINE
  5
2EC4
330
1E
100
AcDbEntity
  8
7
100
AcDbLine
 10
1.961614173228346
 20
4.799212598425196
 30
0.0
 11
1.961614173228346
 21
4.798228346456692
 31
0.0
  0
LINE
  5
2EC5
330
1E
100
AcDbEntity
  8
7
100
AcDbLine
 10
1.958661417322834
 20
4.764763779527559
 30
0.0
 11
2.083661417322834
 21
4.764763779527559
 31
0.0
  0
LINE
  5
2EC6
330
1E
100
AcDbEntity
  8
7
100
AcDbLine
 10
2.081692913385826
 20
4.798228346456692
 30
0.0
 11
2.083661417322834
 21
4.764763779527559
 31
0.0
  0
LINE
  5
2EC7
330
1E
100
AcDbEntity
  8
7
100
AcDbLine
 10
1.655511811023622
 20
4.991141732283464
 30
0.0
 11
1.751968503937007
 21
4.991141732283464
 31
0.0
  0
LINE
  5
2ECD
330
1E
100
AcDbEntity
  8
7
100
AcDbLine
 10
1.654527559055118
 20
4.977362204724409
 30
0.0
 11
1.655511811023622
 21
4.991141732283464
 31
0.0
  0
LINE
  5
2ED3
330
1E
100
AcDbEntity
  8
7
100
AcDbLine
 10
1.752952755905511
 20
4.977362204724409
 30
0.0
 11
1.752952755905511
 21
4.973425196850393
 31
0.0
  0
LINE
  5
2ED9
330
1E
100
AcDbEntity
  8
7
100
AcDbLine
 10
1.654527559055118
 20
4.972440944881889
 30
0.0
 11
1.654527559055118
 21
4.973425196850393
 31
0.0
  0
LINE
  5
2EDF
330
1E
100
AcDbEntity
  8
7
100
AcDbLine
 10
1.752952755905511
 20
4.972440944881889
 30
0.0
 11
1.752952755905511
 21
4.963582677165354
 31
0.0
  0
LINE
  5
2EE5
330
1E
100
AcDbEntity
  8
7
100
AcDbLine
 10
1.752952755905511
 20
4.963582677165354
 30
0.0
 11
1.752952755905511
 21
4.956692913385826
 31
0.0
  0
LINE
  5
2EEB
330
1E
100
AcDbEntity
  8
7
100
AcDbLine
 10
1.752952755905511
 20
4.956692913385826
 30
0.0
 11
1.752952755905511
 21
4.952755905511811
 31
0.0
  0
LINE
  5
2EEC
330
1E
100
AcDbEntity
  8
7
100
AcDbLine
 10
1.643700787401574
 20
4.798228346456692
 30
0.0
 11
1.643700787401574
 21
4.799212598425196
 31
0.0
  0
LINE
  5
2EED
330
1E
100
AcDbEntity
  8
7
100
AcDbLine
 10
1.752952755905511
 20
4.952755905511811
 30
0.0
 11
1.763779527559055
 21
4.799212598425196
 31
0.0
  0
LINE
  5
2EEE
330
1E
100
AcDbEntity
  8
7
100
AcDbLine
 10
1.654527559055118
 20
4.952755905511811
 30
0.0
 11
1.643700787401574
 21
4.799212598425196
 31
0.0
  0
LINE
  5
2EEF
330
1E
100
AcDbEntity
  8
7
100
AcDbLine
 10
2.081692913385826
 20
4.798228346456692
 30
0.0
 11
2.081692913385826
 21
4.799212598425196
 31
0.0
  0
LINE
  5
2EF0
330
1E
100
AcDbEntity
  8
7
100
AcDbLine
 10
2.069881889763779
 20
4.952755905511811
 30
0.0
 11
2.081692913385826
 21
4.799212598425196
 31
0.0
  0
LINE
  5
2EF6
330
1E
100
AcDbEntity
  8
7
100
AcDbLine
 10
2.069881889763779
 20
4.956692913385826
 30
0.0
 11
2.069881889763779
 21
4.952755905511811
 31
0.0
  0
LINE
  5
2EFC
330
1E
100
AcDbEntity
  8
7
100
AcDbLine
 10
2.069881889763779
 20
4.963582677165354
 30
0.0
 11
2.069881889763779
 21
4.956692913385826
 31
0.0
  0
LINE
  5
2F02
330
1E
100
AcDbEntity
  8
7
100
AcDbLine
 10
2.070866141732283
 20
4.972440944881889
 30
0.0
 11
2.069881889763779
 21
4.963582677165354
 31
0.0
  0
LINE
  5
2F0D
330
1E
100
AcDbEntity
  8
7
100
AcDbLine
 10
1.972440944881889
 20
4.972440944881889
 30
0.0
 11
1.972440944881889
 21
4.973425196850393
 31
0.0
  0
LINE
  5
2F0E
330
1E
100
AcDbEntity
  8
7
100
AcDbLine
 10
2.070866141732283
 20
4.977362204724409
 30
0.0
 11
2.070866141732283
 21
4.973425196850393
 31
0.0
  0
LINE
  5
2F19
330
1E
100
AcDbEntity
  8
7
100
AcDbLine
 10
1.972440944881889
 20
4.977362204724409
 30
0.0
 11
1.973425196850393
 21
4.991141732283464
 31
0.0
  0
LINE
  5
2F1A
330
1E
100
AcDbEntity
  8
7
100
AcDbLine
 10
2.144685039370078
 20
4.819881889763779
 30
0.0
 11
2.143700787401574
 21
4.787401574803149
 31
0.0
  0
LINE
  5
2F1B
330
1E
100
AcDbEntity
  8
7
100
AcDbLine
 10
1.580708661417322
 20
4.819881889763779
 30
0.0
 11
1.581692913385826
 21
4.787401574803149
 31
0.0
  0
LINE
  5
2F1C
330
1E
100
AcDbEntity
  8
7
100
AcDbLine
 10
1.809055118110236
 20
5.965551181102362
 30
0.0
 11
1.915354330708661
 21
5.965551181102362
 31
0.0
  0
LINE
  5
2F1D
330
1E
100
AcDbEntity
  8
7
100
AcDbLine
 10
1.809055118110236
 20
6.025590551181101
 30
0.0
 11
1.915354330708661
 21
6.025590551181101
 31
0.0
  0
LINE
  5
2F1E
330
1E
100
AcDbEntity
  8
7
100
AcDbLine
 10
1.910433070866141
 20
5.961614173228346
 30
0.0
 11
1.814960629921259
 21
5.961614173228346
 31
0.0
  0
LINE
  5
2F1F
330
1E
100
AcDbEntity
  8
7
100
AcDbLine
 10
1.915354330708661
 20
5.965551181102362
 30
0.0
 11
1.910433070866141
 21
5.961614173228346
 31
0.0
  0
LINE
  5
2F20
330
1E
100
AcDbEntity
  8
7
100
AcDbLine
 10
1.814960629921259
 20
5.961614173228346
 30
0.0
 11
1.809055118110236
 21
5.965551181102362
 31
0.0
  0
LINE
  5
2F21
330
1E
100
AcDbEntity
  8
7
100
AcDbLine
 10
1.910433070866141
 20
6.028543307086613
 30
0.0
 11
1.814960629921259
 21
6.028543307086613
 31
0.0
  0
LINE
  5
2F22
330
1E
100
AcDbEntity
  8
7
100
AcDbLine
 10
1.910433070866141
 20
6.02755905511811
 30
0.0
 11
1.901574803149606
 21
6.031496062992125
 31
0.0
  0
LINE
  5
2F23
330
1E
100
AcDbEntity
  8
7
100
AcDbLine
 10
1.901574803149606
 20
6.031496062992125
 30
0.0
 11
1.89271653543307
 21
6.032480314960629
 31
0.0
  0
LINE
  5
2F24
330
1E
100
AcDbEntity
  8
7
100
AcDbLine
 10
1.89271653543307
 20
6.033464566929133
 30
0.0
 11
1.83267716535433
 21
6.033464566929133
 31
0.0
  0
LINE
  5
2F2A
330
1E
100
AcDbEntity
  8
7
100
AcDbLine
 10
1.910433070866141
 20
6.028543307086613
 30
0.0
 11
1.915354330708661
 21
6.025590551181101
 31
0.0
  0
LINE
  5
2F2B
330
1E
100
AcDbEntity
  8
7
100
AcDbLine
 10
1.809055118110236
 20
6.025590551181101
 30
0.0
 11
1.814960629921259
 21
6.028543307086613
 31
0.0
  0
LINE
  5
2F31
330
1E
100
AcDbEntity
  8
7
100
AcDbLine
 10
1.89271653543307
 20
5.956692913385826
 30
0.0
 11
1.83267716535433
 21
5.956692913385826
 31
0.0
  0
LINE
  5
2F37
330
1E
100
AcDbEntity
  8
7
100
AcDbLine
 10
1.915354330708661
 20
5.965551181102362
 30
0.0
 11
1.928149606299212
 21
5.984251968503937
 31
0.0
  0
LINE
  5
2F43
330
1E
100
AcDbEntity
  8
7
100
AcDbLine
 10
1.89271653543307
 20
5.95767716535433
 30
0.0
 11
1.911417322834645
 21
5.96259842519685
 31
0.0
  0
LINE
  5
2F4C
330
1E
100
AcDbEntity
  8
7
100
AcDbLine
 10
1.89271653543307
 20
6.033464566929133
 30
0.0
 11
1.83267716535433
 21
6.033464566929133
 31
0.0
  0
LINE
  5
2F59
330
1E
100
AcDbEntity
  8
7
100
AcDbLine
 10
1.89271653543307
 20
5.956692913385826
 30
0.0
 11
1.83267716535433
 21
5.956692913385826
 31
0.0
  0
LINE
  5
2F5A
330
1E
100
AcDbEntity
  8
7
100
AcDbLine
 10
1.83267716535433
 20
5.92027559055118
 30
0.0
 11
1.89271653543307
 21
5.92027559055118
 31
0.0
  0
LINE
  5
2F6A
330
1E
100
AcDbEntity
  8
7
100
AcDbLine
 10
1.89271653543307
 20
6.069881889763779
 30
0.0
 11
1.83267716535433
 21
6.069881889763779
 31
0.0
  0
LINE
  5
2F7A
330
1E
100
AcDbEntity
  8
7
100
AcDbLine
 10
1.89271653543307
 20
6.070866141732283
 30
0.0
 11
1.89271653543307
 21
6.069881889763779
 31
0.0
  0
LINE
  5
2F7B
330
1E
100
AcDbEntity
  8
7
100
AcDbLine
 10
1.89271653543307
 20
5.92027559055118
 30
0.0
 11
1.89271653543307
 21
5.919291338582676
 31
0.0
  0
LINE
  5
2F7C
330
1E
100
AcDbEntity
  8
7
100
AcDbLine
 10
1.83267716535433
 20
6.069881889763779
 30
0.0
 11
1.83267716535433
 21
6.070866141732283
 31
0.0
  0
LINE
  5
2F7D
330
1E
100
AcDbEntity
  8
7
100
AcDbLine
 10
1.83267716535433
 20
5.919291338582676
 30
0.0
 11
1.83267716535433
 21
5.92027559055118
 31
0.0
  0
LINE
  5
2F83
330
1E
100
AcDbEntity
  8
7
100
AcDbLine
 10
2.330708661417323
 20
6.08267716535433
 30
0.0
 11
2.330708661417323
 21
5.907480314960629
 31
0.0
  0
LINE
  5
2F89
330
1E
100
AcDbEntity
  8
7
100
AcDbLine
 10
2.331692913385826
 20
5.907480314960629
 30
0.0
 11
2.330708661417323
 21
5.907480314960629
 31
0.0
  0
LINE
  5
2F8A
330
1E
100
AcDbEntity
  8
7
100
AcDbLine
 10
2.330708661417323
 20
6.08267716535433
 30
0.0
 11
2.331692913385826
 21
6.08267716535433
 31
0.0
  0
LINE
  5
2F91
330
1E
100
AcDbEntity
  8
7
100
AcDbLine
 10
1.660433070866141
 20
5.025590551181101
 30
0.0
 11
1.748031496062992
 21
5.025590551181101
 31
0.0
  0
LINE
  5
2F92
330
1E
100
AcDbEntity
  8
7
100
AcDbLine
 10
2.06496062992126
 20
5.025590551181101
 30
0.0
 11
1.977362204724409
 21
5.025590551181101
 31
0.0
  0
LINE
  5
2F93
330
1E
100
AcDbEntity
  8
7
100
AcDbLine
 10
1.748031496062992
 20
5.025590551181101
 30
0.0
 11
1.748031496062992
 21
5.039370078740157
 31
0.0
  0
LINE
  5
2F94
330
1E
100
AcDbEntity
  8
7
100
AcDbLine
 10
1.660433070866141
 20
5.025590551181101
 30
0.0
 11
1.660433070866141
 21
5.039370078740157
 31
0.0
  0
LINE
  5
2F95
330
1E
100
AcDbEntity
  8
7
100
AcDbLine
 10
2.06496062992126
 20
5.025590551181101
 30
0.0
 11
2.06496062992126
 21
5.039370078740157
 31
0.0
  0
LINE
  5
2F96
330
1E
100
AcDbEntity
  8
7
100
AcDbLine
 10
1.977362204724409
 20
5.025590551181101
 30
0.0
 11
1.977362204724409
 21
5.039370078740157
 31
0.0
  0
LINE
  5
2F97
330
1E
100
AcDbEntity
  8
7
100
AcDbLine
 10
2.068897637795275
 20
5.167322834645669
 30
0.0
 11
2.02755905511811
 21
5.167322834645669
 31
0.0
  0
LINE
  5
2F98
330
1E
100
AcDbEntity
  8
7
100
AcDbLine
 10
2.068897637795275
 20
5.167322834645669
 30
0.0
 11
2.072834645669291
 21
5.171259842519685
 31
0.0
  0
LINE
  5
2F99
330
1E
100
AcDbEntity
  8
7
100
AcDbLine
 10
2.072834645669291
 20
5.191929133858267
 30
0.0
 11
2.068897637795275
 21
5.194881889763779
 31
0.0
  0
LINE
  5
2F9A
330
1E
100
AcDbEntity
  8
7
100
AcDbLine
 10
2.02755905511811
 20
5.194881889763779
 30
0.0
 11
2.068897637795275
 21
5.194881889763779
 31
0.0
  0
LINE
  5
2F9B
330
1E
100
AcDbEntity
  8
7
100
AcDbLine
 10
1.750984251968503
 20
5.167322834645669
 30
0.0
 11
1.709645669291338
 21
5.167322834645669
 31
0.0
  0
LINE
  5
2F9C
330
1E
100
AcDbEntity
  8
7
100
AcDbLine
 10
1.750984251968503
 20
5.167322834645669
 30
0.0
 11
1.754921259842519
 21
5.171259842519685
 31
0.0
  0
LINE
  5
2F9D
330
1E
100
AcDbEntity
  8
7
100
AcDbLine
 10
1.754921259842519
 20
5.191929133858267
 30
0.0
 11
1.750984251968503
 21
5.194881889763779
 31
0.0
  0
LINE
  5
2F9E
330
1E
100
AcDbEntity
  8
7
100
AcDbLine
 10
1.709645669291338
 20
5.194881889763779
 30
0.0
 11
1.750984251968503
 21
5.194881889763779
 31
0.0
  0
LINE
  5
2F9F
330
1E
100
AcDbEntity
  8
7
100
AcDbLine
 10
1.755905511811023
 20
5.037401574803149
 30
0.0
 11
1.755905511811023
 21
5.020669291338582
 31
0.0
  0
LINE
  5
2FA5
330
1E
100
AcDbEntity
  8
7
100
AcDbLine
 10
1.755905511811023
 20
5.020669291338582
 30
0.0
 11
1.754921259842519
 21
5.039370078740157
 31
0.0
  0
LINE
  5
2FAB
330
1E
100
AcDbEntity
  8
7
100
AcDbLine
 10
1.754921259842519
 20
5.039370078740157
 30
0.0
 11
1.65255905511811
 21
5.039370078740157
 31
0.0
  0
LINE
  5
2FAC
330
1E
100
AcDbEntity
  8
7
100
AcDbLine
 10
2.072834645669291
 20
5.040354330708661
 30
0.0
 11
2.072834645669291
 21
5.039370078740157
 31
0.0
  0
LINE
  5
2FAD
330
1E
100
AcDbEntity
  8
7
100
AcDbLine
 10
1.969488188976377
 20
5.040354330708661
 30
0.0
 11
2.072834645669291
 21
5.040354330708661
 31
0.0
  0
LINE
  5
2FB3
330
1E
100
AcDbEntity
  8
7
100
AcDbLine
 10
1.969488188976377
 20
5.037401574803149
 30
0.0
 11
1.969488188976377
 21
5.040354330708661
 31
0.0
  0
LINE
  5
2FB9
330
1E
100
AcDbEntity
  8
7
100
AcDbLine
 10
1.755905511811023
 20
5.037401574803149
 30
0.0
 11
1.969488188976377
 21
5.037401574803149
 31
0.0
  0
LINE
  5
2FBA
330
1E
100
AcDbEntity
  8
7
100
AcDbLine
 10
1.969488188976377
 20
5.020669291338582
 30
0.0
 11
1.755905511811023
 21
5.020669291338582
 31
0.0
  0
LINE
  5
2FBB
330
1E
100
AcDbEntity
  8
7
100
AcDbLine
 10
1.651574803149606
 20
5.037401574803149
 30
0.0
 11
1.651574803149606
 21
5.040354330708661
 31
0.0
  0
LINE
  5
2FBC
330
1E
100
AcDbEntity
  8
7
100
AcDbLine
 10
1.65255905511811
 20
5.020669291338582
 30
0.0
 11
1.65255905511811
 21
5.039370078740157
 31
0.0
  0
LINE
  5
2FBD
330
1E
100
AcDbEntity
  8
7
100
AcDbLine
 10
2.072834645669291
 20
5.020669291338582
 30
0.0
 11
2.072834645669291
 21
5.039370078740157
 31
0.0
  0
LINE
  5
2FBE
330
1E
100
AcDbEntity
  8
7
100
AcDbLine
 10
2.072834645669291
 20
5.037401574803149
 30
0.0
 11
2.072834645669291
 21
5.040354330708661
 31
0.0
  0
LINE
  5
2FBF
330
1E
100
AcDbEntity
  8
7
100
AcDbLine
 10
2.068897637795275
 20
5.194881889763779
 30
0.0
 11
2.068897637795275
 21
5.204724409448818
 31
0.0
  0
LINE
  5
2FC0
330
1E
100
AcDbEntity
  8
7
100
AcDbLine
 10
1.750984251968503
 20
5.194881889763779
 30
0.0
 11
1.750984251968503
 21
5.204724409448818
 31
0.0
  0
LINE
  5
2FCD
330
1E
100
AcDbEntity
  8
7
100
AcDbLine
 10
1.809055118110236
 20
4.324803149606299
 30
0.0
 11
1.915354330708661
 21
4.324803149606299
 31
0.0
  0
LINE
  5
2FCE
330
1E
100
AcDbEntity
  8
7
100
AcDbLine
 10
1.809055118110236
 20
4.384842519685038
 30
0.0
 11
1.915354330708661
 21
4.384842519685038
 31
0.0
  0
LINE
  5
2FCF
330
1E
100
AcDbEntity
  8
7
100
AcDbLine
 10
1.910433070866141
 20
4.320866141732283
 30
0.0
 11
1.814960629921259
 21
4.320866141732283
 31
0.0
  0
LINE
  5
2FD5
330
1E
100
AcDbEntity
  8
7
100
AcDbLine
 10
1.89271653543307
 20
4.315944881889763
 30
0.0
 11
1.83267716535433
 21
4.315944881889763
 31
0.0
  0
LINE
  5
2FD6
330
1E
100
AcDbEntity
  8
7
100
AcDbLine
 10
1.89271653543307
 20
4.316929133858267
 30
0.0
 11
1.901574803149606
 21
4.317913385826771
 31
0.0
  0
LINE
  5
2FD7
330
1E
100
AcDbEntity
  8
7
100
AcDbLine
 10
1.901574803149606
 20
4.317913385826771
 30
0.0
 11
1.910433070866141
 21
4.321850393700787
 31
0.0
  0
LINE
  5
2FD8
330
1E
100
AcDbEntity
  8
7
100
AcDbLine
 10
1.809055118110236
 20
4.324803149606299
 30
0.0
 11
1.814960629921259
 21
4.320866141732283
 31
0.0
  0
LINE
  5
2FD9
330
1E
100
AcDbEntity
  8
7
100
AcDbLine
 10
1.910433070866141
 20
4.320866141732283
 30
0.0
 11
1.915354330708661
 21
4.324803149606299
 31
0.0
  0
LINE
  5
2FDF
330
1E
100
AcDbEntity
  8
7
100
AcDbLine
 10
1.915354330708661
 20
4.384842519685038
 30
0.0
 11
1.910433070866141
 21
4.38779527559055
 31
0.0
  0
LINE
  5
2FEA
330
1E
100
AcDbEntity
  8
7
100
AcDbLine
 10
1.89271653543307
 20
4.39271653543307
 30
0.0
 11
1.83267716535433
 21
4.39271653543307
 31
0.0
  0
LINE
  5
2FF0
330
1E
100
AcDbEntity
  8
7
100
AcDbLine
 10
1.928149606299212
 20
4.36515748031496
 30
0.0
 11
1.915354330708661
 21
4.383858267716535
 31
0.0
  0
LINE
  5
3003
330
1E
100
AcDbEntity
  8
7
100
AcDbLine
 10
1.89271653543307
 20
4.315944881889763
 30
0.0
 11
1.83267716535433
 21
4.315944881889763
 31
0.0
  0
LINE
  5
3010
330
1E
100
AcDbEntity
  8
7
100
AcDbLine
 10
1.89271653543307
 20
4.39271653543307
 30
0.0
 11
1.83267716535433
 21
4.39271653543307
 31
0.0
  0
LINE
  5
3011
330
1E
100
AcDbEntity
  8
7
100
AcDbLine
 10
1.83267716535433
 20
4.429133858267716
 30
0.0
 11
1.89271653543307
 21
4.429133858267716
 31
0.0
  0
LINE
  5
3021
330
1E
100
AcDbEntity
  8
7
100
AcDbLine
 10
1.89271653543307
 20
4.279527559055117
 30
0.0
 11
1.83267716535433
 21
4.279527559055117
 31
0.0
  0
LINE
  5
3031
330
1E
100
AcDbEntity
  8
7
100
AcDbLine
 10
1.83267716535433
 20
4.43011811023622
 30
0.0
 11
1.83267716535433
 21
4.429133858267716
 31
0.0
  0
LINE
  5
305B
330
1E
100
AcDbEntity
  8
7
100
AcDbLine
 10
1.426181102362204
 20
4.456692913385826
 30
0.0
 11
1.426181102362204
 21
4.251968503937007
 31
0.0
  0
LINE
  5
305C
330
1E
100
AcDbEntity
  8
7
100
AcDbLine
 10
2.299212598425197
 20
4.456692913385826
 30
0.0
 11
2.299212598425197
 21
4.251968503937007
 31
0.0
  0
LINE
  5
305D
330
1E
100
AcDbEntity
  8
7
100
AcDbLine
 10
1.426181102362204
 20
4.251968503937007
 30
0.0
 11
1.4251968503937
 21
4.251968503937007
 31
0.0
  0
LINE
  5
305E
330
1E
100
AcDbEntity
  8
7
100
AcDbLine
 10
2.299212598425197
 20
4.251968503937007
 30
0.0
 11
2.3001968503937
 21
4.251968503937007
 31
0.0
  0
LINE
  5
3069
330
1E
100
AcDbEntity
  8
7
100
AcDbLine
 10
1.410433070866141
 20
4.251968503937007
 30
0.0
 11
1.4251968503937
 21
4.251968503937007
 31
0.0
  0
LINE
  5
3074
330
1E
100
AcDbEntity
  8
7
100
AcDbLine
 10
2.299212598425197
 20
4.456692913385826
 30
0.0
 11
2.3001968503937
 21
4.45767716535433
 31
0.0
  0
LINE
  5
3075
330
1E
100
AcDbEntity
  8
7
100
AcDbLine
 10
2.299212598425197
 20
4.251968503937007
 30
0.0
 11
1.426181102362204
 21
4.251968503937007
 31
0.0
  0
LINE
  5
3076
330
1E
100
AcDbEntity
  8
7
100
AcDbLine
 10
1.426181102362204
 20
4.456692913385826
 30
0.0
 11
2.299212598425197
 21
4.456692913385826
 31
0.0
  0
LINE
  5
3085
330
1E
100
AcDbEntity
  8
7
100
AcDbLine
 10
1.191929133858267
 20
4.05511811023622
 30
0.0
 11
1.206692913385826
 21
4.051181102362204
 31
0.0
  0
LINE
  5
3086
330
1E
100
AcDbEntity
  8
7
100
AcDbLine
 10
1.394685039370078
 20
4.441929133858267
 30
0.0
 11
1.393700787401574
 21
4.441929133858267
 31
0.0
  0
LINE
  5
3087
330
1E
100
AcDbEntity
  8
7
100
AcDbLine
 10
1.409448818897637
 20
4.45767716535433
 30
0.0
 11
1.410433070866141
 21
4.45767716535433
 31
0.0
  0
LINE
  5
3088
330
1E
100
AcDbEntity
  8
7
100
AcDbLine
 10
1.393700787401574
 20
4.266732283464566
 30
0.0
 11
1.394685039370078
 21
4.26771653543307
 31
0.0
  0
LINE
  5
3089
330
1E
100
AcDbEntity
  8
7
100
AcDbLine
 10
1.410433070866141
 20
4.251968503937007
 30
0.0
 11
1.409448818897637
 21
4.251968503937007
 31
0.0
  0
LINE
  5
308A
330
1E
100
AcDbEntity
  8
7
100
AcDbLine
 10
2.315944881889763
 20
4.251968503937007
 30
0.0
 11
2.31496062992126
 21
4.251968503937007
 31
0.0
  0
LINE
  5
308B
330
1E
100
AcDbEntity
  8
7
100
AcDbLine
 10
2.330708661417323
 20
4.26771653543307
 30
0.0
 11
2.331692913385826
 21
4.266732283464566
 31
0.0
  0
LINE
  5
308C
330
1E
100
AcDbEntity
  8
7
100
AcDbLine
 10
2.331692913385826
 20
4.441929133858267
 30
0.0
 11
2.330708661417323
 21
4.441929133858267
 31
0.0
  0
LINE
  5
308D
330
1E
100
AcDbEntity
  8
7
100
AcDbLine
 10
2.31496062992126
 20
4.45767716535433
 30
0.0
 11
2.315944881889763
 21
4.45767716535433
 31
0.0
  0
LINE
  5
308E
330
1E
100
AcDbEntity
  8
7
100
AcDbLine
 10
2.518700787401574
 20
4.051181102362204
 30
0.0
 11
1.206692913385826
 21
4.051181102362204
 31
0.0
  0
LINE
  5
309B
330
1E
100
AcDbEntity
  8
7
100
AcDbLine
 10
1.206692913385826
 20
4.051181102362204
 30
0.0
 11
1.204724409448818
 21
4.0501968503937
 31
0.0
  0
LINE
  5
30A8
330
1E
100
AcDbEntity
  8
7
100
AcDbLine
 10
2.225393700787401
 20
5.089566929133858
 30
0.0
 11
2.202755905511811
 21
5.09251968503937
 31
0.0
  0
LINE
  5
30BA
330
1E
100
AcDbEntity
  8
7
100
AcDbLine
 10
1.482283464566929
 20
5.054133858267716
 30
0.0
 11
1.476377952755905
 21
5.070866141732283
 31
0.0
  0
LINE
  5
30BB
330
1E
100
AcDbEntity
  8
7
100
AcDbLine
 10
4.469488188976377
 20
4.851377952755905
 30
0.0
 11
4.571850393700787
 21
4.968503937007874
 31
0.0
  0
LINE
  5
30BC
330
1E
100
AcDbEntity
  8
7
100
AcDbLine
 10
4.33267716535433
 20
4.163385826771653
 30
0.0
 11
4.33267716535433
 21
6.186023622047243
 31
0.0
  0
LINE
  5
30BD
330
1E
100
AcDbEntity
  8
7
100
AcDbLine
 10
4.469488188976377
 20
4.079724409448818
 30
0.0
 11
4.469488188976377
 21
6.269685039370078
 31
0.0
  0
LINE
  5
30C3
330
1E
100
AcDbEntity
  8
7
100
AcDbLine
 10
4.469488188976377
 20
4.054133858267716
 30
0.0
 11
4.469488188976377
 21
4.0501968503937
 31
0.0
  0
LINE
  5
30CF
330
1E
100
AcDbEntity
  8
7
100
AcDbLine
 10
4.469488188976377
 20
6.269685039370078
 30
0.0
 11
4.438976377952756
 21
6.268700787401574
 31
0.0
  0
LINE
  5
30E2
330
1E
100
AcDbEntity
  8
7
100
AcDbLine
 10
4.33267716535433
 20
4.764763779527559
 30
0.0
 11
4.059055118110236
 21
5.037401574803149
 31
0.0
  0
LINE
  5
30E8
330
1E
100
AcDbEntity
  8
7
100
AcDbLine
 10
4.051181102362204
 20
5.09251968503937
 30
0.0
 11
4.33267716535433
 21
5.618110236220472
 31
0.0
  0
LINE
  5
30E9
330
1E
100
AcDbEntity
  8
7
100
AcDbLine
 10
4.438976377952756
 20
6.298228346456692
 30
0.0
 11
4.411417322834645
 21
6.293307086614173
 31
0.0
  0
LINE
  5
30F2
330
1E
100
AcDbEntity
  8
7
100
AcDbLine
 10
4.438976377952756
 20
6.298228346456692
 30
0.0
 11
4.469488188976377
 21
6.3001968503937
 31
0.0
  0
LINE
  5
30FF
330
1E
100
AcDbEntity
  8
7
100
AcDbLine
 10
4.510826771653543
 20
4.952755905511811
 30
0.0
 11
4.469488188976377
 21
4.909448818897637
 31
0.0
  0
LINE
  5
3100
330
1E
100
AcDbEntity
  8
7
100
AcDbLine
 10
4.510826771653543
 20
4.956692913385826
 30
0.0
 11
4.510826771653543
 21
4.952755905511811
 31
0.0
  0
LINE
  5
3101
330
1E
100
AcDbEntity
  8
7
100
AcDbLine
 10
4.503937007874015
 20
4.963582677165354
 30
0.0
 11
4.510826771653543
 21
4.956692913385826
 31
0.0
  0
LINE
  5
3102
330
1E
100
AcDbEntity
  8
7
100
AcDbLine
 10
4.486220472440945
 20
4.972440944881889
 30
0.0
 11
4.503937007874015
 21
4.963582677165354
 31
0.0
  0
LINE
  5
3103
330
1E
100
AcDbEntity
  8
7
100
AcDbLine
 10
4.486220472440945
 20
4.972440944881889
 30
0.0
 11
4.48523622047244
 21
4.973425196850393
 31
0.0
  0
LINE
  5
3104
330
1E
100
AcDbEntity
  8
7
100
AcDbLine
 10
4.481299212598425
 20
4.977362204724409
 30
0.0
 11
4.48523622047244
 21
4.973425196850393
 31
0.0
  0
LINE
  5
3105
330
1E
100
AcDbEntity
  8
7
100
AcDbLine
 10
4.481299212598425
 20
4.977362204724409
 30
0.0
 11
4.498031496062992
 21
4.991141732283464
 31
0.0
  0
LINE
  5
3106
330
1E
100
AcDbEntity
  8
7
100
AcDbLine
 10
4.562992125984251
 20
4.989173228346456
 30
0.0
 11
4.498031496062992
 21
4.991141732283464
 31
0.0
  0
LINE
  5
312B
330
1E
100
AcDbEntity
  8
7
100
AcDbLine
 10
4.469488188976377
 20
4.0501968503937
 30
0.0
 11
4.438976377952756
 21
4.051181102362204
 31
0.0
  0
LINE
  5
312C
330
1E
100
AcDbEntity
  8
7
100
AcDbLine
 10
4.509842519685039
 20
4.882874015748031
 30
0.0
 11
4.509842519685039
 21
4.889763779527559
 31
0.0
  0
LINE
  5
312D
330
1E
100
AcDbEntity
  8
7
100
AcDbLine
 10
4.509842519685039
 20
4.882874015748031
 30
0.0
 11
4.469488188976377
 21
4.839566929133858
 31
0.0
  0
LINE
  5
3134
330
1E
100
AcDbEntity
  8
7
100
AcDbLine
 10
4.505905511811024
 20
4.89271653543307
 30
0.0
 11
4.509842519685039
 21
4.889763779527559
 31
0.0
  0
LINE
  5
34DD
330
1E
100
AcDbEntity
  8
7
100
AcDbLine
 10
4.091535433070866
 20
5.070866141732283
 30
0.0
 11
4.074803149606299
 21
5.054133858267716
 31
0.0
  0
LINE
  5
34DE
330
1E
100
AcDbEntity
  8
7
100
AcDbLine
 10
4.074803149606299
 20
5.054133858267716
 30
0.0
 11
4.062992125984251
 21
5.042322834645669
 31
0.0
  0
LINE
  5
34DF
330
1E
100
AcDbEntity
  8
7
100
AcDbLine
 10
4.062992125984251
 20
5.042322834645669
 30
0.0
 11
4.059055118110236
 21
5.037401574803149
 31
0.0
  0
LINE
  5
34E0
330
1E
100
AcDbEntity
  8
7
100
AcDbLine
 10
4.091535433070866
 20
5.070866141732283
 30
0.0
 11
4.070866141732283
 21
5.081692913385826
 31
0.0
  0
LINE
  5
34E1
330
1E
100
AcDbEntity
  8
7
100
AcDbLine
 10
4.070866141732283
 20
5.081692913385826
 30
0.0
 11
4.056102362204724
 21
5.089566929133858
 31
0.0
  0
LINE
  5
34E2
330
1E
100
AcDbEntity
  8
7
100
AcDbLine
 10
4.056102362204724
 20
5.089566929133858
 30
0.0
 11
4.051181102362204
 21
5.09251968503937
 31
0.0
  0
LINE
  5
34E3
330
1E
100
AcDbEntity
  8
7
100
AcDbLine
 10
4.438976377952756
 20
4.051181102362204
 30
0.0
 11
4.437992125984251
 21
4.05511811023622
 31
0.0
  0
LINE
  5
34E4
330
1E
100
AcDbEntity
  8
7
100
AcDbLine
 10
4.437992125984251
 20
4.05511811023622
 30
0.0
 11
4.437992125984251
 21
4.066929133858267
 31
0.0
  0
LINE
  5
34E5
330
1E
100
AcDbEntity
  8
7
100
AcDbLine
 10
4.437992125984251
 20
4.066929133858267
 30
0.0
 11
4.438976377952756
 21
4.081692913385826
 31
0.0
  0
LINE
  5
34E6
330
1E
100
AcDbEntity
  8
7
100
AcDbLine
 10
4.411417322834645
 20
4.056102362204724
 30
0.0
 11
4.438976377952756
 21
4.051181102362204
 31
0.0
  0
LINE
  5
34E7
330
1E
100
AcDbEntity
  8
7
100
AcDbLine
 10
4.438976377952756
 20
4.051181102362204
 30
0.0
 11
4.411417322834645
 21
4.056102362204724
 31
0.0
  0
LINE
  5
34E8
330
1E
100
AcDbEntity
  8
7
100
AcDbLine
 10
4.411417322834645
 20
4.056102362204724
 30
0.0
 11
4.384842519685039
 21
4.068897637795275
 31
0.0
  0
LINE
  5
34E9
330
1E
100
AcDbEntity
  8
7
100
AcDbLine
 10
4.384842519685039
 20
4.068897637795275
 30
0.0
 11
4.363188976377952
 21
4.086614173228346
 31
0.0
  0
LINE
  5
34EA
330
1E
100
AcDbEntity
  8
7
100
AcDbLine
 10
4.363188976377952
 20
4.086614173228346
 30
0.0
 11
4.346456692913386
 21
4.109251968503937
 31
0.0
  0
LINE
  5
34EB
330
1E
100
AcDbEntity
  8
7
100
AcDbLine
 10
4.346456692913386
 20
4.109251968503937
 30
0.0
 11
4.335629921259842
 21
4.135826771653543
 31
0.0
  0
LINE
  5
34EC
330
1E
100
AcDbEntity
  8
7
100
AcDbLine
 10
4.335629921259842
 20
4.135826771653543
 30
0.0
 11
4.33267716535433
 21
4.163385826771653
 31
0.0
  0
LINE
  5
34ED
330
1E
100
AcDbEntity
  8
7
100
AcDbLine
 10
4.33267716535433
 20
4.163385826771653
 30
0.0
 11
4.335629921259842
 21
4.135826771653543
 31
0.0
  0
LINE
  5
34EE
330
1E
100
AcDbEntity
  8
7
100
AcDbLine
 10
4.335629921259842
 20
4.135826771653543
 30
0.0
 11
4.346456692913386
 21
4.109251968503937
 31
0.0
  0
LINE
  5
34EF
330
1E
100
AcDbEntity
  8
7
100
AcDbLine
 10
4.346456692913386
 20
4.109251968503937
 30
0.0
 11
4.363188976377952
 21
4.086614173228346
 31
0.0
  0
LINE
  5
34F0
330
1E
100
AcDbEntity
  8
7
100
AcDbLine
 10
4.363188976377952
 20
4.086614173228346
 30
0.0
 11
4.384842519685039
 21
4.068897637795275
 31
0.0
  0
LINE
  5
34F1
330
1E
100
AcDbEntity
  8
7
100
AcDbLine
 10
4.384842519685039
 20
4.068897637795275
 30
0.0
 11
4.411417322834645
 21
4.056102362204724
 31
0.0
  0
LINE
  5
34F2
330
1E
100
AcDbEntity
  8
7
100
AcDbLine
 10
4.051181102362204
 20
5.09251968503937
 30
0.0
 11
4.045275590551181
 21
5.073818897637795
 31
0.0
  0
LINE
  5
34F3
330
1E
100
AcDbEntity
  8
7
100
AcDbLine
 10
4.045275590551181
 20
5.073818897637795
 30
0.0
 11
4.048228346456692
 21
5.054133858267716
 31
0.0
  0
LINE
  5
34F4
330
1E
100
AcDbEntity
  8
7
100
AcDbLine
 10
4.048228346456692
 20
5.054133858267716
 30
0.0
 11
4.059055118110236
 21
5.038385826771653
 31
0.0
  0
LINE
  5
34F5
330
1E
100
AcDbEntity
  8
7
100
AcDbLine
 10
4.438976377952756
 20
6.268700787401574
 30
0.0
 11
4.437992125984251
 21
6.283464566929133
 31
0.0
  0
LINE
  5
34F6
330
1E
100
AcDbEntity
  8
7
100
AcDbLine
 10
4.437992125984251
 20
6.283464566929133
 30
0.0
 11
4.437992125984251
 21
6.294291338582676
 31
0.0
  0
LINE
  5
34F7
330
1E
100
AcDbEntity
  8
7
100
AcDbLine
 10
4.437992125984251
 20
6.294291338582676
 30
0.0
 11
4.438976377952756
 21
6.298228346456692
 31
0.0
  0
LINE
  5
34F8
330
1E
100
AcDbEntity
  8
7
100
AcDbLine
 10
4.562992125984251
 20
4.989173228346456
 30
0.0
 11
4.570866141732283
 21
4.986220472440944
 31
0.0
  0
LINE
  5
34F9
330
1E
100
AcDbEntity
  8
7
100
AcDbLine
 10
4.570866141732283
 20
4.986220472440944
 30
0.0
 11
4.574803149606299
 21
4.977362204724409
 31
0.0
  0
LINE
  5
34FA
330
1E
100
AcDbEntity
  8
7
100
AcDbLine
 10
4.574803149606299
 20
4.977362204724409
 30
0.0
 11
4.571850393700787
 21
4.968503937007874
 31
0.0
  0
LINE
  5
34FB
330
1E
100
AcDbEntity
  8
7
100
AcDbLine
 10
4.384842519685039
 20
6.281496062992125
 30
0.0
 11
4.411417322834645
 21
6.293307086614173
 31
0.0
  0
LINE
  5
34FC
330
1E
100
AcDbEntity
  8
7
100
AcDbLine
 10
4.411417322834645
 20
6.293307086614173
 30
0.0
 11
4.438976377952756
 21
6.298228346456692
 31
0.0
  0
LINE
  5
34FD
330
1E
100
AcDbEntity
  8
7
100
AcDbLine
 10
4.33267716535433
 20
6.186023622047243
 30
0.0
 11
4.335629921259842
 21
6.213582677165354
 31
0.0
  0
LINE
  5
34FE
330
1E
100
AcDbEntity
  8
7
100
AcDbLine
 10
4.335629921259842
 20
6.213582677165354
 30
0.0
 11
4.346456692913386
 21
6.24015748031496
 31
0.0
  0
LINE
  5
34FF
330
1E
100
AcDbEntity
  8
7
100
AcDbLine
 10
4.346456692913386
 20
6.24015748031496
 30
0.0
 11
4.363188976377952
 21
6.263779527559054
 31
0.0
  0
LINE
  5
3500
330
1E
100
AcDbEntity
  8
7
100
AcDbLine
 10
4.363188976377952
 20
6.263779527559054
 30
0.0
 11
4.384842519685039
 21
6.281496062992125
 31
0.0
  0
LINE
  5
3501
330
1E
100
AcDbEntity
  8
7
100
AcDbLine
 10
4.411417322834645
 20
6.293307086614173
 30
0.0
 11
4.384842519685039
 21
6.281496062992125
 31
0.0
  0
LINE
  5
3502
330
1E
100
AcDbEntity
  8
7
100
AcDbLine
 10
4.384842519685039
 20
6.281496062992125
 30
0.0
 11
4.363188976377952
 21
6.263779527559054
 31
0.0
  0
LINE
  5
3503
330
1E
100
AcDbEntity
  8
7
100
AcDbLine
 10
4.363188976377952
 20
6.263779527559054
 30
0.0
 11
4.346456692913386
 21
6.24015748031496
 31
0.0
  0
LINE
  5
3504
330
1E
100
AcDbEntity
  8
7
100
AcDbLine
 10
4.346456692913386
 20
6.24015748031496
 30
0.0
 11
4.335629921259842
 21
6.213582677165354
 31
0.0
  0
LINE
  5
3505
330
1E
100
AcDbEntity
  8
7
100
AcDbLine
 10
4.335629921259842
 20
6.213582677165354
 30
0.0
 11
4.33267716535433
 21
6.186023622047243
 31
0.0
  0
LINE
  5
3506
330
1E
100
AcDbEntity
  8
7
100
AcDbLine
 10
4.33267716535433
 20
5.520669291338582
 30
0.0
 11
4.091535433070866
 21
5.070866141732283
 31
0.0
  0
LINE
  5
3507
330
1E
100
AcDbEntity
  8
7
100
AcDbLine
 10
4.091535433070866
 20
5.070866141732283
 30
0.0
 11
4.33267716535433
 21
4.829724409448818
 31
0.0
  0
LINE
  5
3508
330
1E
100
AcDbEntity
  8
7
100
AcDbLine
 10
4.438976377952756
 20
6.268700787401574
 30
0.0
 11
4.411417322834645
 21
6.264763779527559
 31
0.0
  0
LINE
  5
3509
330
1E
100
AcDbEntity
  8
7
100
AcDbLine
 10
4.411417322834645
 20
6.264763779527559
 30
0.0
 11
4.384842519685039
 21
6.255905511811023
 31
0.0
  0
LINE
  5
350A
330
1E
100
AcDbEntity
  8
7
100
AcDbLine
 10
4.384842519685039
 20
6.255905511811023
 30
0.0
 11
4.363188976377952
 21
6.243110236220472
 31
0.0
  0
LINE
  5
350B
330
1E
100
AcDbEntity
  8
7
100
AcDbLine
 10
4.363188976377952
 20
6.243110236220472
 30
0.0
 11
4.346456692913386
 21
6.225393700787401
 31
0.0
  0
LINE
  5
350C
330
1E
100
AcDbEntity
  8
7
100
AcDbLine
 10
4.346456692913386
 20
6.225393700787401
 30
0.0
 11
4.335629921259842
 21
6.206692913385826
 31
0.0
  0
LINE
  5
350D
330
1E
100
AcDbEntity
  8
7
100
AcDbLine
 10
4.335629921259842
 20
6.206692913385826
 30
0.0
 11
4.33267716535433
 21
6.186023622047243
 31
0.0
  0
LINE
  5
350E
330
1E
100
AcDbEntity
  8
7
100
AcDbLine
 10
4.33267716535433
 20
4.163385826771653
 30
0.0
 11
4.335629921259842
 21
4.14271653543307
 31
0.0
  0
LINE
  5
350F
330
1E
100
AcDbEntity
  8
7
100
AcDbLine
 10
4.335629921259842
 20
4.14271653543307
 30
0.0
 11
4.346456692913386
 21
4.124015748031496
 31
0.0
  0
LINE
  5
3510
330
1E
100
AcDbEntity
  8
7
100
AcDbLine
 10
4.346456692913386
 20
4.124015748031496
 30
0.0
 11
4.363188976377952
 21
4.107283464566928
 31
0.0
  0
LINE
  5
3511
330
1E
100
AcDbEntity
  8
7
100
AcDbLine
 10
4.363188976377952
 20
4.107283464566928
 30
0.0
 11
4.384842519685039
 21
4.093503937007874
 31
0.0
  0
LINE
  5
3512
330
1E
100
AcDbEntity
  8
7
100
AcDbLine
 10
4.384842519685039
 20
4.093503937007874
 30
0.0
 11
4.411417322834645
 21
4.084645669291338
 31
0.0
  0
LINE
  5
3513
330
1E
100
AcDbEntity
  8
7
100
AcDbLine
 10
4.411417322834645
 20
4.084645669291338
 30
0.0
 11
4.438976377952756
 21
4.081692913385826
 31
0.0
  0
LINE
  5
3514
330
1E
100
AcDbEntity
  8
7
100
AcDbLine
 10
4.438976377952756
 20
6.268700787401574
 30
0.0
 11
4.438976377952756
 21
4.081692913385826
 31
0.0
  0
LINE
  5
3515
330
1E
100
AcDbEntity
  8
7
100
AcDbLine
 10
4.438976377952756
 20
4.081692913385826
 30
0.0
 11
4.469488188976377
 21
4.079724409448818
 31
0.0
  0
LINE
  5
3516
330
1E
100
AcDbEntity
  8
7
100
AcDbLine
 10
4.469488188976377
 20
6.3001968503937
 30
0.0
 11
4.469488188976377
 21
6.296259842519685
 31
0.0
  0
LINE
  5
3517
330
1E
100
AcDbEntity
  8
7
100
AcDbLine
 10
4.469488188976377
 20
6.296259842519685
 30
0.0
 11
4.469488188976377
 21
6.284448818897637
 31
0.0
  0
LINE
  5
3518
330
1E
100
AcDbEntity
  8
7
100
AcDbLine
 10
4.469488188976377
 20
6.284448818897637
 30
0.0
 11
4.469488188976377
 21
6.269685039370078
 31
0.0
  0
LINE
  5
3519
330
1E
100
AcDbEntity
  8
7
100
AcDbLine
 10
4.469488188976377
 20
4.079724409448818
 30
0.0
 11
4.469488188976377
 21
4.064960629921259
 31
0.0
  0
LINE
  5
351A
330
1E
100
AcDbEntity
  8
7
100
AcDbLine
 10
4.469488188976377
 20
4.064960629921259
 30
0.0
 11
4.469488188976377
 21
4.054133858267716
 31
0.0
  0
LINE
  5
351B
330
1E
100
AcDbEntity
  8
7
100
AcDbLine
 10
1.52263779527559
 20
5.037401574803149
 30
0.0
 11
1.5
 21
5.042322834645669
 31
0.0
  0
LINE
  5
351C
330
1E
100
AcDbEntity
  8
7
100
AcDbLine
 10
1.5
 20
5.042322834645669
 30
0.0
 11
1.482283464566929
 21
5.054133858267716
 31
0.0
  0
LINE
  5
351D
330
1E
100
AcDbEntity
  8
7
100
AcDbLine
 10
1.52263779527559
 20
5.09251968503937
 30
0.0
 11
1.5
 21
5.089566929133858
 31
0.0
  0
LINE
  5
351E
330
1E
100
AcDbEntity
  8
7
100
AcDbLine
 10
1.5
 20
5.089566929133858
 30
0.0
 11
1.482283464566929
 21
5.081692913385826
 31
0.0
  0
LINE
  5
351F
330
1E
100
AcDbEntity
  8
7
100
AcDbLine
 10
1.482283464566929
 20
5.081692913385826
 30
0.0
 11
1.476377952755905
 21
5.070866141732283
 31
0.0
  0
LINE
  5
3520
330
1E
100
AcDbEntity
  8
7
100
AcDbLine
 10
2.249015748031496
 20
5.070866141732283
 30
0.0
 11
2.242125984251968
 21
5.054133858267716
 31
0.0
  0
LINE
  5
3521
330
1E
100
AcDbEntity
  8
7
100
AcDbLine
 10
2.242125984251968
 20
5.054133858267716
 30
0.0
 11
2.225393700787401
 21
5.042322834645669
 31
0.0
  0
LINE
  5
3522
330
1E
100
AcDbEntity
  8
7
100
AcDbLine
 10
2.225393700787401
 20
5.042322834645669
 30
0.0
 11
2.202755905511811
 21
5.037401574803149
 31
0.0
  0
LINE
  5
3523
330
1E
100
AcDbEntity
  8
7
100
AcDbLine
 10
2.249015748031496
 20
5.070866141732283
 30
0.0
 11
2.242125984251968
 21
5.081692913385826
 31
0.0
  0
LINE
  5
3524
330
1E
100
AcDbEntity
  8
7
100
AcDbLine
 10
2.242125984251968
 20
5.081692913385826
 30
0.0
 11
2.225393700787401
 21
5.089566929133858
 31
0.0
  0
LINE
  5
3525
330
1E
100
AcDbEntity
  8
7
100
AcDbLine
 10
2.519685039370078
 20
4.0501968503937
 30
0.0
 11
2.518700787401574
 21
4.051181102362204
 31
0.0
  0
LINE
  5
3526
330
1E
100
AcDbEntity
  8
7
100
AcDbLine
 10
2.518700787401574
 20
4.051181102362204
 30
0.0
 11
2.533464566929133
 21
4.05511811023622
 31
0.0
  0
LINE
  5
3527
330
1E
100
AcDbEntity
  8
7
100
AcDbLine
 10
2.533464566929133
 20
4.05511811023622
 30
0.0
 11
2.544291338582677
 21
4.066929133858267
 31
0.0
  0
LINE
  5
3528
330
1E
100
AcDbEntity
  8
7
100
AcDbLine
 10
2.544291338582677
 20
4.066929133858267
 30
0.0
 11
2.548228346456693
 21
4.081692913385826
 31
0.0
  0
LINE
  5
3529
330
1E
100
AcDbEntity
  8
7
100
AcDbLine
 10
2.476377952755905
 20
4.109251968503937
 30
0.0
 11
2.456692913385826
 21
4.135826771653543
 31
0.0
  0
LINE
  5
352A
330
1E
100
AcDbEntity
  8
7
100
AcDbLine
 10
2.456692913385826
 20
4.135826771653543
 30
0.0
 11
2.436023622047244
 21
4.163385826771653
 31
0.0
  0
LINE
  5
352B
330
1E
100
AcDbEntity
  8
7
100
AcDbLine
 10
2.518700787401574
 20
4.051181102362204
 30
0.0
 11
2.514763779527559
 21
4.056102362204724
 31
0.0
  0
LINE
  5
352C
330
1E
100
AcDbEntity
  8
7
100
AcDbLine
 10
2.514763779527559
 20
4.056102362204724
 30
0.0
 11
2.505905511811023
 21
4.068897637795275
 31
0.0
  0
LINE
  5
352D
330
1E
100
AcDbEntity
  8
7
100
AcDbLine
 10
2.505905511811023
 20
4.068897637795275
 30
0.0
 11
2.493110236220472
 21
4.086614173228346
 31
0.0
  0
LINE
  5
352E
330
1E
100
AcDbEntity
  8
7
100
AcDbLine
 10
2.493110236220472
 20
4.086614173228346
 30
0.0
 11
2.476377952755905
 21
4.109251968503937
 31
0.0
  0
LINE
  5
352F
330
1E
100
AcDbEntity
  8
7
100
AcDbLine
 10
1.177165354330708
 20
4.081692913385826
 30
0.0
 11
1.181102362204724
 21
4.066929133858267
 31
0.0
  0
LINE
  5
3530
330
1E
100
AcDbEntity
  8
7
100
AcDbLine
 10
1.181102362204724
 20
4.066929133858267
 30
0.0
 11
1.191929133858267
 21
4.05511811023622
 31
0.0
  0
LINE
  5
3531
330
1E
100
AcDbEntity
  8
7
100
AcDbLine
 10
1.289370078740157
 20
4.163385826771653
 30
0.0
 11
1.268700787401574
 21
4.135826771653543
 31
0.0
  0
LINE
  5
3532
330
1E
100
AcDbEntity
  8
7
100
AcDbLine
 10
1.268700787401574
 20
4.135826771653543
 30
0.0
 11
1.249015748031496
 21
4.109251968503937
 31
0.0
  0
LINE
  5
3533
330
1E
100
AcDbEntity
  8
7
100
AcDbLine
 10
1.249015748031496
 20
4.109251968503937
 30
0.0
 11
1.232283464566929
 21
4.086614173228346
 31
0.0
  0
LINE
  5
3534
330
1E
100
AcDbEntity
  8
7
100
AcDbLine
 10
1.232283464566929
 20
4.086614173228346
 30
0.0
 11
1.219488188976378
 21
4.068897637795275
 31
0.0
  0
LINE
  5
3535
330
1E
100
AcDbEntity
  8
7
100
AcDbLine
 10
1.219488188976378
 20
4.068897637795275
 30
0.0
 11
1.210629921259842
 21
4.056102362204724
 31
0.0
  0
LINE
  5
3536
330
1E
100
AcDbEntity
  8
7
100
AcDbLine
 10
1.210629921259842
 20
4.056102362204724
 30
0.0
 11
1.206692913385826
 21
4.051181102362204
 31
0.0
  0
LINE
  5
3537
330
1E
100
AcDbEntity
  8
7
100
AcDbLine
 10
2.3001968503937
 20
4.251968503937007
 30
0.0
 11
2.31496062992126
 21
4.251968503937007
 31
0.0
  0
LINE
  5
3538
330
1E
100
AcDbEntity
  8
7
100
AcDbLine
 10
2.31496062992126
 20
4.251968503937007
 30
0.0
 11
2.325787401574803
 21
4.256889763779527
 31
0.0
  0
LINE
  5
3539
330
1E
100
AcDbEntity
  8
7
100
AcDbLine
 10
2.325787401574803
 20
4.256889763779527
 30
0.0
 11
2.330708661417323
 21
4.26771653543307
 31
0.0
  0
LINE
  5
353A
330
1E
100
AcDbEntity
  8
7
100
AcDbLine
 10
2.330708661417323
 20
4.26771653543307
 30
0.0
 11
2.330708661417323
 21
4.441929133858267
 31
0.0
  0
LINE
  5
353B
330
1E
100
AcDbEntity
  8
7
100
AcDbLine
 10
2.330708661417323
 20
4.441929133858267
 30
0.0
 11
2.325787401574803
 21
4.452755905511811
 31
0.0
  0
LINE
  5
353C
330
1E
100
AcDbEntity
  8
7
100
AcDbLine
 10
2.325787401574803
 20
4.452755905511811
 30
0.0
 11
2.31496062992126
 21
4.45767716535433
 31
0.0
  0
LINE
  5
353D
330
1E
100
AcDbEntity
  8
7
100
AcDbLine
 10
2.31496062992126
 20
4.45767716535433
 30
0.0
 11
2.3001968503937
 21
4.45767716535433
 31
0.0
  0
LINE
  5
353E
330
1E
100
AcDbEntity
  8
7
100
AcDbLine
 10
1.426181102362204
 20
4.456692913385826
 30
0.0
 11
1.4251968503937
 21
4.45767716535433
 31
0.0
  0
LINE
  5
353F
330
1E
100
AcDbEntity
  8
7
100
AcDbLine
 10
1.4251968503937
 20
4.45767716535433
 30
0.0
 11
1.410433070866141
 21
4.45767716535433
 31
0.0
  0
LINE
  5
3540
330
1E
100
AcDbEntity
  8
7
100
AcDbLine
 10
1.410433070866141
 20
4.45767716535433
 30
0.0
 11
1.399606299212598
 21
4.452755905511811
 31
0.0
  0
LINE
  5
3541
330
1E
100
AcDbEntity
  8
7
100
AcDbLine
 10
1.399606299212598
 20
4.452755905511811
 30
0.0
 11
1.394685039370078
 21
4.441929133858267
 31
0.0
  0
LINE
  5
3542
330
1E
100
AcDbEntity
  8
7
100
AcDbLine
 10
1.394685039370078
 20
4.441929133858267
 30
0.0
 11
1.394685039370078
 21
4.26771653543307
 31
0.0
  0
LINE
  5
3543
330
1E
100
AcDbEntity
  8
7
100
AcDbLine
 10
1.394685039370078
 20
4.26771653543307
 30
0.0
 11
1.399606299212598
 21
4.256889763779527
 31
0.0
  0
LINE
  5
3544
330
1E
100
AcDbEntity
  8
7
100
AcDbLine
 10
1.399606299212598
 20
4.256889763779527
 30
0.0
 11
1.410433070866141
 21
4.251968503937007
 31
0.0
  0
LINE
  5
3545
330
1E
100
AcDbEntity
  8
7
100
AcDbLine
 10
1.89271653543307
 20
4.429133858267716
 30
0.0
 11
1.89271653543307
 21
4.43011811023622
 31
0.0
  0
LINE
  5
3546
330
1E
100
AcDbEntity
  8
7
100
AcDbLine
 10
1.89271653543307
 20
4.43011811023622
 30
0.0
 11
1.83267716535433
 21
4.43011811023622
 31
0.0
  0
LINE
  5
3547
330
1E
100
AcDbEntity
  8
7
100
AcDbLine
 10
1.940944881889763
 20
4.296259842519685
 30
0.0
 11
1.958661417322834
 21
4.315944881889763
 31
0.0
  0
LINE
  5
3548
330
1E
100
AcDbEntity
  8
7
100
AcDbLine
 10
1.958661417322834
 20
4.315944881889763
 30
0.0
 11
1.96751968503937
 21
4.341535433070865
 31
0.0
  0
LINE
  5
3549
330
1E
100
AcDbEntity
  8
7
100
AcDbLine
 10
1.96751968503937
 20
4.341535433070865
 30
0.0
 11
1.96751968503937
 21
4.367125984251968
 31
0.0
  0
LINE
  5
354A
330
1E
100
AcDbEntity
  8
7
100
AcDbLine
 10
1.96751968503937
 20
4.367125984251968
 30
0.0
 11
1.958661417322834
 21
4.391732283464566
 31
0.0
  0
LINE
  5
354B
330
1E
100
AcDbEntity
  8
7
100
AcDbLine
 10
1.958661417322834
 20
4.391732283464566
 30
0.0
 11
1.940944881889763
 21
4.412401574803149
 31
0.0
  0
LINE
  5
354C
330
1E
100
AcDbEntity
  8
7
100
AcDbLine
 10
1.940944881889763
 20
4.412401574803149
 30
0.0
 11
1.918307086614173
 21
4.4251968503937
 31
0.0
  0
LINE
  5
354D
330
1E
100
AcDbEntity
  8
7
100
AcDbLine
 10
1.918307086614173
 20
4.4251968503937
 30
0.0
 11
1.89271653543307
 21
4.43011811023622
 31
0.0
  0
LINE
  5
354E
330
1E
100
AcDbEntity
  8
7
100
AcDbLine
 10
1.89271653543307
 20
4.278543307086613
 30
0.0
 11
1.918307086614173
 21
4.283464566929133
 31
0.0
  0
LINE
  5
354F
330
1E
100
AcDbEntity
  8
7
100
AcDbLine
 10
1.918307086614173
 20
4.283464566929133
 30
0.0
 11
1.940944881889763
 21
4.296259842519685
 31
0.0
  0
LINE
  5
3550
330
1E
100
AcDbEntity
  8
7
100
AcDbLine
 10
1.83267716535433
 20
4.279527559055117
 30
0.0
 11
1.83267716535433
 21
4.278543307086613
 31
0.0
  0
LINE
  5
3551
330
1E
100
AcDbEntity
  8
7
100
AcDbLine
 10
1.83267716535433
 20
4.278543307086613
 30
0.0
 11
1.89271653543307
 21
4.278543307086613
 31
0.0
  0
LINE
  5
3552
330
1E
100
AcDbEntity
  8
7
100
AcDbLine
 10
1.89271653543307
 20
4.278543307086613
 30
0.0
 11
1.89271653543307
 21
4.279527559055117
 31
0.0
  0
LINE
  5
3553
330
1E
100
AcDbEntity
  8
7
100
AcDbLine
 10
1.766732283464566
 20
4.39271653543307
 30
0.0
 11
1.757874015748031
 21
4.367125984251968
 31
0.0
  0
LINE
  5
3554
330
1E
100
AcDbEntity
  8
7
100
AcDbLine
 10
1.757874015748031
 20
4.367125984251968
 30
0.0
 11
1.757874015748031
 21
4.341535433070865
 31
0.0
  0
LINE
  5
3555
330
1E
100
AcDbEntity
  8
7
100
AcDbLine
 10
1.757874015748031
 20
4.341535433070865
 30
0.0
 11
1.766732283464566
 21
4.316929133858267
 31
0.0
  0
LINE
  5
3556
330
1E
100
AcDbEntity
  8
7
100
AcDbLine
 10
1.766732283464566
 20
4.316929133858267
 30
0.0
 11
1.784448818897637
 21
4.296259842519685
 31
0.0
  0
LINE
  5
3557
330
1E
100
AcDbEntity
  8
7
100
AcDbLine
 10
1.784448818897637
 20
4.296259842519685
 30
0.0
 11
1.807086614173228
 21
4.283464566929133
 31
0.0
  0
LINE
  5
3558
330
1E
100
AcDbEntity
  8
7
100
AcDbLine
 10
1.807086614173228
 20
4.283464566929133
 30
0.0
 11
1.83267716535433
 21
4.278543307086613
 31
0.0
  0
LINE
  5
3559
330
1E
100
AcDbEntity
  8
7
100
AcDbLine
 10
1.83267716535433
 20
4.43011811023622
 30
0.0
 11
1.807086614173228
 21
4.4251968503937
 31
0.0
  0
LINE
  5
355A
330
1E
100
AcDbEntity
  8
7
100
AcDbLine
 10
1.807086614173228
 20
4.4251968503937
 30
0.0
 11
1.784448818897637
 21
4.412401574803149
 31
0.0
  0
LINE
  5
355B
330
1E
100
AcDbEntity
  8
7
100
AcDbLine
 10
1.784448818897637
 20
4.412401574803149
 30
0.0
 11
1.766732283464566
 21
4.39271653543307
 31
0.0
  0
LINE
  5
355C
330
1E
100
AcDbEntity
  8
7
100
AcDbLine
 10
1.966535433070865
 20
4.341535433070865
 30
0.0
 11
1.966535433070865
 21
4.367125984251968
 31
0.0
  0
LINE
  5
355D
330
1E
100
AcDbEntity
  8
7
100
AcDbLine
 10
1.966535433070865
 20
4.367125984251968
 30
0.0
 11
1.95767716535433
 21
4.391732283464566
 31
0.0
  0
LINE
  5
355E
330
1E
100
AcDbEntity
  8
7
100
AcDbLine
 10
1.95767716535433
 20
4.391732283464566
 30
0.0
 11
1.940944881889763
 21
4.411417322834645
 31
0.0
  0
LINE
  5
355F
330
1E
100
AcDbEntity
  8
7
100
AcDbLine
 10
1.940944881889763
 20
4.411417322834645
 30
0.0
 11
1.918307086614173
 21
4.424212598425196
 31
0.0
  0
LINE
  5
3560
330
1E
100
AcDbEntity
  8
7
100
AcDbLine
 10
1.918307086614173
 20
4.424212598425196
 30
0.0
 11
1.89271653543307
 21
4.429133858267716
 31
0.0
  0
LINE
  5
3561
330
1E
100
AcDbEntity
  8
7
100
AcDbLine
 10
1.89271653543307
 20
4.279527559055117
 30
0.0
 11
1.918307086614173
 21
4.284448818897637
 31
0.0
  0
LINE
  5
3562
330
1E
100
AcDbEntity
  8
7
100
AcDbLine
 10
1.918307086614173
 20
4.284448818897637
 30
0.0
 11
1.940944881889763
 21
4.297244094488188
 31
0.0
  0
LINE
  5
3563
330
1E
100
AcDbEntity
  8
7
100
AcDbLine
 10
1.940944881889763
 20
4.297244094488188
 30
0.0
 11
1.95767716535433
 21
4.316929133858267
 31
0.0
  0
LINE
  5
3564
330
1E
100
AcDbEntity
  8
7
100
AcDbLine
 10
1.95767716535433
 20
4.316929133858267
 30
0.0
 11
1.966535433070865
 21
4.341535433070865
 31
0.0
  0
LINE
  5
3565
330
1E
100
AcDbEntity
  8
7
100
AcDbLine
 10
1.758858267716535
 20
4.367125984251968
 30
0.0
 11
1.758858267716535
 21
4.341535433070865
 31
0.0
  0
LINE
  5
3566
330
1E
100
AcDbEntity
  8
7
100
AcDbLine
 10
1.758858267716535
 20
4.341535433070865
 30
0.0
 11
1.76771653543307
 21
4.316929133858267
 31
0.0
  0
LINE
  5
3567
330
1E
100
AcDbEntity
  8
7
100
AcDbLine
 10
1.76771653543307
 20
4.316929133858267
 30
0.0
 11
1.784448818897637
 21
4.297244094488188
 31
0.0
  0
LINE
  5
3568
330
1E
100
AcDbEntity
  8
7
100
AcDbLine
 10
1.784448818897637
 20
4.297244094488188
 30
0.0
 11
1.807086614173228
 21
4.284448818897637
 31
0.0
  0
LINE
  5
3569
330
1E
100
AcDbEntity
  8
7
100
AcDbLine
 10
1.807086614173228
 20
4.284448818897637
 30
0.0
 11
1.83267716535433
 21
4.279527559055117
 31
0.0
  0
LINE
  5
356A
330
1E
100
AcDbEntity
  8
7
100
AcDbLine
 10
1.83267716535433
 20
4.429133858267716
 30
0.0
 11
1.807086614173228
 21
4.424212598425196
 31
0.0
  0
LINE
  5
356B
330
1E
100
AcDbEntity
  8
7
100
AcDbLine
 10
1.807086614173228
 20
4.424212598425196
 30
0.0
 11
1.784448818897637
 21
4.411417322834645
 31
0.0
  0
LINE
  5
356C
330
1E
100
AcDbEntity
  8
7
100
AcDbLine
 10
1.784448818897637
 20
4.411417322834645
 30
0.0
 11
1.76771653543307
 21
4.391732283464566
 31
0.0
  0
LINE
  5
356D
330
1E
100
AcDbEntity
  8
7
100
AcDbLine
 10
1.76771653543307
 20
4.391732283464566
 30
0.0
 11
1.758858267716535
 21
4.367125984251968
 31
0.0
  0
LINE
  5
356E
330
1E
100
AcDbEntity
  8
7
100
AcDbLine
 10
1.9251968503937
 20
4.373031496062991
 30
0.0
 11
1.911417322834645
 21
4.386811023622047
 31
0.0
  0
LINE
  5
356F
330
1E
100
AcDbEntity
  8
7
100
AcDbLine
 10
1.911417322834645
 20
4.386811023622047
 30
0.0
 11
1.89271653543307
 21
4.391732283464566
 31
0.0
  0
LINE
  5
3570
330
1E
100
AcDbEntity
  8
7
100
AcDbLine
 10
1.89271653543307
 20
4.316929133858267
 30
0.0
 11
1.911417322834645
 21
4.321850393700787
 31
0.0
  0
LINE
  5
3571
330
1E
100
AcDbEntity
  8
7
100
AcDbLine
 10
1.911417322834645
 20
4.321850393700787
 30
0.0
 11
1.9251968503937
 21
4.335629921259842
 31
0.0
  0
LINE
  5
3572
330
1E
100
AcDbEntity
  8
7
100
AcDbLine
 10
1.9251968503937
 20
4.335629921259842
 30
0.0
 11
1.93011811023622
 21
4.354330708661417
 31
0.0
  0
LINE
  5
3573
330
1E
100
AcDbEntity
  8
7
100
AcDbLine
 10
1.93011811023622
 20
4.354330708661417
 30
0.0
 11
1.9251968503937
 21
4.373031496062991
 31
0.0
  0
LINE
  5
3574
330
1E
100
AcDbEntity
  8
7
100
AcDbLine
 10
1.8001968503937
 20
4.373031496062991
 30
0.0
 11
1.795275590551181
 21
4.354330708661417
 31
0.0
  0
LINE
  5
3575
330
1E
100
AcDbEntity
  8
7
100
AcDbLine
 10
1.795275590551181
 20
4.354330708661417
 30
0.0
 11
1.8001968503937
 21
4.335629921259842
 31
0.0
  0
LINE
  5
3576
330
1E
100
AcDbEntity
  8
7
100
AcDbLine
 10
1.8001968503937
 20
4.335629921259842
 30
0.0
 11
1.813976377952755
 21
4.321850393700787
 31
0.0
  0
LINE
  5
3577
330
1E
100
AcDbEntity
  8
7
100
AcDbLine
 10
1.813976377952755
 20
4.321850393700787
 30
0.0
 11
1.83267716535433
 21
4.316929133858267
 31
0.0
  0
LINE
  5
3578
330
1E
100
AcDbEntity
  8
7
100
AcDbLine
 10
1.83267716535433
 20
4.391732283464566
 30
0.0
 11
1.813976377952755
 21
4.386811023622047
 31
0.0
  0
LINE
  5
3579
330
1E
100
AcDbEntity
  8
7
100
AcDbLine
 10
1.813976377952755
 20
4.386811023622047
 30
0.0
 11
1.8001968503937
 21
4.373031496062991
 31
0.0
  0
LINE
  5
357A
330
1E
100
AcDbEntity
  8
7
100
AcDbLine
 10
1.81003937007874
 20
4.383858267716535
 30
0.0
 11
1.797244094488189
 21
4.36515748031496
 31
0.0
  0
LINE
  5
357B
330
1E
100
AcDbEntity
  8
7
100
AcDbLine
 10
1.797244094488189
 20
4.36515748031496
 30
0.0
 11
1.797244094488189
 21
4.343503937007874
 31
0.0
  0
LINE
  5
357C
330
1E
100
AcDbEntity
  8
7
100
AcDbLine
 10
1.797244094488189
 20
4.343503937007874
 30
0.0
 11
1.81003937007874
 21
4.324803149606299
 31
0.0
  0
LINE
  5
357D
330
1E
100
AcDbEntity
  8
7
100
AcDbLine
 10
1.915354330708661
 20
4.324803149606299
 30
0.0
 11
1.928149606299212
 21
4.343503937007874
 31
0.0
  0
LINE
  5
357E
330
1E
100
AcDbEntity
  8
7
100
AcDbLine
 10
1.928149606299212
 20
4.343503937007874
 30
0.0
 11
1.928149606299212
 21
4.36515748031496
 31
0.0
  0
LINE
  5
357F
330
1E
100
AcDbEntity
  8
7
100
AcDbLine
 10
1.910433070866141
 20
4.386811023622047
 30
0.0
 11
1.901574803149606
 21
4.390748031496062
 31
0.0
  0
LINE
  5
3580
330
1E
100
AcDbEntity
  8
7
100
AcDbLine
 10
1.901574803149606
 20
4.390748031496062
 30
0.0
 11
1.89271653543307
 21
4.391732283464566
 31
0.0
  0
LINE
  5
3581
330
1E
100
AcDbEntity
  8
7
100
AcDbLine
 10
1.83267716535433
 20
4.391732283464566
 30
0.0
 11
1.823818897637795
 21
4.390748031496062
 31
0.0
  0
LINE
  5
3582
330
1E
100
AcDbEntity
  8
7
100
AcDbLine
 10
1.823818897637795
 20
4.390748031496062
 30
0.0
 11
1.814960629921259
 21
4.386811023622047
 31
0.0
  0
LINE
  5
3583
330
1E
100
AcDbEntity
  8
7
100
AcDbLine
 10
1.910433070866141
 20
4.38779527559055
 30
0.0
 11
1.814960629921259
 21
4.38779527559055
 31
0.0
  0
LINE
  5
3584
330
1E
100
AcDbEntity
  8
7
100
AcDbLine
 10
1.814960629921259
 20
4.38779527559055
 30
0.0
 11
1.809055118110236
 21
4.384842519685038
 31
0.0
  0
LINE
  5
3585
330
1E
100
AcDbEntity
  8
7
100
AcDbLine
 10
1.814960629921259
 20
4.321850393700787
 30
0.0
 11
1.823818897637795
 21
4.317913385826771
 31
0.0
  0
LINE
  5
3586
330
1E
100
AcDbEntity
  8
7
100
AcDbLine
 10
1.823818897637795
 20
4.317913385826771
 30
0.0
 11
1.83267716535433
 21
4.316929133858267
 31
0.0
  0
LINE
  5
3587
330
1E
100
AcDbEntity
  8
7
100
AcDbLine
 10
1.52263779527559
 20
5.09251968503937
 30
0.0
 11
1.52263779527559
 21
5.073818897637795
 31
0.0
  0
LINE
  5
3588
330
1E
100
AcDbEntity
  8
7
100
AcDbLine
 10
1.52263779527559
 20
5.073818897637795
 30
0.0
 11
1.52263779527559
 21
5.054133858267716
 31
0.0
  0
LINE
  5
3589
330
1E
100
AcDbEntity
  8
7
100
AcDbLine
 10
1.52263779527559
 20
5.054133858267716
 30
0.0
 11
1.52263779527559
 21
5.037401574803149
 31
0.0
  0
LINE
  5
358A
330
1E
100
AcDbEntity
  8
7
100
AcDbLine
 10
2.202755905511811
 20
5.037401574803149
 30
0.0
 11
2.202755905511811
 21
5.054133858267716
 31
0.0
  0
LINE
  5
358B
330
1E
100
AcDbEntity
  8
7
100
AcDbLine
 10
2.202755905511811
 20
5.054133858267716
 30
0.0
 11
2.202755905511811
 21
5.073818897637795
 31
0.0
  0
LINE
  5
358C
330
1E
100
AcDbEntity
  8
7
100
AcDbLine
 10
2.202755905511811
 20
5.073818897637795
 30
0.0
 11
2.202755905511811
 21
5.09251968503937
 31
0.0
  0
LINE
  5
358D
330
1E
100
AcDbEntity
  8
7
100
AcDbLine
 10
1.969488188976377
 20
5.037401574803149
 30
0.0
 11
1.969488188976377
 21
5.020669291338582
 31
0.0
  0
LINE
  5
358E
330
1E
100
AcDbEntity
  8
7
100
AcDbLine
 10
1.969488188976377
 20
5.020669291338582
 30
0.0
 11
1.970472440944881
 21
5.039370078740157
 31
0.0
  0
LINE
  5
358F
330
1E
100
AcDbEntity
  8
7
100
AcDbLine
 10
1.969488188976377
 20
5.040354330708661
 30
0.0
 11
1.970472440944881
 21
5.039370078740157
 31
0.0
  0
LINE
  5
3590
330
1E
100
AcDbEntity
  8
7
100
AcDbLine
 10
1.970472440944881
 20
5.039370078740157
 30
0.0
 11
2.072834645669291
 21
5.039370078740157
 31
0.0
  0
LINE
  5
3591
330
1E
100
AcDbEntity
  8
7
100
AcDbLine
 10
1.755905511811023
 20
5.040354330708661
 30
0.0
 11
1.651574803149606
 21
5.040354330708661
 31
0.0
  0
LINE
  5
3592
330
1E
100
AcDbEntity
  8
7
100
AcDbLine
 10
1.651574803149606
 20
5.040354330708661
 30
0.0
 11
1.65255905511811
 21
5.039370078740157
 31
0.0
  0
LINE
  5
3593
330
1E
100
AcDbEntity
  8
7
100
AcDbLine
 10
1.755905511811023
 20
5.037401574803149
 30
0.0
 11
1.755905511811023
 21
5.040354330708661
 31
0.0
  0
LINE
  5
3594
330
1E
100
AcDbEntity
  8
7
100
AcDbLine
 10
1.755905511811023
 20
5.040354330708661
 30
0.0
 11
1.754921259842519
 21
5.039370078740157
 31
0.0
  0
LINE
  5
3595
330
1E
100
AcDbEntity
  8
7
100
AcDbLine
 10
2.548228346456693
 20
6.268700787401574
 30
0.0
 11
2.544291338582677
 21
6.283464566929133
 31
0.0
  0
LINE
  5
3596
330
1E
100
AcDbEntity
  8
7
100
AcDbLine
 10
2.544291338582677
 20
6.283464566929133
 30
0.0
 11
2.533464566929133
 21
6.294291338582676
 31
0.0
  0
LINE
  5
3597
330
1E
100
AcDbEntity
  8
7
100
AcDbLine
 10
2.533464566929133
 20
6.294291338582676
 30
0.0
 11
2.518700787401574
 21
6.298228346456692
 31
0.0
  0
LINE
  5
3598
330
1E
100
AcDbEntity
  8
7
100
AcDbLine
 10
2.31496062992126
 20
6.097440944881889
 30
0.0
 11
2.325787401574803
 21
6.093503937007874
 31
0.0
  0
LINE
  5
3599
330
1E
100
AcDbEntity
  8
7
100
AcDbLine
 10
2.325787401574803
 20
6.093503937007874
 30
0.0
 11
2.330708661417323
 21
6.08267716535433
 31
0.0
  0
LINE
  5
359A
330
1E
100
AcDbEntity
  8
7
100
AcDbLine
 10
2.330708661417323
 20
5.907480314960629
 30
0.0
 11
2.325787401574803
 21
5.896653543307086
 31
0.0
  0
LINE
  5
359B
330
1E
100
AcDbEntity
  8
7
100
AcDbLine
 10
2.325787401574803
 20
5.896653543307086
 30
0.0
 11
2.31496062992126
 21
5.89271653543307
 31
0.0
  0
LINE
  5
359C
330
1E
100
AcDbEntity
  8
7
100
AcDbLine
 10
1.76771653543307
 20
6.032480314960629
 30
0.0
 11
1.758858267716535
 21
6.007874015748031
 31
0.0
  0
LINE
  5
359D
330
1E
100
AcDbEntity
  8
7
100
AcDbLine
 10
1.758858267716535
 20
6.007874015748031
 30
0.0
 11
1.758858267716535
 21
5.982283464566928
 31
0.0
  0
LINE
  5
359E
330
1E
100
AcDbEntity
  8
7
100
AcDbLine
 10
1.758858267716535
 20
5.982283464566928
 30
0.0
 11
1.76771653543307
 21
5.95767716535433
 31
0.0
  0
LINE
  5
359F
330
1E
100
AcDbEntity
  8
7
100
AcDbLine
 10
1.76771653543307
 20
5.95767716535433
 30
0.0
 11
1.784448818897637
 21
5.937992125984251
 31
0.0
  0
LINE
  5
35A0
330
1E
100
AcDbEntity
  8
7
100
AcDbLine
 10
1.784448818897637
 20
5.937992125984251
 30
0.0
 11
1.807086614173228
 21
5.9251968503937
 31
0.0
  0
LINE
  5
35A1
330
1E
100
AcDbEntity
  8
7
100
AcDbLine
 10
1.807086614173228
 20
5.9251968503937
 30
0.0
 11
1.83267716535433
 21
5.92027559055118
 31
0.0
  0
LINE
  5
35A2
330
1E
100
AcDbEntity
  8
7
100
AcDbLine
 10
1.83267716535433
 20
6.069881889763779
 30
0.0
 11
1.807086614173228
 21
6.064960629921259
 31
0.0
  0
LINE
  5
35A3
330
1E
100
AcDbEntity
  8
7
100
AcDbLine
 10
1.807086614173228
 20
6.064960629921259
 30
0.0
 11
1.784448818897637
 21
6.052165354330708
 31
0.0
  0
LINE
  5
35A4
330
1E
100
AcDbEntity
  8
7
100
AcDbLine
 10
1.784448818897637
 20
6.052165354330708
 30
0.0
 11
1.76771653543307
 21
6.032480314960629
 31
0.0
  0
LINE
  5
35A5
330
1E
100
AcDbEntity
  8
7
100
AcDbLine
 10
1.95767716535433
 20
5.95767716535433
 30
0.0
 11
1.966535433070865
 21
5.982283464566928
 31
0.0
  0
LINE
  5
35A6
330
1E
100
AcDbEntity
  8
7
100
AcDbLine
 10
1.966535433070865
 20
5.982283464566928
 30
0.0
 11
1.966535433070865
 21
6.007874015748031
 31
0.0
  0
LINE
  5
35A7
330
1E
100
AcDbEntity
  8
7
100
AcDbLine
 10
1.966535433070865
 20
6.007874015748031
 30
0.0
 11
1.95767716535433
 21
6.032480314960629
 31
0.0
  0
LINE
  5
35A8
330
1E
100
AcDbEntity
  8
7
100
AcDbLine
 10
1.95767716535433
 20
6.032480314960629
 30
0.0
 11
1.940944881889763
 21
6.052165354330708
 31
0.0
  0
LINE
  5
35A9
330
1E
100
AcDbEntity
  8
7
100
AcDbLine
 10
1.940944881889763
 20
6.052165354330708
 30
0.0
 11
1.918307086614173
 21
6.064960629921259
 31
0.0
  0
LINE
  5
35AA
330
1E
100
AcDbEntity
  8
7
100
AcDbLine
 10
1.918307086614173
 20
6.064960629921259
 30
0.0
 11
1.89271653543307
 21
6.069881889763779
 31
0.0
  0
LINE
  5
35AB
330
1E
100
AcDbEntity
  8
7
100
AcDbLine
 10
1.89271653543307
 20
5.92027559055118
 30
0.0
 11
1.918307086614173
 21
5.9251968503937
 31
0.0
  0
LINE
  5
35AC
330
1E
100
AcDbEntity
  8
7
100
AcDbLine
 10
1.918307086614173
 20
5.9251968503937
 30
0.0
 11
1.940944881889763
 21
5.937992125984251
 31
0.0
  0
LINE
  5
35AD
330
1E
100
AcDbEntity
  8
7
100
AcDbLine
 10
1.940944881889763
 20
5.937992125984251
 30
0.0
 11
1.95767716535433
 21
5.95767716535433
 31
0.0
  0
LINE
  5
35AE
330
1E
100
AcDbEntity
  8
7
100
AcDbLine
 10
1.795275590551181
 20
5.99507874015748
 30
0.0
 11
1.8001968503937
 21
5.976377952755905
 31
0.0
  0
LINE
  5
35AF
330
1E
100
AcDbEntity
  8
7
100
AcDbLine
 10
1.8001968503937
 20
5.976377952755905
 30
0.0
 11
1.813976377952755
 21
5.96259842519685
 31
0.0
  0
LINE
  5
35B0
330
1E
100
AcDbEntity
  8
7
100
AcDbLine
 10
1.813976377952755
 20
5.96259842519685
 30
0.0
 11
1.83267716535433
 21
5.95767716535433
 31
0.0
  0
LINE
  5
35B1
330
1E
100
AcDbEntity
  8
7
100
AcDbLine
 10
1.83267716535433
 20
6.032480314960629
 30
0.0
 11
1.813976377952755
 21
6.02755905511811
 31
0.0
  0
LINE
  5
35B2
330
1E
100
AcDbEntity
  8
7
100
AcDbLine
 10
1.813976377952755
 20
6.02755905511811
 30
0.0
 11
1.8001968503937
 21
6.013779527559054
 31
0.0
  0
LINE
  5
35B3
330
1E
100
AcDbEntity
  8
7
100
AcDbLine
 10
1.8001968503937
 20
6.013779527559054
 30
0.0
 11
1.795275590551181
 21
5.99507874015748
 31
0.0
  0
LINE
  5
35B4
330
1E
100
AcDbEntity
  8
7
100
AcDbLine
 10
1.911417322834645
 20
5.96259842519685
 30
0.0
 11
1.9251968503937
 21
5.976377952755905
 31
0.0
  0
LINE
  5
35B5
330
1E
100
AcDbEntity
  8
7
100
AcDbLine
 10
1.9251968503937
 20
5.976377952755905
 30
0.0
 11
1.93011811023622
 21
5.99507874015748
 31
0.0
  0
LINE
  5
35B6
330
1E
100
AcDbEntity
  8
7
100
AcDbLine
 10
1.93011811023622
 20
5.99507874015748
 30
0.0
 11
1.9251968503937
 21
6.013779527559054
 31
0.0
  0
LINE
  5
35B7
330
1E
100
AcDbEntity
  8
7
100
AcDbLine
 10
1.9251968503937
 20
6.013779527559054
 30
0.0
 11
1.911417322834645
 21
6.02755905511811
 31
0.0
  0
LINE
  5
35B8
330
1E
100
AcDbEntity
  8
7
100
AcDbLine
 10
1.911417322834645
 20
6.02755905511811
 30
0.0
 11
1.89271653543307
 21
6.032480314960629
 31
0.0
  0
LINE
  5
35B9
330
1E
100
AcDbEntity
  8
7
100
AcDbLine
 10
1.81003937007874
 20
6.024606299212598
 30
0.0
 11
1.797244094488189
 21
6.005905511811023
 31
0.0
  0
LINE
  5
35BA
330
1E
100
AcDbEntity
  8
7
100
AcDbLine
 10
1.797244094488189
 20
6.005905511811023
 30
0.0
 11
1.797244094488189
 21
5.984251968503937
 31
0.0
  0
LINE
  5
35BB
330
1E
100
AcDbEntity
  8
7
100
AcDbLine
 10
1.797244094488189
 20
5.984251968503937
 30
0.0
 11
1.81003937007874
 21
5.965551181102362
 31
0.0
  0
LINE
  5
35BC
330
1E
100
AcDbEntity
  8
7
100
AcDbLine
 10
1.928149606299212
 20
5.984251968503937
 30
0.0
 11
1.928149606299212
 21
6.005905511811023
 31
0.0
  0
LINE
  5
35BD
330
1E
100
AcDbEntity
  8
7
100
AcDbLine
 10
1.928149606299212
 20
6.005905511811023
 30
0.0
 11
1.915354330708661
 21
6.024606299212598
 31
0.0
  0
LINE
  5
35BE
330
1E
100
AcDbEntity
  8
7
100
AcDbLine
 10
1.89271653543307
 20
5.95767716535433
 30
0.0
 11
1.901574803149606
 21
5.958661417322834
 31
0.0
  0
LINE
  5
35BF
330
1E
100
AcDbEntity
  8
7
100
AcDbLine
 10
1.901574803149606
 20
5.958661417322834
 30
0.0
 11
1.910433070866141
 21
5.96259842519685
 31
0.0
  0
LINE
  5
35C0
330
1E
100
AcDbEntity
  8
7
100
AcDbLine
 10
1.814960629921259
 20
5.96259842519685
 30
0.0
 11
1.823818897637795
 21
5.958661417322834
 31
0.0
  0
LINE
  5
35C1
330
1E
100
AcDbEntity
  8
7
100
AcDbLine
 10
1.823818897637795
 20
5.958661417322834
 30
0.0
 11
1.83267716535433
 21
5.95767716535433
 31
0.0
  0
LINE
  5
35C2
330
1E
100
AcDbEntity
  8
7
100
AcDbLine
 10
1.83267716535433
 20
6.032480314960629
 30
0.0
 11
1.823818897637795
 21
6.031496062992125
 31
0.0
  0
LINE
  5
35C3
330
1E
100
AcDbEntity
  8
7
100
AcDbLine
 10
1.823818897637795
 20
6.031496062992125
 30
0.0
 11
1.814960629921259
 21
6.02755905511811
 31
0.0
  0
LINE
  5
35C4
330
1E
100
AcDbEntity
  8
7
100
AcDbLine
 10
2.070866141732283
 20
4.977362204724409
 30
0.0
 11
2.068897637795275
 21
4.991141732283464
 31
0.0
  0
LINE
  5
35C5
330
1E
100
AcDbEntity
  8
7
100
AcDbLine
 10
2.068897637795275
 20
4.991141732283464
 30
0.0
 11
1.973425196850393
 21
4.991141732283464
 31
0.0
  0
LINE
  5
35C6
330
1E
100
AcDbEntity
  8
7
100
AcDbLine
 10
2.070866141732283
 20
4.977362204724409
 30
0.0
 11
1.972440944881889
 21
4.977362204724409
 31
0.0
  0
LINE
  5
35C7
330
1E
100
AcDbEntity
  8
7
100
AcDbLine
 10
1.972440944881889
 20
4.977362204724409
 30
0.0
 11
1.972440944881889
 21
4.973425196850393
 31
0.0
  0
LINE
  5
35C8
330
1E
100
AcDbEntity
  8
7
100
AcDbLine
 10
2.070866141732283
 20
4.972440944881889
 30
0.0
 11
2.070866141732283
 21
4.973425196850393
 31
0.0
  0
LINE
  5
35C9
330
1E
100
AcDbEntity
  8
7
100
AcDbLine
 10
2.070866141732283
 20
4.973425196850393
 30
0.0
 11
1.972440944881889
 21
4.973425196850393
 31
0.0
  0
LINE
  5
35CA
330
1E
100
AcDbEntity
  8
7
100
AcDbLine
 10
2.070866141732283
 20
4.972440944881889
 30
0.0
 11
1.972440944881889
 21
4.972440944881889
 31
0.0
  0
LINE
  5
35CB
330
1E
100
AcDbEntity
  8
7
100
AcDbLine
 10
1.972440944881889
 20
4.972440944881889
 30
0.0
 11
1.972440944881889
 21
4.963582677165354
 31
0.0
  0
LINE
  5
35CC
330
1E
100
AcDbEntity
  8
7
100
AcDbLine
 10
2.069881889763779
 20
4.963582677165354
 30
0.0
 11
1.972440944881889
 21
4.963582677165354
 31
0.0
  0
LINE
  5
35CD
330
1E
100
AcDbEntity
  8
7
100
AcDbLine
 10
1.972440944881889
 20
4.963582677165354
 30
0.0
 11
1.972440944881889
 21
4.956692913385826
 31
0.0
  0
LINE
  5
35CE
330
1E
100
AcDbEntity
  8
7
100
AcDbLine
 10
2.069881889763779
 20
4.956692913385826
 30
0.0
 11
1.972440944881889
 21
4.956692913385826
 31
0.0
  0
LINE
  5
35CF
330
1E
100
AcDbEntity
  8
7
100
AcDbLine
 10
1.972440944881889
 20
4.956692913385826
 30
0.0
 11
1.972440944881889
 21
4.952755905511811
 31
0.0
  0
LINE
  5
35D0
330
1E
100
AcDbEntity
  8
7
100
AcDbLine
 10
2.069881889763779
 20
4.952755905511811
 30
0.0
 11
1.972440944881889
 21
4.952755905511811
 31
0.0
  0
LINE
  5
35D1
330
1E
100
AcDbEntity
  8
7
100
AcDbLine
 10
1.972440944881889
 20
4.952755905511811
 30
0.0
 11
1.961614173228346
 21
4.799212598425196
 31
0.0
  0
LINE
  5
35D2
330
1E
100
AcDbEntity
  8
7
100
AcDbLine
 10
1.655511811023622
 20
4.956692913385826
 30
0.0
 11
1.654527559055118
 21
4.952755905511811
 31
0.0
  0
LINE
  5
35D3
330
1E
100
AcDbEntity
  8
7
100
AcDbLine
 10
1.654527559055118
 20
4.952755905511811
 30
0.0
 11
1.752952755905511
 21
4.952755905511811
 31
0.0
  0
LINE
  5
35D4
330
1E
100
AcDbEntity
  8
7
100
AcDbLine
 10
1.655511811023622
 20
4.963582677165354
 30
0.0
 11
1.655511811023622
 21
4.956692913385826
 31
0.0
  0
LINE
  5
35D5
330
1E
100
AcDbEntity
  8
7
100
AcDbLine
 10
1.655511811023622
 20
4.956692913385826
 30
0.0
 11
1.752952755905511
 21
4.956692913385826
 31
0.0
  0
LINE
  5
35D6
330
1E
100
AcDbEntity
  8
7
100
AcDbLine
 10
1.654527559055118
 20
4.972440944881889
 30
0.0
 11
1.655511811023622
 21
4.963582677165354
 31
0.0
  0
LINE
  5
35D7
330
1E
100
AcDbEntity
  8
7
100
AcDbLine
 10
1.655511811023622
 20
4.963582677165354
 30
0.0
 11
1.752952755905511
 21
4.963582677165354
 31
0.0
  0
LINE
  5
35D8
330
1E
100
AcDbEntity
  8
7
100
AcDbLine
 10
1.654527559055118
 20
4.972440944881889
 30
0.0
 11
1.752952755905511
 21
4.972440944881889
 31
0.0
  0
LINE
  5
35D9
330
1E
100
AcDbEntity
  8
7
100
AcDbLine
 10
1.752952755905511
 20
4.972440944881889
 30
0.0
 11
1.752952755905511
 21
4.973425196850393
 31
0.0
  0
LINE
  5
35DA
330
1E
100
AcDbEntity
  8
7
100
AcDbLine
 10
1.654527559055118
 20
4.977362204724409
 30
0.0
 11
1.654527559055118
 21
4.973425196850393
 31
0.0
  0
LINE
  5
35DB
330
1E
100
AcDbEntity
  8
7
100
AcDbLine
 10
1.654527559055118
 20
4.973425196850393
 30
0.0
 11
1.752952755905511
 21
4.973425196850393
 31
0.0
  0
LINE
  5
35DC
330
1E
100
AcDbEntity
  8
7
100
AcDbLine
 10
1.654527559055118
 20
4.977362204724409
 30
0.0
 11
1.752952755905511
 21
4.977362204724409
 31
0.0
  0
LINE
  5
35DD
330
1E
100
AcDbEntity
  8
7
100
AcDbLine
 10
1.752952755905511
 20
4.977362204724409
 30
0.0
 11
1.751968503937007
 21
4.991141732283464
 31
0.0
  0
LINE
  5
35DE
330
1E
100
AcDbEntity
  8
7
100
AcDbLine
 10
2.436023622047244
 20
6.186023622047243
 30
0.0
 11
2.456692913385826
 21
6.213582677165354
 31
0.0
  0
LINE
  5
35DF
330
1E
100
AcDbEntity
  8
7
100
AcDbLine
 10
2.456692913385826
 20
6.213582677165354
 30
0.0
 11
2.476377952755905
 21
6.24015748031496
 31
0.0
  0
LINE
  5
35E0
330
1E
100
AcDbEntity
  8
7
100
AcDbLine
 10
2.476377952755905
 20
6.24015748031496
 30
0.0
 11
2.493110236220472
 21
6.263779527559054
 31
0.0
  0
LINE
  5
35E1
330
1E
100
AcDbEntity
  8
7
100
AcDbLine
 10
2.493110236220472
 20
6.263779527559054
 30
0.0
 11
2.505905511811023
 21
6.281496062992125
 31
0.0
  0
LINE
  5
35E2
330
1E
100
AcDbEntity
  8
7
100
AcDbLine
 10
2.505905511811023
 20
6.281496062992125
 30
0.0
 11
2.514763779527559
 21
6.293307086614173
 31
0.0
  0
LINE
  5
35E3
330
1E
100
AcDbEntity
  8
7
100
AcDbLine
 10
2.514763779527559
 20
6.293307086614173
 30
0.0
 11
2.518700787401574
 21
6.298228346456692
 31
0.0
  0
LINE
  5
35E4
330
1E
100
AcDbEntity
  8
7
100
AcDbLine
 10
1.206692913385826
 20
6.298228346456692
 30
0.0
 11
2.518700787401574
 21
6.298228346456692
 31
0.0
  0
LINE
  5
35E5
330
1E
100
AcDbEntity
  8
7
100
AcDbLine
 10
2.518700787401574
 20
6.298228346456692
 30
0.0
 11
2.519685039370078
 21
6.3001968503937
 31
0.0
  0
LINE
  5
35E6
330
1E
100
AcDbEntity
  8
7
100
AcDbLine
 10
1.89271653543307
 20
5.919291338582676
 30
0.0
 11
1.918307086614173
 21
5.924212598425196
 31
0.0
  0
LINE
  5
35E7
330
1E
100
AcDbEntity
  8
7
100
AcDbLine
 10
1.918307086614173
 20
5.924212598425196
 30
0.0
 11
1.940944881889763
 21
5.937007874015748
 31
0.0
  0
LINE
  5
35E8
330
1E
100
AcDbEntity
  8
7
100
AcDbLine
 10
1.940944881889763
 20
5.937007874015748
 30
0.0
 11
1.958661417322834
 21
5.956692913385826
 31
0.0
  0
LINE
  5
35E9
330
1E
100
AcDbEntity
  8
7
100
AcDbLine
 10
1.958661417322834
 20
5.956692913385826
 30
0.0
 11
1.96751968503937
 21
5.982283464566928
 31
0.0
  0
LINE
  5
35EA
330
1E
100
AcDbEntity
  8
7
100
AcDbLine
 10
1.96751968503937
 20
5.982283464566928
 30
0.0
 11
1.96751968503937
 21
6.007874015748031
 31
0.0
  0
LINE
  5
35EB
330
1E
100
AcDbEntity
  8
7
100
AcDbLine
 10
1.96751968503937
 20
6.007874015748031
 30
0.0
 11
1.958661417322834
 21
6.032480314960629
 31
0.0
  0
LINE
  5
35EC
330
1E
100
AcDbEntity
  8
7
100
AcDbLine
 10
1.958661417322834
 20
6.032480314960629
 30
0.0
 11
1.940944881889763
 21
6.053149606299212
 31
0.0
  0
LINE
  5
35ED
330
1E
100
AcDbEntity
  8
7
100
AcDbLine
 10
1.940944881889763
 20
6.053149606299212
 30
0.0
 11
1.918307086614173
 21
6.065944881889763
 31
0.0
  0
LINE
  5
35EE
330
1E
100
AcDbEntity
  8
7
100
AcDbLine
 10
1.918307086614173
 20
6.065944881889763
 30
0.0
 11
1.89271653543307
 21
6.070866141732283
 31
0.0
  0
LINE
  5
35EF
330
1E
100
AcDbEntity
  8
7
100
AcDbLine
 10
1.83267716535433
 20
6.070866141732283
 30
0.0
 11
1.807086614173228
 21
6.065944881889763
 31
0.0
  0
LINE
  5
35F0
330
1E
100
AcDbEntity
  8
7
100
AcDbLine
 10
1.807086614173228
 20
6.065944881889763
 30
0.0
 11
1.784448818897637
 21
6.053149606299212
 31
0.0
  0
LINE
  5
35F1
330
1E
100
AcDbEntity
  8
7
100
AcDbLine
 10
1.784448818897637
 20
6.053149606299212
 30
0.0
 11
1.766732283464566
 21
6.033464566929133
 31
0.0
  0
LINE
  5
35F2
330
1E
100
AcDbEntity
  8
7
100
AcDbLine
 10
1.766732283464566
 20
6.033464566929133
 30
0.0
 11
1.757874015748031
 21
6.007874015748031
 31
0.0
  0
LINE
  5
35F3
330
1E
100
AcDbEntity
  8
7
100
AcDbLine
 10
1.757874015748031
 20
6.007874015748031
 30
0.0
 11
1.757874015748031
 21
5.982283464566928
 31
0.0
  0
LINE
  5
35F4
330
1E
100
AcDbEntity
  8
7
100
AcDbLine
 10
1.757874015748031
 20
5.982283464566928
 30
0.0
 11
1.766732283464566
 21
5.95767716535433
 31
0.0
  0
LINE
  5
35F5
330
1E
100
AcDbEntity
  8
7
100
AcDbLine
 10
1.766732283464566
 20
5.95767716535433
 30
0.0
 11
1.784448818897637
 21
5.937007874015748
 31
0.0
  0
LINE
  5
35F6
330
1E
100
AcDbEntity
  8
7
100
AcDbLine
 10
1.784448818897637
 20
5.937007874015748
 30
0.0
 11
1.807086614173228
 21
5.924212598425196
 31
0.0
  0
LINE
  5
35F7
330
1E
100
AcDbEntity
  8
7
100
AcDbLine
 10
1.807086614173228
 20
5.924212598425196
 30
0.0
 11
1.83267716535433
 21
5.919291338582676
 31
0.0
  0
LINE
  5
35F8
330
1E
100
AcDbEntity
  8
7
100
AcDbLine
 10
2.299212598425197
 20
6.097440944881889
 30
0.0
 11
2.3001968503937
 21
6.097440944881889
 31
0.0
  0
LINE
  5
35F9
330
1E
100
AcDbEntity
  8
7
100
AcDbLine
 10
2.3001968503937
 20
6.097440944881889
 30
0.0
 11
2.31496062992126
 21
6.097440944881889
 31
0.0
  0
LINE
  5
35FA
330
1E
100
AcDbEntity
  8
7
100
AcDbLine
 10
1.206692913385826
 20
6.298228346456692
 30
0.0
 11
1.210629921259842
 21
6.293307086614173
 31
0.0
  0
LINE
  5
35FB
330
1E
100
AcDbEntity
  8
7
100
AcDbLine
 10
1.210629921259842
 20
6.293307086614173
 30
0.0
 11
1.219488188976378
 21
6.281496062992125
 31
0.0
  0
LINE
  5
35FC
330
1E
100
AcDbEntity
  8
7
100
AcDbLine
 10
1.219488188976378
 20
6.281496062992125
 30
0.0
 11
1.232283464566929
 21
6.263779527559054
 31
0.0
  0
LINE
  5
35FD
330
1E
100
AcDbEntity
  8
7
100
AcDbLine
 10
1.232283464566929
 20
6.263779527559054
 30
0.0
 11
1.249015748031496
 21
6.24015748031496
 31
0.0
  0
LINE
  5
35FE
330
1E
100
AcDbEntity
  8
7
100
AcDbLine
 10
1.249015748031496
 20
6.24015748031496
 30
0.0
 11
1.268700787401574
 21
6.213582677165354
 31
0.0
  0
LINE
  5
35FF
330
1E
100
AcDbEntity
  8
7
100
AcDbLine
 10
1.268700787401574
 20
6.213582677165354
 30
0.0
 11
1.289370078740157
 21
6.186023622047243
 31
0.0
  0
LINE
  5
3600
330
1E
100
AcDbEntity
  8
7
100
AcDbLine
 10
1.206692913385826
 20
6.298228346456692
 30
0.0
 11
1.191929133858267
 21
6.294291338582676
 31
0.0
  0
LINE
  5
3601
330
1E
100
AcDbEntity
  8
7
100
AcDbLine
 10
1.191929133858267
 20
6.294291338582676
 30
0.0
 11
1.181102362204724
 21
6.283464566929133
 31
0.0
  0
LINE
  5
3602
330
1E
100
AcDbEntity
  8
7
100
AcDbLine
 10
1.181102362204724
 20
6.283464566929133
 30
0.0
 11
1.177165354330708
 21
6.268700787401574
 31
0.0
  0
LINE
  5
3603
330
1E
100
AcDbEntity
  8
7
100
AcDbLine
 10
1.394685039370078
 20
6.08267716535433
 30
0.0
 11
1.399606299212598
 21
6.093503937007874
 31
0.0
  0
LINE
  5
3604
330
1E
100
AcDbEntity
  8
7
100
AcDbLine
 10
1.399606299212598
 20
6.093503937007874
 30
0.0
 11
1.410433070866141
 21
6.097440944881889
 31
0.0
  0
LINE
  5
3605
330
1E
100
AcDbEntity
  8
7
100
AcDbLine
 10
1.409448818897637
 20
5.891732283464566
 30
0.0
 11
1.410433070866141
 21
5.89271653543307
 31
0.0
  0
LINE
  5
3606
330
1E
100
AcDbEntity
  8
7
100
AcDbLine
 10
1.410433070866141
 20
5.89271653543307
 30
0.0
 11
1.399606299212598
 21
5.896653543307086
 31
0.0
  0
LINE
  5
3607
330
1E
100
AcDbEntity
  8
7
100
AcDbLine
 10
1.399606299212598
 20
5.896653543307086
 30
0.0
 11
1.394685039370078
 21
5.907480314960629
 31
0.0
  0
LINE
  5
3608
330
1E
100
AcDbEntity
  8
7
100
AcDbLine
 10
2.072834645669291
 20
5.171259842519685
 30
0.0
 11
2.068897637795275
 21
5.167322834645669
 31
0.0
  0
LINE
  5
3609
330
1E
100
AcDbEntity
  8
7
100
AcDbLine
 10
2.068897637795275
 20
5.167322834645669
 30
0.0
 11
2.02755905511811
 21
5.167322834645669
 31
0.0
  0
LINE
  5
360A
330
1E
100
AcDbEntity
  8
7
100
AcDbLine
 10
1.969488188976377
 20
5.171259842519685
 30
0.0
 11
1.969488188976377
 21
5.201771653543307
 31
0.0
  0
LINE
  5
360B
330
1E
100
AcDbEntity
  8
7
100
AcDbLine
 10
1.969488188976377
 20
5.201771653543307
 30
0.0
 11
1.973425196850393
 21
5.204724409448818
 31
0.0
  0
LINE
  5
360C
330
1E
100
AcDbEntity
  8
7
100
AcDbLine
 10
1.754921259842519
 20
5.171259842519685
 30
0.0
 11
1.750984251968503
 21
5.167322834645669
 31
0.0
  0
LINE
  5
360D
330
1E
100
AcDbEntity
  8
7
100
AcDbLine
 10
1.750984251968503
 20
5.167322834645669
 30
0.0
 11
1.709645669291338
 21
5.167322834645669
 31
0.0
  0
LINE
  5
360E
330
1E
100
AcDbEntity
  8
7
100
AcDbLine
 10
1.656496062992125
 20
5.167322834645669
 30
0.0
 11
1.65255905511811
 21
5.171259842519685
 31
0.0
  0
LINE
  5
360F
330
1E
100
AcDbEntity
  8
7
100
AcDbLine
 10
1.65255905511811
 20
5.171259842519685
 30
0.0
 11
1.65255905511811
 21
5.201771653543307
 31
0.0
  0
LINE
  5
3610
330
1E
100
AcDbEntity
  8
7
100
AcDbLine
 10
1.65255905511811
 20
5.201771653543307
 30
0.0
 11
1.656496062992125
 21
5.204724409448818
 31
0.0
  0
LINE
  5
3611
330
1E
100
AcDbEntity
  8
7
100
AcDbLine
 10
2.252952755905512
 20
5.520669291338582
 30
0.0
 11
2.249015748031496
 21
5.070866141732283
 31
0.0
  0
LINE
  5
3612
330
1E
100
AcDbEntity
  8
7
100
AcDbLine
 10
2.249015748031496
 20
5.070866141732283
 30
0.0
 11
2.252952755905512
 21
4.829724409448818
 31
0.0
  0
LINE
  5
3613
330
1E
100
AcDbEntity
  8
7
100
AcDbLine
 10
1.651574803149606
 20
5.037401574803149
 30
0.0
 11
1.52263779527559
 21
5.037401574803149
 31
0.0
  0
LINE
  5
3614
330
1E
100
AcDbEntity
  8
7
100
AcDbLine
 10
1.52263779527559
 20
5.037401574803149
 30
0.0
 11
1.51771653543307
 21
4.764763779527559
 31
0.0
  0
LINE
  5
3615
330
1E
100
AcDbEntity
  8
7
100
AcDbLine
 10
1.472440944881889
 20
4.829724409448818
 30
0.0
 11
1.476377952755905
 21
5.070866141732283
 31
0.0
  0
LINE
  5
3616
330
1E
100
AcDbEntity
  8
7
100
AcDbLine
 10
1.476377952755905
 20
5.070866141732283
 30
0.0
 11
1.472440944881889
 21
5.520669291338582
 31
0.0
  0
LINE
  5
3617
330
1E
100
AcDbEntity
  8
7
100
AcDbLine
 10
2.548228346456693
 20
6.268700787401574
 30
0.0
 11
2.543307086614173
 21
6.264763779527559
 31
0.0
  0
LINE
  5
3618
330
1E
100
AcDbEntity
  8
7
100
AcDbLine
 10
2.543307086614173
 20
6.264763779527559
 30
0.0
 11
2.531496062992125
 21
6.255905511811023
 31
0.0
  0
LINE
  5
3619
330
1E
100
AcDbEntity
  8
7
100
AcDbLine
 10
2.531496062992125
 20
6.255905511811023
 30
0.0
 11
2.513779527559055
 21
6.243110236220472
 31
0.0
  0
LINE
  5
361A
330
1E
100
AcDbEntity
  8
7
100
AcDbLine
 10
2.513779527559055
 20
6.243110236220472
 30
0.0
 11
2.491141732283464
 21
6.225393700787401
 31
0.0
  0
LINE
  5
361B
330
1E
100
AcDbEntity
  8
7
100
AcDbLine
 10
2.491141732283464
 20
6.225393700787401
 30
0.0
 11
2.464566929133858
 21
6.206692913385826
 31
0.0
  0
LINE
  5
361C
330
1E
100
AcDbEntity
  8
7
100
AcDbLine
 10
2.464566929133858
 20
6.206692913385826
 30
0.0
 11
2.436023622047244
 21
6.186023622047243
 31
0.0
  0
LINE
  5
361D
330
1E
100
AcDbEntity
  8
7
100
AcDbLine
 10
2.531496062992125
 20
4.093503937007874
 30
0.0
 11
2.543307086614173
 21
4.084645669291338
 31
0.0
  0
LINE
  5
361E
330
1E
100
AcDbEntity
  8
7
100
AcDbLine
 10
2.543307086614173
 20
4.084645669291338
 30
0.0
 11
2.548228346456693
 21
4.081692913385826
 31
0.0
  0
LINE
  5
361F
330
1E
100
AcDbEntity
  8
7
100
AcDbLine
 10
2.436023622047244
 20
4.163385826771653
 30
0.0
 11
2.464566929133858
 21
4.14271653543307
 31
0.0
  0
LINE
  5
3620
330
1E
100
AcDbEntity
  8
7
100
AcDbLine
 10
2.464566929133858
 20
4.14271653543307
 30
0.0
 11
2.491141732283464
 21
4.124015748031496
 31
0.0
  0
LINE
  5
3621
330
1E
100
AcDbEntity
  8
7
100
AcDbLine
 10
2.491141732283464
 20
4.124015748031496
 30
0.0
 11
2.513779527559055
 21
4.107283464566928
 31
0.0
  0
LINE
  5
3622
330
1E
100
AcDbEntity
  8
7
100
AcDbLine
 10
2.513779527559055
 20
4.107283464566928
 30
0.0
 11
2.531496062992125
 21
4.093503937007874
 31
0.0
  0
LINE
  5
3623
330
1E
100
AcDbEntity
  8
7
100
AcDbLine
 10
2.548228346456693
 20
6.268700787401574
 30
0.0
 11
2.548228346456693
 21
4.081692913385826
 31
0.0
  0
LINE
  5
3624
330
1E
100
AcDbEntity
  8
7
100
AcDbLine
 10
2.548228346456693
 20
4.081692913385826
 30
0.0
 11
2.5501968503937
 21
4.079724409448818
 31
0.0
  0
LINE
  5
3625
330
1E
100
AcDbEntity
  8
7
100
AcDbLine
 10
2.535433070866141
 20
6.296259842519685
 30
0.0
 11
2.546259842519685
 21
6.284448818897637
 31
0.0
  0
LINE
  5
3626
330
1E
100
AcDbEntity
  8
7
100
AcDbLine
 10
2.546259842519685
 20
6.284448818897637
 30
0.0
 11
2.5501968503937
 21
6.269685039370078
 31
0.0
  0
LINE
  5
3627
330
1E
100
AcDbEntity
  8
7
100
AcDbLine
 10
1.1751968503937
 20
6.269685039370078
 30
0.0
 11
1.179133858267716
 21
6.284448818897637
 31
0.0
  0
LINE
  5
3628
330
1E
100
AcDbEntity
  8
7
100
AcDbLine
 10
1.179133858267716
 20
6.284448818897637
 30
0.0
 11
1.189960629921259
 21
6.296259842519685
 31
0.0
  0
LINE
  5
3629
330
1E
100
AcDbEntity
  8
7
100
AcDbLine
 10
1.189960629921259
 20
6.296259842519685
 30
0.0
 11
1.204724409448818
 21
6.3001968503937
 31
0.0
  0
LINE
  5
362A
330
1E
100
AcDbEntity
  8
7
100
AcDbLine
 10
1.204724409448818
 20
4.0501968503937
 30
0.0
 11
1.189960629921259
 21
4.054133858267716
 31
0.0
  0
LINE
  5
362B
330
1E
100
AcDbEntity
  8
7
100
AcDbLine
 10
1.189960629921259
 20
4.054133858267716
 30
0.0
 11
1.179133858267716
 21
4.064960629921259
 31
0.0
  0
LINE
  5
362C
330
1E
100
AcDbEntity
  8
7
100
AcDbLine
 10
1.179133858267716
 20
4.064960629921259
 30
0.0
 11
1.1751968503937
 21
4.079724409448818
 31
0.0
  0
LINE
  5
362D
330
1E
100
AcDbEntity
  8
7
100
AcDbLine
 10
2.5501968503937
 20
4.079724409448818
 30
0.0
 11
2.546259842519685
 21
4.064960629921259
 31
0.0
  0
LINE
  5
362E
330
1E
100
AcDbEntity
  8
7
100
AcDbLine
 10
2.546259842519685
 20
4.064960629921259
 30
0.0
 11
2.535433070866141
 21
4.054133858267716
 31
0.0
  0
LINE
  5
362F
330
1E
100
AcDbEntity
  8
7
100
AcDbLine
 10
2.535433070866141
 20
4.054133858267716
 30
0.0
 11
2.519685039370078
 21
4.0501968503937
 31
0.0
  0
LINE
  5
3630
330
1E
100
AcDbEntity
  8
7
100
AcDbLine
 10
1.393700787401574
 20
4.266732283464566
 30
0.0
 11
1.393700787401574
 21
4.441929133858267
 31
0.0
  0
LINE
  5
3631
330
1E
100
AcDbEntity
  8
7
100
AcDbLine
 10
1.393700787401574
 20
4.441929133858267
 30
0.0
 11
1.398622047244094
 21
4.452755905511811
 31
0.0
  0
LINE
  5
3632
330
1E
100
AcDbEntity
  8
7
100
AcDbLine
 10
1.398622047244094
 20
4.452755905511811
 30
0.0
 11
1.409448818897637
 21
4.45767716535433
 31
0.0
  0
LINE
  5
3633
330
1E
100
AcDbEntity
  8
7
100
AcDbLine
 10
1.409448818897637
 20
4.45767716535433
 30
0.0
 11
2.315944881889763
 21
4.45767716535433
 31
0.0
  0
LINE
  5
3634
330
1E
100
AcDbEntity
  8
7
100
AcDbLine
 10
2.315944881889763
 20
4.45767716535433
 30
0.0
 11
2.326771653543307
 21
4.452755905511811
 31
0.0
  0
LINE
  5
3635
330
1E
100
AcDbEntity
  8
7
100
AcDbLine
 10
2.326771653543307
 20
4.452755905511811
 30
0.0
 11
2.331692913385826
 21
4.441929133858267
 31
0.0
  0
LINE
  5
3636
330
1E
100
AcDbEntity
  8
7
100
AcDbLine
 10
2.331692913385826
 20
4.441929133858267
 30
0.0
 11
2.331692913385826
 21
4.266732283464566
 31
0.0
  0
LINE
  5
3637
330
1E
100
AcDbEntity
  8
7
100
AcDbLine
 10
2.331692913385826
 20
4.266732283464566
 30
0.0
 11
2.326771653543307
 21
4.255905511811023
 31
0.0
  0
LINE
  5
3638
330
1E
100
AcDbEntity
  8
7
100
AcDbLine
 10
2.326771653543307
 20
4.255905511811023
 30
0.0
 11
2.315944881889763
 21
4.251968503937007
 31
0.0
  0
LINE
  5
3639
330
1E
100
AcDbEntity
  8
7
100
AcDbLine
 10
2.315944881889763
 20
4.251968503937007
 30
0.0
 11
1.409448818897637
 21
4.251968503937007
 31
0.0
  0
LINE
  5
363A
330
1E
100
AcDbEntity
  8
7
100
AcDbLine
 10
1.409448818897637
 20
4.251968503937007
 30
0.0
 11
1.398622047244094
 21
4.255905511811023
 31
0.0
  0
LINE
  5
363B
330
1E
100
AcDbEntity
  8
7
100
AcDbLine
 10
1.398622047244094
 20
4.255905511811023
 30
0.0
 11
1.393700787401574
 21
4.266732283464566
 31
0.0
  0
LINE
  5
363C
330
1E
100
AcDbEntity
  8
7
100
AcDbLine
 10
1.289370078740157
 20
4.163385826771653
 30
0.0
 11
2.436023622047244
 21
4.163385826771653
 31
0.0
  0
LINE
  5
363D
330
1E
100
AcDbEntity
  8
7
100
AcDbLine
 10
2.436023622047244
 20
4.163385826771653
 30
0.0
 11
2.436023622047244
 21
6.186023622047243
 31
0.0
  0
LINE
  5
363E
330
1E
100
AcDbEntity
  8
7
100
AcDbLine
 10
2.436023622047244
 20
6.186023622047243
 30
0.0
 11
1.289370078740157
 21
6.186023622047243
 31
0.0
  0
LINE
  5
363F
330
1E
100
AcDbEntity
  8
7
100
AcDbLine
 10
1.409448818897637
 20
6.098425196850393
 30
0.0
 11
1.398622047244094
 21
6.093503937007874
 31
0.0
  0
LINE
  5
3640
330
1E
100
AcDbEntity
  8
7
100
AcDbLine
 10
1.398622047244094
 20
6.093503937007874
 30
0.0
 11
1.393700787401574
 21
6.08267716535433
 31
0.0
  0
LINE
  5
3641
330
1E
100
AcDbEntity
  8
7
100
AcDbLine
 10
1.393700787401574
 20
5.907480314960629
 30
0.0
 11
1.398622047244094
 21
5.896653543307086
 31
0.0
  0
LINE
  5
3642
330
1E
100
AcDbEntity
  8
7
100
AcDbLine
 10
1.398622047244094
 20
5.896653543307086
 30
0.0
 11
1.409448818897637
 21
5.891732283464566
 31
0.0
  0
LINE
  5
3643
330
1E
100
AcDbEntity
  8
7
100
AcDbLine
 10
2.315944881889763
 20
5.891732283464566
 30
0.0
 11
2.326771653543307
 21
5.896653543307086
 31
0.0
  0
LINE
  5
3644
330
1E
100
AcDbEntity
  8
7
100
AcDbLine
 10
2.326771653543307
 20
5.896653543307086
 30
0.0
 11
2.331692913385826
 21
5.907480314960629
 31
0.0
  0
LINE
  5
3645
330
1E
100
AcDbEntity
  8
7
100
AcDbLine
 10
2.331692913385826
 20
6.08267716535433
 30
0.0
 11
2.326771653543307
 21
6.093503937007874
 31
0.0
  0
LINE
  5
3646
330
1E
100
AcDbEntity
  8
7
100
AcDbLine
 10
2.326771653543307
 20
6.093503937007874
 30
0.0
 11
2.315944881889763
 21
6.098425196850393
 31
0.0
  0
LINE
  5
3647
330
1E
100
AcDbEntity
  8
7
100
AcDbLine
 10
1.898622047244094
 20
4.764763779527559
 30
0.0
 11
1.826771653543307
 21
4.764763779527559
 31
0.0
  0
LINE
  5
3648
330
1E
100
AcDbEntity
  8
7
100
AcDbLine
 10
1.826771653543307
 20
4.764763779527559
 30
0.0
 11
1.766732283464566
 21
4.764763779527559
 31
0.0
  0
LINE
  5
3649
330
1E
100
AcDbEntity
  8
7
100
AcDbLine
 10
1.491141732283464
 20
5.599409448818897
 30
0.0
 11
1.503937007874015
 21
5.613188976377952
 31
0.0
  0
LINE
  5
364A
330
1E
100
AcDbEntity
  8
7
100
AcDbLine
 10
1.503937007874015
 20
5.613188976377952
 30
0.0
 11
1.51771653543307
 21
5.618110236220472
 31
0.0
  0
LINE
  5
364B
330
1E
100
AcDbEntity
  8
7
100
AcDbLine
 10
1.51771653543307
 20
5.618110236220472
 30
0.0
 11
2.207677165354331
 21
5.618110236220472
 31
0.0
  0
LINE
  5
364C
330
1E
100
AcDbEntity
  8
7
100
AcDbLine
 10
2.207677165354331
 20
5.618110236220472
 30
0.0
 11
2.221456692913386
 21
5.613188976377952
 31
0.0
  0
LINE
  5
364D
330
1E
100
AcDbEntity
  8
7
100
AcDbLine
 10
2.221456692913386
 20
5.613188976377952
 30
0.0
 11
2.234251968503937
 21
5.599409448818897
 31
0.0
  0
LINE
  5
364E
330
1E
100
AcDbEntity
  8
7
100
AcDbLine
 10
2.234251968503937
 20
5.599409448818897
 30
0.0
 11
2.244094488188976
 21
5.577755905511811
 31
0.0
  0
LINE
  5
364F
330
1E
100
AcDbEntity
  8
7
100
AcDbLine
 10
2.244094488188976
 20
5.577755905511811
 30
0.0
 11
2.250984251968504
 21
5.551181102362204
 31
0.0
  0
LINE
  5
3650
330
1E
100
AcDbEntity
  8
7
100
AcDbLine
 10
2.250984251968504
 20
5.551181102362204
 30
0.0
 11
2.252952755905512
 21
5.520669291338582
 31
0.0
  0
LINE
  5
3651
330
1E
100
AcDbEntity
  8
7
100
AcDbLine
 10
2.252952755905512
 20
5.520669291338582
 30
0.0
 11
2.252952755905512
 21
4.829724409448818
 31
0.0
  0
LINE
  5
3652
330
1E
100
AcDbEntity
  8
7
100
AcDbLine
 10
2.252952755905512
 20
4.829724409448818
 30
0.0
 11
2.25
 21
4.804133858267716
 31
0.0
  0
LINE
  5
3653
330
1E
100
AcDbEntity
  8
7
100
AcDbLine
 10
2.25
 20
4.804133858267716
 30
0.0
 11
2.24015748031496
 21
4.783464566929133
 31
0.0
  0
LINE
  5
3654
330
1E
100
AcDbEntity
  8
7
100
AcDbLine
 10
2.24015748031496
 20
4.783464566929133
 30
0.0
 11
2.225393700787401
 21
4.769685039370078
 31
0.0
  0
LINE
  5
3655
330
1E
100
AcDbEntity
  8
7
100
AcDbLine
 10
2.225393700787401
 20
4.769685039370078
 30
0.0
 11
2.207677165354331
 21
4.764763779527559
 31
0.0
  0
LINE
  5
3656
330
1E
100
AcDbEntity
  8
7
100
AcDbLine
 10
2.207677165354331
 20
4.764763779527559
 30
0.0
 11
2.143700787401574
 21
4.764763779527559
 31
0.0
  0
LINE
  5
3657
330
1E
100
AcDbEntity
  8
7
100
AcDbLine
 10
1.51771653543307
 20
4.764763779527559
 30
0.0
 11
1.5
 21
4.769685039370078
 31
0.0
  0
LINE
  5
3658
330
1E
100
AcDbEntity
  8
7
100
AcDbLine
 10
1.5
 20
4.769685039370078
 30
0.0
 11
1.48523622047244
 21
4.783464566929133
 31
0.0
  0
LINE
  5
3659
330
1E
100
AcDbEntity
  8
7
100
AcDbLine
 10
1.48523622047244
 20
4.783464566929133
 30
0.0
 11
1.475393700787401
 21
4.804133858267716
 31
0.0
  0
LINE
  5
365A
330
1E
100
AcDbEntity
  8
7
100
AcDbLine
 10
1.475393700787401
 20
4.804133858267716
 30
0.0
 11
1.472440944881889
 21
4.829724409448818
 31
0.0
  0
LINE
  5
365B
330
1E
100
AcDbEntity
  8
7
100
AcDbLine
 10
1.472440944881889
 20
4.829724409448818
 30
0.0
 11
1.472440944881889
 21
5.520669291338582
 31
0.0
  0
LINE
  5
365C
330
1E
100
AcDbEntity
  8
7
100
AcDbLine
 10
1.472440944881889
 20
5.520669291338582
 30
0.0
 11
1.474409448818897
 21
5.551181102362204
 31
0.0
  0
LINE
  5
365D
330
1E
100
AcDbEntity
  8
7
100
AcDbLine
 10
1.474409448818897
 20
5.551181102362204
 30
0.0
 11
1.480314960629921
 21
5.577755905511811
 31
0.0
  0
LINE
  5
365E
330
1E
100
AcDbEntity
  8
7
100
AcDbLine
 10
1.480314960629921
 20
5.577755905511811
 30
0.0
 11
1.491141732283464
 21
5.599409448818897
 31
0.0
  0
LINE
  5
365F
330
1E
100
AcDbEntity
  8
7
100
AcDbLine
 10
1.211614173228346
 20
6.243110236220472
 30
0.0
 11
1.193897637795275
 21
6.255905511811023
 31
0.0
  0
LINE
  5
3660
330
1E
100
AcDbEntity
  8
7
100
AcDbLine
 10
1.193897637795275
 20
6.255905511811023
 30
0.0
 11
1.182086614173228
 21
6.264763779527559
 31
0.0
  0
LINE
  5
3661
330
1E
100
AcDbEntity
  8
7
100
AcDbLine
 10
1.182086614173228
 20
6.264763779527559
 30
0.0
 11
1.177165354330708
 21
6.268700787401574
 31
0.0
  0
LINE
  5
3662
330
1E
100
AcDbEntity
  8
7
100
AcDbLine
 10
1.289370078740157
 20
6.186023622047243
 30
0.0
 11
1.260826771653543
 21
6.206692913385826
 31
0.0
  0
LINE
  5
3663
330
1E
100
AcDbEntity
  8
7
100
AcDbLine
 10
1.260826771653543
 20
6.206692913385826
 30
0.0
 11
1.234251968503937
 21
6.225393700787401
 31
0.0
  0
LINE
  5
3664
330
1E
100
AcDbEntity
  8
7
100
AcDbLine
 10
1.234251968503937
 20
6.225393700787401
 30
0.0
 11
1.211614173228346
 21
6.243110236220472
 31
0.0
  0
LINE
  5
3665
330
1E
100
AcDbEntity
  8
7
100
AcDbLine
 10
1.177165354330708
 20
4.081692913385826
 30
0.0
 11
1.182086614173228
 21
4.084645669291338
 31
0.0
  0
LINE
  5
3666
330
1E
100
AcDbEntity
  8
7
100
AcDbLine
 10
1.182086614173228
 20
4.084645669291338
 30
0.0
 11
1.193897637795275
 21
4.093503937007874
 31
0.0
  0
LINE
  5
3667
330
1E
100
AcDbEntity
  8
7
100
AcDbLine
 10
1.193897637795275
 20
4.093503937007874
 30
0.0
 11
1.211614173228346
 21
4.107283464566928
 31
0.0
  0
LINE
  5
3668
330
1E
100
AcDbEntity
  8
7
100
AcDbLine
 10
1.211614173228346
 20
4.107283464566928
 30
0.0
 11
1.234251968503937
 21
4.124015748031496
 31
0.0
  0
LINE
  5
3669
330
1E
100
AcDbEntity
  8
7
100
AcDbLine
 10
1.234251968503937
 20
4.124015748031496
 30
0.0
 11
1.260826771653543
 21
4.14271653543307
 31
0.0
  0
LINE
  5
366A
330
1E
100
AcDbEntity
  8
7
100
AcDbLine
 10
1.260826771653543
 20
4.14271653543307
 30
0.0
 11
1.289370078740157
 21
4.163385826771653
 31
0.0
  0
LINE
  5
366B
330
1E
100
AcDbEntity
  8
7
100
AcDbLine
 10
1.1751968503937
 20
6.269685039370078
 30
0.0
 11
1.1751968503937
 21
4.079724409448818
 31
0.0
  0
LINE
  5
366C
330
1E
100
AcDbEntity
  8
7
100
AcDbLine
 10
1.1751968503937
 20
4.079724409448818
 30
0.0
 11
1.177165354330708
 21
4.081692913385826
 31
0.0
  0
LINE
  5
366D
330
1E
100
AcDbEntity
  8
7
100
AcDbLine
 10
1.177165354330708
 20
4.081692913385826
 30
0.0
 11
1.177165354330708
 21
6.268700787401574
 31
0.0
  0
LINE
  5
366E
330
1E
100
AcDbEntity
  8
7
100
AcDbLine
 10
1.177165354330708
 20
6.268700787401574
 30
0.0
 11
1.1751968503937
 21
6.269685039370078
 31
0.0
  0
LINE
  5
366F
330
1E
100
AcDbEntity
  8
7
100
AcDbLine
 10
2.015748031496062
 20
5.204724409448818
 30
0.0
 11
1.973425196850393
 21
5.204724409448818
 31
0.0
  0
LINE
  5
3670
330
1E
100
AcDbEntity
  8
7
100
AcDbLine
 10
1.973425196850393
 20
5.204724409448818
 30
0.0
 11
1.973425196850393
 21
5.194881889763779
 31
0.0
  0
LINE
  5
3671
330
1E
100
AcDbEntity
  8
7
100
AcDbLine
 10
1.697834645669291
 20
5.204724409448818
 30
0.0
 11
1.656496062992125
 21
5.204724409448818
 31
0.0
  0
LINE
  5
3672
330
1E
100
AcDbEntity
  8
7
100
AcDbLine
 10
1.656496062992125
 20
5.204724409448818
 30
0.0
 11
1.656496062992125
 21
5.194881889763779
 31
0.0
  0
ENDSEC
  0
SECTION
  2
OBJECTS
  0
DICTIONARY
  5
C
330
0
100
AcDbDictionary
  3
ACAD_GROUP
350
D
  3
ACAD_LAYOUT
350
19
  3
ACAD_MLINESTYLE
350
16
  3
ACAD_PLOTSETTINGS
350
18
1001
ACAD
1000
TREAT_AS_HARD
1070
     0
  0
DICTIONARY
  5
4685
330
1E
100
AcDbDictionary
  3
ACAD_LAYOUTSELFREF
350
46F6
1001
ACAD
1000
TREAT_AS_HARD
1070
     1
  0
DICTIONARY
  5
4687
330
1A
100
AcDbDictionary
  3
ACAD_LAYOUTSELFREF
350
46F5
1001
ACAD
1000
TREAT_AS_HARD
1070
     1
  0
DICTIONARY
  5
D
102
{ACAD_REACTORS
330
C
102
}
330
C
100
AcDbDictionary
1001
ACAD
1000
TREAT_AS_HARD
1070
     0
  0
DICTIONARY
  5
19
102
{ACAD_REACTORS
330
C
102
}
330
C
100
AcDbDictionary
1001
ACAD
1000
TREAT_AS_HARD
1070
     0
  0
DICTIONARY
  5
16
102
{ACAD_REACTORS
330
C
102
}
330
C
100
AcDbDictionary
  3
STANDARD
350
17
1001
ACAD
1000
TREAT_AS_HARD
1070
     0
  0
DICTIONARY
  5
18
102
{ACAD_REACTORS
330
C
102
}
330
C
100
AcDbDictionary
1001
ACAD
1000
TREAT_AS_HARD
1070
     0
  0
XRECORD
  5
46F6
102
{ACAD_REACTORS
330
4685
102
}
330
4685
100
AcDbXrecord
340
1E
  0
XRECORD
  5
46F5
102
{ACAD_REACTORS
330
4687
102
}
330
4687
100
AcDbXrecord
340
1A
  0
MLINESTYLE
  5
17
102
{ACAD_REACTORS
330
16
102
}
330
16
100
AcDbMlineStyle
  2
STANDARD
 70
     0
  3

 62
   256
 51
90.0
 52
90.0
 71
     2
 49
0.5
 62
   256
  6
BYLAYER
 49
-0.5
 62
   256
  6
BYLAYER
  0
ENDSEC
  0
EOF
