  0
SECTION
  2
HEADER
  9
$ACADVER
  1
AC1012
  9
$DWGCODEPAGE
  3
ANSI_1252
  9
$INSBASE
 10
0.0
 20
0.0
 30
0.0
  9
$EXTMIN
 10
0.929809599334618
 20
3.640319849411397
 30
-0.0015258207003583
  9
$EXTMAX
 10
5.425048848410426
 20
8.140594502376153
 30
0.0000000349246037
  9
$LIMMIN
 10
0.0
 20
0.0
  9
$LIMMAX
 10
12.0
 20
9.0
  9
$ORTHOMODE
 70
     0
  9
$REGENMODE
 70
     1
  9
$FILLMODE
 70
     1
  9
$QTEXTMODE
 70
     0
  9
$MIRRTEXT
 70
     1
  9
$DRAGMODE
 70
     2
  9
$LTSCALE
 40
1.0
  9
$OSMODE
 70
   547
  9
$ATTMODE
 70
     1
  9
$TEXTSIZE
 40
0.2
  9
$TRACEWID
 40
0.05
  9
$TEXTSTYLE
  7
STANDARD
  9
$CLAYER
  8
0
  9
$CELTYPE
  6
BYLAYER
  9
$CECOLOR
 62
   256
  9
$CELTSCALE
 40
1.0
  9
$DELOBJ
 70
     1
  9
$DISPSILH
 70
     0
  9
$DIMSCALE
 40
1.0
  9
$DIMASZ
 40
0.18
  9
$DIMEXO
 40
0.0625
  9
$DIMDLI
 40
0.38
  9
$DIMRND
 40
0.0
  9
$DIMDLE
 40
0.0
  9
$DIMEXE
 40
0.18
  9
$DIMTP
 40
0.0
  9
$DIMTM
 40
0.0
  9
$DIMTXT
 40
0.18
  9
$DIMCEN
 40
0.09
  9
$DIMTSZ
 40
0.0
  9
$DIMTOL
 70
     0
  9
$DIMLIM
 70
     0
  9
$DIMTIH
 70
     1
  9
$DIMTOH
 70
     1
  9
$DIMSE1
 70
     0
  9
$DIMSE2
 70
     0
  9
$DIMTAD
 70
     0
  9
$DIMZIN
 70
     0
  9
$DIMBLK
  1

  9
$DIMASO
 70
     1
  9
$DIMSHO
 70
     1
  9
$DIMPOST
  1

  9
$DIMAPOST
  1

  9
$DIMALT
 70
     0
  9
$DIMALTD
 70
     2
  9
$DIMALTF
 40
25.4
  9
$DIMLFAC
 40
1.0
  9
$DIMTOFL
 70
     0
  9
$DIMTVP
 40
0.0
  9
$DIMTIX
 70
     0
  9
$DIMSOXD
 70
     0
  9
$DIMSAH
 70
     0
  9
$DIMBLK1
  1

  9
$DIMBLK2
  1

  9
$DIMSTYLE
  2
STANDARD
  9
$DIMCLRD
 70
     0
  9
$DIMCLRE
 70
     0
  9
$DIMCLRT
 70
     0
  9
$DIMTFAC
 40
1.0
  9
$DIMGAP
 40
0.09
  9
$DIMJUST
 70
     0
  9
$DIMSD1
 70
     0
  9
$DIMSD2
 70
     0
  9
$DIMTOLJ
 70
     1
  9
$DIMTZIN
 70
     0
  9
$DIMALTZ
 70
     0
  9
$DIMALTTZ
 70
     0
  9
$DIMFIT
 70
     5
  9
$DIMUPT
 70
     0
  9
$DIMUNIT
 70
     2
  9
$DIMDEC
 70
     4
  9
$DIMTDEC
 70
     4
  9
$DIMALTU
 70
     2
  9
$DIMALTTD
 70
     2
  9
$DIMTXSTY
  7
STANDARD
  9
$DIMAUNIT
 70
     0
  9
$LUNITS
 70
     2
  9
$LUPREC
 70
     4
  9
$SKETCHINC
 40
0.1
  9
$FILLETRAD
 40
0.0
  9
$AUNITS
 70
     0
  9
$AUPREC
 70
     0
  9
$MENU
  1
acad
  9
$ELEVATION
 40
0.0
  9
$PELEVATION
 40
0.0
  9
$THICKNESS
 40
0.0
  9
$LIMCHECK
 70
     0
  9
$BLIPMODE
 70
     0
  9
$CHAMFERA
 40
0.0
  9
$CHAMFERB
 40
0.0
  9
$CHAMFERC
 40
0.0
  9
$CHAMFERD
 40
0.0
  9
$SKPOLY
 70
     0
  9
$TDCREATE
 40
2454204.309131944
  9
$TDUPDATE
 40
2454204.323229849
  9
$TDINDWG
 40
0.0054864815
  9
$TDUSRTIMER
 40
0.0054864815
  9
$USRTIMER
 70
     1
  9
$ANGBASE
 50
0.0
  9
$ANGDIR
 70
     0
  9
$PDMODE
 70
     0
  9
$PDSIZE
 40
0.0
  9
$PLINEWID
 40
0.0
  9
$COORDS
 70
     1
  9
$SPLFRAME
 70
     0
  9
$SPLINETYPE
 70
     6
  9
$SPLINESEGS
 70
     8
  9
$ATTDIA
 70
     0
  9
$ATTREQ
 70
     1
  9
$HANDLING
 70
  4097
  9
$HANDSEED
  5
28A0
  9
$SURFTAB1
 70
     6
  9
$SURFTAB2
 70
     6
  9
$SURFTYPE
 70
     6
  9
$SURFU
 70
     6
  9
$SURFV
 70
     6
  9
$UCSNAME
  2

  9
$UCSORG
 10
0.0
 20
0.0
 30
0.0
  9
$UCSXDIR
 10
1.0
 20
0.0
 30
0.0
  9
$UCSYDIR
 10
0.0
 20
1.0
 30
0.0
  9
$PUCSNAME
  2

  9
$PUCSORG
 10
0.0
 20
0.0
 30
0.0
  9
$PUCSXDIR
 10
1.0
 20
0.0
 30
0.0
  9
$PUCSYDIR
 10
0.0
 20
1.0
 30
0.0
  9
$USERI1
 70
     0
  9
$USERI2
 70
     0
  9
$USERI3
 70
     0
  9
$USERI4
 70
     0
  9
$USERI5
 70
     0
  9
$USERR1
 40
0.0
  9
$USERR2
 40
0.0
  9
$USERR3
 40
0.0
  9
$USERR4
 40
0.0
  9
$USERR5
 40
0.0
  9
$WORLDVIEW
 70
     1
  9
$SHADEDGE
 70
     3
  9
$SHADEDIF
 70
    70
  9
$TILEMODE
 70
     1
  9
$MAXACTVP
 70
    16
  9
$PINSBASE
 10
0.0
 20
0.0
 30
0.0
  9
$PLIMCHECK
 70
     0
  9
$PEXTMIN
 10
1.000000000000000E+20
 20
1.000000000000000E+20
 30
1.000000000000000E+20
  9
$PEXTMAX
 10
-1.000000000000000E+20
 20
-1.000000000000000E+20
 30
-1.000000000000000E+20
  9
$PLIMMIN
 10
0.0
 20
0.0
  9
$PLIMMAX
 10
12.0
 20
9.0
  9
$UNITMODE
 70
     0
  9
$VISRETAIN
 70
     0
  9
$PLINEGEN
 70
     0
  9
$PSLTSCALE
 70
     1
  9
$TREEDEPTH
 70
  3020
  9
$PICKSTYLE
 70
     1
  9
$CMLSTYLE
  2
STANDARD
  9
$CMLJUST
 70
     0
  9
$CMLSCALE
 40
1.0
  9
$SAVEIMAGES
 70
     1
  0
ENDSEC
  0
SECTION
  2
CLASSES
  0
CLASS
  1
ACDBDICTIONARYWDFLT
  2
AcDbDictionaryWithDefault
  3
AutoCAD 2000
 90
    32768
280
     0
281
     0
  0
CLASS
  1
ACDBPLACEHOLDER
  2
AcDbPlaceHolder
  3
AutoCAD 2000
 90
    32768
280
     0
281
     0
  0
CLASS
  1
LAYOUT
  2
AcDbLayout
  3
AutoCAD 2000
 90
    32768
280
     0
281
     0
  0
CLASS
  1
LONG_TRANSACTION
  2
AcDbLongTransaction
  3
AutoCAD 2000
 90
    32768
280
     0
281
     0
  0
CLASS
  1
LWPOLYLINE
  2
AcDbPolyline
  3
AutoCAD 2000
 90
    32768
280
     0
281
     1
  0
CLASS
  1
HATCH
  2
AcDbHatch
  3
AutoCAD 2000
 90
    32768
280
     0
281
     1
  0
CLASS
  1
XRECORD
  2
AcDbXrecord
  3
AutoCAD 2000
 90
    32768
280
     0
281
     0
  0
ENDSEC
  0
SECTION
  2
TABLES
  0
TABLE
  2
VPORT
  5
8
330
0
100
AcDbSymbolTable
 70
     3
  0
VPORT
  5
27AF
330
8
100
AcDbSymbolTableRecord
100
AcDbViewportTableRecord
  2
*ACTIVE
 70
     0
 10
0.0
 20
0.0
 11
1.0
 21
1.0
 12
3.177429223872521
 22
5.890457175893775
 13
0.0
 23
0.0
 14
1.0
 24
1.0
 15
0.0
 25
0.0
 16
0.0
 26
0.0
 36
1.0
 17
0.0
 27
0.0
 37
0.0
 40
4.550745022904546
 41
1.747191011235955
 42
50.0
 43
0.0
 44
0.0
 50
0.0
 51
0.0
 71
     0
 72
   100
 73
     1
 74
     1
 75
     0
 76
     0
 77
     0
 78
     0
  0
ENDTAB
  0
TABLE
  2
LTYPE
  5
5
330
0
100
AcDbSymbolTable
 70
    25
  0
LTYPE
  5
13
330
5
100
AcDbSymbolTableRecord
100
AcDbLinetypeTableRecord
  2
BYBLOCK
 70
     0
  3

 72
    65
 73
     0
 40
0.0
  0
LTYPE
  5
14
330
5
100
AcDbSymbolTableRecord
100
AcDbLinetypeTableRecord
  2
BYLAYER
 70
     0
  3

 72
    65
 73
     0
 40
0.0
  0
LTYPE
  5
15
330
5
100
AcDbSymbolTableRecord
100
AcDbLinetypeTableRecord
  2
CONTINUOUS
 70
     0
  3
Solid line
 72
    65
 73
     0
 40
0.0
  0
LTYPE
  5
22
330
5
100
AcDbSymbolTableRecord
100
AcDbLinetypeTableRecord
  2
BORDER
 70
     0
  3
__ __ . __ __ . __ __ . __ __ . __ __ . __ __ .
 72
    65
 73
     6
 40
1.75
 49
0.5
 74
     0
 49
-0.25
 74
     0
 49
0.5
 74
     0
 49
-0.25
 74
     0
 49
0.5
 74
     0
 49
-0.25
 74
     0
  0
LTYPE
  5
23
330
5
100
AcDbSymbolTableRecord
100
AcDbLinetypeTableRecord
  2
BORDER2
 70
     0
  3
__.__.__.__.__.__.__.__.
 72
    65
 73
     6
 40
0.875
 49
0.25
 74
     0
 49
-0.125
 74
     0
 49
0.25
 74
     0
 49
-0.125
 74
     0
 49
0.25
 74
     0
 49
-0.125
 74
     0
  0
LTYPE
  5
24
330
5
100
AcDbSymbolTableRecord
100
AcDbLinetypeTableRecord
  2
BORDERX2
 70
     0
  3
____  ____  .  
 72
    65
 73
     6
 40
3.5
 49
1.0
 74
     0
 49
-0.5
 74
     0
 49
1.0
 74
     0
 49
-0.5
 74
     0
 49
1.0
 74
     0
 49
-0.5
 74
     0
  0
LTYPE
  5
25
330
5
100
AcDbSymbolTableRecord
100
AcDbLinetypeTableRecord
  2
CENTER
 70
     0
  3
____ _ ____ _ ____ _ 
 72
    65
 73
     4
 40
2.0
 49
1.25
 74
     0
 49
-0.25
 74
     0
 49
0.25
 74
     0
 49
-0.25
 74
     0
  0
LTYPE
  5
26
330
5
100
AcDbSymbolTableRecord
100
AcDbLinetypeTableRecord
  2
CENTER2
 70
     0
  3
____ _ ____ _ ____ _ 
 72
    65
 73
     4
 40
1.125
 49
0.75
 74
     0
 49
-0.125
 74
     0
 49
0.125
 74
     0
 49
-0.125
 74
     0
  0
LTYPE
  5
27
330
5
100
AcDbSymbolTableRecord
100
AcDbLinetypeTableRecord
  2
CENTERX2
 70
     0
  3
________  __  
 72
    65
 73
     4
 40
4.0
 49
2.5
 74
     0
 49
-0.5
 74
     0
 49
0.5
 74
     0
 49
-0.5
 74
     0
  0
LTYPE
  5
28
330
5
100
AcDbSymbolTableRecord
100
AcDbLinetypeTableRecord
  2
DASHDOT
 70
     0
  3
__ . __ . __ . __ . 
 72
    65
 73
     4
 40
1.0
 49
0.5
 74
     0
 49
-0.25
 74
     0
 49
0.0
 74
     0
 49
-0.25
 74
     0
  0
LTYPE
  5
29
330
5
100
AcDbSymbolTableRecord
100
AcDbLinetypeTableRecord
  2
DASHDOT2
 70
     0
  3
_._._._._._._._._.
 72
    65
 73
     4
 40
0.5
 49
0.25
 74
     0
 49
-0.125
 74
     0
 49
0.0
 74
     0
 49
-0.125
 74
     0
  0
LTYPE
  5
2A
330
5
100
AcDbSymbolTableRecord
100
AcDbLinetypeTableRecord
  2
DASHDOTX2
 70
     0
  3
____  .  ____  .  
 72
    65
 73
     4
 40
2.0
 49
1.0
 74
     0
 49
-0.5
 74
     0
 49
0.0
 74
     0
 49
-0.5
 74
     0
  0
LTYPE
  5
2B
330
5
100
AcDbSymbolTableRecord
100
AcDbLinetypeTableRecord
  2
DASHED
 70
     0
  3
__ __ __ __ __ __ __ 
 72
    65
 73
     2
 40
0.75
 49
0.5
 74
     0
 49
-0.25
 74
     0
  0
LTYPE
  5
2C
330
5
100
AcDbSymbolTableRecord
100
AcDbLinetypeTableRecord
  2
DASHED2
 70
     0
  3
_ _ _ _ _ _ _ _ _ _ 
 72
    65
 73
     2
 40
0.375
 49
0.25
 74
     0
 49
-0.125
 74
     0
  0
LTYPE
  5
2D
330
5
100
AcDbSymbolTableRecord
100
AcDbLinetypeTableRecord
  2
DASHEDX2
 70
     0
  3
____  ____  ____  
 72
    65
 73
     2
 40
1.5
 49
1.0
 74
     0
 49
-0.5
 74
     0
  0
LTYPE
  5
2E
330
5
100
AcDbSymbolTableRecord
100
AcDbLinetypeTableRecord
  2
DIVIDE
 70
     0
  3
____ . . ____ . . 
 72
    65
 73
     6
 40
1.25
 49
0.5
 74
     0
 49
-0.25
 74
     0
 49
0.0
 74
     0
 49
-0.25
 74
     0
 49
0.0
 74
     0
 49
-0.25
 74
     0
  0
LTYPE
  5
2F
330
5
100
AcDbSymbolTableRecord
100
AcDbLinetypeTableRecord
  2
DIVIDE2
 70
     0
  3
__..__..__..__..__..
 72
    65
 73
     6
 40
0.625
 49
0.25
 74
     0
 49
-0.125
 74
     0
 49
0.0
 74
     0
 49
-0.125
 74
     0
 49
0.0
 74
     0
 49
-0.125
 74
     0
  0
LTYPE
  5
30
330
5
100
AcDbSymbolTableRecord
100
AcDbLinetypeTableRecord
  2
DIVIDEX2
 70
     0
  3
________  .  .  
 72
    65
 73
     6
 40
2.5
 49
1.0
 74
     0
 49
-0.5
 74
     0
 49
0.0
 74
     0
 49
-0.5
 74
     0
 49
0.0
 74
     0
 49
-0.5
 74
     0
  0
LTYPE
  5
31
330
5
100
AcDbSymbolTableRecord
100
AcDbLinetypeTableRecord
  2
DOT
 70
     0
  3
. . . . . . . . . 
 72
    65
 73
     2
 40
0.25
 49
0.0
 74
     0
 49
-0.25
 74
     0
  0
LTYPE
  5
32
330
5
100
AcDbSymbolTableRecord
100
AcDbLinetypeTableRecord
  2
DOT2
 70
     0
  3
..................
 72
    65
 73
     2
 40
0.125
 49
0.0
 74
     0
 49
-0.125
 74
     0
  0
LTYPE
  5
33
330
5
100
AcDbSymbolTableRecord
100
AcDbLinetypeTableRecord
  2
DOTX2
 70
     0
  3
.  .  .  .  .  .  
 72
    65
 73
     2
 40
0.5
 49
0.0
 74
     0
 49
-0.5
 74
     0
  0
LTYPE
  5
34
330
5
100
AcDbSymbolTableRecord
100
AcDbLinetypeTableRecord
  2
HIDDEN
 70
     0
  3
__ __ __ __ __ __ 
 72
    65
 73
     2
 40
0.375
 49
0.25
 74
     0
 49
-0.125
 74
     0
  0
LTYPE
  5
35
330
5
100
AcDbSymbolTableRecord
100
AcDbLinetypeTableRecord
  2
HIDDEN2
 70
     0
  3
_ _ _ _ _ _ _ _ _ 
 72
    65
 73
     2
 40
0.1875
 49
0.125
 74
     0
 49
-0.0625
 74
     0
  0
LTYPE
  5
36
330
5
100
AcDbSymbolTableRecord
100
AcDbLinetypeTableRecord
  2
HIDDENX2
 70
     0
  3
____ ____ ____ ____ 
 72
    65
 73
     2
 40
0.75
 49
0.5
 74
     0
 49
-0.25
 74
     0
  0
LTYPE
  5
37
330
5
100
AcDbSymbolTableRecord
100
AcDbLinetypeTableRecord
  2
PHANTOM
 70
     0
  3
______  __  __  
 72
    65
 73
     6
 40
2.5
 49
1.25
 74
     0
 49
-0.25
 74
     0
 49
0.25
 74
     0
 49
-0.25
 74
     0
 49
0.25
 74
     0
 49
-0.25
 74
     0
  0
LTYPE
  5
38
330
5
100
AcDbSymbolTableRecord
100
AcDbLinetypeTableRecord
  2
PHANTOM2
 70
     0
  3
___ _ _ ___ _ _ 
 72
    65
 73
     6
 40
1.25
 49
0.625
 74
     0
 49
-0.125
 74
     0
 49
0.125
 74
     0
 49
-0.125
 74
     0
 49
0.125
 74
     0
 49
-0.125
 74
     0
  0
LTYPE
  5
39
330
5
100
AcDbSymbolTableRecord
100
AcDbLinetypeTableRecord
  2
PHANTOMX2
 70
     0
  3
___ _ _ ___ _ _ 
 72
    65
 73
     6
 40
5.0
 49
2.5
 74
     0
 49
-0.5
 74
     0
 49
0.5
 74
     0
 49
-0.5
 74
     0
 49
0.5
 74
     0
 49
-0.5
 74
     0
  0
ENDTAB
  0
TABLE
  2
LAYER
  5
2
330
0
100
AcDbSymbolTable
 70
   257
  0
LAYER
  5
10
330
2
100
AcDbSymbolTableRecord
100
AcDbLayerTableRecord
  2
0
 70
     0
 62
     7
  6
CONTINUOUS
  0
LAYER
  5
3A
330
2
100
AcDbSymbolTableRecord
100
AcDbLayerTableRecord
  2
1
 70
     0
 62
     1
  6
CONTINUOUS
  0
LAYER
  5
3B
330
2
100
AcDbSymbolTableRecord
100
AcDbLayerTableRecord
  2
2
 70
     0
 62
     2
  6
CONTINUOUS
  0
LAYER
  5
3C
330
2
100
AcDbSymbolTableRecord
100
AcDbLayerTableRecord
  2
3
 70
     0
 62
     3
  6
CONTINUOUS
  0
LAYER
  5
3D
330
2
100
AcDbSymbolTableRecord
100
AcDbLayerTableRecord
  2
4
 70
     0
 62
     4
  6
CONTINUOUS
  0
LAYER
  5
3E
330
2
100
AcDbSymbolTableRecord
100
AcDbLayerTableRecord
  2
5
 70
     0
 62
     5
  6
CONTINUOUS
  0
LAYER
  5
3F
330
2
100
AcDbSymbolTableRecord
100
AcDbLayerTableRecord
  2
6
 70
     0
 62
     6
  6
CONTINUOUS
  0
LAYER
  5
40
330
2
100
AcDbSymbolTableRecord
100
AcDbLayerTableRecord
  2
7
 70
     0
 62
     7
  6
CONTINUOUS
  0
LAYER
  5
41
330
2
100
AcDbSymbolTableRecord
100
AcDbLayerTableRecord
  2
8
 70
     0
 62
     8
  6
CONTINUOUS
  0
LAYER
  5
42
330
2
100
AcDbSymbolTableRecord
100
AcDbLayerTableRecord
  2
9
 70
     0
 62
     9
  6
CONTINUOUS
  0
LAYER
  5
43
330
2
100
AcDbSymbolTableRecord
100
AcDbLayerTableRecord
  2
10
 70
     0
 62
    10
  6
CONTINUOUS
  0
LAYER
  5
44
330
2
100
AcDbSymbolTableRecord
100
AcDbLayerTableRecord
  2
11
 70
     0
 62
    11
  6
CONTINUOUS
  0
LAYER
  5
45
330
2
100
AcDbSymbolTableRecord
100
AcDbLayerTableRecord
  2
12
 70
     0
 62
    12
  6
CONTINUOUS
  0
LAYER
  5
46
330
2
100
AcDbSymbolTableRecord
100
AcDbLayerTableRecord
  2
13
 70
     0
 62
    13
  6
CONTINUOUS
  0
LAYER
  5
47
330
2
100
AcDbSymbolTableRecord
100
AcDbLayerTableRecord
  2
14
 70
     0
 62
    14
  6
CONTINUOUS
  0
LAYER
  5
48
330
2
100
AcDbSymbolTableRecord
100
AcDbLayerTableRecord
  2
15
 70
     0
 62
    15
  6
CONTINUOUS
  0
LAYER
  5
49
330
2
100
AcDbSymbolTableRecord
100
AcDbLayerTableRecord
  2
16
 70
     0
 62
    16
  6
CONTINUOUS
  0
LAYER
  5
4A
330
2
100
AcDbSymbolTableRecord
100
AcDbLayerTableRecord
  2
17
 70
     0
 62
    17
  6
CONTINUOUS
  0
LAYER
  5
4B
330
2
100
AcDbSymbolTableRecord
100
AcDbLayerTableRecord
  2
18
 70
     0
 62
    18
  6
CONTINUOUS
  0
LAYER
  5
4C
330
2
100
AcDbSymbolTableRecord
100
AcDbLayerTableRecord
  2
19
 70
     0
 62
    19
  6
CONTINUOUS
  0
LAYER
  5
4D
330
2
100
AcDbSymbolTableRecord
100
AcDbLayerTableRecord
  2
20
 70
     0
 62
    20
  6
CONTINUOUS
  0
LAYER
  5
4E
330
2
100
AcDbSymbolTableRecord
100
AcDbLayerTableRecord
  2
21
 70
     0
 62
    21
  6
CONTINUOUS
  0
LAYER
  5
4F
330
2
100
AcDbSymbolTableRecord
100
AcDbLayerTableRecord
  2
22
 70
     0
 62
    22
  6
CONTINUOUS
  0
LAYER
  5
50
330
2
100
AcDbSymbolTableRecord
100
AcDbLayerTableRecord
  2
23
 70
     0
 62
    23
  6
CONTINUOUS
  0
LAYER
  5
51
330
2
100
AcDbSymbolTableRecord
100
AcDbLayerTableRecord
  2
24
 70
     0
 62
    24
  6
CONTINUOUS
  0
LAYER
  5
52
330
2
100
AcDbSymbolTableRecord
100
AcDbLayerTableRecord
  2
25
 70
     0
 62
    25
  6
CONTINUOUS
  0
LAYER
  5
53
330
2
100
AcDbSymbolTableRecord
100
AcDbLayerTableRecord
  2
26
 70
     0
 62
    26
  6
CONTINUOUS
  0
LAYER
  5
54
330
2
100
AcDbSymbolTableRecord
100
AcDbLayerTableRecord
  2
27
 70
     0
 62
    27
  6
CONTINUOUS
  0
LAYER
  5
55
330
2
100
AcDbSymbolTableRecord
100
AcDbLayerTableRecord
  2
28
 70
     0
 62
    28
  6
CONTINUOUS
  0
LAYER
  5
56
330
2
100
AcDbSymbolTableRecord
100
AcDbLayerTableRecord
  2
29
 70
     0
 62
    29
  6
CONTINUOUS
  0
LAYER
  5
57
330
2
100
AcDbSymbolTableRecord
100
AcDbLayerTableRecord
  2
30
 70
     0
 62
    30
  6
CONTINUOUS
  0
LAYER
  5
58
330
2
100
AcDbSymbolTableRecord
100
AcDbLayerTableRecord
  2
31
 70
     0
 62
    31
  6
CONTINUOUS
  0
LAYER
  5
59
330
2
100
AcDbSymbolTableRecord
100
AcDbLayerTableRecord
  2
32
 70
     0
 62
    32
  6
CONTINUOUS
  0
LAYER
  5
5A
330
2
100
AcDbSymbolTableRecord
100
AcDbLayerTableRecord
  2
33
 70
     0
 62
    33
  6
CONTINUOUS
  0
LAYER
  5
5B
330
2
100
AcDbSymbolTableRecord
100
AcDbLayerTableRecord
  2
34
 70
     0
 62
    34
  6
CONTINUOUS
  0
LAYER
  5
5C
330
2
100
AcDbSymbolTableRecord
100
AcDbLayerTableRecord
  2
35
 70
     0
 62
    35
  6
CONTINUOUS
  0
LAYER
  5
5D
330
2
100
AcDbSymbolTableRecord
100
AcDbLayerTableRecord
  2
36
 70
     0
 62
    36
  6
CONTINUOUS
  0
LAYER
  5
5E
330
2
100
AcDbSymbolTableRecord
100
AcDbLayerTableRecord
  2
37
 70
     0
 62
    37
  6
CONTINUOUS
  0
LAYER
  5
5F
330
2
100
AcDbSymbolTableRecord
100
AcDbLayerTableRecord
  2
38
 70
     0
 62
    38
  6
CONTINUOUS
  0
LAYER
  5
60
330
2
100
AcDbSymbolTableRecord
100
AcDbLayerTableRecord
  2
39
 70
     0
 62
    39
  6
CONTINUOUS
  0
LAYER
  5
61
330
2
100
AcDbSymbolTableRecord
100
AcDbLayerTableRecord
  2
40
 70
     0
 62
    40
  6
CONTINUOUS
  0
LAYER
  5
62
330
2
100
AcDbSymbolTableRecord
100
AcDbLayerTableRecord
  2
41
 70
     0
 62
    41
  6
CONTINUOUS
  0
LAYER
  5
63
330
2
100
AcDbSymbolTableRecord
100
AcDbLayerTableRecord
  2
42
 70
     0
 62
    42
  6
CONTINUOUS
  0
LAYER
  5
64
330
2
100
AcDbSymbolTableRecord
100
AcDbLayerTableRecord
  2
43
 70
     0
 62
    43
  6
CONTINUOUS
  0
LAYER
  5
65
330
2
100
AcDbSymbolTableRecord
100
AcDbLayerTableRecord
  2
44
 70
     0
 62
    44
  6
CONTINUOUS
  0
LAYER
  5
66
330
2
100
AcDbSymbolTableRecord
100
AcDbLayerTableRecord
  2
45
 70
     0
 62
    45
  6
CONTINUOUS
  0
LAYER
  5
67
330
2
100
AcDbSymbolTableRecord
100
AcDbLayerTableRecord
  2
46
 70
     0
 62
    46
  6
CONTINUOUS
  0
LAYER
  5
68
330
2
100
AcDbSymbolTableRecord
100
AcDbLayerTableRecord
  2
47
 70
     0
 62
    47
  6
CONTINUOUS
  0
LAYER
  5
69
330
2
100
AcDbSymbolTableRecord
100
AcDbLayerTableRecord
  2
48
 70
     0
 62
    48
  6
CONTINUOUS
  0
LAYER
  5
6A
330
2
100
AcDbSymbolTableRecord
100
AcDbLayerTableRecord
  2
49
 70
     0
 62
    49
  6
CONTINUOUS
  0
LAYER
  5
6B
330
2
100
AcDbSymbolTableRecord
100
AcDbLayerTableRecord
  2
50
 70
     0
 62
    50
  6
CONTINUOUS
  0
LAYER
  5
6C
330
2
100
AcDbSymbolTableRecord
100
AcDbLayerTableRecord
  2
51
 70
     0
 62
    51
  6
CONTINUOUS
  0
LAYER
  5
6D
330
2
100
AcDbSymbolTableRecord
100
AcDbLayerTableRecord
  2
52
 70
     0
 62
    52
  6
CONTINUOUS
  0
LAYER
  5
6E
330
2
100
AcDbSymbolTableRecord
100
AcDbLayerTableRecord
  2
53
 70
     0
 62
    53
  6
CONTINUOUS
  0
LAYER
  5
6F
330
2
100
AcDbSymbolTableRecord
100
AcDbLayerTableRecord
  2
54
 70
     0
 62
    54
  6
CONTINUOUS
  0
LAYER
  5
70
330
2
100
AcDbSymbolTableRecord
100
AcDbLayerTableRecord
  2
55
 70
     0
 62
    55
  6
CONTINUOUS
  0
LAYER
  5
71
330
2
100
AcDbSymbolTableRecord
100
AcDbLayerTableRecord
  2
56
 70
     0
 62
    56
  6
CONTINUOUS
  0
LAYER
  5
72
330
2
100
AcDbSymbolTableRecord
100
AcDbLayerTableRecord
  2
57
 70
     0
 62
    57
  6
CONTINUOUS
  0
LAYER
  5
73
330
2
100
AcDbSymbolTableRecord
100
AcDbLayerTableRecord
  2
58
 70
     0
 62
    58
  6
CONTINUOUS
  0
LAYER
  5
74
330
2
100
AcDbSymbolTableRecord
100
AcDbLayerTableRecord
  2
59
 70
     0
 62
    59
  6
CONTINUOUS
  0
LAYER
  5
75
330
2
100
AcDbSymbolTableRecord
100
AcDbLayerTableRecord
  2
60
 70
     0
 62
    60
  6
CONTINUOUS
  0
LAYER
  5
76
330
2
100
AcDbSymbolTableRecord
100
AcDbLayerTableRecord
  2
61
 70
     0
 62
    61
  6
CONTINUOUS
  0
LAYER
  5
77
330
2
100
AcDbSymbolTableRecord
100
AcDbLayerTableRecord
  2
62
 70
     0
 62
    62
  6
CONTINUOUS
  0
LAYER
  5
78
330
2
100
AcDbSymbolTableRecord
100
AcDbLayerTableRecord
  2
63
 70
     0
 62
    63
  6
CONTINUOUS
  0
LAYER
  5
79
330
2
100
AcDbSymbolTableRecord
100
AcDbLayerTableRecord
  2
64
 70
     0
 62
    64
  6
CONTINUOUS
  0
LAYER
  5
7A
330
2
100
AcDbSymbolTableRecord
100
AcDbLayerTableRecord
  2
65
 70
     0
 62
    65
  6
CONTINUOUS
  0
LAYER
  5
7B
330
2
100
AcDbSymbolTableRecord
100
AcDbLayerTableRecord
  2
66
 70
     0
 62
    66
  6
CONTINUOUS
  0
LAYER
  5
7C
330
2
100
AcDbSymbolTableRecord
100
AcDbLayerTableRecord
  2
67
 70
     0
 62
    67
  6
CONTINUOUS
  0
LAYER
  5
7D
330
2
100
AcDbSymbolTableRecord
100
AcDbLayerTableRecord
  2
68
 70
     0
 62
    68
  6
CONTINUOUS
  0
LAYER
  5
7E
330
2
100
AcDbSymbolTableRecord
100
AcDbLayerTableRecord
  2
69
 70
     0
 62
    69
  6
CONTINUOUS
  0
LAYER
  5
7F
330
2
100
AcDbSymbolTableRecord
100
AcDbLayerTableRecord
  2
70
 70
     0
 62
    70
  6
CONTINUOUS
  0
LAYER
  5
80
330
2
100
AcDbSymbolTableRecord
100
AcDbLayerTableRecord
  2
71
 70
     0
 62
    71
  6
CONTINUOUS
  0
LAYER
  5
81
330
2
100
AcDbSymbolTableRecord
100
AcDbLayerTableRecord
  2
72
 70
     0
 62
    72
  6
CONTINUOUS
  0
LAYER
  5
82
330
2
100
AcDbSymbolTableRecord
100
AcDbLayerTableRecord
  2
73
 70
     0
 62
    73
  6
CONTINUOUS
  0
LAYER
  5
83
330
2
100
AcDbSymbolTableRecord
100
AcDbLayerTableRecord
  2
74
 70
     0
 62
    74
  6
CONTINUOUS
  0
LAYER
  5
84
330
2
100
AcDbSymbolTableRecord
100
AcDbLayerTableRecord
  2
75
 70
     0
 62
    75
  6
CONTINUOUS
  0
LAYER
  5
85
330
2
100
AcDbSymbolTableRecord
100
AcDbLayerTableRecord
  2
76
 70
     0
 62
    76
  6
CONTINUOUS
  0
LAYER
  5
86
330
2
100
AcDbSymbolTableRecord
100
AcDbLayerTableRecord
  2
77
 70
     0
 62
    77
  6
CONTINUOUS
  0
LAYER
  5
87
330
2
100
AcDbSymbolTableRecord
100
AcDbLayerTableRecord
  2
78
 70
     0
 62
    78
  6
CONTINUOUS
  0
LAYER
  5
88
330
2
100
AcDbSymbolTableRecord
100
AcDbLayerTableRecord
  2
79
 70
     0
 62
    79
  6
CONTINUOUS
  0
LAYER
  5
89
330
2
100
AcDbSymbolTableRecord
100
AcDbLayerTableRecord
  2
80
 70
     0
 62
    80
  6
CONTINUOUS
  0
LAYER
  5
8A
330
2
100
AcDbSymbolTableRecord
100
AcDbLayerTableRecord
  2
81
 70
     0
 62
    81
  6
CONTINUOUS
  0
LAYER
  5
8B
330
2
100
AcDbSymbolTableRecord
100
AcDbLayerTableRecord
  2
82
 70
     0
 62
    82
  6
CONTINUOUS
  0
LAYER
  5
8C
330
2
100
AcDbSymbolTableRecord
100
AcDbLayerTableRecord
  2
83
 70
     0
 62
    83
  6
CONTINUOUS
  0
LAYER
  5
8D
330
2
100
AcDbSymbolTableRecord
100
AcDbLayerTableRecord
  2
84
 70
     0
 62
    84
  6
CONTINUOUS
  0
LAYER
  5
8E
330
2
100
AcDbSymbolTableRecord
100
AcDbLayerTableRecord
  2
85
 70
     0
 62
    85
  6
CONTINUOUS
  0
LAYER
  5
8F
330
2
100
AcDbSymbolTableRecord
100
AcDbLayerTableRecord
  2
86
 70
     0
 62
    86
  6
CONTINUOUS
  0
LAYER
  5
90
330
2
100
AcDbSymbolTableRecord
100
AcDbLayerTableRecord
  2
87
 70
     0
 62
    87
  6
CONTINUOUS
  0
LAYER
  5
91
330
2
100
AcDbSymbolTableRecord
100
AcDbLayerTableRecord
  2
88
 70
     0
 62
    88
  6
CONTINUOUS
  0
LAYER
  5
92
330
2
100
AcDbSymbolTableRecord
100
AcDbLayerTableRecord
  2
89
 70
     0
 62
    89
  6
CONTINUOUS
  0
LAYER
  5
93
330
2
100
AcDbSymbolTableRecord
100
AcDbLayerTableRecord
  2
90
 70
     0
 62
    90
  6
CONTINUOUS
  0
LAYER
  5
94
330
2
100
AcDbSymbolTableRecord
100
AcDbLayerTableRecord
  2
91
 70
     0
 62
    91
  6
CONTINUOUS
  0
LAYER
  5
95
330
2
100
AcDbSymbolTableRecord
100
AcDbLayerTableRecord
  2
92
 70
     0
 62
    92
  6
CONTINUOUS
  0
LAYER
  5
96
330
2
100
AcDbSymbolTableRecord
100
AcDbLayerTableRecord
  2
93
 70
     0
 62
    93
  6
CONTINUOUS
  0
LAYER
  5
97
330
2
100
AcDbSymbolTableRecord
100
AcDbLayerTableRecord
  2
94
 70
     0
 62
    94
  6
CONTINUOUS
  0
LAYER
  5
98
330
2
100
AcDbSymbolTableRecord
100
AcDbLayerTableRecord
  2
95
 70
     0
 62
    95
  6
CONTINUOUS
  0
LAYER
  5
99
330
2
100
AcDbSymbolTableRecord
100
AcDbLayerTableRecord
  2
96
 70
     0
 62
    96
  6
CONTINUOUS
  0
LAYER
  5
9A
330
2
100
AcDbSymbolTableRecord
100
AcDbLayerTableRecord
  2
97
 70
     0
 62
    97
  6
CONTINUOUS
  0
LAYER
  5
9B
330
2
100
AcDbSymbolTableRecord
100
AcDbLayerTableRecord
  2
98
 70
     0
 62
    98
  6
CONTINUOUS
  0
LAYER
  5
9C
330
2
100
AcDbSymbolTableRecord
100
AcDbLayerTableRecord
  2
99
 70
     0
 62
    99
  6
CONTINUOUS
  0
LAYER
  5
9D
330
2
100
AcDbSymbolTableRecord
100
AcDbLayerTableRecord
  2
100
 70
     0
 62
   100
  6
CONTINUOUS
  0
LAYER
  5
9E
330
2
100
AcDbSymbolTableRecord
100
AcDbLayerTableRecord
  2
101
 70
     0
 62
   101
  6
CONTINUOUS
  0
LAYER
  5
9F
330
2
100
AcDbSymbolTableRecord
100
AcDbLayerTableRecord
  2
102
 70
     0
 62
   102
  6
CONTINUOUS
  0
LAYER
  5
A0
330
2
100
AcDbSymbolTableRecord
100
AcDbLayerTableRecord
  2
103
 70
     0
 62
   103
  6
CONTINUOUS
  0
LAYER
  5
A1
330
2
100
AcDbSymbolTableRecord
100
AcDbLayerTableRecord
  2
104
 70
     0
 62
   104
  6
CONTINUOUS
  0
LAYER
  5
A2
330
2
100
AcDbSymbolTableRecord
100
AcDbLayerTableRecord
  2
105
 70
     0
 62
   105
  6
CONTINUOUS
  0
LAYER
  5
A3
330
2
100
AcDbSymbolTableRecord
100
AcDbLayerTableRecord
  2
106
 70
     0
 62
   106
  6
CONTINUOUS
  0
LAYER
  5
A4
330
2
100
AcDbSymbolTableRecord
100
AcDbLayerTableRecord
  2
107
 70
     0
 62
   107
  6
CONTINUOUS
  0
LAYER
  5
A5
330
2
100
AcDbSymbolTableRecord
100
AcDbLayerTableRecord
  2
108
 70
     0
 62
   108
  6
CONTINUOUS
  0
LAYER
  5
A6
330
2
100
AcDbSymbolTableRecord
100
AcDbLayerTableRecord
  2
109
 70
     0
 62
   109
  6
CONTINUOUS
  0
LAYER
  5
A7
330
2
100
AcDbSymbolTableRecord
100
AcDbLayerTableRecord
  2
110
 70
     0
 62
   110
  6
CONTINUOUS
  0
LAYER
  5
A8
330
2
100
AcDbSymbolTableRecord
100
AcDbLayerTableRecord
  2
111
 70
     0
 62
   111
  6
CONTINUOUS
  0
LAYER
  5
A9
330
2
100
AcDbSymbolTableRecord
100
AcDbLayerTableRecord
  2
112
 70
     0
 62
   112
  6
CONTINUOUS
  0
LAYER
  5
AA
330
2
100
AcDbSymbolTableRecord
100
AcDbLayerTableRecord
  2
113
 70
     0
 62
   113
  6
CONTINUOUS
  0
LAYER
  5
AB
330
2
100
AcDbSymbolTableRecord
100
AcDbLayerTableRecord
  2
114
 70
     0
 62
   114
  6
CONTINUOUS
  0
LAYER
  5
AC
330
2
100
AcDbSymbolTableRecord
100
AcDbLayerTableRecord
  2
115
 70
     0
 62
   115
  6
CONTINUOUS
  0
LAYER
  5
AD
330
2
100
AcDbSymbolTableRecord
100
AcDbLayerTableRecord
  2
116
 70
     0
 62
   116
  6
CONTINUOUS
  0
LAYER
  5
AE
330
2
100
AcDbSymbolTableRecord
100
AcDbLayerTableRecord
  2
117
 70
     0
 62
   117
  6
CONTINUOUS
  0
LAYER
  5
AF
330
2
100
AcDbSymbolTableRecord
100
AcDbLayerTableRecord
  2
118
 70
     0
 62
   118
  6
CONTINUOUS
  0
LAYER
  5
B0
330
2
100
AcDbSymbolTableRecord
100
AcDbLayerTableRecord
  2
119
 70
     0
 62
   119
  6
CONTINUOUS
  0
LAYER
  5
B1
330
2
100
AcDbSymbolTableRecord
100
AcDbLayerTableRecord
  2
120
 70
     0
 62
   120
  6
CONTINUOUS
  0
LAYER
  5
B2
330
2
100
AcDbSymbolTableRecord
100
AcDbLayerTableRecord
  2
121
 70
     0
 62
   121
  6
CONTINUOUS
  0
LAYER
  5
B3
330
2
100
AcDbSymbolTableRecord
100
AcDbLayerTableRecord
  2
122
 70
     0
 62
   122
  6
CONTINUOUS
  0
LAYER
  5
B4
330
2
100
AcDbSymbolTableRecord
100
AcDbLayerTableRecord
  2
123
 70
     0
 62
   123
  6
CONTINUOUS
  0
LAYER
  5
B5
330
2
100
AcDbSymbolTableRecord
100
AcDbLayerTableRecord
  2
124
 70
     0
 62
   124
  6
CONTINUOUS
  0
LAYER
  5
B6
330
2
100
AcDbSymbolTableRecord
100
AcDbLayerTableRecord
  2
125
 70
     0
 62
   125
  6
CONTINUOUS
  0
LAYER
  5
B7
330
2
100
AcDbSymbolTableRecord
100
AcDbLayerTableRecord
  2
126
 70
     0
 62
   126
  6
CONTINUOUS
  0
LAYER
  5
B8
330
2
100
AcDbSymbolTableRecord
100
AcDbLayerTableRecord
  2
127
 70
     0
 62
   127
  6
CONTINUOUS
  0
LAYER
  5
B9
330
2
100
AcDbSymbolTableRecord
100
AcDbLayerTableRecord
  2
128
 70
     0
 62
   128
  6
CONTINUOUS
  0
LAYER
  5
BA
330
2
100
AcDbSymbolTableRecord
100
AcDbLayerTableRecord
  2
129
 70
     0
 62
   129
  6
CONTINUOUS
  0
LAYER
  5
BB
330
2
100
AcDbSymbolTableRecord
100
AcDbLayerTableRecord
  2
130
 70
     0
 62
   130
  6
CONTINUOUS
  0
LAYER
  5
BC
330
2
100
AcDbSymbolTableRecord
100
AcDbLayerTableRecord
  2
131
 70
     0
 62
   131
  6
CONTINUOUS
  0
LAYER
  5
BD
330
2
100
AcDbSymbolTableRecord
100
AcDbLayerTableRecord
  2
132
 70
     0
 62
   132
  6
CONTINUOUS
  0
LAYER
  5
BE
330
2
100
AcDbSymbolTableRecord
100
AcDbLayerTableRecord
  2
133
 70
     0
 62
   133
  6
CONTINUOUS
  0
LAYER
  5
BF
330
2
100
AcDbSymbolTableRecord
100
AcDbLayerTableRecord
  2
134
 70
     0
 62
   134
  6
CONTINUOUS
  0
LAYER
  5
C0
330
2
100
AcDbSymbolTableRecord
100
AcDbLayerTableRecord
  2
135
 70
     0
 62
   135
  6
CONTINUOUS
  0
LAYER
  5
C1
330
2
100
AcDbSymbolTableRecord
100
AcDbLayerTableRecord
  2
136
 70
     0
 62
   136
  6
CONTINUOUS
  0
LAYER
  5
C2
330
2
100
AcDbSymbolTableRecord
100
AcDbLayerTableRecord
  2
137
 70
     0
 62
   137
  6
CONTINUOUS
  0
LAYER
  5
C3
330
2
100
AcDbSymbolTableRecord
100
AcDbLayerTableRecord
  2
138
 70
     0
 62
   138
  6
CONTINUOUS
  0
LAYER
  5
C4
330
2
100
AcDbSymbolTableRecord
100
AcDbLayerTableRecord
  2
139
 70
     0
 62
   139
  6
CONTINUOUS
  0
LAYER
  5
C5
330
2
100
AcDbSymbolTableRecord
100
AcDbLayerTableRecord
  2
140
 70
     0
 62
   140
  6
CONTINUOUS
  0
LAYER
  5
C6
330
2
100
AcDbSymbolTableRecord
100
AcDbLayerTableRecord
  2
141
 70
     0
 62
   141
  6
CONTINUOUS
  0
LAYER
  5
C7
330
2
100
AcDbSymbolTableRecord
100
AcDbLayerTableRecord
  2
142
 70
     0
 62
   142
  6
CONTINUOUS
  0
LAYER
  5
C8
330
2
100
AcDbSymbolTableRecord
100
AcDbLayerTableRecord
  2
143
 70
     0
 62
   143
  6
CONTINUOUS
  0
LAYER
  5
C9
330
2
100
AcDbSymbolTableRecord
100
AcDbLayerTableRecord
  2
144
 70
     0
 62
   144
  6
CONTINUOUS
  0
LAYER
  5
CA
330
2
100
AcDbSymbolTableRecord
100
AcDbLayerTableRecord
  2
145
 70
     0
 62
   145
  6
CONTINUOUS
  0
LAYER
  5
CB
330
2
100
AcDbSymbolTableRecord
100
AcDbLayerTableRecord
  2
146
 70
     0
 62
   146
  6
CONTINUOUS
  0
LAYER
  5
CC
330
2
100
AcDbSymbolTableRecord
100
AcDbLayerTableRecord
  2
147
 70
     0
 62
   147
  6
CONTINUOUS
  0
LAYER
  5
CD
330
2
100
AcDbSymbolTableRecord
100
AcDbLayerTableRecord
  2
148
 70
     0
 62
   148
  6
CONTINUOUS
  0
LAYER
  5
CE
330
2
100
AcDbSymbolTableRecord
100
AcDbLayerTableRecord
  2
149
 70
     0
 62
   149
  6
CONTINUOUS
  0
LAYER
  5
CF
330
2
100
AcDbSymbolTableRecord
100
AcDbLayerTableRecord
  2
150
 70
     0
 62
   150
  6
CONTINUOUS
  0
LAYER
  5
D0
330
2
100
AcDbSymbolTableRecord
100
AcDbLayerTableRecord
  2
151
 70
     0
 62
   151
  6
CONTINUOUS
  0
LAYER
  5
D1
330
2
100
AcDbSymbolTableRecord
100
AcDbLayerTableRecord
  2
152
 70
     0
 62
   152
  6
CONTINUOUS
  0
LAYER
  5
D2
330
2
100
AcDbSymbolTableRecord
100
AcDbLayerTableRecord
  2
153
 70
     0
 62
   153
  6
CONTINUOUS
  0
LAYER
  5
D3
330
2
100
AcDbSymbolTableRecord
100
AcDbLayerTableRecord
  2
154
 70
     0
 62
   154
  6
CONTINUOUS
  0
LAYER
  5
D4
330
2
100
AcDbSymbolTableRecord
100
AcDbLayerTableRecord
  2
155
 70
     0
 62
   155
  6
CONTINUOUS
  0
LAYER
  5
D5
330
2
100
AcDbSymbolTableRecord
100
AcDbLayerTableRecord
  2
156
 70
     0
 62
   156
  6
CONTINUOUS
  0
LAYER
  5
D6
330
2
100
AcDbSymbolTableRecord
100
AcDbLayerTableRecord
  2
157
 70
     0
 62
   157
  6
CONTINUOUS
  0
LAYER
  5
D7
330
2
100
AcDbSymbolTableRecord
100
AcDbLayerTableRecord
  2
158
 70
     0
 62
   158
  6
CONTINUOUS
  0
LAYER
  5
D8
330
2
100
AcDbSymbolTableRecord
100
AcDbLayerTableRecord
  2
159
 70
     0
 62
   159
  6
CONTINUOUS
  0
LAYER
  5
D9
330
2
100
AcDbSymbolTableRecord
100
AcDbLayerTableRecord
  2
160
 70
     0
 62
   160
  6
CONTINUOUS
  0
LAYER
  5
DA
330
2
100
AcDbSymbolTableRecord
100
AcDbLayerTableRecord
  2
161
 70
     0
 62
   161
  6
CONTINUOUS
  0
LAYER
  5
DB
330
2
100
AcDbSymbolTableRecord
100
AcDbLayerTableRecord
  2
162
 70
     0
 62
   162
  6
CONTINUOUS
  0
LAYER
  5
DC
330
2
100
AcDbSymbolTableRecord
100
AcDbLayerTableRecord
  2
163
 70
     0
 62
   163
  6
CONTINUOUS
  0
LAYER
  5
DD
330
2
100
AcDbSymbolTableRecord
100
AcDbLayerTableRecord
  2
164
 70
     0
 62
   164
  6
CONTINUOUS
  0
LAYER
  5
DE
330
2
100
AcDbSymbolTableRecord
100
AcDbLayerTableRecord
  2
165
 70
     0
 62
   165
  6
CONTINUOUS
  0
LAYER
  5
DF
330
2
100
AcDbSymbolTableRecord
100
AcDbLayerTableRecord
  2
166
 70
     0
 62
   166
  6
CONTINUOUS
  0
LAYER
  5
E0
330
2
100
AcDbSymbolTableRecord
100
AcDbLayerTableRecord
  2
167
 70
     0
 62
   167
  6
CONTINUOUS
  0
LAYER
  5
E1
330
2
100
AcDbSymbolTableRecord
100
AcDbLayerTableRecord
  2
168
 70
     0
 62
   168
  6
CONTINUOUS
  0
LAYER
  5
E2
330
2
100
AcDbSymbolTableRecord
100
AcDbLayerTableRecord
  2
169
 70
     0
 62
   169
  6
CONTINUOUS
  0
LAYER
  5
E3
330
2
100
AcDbSymbolTableRecord
100
AcDbLayerTableRecord
  2
170
 70
     0
 62
   170
  6
CONTINUOUS
  0
LAYER
  5
E4
330
2
100
AcDbSymbolTableRecord
100
AcDbLayerTableRecord
  2
171
 70
     0
 62
   171
  6
CONTINUOUS
  0
LAYER
  5
E5
330
2
100
AcDbSymbolTableRecord
100
AcDbLayerTableRecord
  2
172
 70
     0
 62
   172
  6
CONTINUOUS
  0
LAYER
  5
E6
330
2
100
AcDbSymbolTableRecord
100
AcDbLayerTableRecord
  2
173
 70
     0
 62
   173
  6
CONTINUOUS
  0
LAYER
  5
E7
330
2
100
AcDbSymbolTableRecord
100
AcDbLayerTableRecord
  2
174
 70
     0
 62
   174
  6
CONTINUOUS
  0
LAYER
  5
E8
330
2
100
AcDbSymbolTableRecord
100
AcDbLayerTableRecord
  2
175
 70
     0
 62
   175
  6
CONTINUOUS
  0
LAYER
  5
E9
330
2
100
AcDbSymbolTableRecord
100
AcDbLayerTableRecord
  2
176
 70
     0
 62
   176
  6
CONTINUOUS
  0
LAYER
  5
EA
330
2
100
AcDbSymbolTableRecord
100
AcDbLayerTableRecord
  2
177
 70
     0
 62
   177
  6
CONTINUOUS
  0
LAYER
  5
EB
330
2
100
AcDbSymbolTableRecord
100
AcDbLayerTableRecord
  2
178
 70
     0
 62
   178
  6
CONTINUOUS
  0
LAYER
  5
EC
330
2
100
AcDbSymbolTableRecord
100
AcDbLayerTableRecord
  2
179
 70
     0
 62
   179
  6
CONTINUOUS
  0
LAYER
  5
ED
330
2
100
AcDbSymbolTableRecord
100
AcDbLayerTableRecord
  2
180
 70
     0
 62
   180
  6
CONTINUOUS
  0
LAYER
  5
EE
330
2
100
AcDbSymbolTableRecord
100
AcDbLayerTableRecord
  2
181
 70
     0
 62
   181
  6
CONTINUOUS
  0
LAYER
  5
EF
330
2
100
AcDbSymbolTableRecord
100
AcDbLayerTableRecord
  2
182
 70
     0
 62
   182
  6
CONTINUOUS
  0
LAYER
  5
F0
330
2
100
AcDbSymbolTableRecord
100
AcDbLayerTableRecord
  2
183
 70
     0
 62
   183
  6
CONTINUOUS
  0
LAYER
  5
F1
330
2
100
AcDbSymbolTableRecord
100
AcDbLayerTableRecord
  2
184
 70
     0
 62
   184
  6
CONTINUOUS
  0
LAYER
  5
F2
330
2
100
AcDbSymbolTableRecord
100
AcDbLayerTableRecord
  2
185
 70
     0
 62
   185
  6
CONTINUOUS
  0
LAYER
  5
F3
330
2
100
AcDbSymbolTableRecord
100
AcDbLayerTableRecord
  2
186
 70
     0
 62
   186
  6
CONTINUOUS
  0
LAYER
  5
F4
330
2
100
AcDbSymbolTableRecord
100
AcDbLayerTableRecord
  2
187
 70
     0
 62
   187
  6
CONTINUOUS
  0
LAYER
  5
F5
330
2
100
AcDbSymbolTableRecord
100
AcDbLayerTableRecord
  2
188
 70
     0
 62
   188
  6
CONTINUOUS
  0
LAYER
  5
F6
330
2
100
AcDbSymbolTableRecord
100
AcDbLayerTableRecord
  2
189
 70
     0
 62
   189
  6
CONTINUOUS
  0
LAYER
  5
F7
330
2
100
AcDbSymbolTableRecord
100
AcDbLayerTableRecord
  2
190
 70
     0
 62
   190
  6
CONTINUOUS
  0
LAYER
  5
F8
330
2
100
AcDbSymbolTableRecord
100
AcDbLayerTableRecord
  2
191
 70
     0
 62
   191
  6
CONTINUOUS
  0
LAYER
  5
F9
330
2
100
AcDbSymbolTableRecord
100
AcDbLayerTableRecord
  2
192
 70
     0
 62
   192
  6
CONTINUOUS
  0
LAYER
  5
FA
330
2
100
AcDbSymbolTableRecord
100
AcDbLayerTableRecord
  2
193
 70
     0
 62
   193
  6
CONTINUOUS
  0
LAYER
  5
FB
330
2
100
AcDbSymbolTableRecord
100
AcDbLayerTableRecord
  2
194
 70
     0
 62
   194
  6
CONTINUOUS
  0
LAYER
  5
FC
330
2
100
AcDbSymbolTableRecord
100
AcDbLayerTableRecord
  2
195
 70
     0
 62
   195
  6
CONTINUOUS
  0
LAYER
  5
FD
330
2
100
AcDbSymbolTableRecord
100
AcDbLayerTableRecord
  2
196
 70
     0
 62
   196
  6
CONTINUOUS
  0
LAYER
  5
FE
330
2
100
AcDbSymbolTableRecord
100
AcDbLayerTableRecord
  2
197
 70
     0
 62
   197
  6
CONTINUOUS
  0
LAYER
  5
FF
330
2
100
AcDbSymbolTableRecord
100
AcDbLayerTableRecord
  2
198
 70
     0
 62
   198
  6
CONTINUOUS
  0
LAYER
  5
100
330
2
100
AcDbSymbolTableRecord
100
AcDbLayerTableRecord
  2
199
 70
     0
 62
   199
  6
CONTINUOUS
  0
LAYER
  5
101
330
2
100
AcDbSymbolTableRecord
100
AcDbLayerTableRecord
  2
200
 70
     0
 62
   200
  6
CONTINUOUS
  0
LAYER
  5
102
330
2
100
AcDbSymbolTableRecord
100
AcDbLayerTableRecord
  2
201
 70
     0
 62
   201
  6
CONTINUOUS
  0
LAYER
  5
103
330
2
100
AcDbSymbolTableRecord
100
AcDbLayerTableRecord
  2
202
 70
     0
 62
   202
  6
CONTINUOUS
  0
LAYER
  5
104
330
2
100
AcDbSymbolTableRecord
100
AcDbLayerTableRecord
  2
203
 70
     0
 62
   203
  6
CONTINUOUS
  0
LAYER
  5
105
330
2
100
AcDbSymbolTableRecord
100
AcDbLayerTableRecord
  2
204
 70
     0
 62
   204
  6
CONTINUOUS
  0
LAYER
  5
106
330
2
100
AcDbSymbolTableRecord
100
AcDbLayerTableRecord
  2
205
 70
     0
 62
   205
  6
CONTINUOUS
  0
LAYER
  5
107
330
2
100
AcDbSymbolTableRecord
100
AcDbLayerTableRecord
  2
206
 70
     0
 62
   206
  6
CONTINUOUS
  0
LAYER
  5
108
330
2
100
AcDbSymbolTableRecord
100
AcDbLayerTableRecord
  2
207
 70
     0
 62
   207
  6
CONTINUOUS
  0
LAYER
  5
109
330
2
100
AcDbSymbolTableRecord
100
AcDbLayerTableRecord
  2
208
 70
     0
 62
   208
  6
CONTINUOUS
  0
LAYER
  5
10A
330
2
100
AcDbSymbolTableRecord
100
AcDbLayerTableRecord
  2
209
 70
     0
 62
   209
  6
CONTINUOUS
  0
LAYER
  5
10B
330
2
100
AcDbSymbolTableRecord
100
AcDbLayerTableRecord
  2
210
 70
     0
 62
   210
  6
CONTINUOUS
  0
LAYER
  5
10C
330
2
100
AcDbSymbolTableRecord
100
AcDbLayerTableRecord
  2
211
 70
     0
 62
   211
  6
CONTINUOUS
  0
LAYER
  5
10D
330
2
100
AcDbSymbolTableRecord
100
AcDbLayerTableRecord
  2
212
 70
     0
 62
   212
  6
CONTINUOUS
  0
LAYER
  5
10E
330
2
100
AcDbSymbolTableRecord
100
AcDbLayerTableRecord
  2
213
 70
     0
 62
   213
  6
CONTINUOUS
  0
LAYER
  5
10F
330
2
100
AcDbSymbolTableRecord
100
AcDbLayerTableRecord
  2
214
 70
     0
 62
   214
  6
CONTINUOUS
  0
LAYER
  5
110
330
2
100
AcDbSymbolTableRecord
100
AcDbLayerTableRecord
  2
215
 70
     0
 62
   215
  6
CONTINUOUS
  0
LAYER
  5
111
330
2
100
AcDbSymbolTableRecord
100
AcDbLayerTableRecord
  2
216
 70
     0
 62
   216
  6
CONTINUOUS
  0
LAYER
  5
112
330
2
100
AcDbSymbolTableRecord
100
AcDbLayerTableRecord
  2
217
 70
     0
 62
   217
  6
CONTINUOUS
  0
LAYER
  5
113
330
2
100
AcDbSymbolTableRecord
100
AcDbLayerTableRecord
  2
218
 70
     0
 62
   218
  6
CONTINUOUS
  0
LAYER
  5
114
330
2
100
AcDbSymbolTableRecord
100
AcDbLayerTableRecord
  2
219
 70
     0
 62
   219
  6
CONTINUOUS
  0
LAYER
  5
115
330
2
100
AcDbSymbolTableRecord
100
AcDbLayerTableRecord
  2
220
 70
     0
 62
   220
  6
CONTINUOUS
  0
LAYER
  5
116
330
2
100
AcDbSymbolTableRecord
100
AcDbLayerTableRecord
  2
221
 70
     0
 62
   221
  6
CONTINUOUS
  0
LAYER
  5
117
330
2
100
AcDbSymbolTableRecord
100
AcDbLayerTableRecord
  2
222
 70
     0
 62
   222
  6
CONTINUOUS
  0
LAYER
  5
118
330
2
100
AcDbSymbolTableRecord
100
AcDbLayerTableRecord
  2
223
 70
     0
 62
   223
  6
CONTINUOUS
  0
LAYER
  5
119
330
2
100
AcDbSymbolTableRecord
100
AcDbLayerTableRecord
  2
224
 70
     0
 62
   224
  6
CONTINUOUS
  0
LAYER
  5
11A
330
2
100
AcDbSymbolTableRecord
100
AcDbLayerTableRecord
  2
225
 70
     0
 62
   225
  6
CONTINUOUS
  0
LAYER
  5
11B
330
2
100
AcDbSymbolTableRecord
100
AcDbLayerTableRecord
  2
226
 70
     0
 62
   226
  6
CONTINUOUS
  0
LAYER
  5
11C
330
2
100
AcDbSymbolTableRecord
100
AcDbLayerTableRecord
  2
227
 70
     0
 62
   227
  6
CONTINUOUS
  0
LAYER
  5
11D
330
2
100
AcDbSymbolTableRecord
100
AcDbLayerTableRecord
  2
228
 70
     0
 62
   228
  6
CONTINUOUS
  0
LAYER
  5
11E
330
2
100
AcDbSymbolTableRecord
100
AcDbLayerTableRecord
  2
229
 70
     0
 62
   229
  6
CONTINUOUS
  0
LAYER
  5
11F
330
2
100
AcDbSymbolTableRecord
100
AcDbLayerTableRecord
  2
230
 70
     0
 62
   230
  6
CONTINUOUS
  0
LAYER
  5
120
330
2
100
AcDbSymbolTableRecord
100
AcDbLayerTableRecord
  2
231
 70
     0
 62
   231
  6
CONTINUOUS
  0
LAYER
  5
121
330
2
100
AcDbSymbolTableRecord
100
AcDbLayerTableRecord
  2
232
 70
     0
 62
   232
  6
CONTINUOUS
  0
LAYER
  5
122
330
2
100
AcDbSymbolTableRecord
100
AcDbLayerTableRecord
  2
233
 70
     0
 62
   233
  6
CONTINUOUS
  0
LAYER
  5
123
330
2
100
AcDbSymbolTableRecord
100
AcDbLayerTableRecord
  2
234
 70
     0
 62
   234
  6
CONTINUOUS
  0
LAYER
  5
124
330
2
100
AcDbSymbolTableRecord
100
AcDbLayerTableRecord
  2
235
 70
     0
 62
   235
  6
CONTINUOUS
  0
LAYER
  5
125
330
2
100
AcDbSymbolTableRecord
100
AcDbLayerTableRecord
  2
236
 70
     0
 62
   236
  6
CONTINUOUS
  0
LAYER
  5
126
330
2
100
AcDbSymbolTableRecord
100
AcDbLayerTableRecord
  2
237
 70
     0
 62
   237
  6
CONTINUOUS
  0
LAYER
  5
127
330
2
100
AcDbSymbolTableRecord
100
AcDbLayerTableRecord
  2
238
 70
     0
 62
   238
  6
CONTINUOUS
  0
LAYER
  5
128
330
2
100
AcDbSymbolTableRecord
100
AcDbLayerTableRecord
  2
239
 70
     0
 62
   239
  6
CONTINUOUS
  0
LAYER
  5
129
330
2
100
AcDbSymbolTableRecord
100
AcDbLayerTableRecord
  2
240
 70
     0
 62
   240
  6
CONTINUOUS
  0
LAYER
  5
12A
330
2
100
AcDbSymbolTableRecord
100
AcDbLayerTableRecord
  2
241
 70
     0
 62
   241
  6
CONTINUOUS
  0
LAYER
  5
12B
330
2
100
AcDbSymbolTableRecord
100
AcDbLayerTableRecord
  2
242
 70
     0
 62
   242
  6
CONTINUOUS
  0
LAYER
  5
12C
330
2
100
AcDbSymbolTableRecord
100
AcDbLayerTableRecord
  2
243
 70
     0
 62
   243
  6
CONTINUOUS
  0
LAYER
  5
12D
330
2
100
AcDbSymbolTableRecord
100
AcDbLayerTableRecord
  2
244
 70
     0
 62
   244
  6
CONTINUOUS
  0
LAYER
  5
12E
330
2
100
AcDbSymbolTableRecord
100
AcDbLayerTableRecord
  2
245
 70
     0
 62
   245
  6
CONTINUOUS
  0
LAYER
  5
12F
330
2
100
AcDbSymbolTableRecord
100
AcDbLayerTableRecord
  2
246
 70
     0
 62
   246
  6
CONTINUOUS
  0
LAYER
  5
130
330
2
100
AcDbSymbolTableRecord
100
AcDbLayerTableRecord
  2
247
 70
     0
 62
   247
  6
CONTINUOUS
  0
LAYER
  5
131
330
2
100
AcDbSymbolTableRecord
100
AcDbLayerTableRecord
  2
248
 70
     0
 62
   248
  6
CONTINUOUS
  0
LAYER
  5
132
330
2
100
AcDbSymbolTableRecord
100
AcDbLayerTableRecord
  2
249
 70
     0
 62
   249
  6
CONTINUOUS
  0
LAYER
  5
133
330
2
100
AcDbSymbolTableRecord
100
AcDbLayerTableRecord
  2
250
 70
     0
 62
   250
  6
CONTINUOUS
  0
LAYER
  5
134
330
2
100
AcDbSymbolTableRecord
100
AcDbLayerTableRecord
  2
251
 70
     0
 62
   251
  6
CONTINUOUS
  0
LAYER
  5
135
330
2
100
AcDbSymbolTableRecord
100
AcDbLayerTableRecord
  2
252
 70
     0
 62
   252
  6
CONTINUOUS
  0
LAYER
  5
136
330
2
100
AcDbSymbolTableRecord
100
AcDbLayerTableRecord
  2
253
 70
     0
 62
   253
  6
CONTINUOUS
  0
LAYER
  5
137
330
2
100
AcDbSymbolTableRecord
100
AcDbLayerTableRecord
  2
254
 70
     0
 62
   254
  6
CONTINUOUS
  0
LAYER
  5
138
330
2
100
AcDbSymbolTableRecord
100
AcDbLayerTableRecord
  2
255
 70
     0
 62
   255
  6
CONTINUOUS
  0
LAYER
  5
27A0
330
2
100
AcDbSymbolTableRecord
100
AcDbLayerTableRecord
  2
DEFPOINTS
 70
     0
 62
     7
  6
CONTINUOUS
  0
ENDTAB
  0
TABLE
  2
STYLE
  5
3
330
0
100
AcDbSymbolTable
 70
     1
  0
STYLE
  5
11
330
3
100
AcDbSymbolTableRecord
100
AcDbTextStyleTableRecord
  2
STANDARD
 70
     0
 40
0.0
 41
1.0
 50
0.0
 71
     0
 42
0.2
  3
txt
  4

  0
ENDTAB
  0
TABLE
  2
VIEW
  5
6
330
0
100
AcDbSymbolTable
 70
     0
  0
ENDTAB
  0
TABLE
  2
UCS
  5
7
330
0
100
AcDbSymbolTable
 70
     0
  0
ENDTAB
  0
TABLE
  2
APPID
  5
9
330
0
100
AcDbSymbolTable
 70
     1
  0
APPID
  5
12
330
9
100
AcDbSymbolTableRecord
100
AcDbRegAppTableRecord
  2
ACAD
 70
     0
  0
ENDTAB
  0
TABLE
  2
DIMSTYLE
  5
A
330
0
100
AcDbSymbolTable
 70
     1
  0
DIMSTYLE
105
279C
102
{ACAD_REACTORS
330
279F
102
}
330
A
100
AcDbSymbolTableRecord
100
AcDbDimStyleTableRecord
  2
STANDARD
 70
     0
  3

  4

  5

  6

  7

 40
1.0
 41
0.18
 42
0.0625
 43
0.38
 44
0.18
 45
0.0
 46
0.0
 47
0.0
 48
0.0
140
0.18
141
0.09
142
0.0
143
25.4
144
1.0
145
0.0
146
1.0
147
0.09
 71
     0
 72
     0
 73
     1
 74
     1
 75
     0
 76
     0
 77
     0
 78
     0
170
     0
171
     2
172
     0
173
     0
174
     0
175
     0
176
     0
177
     0
178
     0
270
     2
271
     4
272
     4
273
     2
274
     2
340
11
275
     0
280
     0
281
     0
282
     0
283
     1
284
     0
285
     0
286
     0
287
     3
288
     0
  0
ENDTAB
  0
TABLE
  2
BLOCK_RECORD
  5
1
330
0
100
AcDbSymbolTable
 70
     1
  0
BLOCK_RECORD
  5
1E
102
{ACAD_XDICTIONARY
360
27B2
102
}
330
1
100
AcDbSymbolTableRecord
100
AcDbBlockTableRecord
  2
*MODEL_SPACE
  0
BLOCK_RECORD
  5
1A
102
{ACAD_XDICTIONARY
360
27B0
102
}
330
1
100
AcDbSymbolTableRecord
100
AcDbBlockTableRecord
  2
*PAPER_SPACE
  0
BLOCK_RECORD
  5
27A1
330
1
100
AcDbSymbolTableRecord
100
AcDbBlockTableRecord
  2
*D0
  0
ENDTAB
  0
ENDSEC
  0
SECTION
  2
BLOCKS
  0
BLOCK
  5
13B
330
1E
100
AcDbEntity
  8
0
100
AcDbBlockBegin
  2
*MODEL_SPACE
 70
     0
 10
0.0
 20
0.0
 30
0.0
  3
*MODEL_SPACE
  1

  0
ENDBLK
  5
13C
330
1E
100
AcDbEntity
  8
0
100
AcDbBlockEnd
  0
BLOCK
  5
139
330
1A
100
AcDbEntity
 67
     1
  8
0
100
AcDbBlockBegin
  2
*PAPER_SPACE
 70
     0
 10
0.0
 20
0.0
 30
0.0
  3
*PAPER_SPACE
  1

  0
ENDBLK
  5
13A
330
1A
100
AcDbEntity
 67
     1
  8
0
100
AcDbBlockEnd
  0
BLOCK
  5
27AC
330
27A1
100
AcDbEntity
  8
0
100
AcDbBlockBegin
  2
*D0
 70
     1
 10
0.0
 20
0.0
 30
0.0
  3
*D0
  1

  0
LINE
  5
27A2
330
27A1
100
AcDbEntity
  8
0
 62
     0
100
AcDbLine
 10
-0.8908529838958179
 20
8.140419946428149
 30
0.0
 11
-2.466089768241775
 21
8.140419946428149
 31
0.0
  0
LINE
  5
27A3
330
27A1
100
AcDbEntity
  8
0
 62
     0
100
AcDbLine
 10
-0.8908529838958179
 20
3.640419947553149
 30
0.0
 11
-2.466089768241776
 21
3.64041994755315
 31
0.0
  0
LINE
  5
27A4
330
27A1
100
AcDbEntity
  8
0
 62
     0
100
AcDbLine
 10
-2.286089768241775
 20
7.96041994642815
 30
0.0
 11
-2.286089768241776
 21
6.07041994699065
 31
0.0
  0
LINE
  5
27A5
330
27A1
100
AcDbEntity
  8
0
 62
     0
100
AcDbLine
 10
-2.286089768241776
 20
3.82041994755315
 30
0.0
 11
-2.286089768241776
 21
5.710419946990651
 31
0.0
  0
SOLID
  5
27A6
330
27A1
100
AcDbEntity
  8
0
 62
     0
100
AcDbTrace
 10
-2.316089768241775
 20
7.96041994642815
 30
0.0
 11
-2.256089768241775
 21
7.96041994642815
 31
0.0
 12
-2.286089768241775
 22
8.140419946428149
 32
0.0
 13
-2.286089768241775
 23
8.140419946428149
 33
0.0
  0
SOLID
  5
27A7
330
27A1
100
AcDbEntity
  8
0
 62
     0
100
AcDbTrace
 10
-2.316089768241776
 20
3.82041994755315
 30
0.0
 11
-2.256089768241776
 21
3.82041994755315
 31
0.0
 12
-2.286089768241776
 22
3.64041994755315
 32
0.0
 13
-2.286089768241776
 23
3.64041994755315
 33
0.0
  0
MTEXT
  5
27A8
330
27A1
100
AcDbEntity
  8
0
 62
     0
100
AcDbMText
 10
-2.286089768241776
 20
5.890419946990649
 30
0.0
 40
0.18
 41
0.0
 71
     5
 72
     1
  1
\A1;4.5000
1001
ACAD
1000
MTEXTBEGIN
1070
    73
1070
     1
1070
    44
1040
1.0
1070
    74
1070
     0
1000
MTEXTEND
  0
POINT
  5
27A9
330
27A1
100
AcDbEntity
  8
DEFPOINTS
 62
     0
100
AcDbPoint
 10
-0.8283529838958179
 20
8.140419946428149
 30
0.0
  0
POINT
  5
27AA
330
27A1
100
AcDbEntity
  8
DEFPOINTS
 62
     0
100
AcDbPoint
 10
-0.8283529838958179
 20
3.640419947553149
 30
0.0
  0
POINT
  5
27AB
330
27A1
100
AcDbEntity
  8
DEFPOINTS
 62
     0
100
AcDbPoint
 10
-2.286089768241776
 20
3.64041994755315
 30
0.0
  0
ENDBLK
  5
27AD
330
27A1
100
AcDbEntity
  8
0
100
AcDbBlockEnd
  0
ENDSEC
  0
SECTION
  2
ENTITIES
  0
POLYLINE
  5
265E
330
1E
100
AcDbEntity
  8
0
100
AcDb2dPolyline
 66
     1
 10
0.0
 20
0.0
 30
0.0
  0
VERTEX
  5
27B4
330
265E
100
AcDbEntity
  8
0
100
AcDbVertex
100
AcDb2dVertex
 10
1.71889110995556
 20
6.020997374779526
 30
0.0
  0
VERTEX
  5
27B5
330
265E
100
AcDbEntity
  8
0
100
AcDbVertex
100
AcDb2dVertex
 10
1.741200821236073
 20
6.099737532240157
 30
0.0
  0
VERTEX
  5
27B6
330
265E
100
AcDbEntity
  8
0
100
AcDbVertex
100
AcDb2dVertex
 10
1.774009220178001
 20
6.173228345870078
 30
0.0
  0
VERTEX
  5
27B7
330
265E
100
AcDbEntity
  8
0
100
AcDbVertex
100
AcDb2dVertex
 10
1.817316306781348
 20
6.242782151626967
 30
0.0
  0
VERTEX
  5
27B8
330
265E
100
AcDbEntity
  8
0
100
AcDbVertex
100
AcDb2dVertex
 10
1.869809745088435
 20
6.304461941637794
 30
0.0
  0
VERTEX
  5
27B9
330
265E
100
AcDbEntity
  8
0
100
AcDbVertex
100
AcDb2dVertex
 10
1.928864863183907
 20
6.359580051860236
 30
0.0
  0
VERTEX
  5
27BA
330
265E
100
AcDbEntity
  8
0
100
AcDbVertex
100
AcDb2dVertex
 10
1.995793997025442
 20
6.406824146336614
 30
0.0
  0
VERTEX
  5
27BB
330
265E
100
AcDbEntity
  8
0
100
AcDbVertex
100
AcDb2dVertex
 10
2.067972474697686
 20
6.443569553151574
 30
0.0
  0
VERTEX
  5
27BC
330
265E
100
AcDbEntity
  8
0
100
AcDbVertex
100
AcDb2dVertex
 10
2.145400296200639
 20
6.471128608262794
 30
0.0
  0
VERTEX
  5
27BD
330
265E
100
AcDbEntity
  8
0
100
AcDbVertex
100
AcDb2dVertex
 10
2.224140453661269
 20
6.48687663975492
 30
0.0
  0
VERTEX
  5
27BE
330
265E
100
AcDbEntity
  8
0
100
AcDbVertex
100
AcDb2dVertex
 10
2.305505283037253
 20
6.492125983585629
 30
0.0
  0
VERTEX
  5
27BF
330
265E
100
AcDbEntity
  8
0
100
AcDbVertex
100
AcDb2dVertex
 10
2.386870112413237
 20
6.48687663975492
 30
0.0
  0
VERTEX
  5
27C0
330
265E
100
AcDbEntity
  8
0
100
AcDbVertex
100
AcDb2dVertex
 10
2.465610269873867
 20
6.471128608262794
 30
0.0
  0
VERTEX
  5
27C1
330
265E
100
AcDbEntity
  8
0
100
AcDbVertex
100
AcDb2dVertex
 10
2.54303809137682
 20
6.443569553151574
 30
0.0
  0
VERTEX
  5
27C2
330
265E
100
AcDbEntity
  8
0
100
AcDbVertex
100
AcDb2dVertex
 10
2.615216569049064
 20
6.406824146336614
 30
0.0
  0
VERTEX
  5
27C3
330
265E
100
AcDbEntity
  8
0
100
AcDbVertex
100
AcDb2dVertex
 10
2.6821457028906
 20
6.359580051860236
 30
0.0
  0
VERTEX
  5
27C4
330
265E
100
AcDbEntity
  8
0
100
AcDbVertex
100
AcDb2dVertex
 10
2.741200820986072
 20
6.304461941637794
 30
0.0
  0
VERTEX
  5
27C5
330
265E
100
AcDbEntity
  8
0
100
AcDbVertex
100
AcDb2dVertex
 10
2.793694259293158
 20
6.242782151626967
 30
0.0
  0
VERTEX
  5
27C6
330
265E
100
AcDbEntity
  8
0
100
AcDbVertex
100
AcDb2dVertex
 10
2.837001345896505
 20
6.173228345870078
 30
0.0
  0
VERTEX
  5
27C7
330
265E
100
AcDbEntity
  8
0
100
AcDbVertex
100
AcDb2dVertex
 10
2.869809744838434
 20
6.099737532240157
 30
0.0
  0
VERTEX
  5
27C8
330
265E
100
AcDbEntity
  8
0
100
AcDbVertex
100
AcDb2dVertex
 10
2.892119456118947
 20
6.020997374779526
 30
0.0
  0
SEQEND
  5
27C9
330
265E
100
AcDbEntity
  8
0
  0
LINE
  5
2675
330
1E
100
AcDbEntity
  8
0
100
AcDbLine
 10
3.558786122618946
 20
7.955380576395668
 30
0.0
 11
3.558786122618946
 21
3.826771653543307
 31
0.0
  0
LINE
  5
2676
330
1E
100
AcDbEntity
  8
0
100
AcDbLine
 10
3.680833366682922
 20
3.70472440947933
 30
0.0
 11
3.558786122618946
 21
3.826771653543307
 31
0.0
  0
LINE
  5
2677
330
1E
100
AcDbEntity
  8
0
100
AcDbLine
 10
3.680833366682922
 20
8.076115484501967
 30
0.0
 11
3.680833366682922
 21
3.70472440947933
 31
0.0
  0
LINE
  5
2678
330
1E
100
AcDbEntity
  8
0
100
AcDbLine
 10
3.680833366682922
 20
8.076115484501967
 30
0.0
 11
3.558786122618946
 21
7.955380576395668
 31
0.0
  0
POLYLINE
  5
2679
330
1E
100
AcDbEntity
  8
0
100
AcDb2dPolyline
 66
     1
 10
0.0
 20
0.0
 30
0.0
  0
VERTEX
  5
27CA
330
2679
100
AcDbEntity
  8
0
100
AcDbVertex
100
AcDb2dVertex
 10
3.494481660692765
 20
3.826771653543306
 30
0.0
  0
VERTEX
  5
27CB
330
2679
100
AcDbEntity
  8
0
100
AcDbVertex
100
AcDb2dVertex
 10
3.528602395592371
 20
3.826771653543306
 30
0.0
  0
VERTEX
  5
27CC
330
2679
100
AcDbEntity
  8
0
100
AcDbVertex
100
AcDb2dVertex
 10
3.558786122618946
 20
3.826771653543306
 30
0.0
  0
SEQEND
  5
27CD
330
2679
100
AcDbEntity
  8
0
  0
POLYLINE
  5
267E
330
1E
100
AcDbEntity
  8
0
100
AcDb2dPolyline
 66
     1
 10
0.0
 20
0.0
 30
0.0
  0
VERTEX
  5
27CE
330
267E
100
AcDbEntity
  8
0
100
AcDbVertex
100
AcDb2dVertex
 10
3.494481660692765
 20
3.826771653543306
 30
0.0
  0
VERTEX
  5
27CF
330
267E
100
AcDbEntity
  8
0
100
AcDbVertex
100
AcDb2dVertex
 10
3.494481660692765
 20
3.7926509186437
 30
0.0
  0
VERTEX
  5
27D0
330
267E
100
AcDbEntity
  8
0
100
AcDbVertex
100
AcDb2dVertex
 10
3.494481660692765
 20
3.762467191617125
 30
0.0
  0
SEQEND
  5
27D1
330
267E
100
AcDbEntity
  8
0
  0
POLYLINE
  5
2683
330
1E
100
AcDbEntity
  8
0
100
AcDb2dPolyline
 66
     1
 10
0.0
 20
0.0
 30
0.0
  0
VERTEX
  5
27D2
330
2683
100
AcDbEntity
  8
0
100
AcDbVertex
100
AcDb2dVertex
 10
3.558786122618946
 20
3.826771653543306
 30
0.0
  0
VERTEX
  5
27D3
330
2683
100
AcDbEntity
  8
0
100
AcDbVertex
100
AcDb2dVertex
 10
3.531227067507725
 20
3.790026246728346
 30
0.0
  0
VERTEX
  5
27D4
330
2683
100
AcDbEntity
  8
0
100
AcDbVertex
100
AcDb2dVertex
 10
3.494481660692765
 20
3.762467191617125
 30
0.0
  0
SEQEND
  5
27D5
330
2683
100
AcDbEntity
  8
0
  0
LINE
  5
2688
330
1E
100
AcDbEntity
  8
0
100
AcDbLine
 10
3.494481660692765
 20
3.762467191617125
 30
0.0
 11
3.616528904756742
 21
3.640419947553149
 31
0.0
  0
POLYLINE
  5
2689
330
1E
100
AcDbEntity
  8
0
100
AcDb2dPolyline
 66
     1
 10
0.0
 20
0.0
 30
0.0
  0
VERTEX
  5
27D6
330
2689
100
AcDbEntity
  8
0
100
AcDbVertex
100
AcDb2dVertex
 10
3.616528904756742
 20
3.640419947553149
 30
0.0
  0
VERTEX
  5
27D7
330
2689
100
AcDbEntity
  8
0
100
AcDbVertex
100
AcDb2dVertex
 10
3.646712631783316
 20
3.640419947553149
 30
0.0
  0
VERTEX
  5
27D8
330
2689
100
AcDbEntity
  8
0
100
AcDbVertex
100
AcDb2dVertex
 10
3.680833366682922
 20
3.640419947553149
 30
0.0
  0
SEQEND
  5
27D9
330
2689
100
AcDbEntity
  8
0
  0
POLYLINE
  5
268E
330
1E
100
AcDbEntity
  8
0
100
AcDb2dPolyline
 66
     1
 10
0.0
 20
0.0
 30
0.0
  0
VERTEX
  5
27DA
330
268E
100
AcDbEntity
  8
0
100
AcDbVertex
100
AcDb2dVertex
 10
3.680833366682922
 20
3.640419947553149
 30
0.0
  0
VERTEX
  5
27DB
330
268E
100
AcDbEntity
  8
0
100
AcDbVertex
100
AcDb2dVertex
 10
3.680833366682922
 20
3.674540682452756
 30
0.0
  0
VERTEX
  5
27DC
330
268E
100
AcDbEntity
  8
0
100
AcDbVertex
100
AcDb2dVertex
 10
3.680833366682922
 20
3.70472440947933
 30
0.0
  0
SEQEND
  5
27DD
330
268E
100
AcDbEntity
  8
0
  0
POLYLINE
  5
2693
330
1E
100
AcDbEntity
  8
0
100
AcDb2dPolyline
 66
     1
 10
0.0
 20
0.0
 30
0.0
  0
VERTEX
  5
27DE
330
2693
100
AcDbEntity
  8
0
100
AcDbVertex
100
AcDb2dVertex
 10
3.680833366682922
 20
8.140419946428149
 30
0.0
  0
VERTEX
  5
27DF
330
2693
100
AcDbEntity
  8
0
100
AcDbVertex
100
AcDb2dVertex
 10
3.680833366682922
 20
8.10761154748622
 30
0.0
  0
VERTEX
  5
27E0
330
2693
100
AcDbEntity
  8
0
100
AcDbVertex
100
AcDb2dVertex
 10
3.680833366682922
 20
8.076115484501968
 30
0.0
  0
SEQEND
  5
27E1
330
2693
100
AcDbEntity
  8
0
  0
POLYLINE
  5
2698
330
1E
100
AcDbEntity
  8
0
100
AcDb2dPolyline
 66
     1
 10
0.0
 20
0.0
 30
0.0
  0
VERTEX
  5
27E2
330
2698
100
AcDbEntity
  8
0
100
AcDbVertex
100
AcDb2dVertex
 10
3.616528904756742
 20
8.140419946428149
 30
0.0
  0
VERTEX
  5
27E3
330
2698
100
AcDbEntity
  8
0
100
AcDbVertex
100
AcDb2dVertex
 10
3.646712631783316
 20
8.140419946428149
 30
0.0
  0
VERTEX
  5
27E4
330
2698
100
AcDbEntity
  8
0
100
AcDbVertex
100
AcDb2dVertex
 10
3.680833366682922
 20
8.140419946428149
 30
0.0
  0
SEQEND
  5
27E5
330
2698
100
AcDbEntity
  8
0
  0
LINE
  5
269D
330
1E
100
AcDbEntity
  8
0
100
AcDbLine
 10
3.494481660692765
 20
8.019685038321849
 30
0.0
 11
3.616528904756742
 21
8.140419946428149
 31
0.0
  0
POLYLINE
  5
269E
330
1E
100
AcDbEntity
  8
0
100
AcDb2dPolyline
 66
     1
 10
0.0
 20
0.0
 30
0.0
  0
VERTEX
  5
27E6
330
269E
100
AcDbEntity
  8
0
100
AcDbVertex
100
AcDb2dVertex
 10
3.558786122618946
 20
7.955380576395667
 30
0.0
  0
VERTEX
  5
27E7
330
269E
100
AcDbEntity
  8
0
100
AcDbVertex
100
AcDb2dVertex
 10
3.531227067507725
 20
7.992125983210628
 30
0.0
  0
VERTEX
  5
27E8
330
269E
100
AcDbEntity
  8
0
100
AcDbVertex
100
AcDb2dVertex
 10
3.494481660692765
 20
8.019685038321851
 30
0.0
  0
SEQEND
  5
27E9
330
269E
100
AcDbEntity
  8
0
  0
POLYLINE
  5
26A3
330
1E
100
AcDbEntity
  8
0
100
AcDb2dPolyline
 66
     1
 10
0.0
 20
0.0
 30
0.0
  0
VERTEX
  5
27EA
330
26A3
100
AcDbEntity
  8
0
100
AcDbVertex
100
AcDb2dVertex
 10
3.494481660692765
 20
7.955380576395667
 30
0.0
  0
VERTEX
  5
27EB
330
26A3
100
AcDbEntity
  8
0
100
AcDbVertex
100
AcDb2dVertex
 10
3.528602395592371
 20
7.955380576395667
 30
0.0
  0
VERTEX
  5
27EC
330
26A3
100
AcDbEntity
  8
0
100
AcDbVertex
100
AcDb2dVertex
 10
3.558786122618946
 20
7.955380576395667
 30
0.0
  0
SEQEND
  5
27ED
330
26A3
100
AcDbEntity
  8
0
  0
POLYLINE
  5
26A8
330
1E
100
AcDbEntity
  8
0
100
AcDb2dPolyline
 66
     1
 10
0.0
 20
0.0
 30
0.0
  0
VERTEX
  5
27EE
330
26A8
100
AcDbEntity
  8
0
100
AcDbVertex
100
AcDb2dVertex
 10
3.494481660692765
 20
7.955380576395667
 30
0.0
  0
VERTEX
  5
27EF
330
26A8
100
AcDbEntity
  8
0
100
AcDbVertex
100
AcDb2dVertex
 10
3.494481660692765
 20
7.989501311295275
 30
0.0
  0
VERTEX
  5
27F0
330
26A8
100
AcDbEntity
  8
0
100
AcDbVertex
100
AcDb2dVertex
 10
3.494481660692765
 20
8.019685038321851
 30
0.0
  0
SEQEND
  5
27F1
330
26A8
100
AcDbEntity
  8
0
  0
LINE
  5
26AD
330
1E
100
AcDbEntity
  8
0
100
AcDbLine
 10
3.494481660692765
 20
3.826771653543307
 30
0.0
 11
3.494481660692765
 21
7.955380576395668
 31
0.0
  0
POLYLINE
  5
26AE
330
1E
100
AcDbEntity
  8
0
100
AcDb2dPolyline
 66
     1
 10
0.0
 20
0.0
 30
0.0
  0
VERTEX
  5
27F2
330
26AE
100
AcDbEntity
  8
0
100
AcDbVertex
100
AcDb2dVertex
 10
0.9301771993915842
 20
8.140419946428149
 30
0.0
  0
VERTEX
  5
27F3
330
26AE
100
AcDbEntity
  8
0
100
AcDbVertex
100
AcDb2dVertex
 10
0.9629855983335136
 20
8.140419946428149
 30
0.0
  0
VERTEX
  5
27F4
330
26AE
100
AcDbEntity
  8
0
100
AcDbVertex
100
AcDb2dVertex
 10
0.9944816613177657
 20
8.140419946428149
 30
0.0
  0
SEQEND
  5
27F5
330
26AE
100
AcDbEntity
  8
0
  0
LINE
  5
26B3
330
1E
100
AcDbEntity
  8
0
100
AcDbLine
 10
0.9944816613177657
 20
8.140419946428149
 30
0.0
 11
3.616528904756742
 21
8.140419946428149
 31
0.0
  0
LINE
  5
26B4
330
1E
100
AcDbEntity
  8
0
100
AcDbLine
 10
0.9944816613177657
 20
3.640419947553149
 30
0.0
 11
3.616528904756742
 21
3.640419947553149
 31
0.0
  0
POLYLINE
  5
26B5
330
1E
100
AcDbEntity
  8
0
100
AcDb2dPolyline
 66
     1
 10
0.0
 20
0.0
 30
0.0
  0
VERTEX
  5
27F6
330
26B5
100
AcDbEntity
  8
0
100
AcDbVertex
100
AcDb2dVertex
 10
0.9301771993915842
 20
3.640419947553149
 30
0.0
  0
VERTEX
  5
27F7
330
26B5
100
AcDbEntity
  8
0
100
AcDbVertex
100
AcDb2dVertex
 10
0.9629855983335136
 20
3.640419947553149
 30
0.0
  0
VERTEX
  5
27F8
330
26B5
100
AcDbEntity
  8
0
100
AcDbVertex
100
AcDb2dVertex
 10
0.9944816613177657
 20
3.640419947553149
 30
0.0
  0
SEQEND
  5
27F9
330
26B5
100
AcDbEntity
  8
0
  0
LINE
  5
26BA
330
1E
100
AcDbEntity
  8
0
100
AcDbLine
 10
1.747762501024458
 20
5.82020997325492
 30
0.0
 11
1.720203445913238
 21
5.771653542820866
 31
0.0
  0
POLYLINE
  5
26BB
330
1E
100
AcDbEntity
  8
0
100
AcDb2dPolyline
 66
     1
 10
0.0
 20
0.0
 30
0.0
  0
VERTEX
  5
27FA
330
26BB
100
AcDbEntity
  8
0
100
AcDbVertex
100
AcDb2dVertex
 10
1.747762501024458
 20
5.82020997325492
 30
0.0
  0
VERTEX
  5
27FB
330
26BB
100
AcDbEntity
  8
0
100
AcDbVertex
100
AcDb2dVertex
 10
1.750387172939812
 20
5.824146981127952
 30
0.0
  0
VERTEX
  5
27FC
330
26BB
100
AcDbEntity
  8
0
100
AcDbVertex
100
AcDb2dVertex
 10
1.750387172939812
 20
5.828083989000983
 30
0.0
  0
SEQEND
  5
27FD
330
26BB
100
AcDbEntity
  8
0
  0
LINE
  5
26C0
330
1E
100
AcDbEntity
  8
0
100
AcDbLine
 10
1.750387172939812
 20
5.954068240937991
 30
0.0
 11
1.750387172939812
 21
5.828083989000983
 31
0.0
  0
POLYLINE
  5
26C1
330
1E
100
AcDbEntity
  8
0
100
AcDb2dPolyline
 66
     1
 10
0.0
 20
0.0
 30
0.0
  0
VERTEX
  5
27FE
330
26C1
100
AcDbEntity
  8
0
100
AcDbVertex
100
AcDb2dVertex
 10
1.750387172939812
 20
5.954068240937991
 30
0.0
  0
VERTEX
  5
27FF
330
26C1
100
AcDbEntity
  8
0
100
AcDbVertex
100
AcDb2dVertex
 10
1.750387172939812
 20
5.958005248811023
 30
0.0
  0
VERTEX
  5
2800
330
26C1
100
AcDbEntity
  8
0
100
AcDbVertex
100
AcDb2dVertex
 10
1.747762501024458
 20
5.961942256684054
 30
0.0
  0
SEQEND
  5
2801
330
26C1
100
AcDbEntity
  8
0
  0
LINE
  5
26C6
330
1E
100
AcDbEntity
  8
0
100
AcDbLine
 10
1.747762501024458
 20
5.961942256684055
 30
0.0
 11
1.720203445913238
 21
6.01049868711811
 31
0.0
  0
POLYLINE
  5
26C7
330
1E
100
AcDbEntity
  8
0
100
AcDb2dPolyline
 66
     1
 10
0.0
 20
0.0
 30
0.0
  0
VERTEX
  5
2802
330
26C7
100
AcDbEntity
  8
0
100
AcDbVertex
100
AcDb2dVertex
 10
1.720203445913238
 20
6.01049868711811
 30
0.0
  0
VERTEX
  5
2803
330
26C7
100
AcDbEntity
  8
0
100
AcDbVertex
100
AcDb2dVertex
 10
1.717578773997884
 20
6.015748030948818
 30
0.0
  0
VERTEX
  5
2804
330
26C7
100
AcDbEntity
  8
0
100
AcDbVertex
100
AcDb2dVertex
 10
1.71889110995556
 20
6.020997374779526
 30
0.0
  0
SEQEND
  5
2805
330
26C7
100
AcDbEntity
  8
0
  0
POLYLINE
  5
26CC
330
1E
100
AcDbEntity
  8
0
100
AcDb2dPolyline
 66
     1
 10
0.0
 20
0.0
 30
0.0
  0
VERTEX
  5
2806
330
26CC
100
AcDbEntity
  8
0
100
AcDbVertex
100
AcDb2dVertex
 10
2.892119456118947
 20
6.020997374779526
 30
0.0
  0
VERTEX
  5
2807
330
26CC
100
AcDbEntity
  8
0
100
AcDbVertex
100
AcDb2dVertex
 10
2.892119456118947
 20
6.015748030948818
 30
0.0
  0
VERTEX
  5
2808
330
26CC
100
AcDbEntity
  8
0
100
AcDbVertex
100
AcDb2dVertex
 10
2.890807120161269
 20
6.01049868711811
 30
0.0
  0
SEQEND
  5
2809
330
26CC
100
AcDbEntity
  8
0
  0
LINE
  5
26D1
330
1E
100
AcDbEntity
  8
0
100
AcDbLine
 10
2.861935729092371
 20
5.961942256684055
 30
0.0
 11
2.890807120161269
 21
6.01049868711811
 31
0.0
  0
POLYLINE
  5
26D2
330
1E
100
AcDbEntity
  8
0
100
AcDb2dPolyline
 66
     1
 10
0.0
 20
0.0
 30
0.0
  0
VERTEX
  5
280A
330
26D2
100
AcDbEntity
  8
0
100
AcDbVertex
100
AcDb2dVertex
 10
2.861935729092372
 20
5.961942256684054
 30
0.0
  0
VERTEX
  5
280B
330
26D2
100
AcDbEntity
  8
0
100
AcDbVertex
100
AcDb2dVertex
 10
2.860623393134694
 20
5.958005248811023
 30
0.0
  0
VERTEX
  5
280C
330
26D2
100
AcDbEntity
  8
0
100
AcDbVertex
100
AcDb2dVertex
 10
2.860623393134694
 20
5.954068240937991
 30
0.0
  0
SEQEND
  5
280D
330
26D2
100
AcDbEntity
  8
0
  0
LINE
  5
26D7
330
1E
100
AcDbEntity
  8
0
100
AcDbLine
 10
2.860623393134694
 20
5.954068240937991
 30
0.0
 11
2.860623393134694
 21
5.828083989000983
 31
0.0
  0
POLYLINE
  5
26D8
330
1E
100
AcDbEntity
  8
0
100
AcDb2dPolyline
 66
     1
 10
0.0
 20
0.0
 30
0.0
  0
VERTEX
  5
280E
330
26D8
100
AcDbEntity
  8
0
100
AcDbVertex
100
AcDb2dVertex
 10
2.860623393134694
 20
5.828083989000983
 30
0.0
  0
VERTEX
  5
280F
330
26D8
100
AcDbEntity
  8
0
100
AcDbVertex
100
AcDb2dVertex
 10
2.860623393134694
 20
5.824146981127952
 30
0.0
  0
VERTEX
  5
2810
330
26D8
100
AcDbEntity
  8
0
100
AcDbVertex
100
AcDb2dVertex
 10
2.861935729092372
 20
5.82020997325492
 30
0.0
  0
SEQEND
  5
2811
330
26D8
100
AcDbEntity
  8
0
  0
LINE
  5
26DD
330
1E
100
AcDbEntity
  8
0
100
AcDbLine
 10
2.861935729092371
 20
5.82020997325492
 30
0.0
 11
2.890807120161269
 21
5.771653542820866
 31
0.0
  0
POLYLINE
  5
26DE
330
1E
100
AcDbEntity
  8
0
100
AcDb2dPolyline
 66
     1
 10
0.0
 20
0.0
 30
0.0
  0
VERTEX
  5
2812
330
26DE
100
AcDbEntity
  8
0
100
AcDbVertex
100
AcDb2dVertex
 10
2.890807120161269
 20
5.771653542820866
 30
0.0
  0
VERTEX
  5
2813
330
26DE
100
AcDbEntity
  8
0
100
AcDbVertex
100
AcDb2dVertex
 10
2.892119456118947
 20
5.766404198990157
 30
0.0
  0
VERTEX
  5
2814
330
26DE
100
AcDbEntity
  8
0
100
AcDbVertex
100
AcDb2dVertex
 10
2.892119456118947
 20
5.759842519201771
 30
0.0
  0
SEQEND
  5
2815
330
26DE
100
AcDbEntity
  8
0
  0
POLYLINE
  5
26E3
330
1E
100
AcDbEntity
  8
0
100
AcDb2dPolyline
 66
     1
 10
0.0
 20
0.0
 30
0.0
  0
VERTEX
  5
2816
330
26E3
100
AcDbEntity
  8
0
100
AcDbVertex
100
AcDb2dVertex
 10
2.892119456118947
 20
5.759842519201771
 30
0.0
  0
VERTEX
  5
2817
330
26E3
100
AcDbEntity
  8
0
100
AcDbVertex
100
AcDb2dVertex
 10
2.869809744838434
 20
5.682414697698818
 30
0.0
  0
VERTEX
  5
2818
330
26E3
100
AcDbEntity
  8
0
100
AcDbVertex
100
AcDb2dVertex
 10
2.837001345896505
 20
5.607611548111219
 30
0.0
  0
VERTEX
  5
2819
330
26E3
100
AcDbEntity
  8
0
100
AcDbVertex
100
AcDb2dVertex
 10
2.793694259293158
 20
5.539370078312007
 30
0.0
  0
VERTEX
  5
281A
330
26E3
100
AcDbEntity
  8
0
100
AcDbVertex
100
AcDb2dVertex
 10
2.741200820986072
 20
5.476377952343502
 30
0.0
  0
VERTEX
  5
281B
330
26E3
100
AcDbEntity
  8
0
100
AcDbVertex
100
AcDb2dVertex
 10
2.6821457028906
 20
5.421259842121062
 30
0.0
  0
VERTEX
  5
281C
330
26E3
100
AcDbEntity
  8
0
100
AcDbVertex
100
AcDb2dVertex
 10
2.615216569049064
 20
5.375328083602362
 30
0.0
  0
VERTEX
  5
281D
330
26E3
100
AcDbEntity
  8
0
100
AcDbVertex
100
AcDb2dVertex
 10
2.54303809137682
 20
5.338582676787401
 30
0.0
  0
VERTEX
  5
281E
330
26E3
100
AcDbEntity
  8
0
100
AcDbVertex
100
AcDb2dVertex
 10
2.465610269873867
 20
5.311023621676181
 30
0.0
  0
VERTEX
  5
281F
330
26E3
100
AcDbEntity
  8
0
100
AcDbVertex
100
AcDb2dVertex
 10
2.386870112413237
 20
5.295275590184055
 30
0.0
  0
VERTEX
  5
2820
330
26E3
100
AcDbEntity
  8
0
100
AcDbVertex
100
AcDb2dVertex
 10
2.305505283037253
 20
5.290026246353346
 30
0.0
  0
VERTEX
  5
2821
330
26E3
100
AcDbEntity
  8
0
100
AcDbVertex
100
AcDb2dVertex
 10
2.224140453661269
 20
5.295275590184055
 30
0.0
  0
VERTEX
  5
2822
330
26E3
100
AcDbEntity
  8
0
100
AcDbVertex
100
AcDb2dVertex
 10
2.145400296200639
 20
5.311023621676181
 30
0.0
  0
VERTEX
  5
2823
330
26E3
100
AcDbEntity
  8
0
100
AcDbVertex
100
AcDb2dVertex
 10
2.067972474697686
 20
5.338582676787401
 30
0.0
  0
VERTEX
  5
2824
330
26E3
100
AcDbEntity
  8
0
100
AcDbVertex
100
AcDb2dVertex
 10
1.995793997025442
 20
5.375328083602362
 30
0.0
  0
VERTEX
  5
2825
330
26E3
100
AcDbEntity
  8
0
100
AcDbVertex
100
AcDb2dVertex
 10
1.928864863183907
 20
5.421259842121062
 30
0.0
  0
VERTEX
  5
2826
330
26E3
100
AcDbEntity
  8
0
100
AcDbVertex
100
AcDb2dVertex
 10
1.869809745088435
 20
5.476377952343502
 30
0.0
  0
VERTEX
  5
2827
330
26E3
100
AcDbEntity
  8
0
100
AcDbVertex
100
AcDb2dVertex
 10
1.817316306781348
 20
5.539370078312007
 30
0.0
  0
VERTEX
  5
2828
330
26E3
100
AcDbEntity
  8
0
100
AcDbVertex
100
AcDb2dVertex
 10
1.774009220178001
 20
5.607611548111219
 30
0.0
  0
VERTEX
  5
2829
330
26E3
100
AcDbEntity
  8
0
100
AcDbVertex
100
AcDb2dVertex
 10
1.741200821236073
 20
5.682414697698818
 30
0.0
  0
VERTEX
  5
282A
330
26E3
100
AcDbEntity
  8
0
100
AcDbVertex
100
AcDb2dVertex
 10
1.71889110995556
 20
5.759842519201771
 30
0.0
  0
SEQEND
  5
282B
330
26E3
100
AcDbEntity
  8
0
  0
POLYLINE
  5
26FA
330
1E
100
AcDbEntity
  8
0
100
AcDb2dPolyline
 66
     1
 10
0.0
 20
0.0
 30
0.0
  0
VERTEX
  5
282C
330
26FA
100
AcDbEntity
  8
0
100
AcDbVertex
100
AcDb2dVertex
 10
1.71889110995556
 20
5.759842519201771
 30
0.0
  0
VERTEX
  5
282D
330
26FA
100
AcDbEntity
  8
0
100
AcDbVertex
100
AcDb2dVertex
 10
1.717578773997884
 20
5.766404198990157
 30
0.0
  0
VERTEX
  5
282E
330
26FA
100
AcDbEntity
  8
0
100
AcDbVertex
100
AcDb2dVertex
 10
1.720203445913238
 20
5.771653542820866
 30
0.0
  0
SEQEND
  5
282F
330
26FA
100
AcDbEntity
  8
0
  0
CIRCLE
  5
26FF
330
1E
100
AcDbEntity
  8
0
100
AcDbCircle
 10
2.305505283037253
 20
4.249999999894193
 30
0.0
 40
0.1653556325827905
  0
CIRCLE
  5
2700
330
1E
100
AcDbEntity
  8
0
100
AcDbCircle
 10
2.305505283037253
 20
7.531496062065944
 30
0.0
 40
0.1653543306673228
  0
LINE
  5
2701
330
1E
100
AcDbEntity
  8
0
100
AcDbLine
 10
3.494481660692765
 20
7.955380576395668
 30
0.0
 11
1.115216569424064
 21
7.955380576395668
 31
0.0
  0
LINE
  5
2702
330
1E
100
AcDbEntity
  8
0
100
AcDbLine
 10
1.115216569424064
 20
3.826771653543307
 30
0.0
 11
1.115216569424064
 21
7.955380576395668
 31
0.0
  0
LINE
  5
2703
330
1E
100
AcDbEntity
  8
0
100
AcDbLine
 10
3.494481660692765
 20
3.826771653543307
 30
0.0
 11
1.115216569424064
 21
3.826771653543307
 31
0.0
  0
LINE
  5
2704
330
1E
100
AcDbEntity
  8
0
100
AcDbLine
 10
1.115216569424064
 20
8.019685038321849
 30
0.0
 11
3.494481660692765
 21
8.019685038321849
 31
0.0
  0
POLYLINE
  5
2705
330
1E
100
AcDbEntity
  8
0
100
AcDb2dPolyline
 66
     1
 10
0.0
 20
0.0
 30
0.0
  0
VERTEX
  5
2830
330
2705
100
AcDbEntity
  8
0
100
AcDbVertex
100
AcDb2dVertex
 10
1.115216569424064
 20
7.955380576395667
 30
0.0
  0
VERTEX
  5
2831
330
2705
100
AcDbEntity
  8
0
100
AcDbVertex
100
AcDb2dVertex
 10
1.115216569424064
 20
7.989501311295275
 30
0.0
  0
VERTEX
  5
2832
330
2705
100
AcDbEntity
  8
0
100
AcDbVertex
100
AcDb2dVertex
 10
1.115216569424064
 20
8.019685038321851
 30
0.0
  0
SEQEND
  5
2833
330
2705
100
AcDbEntity
  8
0
  0
POLYLINE
  5
270A
330
1E
100
AcDbEntity
  8
0
100
AcDb2dPolyline
 66
     1
 10
0.0
 20
0.0
 30
0.0
  0
VERTEX
  5
2834
330
270A
100
AcDbEntity
  8
0
100
AcDbVertex
100
AcDb2dVertex
 10
1.115216569424064
 20
3.826771653543306
 30
0.0
  0
VERTEX
  5
2835
330
270A
100
AcDbEntity
  8
0
100
AcDbVertex
100
AcDb2dVertex
 10
1.115216569424064
 20
3.7926509186437
 30
0.0
  0
VERTEX
  5
2836
330
270A
100
AcDbEntity
  8
0
100
AcDbVertex
100
AcDb2dVertex
 10
1.115216569424064
 20
3.762467191617125
 30
0.0
  0
SEQEND
  5
2837
330
270A
100
AcDbEntity
  8
0
  0
LINE
  5
270F
330
1E
100
AcDbEntity
  8
0
100
AcDbLine
 10
1.115216569424064
 20
3.762467191617125
 30
0.0
 11
3.494481660692765
 21
3.762467191617125
 31
0.0
  0
LINE
  5
2710
330
1E
100
AcDbEntity
  8
0
100
AcDbLine
 10
0.9944816613177657
 20
3.640419947553149
 30
0.0
 11
1.115216569424064
 21
3.762467191617125
 31
0.0
  0
LINE
  5
2711
330
1E
100
AcDbEntity
  8
0
100
AcDbLine
 10
0.9944816613177657
 20
8.140419946428149
 30
0.0
 11
1.115216569424064
 21
8.019685038321849
 31
0.0
  0
LINE
  5
2712
330
1E
100
AcDbEntity
  8
0
100
AcDbLine
 10
1.050912107497883
 20
3.826771653543307
 30
0.0
 11
0.9301771993915846
 21
3.70472440947933
 31
0.0
  0
LINE
  5
2713
330
1E
100
AcDbEntity
  8
0
100
AcDbLine
 10
1.050912107497883
 20
7.955380576395668
 30
0.0
 11
1.050912107497883
 21
3.826771653543307
 31
0.0
  0
LINE
  5
2714
330
1E
100
AcDbEntity
  8
0
100
AcDbLine
 10
1.050912107497883
 20
7.955380576395668
 30
0.0
 11
0.9301771993915846
 21
8.076115484501967
 31
0.0
  0
LINE
  5
2715
330
1E
100
AcDbEntity
  8
0
100
AcDbLine
 10
0.9301771993915846
 20
8.076115484501967
 30
0.0
 11
0.9301771993915846
 21
3.70472440947933
 31
0.0
  0
POLYLINE
  5
2716
330
1E
100
AcDbEntity
  8
0
100
AcDb2dPolyline
 66
     1
 10
0.0
 20
0.0
 30
0.0
  0
VERTEX
  5
2838
330
2716
100
AcDbEntity
  8
0
100
AcDbVertex
100
AcDb2dVertex
 10
1.050912107497883
 20
3.826771653543306
 30
0.0
  0
VERTEX
  5
2839
330
2716
100
AcDbEntity
  8
0
100
AcDbVertex
100
AcDb2dVertex
 10
1.081095834524458
 20
3.826771653543306
 30
0.0
  0
VERTEX
  5
283A
330
2716
100
AcDbEntity
  8
0
100
AcDbVertex
100
AcDb2dVertex
 10
1.115216569424064
 20
3.826771653543306
 30
0.0
  0
SEQEND
  5
283B
330
2716
100
AcDbEntity
  8
0
  0
POLYLINE
  5
271B
330
1E
100
AcDbEntity
  8
0
100
AcDb2dPolyline
 66
     1
 10
0.0
 20
0.0
 30
0.0
  0
VERTEX
  5
283C
330
271B
100
AcDbEntity
  8
0
100
AcDbVertex
100
AcDb2dVertex
 10
1.050912107497883
 20
3.826771653543306
 30
0.0
  0
VERTEX
  5
283D
330
271B
100
AcDbEntity
  8
0
100
AcDbVertex
100
AcDb2dVertex
 10
1.079783498566781
 20
3.790026246728346
 30
0.0
  0
VERTEX
  5
283E
330
271B
100
AcDbEntity
  8
0
100
AcDbVertex
100
AcDb2dVertex
 10
1.115216569424064
 20
3.762467191617125
 30
0.0
  0
SEQEND
  5
283F
330
271B
100
AcDbEntity
  8
0
  0
POLYLINE
  5
2720
330
1E
100
AcDbEntity
  8
0
100
AcDb2dPolyline
 66
     1
 10
0.0
 20
0.0
 30
0.0
  0
VERTEX
  5
2840
330
2720
100
AcDbEntity
  8
0
100
AcDbVertex
100
AcDb2dVertex
 10
0.9301771993915842
 20
3.70472440947933
 30
0.0
  0
VERTEX
  5
2841
330
2720
100
AcDbEntity
  8
0
100
AcDbVertex
100
AcDb2dVertex
 10
0.9301771993915842
 20
3.674540682452756
 30
0.0
  0
VERTEX
  5
2842
330
2720
100
AcDbEntity
  8
0
100
AcDbVertex
100
AcDb2dVertex
 10
0.9301771993915842
 20
3.640419947553149
 30
0.0
  0
SEQEND
  5
2843
330
2720
100
AcDbEntity
  8
0
  0
POLYLINE
  5
2725
330
1E
100
AcDbEntity
  8
0
100
AcDb2dPolyline
 66
     1
 10
0.0
 20
0.0
 30
0.0
  0
VERTEX
  5
2844
330
2725
100
AcDbEntity
  8
0
100
AcDbVertex
100
AcDb2dVertex
 10
0.9301771993915842
 20
8.076115484501968
 30
0.0
  0
VERTEX
  5
2845
330
2725
100
AcDbEntity
  8
0
100
AcDbVertex
100
AcDb2dVertex
 10
0.9301771993915842
 20
8.10761154748622
 30
0.0
  0
VERTEX
  5
2846
330
2725
100
AcDbEntity
  8
0
100
AcDbVertex
100
AcDb2dVertex
 10
0.9301771993915842
 20
8.140419946428149
 30
0.0
  0
SEQEND
  5
2847
330
2725
100
AcDbEntity
  8
0
  0
POLYLINE
  5
272A
330
1E
100
AcDbEntity
  8
0
100
AcDb2dPolyline
 66
     1
 10
0.0
 20
0.0
 30
0.0
  0
VERTEX
  5
2848
330
272A
100
AcDbEntity
  8
0
100
AcDbVertex
100
AcDb2dVertex
 10
1.050912107497883
 20
7.955380576395667
 30
0.0
  0
VERTEX
  5
2849
330
272A
100
AcDbEntity
  8
0
100
AcDbVertex
100
AcDb2dVertex
 10
1.079783498566781
 20
7.992125983210628
 30
0.0
  0
VERTEX
  5
284A
330
272A
100
AcDbEntity
  8
0
100
AcDbVertex
100
AcDb2dVertex
 10
1.115216569424064
 20
8.019685038321851
 30
0.0
  0
SEQEND
  5
284B
330
272A
100
AcDbEntity
  8
0
  0
POLYLINE
  5
272F
330
1E
100
AcDbEntity
  8
0
100
AcDb2dPolyline
 66
     1
 10
0.0
 20
0.0
 30
0.0
  0
VERTEX
  5
284C
330
272F
100
AcDbEntity
  8
0
100
AcDbVertex
100
AcDb2dVertex
 10
1.050912107497883
 20
7.955380576395667
 30
0.0
  0
VERTEX
  5
284D
330
272F
100
AcDbEntity
  8
0
100
AcDbVertex
100
AcDb2dVertex
 10
1.081095834524458
 20
7.955380576395667
 30
0.0
  0
VERTEX
  5
284E
330
272F
100
AcDbEntity
  8
0
100
AcDbVertex
100
AcDb2dVertex
 10
1.115216569424064
 20
7.955380576395667
 30
0.0
  0
SEQEND
  5
284F
330
272F
100
AcDbEntity
  8
0
  0
POLYLINE
  5
2734
330
1E
100
AcDbEntity
  8
0
100
AcDb2dPolyline
 66
     1
 10
0.0
 20
0.0
 30
0.0
  0
VERTEX
  5
2850
330
2734
100
AcDbEntity
  8
0
100
AcDbVertex
100
AcDb2dVertex
 10
2.397368800074655
 20
7.531496062065945
 30
0.0
  0
VERTEX
  5
2851
330
2734
100
AcDbEntity
  8
0
100
AcDbVertex
100
AcDb2dVertex
 10
2.392119456243946
 20
7.562992125050196
 30
0.0
  0
VERTEX
  5
2852
330
2734
100
AcDbEntity
  8
0
100
AcDbVertex
100
AcDb2dVertex
 10
2.37637142475182
 20
7.590551180161416
 30
0.0
  0
VERTEX
  5
2853
330
2734
100
AcDbEntity
  8
0
100
AcDbVertex
100
AcDb2dVertex
 10
2.351437041555954
 20
7.61154855548425
 30
0.0
  0
VERTEX
  5
2854
330
2734
100
AcDbEntity
  8
0
100
AcDbVertex
100
AcDb2dVertex
 10
2.321253314529379
 20
7.622047243145668
 30
0.0
  0
VERTEX
  5
2855
330
2734
100
AcDbEntity
  8
0
100
AcDbVertex
100
AcDb2dVertex
 10
2.289757251545127
 20
7.622047243145668
 30
0.0
  0
VERTEX
  5
2856
330
2734
100
AcDbEntity
  8
0
100
AcDbVertex
100
AcDb2dVertex
 10
2.259573524518553
 20
7.61154855548425
 30
0.0
  0
VERTEX
  5
2857
330
2734
100
AcDbEntity
  8
0
100
AcDbVertex
100
AcDb2dVertex
 10
2.234639141322686
 20
7.590551180161416
 30
0.0
  0
VERTEX
  5
2858
330
2734
100
AcDbEntity
  8
0
100
AcDbVertex
100
AcDb2dVertex
 10
2.21889110983056
 20
7.562992125050196
 30
0.0
  0
VERTEX
  5
2859
330
2734
100
AcDbEntity
  8
0
100
AcDbVertex
100
AcDb2dVertex
 10
2.212329430042175
 20
7.531496062065945
 30
0.0
  0
VERTEX
  5
285A
330
2734
100
AcDbEntity
  8
0
100
AcDbVertex
100
AcDb2dVertex
 10
2.21889110983056
 20
7.499999999081691
 30
0.0
  0
VERTEX
  5
285B
330
2734
100
AcDbEntity
  8
0
100
AcDbVertex
100
AcDb2dVertex
 10
2.234639141322686
 20
7.472440943970473
 30
0.0
  0
VERTEX
  5
285C
330
2734
100
AcDbEntity
  8
0
100
AcDbVertex
100
AcDb2dVertex
 10
2.259573524518553
 20
7.451443568647635
 30
0.0
  0
VERTEX
  5
285D
330
2734
100
AcDbEntity
  8
0
100
AcDbVertex
100
AcDb2dVertex
 10
2.289757251545127
 20
7.439632545028541
 30
0.0
  0
VERTEX
  5
285E
330
2734
100
AcDbEntity
  8
0
100
AcDbVertex
100
AcDb2dVertex
 10
2.321253314529379
 20
7.439632545028541
 30
0.0
  0
VERTEX
  5
285F
330
2734
100
AcDbEntity
  8
0
100
AcDbVertex
100
AcDb2dVertex
 10
2.351437041555954
 20
7.451443568647635
 30
0.0
  0
VERTEX
  5
2860
330
2734
100
AcDbEntity
  8
0
100
AcDbVertex
100
AcDb2dVertex
 10
2.37637142475182
 20
7.472440943970473
 30
0.0
  0
VERTEX
  5
2861
330
2734
100
AcDbEntity
  8
0
100
AcDbVertex
100
AcDb2dVertex
 10
2.392119456243946
 20
7.499999999081691
 30
0.0
  0
VERTEX
  5
2862
330
2734
100
AcDbEntity
  8
0
100
AcDbVertex
100
AcDb2dVertex
 10
2.397368800074655
 20
7.531496062065945
 30
0.0
  0
SEQEND
  5
2863
330
2734
100
AcDbEntity
  8
0
  0
CIRCLE
  5
2749
330
1E
100
AcDbEntity
  8
0
100
AcDbCircle
 10
2.305505283037253
 20
7.531496062065944
 30
0.0
 40
0.143044619386811
  0
POLYLINE
  5
274A
330
1E
100
AcDbEntity
  8
0
100
AcDb2dPolyline
 66
     1
 10
0.0
 20
0.0
 30
0.0
  0
VERTEX
  5
2864
330
274A
100
AcDbEntity
  8
0
100
AcDbVertex
100
AcDb2dVertex
 10
2.397368800074655
 20
4.250656167873031
 30
0.0
  0
VERTEX
  5
2865
330
274A
100
AcDbEntity
  8
0
100
AcDbVertex
100
AcDb2dVertex
 10
2.392119456243946
 20
4.282152230857283
 30
0.0
  0
VERTEX
  5
2866
330
274A
100
AcDbEntity
  8
0
100
AcDbVertex
100
AcDb2dVertex
 10
2.37637142475182
 20
4.309711285968503
 30
0.0
  0
VERTEX
  5
2867
330
274A
100
AcDbEntity
  8
0
100
AcDbVertex
100
AcDb2dVertex
 10
2.351437041555954
 20
4.330708661291337
 30
0.0
  0
VERTEX
  5
2868
330
274A
100
AcDbEntity
  8
0
100
AcDbVertex
100
AcDb2dVertex
 10
2.321253314529379
 20
4.341207348952755
 30
0.0
  0
VERTEX
  5
2869
330
274A
100
AcDbEntity
  8
0
100
AcDbVertex
100
AcDb2dVertex
 10
2.289757251545127
 20
4.341207348952755
 30
0.0
  0
VERTEX
  5
286A
330
274A
100
AcDbEntity
  8
0
100
AcDbVertex
100
AcDb2dVertex
 10
2.259573524518553
 20
4.330708661291337
 30
0.0
  0
VERTEX
  5
286B
330
274A
100
AcDbEntity
  8
0
100
AcDbVertex
100
AcDb2dVertex
 10
2.234639141322686
 20
4.309711285968503
 30
0.0
  0
VERTEX
  5
286C
330
274A
100
AcDbEntity
  8
0
100
AcDbVertex
100
AcDb2dVertex
 10
2.21889110983056
 20
4.282152230857283
 30
0.0
  0
VERTEX
  5
286D
330
274A
100
AcDbEntity
  8
0
100
AcDbVertex
100
AcDb2dVertex
 10
2.212329430042175
 20
4.250656167873031
 30
0.0
  0
VERTEX
  5
286E
330
274A
100
AcDbEntity
  8
0
100
AcDbVertex
100
AcDb2dVertex
 10
2.21889110983056
 20
4.219160104888779
 30
0.0
  0
VERTEX
  5
286F
330
274A
100
AcDbEntity
  8
0
100
AcDbVertex
100
AcDb2dVertex
 10
2.234639141322686
 20
4.190288713819881
 30
0.0
  0
VERTEX
  5
2870
330
274A
100
AcDbEntity
  8
0
100
AcDbVertex
100
AcDb2dVertex
 10
2.259573524518553
 20
4.170603674454724
 30
0.0
  0
VERTEX
  5
2871
330
274A
100
AcDbEntity
  8
0
100
AcDbVertex
100
AcDb2dVertex
 10
2.289757251545127
 20
4.158792650835628
 30
0.0
  0
VERTEX
  5
2872
330
274A
100
AcDbEntity
  8
0
100
AcDbVertex
100
AcDb2dVertex
 10
2.321253314529379
 20
4.158792650835628
 30
0.0
  0
VERTEX
  5
2873
330
274A
100
AcDbEntity
  8
0
100
AcDbVertex
100
AcDb2dVertex
 10
2.351437041555954
 20
4.170603674454724
 30
0.0
  0
VERTEX
  5
2874
330
274A
100
AcDbEntity
  8
0
100
AcDbVertex
100
AcDb2dVertex
 10
2.37637142475182
 20
4.190288713819881
 30
0.0
  0
VERTEX
  5
2875
330
274A
100
AcDbEntity
  8
0
100
AcDbVertex
100
AcDb2dVertex
 10
2.392119456243946
 20
4.219160104888779
 30
0.0
  0
VERTEX
  5
2876
330
274A
100
AcDbEntity
  8
0
100
AcDbVertex
100
AcDb2dVertex
 10
2.397368800074655
 20
4.250656167873031
 30
0.0
  0
SEQEND
  5
2877
330
274A
100
AcDbEntity
  8
0
  0
CIRCLE
  5
275F
330
1E
100
AcDbEntity
  8
0
100
AcDbCircle
 10
2.305505283037253
 20
4.250656167873031
 30
0.0
 40
0.143044619386811
  0
LINE
  5
2760
330
1E
100
AcDbEntity
  8
0
100
AcDbLine
 10
5.28844491483745
 20
7.955380576395668
 30
0.0
 11
5.28844491483745
 21
3.826771653543307
 31
0.0
  0
LINE
  5
2761
330
1E
100
AcDbEntity
  8
0
100
AcDbLine
 10
5.389494783578591
 20
3.70472440947933
 30
0.0
 11
5.28844491483745
 21
3.826771653543307
 31
0.0
  0
LINE
  5
2762
330
1E
100
AcDbEntity
  8
0
100
AcDbLine
 10
5.389494783578591
 20
8.076115484501967
 30
0.0
 11
5.389494783578591
 21
3.70472440947933
 31
0.0
  0
LINE
  5
2763
330
1E
100
AcDbEntity
  8
0
100
AcDbLine
 10
5.389494783578591
 20
8.076115484501967
 30
0.0
 11
5.28844491483745
 21
7.955380576395668
 31
0.0
  0
POLYLINE
  5
2764
330
1E
100
AcDbEntity
  8
0
100
AcDb2dPolyline
 66
     1
 10
0.0
 20
0.0
 30
0.0
  0
VERTEX
  5
2878
330
2764
100
AcDbEntity
  8
0
100
AcDbVertex
100
AcDb2dVertex
 10
5.26482286759926
 20
3.826771653543306
 30
0.0
  0
VERTEX
  5
2879
330
2764
100
AcDbEntity
  8
0
100
AcDbVertex
100
AcDb2dVertex
 10
5.271384547387647
 20
3.826771653543306
 30
0.0
  0
VERTEX
  5
287A
330
2764
100
AcDbEntity
  8
0
100
AcDbVertex
100
AcDb2dVertex
 10
5.28844491483745
 20
3.826771653543306
 30
0.0
  0
SEQEND
  5
287B
330
2764
100
AcDbEntity
  8
0
  0
POLYLINE
  5
2769
330
1E
100
AcDbEntity
  8
0
100
AcDb2dPolyline
 66
     1
 10
0.0
 20
0.0
 30
0.0
  0
VERTEX
  5
287C
330
2769
100
AcDbEntity
  8
0
100
AcDbVertex
100
AcDb2dVertex
 10
5.26482286759926
 20
3.826771653543306
 30
0.0
  0
VERTEX
  5
287D
330
2769
100
AcDbEntity
  8
0
100
AcDbVertex
100
AcDb2dVertex
 10
5.271384547387647
 20
3.7926509186437
 30
0.0
  0
VERTEX
  5
287E
330
2769
100
AcDbEntity
  8
0
100
AcDbVertex
100
AcDb2dVertex
 10
5.28844491483745
 20
3.762467191617125
 30
0.0
  0
SEQEND
  5
287F
330
2769
100
AcDbEntity
  8
0
  0
POLYLINE
  5
276E
330
1E
100
AcDbEntity
  8
0
100
AcDb2dPolyline
 66
     1
 10
0.0
 20
0.0
 30
0.0
  0
VERTEX
  5
2880
330
276E
100
AcDbEntity
  8
0
100
AcDbVertex
100
AcDb2dVertex
 10
5.28844491483745
 20
3.826771653543306
 30
0.0
  0
VERTEX
  5
2881
330
276E
100
AcDbEntity
  8
0
100
AcDbVertex
100
AcDb2dVertex
 10
5.279258563133709
 20
3.790026246728346
 30
0.0
  0
VERTEX
  5
2882
330
276E
100
AcDbEntity
  8
0
100
AcDbVertex
100
AcDb2dVertex
 10
5.28844491483745
 20
3.762467191617125
 30
0.0
  0
SEQEND
  5
2883
330
276E
100
AcDbEntity
  8
0
  0
LINE
  5
2773
330
1E
100
AcDbEntity
  8
0
100
AcDbLine
 10
5.28844491483745
 20
3.762467191617125
 30
0.0
 11
5.389494783578591
 21
3.640419947553149
 31
0.0
  0
POLYLINE
  5
2774
330
1E
100
AcDbEntity
  8
0
100
AcDb2dPolyline
 66
     1
 10
0.0
 20
0.0
 30
0.0
  0
VERTEX
  5
2884
330
2774
100
AcDbEntity
  8
0
100
AcDbVertex
100
AcDb2dVertex
 10
5.389494783578591
 20
3.640419947553149
 30
0.0
  0
VERTEX
  5
2885
330
2774
100
AcDbEntity
  8
0
100
AcDbVertex
100
AcDb2dVertex
 10
5.393431791451623
 20
3.640419947553149
 30
0.0
  0
VERTEX
  5
2886
330
2774
100
AcDbEntity
  8
0
100
AcDbVertex
100
AcDb2dVertex
 10
5.40393047911304
 20
3.640419947553149
 30
0.0
  0
SEQEND
  5
2887
330
2774
100
AcDbEntity
  8
0
  0
POLYLINE
  5
2779
330
1E
100
AcDbEntity
  8
0
100
AcDb2dPolyline
 66
     1
 10
0.0
 20
0.0
 30
0.0
  0
VERTEX
  5
2888
330
2779
100
AcDbEntity
  8
0
100
AcDbVertex
100
AcDb2dVertex
 10
5.40393047911304
 20
3.640419947553149
 30
0.0
  0
VERTEX
  5
2889
330
2779
100
AcDbEntity
  8
0
100
AcDbVertex
100
AcDb2dVertex
 10
5.393431791451623
 20
3.674540682452756
 30
0.0
  0
VERTEX
  5
288A
330
2779
100
AcDbEntity
  8
0
100
AcDbVertex
100
AcDb2dVertex
 10
5.389494783578591
 20
3.70472440947933
 30
0.0
  0
SEQEND
  5
288B
330
2779
100
AcDbEntity
  8
0
  0
LINE
  5
277E
330
1E
100
AcDbEntity
  8
0
100
AcDbLine
 10
5.424927854435875
 20
3.640419947553149
 30
0.0
 11
5.40393047911304
 21
3.640419947553149
 31
0.0
  0
LINE
  5
277F
330
1E
100
AcDbEntity
  8
0
100
AcDbLine
 10
5.424927854435875
 20
3.640419947553149
 30
0.0
 11
5.424927854435875
 21
8.140419946428149
 31
0.0
  0
LINE
  5
2780
330
1E
100
AcDbEntity
  8
0
100
AcDbLine
 10
5.424927854435875
 20
8.140419946428149
 30
0.0
 11
5.40393047911304
 21
8.140419946428149
 31
0.0
  0
POLYLINE
  5
2781
330
1E
100
AcDbEntity
  8
0
100
AcDb2dPolyline
 66
     1
 10
0.0
 20
0.0
 30
0.0
  0
VERTEX
  5
288C
330
2781
100
AcDbEntity
  8
0
100
AcDbVertex
100
AcDb2dVertex
 10
5.40393047911304
 20
8.140419946428149
 30
0.0
  0
VERTEX
  5
288D
330
2781
100
AcDbEntity
  8
0
100
AcDbVertex
100
AcDb2dVertex
 10
5.393431791451623
 20
8.10761154748622
 30
0.0
  0
VERTEX
  5
288E
330
2781
100
AcDbEntity
  8
0
100
AcDbVertex
100
AcDb2dVertex
 10
5.389494783578591
 20
8.076115484501968
 30
0.0
  0
SEQEND
  5
288F
330
2781
100
AcDbEntity
  8
0
  0
POLYLINE
  5
2786
330
1E
100
AcDbEntity
  8
0
100
AcDb2dPolyline
 66
     1
 10
0.0
 20
0.0
 30
0.0
  0
VERTEX
  5
2890
330
2786
100
AcDbEntity
  8
0
100
AcDbVertex
100
AcDb2dVertex
 10
5.389494783578591
 20
8.140419946428149
 30
0.0
  0
VERTEX
  5
2891
330
2786
100
AcDbEntity
  8
0
100
AcDbVertex
100
AcDb2dVertex
 10
5.393431791451623
 20
8.140419946428149
 30
0.0
  0
VERTEX
  5
2892
330
2786
100
AcDbEntity
  8
0
100
AcDbVertex
100
AcDb2dVertex
 10
5.40393047911304
 20
8.140419946428149
 30
0.0
  0
SEQEND
  5
2893
330
2786
100
AcDbEntity
  8
0
  0
LINE
  5
278B
330
1E
100
AcDbEntity
  8
0
100
AcDbLine
 10
5.28844491483745
 20
8.019685038321849
 30
0.0
 11
5.389494783578591
 21
8.140419946428149
 31
0.0
  0
POLYLINE
  5
278C
330
1E
100
AcDbEntity
  8
0
100
AcDb2dPolyline
 66
     1
 10
0.0
 20
0.0
 30
0.0
  0
VERTEX
  5
2894
330
278C
100
AcDbEntity
  8
0
100
AcDbVertex
100
AcDb2dVertex
 10
5.28844491483745
 20
7.955380576395667
 30
0.0
  0
VERTEX
  5
2895
330
278C
100
AcDbEntity
  8
0
100
AcDbVertex
100
AcDb2dVertex
 10
5.279258563133709
 20
7.992125983210628
 30
0.0
  0
VERTEX
  5
2896
330
278C
100
AcDbEntity
  8
0
100
AcDbVertex
100
AcDb2dVertex
 10
5.28844491483745
 20
8.019685038321851
 30
0.0
  0
SEQEND
  5
2897
330
278C
100
AcDbEntity
  8
0
  0
POLYLINE
  5
2791
330
1E
100
AcDbEntity
  8
0
100
AcDb2dPolyline
 66
     1
 10
0.0
 20
0.0
 30
0.0
  0
VERTEX
  5
2898
330
2791
100
AcDbEntity
  8
0
100
AcDbVertex
100
AcDb2dVertex
 10
5.26482286759926
 20
7.955380576395667
 30
0.0
  0
VERTEX
  5
2899
330
2791
100
AcDbEntity
  8
0
100
AcDbVertex
100
AcDb2dVertex
 10
5.271384547387647
 20
7.955380576395667
 30
0.0
  0
VERTEX
  5
289A
330
2791
100
AcDbEntity
  8
0
100
AcDbVertex
100
AcDb2dVertex
 10
5.28844491483745
 20
7.955380576395667
 30
0.0
  0
SEQEND
  5
289B
330
2791
100
AcDbEntity
  8
0
  0
POLYLINE
  5
2796
330
1E
100
AcDbEntity
  8
0
100
AcDb2dPolyline
 66
     1
 10
0.0
 20
0.0
 30
0.0
  0
VERTEX
  5
289C
330
2796
100
AcDbEntity
  8
0
100
AcDbVertex
100
AcDb2dVertex
 10
5.26482286759926
 20
7.955380576395667
 30
0.0
  0
VERTEX
  5
289D
330
2796
100
AcDbEntity
  8
0
100
AcDbVertex
100
AcDb2dVertex
 10
5.271384547387647
 20
7.989501311295275
 30
0.0
  0
VERTEX
  5
289E
330
2796
100
AcDbEntity
  8
0
100
AcDbVertex
100
AcDb2dVertex
 10
5.28844491483745
 20
8.019685038321851
 30
0.0
  0
SEQEND
  5
289F
330
2796
100
AcDbEntity
  8
0
  0
LINE
  5
279B
330
1E
100
AcDbEntity
  8
0
100
AcDbLine
 10
5.26482286759926
 20
3.826771653543307
 30
0.0
 11
5.26482286759926
 21
7.955380576395668
 31
0.0
  0
ENDSEC
  0
SECTION
  2
OBJECTS
  0
DICTIONARY
  5
C
330
0
100
AcDbDictionary
  3
ACAD_GROUP
350
D
  3
ACAD_MLINESTYLE
350
16
  3
ACAD_PLOTSETTINGS
350
18
  3
ACAD_LAYOUT
350
19
1001
ACAD
1000
TREAT_AS_HARD
1070
     0
  0
DICTIONARY
  5
27B2
330
1E
100
AcDbDictionary
  3
ACAD_LAYOUTSELFREF
350
27B3
  0
DICTIONARY
  5
27B0
330
1A
100
AcDbDictionary
  3
ACAD_LAYOUTSELFREF
350
27B1
  0
DICTIONARY
  5
D
102
{ACAD_REACTORS
330
C
102
}
330
C
100
AcDbDictionary
1001
ACAD
1000
TREAT_AS_HARD
1070
     0
  0
DICTIONARY
  5
16
102
{ACAD_REACTORS
330
C
102
}
330
C
100
AcDbDictionary
  3
STANDARD
350
17
1001
ACAD
1000
TREAT_AS_HARD
1070
     0
  0
DICTIONARY
  5
18
102
{ACAD_REACTORS
330
C
102
}
330
C
100
AcDbDictionary
1001
ACAD
1000
TREAT_AS_HARD
1070
     0
  0
DICTIONARY
  5
19
102
{ACAD_REACTORS
330
C
102
}
330
C
100
AcDbDictionary
1001
ACAD
1000
TREAT_AS_HARD
1070
     0
  0
XRECORD
  5
27B3
102
{ACAD_REACTORS
330
27B2
102
}
330
27B2
100
AcDbXrecord
340
1E
  0
XRECORD
  5
27B1
102
{ACAD_REACTORS
330
27B0
102
}
330
27B0
100
AcDbXrecord
340
1A
  0
MLINESTYLE
  5
17
102
{ACAD_REACTORS
330
16
102
}
330
16
100
AcDbMlineStyle
  2
STANDARD
 70
     0
  3

 62
   256
 51
90.0
 52
90.0
 71
     2
 49
0.5
 62
   256
  6
BYLAYER
 49
-0.5
 62
   256
  6
BYLAYER
  0
ENDSEC
  0
EOF
