  0
SECTION
  2
HEADER
  9
$ACADVER
  1
AC1012
  9
$DWGCODEPAGE
  3
ANSI_1252
  9
$INSBASE
 10
0.0
 20
0.0
 30
0.0
  9
$EXTMIN
 10
2.508178741797081
 20
2.696182275070089
 30
-0.0015258207003583
  9
$EXTMAX
 10
4.553466816145771
 20
7.601577778115842
 30
0.0000000349246037
  9
$LIMMIN
 10
0.0
 20
0.0
  9
$LIMMAX
 10
12.0
 20
9.0
  9
$ORTHOMODE
 70
     1
  9
$REGENMODE
 70
     1
  9
$FILLMODE
 70
     1
  9
$QTEXTMODE
 70
     0
  9
$MIRRTEXT
 70
     1
  9
$DRAGMODE
 70
     2
  9
$LTSCALE
 40
1.0
  9
$OSMODE
 70
   547
  9
$ATTMODE
 70
     1
  9
$TEXTSIZE
 40
0.2
  9
$TRACEWID
 40
0.05
  9
$TEXTSTYLE
  7
STANDARD
  9
$CLAYER
  8
0
  9
$CELTYPE
  6
BYLAYER
  9
$CECOLOR
 62
   256
  9
$CELTSCALE
 40
1.0
  9
$DELOBJ
 70
     1
  9
$DISPSILH
 70
     0
  9
$DIMSCALE
 40
1.0
  9
$DIMASZ
 40
0.18
  9
$DIMEXO
 40
0.0625
  9
$DIMDLI
 40
0.38
  9
$DIMRND
 40
0.0
  9
$DIMDLE
 40
0.0
  9
$DIMEXE
 40
0.18
  9
$DIMTP
 40
0.0
  9
$DIMTM
 40
0.0
  9
$DIMTXT
 40
0.18
  9
$DIMCEN
 40
0.09
  9
$DIMTSZ
 40
0.0
  9
$DIMTOL
 70
     0
  9
$DIMLIM
 70
     0
  9
$DIMTIH
 70
     1
  9
$DIMTOH
 70
     1
  9
$DIMSE1
 70
     0
  9
$DIMSE2
 70
     0
  9
$DIMTAD
 70
     0
  9
$DIMZIN
 70
     0
  9
$DIMBLK
  1

  9
$DIMASO
 70
     1
  9
$DIMSHO
 70
     1
  9
$DIMPOST
  1

  9
$DIMAPOST
  1

  9
$DIMALT
 70
     0
  9
$DIMALTD
 70
     2
  9
$DIMALTF
 40
25.4
  9
$DIMLFAC
 40
1.0
  9
$DIMTOFL
 70
     0
  9
$DIMTVP
 40
0.0
  9
$DIMTIX
 70
     0
  9
$DIMSOXD
 70
     0
  9
$DIMSAH
 70
     0
  9
$DIMBLK1
  1

  9
$DIMBLK2
  1

  9
$DIMSTYLE
  2
STANDARD
  9
$DIMCLRD
 70
     0
  9
$DIMCLRE
 70
     0
  9
$DIMCLRT
 70
     0
  9
$DIMTFAC
 40
1.0
  9
$DIMGAP
 40
0.09
  9
$DIMJUST
 70
     0
  9
$DIMSD1
 70
     0
  9
$DIMSD2
 70
     0
  9
$DIMTOLJ
 70
     1
  9
$DIMTZIN
 70
     0
  9
$DIMALTZ
 70
     0
  9
$DIMALTTZ
 70
     0
  9
$DIMFIT
 70
     5
  9
$DIMUPT
 70
     0
  9
$DIMUNIT
 70
     2
  9
$DIMDEC
 70
     4
  9
$DIMTDEC
 70
     4
  9
$DIMALTU
 70
     2
  9
$DIMALTTD
 70
     2
  9
$DIMTXSTY
  7
STANDARD
  9
$DIMAUNIT
 70
     0
  9
$LUNITS
 70
     2
  9
$LUPREC
 70
     4
  9
$SKETCHINC
 40
0.1
  9
$FILLETRAD
 40
0.0
  9
$AUNITS
 70
     0
  9
$AUPREC
 70
     0
  9
$MENU
  1
acad
  9
$ELEVATION
 40
0.0
  9
$PELEVATION
 40
0.0
  9
$THICKNESS
 40
0.0
  9
$LIMCHECK
 70
     0
  9
$BLIPMODE
 70
     0
  9
$CHAMFERA
 40
0.0
  9
$CHAMFERB
 40
0.0
  9
$CHAMFERC
 40
0.0
  9
$CHAMFERD
 40
0.0
  9
$SKPOLY
 70
     0
  9
$TDCREATE
 40
2454019.484525463
  9
$TDUPDATE
 40
2454019.522317812
  9
$TDINDWG
 40
0.0041686806
  9
$TDUSRTIMER
 40
0.0041686806
  9
$USRTIMER
 70
     1
  9
$ANGBASE
 50
0.0
  9
$ANGDIR
 70
     0
  9
$PDMODE
 70
     0
  9
$PDSIZE
 40
0.0
  9
$PLINEWID
 40
0.0
  9
$COORDS
 70
     1
  9
$SPLFRAME
 70
     0
  9
$SPLINETYPE
 70
     6
  9
$SPLINESEGS
 70
     8
  9
$ATTDIA
 70
     0
  9
$ATTREQ
 70
     1
  9
$HANDLING
 70
  4097
  9
$HANDSEED
  5
304D
  9
$SURFTAB1
 70
     6
  9
$SURFTAB2
 70
     6
  9
$SURFTYPE
 70
     6
  9
$SURFU
 70
     6
  9
$SURFV
 70
     6
  9
$UCSNAME
  2

  9
$UCSORG
 10
0.0
 20
0.0
 30
0.0
  9
$UCSXDIR
 10
1.0
 20
0.0
 30
0.0
  9
$UCSYDIR
 10
0.0
 20
1.0
 30
0.0
  9
$PUCSNAME
  2

  9
$PUCSORG
 10
0.0
 20
0.0
 30
0.0
  9
$PUCSXDIR
 10
1.0
 20
0.0
 30
0.0
  9
$PUCSYDIR
 10
0.0
 20
1.0
 30
0.0
  9
$USERI1
 70
     0
  9
$USERI2
 70
     0
  9
$USERI3
 70
     0
  9
$USERI4
 70
     0
  9
$USERI5
 70
     0
  9
$USERR1
 40
0.0
  9
$USERR2
 40
0.0
  9
$USERR3
 40
0.0
  9
$USERR4
 40
0.0
  9
$USERR5
 40
0.0
  9
$WORLDVIEW
 70
     1
  9
$SHADEDGE
 70
     3
  9
$SHADEDIF
 70
    70
  9
$TILEMODE
 70
     1
  9
$MAXACTVP
 70
    16
  9
$PINSBASE
 10
0.0
 20
0.0
 30
0.0
  9
$PLIMCHECK
 70
     0
  9
$PEXTMIN
 10
1.000000000000000E+20
 20
1.000000000000000E+20
 30
1.000000000000000E+20
  9
$PEXTMAX
 10
-1.000000000000000E+20
 20
-1.000000000000000E+20
 30
-1.000000000000000E+20
  9
$PLIMMIN
 10
0.0
 20
0.0
  9
$PLIMMAX
 10
12.0
 20
9.0
  9
$UNITMODE
 70
     0
  9
$VISRETAIN
 70
     0
  9
$PLINEGEN
 70
     0
  9
$PSLTSCALE
 70
     1
  9
$TREEDEPTH
 70
  3020
  9
$PICKSTYLE
 70
     1
  9
$CMLSTYLE
  2
STANDARD
  9
$CMLJUST
 70
     0
  9
$CMLSCALE
 40
1.0
  9
$SAVEIMAGES
 70
     1
  0
ENDSEC
  0
SECTION
  2
CLASSES
  0
CLASS
  1
ACDBDICTIONARYWDFLT
  2
AcDbDictionaryWithDefault
  3
AutoCAD 2000
 90
    32768
280
     0
281
     0
  0
CLASS
  1
ACDBPLACEHOLDER
  2
AcDbPlaceHolder
  3
AutoCAD 2000
 90
    32768
280
     0
281
     0
  0
CLASS
  1
LAYOUT
  2
AcDbLayout
  3
AutoCAD 2000
 90
    32768
280
     0
281
     0
  0
CLASS
  1
LONG_TRANSACTION
  2
AcDbLongTransaction
  3
AutoCAD 2000
 90
    32768
280
     0
281
     0
  0
CLASS
  1
LWPOLYLINE
  2
AcDbPolyline
  3
AutoCAD 2000
 90
    32768
280
     0
281
     1
  0
CLASS
  1
HATCH
  2
AcDbHatch
  3
AutoCAD 2000
 90
    32768
280
     0
281
     1
  0
CLASS
  1
XRECORD
  2
AcDbXrecord
  3
AutoCAD 2000
 90
    32768
280
     0
281
     0
  0
ENDSEC
  0
SECTION
  2
TABLES
  0
TABLE
  2
VPORT
  5
8
330
0
100
AcDbSymbolTable
 70
     5
  0
VPORT
  5
2E70
330
8
100
AcDbSymbolTableRecord
100
AcDbViewportTableRecord
  2
*ACTIVE
 70
     0
 10
0.0
 20
0.0
 11
1.0
 21
1.0
 12
3.530822778971426
 22
5.148880026592966
 13
0.0
 23
0.0
 14
1.0
 24
1.0
 15
0.0
 25
0.0
 16
0.0
 26
0.0
 36
1.0
 17
0.0
 27
0.0
 37
0.0
 40
4.960204391347939
 41
1.740671641791044
 42
50.0
 43
0.0
 44
0.0
 50
0.0
 51
0.0
 71
     0
 72
   100
 73
     1
 74
     1
 75
     0
 76
     0
 77
     0
 78
     0
  0
ENDTAB
  0
TABLE
  2
LTYPE
  5
5
330
0
100
AcDbSymbolTable
 70
    25
  0
LTYPE
  5
13
330
5
100
AcDbSymbolTableRecord
100
AcDbLinetypeTableRecord
  2
BYBLOCK
 70
     0
  3

 72
    65
 73
     0
 40
0.0
  0
LTYPE
  5
14
330
5
100
AcDbSymbolTableRecord
100
AcDbLinetypeTableRecord
  2
BYLAYER
 70
     0
  3

 72
    65
 73
     0
 40
0.0
  0
LTYPE
  5
15
330
5
100
AcDbSymbolTableRecord
100
AcDbLinetypeTableRecord
  2
CONTINUOUS
 70
     0
  3
Solid line
 72
    65
 73
     0
 40
0.0
  0
LTYPE
  5
22
330
5
100
AcDbSymbolTableRecord
100
AcDbLinetypeTableRecord
  2
BORDER
 70
     0
  3
__ __ . __ __ . __ __ . __ __ . __ __ . __ __ .
 72
    65
 73
     6
 40
1.75
 49
0.5
 74
     0
 49
-0.25
 74
     0
 49
0.5
 74
     0
 49
-0.25
 74
     0
 49
0.5
 74
     0
 49
-0.25
 74
     0
  0
LTYPE
  5
23
330
5
100
AcDbSymbolTableRecord
100
AcDbLinetypeTableRecord
  2
BORDER2
 70
     0
  3
__.__.__.__.__.__.__.__.
 72
    65
 73
     6
 40
0.875
 49
0.25
 74
     0
 49
-0.125
 74
     0
 49
0.25
 74
     0
 49
-0.125
 74
     0
 49
0.25
 74
     0
 49
-0.125
 74
     0
  0
LTYPE
  5
24
330
5
100
AcDbSymbolTableRecord
100
AcDbLinetypeTableRecord
  2
BORDERX2
 70
     0
  3
____  ____  .  
 72
    65
 73
     6
 40
3.5
 49
1.0
 74
     0
 49
-0.5
 74
     0
 49
1.0
 74
     0
 49
-0.5
 74
     0
 49
1.0
 74
     0
 49
-0.5
 74
     0
  0
LTYPE
  5
25
330
5
100
AcDbSymbolTableRecord
100
AcDbLinetypeTableRecord
  2
CENTER
 70
     0
  3
____ _ ____ _ ____ _ 
 72
    65
 73
     4
 40
2.0
 49
1.25
 74
     0
 49
-0.25
 74
     0
 49
0.25
 74
     0
 49
-0.25
 74
     0
  0
LTYPE
  5
26
330
5
100
AcDbSymbolTableRecord
100
AcDbLinetypeTableRecord
  2
CENTER2
 70
     0
  3
____ _ ____ _ ____ _ 
 72
    65
 73
     4
 40
1.125
 49
0.75
 74
     0
 49
-0.125
 74
     0
 49
0.125
 74
     0
 49
-0.125
 74
     0
  0
LTYPE
  5
27
330
5
100
AcDbSymbolTableRecord
100
AcDbLinetypeTableRecord
  2
CENTERX2
 70
     0
  3
________  __  
 72
    65
 73
     4
 40
4.0
 49
2.5
 74
     0
 49
-0.5
 74
     0
 49
0.5
 74
     0
 49
-0.5
 74
     0
  0
LTYPE
  5
28
330
5
100
AcDbSymbolTableRecord
100
AcDbLinetypeTableRecord
  2
DASHDOT
 70
     0
  3
__ . __ . __ . __ . 
 72
    65
 73
     4
 40
1.0
 49
0.5
 74
     0
 49
-0.25
 74
     0
 49
0.0
 74
     0
 49
-0.25
 74
     0
  0
LTYPE
  5
29
330
5
100
AcDbSymbolTableRecord
100
AcDbLinetypeTableRecord
  2
DASHDOT2
 70
     0
  3
_._._._._._._._._.
 72
    65
 73
     4
 40
0.5
 49
0.25
 74
     0
 49
-0.125
 74
     0
 49
0.0
 74
     0
 49
-0.125
 74
     0
  0
LTYPE
  5
2A
330
5
100
AcDbSymbolTableRecord
100
AcDbLinetypeTableRecord
  2
DASHDOTX2
 70
     0
  3
____  .  ____  .  
 72
    65
 73
     4
 40
2.0
 49
1.0
 74
     0
 49
-0.5
 74
     0
 49
0.0
 74
     0
 49
-0.5
 74
     0
  0
LTYPE
  5
2B
330
5
100
AcDbSymbolTableRecord
100
AcDbLinetypeTableRecord
  2
DASHED
 70
     0
  3
__ __ __ __ __ __ __ 
 72
    65
 73
     2
 40
0.75
 49
0.5
 74
     0
 49
-0.25
 74
     0
  0
LTYPE
  5
2C
330
5
100
AcDbSymbolTableRecord
100
AcDbLinetypeTableRecord
  2
DASHED2
 70
     0
  3
_ _ _ _ _ _ _ _ _ _ 
 72
    65
 73
     2
 40
0.375
 49
0.25
 74
     0
 49
-0.125
 74
     0
  0
LTYPE
  5
2D
330
5
100
AcDbSymbolTableRecord
100
AcDbLinetypeTableRecord
  2
DASHEDX2
 70
     0
  3
____  ____  ____  
 72
    65
 73
     2
 40
1.5
 49
1.0
 74
     0
 49
-0.5
 74
     0
  0
LTYPE
  5
2E
330
5
100
AcDbSymbolTableRecord
100
AcDbLinetypeTableRecord
  2
DIVIDE
 70
     0
  3
____ . . ____ . . 
 72
    65
 73
     6
 40
1.25
 49
0.5
 74
     0
 49
-0.25
 74
     0
 49
0.0
 74
     0
 49
-0.25
 74
     0
 49
0.0
 74
     0
 49
-0.25
 74
     0
  0
LTYPE
  5
2F
330
5
100
AcDbSymbolTableRecord
100
AcDbLinetypeTableRecord
  2
DIVIDE2
 70
     0
  3
__..__..__..__..__..
 72
    65
 73
     6
 40
0.625
 49
0.25
 74
     0
 49
-0.125
 74
     0
 49
0.0
 74
     0
 49
-0.125
 74
     0
 49
0.0
 74
     0
 49
-0.125
 74
     0
  0
LTYPE
  5
30
330
5
100
AcDbSymbolTableRecord
100
AcDbLinetypeTableRecord
  2
DIVIDEX2
 70
     0
  3
________  .  .  
 72
    65
 73
     6
 40
2.5
 49
1.0
 74
     0
 49
-0.5
 74
     0
 49
0.0
 74
     0
 49
-0.5
 74
     0
 49
0.0
 74
     0
 49
-0.5
 74
     0
  0
LTYPE
  5
31
330
5
100
AcDbSymbolTableRecord
100
AcDbLinetypeTableRecord
  2
DOT
 70
     0
  3
. . . . . . . . . 
 72
    65
 73
     2
 40
0.25
 49
0.0
 74
     0
 49
-0.25
 74
     0
  0
LTYPE
  5
32
330
5
100
AcDbSymbolTableRecord
100
AcDbLinetypeTableRecord
  2
DOT2
 70
     0
  3
..................
 72
    65
 73
     2
 40
0.125
 49
0.0
 74
     0
 49
-0.125
 74
     0
  0
LTYPE
  5
33
330
5
100
AcDbSymbolTableRecord
100
AcDbLinetypeTableRecord
  2
DOTX2
 70
     0
  3
.  .  .  .  .  .  
 72
    65
 73
     2
 40
0.5
 49
0.0
 74
     0
 49
-0.5
 74
     0
  0
LTYPE
  5
34
330
5
100
AcDbSymbolTableRecord
100
AcDbLinetypeTableRecord
  2
HIDDEN
 70
     0
  3
__ __ __ __ __ __ 
 72
    65
 73
     2
 40
0.375
 49
0.25
 74
     0
 49
-0.125
 74
     0
  0
LTYPE
  5
35
330
5
100
AcDbSymbolTableRecord
100
AcDbLinetypeTableRecord
  2
HIDDEN2
 70
     0
  3
_ _ _ _ _ _ _ _ _ 
 72
    65
 73
     2
 40
0.1875
 49
0.125
 74
     0
 49
-0.0625
 74
     0
  0
LTYPE
  5
36
330
5
100
AcDbSymbolTableRecord
100
AcDbLinetypeTableRecord
  2
HIDDENX2
 70
     0
  3
____ ____ ____ ____ 
 72
    65
 73
     2
 40
0.75
 49
0.5
 74
     0
 49
-0.25
 74
     0
  0
LTYPE
  5
37
330
5
100
AcDbSymbolTableRecord
100
AcDbLinetypeTableRecord
  2
PHANTOM
 70
     0
  3
______  __  __  
 72
    65
 73
     6
 40
2.5
 49
1.25
 74
     0
 49
-0.25
 74
     0
 49
0.25
 74
     0
 49
-0.25
 74
     0
 49
0.25
 74
     0
 49
-0.25
 74
     0
  0
LTYPE
  5
38
330
5
100
AcDbSymbolTableRecord
100
AcDbLinetypeTableRecord
  2
PHANTOM2
 70
     0
  3
___ _ _ ___ _ _ 
 72
    65
 73
     6
 40
1.25
 49
0.625
 74
     0
 49
-0.125
 74
     0
 49
0.125
 74
     0
 49
-0.125
 74
     0
 49
0.125
 74
     0
 49
-0.125
 74
     0
  0
LTYPE
  5
39
330
5
100
AcDbSymbolTableRecord
100
AcDbLinetypeTableRecord
  2
PHANTOMX2
 70
     0
  3
___ _ _ ___ _ _ 
 72
    65
 73
     6
 40
5.0
 49
2.5
 74
     0
 49
-0.5
 74
     0
 49
0.5
 74
     0
 49
-0.5
 74
     0
 49
0.5
 74
     0
 49
-0.5
 74
     0
  0
ENDTAB
  0
TABLE
  2
LAYER
  5
2
330
0
100
AcDbSymbolTable
 70
   256
  0
LAYER
  5
10
330
2
100
AcDbSymbolTableRecord
100
AcDbLayerTableRecord
  2
0
 70
     0
 62
     7
  6
CONTINUOUS
  0
LAYER
  5
3A
330
2
100
AcDbSymbolTableRecord
100
AcDbLayerTableRecord
  2
1
 70
     0
 62
     1
  6
CONTINUOUS
  0
LAYER
  5
3B
330
2
100
AcDbSymbolTableRecord
100
AcDbLayerTableRecord
  2
2
 70
     0
 62
     2
  6
CONTINUOUS
  0
LAYER
  5
3C
330
2
100
AcDbSymbolTableRecord
100
AcDbLayerTableRecord
  2
3
 70
     0
 62
     3
  6
CONTINUOUS
  0
LAYER
  5
3D
330
2
100
AcDbSymbolTableRecord
100
AcDbLayerTableRecord
  2
4
 70
     0
 62
     4
  6
CONTINUOUS
  0
LAYER
  5
3E
330
2
100
AcDbSymbolTableRecord
100
AcDbLayerTableRecord
  2
5
 70
     0
 62
     5
  6
CONTINUOUS
  0
LAYER
  5
3F
330
2
100
AcDbSymbolTableRecord
100
AcDbLayerTableRecord
  2
6
 70
     0
 62
     6
  6
CONTINUOUS
  0
LAYER
  5
40
330
2
100
AcDbSymbolTableRecord
100
AcDbLayerTableRecord
  2
7
 70
     0
 62
     7
  6
CONTINUOUS
  0
LAYER
  5
41
330
2
100
AcDbSymbolTableRecord
100
AcDbLayerTableRecord
  2
8
 70
     0
 62
     8
  6
CONTINUOUS
  0
LAYER
  5
42
330
2
100
AcDbSymbolTableRecord
100
AcDbLayerTableRecord
  2
9
 70
     0
 62
     9
  6
CONTINUOUS
  0
LAYER
  5
43
330
2
100
AcDbSymbolTableRecord
100
AcDbLayerTableRecord
  2
10
 70
     0
 62
    10
  6
CONTINUOUS
  0
LAYER
  5
44
330
2
100
AcDbSymbolTableRecord
100
AcDbLayerTableRecord
  2
11
 70
     0
 62
    11
  6
CONTINUOUS
  0
LAYER
  5
45
330
2
100
AcDbSymbolTableRecord
100
AcDbLayerTableRecord
  2
12
 70
     0
 62
    12
  6
CONTINUOUS
  0
LAYER
  5
46
330
2
100
AcDbSymbolTableRecord
100
AcDbLayerTableRecord
  2
13
 70
     0
 62
    13
  6
CONTINUOUS
  0
LAYER
  5
47
330
2
100
AcDbSymbolTableRecord
100
AcDbLayerTableRecord
  2
14
 70
     0
 62
    14
  6
CONTINUOUS
  0
LAYER
  5
48
330
2
100
AcDbSymbolTableRecord
100
AcDbLayerTableRecord
  2
15
 70
     0
 62
    15
  6
CONTINUOUS
  0
LAYER
  5
49
330
2
100
AcDbSymbolTableRecord
100
AcDbLayerTableRecord
  2
16
 70
     0
 62
    16
  6
CONTINUOUS
  0
LAYER
  5
4A
330
2
100
AcDbSymbolTableRecord
100
AcDbLayerTableRecord
  2
17
 70
     0
 62
    17
  6
CONTINUOUS
  0
LAYER
  5
4B
330
2
100
AcDbSymbolTableRecord
100
AcDbLayerTableRecord
  2
18
 70
     0
 62
    18
  6
CONTINUOUS
  0
LAYER
  5
4C
330
2
100
AcDbSymbolTableRecord
100
AcDbLayerTableRecord
  2
19
 70
     0
 62
    19
  6
CONTINUOUS
  0
LAYER
  5
4D
330
2
100
AcDbSymbolTableRecord
100
AcDbLayerTableRecord
  2
20
 70
     0
 62
    20
  6
CONTINUOUS
  0
LAYER
  5
4E
330
2
100
AcDbSymbolTableRecord
100
AcDbLayerTableRecord
  2
21
 70
     0
 62
    21
  6
CONTINUOUS
  0
LAYER
  5
4F
330
2
100
AcDbSymbolTableRecord
100
AcDbLayerTableRecord
  2
22
 70
     0
 62
    22
  6
CONTINUOUS
  0
LAYER
  5
50
330
2
100
AcDbSymbolTableRecord
100
AcDbLayerTableRecord
  2
23
 70
     0
 62
    23
  6
CONTINUOUS
  0
LAYER
  5
51
330
2
100
AcDbSymbolTableRecord
100
AcDbLayerTableRecord
  2
24
 70
     0
 62
    24
  6
CONTINUOUS
  0
LAYER
  5
52
330
2
100
AcDbSymbolTableRecord
100
AcDbLayerTableRecord
  2
25
 70
     0
 62
    25
  6
CONTINUOUS
  0
LAYER
  5
53
330
2
100
AcDbSymbolTableRecord
100
AcDbLayerTableRecord
  2
26
 70
     0
 62
    26
  6
CONTINUOUS
  0
LAYER
  5
54
330
2
100
AcDbSymbolTableRecord
100
AcDbLayerTableRecord
  2
27
 70
     0
 62
    27
  6
CONTINUOUS
  0
LAYER
  5
55
330
2
100
AcDbSymbolTableRecord
100
AcDbLayerTableRecord
  2
28
 70
     0
 62
    28
  6
CONTINUOUS
  0
LAYER
  5
56
330
2
100
AcDbSymbolTableRecord
100
AcDbLayerTableRecord
  2
29
 70
     0
 62
    29
  6
CONTINUOUS
  0
LAYER
  5
57
330
2
100
AcDbSymbolTableRecord
100
AcDbLayerTableRecord
  2
30
 70
     0
 62
    30
  6
CONTINUOUS
  0
LAYER
  5
58
330
2
100
AcDbSymbolTableRecord
100
AcDbLayerTableRecord
  2
31
 70
     0
 62
    31
  6
CONTINUOUS
  0
LAYER
  5
59
330
2
100
AcDbSymbolTableRecord
100
AcDbLayerTableRecord
  2
32
 70
     0
 62
    32
  6
CONTINUOUS
  0
LAYER
  5
5A
330
2
100
AcDbSymbolTableRecord
100
AcDbLayerTableRecord
  2
33
 70
     0
 62
    33
  6
CONTINUOUS
  0
LAYER
  5
5B
330
2
100
AcDbSymbolTableRecord
100
AcDbLayerTableRecord
  2
34
 70
     0
 62
    34
  6
CONTINUOUS
  0
LAYER
  5
5C
330
2
100
AcDbSymbolTableRecord
100
AcDbLayerTableRecord
  2
35
 70
     0
 62
    35
  6
CONTINUOUS
  0
LAYER
  5
5D
330
2
100
AcDbSymbolTableRecord
100
AcDbLayerTableRecord
  2
36
 70
     0
 62
    36
  6
CONTINUOUS
  0
LAYER
  5
5E
330
2
100
AcDbSymbolTableRecord
100
AcDbLayerTableRecord
  2
37
 70
     0
 62
    37
  6
CONTINUOUS
  0
LAYER
  5
5F
330
2
100
AcDbSymbolTableRecord
100
AcDbLayerTableRecord
  2
38
 70
     0
 62
    38
  6
CONTINUOUS
  0
LAYER
  5
60
330
2
100
AcDbSymbolTableRecord
100
AcDbLayerTableRecord
  2
39
 70
     0
 62
    39
  6
CONTINUOUS
  0
LAYER
  5
61
330
2
100
AcDbSymbolTableRecord
100
AcDbLayerTableRecord
  2
40
 70
     0
 62
    40
  6
CONTINUOUS
  0
LAYER
  5
62
330
2
100
AcDbSymbolTableRecord
100
AcDbLayerTableRecord
  2
41
 70
     0
 62
    41
  6
CONTINUOUS
  0
LAYER
  5
63
330
2
100
AcDbSymbolTableRecord
100
AcDbLayerTableRecord
  2
42
 70
     0
 62
    42
  6
CONTINUOUS
  0
LAYER
  5
64
330
2
100
AcDbSymbolTableRecord
100
AcDbLayerTableRecord
  2
43
 70
     0
 62
    43
  6
CONTINUOUS
  0
LAYER
  5
65
330
2
100
AcDbSymbolTableRecord
100
AcDbLayerTableRecord
  2
44
 70
     0
 62
    44
  6
CONTINUOUS
  0
LAYER
  5
66
330
2
100
AcDbSymbolTableRecord
100
AcDbLayerTableRecord
  2
45
 70
     0
 62
    45
  6
CONTINUOUS
  0
LAYER
  5
67
330
2
100
AcDbSymbolTableRecord
100
AcDbLayerTableRecord
  2
46
 70
     0
 62
    46
  6
CONTINUOUS
  0
LAYER
  5
68
330
2
100
AcDbSymbolTableRecord
100
AcDbLayerTableRecord
  2
47
 70
     0
 62
    47
  6
CONTINUOUS
  0
LAYER
  5
69
330
2
100
AcDbSymbolTableRecord
100
AcDbLayerTableRecord
  2
48
 70
     0
 62
    48
  6
CONTINUOUS
  0
LAYER
  5
6A
330
2
100
AcDbSymbolTableRecord
100
AcDbLayerTableRecord
  2
49
 70
     0
 62
    49
  6
CONTINUOUS
  0
LAYER
  5
6B
330
2
100
AcDbSymbolTableRecord
100
AcDbLayerTableRecord
  2
50
 70
     0
 62
    50
  6
CONTINUOUS
  0
LAYER
  5
6C
330
2
100
AcDbSymbolTableRecord
100
AcDbLayerTableRecord
  2
51
 70
     0
 62
    51
  6
CONTINUOUS
  0
LAYER
  5
6D
330
2
100
AcDbSymbolTableRecord
100
AcDbLayerTableRecord
  2
52
 70
     0
 62
    52
  6
CONTINUOUS
  0
LAYER
  5
6E
330
2
100
AcDbSymbolTableRecord
100
AcDbLayerTableRecord
  2
53
 70
     0
 62
    53
  6
CONTINUOUS
  0
LAYER
  5
6F
330
2
100
AcDbSymbolTableRecord
100
AcDbLayerTableRecord
  2
54
 70
     0
 62
    54
  6
CONTINUOUS
  0
LAYER
  5
70
330
2
100
AcDbSymbolTableRecord
100
AcDbLayerTableRecord
  2
55
 70
     0
 62
    55
  6
CONTINUOUS
  0
LAYER
  5
71
330
2
100
AcDbSymbolTableRecord
100
AcDbLayerTableRecord
  2
56
 70
     0
 62
    56
  6
CONTINUOUS
  0
LAYER
  5
72
330
2
100
AcDbSymbolTableRecord
100
AcDbLayerTableRecord
  2
57
 70
     0
 62
    57
  6
CONTINUOUS
  0
LAYER
  5
73
330
2
100
AcDbSymbolTableRecord
100
AcDbLayerTableRecord
  2
58
 70
     0
 62
    58
  6
CONTINUOUS
  0
LAYER
  5
74
330
2
100
AcDbSymbolTableRecord
100
AcDbLayerTableRecord
  2
59
 70
     0
 62
    59
  6
CONTINUOUS
  0
LAYER
  5
75
330
2
100
AcDbSymbolTableRecord
100
AcDbLayerTableRecord
  2
60
 70
     0
 62
    60
  6
CONTINUOUS
  0
LAYER
  5
76
330
2
100
AcDbSymbolTableRecord
100
AcDbLayerTableRecord
  2
61
 70
     0
 62
    61
  6
CONTINUOUS
  0
LAYER
  5
77
330
2
100
AcDbSymbolTableRecord
100
AcDbLayerTableRecord
  2
62
 70
     0
 62
    62
  6
CONTINUOUS
  0
LAYER
  5
78
330
2
100
AcDbSymbolTableRecord
100
AcDbLayerTableRecord
  2
63
 70
     0
 62
    63
  6
CONTINUOUS
  0
LAYER
  5
79
330
2
100
AcDbSymbolTableRecord
100
AcDbLayerTableRecord
  2
64
 70
     0
 62
    64
  6
CONTINUOUS
  0
LAYER
  5
7A
330
2
100
AcDbSymbolTableRecord
100
AcDbLayerTableRecord
  2
65
 70
     0
 62
    65
  6
CONTINUOUS
  0
LAYER
  5
7B
330
2
100
AcDbSymbolTableRecord
100
AcDbLayerTableRecord
  2
66
 70
     0
 62
    66
  6
CONTINUOUS
  0
LAYER
  5
7C
330
2
100
AcDbSymbolTableRecord
100
AcDbLayerTableRecord
  2
67
 70
     0
 62
    67
  6
CONTINUOUS
  0
LAYER
  5
7D
330
2
100
AcDbSymbolTableRecord
100
AcDbLayerTableRecord
  2
68
 70
     0
 62
    68
  6
CONTINUOUS
  0
LAYER
  5
7E
330
2
100
AcDbSymbolTableRecord
100
AcDbLayerTableRecord
  2
69
 70
     0
 62
    69
  6
CONTINUOUS
  0
LAYER
  5
7F
330
2
100
AcDbSymbolTableRecord
100
AcDbLayerTableRecord
  2
70
 70
     0
 62
    70
  6
CONTINUOUS
  0
LAYER
  5
80
330
2
100
AcDbSymbolTableRecord
100
AcDbLayerTableRecord
  2
71
 70
     0
 62
    71
  6
CONTINUOUS
  0
LAYER
  5
81
330
2
100
AcDbSymbolTableRecord
100
AcDbLayerTableRecord
  2
72
 70
     0
 62
    72
  6
CONTINUOUS
  0
LAYER
  5
82
330
2
100
AcDbSymbolTableRecord
100
AcDbLayerTableRecord
  2
73
 70
     0
 62
    73
  6
CONTINUOUS
  0
LAYER
  5
83
330
2
100
AcDbSymbolTableRecord
100
AcDbLayerTableRecord
  2
74
 70
     0
 62
    74
  6
CONTINUOUS
  0
LAYER
  5
84
330
2
100
AcDbSymbolTableRecord
100
AcDbLayerTableRecord
  2
75
 70
     0
 62
    75
  6
CONTINUOUS
  0
LAYER
  5
85
330
2
100
AcDbSymbolTableRecord
100
AcDbLayerTableRecord
  2
76
 70
     0
 62
    76
  6
CONTINUOUS
  0
LAYER
  5
86
330
2
100
AcDbSymbolTableRecord
100
AcDbLayerTableRecord
  2
77
 70
     0
 62
    77
  6
CONTINUOUS
  0
LAYER
  5
87
330
2
100
AcDbSymbolTableRecord
100
AcDbLayerTableRecord
  2
78
 70
     0
 62
    78
  6
CONTINUOUS
  0
LAYER
  5
88
330
2
100
AcDbSymbolTableRecord
100
AcDbLayerTableRecord
  2
79
 70
     0
 62
    79
  6
CONTINUOUS
  0
LAYER
  5
89
330
2
100
AcDbSymbolTableRecord
100
AcDbLayerTableRecord
  2
80
 70
     0
 62
    80
  6
CONTINUOUS
  0
LAYER
  5
8A
330
2
100
AcDbSymbolTableRecord
100
AcDbLayerTableRecord
  2
81
 70
     0
 62
    81
  6
CONTINUOUS
  0
LAYER
  5
8B
330
2
100
AcDbSymbolTableRecord
100
AcDbLayerTableRecord
  2
82
 70
     0
 62
    82
  6
CONTINUOUS
  0
LAYER
  5
8C
330
2
100
AcDbSymbolTableRecord
100
AcDbLayerTableRecord
  2
83
 70
     0
 62
    83
  6
CONTINUOUS
  0
LAYER
  5
8D
330
2
100
AcDbSymbolTableRecord
100
AcDbLayerTableRecord
  2
84
 70
     0
 62
    84
  6
CONTINUOUS
  0
LAYER
  5
8E
330
2
100
AcDbSymbolTableRecord
100
AcDbLayerTableRecord
  2
85
 70
     0
 62
    85
  6
CONTINUOUS
  0
LAYER
  5
8F
330
2
100
AcDbSymbolTableRecord
100
AcDbLayerTableRecord
  2
86
 70
     0
 62
    86
  6
CONTINUOUS
  0
LAYER
  5
90
330
2
100
AcDbSymbolTableRecord
100
AcDbLayerTableRecord
  2
87
 70
     0
 62
    87
  6
CONTINUOUS
  0
LAYER
  5
91
330
2
100
AcDbSymbolTableRecord
100
AcDbLayerTableRecord
  2
88
 70
     0
 62
    88
  6
CONTINUOUS
  0
LAYER
  5
92
330
2
100
AcDbSymbolTableRecord
100
AcDbLayerTableRecord
  2
89
 70
     0
 62
    89
  6
CONTINUOUS
  0
LAYER
  5
93
330
2
100
AcDbSymbolTableRecord
100
AcDbLayerTableRecord
  2
90
 70
     0
 62
    90
  6
CONTINUOUS
  0
LAYER
  5
94
330
2
100
AcDbSymbolTableRecord
100
AcDbLayerTableRecord
  2
91
 70
     0
 62
    91
  6
CONTINUOUS
  0
LAYER
  5
95
330
2
100
AcDbSymbolTableRecord
100
AcDbLayerTableRecord
  2
92
 70
     0
 62
    92
  6
CONTINUOUS
  0
LAYER
  5
96
330
2
100
AcDbSymbolTableRecord
100
AcDbLayerTableRecord
  2
93
 70
     0
 62
    93
  6
CONTINUOUS
  0
LAYER
  5
97
330
2
100
AcDbSymbolTableRecord
100
AcDbLayerTableRecord
  2
94
 70
     0
 62
    94
  6
CONTINUOUS
  0
LAYER
  5
98
330
2
100
AcDbSymbolTableRecord
100
AcDbLayerTableRecord
  2
95
 70
     0
 62
    95
  6
CONTINUOUS
  0
LAYER
  5
99
330
2
100
AcDbSymbolTableRecord
100
AcDbLayerTableRecord
  2
96
 70
     0
 62
    96
  6
CONTINUOUS
  0
LAYER
  5
9A
330
2
100
AcDbSymbolTableRecord
100
AcDbLayerTableRecord
  2
97
 70
     0
 62
    97
  6
CONTINUOUS
  0
LAYER
  5
9B
330
2
100
AcDbSymbolTableRecord
100
AcDbLayerTableRecord
  2
98
 70
     0
 62
    98
  6
CONTINUOUS
  0
LAYER
  5
9C
330
2
100
AcDbSymbolTableRecord
100
AcDbLayerTableRecord
  2
99
 70
     0
 62
    99
  6
CONTINUOUS
  0
LAYER
  5
9D
330
2
100
AcDbSymbolTableRecord
100
AcDbLayerTableRecord
  2
100
 70
     0
 62
   100
  6
CONTINUOUS
  0
LAYER
  5
9E
330
2
100
AcDbSymbolTableRecord
100
AcDbLayerTableRecord
  2
101
 70
     0
 62
   101
  6
CONTINUOUS
  0
LAYER
  5
9F
330
2
100
AcDbSymbolTableRecord
100
AcDbLayerTableRecord
  2
102
 70
     0
 62
   102
  6
CONTINUOUS
  0
LAYER
  5
A0
330
2
100
AcDbSymbolTableRecord
100
AcDbLayerTableRecord
  2
103
 70
     0
 62
   103
  6
CONTINUOUS
  0
LAYER
  5
A1
330
2
100
AcDbSymbolTableRecord
100
AcDbLayerTableRecord
  2
104
 70
     0
 62
   104
  6
CONTINUOUS
  0
LAYER
  5
A2
330
2
100
AcDbSymbolTableRecord
100
AcDbLayerTableRecord
  2
105
 70
     0
 62
   105
  6
CONTINUOUS
  0
LAYER
  5
A3
330
2
100
AcDbSymbolTableRecord
100
AcDbLayerTableRecord
  2
106
 70
     0
 62
   106
  6
CONTINUOUS
  0
LAYER
  5
A4
330
2
100
AcDbSymbolTableRecord
100
AcDbLayerTableRecord
  2
107
 70
     0
 62
   107
  6
CONTINUOUS
  0
LAYER
  5
A5
330
2
100
AcDbSymbolTableRecord
100
AcDbLayerTableRecord
  2
108
 70
     0
 62
   108
  6
CONTINUOUS
  0
LAYER
  5
A6
330
2
100
AcDbSymbolTableRecord
100
AcDbLayerTableRecord
  2
109
 70
     0
 62
   109
  6
CONTINUOUS
  0
LAYER
  5
A7
330
2
100
AcDbSymbolTableRecord
100
AcDbLayerTableRecord
  2
110
 70
     0
 62
   110
  6
CONTINUOUS
  0
LAYER
  5
A8
330
2
100
AcDbSymbolTableRecord
100
AcDbLayerTableRecord
  2
111
 70
     0
 62
   111
  6
CONTINUOUS
  0
LAYER
  5
A9
330
2
100
AcDbSymbolTableRecord
100
AcDbLayerTableRecord
  2
112
 70
     0
 62
   112
  6
CONTINUOUS
  0
LAYER
  5
AA
330
2
100
AcDbSymbolTableRecord
100
AcDbLayerTableRecord
  2
113
 70
     0
 62
   113
  6
CONTINUOUS
  0
LAYER
  5
AB
330
2
100
AcDbSymbolTableRecord
100
AcDbLayerTableRecord
  2
114
 70
     0
 62
   114
  6
CONTINUOUS
  0
LAYER
  5
AC
330
2
100
AcDbSymbolTableRecord
100
AcDbLayerTableRecord
  2
115
 70
     0
 62
   115
  6
CONTINUOUS
  0
LAYER
  5
AD
330
2
100
AcDbSymbolTableRecord
100
AcDbLayerTableRecord
  2
116
 70
     0
 62
   116
  6
CONTINUOUS
  0
LAYER
  5
AE
330
2
100
AcDbSymbolTableRecord
100
AcDbLayerTableRecord
  2
117
 70
     0
 62
   117
  6
CONTINUOUS
  0
LAYER
  5
AF
330
2
100
AcDbSymbolTableRecord
100
AcDbLayerTableRecord
  2
118
 70
     0
 62
   118
  6
CONTINUOUS
  0
LAYER
  5
B0
330
2
100
AcDbSymbolTableRecord
100
AcDbLayerTableRecord
  2
119
 70
     0
 62
   119
  6
CONTINUOUS
  0
LAYER
  5
B1
330
2
100
AcDbSymbolTableRecord
100
AcDbLayerTableRecord
  2
120
 70
     0
 62
   120
  6
CONTINUOUS
  0
LAYER
  5
B2
330
2
100
AcDbSymbolTableRecord
100
AcDbLayerTableRecord
  2
121
 70
     0
 62
   121
  6
CONTINUOUS
  0
LAYER
  5
B3
330
2
100
AcDbSymbolTableRecord
100
AcDbLayerTableRecord
  2
122
 70
     0
 62
   122
  6
CONTINUOUS
  0
LAYER
  5
B4
330
2
100
AcDbSymbolTableRecord
100
AcDbLayerTableRecord
  2
123
 70
     0
 62
   123
  6
CONTINUOUS
  0
LAYER
  5
B5
330
2
100
AcDbSymbolTableRecord
100
AcDbLayerTableRecord
  2
124
 70
     0
 62
   124
  6
CONTINUOUS
  0
LAYER
  5
B6
330
2
100
AcDbSymbolTableRecord
100
AcDbLayerTableRecord
  2
125
 70
     0
 62
   125
  6
CONTINUOUS
  0
LAYER
  5
B7
330
2
100
AcDbSymbolTableRecord
100
AcDbLayerTableRecord
  2
126
 70
     0
 62
   126
  6
CONTINUOUS
  0
LAYER
  5
B8
330
2
100
AcDbSymbolTableRecord
100
AcDbLayerTableRecord
  2
127
 70
     0
 62
   127
  6
CONTINUOUS
  0
LAYER
  5
B9
330
2
100
AcDbSymbolTableRecord
100
AcDbLayerTableRecord
  2
128
 70
     0
 62
   128
  6
CONTINUOUS
  0
LAYER
  5
BA
330
2
100
AcDbSymbolTableRecord
100
AcDbLayerTableRecord
  2
129
 70
     0
 62
   129
  6
CONTINUOUS
  0
LAYER
  5
BB
330
2
100
AcDbSymbolTableRecord
100
AcDbLayerTableRecord
  2
130
 70
     0
 62
   130
  6
CONTINUOUS
  0
LAYER
  5
BC
330
2
100
AcDbSymbolTableRecord
100
AcDbLayerTableRecord
  2
131
 70
     0
 62
   131
  6
CONTINUOUS
  0
LAYER
  5
BD
330
2
100
AcDbSymbolTableRecord
100
AcDbLayerTableRecord
  2
132
 70
     0
 62
   132
  6
CONTINUOUS
  0
LAYER
  5
BE
330
2
100
AcDbSymbolTableRecord
100
AcDbLayerTableRecord
  2
133
 70
     0
 62
   133
  6
CONTINUOUS
  0
LAYER
  5
BF
330
2
100
AcDbSymbolTableRecord
100
AcDbLayerTableRecord
  2
134
 70
     0
 62
   134
  6
CONTINUOUS
  0
LAYER
  5
C0
330
2
100
AcDbSymbolTableRecord
100
AcDbLayerTableRecord
  2
135
 70
     0
 62
   135
  6
CONTINUOUS
  0
LAYER
  5
C1
330
2
100
AcDbSymbolTableRecord
100
AcDbLayerTableRecord
  2
136
 70
     0
 62
   136
  6
CONTINUOUS
  0
LAYER
  5
C2
330
2
100
AcDbSymbolTableRecord
100
AcDbLayerTableRecord
  2
137
 70
     0
 62
   137
  6
CONTINUOUS
  0
LAYER
  5
C3
330
2
100
AcDbSymbolTableRecord
100
AcDbLayerTableRecord
  2
138
 70
     0
 62
   138
  6
CONTINUOUS
  0
LAYER
  5
C4
330
2
100
AcDbSymbolTableRecord
100
AcDbLayerTableRecord
  2
139
 70
     0
 62
   139
  6
CONTINUOUS
  0
LAYER
  5
C5
330
2
100
AcDbSymbolTableRecord
100
AcDbLayerTableRecord
  2
140
 70
     0
 62
   140
  6
CONTINUOUS
  0
LAYER
  5
C6
330
2
100
AcDbSymbolTableRecord
100
AcDbLayerTableRecord
  2
141
 70
     0
 62
   141
  6
CONTINUOUS
  0
LAYER
  5
C7
330
2
100
AcDbSymbolTableRecord
100
AcDbLayerTableRecord
  2
142
 70
     0
 62
   142
  6
CONTINUOUS
  0
LAYER
  5
C8
330
2
100
AcDbSymbolTableRecord
100
AcDbLayerTableRecord
  2
143
 70
     0
 62
   143
  6
CONTINUOUS
  0
LAYER
  5
C9
330
2
100
AcDbSymbolTableRecord
100
AcDbLayerTableRecord
  2
144
 70
     0
 62
   144
  6
CONTINUOUS
  0
LAYER
  5
CA
330
2
100
AcDbSymbolTableRecord
100
AcDbLayerTableRecord
  2
145
 70
     0
 62
   145
  6
CONTINUOUS
  0
LAYER
  5
CB
330
2
100
AcDbSymbolTableRecord
100
AcDbLayerTableRecord
  2
146
 70
     0
 62
   146
  6
CONTINUOUS
  0
LAYER
  5
CC
330
2
100
AcDbSymbolTableRecord
100
AcDbLayerTableRecord
  2
147
 70
     0
 62
   147
  6
CONTINUOUS
  0
LAYER
  5
CD
330
2
100
AcDbSymbolTableRecord
100
AcDbLayerTableRecord
  2
148
 70
     0
 62
   148
  6
CONTINUOUS
  0
LAYER
  5
CE
330
2
100
AcDbSymbolTableRecord
100
AcDbLayerTableRecord
  2
149
 70
     0
 62
   149
  6
CONTINUOUS
  0
LAYER
  5
CF
330
2
100
AcDbSymbolTableRecord
100
AcDbLayerTableRecord
  2
150
 70
     0
 62
   150
  6
CONTINUOUS
  0
LAYER
  5
D0
330
2
100
AcDbSymbolTableRecord
100
AcDbLayerTableRecord
  2
151
 70
     0
 62
   151
  6
CONTINUOUS
  0
LAYER
  5
D1
330
2
100
AcDbSymbolTableRecord
100
AcDbLayerTableRecord
  2
152
 70
     0
 62
   152
  6
CONTINUOUS
  0
LAYER
  5
D2
330
2
100
AcDbSymbolTableRecord
100
AcDbLayerTableRecord
  2
153
 70
     0
 62
   153
  6
CONTINUOUS
  0
LAYER
  5
D3
330
2
100
AcDbSymbolTableRecord
100
AcDbLayerTableRecord
  2
154
 70
     0
 62
   154
  6
CONTINUOUS
  0
LAYER
  5
D4
330
2
100
AcDbSymbolTableRecord
100
AcDbLayerTableRecord
  2
155
 70
     0
 62
   155
  6
CONTINUOUS
  0
LAYER
  5
D5
330
2
100
AcDbSymbolTableRecord
100
AcDbLayerTableRecord
  2
156
 70
     0
 62
   156
  6
CONTINUOUS
  0
LAYER
  5
D6
330
2
100
AcDbSymbolTableRecord
100
AcDbLayerTableRecord
  2
157
 70
     0
 62
   157
  6
CONTINUOUS
  0
LAYER
  5
D7
330
2
100
AcDbSymbolTableRecord
100
AcDbLayerTableRecord
  2
158
 70
     0
 62
   158
  6
CONTINUOUS
  0
LAYER
  5
D8
330
2
100
AcDbSymbolTableRecord
100
AcDbLayerTableRecord
  2
159
 70
     0
 62
   159
  6
CONTINUOUS
  0
LAYER
  5
D9
330
2
100
AcDbSymbolTableRecord
100
AcDbLayerTableRecord
  2
160
 70
     0
 62
   160
  6
CONTINUOUS
  0
LAYER
  5
DA
330
2
100
AcDbSymbolTableRecord
100
AcDbLayerTableRecord
  2
161
 70
     0
 62
   161
  6
CONTINUOUS
  0
LAYER
  5
DB
330
2
100
AcDbSymbolTableRecord
100
AcDbLayerTableRecord
  2
162
 70
     0
 62
   162
  6
CONTINUOUS
  0
LAYER
  5
DC
330
2
100
AcDbSymbolTableRecord
100
AcDbLayerTableRecord
  2
163
 70
     0
 62
   163
  6
CONTINUOUS
  0
LAYER
  5
DD
330
2
100
AcDbSymbolTableRecord
100
AcDbLayerTableRecord
  2
164
 70
     0
 62
   164
  6
CONTINUOUS
  0
LAYER
  5
DE
330
2
100
AcDbSymbolTableRecord
100
AcDbLayerTableRecord
  2
165
 70
     0
 62
   165
  6
CONTINUOUS
  0
LAYER
  5
DF
330
2
100
AcDbSymbolTableRecord
100
AcDbLayerTableRecord
  2
166
 70
     0
 62
   166
  6
CONTINUOUS
  0
LAYER
  5
E0
330
2
100
AcDbSymbolTableRecord
100
AcDbLayerTableRecord
  2
167
 70
     0
 62
   167
  6
CONTINUOUS
  0
LAYER
  5
E1
330
2
100
AcDbSymbolTableRecord
100
AcDbLayerTableRecord
  2
168
 70
     0
 62
   168
  6
CONTINUOUS
  0
LAYER
  5
E2
330
2
100
AcDbSymbolTableRecord
100
AcDbLayerTableRecord
  2
169
 70
     0
 62
   169
  6
CONTINUOUS
  0
LAYER
  5
E3
330
2
100
AcDbSymbolTableRecord
100
AcDbLayerTableRecord
  2
170
 70
     0
 62
   170
  6
CONTINUOUS
  0
LAYER
  5
E4
330
2
100
AcDbSymbolTableRecord
100
AcDbLayerTableRecord
  2
171
 70
     0
 62
   171
  6
CONTINUOUS
  0
LAYER
  5
E5
330
2
100
AcDbSymbolTableRecord
100
AcDbLayerTableRecord
  2
172
 70
     0
 62
   172
  6
CONTINUOUS
  0
LAYER
  5
E6
330
2
100
AcDbSymbolTableRecord
100
AcDbLayerTableRecord
  2
173
 70
     0
 62
   173
  6
CONTINUOUS
  0
LAYER
  5
E7
330
2
100
AcDbSymbolTableRecord
100
AcDbLayerTableRecord
  2
174
 70
     0
 62
   174
  6
CONTINUOUS
  0
LAYER
  5
E8
330
2
100
AcDbSymbolTableRecord
100
AcDbLayerTableRecord
  2
175
 70
     0
 62
   175
  6
CONTINUOUS
  0
LAYER
  5
E9
330
2
100
AcDbSymbolTableRecord
100
AcDbLayerTableRecord
  2
176
 70
     0
 62
   176
  6
CONTINUOUS
  0
LAYER
  5
EA
330
2
100
AcDbSymbolTableRecord
100
AcDbLayerTableRecord
  2
177
 70
     0
 62
   177
  6
CONTINUOUS
  0
LAYER
  5
EB
330
2
100
AcDbSymbolTableRecord
100
AcDbLayerTableRecord
  2
178
 70
     0
 62
   178
  6
CONTINUOUS
  0
LAYER
  5
EC
330
2
100
AcDbSymbolTableRecord
100
AcDbLayerTableRecord
  2
179
 70
     0
 62
   179
  6
CONTINUOUS
  0
LAYER
  5
ED
330
2
100
AcDbSymbolTableRecord
100
AcDbLayerTableRecord
  2
180
 70
     0
 62
   180
  6
CONTINUOUS
  0
LAYER
  5
EE
330
2
100
AcDbSymbolTableRecord
100
AcDbLayerTableRecord
  2
181
 70
     0
 62
   181
  6
CONTINUOUS
  0
LAYER
  5
EF
330
2
100
AcDbSymbolTableRecord
100
AcDbLayerTableRecord
  2
182
 70
     0
 62
   182
  6
CONTINUOUS
  0
LAYER
  5
F0
330
2
100
AcDbSymbolTableRecord
100
AcDbLayerTableRecord
  2
183
 70
     0
 62
   183
  6
CONTINUOUS
  0
LAYER
  5
F1
330
2
100
AcDbSymbolTableRecord
100
AcDbLayerTableRecord
  2
184
 70
     0
 62
   184
  6
CONTINUOUS
  0
LAYER
  5
F2
330
2
100
AcDbSymbolTableRecord
100
AcDbLayerTableRecord
  2
185
 70
     0
 62
   185
  6
CONTINUOUS
  0
LAYER
  5
F3
330
2
100
AcDbSymbolTableRecord
100
AcDbLayerTableRecord
  2
186
 70
     0
 62
   186
  6
CONTINUOUS
  0
LAYER
  5
F4
330
2
100
AcDbSymbolTableRecord
100
AcDbLayerTableRecord
  2
187
 70
     0
 62
   187
  6
CONTINUOUS
  0
LAYER
  5
F5
330
2
100
AcDbSymbolTableRecord
100
AcDbLayerTableRecord
  2
188
 70
     0
 62
   188
  6
CONTINUOUS
  0
LAYER
  5
F6
330
2
100
AcDbSymbolTableRecord
100
AcDbLayerTableRecord
  2
189
 70
     0
 62
   189
  6
CONTINUOUS
  0
LAYER
  5
F7
330
2
100
AcDbSymbolTableRecord
100
AcDbLayerTableRecord
  2
190
 70
     0
 62
   190
  6
CONTINUOUS
  0
LAYER
  5
F8
330
2
100
AcDbSymbolTableRecord
100
AcDbLayerTableRecord
  2
191
 70
     0
 62
   191
  6
CONTINUOUS
  0
LAYER
  5
F9
330
2
100
AcDbSymbolTableRecord
100
AcDbLayerTableRecord
  2
192
 70
     0
 62
   192
  6
CONTINUOUS
  0
LAYER
  5
FA
330
2
100
AcDbSymbolTableRecord
100
AcDbLayerTableRecord
  2
193
 70
     0
 62
   193
  6
CONTINUOUS
  0
LAYER
  5
FB
330
2
100
AcDbSymbolTableRecord
100
AcDbLayerTableRecord
  2
194
 70
     0
 62
   194
  6
CONTINUOUS
  0
LAYER
  5
FC
330
2
100
AcDbSymbolTableRecord
100
AcDbLayerTableRecord
  2
195
 70
     0
 62
   195
  6
CONTINUOUS
  0
LAYER
  5
FD
330
2
100
AcDbSymbolTableRecord
100
AcDbLayerTableRecord
  2
196
 70
     0
 62
   196
  6
CONTINUOUS
  0
LAYER
  5
FE
330
2
100
AcDbSymbolTableRecord
100
AcDbLayerTableRecord
  2
197
 70
     0
 62
   197
  6
CONTINUOUS
  0
LAYER
  5
FF
330
2
100
AcDbSymbolTableRecord
100
AcDbLayerTableRecord
  2
198
 70
     0
 62
   198
  6
CONTINUOUS
  0
LAYER
  5
100
330
2
100
AcDbSymbolTableRecord
100
AcDbLayerTableRecord
  2
199
 70
     0
 62
   199
  6
CONTINUOUS
  0
LAYER
  5
101
330
2
100
AcDbSymbolTableRecord
100
AcDbLayerTableRecord
  2
200
 70
     0
 62
   200
  6
CONTINUOUS
  0
LAYER
  5
102
330
2
100
AcDbSymbolTableRecord
100
AcDbLayerTableRecord
  2
201
 70
     0
 62
   201
  6
CONTINUOUS
  0
LAYER
  5
103
330
2
100
AcDbSymbolTableRecord
100
AcDbLayerTableRecord
  2
202
 70
     0
 62
   202
  6
CONTINUOUS
  0
LAYER
  5
104
330
2
100
AcDbSymbolTableRecord
100
AcDbLayerTableRecord
  2
203
 70
     0
 62
   203
  6
CONTINUOUS
  0
LAYER
  5
105
330
2
100
AcDbSymbolTableRecord
100
AcDbLayerTableRecord
  2
204
 70
     0
 62
   204
  6
CONTINUOUS
  0
LAYER
  5
106
330
2
100
AcDbSymbolTableRecord
100
AcDbLayerTableRecord
  2
205
 70
     0
 62
   205
  6
CONTINUOUS
  0
LAYER
  5
107
330
2
100
AcDbSymbolTableRecord
100
AcDbLayerTableRecord
  2
206
 70
     0
 62
   206
  6
CONTINUOUS
  0
LAYER
  5
108
330
2
100
AcDbSymbolTableRecord
100
AcDbLayerTableRecord
  2
207
 70
     0
 62
   207
  6
CONTINUOUS
  0
LAYER
  5
109
330
2
100
AcDbSymbolTableRecord
100
AcDbLayerTableRecord
  2
208
 70
     0
 62
   208
  6
CONTINUOUS
  0
LAYER
  5
10A
330
2
100
AcDbSymbolTableRecord
100
AcDbLayerTableRecord
  2
209
 70
     0
 62
   209
  6
CONTINUOUS
  0
LAYER
  5
10B
330
2
100
AcDbSymbolTableRecord
100
AcDbLayerTableRecord
  2
210
 70
     0
 62
   210
  6
CONTINUOUS
  0
LAYER
  5
10C
330
2
100
AcDbSymbolTableRecord
100
AcDbLayerTableRecord
  2
211
 70
     0
 62
   211
  6
CONTINUOUS
  0
LAYER
  5
10D
330
2
100
AcDbSymbolTableRecord
100
AcDbLayerTableRecord
  2
212
 70
     0
 62
   212
  6
CONTINUOUS
  0
LAYER
  5
10E
330
2
100
AcDbSymbolTableRecord
100
AcDbLayerTableRecord
  2
213
 70
     0
 62
   213
  6
CONTINUOUS
  0
LAYER
  5
10F
330
2
100
AcDbSymbolTableRecord
100
AcDbLayerTableRecord
  2
214
 70
     0
 62
   214
  6
CONTINUOUS
  0
LAYER
  5
110
330
2
100
AcDbSymbolTableRecord
100
AcDbLayerTableRecord
  2
215
 70
     0
 62
   215
  6
CONTINUOUS
  0
LAYER
  5
111
330
2
100
AcDbSymbolTableRecord
100
AcDbLayerTableRecord
  2
216
 70
     0
 62
   216
  6
CONTINUOUS
  0
LAYER
  5
112
330
2
100
AcDbSymbolTableRecord
100
AcDbLayerTableRecord
  2
217
 70
     0
 62
   217
  6
CONTINUOUS
  0
LAYER
  5
113
330
2
100
AcDbSymbolTableRecord
100
AcDbLayerTableRecord
  2
218
 70
     0
 62
   218
  6
CONTINUOUS
  0
LAYER
  5
114
330
2
100
AcDbSymbolTableRecord
100
AcDbLayerTableRecord
  2
219
 70
     0
 62
   219
  6
CONTINUOUS
  0
LAYER
  5
115
330
2
100
AcDbSymbolTableRecord
100
AcDbLayerTableRecord
  2
220
 70
     0
 62
   220
  6
CONTINUOUS
  0
LAYER
  5
116
330
2
100
AcDbSymbolTableRecord
100
AcDbLayerTableRecord
  2
221
 70
     0
 62
   221
  6
CONTINUOUS
  0
LAYER
  5
117
330
2
100
AcDbSymbolTableRecord
100
AcDbLayerTableRecord
  2
222
 70
     0
 62
   222
  6
CONTINUOUS
  0
LAYER
  5
118
330
2
100
AcDbSymbolTableRecord
100
AcDbLayerTableRecord
  2
223
 70
     0
 62
   223
  6
CONTINUOUS
  0
LAYER
  5
119
330
2
100
AcDbSymbolTableRecord
100
AcDbLayerTableRecord
  2
224
 70
     0
 62
   224
  6
CONTINUOUS
  0
LAYER
  5
11A
330
2
100
AcDbSymbolTableRecord
100
AcDbLayerTableRecord
  2
225
 70
     0
 62
   225
  6
CONTINUOUS
  0
LAYER
  5
11B
330
2
100
AcDbSymbolTableRecord
100
AcDbLayerTableRecord
  2
226
 70
     0
 62
   226
  6
CONTINUOUS
  0
LAYER
  5
11C
330
2
100
AcDbSymbolTableRecord
100
AcDbLayerTableRecord
  2
227
 70
     0
 62
   227
  6
CONTINUOUS
  0
LAYER
  5
11D
330
2
100
AcDbSymbolTableRecord
100
AcDbLayerTableRecord
  2
228
 70
     0
 62
   228
  6
CONTINUOUS
  0
LAYER
  5
11E
330
2
100
AcDbSymbolTableRecord
100
AcDbLayerTableRecord
  2
229
 70
     0
 62
   229
  6
CONTINUOUS
  0
LAYER
  5
11F
330
2
100
AcDbSymbolTableRecord
100
AcDbLayerTableRecord
  2
230
 70
     0
 62
   230
  6
CONTINUOUS
  0
LAYER
  5
120
330
2
100
AcDbSymbolTableRecord
100
AcDbLayerTableRecord
  2
231
 70
     0
 62
   231
  6
CONTINUOUS
  0
LAYER
  5
121
330
2
100
AcDbSymbolTableRecord
100
AcDbLayerTableRecord
  2
232
 70
     0
 62
   232
  6
CONTINUOUS
  0
LAYER
  5
122
330
2
100
AcDbSymbolTableRecord
100
AcDbLayerTableRecord
  2
233
 70
     0
 62
   233
  6
CONTINUOUS
  0
LAYER
  5
123
330
2
100
AcDbSymbolTableRecord
100
AcDbLayerTableRecord
  2
234
 70
     0
 62
   234
  6
CONTINUOUS
  0
LAYER
  5
124
330
2
100
AcDbSymbolTableRecord
100
AcDbLayerTableRecord
  2
235
 70
     0
 62
   235
  6
CONTINUOUS
  0
LAYER
  5
125
330
2
100
AcDbSymbolTableRecord
100
AcDbLayerTableRecord
  2
236
 70
     0
 62
   236
  6
CONTINUOUS
  0
LAYER
  5
126
330
2
100
AcDbSymbolTableRecord
100
AcDbLayerTableRecord
  2
237
 70
     0
 62
   237
  6
CONTINUOUS
  0
LAYER
  5
127
330
2
100
AcDbSymbolTableRecord
100
AcDbLayerTableRecord
  2
238
 70
     0
 62
   238
  6
CONTINUOUS
  0
LAYER
  5
128
330
2
100
AcDbSymbolTableRecord
100
AcDbLayerTableRecord
  2
239
 70
     0
 62
   239
  6
CONTINUOUS
  0
LAYER
  5
129
330
2
100
AcDbSymbolTableRecord
100
AcDbLayerTableRecord
  2
240
 70
     0
 62
   240
  6
CONTINUOUS
  0
LAYER
  5
12A
330
2
100
AcDbSymbolTableRecord
100
AcDbLayerTableRecord
  2
241
 70
     0
 62
   241
  6
CONTINUOUS
  0
LAYER
  5
12B
330
2
100
AcDbSymbolTableRecord
100
AcDbLayerTableRecord
  2
242
 70
     0
 62
   242
  6
CONTINUOUS
  0
LAYER
  5
12C
330
2
100
AcDbSymbolTableRecord
100
AcDbLayerTableRecord
  2
243
 70
     0
 62
   243
  6
CONTINUOUS
  0
LAYER
  5
12D
330
2
100
AcDbSymbolTableRecord
100
AcDbLayerTableRecord
  2
244
 70
     0
 62
   244
  6
CONTINUOUS
  0
LAYER
  5
12E
330
2
100
AcDbSymbolTableRecord
100
AcDbLayerTableRecord
  2
245
 70
     0
 62
   245
  6
CONTINUOUS
  0
LAYER
  5
12F
330
2
100
AcDbSymbolTableRecord
100
AcDbLayerTableRecord
  2
246
 70
     0
 62
   246
  6
CONTINUOUS
  0
LAYER
  5
130
330
2
100
AcDbSymbolTableRecord
100
AcDbLayerTableRecord
  2
247
 70
     0
 62
   247
  6
CONTINUOUS
  0
LAYER
  5
131
330
2
100
AcDbSymbolTableRecord
100
AcDbLayerTableRecord
  2
248
 70
     0
 62
   248
  6
CONTINUOUS
  0
LAYER
  5
132
330
2
100
AcDbSymbolTableRecord
100
AcDbLayerTableRecord
  2
249
 70
     0
 62
   249
  6
CONTINUOUS
  0
LAYER
  5
133
330
2
100
AcDbSymbolTableRecord
100
AcDbLayerTableRecord
  2
250
 70
     0
 62
   250
  6
CONTINUOUS
  0
LAYER
  5
134
330
2
100
AcDbSymbolTableRecord
100
AcDbLayerTableRecord
  2
251
 70
     0
 62
   251
  6
CONTINUOUS
  0
LAYER
  5
135
330
2
100
AcDbSymbolTableRecord
100
AcDbLayerTableRecord
  2
252
 70
     0
 62
   252
  6
CONTINUOUS
  0
LAYER
  5
136
330
2
100
AcDbSymbolTableRecord
100
AcDbLayerTableRecord
  2
253
 70
     0
 62
   253
  6
CONTINUOUS
  0
LAYER
  5
137
330
2
100
AcDbSymbolTableRecord
100
AcDbLayerTableRecord
  2
254
 70
     0
 62
   254
  6
CONTINUOUS
  0
LAYER
  5
138
330
2
100
AcDbSymbolTableRecord
100
AcDbLayerTableRecord
  2
255
 70
     0
 62
   255
  6
CONTINUOUS
  0
ENDTAB
  0
TABLE
  2
STYLE
  5
3
330
0
100
AcDbSymbolTable
 70
     1
  0
STYLE
  5
11
330
3
100
AcDbSymbolTableRecord
100
AcDbTextStyleTableRecord
  2
STANDARD
 70
     0
 40
0.0
 41
1.0
 50
0.0
 71
     0
 42
0.2
  3
txt
  4

  0
ENDTAB
  0
TABLE
  2
VIEW
  5
6
330
0
100
AcDbSymbolTable
 70
     0
  0
ENDTAB
  0
TABLE
  2
UCS
  5
7
330
0
100
AcDbSymbolTable
 70
     0
  0
ENDTAB
  0
TABLE
  2
APPID
  5
9
330
0
100
AcDbSymbolTable
 70
     1
  0
APPID
  5
12
330
9
100
AcDbSymbolTableRecord
100
AcDbRegAppTableRecord
  2
ACAD
 70
     0
  0
ENDTAB
  0
TABLE
  2
DIMSTYLE
  5
A
330
0
100
AcDbSymbolTable
 70
     1
  0
DIMSTYLE
105
2E6A
330
A
100
AcDbSymbolTableRecord
100
AcDbDimStyleTableRecord
  2
STANDARD
 70
     0
  3

  4

  5

  6

  7

 40
1.0
 41
0.18
 42
0.0625
 43
0.38
 44
0.18
 45
0.0
 46
0.0
 47
0.0
 48
0.0
140
0.18
141
0.09
142
0.0
143
25.4
144
1.0
145
0.0
146
1.0
147
0.09
 71
     0
 72
     0
 73
     1
 74
     1
 75
     0
 76
     0
 77
     0
 78
     0
170
     0
171
     2
172
     0
173
     0
174
     0
175
     0
176
     0
177
     0
178
     0
270
     2
271
     4
272
     4
273
     2
274
     2
340
11
275
     0
280
     0
281
     0
282
     0
283
     1
284
     0
285
     0
286
     0
287
     3
288
     0
  0
ENDTAB
  0
TABLE
  2
BLOCK_RECORD
  5
1
330
0
100
AcDbSymbolTable
 70
     0
  0
BLOCK_RECORD
  5
1E
102
{ACAD_XDICTIONARY
360
2E73
102
}
330
1
100
AcDbSymbolTableRecord
100
AcDbBlockTableRecord
  2
*MODEL_SPACE
  0
BLOCK_RECORD
  5
1A
102
{ACAD_XDICTIONARY
360
2E71
102
}
330
1
100
AcDbSymbolTableRecord
100
AcDbBlockTableRecord
  2
*PAPER_SPACE
  0
ENDTAB
  0
ENDSEC
  0
SECTION
  2
BLOCKS
  0
BLOCK
  5
13B
330
1E
100
AcDbEntity
  8
0
100
AcDbBlockBegin
  2
*MODEL_SPACE
 70
     0
 10
0.0
 20
0.0
 30
0.0
  3
*MODEL_SPACE
  1

  0
ENDBLK
  5
13C
330
1E
100
AcDbEntity
  8
0
100
AcDbBlockEnd
  0
BLOCK
  5
139
330
1A
100
AcDbEntity
 67
     1
  8
0
100
AcDbBlockBegin
  2
*PAPER_SPACE
 70
     0
 10
0.0
 20
0.0
 30
0.0
  3
*PAPER_SPACE
  1

  0
ENDBLK
  5
13A
330
1A
100
AcDbEntity
 67
     1
  8
0
100
AcDbBlockEnd
  0
ENDSEC
  0
SECTION
  2
ENTITIES
  0
LINE
  5
29F1
330
1E
100
AcDbEntity
  8
0
100
AcDbLine
 10
4.311023622047244
 20
5.405511811023622
 30
0.0
 11
4.312007874015748
 21
5.40255905511811
 31
0.0
  0
LINE
  5
29F2
330
1E
100
AcDbEntity
  8
0
100
AcDbLine
 10
4.311023622047244
 20
5.40255905511811
 30
0.0
 11
4.311023622047244
 21
5.405511811023622
 31
0.0
  0
LINE
  5
29F3
330
1E
100
AcDbEntity
  8
0
100
AcDbLine
 10
4.312007874015748
 20
5.40255905511811
 30
0.0
 11
4.311023622047244
 21
5.40255905511811
 31
0.0
  0
LINE
  5
29F4
330
1E
100
AcDbEntity
  8
0
100
AcDbLine
 10
2.750984251968503
 20
5.405511811023622
 30
0.0
 11
2.75
 21
5.40255905511811
 31
0.0
  0
LINE
  5
29F5
330
1E
100
AcDbEntity
  8
0
100
AcDbLine
 10
2.750984251968503
 20
5.40255905511811
 30
0.0
 11
2.75
 21
5.40255905511811
 31
0.0
  0
LINE
  5
29F6
330
1E
100
AcDbEntity
  8
0
100
AcDbLine
 10
4.177165354330708
 20
6.167322834645669
 30
0.0
 11
2.884842519685039
 21
6.167322834645669
 31
0.0
  0
POLYLINE
  5
29F7
330
1E
100
AcDbEntity
  8
0
100
AcDb2dPolyline
 66
     1
 10
0.0
 20
0.0
 30
0.0
  0
VERTEX
  5
2E75
330
29F7
100
AcDbEntity
  8
0
100
AcDbVertex
100
AcDb2dVertex
 10
4.177165354330708
 20
6.167322834645669
 30
0.0
  0
VERTEX
  5
2E76
330
29F7
100
AcDbEntity
  8
0
100
AcDbVertex
100
AcDb2dVertex
 10
4.200787401574802
 20
6.163385826771653
 30
0.0
  0
VERTEX
  5
2E77
330
29F7
100
AcDbEntity
  8
0
100
AcDbVertex
100
AcDb2dVertex
 10
4.222440944881889
 20
6.150590551181101
 30
0.0
  0
VERTEX
  5
2E78
330
29F7
100
AcDbEntity
  8
0
100
AcDbVertex
100
AcDb2dVertex
 10
4.241141732283464
 20
6.130905511811023
 30
0.0
  0
VERTEX
  5
2E79
330
29F7
100
AcDbEntity
  8
0
100
AcDbVertex
100
AcDb2dVertex
 10
4.254921259842519
 20
6.104330708661417
 30
0.0
  0
VERTEX
  5
2E7A
330
29F7
100
AcDbEntity
  8
0
100
AcDbVertex
100
AcDb2dVertex
 10
4.263779527559054
 20
6.073818897637795
 30
0.0
  0
VERTEX
  5
2E7B
330
29F7
100
AcDbEntity
  8
0
100
AcDbVertex
100
AcDb2dVertex
 10
4.266732283464566
 20
6.041338582677164
 30
0.0
  0
SEQEND
  5
2E7C
330
29F7
100
AcDbEntity
  8
0
  0
LINE
  5
2A00
330
1E
100
AcDbEntity
  8
0
100
AcDbLine
 10
4.266732283464566
 20
5.097440944881889
 30
0.0
 11
4.266732283464566
 21
6.041338582677164
 31
0.0
  0
POLYLINE
  5
2A01
330
1E
100
AcDbEntity
  8
0
100
AcDb2dPolyline
 66
     1
 10
0.0
 20
0.0
 30
0.0
  0
VERTEX
  5
2E7D
330
2A01
100
AcDbEntity
  8
0
100
AcDbVertex
100
AcDb2dVertex
 10
4.266732283464566
 20
5.097440944881889
 30
0.0
  0
VERTEX
  5
2E7E
330
2A01
100
AcDbEntity
  8
0
100
AcDbVertex
100
AcDb2dVertex
 10
4.263779527559054
 20
5.06496062992126
 30
0.0
  0
VERTEX
  5
2E7F
330
2A01
100
AcDbEntity
  8
0
100
AcDbVertex
100
AcDb2dVertex
 10
4.254921259842519
 20
5.034448818897637
 30
0.0
  0
VERTEX
  5
2E80
330
2A01
100
AcDbEntity
  8
0
100
AcDbVertex
100
AcDb2dVertex
 10
4.241141732283464
 20
5.007874015748031
 30
0.0
  0
VERTEX
  5
2E81
330
2A01
100
AcDbEntity
  8
0
100
AcDbVertex
100
AcDb2dVertex
 10
4.222440944881889
 20
4.988188976377952
 30
0.0
  0
VERTEX
  5
2E82
330
2A01
100
AcDbEntity
  8
0
100
AcDbVertex
100
AcDb2dVertex
 10
4.200787401574802
 20
4.975393700787401
 30
0.0
  0
VERTEX
  5
2E83
330
2A01
100
AcDbEntity
  8
0
100
AcDbVertex
100
AcDb2dVertex
 10
4.177165354330708
 20
4.971456692913386
 30
0.0
  0
SEQEND
  5
2E84
330
2A01
100
AcDbEntity
  8
0
  0
LINE
  5
2A0A
330
1E
100
AcDbEntity
  8
0
100
AcDbLine
 10
2.884842519685039
 20
4.971456692913386
 30
0.0
 11
4.177165354330708
 21
4.971456692913386
 31
0.0
  0
POLYLINE
  5
2A0B
330
1E
100
AcDbEntity
  8
0
100
AcDb2dPolyline
 66
     1
 10
0.0
 20
0.0
 30
0.0
  0
VERTEX
  5
2E85
330
2A0B
100
AcDbEntity
  8
0
100
AcDbVertex
100
AcDb2dVertex
 10
2.884842519685039
 20
4.971456692913386
 30
0.0
  0
VERTEX
  5
2E86
330
2A0B
100
AcDbEntity
  8
0
100
AcDbVertex
100
AcDb2dVertex
 10
2.861220472440944
 20
4.975393700787401
 30
0.0
  0
VERTEX
  5
2E87
330
2A0B
100
AcDbEntity
  8
0
100
AcDbVertex
100
AcDb2dVertex
 10
2.839566929133858
 20
4.988188976377952
 30
0.0
  0
VERTEX
  5
2E88
330
2A0B
100
AcDbEntity
  8
0
100
AcDbVertex
100
AcDb2dVertex
 10
2.820866141732283
 20
5.007874015748031
 30
0.0
  0
VERTEX
  5
2E89
330
2A0B
100
AcDbEntity
  8
0
100
AcDbVertex
100
AcDb2dVertex
 10
2.807086614173228
 20
5.034448818897637
 30
0.0
  0
VERTEX
  5
2E8A
330
2A0B
100
AcDbEntity
  8
0
100
AcDbVertex
100
AcDb2dVertex
 10
2.798228346456693
 20
5.06496062992126
 30
0.0
  0
VERTEX
  5
2E8B
330
2A0B
100
AcDbEntity
  8
0
100
AcDbVertex
100
AcDb2dVertex
 10
2.795275590551181
 20
5.097440944881889
 30
0.0
  0
SEQEND
  5
2E8C
330
2A0B
100
AcDbEntity
  8
0
  0
LINE
  5
2A14
330
1E
100
AcDbEntity
  8
0
100
AcDbLine
 10
2.795275590551181
 20
6.041338582677164
 30
0.0
 11
2.795275590551181
 21
5.097440944881889
 31
0.0
  0
POLYLINE
  5
2A15
330
1E
100
AcDbEntity
  8
0
100
AcDb2dPolyline
 66
     1
 10
0.0
 20
0.0
 30
0.0
  0
VERTEX
  5
2E8D
330
2A15
100
AcDbEntity
  8
0
100
AcDbVertex
100
AcDb2dVertex
 10
2.795275590551181
 20
6.041338582677164
 30
0.0
  0
VERTEX
  5
2E8E
330
2A15
100
AcDbEntity
  8
0
100
AcDbVertex
100
AcDb2dVertex
 10
2.798228346456693
 20
6.073818897637795
 30
0.0
  0
VERTEX
  5
2E8F
330
2A15
100
AcDbEntity
  8
0
100
AcDbVertex
100
AcDb2dVertex
 10
2.807086614173228
 20
6.104330708661417
 30
0.0
  0
VERTEX
  5
2E90
330
2A15
100
AcDbEntity
  8
0
100
AcDbVertex
100
AcDb2dVertex
 10
2.820866141732283
 20
6.130905511811023
 30
0.0
  0
VERTEX
  5
2E91
330
2A15
100
AcDbEntity
  8
0
100
AcDbVertex
100
AcDb2dVertex
 10
2.839566929133858
 20
6.150590551181101
 30
0.0
  0
VERTEX
  5
2E92
330
2A15
100
AcDbEntity
  8
0
100
AcDbVertex
100
AcDb2dVertex
 10
2.861220472440944
 20
6.163385826771653
 30
0.0
  0
VERTEX
  5
2E93
330
2A15
100
AcDbEntity
  8
0
100
AcDbVertex
100
AcDb2dVertex
 10
2.884842519685039
 20
6.167322834645669
 30
0.0
  0
SEQEND
  5
2E94
330
2A15
100
AcDbEntity
  8
0
  0
LINE
  5
2A1E
330
1E
100
AcDbEntity
  8
0
100
AcDbLine
 10
2.75
 20
4.901574803149606
 30
0.0
 11
2.75
 21
5.40255905511811
 31
0.0
  0
LINE
  5
2A1F
330
1E
100
AcDbEntity
  8
0
100
AcDbLine
 10
2.75
 20
4.901574803149606
 30
0.0
 11
4.312007874015748
 21
4.901574803149606
 31
0.0
  0
LINE
  5
2A20
330
1E
100
AcDbEntity
  8
0
100
AcDbLine
 10
4.312007874015748
 20
4.901574803149606
 30
0.0
 11
4.312007874015748
 21
5.40255905511811
 31
0.0
  0
LINE
  5
2A21
330
1E
100
AcDbEntity
  8
0
100
AcDbLine
 10
4.311023622047244
 20
5.736220472440944
 30
0.0
 11
4.311023622047244
 21
5.40255905511811
 31
0.0
  0
LINE
  5
2A22
330
1E
100
AcDbEntity
  8
0
100
AcDbLine
 10
4.312007874015748
 20
5.736220472440944
 30
0.0
 11
4.312007874015748
 21
6.237204724409449
 31
0.0
  0
LINE
  5
2A23
330
1E
100
AcDbEntity
  8
0
100
AcDbLine
 10
2.75
 20
6.237204724409449
 30
0.0
 11
4.312007874015748
 21
6.237204724409449
 31
0.0
  0
LINE
  5
2A24
330
1E
100
AcDbEntity
  8
0
100
AcDbLine
 10
2.75
 20
5.736220472440944
 30
0.0
 11
2.75
 21
6.237204724409449
 31
0.0
  0
LINE
  5
2A25
330
1E
100
AcDbEntity
  8
0
100
AcDbLine
 10
2.915354330708661
 20
5.446850393700787
 30
0.0
 11
2.915354330708661
 21
4.989173228346456
 31
0.0
  0
LINE
  5
2A26
330
1E
100
AcDbEntity
  8
0
100
AcDbLine
 10
3.497047244094487
 20
5.446850393700787
 30
0.0
 11
3.497047244094487
 21
4.989173228346456
 31
0.0
  0
LINE
  5
2A27
330
1E
100
AcDbEntity
  8
0
100
AcDbLine
 10
3.497047244094487
 20
5.025590551181101
 30
0.0
 11
2.915354330708661
 21
5.025590551181101
 31
0.0
  0
LINE
  5
2A28
330
1E
100
AcDbEntity
  8
0
100
AcDbLine
 10
2.915354330708661
 20
5.011811023622047
 30
0.0
 11
3.497047244094487
 21
5.011811023622047
 31
0.0
  0
LINE
  5
2A29
330
1E
100
AcDbEntity
  8
0
100
AcDbLine
 10
4.146653543307086
 20
5.446850393700787
 30
0.0
 11
4.146653543307086
 21
4.989173228346456
 31
0.0
  0
LINE
  5
2A2A
330
1E
100
AcDbEntity
  8
0
100
AcDbLine
 10
3.564960629921259
 20
5.446850393700787
 30
0.0
 11
3.564960629921259
 21
4.989173228346456
 31
0.0
  0
LINE
  5
2A2B
330
1E
100
AcDbEntity
  8
0
100
AcDbLine
 10
4.146653543307086
 20
5.025590551181101
 30
0.0
 11
3.564960629921259
 21
5.025590551181101
 31
0.0
  0
LINE
  5
2A2C
330
1E
100
AcDbEntity
  8
0
100
AcDbLine
 10
3.564960629921259
 20
5.011811023622047
 30
0.0
 11
4.146653543307086
 21
5.011811023622047
 31
0.0
  0
LINE
  5
2A2D
330
1E
100
AcDbEntity
  8
0
100
AcDbLine
 10
2.912401574803149
 20
5.634842519685038
 30
0.0
 11
4.149606299212598
 21
5.634842519685038
 31
0.0
  0
LINE
  5
2A2E
330
1E
100
AcDbEntity
  8
0
100
AcDbLine
 10
4.149606299212598
 20
5.634842519685038
 30
0.0
 11
4.177165354330708
 21
6.167322834645669
 31
0.0
  0
LINE
  5
2A2F
330
1E
100
AcDbEntity
  8
0
100
AcDbLine
 10
2.884842519685039
 20
6.167322834645669
 30
0.0
 11
2.912401574803149
 21
5.634842519685038
 31
0.0
  0
LINE
  5
2A30
330
1E
100
AcDbEntity
  8
0
100
AcDbLine
 10
4.266732283464566
 20
6.041338582677164
 30
0.0
 11
4.242125984251968
 21
5.569881889763779
 31
0.0
  0
LINE
  5
2A31
330
1E
100
AcDbEntity
  8
0
100
AcDbLine
 10
4.242125984251968
 20
5.569881889763779
 30
0.0
 11
4.266732283464566
 21
5.097440944881889
 31
0.0
  0
LINE
  5
2A32
330
1E
100
AcDbEntity
  8
0
100
AcDbLine
 10
2.795275590551181
 20
5.097440944881889
 30
0.0
 11
2.819881889763779
 21
5.569881889763779
 31
0.0
  0
LINE
  5
2A33
330
1E
100
AcDbEntity
  8
0
100
AcDbLine
 10
2.819881889763779
 20
5.569881889763779
 30
0.0
 11
2.795275590551181
 21
6.041338582677164
 31
0.0
  0
LINE
  5
2A34
330
1E
100
AcDbEntity
  8
0
100
AcDbLine
 10
2.915354330708661
 20
5.446850393700787
 30
0.0
 11
3.497047244094487
 21
5.446850393700787
 31
0.0
  0
LINE
  5
2A35
330
1E
100
AcDbEntity
  8
0
100
AcDbLine
 10
2.915354330708661
 20
4.989173228346456
 30
0.0
 11
3.497047244094487
 21
4.989173228346456
 31
0.0
  0
LINE
  5
2A36
330
1E
100
AcDbEntity
  8
0
100
AcDbLine
 10
3.564960629921259
 20
5.446850393700787
 30
0.0
 11
4.146653543307086
 21
5.446850393700787
 31
0.0
  0
LINE
  5
2A37
330
1E
100
AcDbEntity
  8
0
100
AcDbLine
 10
4.177165354330708
 20
4.971456692913386
 30
0.0
 11
4.149606299212598
 21
5.503937007874015
 31
0.0
  0
LINE
  5
2A38
330
1E
100
AcDbEntity
  8
0
100
AcDbLine
 10
4.149606299212598
 20
5.503937007874015
 30
0.0
 11
2.912401574803149
 21
5.503937007874015
 31
0.0
  0
LINE
  5
2A39
330
1E
100
AcDbEntity
  8
0
100
AcDbLine
 10
2.912401574803149
 20
5.503937007874015
 30
0.0
 11
2.884842519685039
 21
4.971456692913386
 31
0.0
  0
LINE
  5
2A3A
330
1E
100
AcDbEntity
  8
0
100
AcDbLine
 10
3.564960629921259
 20
4.989173228346456
 30
0.0
 11
4.146653543307086
 21
4.989173228346456
 31
0.0
  0
LINE
  5
2A3B
330
1E
100
AcDbEntity
  8
0
100
AcDbLine
 10
3.289370078740157
 20
5.13779527559055
 30
0.0
 11
3.123031496062992
 21
5.13779527559055
 31
0.0
  0
LINE
  5
2A3C
330
1E
100
AcDbEntity
  8
0
100
AcDbLine
 10
3.289370078740157
 20
5.13779527559055
 30
0.0
 11
3.289370078740157
 21
5.166338582677165
 31
0.0
  0
LINE
  5
2A3D
330
1E
100
AcDbEntity
  8
0
100
AcDbLine
 10
3.288385826771653
 20
5.166338582677165
 30
0.0
 11
3.289370078740157
 21
5.166338582677165
 31
0.0
  0
LINE
  5
2A3E
330
1E
100
AcDbEntity
  8
0
100
AcDbLine
 10
3.288385826771653
 20
5.13779527559055
 30
0.0
 11
3.288385826771653
 21
5.166338582677165
 31
0.0
  0
LINE
  5
2A3F
330
1E
100
AcDbEntity
  8
0
100
AcDbLine
 10
3.773622047244094
 20
5.13779527559055
 30
0.0
 11
3.773622047244094
 21
5.166338582677165
 31
0.0
  0
LINE
  5
2A40
330
1E
100
AcDbEntity
  8
0
100
AcDbLine
 10
3.77263779527559
 20
5.166338582677165
 30
0.0
 11
3.773622047244094
 21
5.166338582677165
 31
0.0
  0
LINE
  5
2A41
330
1E
100
AcDbEntity
  8
0
100
AcDbLine
 10
3.77263779527559
 20
5.13779527559055
 30
0.0
 11
3.77263779527559
 21
5.166338582677165
 31
0.0
  0
LINE
  5
2A42
330
1E
100
AcDbEntity
  8
0
100
AcDbLine
 10
3.938976377952755
 20
5.13779527559055
 30
0.0
 11
3.77263779527559
 21
5.13779527559055
 31
0.0
  0
LINE
  5
2A43
330
1E
100
AcDbEntity
  8
0
100
AcDbLine
 10
3.123031496062992
 20
5.13779527559055
 30
0.0
 11
3.123031496062992
 21
5.166338582677165
 31
0.0
  0
LINE
  5
2A44
330
1E
100
AcDbEntity
  8
0
100
AcDbLine
 10
3.123031496062992
 20
5.166338582677165
 30
0.0
 11
3.123031496062992
 21
5.166338582677165
 31
0.0
  0
LINE
  5
2A45
330
1E
100
AcDbEntity
  8
0
100
AcDbLine
 10
3.123031496062992
 20
5.13779527559055
 30
0.0
 11
3.123031496062992
 21
5.166338582677165
 31
0.0
  0
LINE
  5
2A46
330
1E
100
AcDbEntity
  8
0
100
AcDbLine
 10
3.938976377952755
 20
5.13779527559055
 30
0.0
 11
3.938976377952755
 21
5.166338582677165
 31
0.0
  0
LINE
  5
2A47
330
1E
100
AcDbEntity
  8
0
100
AcDbLine
 10
3.938976377952755
 20
5.166338582677165
 30
0.0
 11
3.938976377952755
 21
5.166338582677165
 31
0.0
  0
LINE
  5
2A48
330
1E
100
AcDbEntity
  8
0
100
AcDbLine
 10
3.938976377952755
 20
5.13779527559055
 30
0.0
 11
3.938976377952755
 21
5.166338582677165
 31
0.0
  0
LINE
  5
2A49
330
1E
100
AcDbEntity
  8
0
100
AcDbLine
 10
3.937992125984251
 20
5.166338582677165
 30
0.0
 11
3.938976377952755
 21
5.166338582677165
 31
0.0
  0
LINE
  5
2A4A
330
1E
100
AcDbEntity
  8
0
100
AcDbLine
 10
3.937992125984251
 20
5.166338582677165
 30
0.0
 11
3.937992125984251
 21
5.13779527559055
 31
0.0
  0
LINE
  5
2A4B
330
1E
100
AcDbEntity
  8
0
100
AcDbLine
 10
3.934055118110236
 20
5.166338582677165
 30
0.0
 11
3.937992125984251
 21
5.166338582677165
 31
0.0
  0
LINE
  5
2A4C
330
1E
100
AcDbEntity
  8
0
100
AcDbLine
 10
3.934055118110236
 20
5.166338582677165
 30
0.0
 11
3.933070866141732
 21
5.165354330708661
 31
0.0
  0
LINE
  5
2A4D
330
1E
100
AcDbEntity
  8
0
100
AcDbLine
 10
3.933070866141732
 20
5.165354330708661
 30
0.0
 11
3.933070866141732
 21
5.13779527559055
 31
0.0
  0
LINE
  5
2A4E
330
1E
100
AcDbEntity
  8
0
100
AcDbLine
 10
3.933070866141732
 20
5.165354330708661
 30
0.0
 11
3.77755905511811
 21
5.165354330708661
 31
0.0
  0
LINE
  5
2A4F
330
1E
100
AcDbEntity
  8
0
100
AcDbLine
 10
3.77755905511811
 20
5.165354330708661
 30
0.0
 11
3.77755905511811
 21
5.13779527559055
 31
0.0
  0
LINE
  5
2A50
330
1E
100
AcDbEntity
  8
0
100
AcDbLine
 10
3.77755905511811
 20
5.165354330708661
 30
0.0
 11
3.77755905511811
 21
5.166338582677165
 31
0.0
  0
LINE
  5
2A51
330
1E
100
AcDbEntity
  8
0
100
AcDbLine
 10
3.773622047244094
 20
5.166338582677165
 30
0.0
 11
3.77755905511811
 21
5.166338582677165
 31
0.0
  0
LINE
  5
2A52
330
1E
100
AcDbEntity
  8
0
100
AcDbLine
 10
3.284448818897637
 20
5.166338582677165
 30
0.0
 11
3.288385826771653
 21
5.166338582677165
 31
0.0
  0
LINE
  5
2A53
330
1E
100
AcDbEntity
  8
0
100
AcDbLine
 10
3.284448818897637
 20
5.166338582677165
 30
0.0
 11
3.283464566929133
 21
5.165354330708661
 31
0.0
  0
LINE
  5
2A54
330
1E
100
AcDbEntity
  8
0
100
AcDbLine
 10
3.283464566929133
 20
5.13779527559055
 30
0.0
 11
3.283464566929133
 21
5.165354330708661
 31
0.0
  0
LINE
  5
2A55
330
1E
100
AcDbEntity
  8
0
100
AcDbLine
 10
3.283464566929133
 20
5.165354330708661
 30
0.0
 11
3.127952755905511
 21
5.165354330708661
 31
0.0
  0
LINE
  5
2A56
330
1E
100
AcDbEntity
  8
0
100
AcDbLine
 10
3.127952755905511
 20
5.13779527559055
 30
0.0
 11
3.127952755905511
 21
5.165354330708661
 31
0.0
  0
LINE
  5
2A57
330
1E
100
AcDbEntity
  8
0
100
AcDbLine
 10
3.127952755905511
 20
5.165354330708661
 30
0.0
 11
3.127952755905511
 21
5.166338582677165
 31
0.0
  0
LINE
  5
2A58
330
1E
100
AcDbEntity
  8
0
100
AcDbLine
 10
3.123031496062992
 20
5.166338582677165
 30
0.0
 11
3.127952755905511
 21
5.166338582677165
 31
0.0
  0
LINE
  5
2A59
330
1E
100
AcDbEntity
  8
0
100
AcDbLine
 10
3.77263779527559
 20
5.166338582677165
 30
0.0
 11
3.564960629921259
 21
5.166338582677165
 31
0.0
  0
LINE
  5
2A5A
330
1E
100
AcDbEntity
  8
0
100
AcDbLine
 10
3.497047244094487
 20
5.166338582677165
 30
0.0
 11
3.289370078740157
 21
5.166338582677165
 31
0.0
  0
LINE
  5
2A5B
330
1E
100
AcDbEntity
  8
0
100
AcDbLine
 10
2.915354330708661
 20
5.13779527559055
 30
0.0
 11
3.123031496062992
 21
5.13779527559055
 31
0.0
  0
LINE
  5
2A5C
330
1E
100
AcDbEntity
  8
0
100
AcDbLine
 10
3.123031496062992
 20
5.166338582677165
 30
0.0
 11
2.915354330708661
 21
5.166338582677165
 31
0.0
  0
LINE
  5
2A5D
330
1E
100
AcDbEntity
  8
0
100
AcDbLine
 10
2.915354330708661
 20
5.075787401574802
 30
0.0
 11
3.497047244094487
 21
5.075787401574802
 31
0.0
  0
LINE
  5
2A5E
330
1E
100
AcDbEntity
  8
0
100
AcDbLine
 10
3.497047244094487
 20
5.08759842519685
 30
0.0
 11
2.915354330708661
 21
5.08759842519685
 31
0.0
  0
LINE
  5
2A5F
330
1E
100
AcDbEntity
  8
0
100
AcDbLine
 10
3.497047244094487
 20
5.125984251968503
 30
0.0
 11
2.915354330708661
 21
5.125984251968503
 31
0.0
  0
LINE
  5
2A60
330
1E
100
AcDbEntity
  8
0
100
AcDbLine
 10
3.289370078740157
 20
5.13779527559055
 30
0.0
 11
3.497047244094487
 21
5.13779527559055
 31
0.0
  0
LINE
  5
2A61
330
1E
100
AcDbEntity
  8
0
100
AcDbLine
 10
4.146653543307086
 20
5.166338582677165
 30
0.0
 11
3.938976377952755
 21
5.166338582677165
 31
0.0
  0
LINE
  5
2A62
330
1E
100
AcDbEntity
  8
0
100
AcDbLine
 10
3.938976377952755
 20
5.13779527559055
 30
0.0
 11
4.146653543307086
 21
5.13779527559055
 31
0.0
  0
LINE
  5
2A63
330
1E
100
AcDbEntity
  8
0
100
AcDbLine
 10
3.564960629921259
 20
5.13779527559055
 30
0.0
 11
3.77263779527559
 21
5.13779527559055
 31
0.0
  0
LINE
  5
2A64
330
1E
100
AcDbEntity
  8
0
100
AcDbLine
 10
4.146653543307086
 20
5.125984251968503
 30
0.0
 11
3.564960629921259
 21
5.125984251968503
 31
0.0
  0
LINE
  5
2A65
330
1E
100
AcDbEntity
  8
0
100
AcDbLine
 10
4.146653543307086
 20
5.08759842519685
 30
0.0
 11
3.564960629921259
 21
5.08759842519685
 31
0.0
  0
LINE
  5
2A66
330
1E
100
AcDbEntity
  8
0
100
AcDbLine
 10
3.564960629921259
 20
5.075787401574802
 30
0.0
 11
4.146653543307086
 21
5.075787401574802
 31
0.0
  0
LINE
  5
2A67
330
1E
100
AcDbEntity
  8
0
100
AcDbLine
 10
4.311023622047244
 20
5.405511811023622
 30
0.0
 11
4.313976377952755
 21
5.415354330708661
 31
0.0
  0
POLYLINE
  5
2A68
330
1E
100
AcDbEntity
  8
0
100
AcDb2dPolyline
 66
     1
 10
0.0
 20
0.0
 30
0.0
  0
VERTEX
  5
2E95
330
2A68
100
AcDbEntity
  8
0
100
AcDbVertex
100
AcDb2dVertex
 10
4.149606299212598
 20
5.503937007874015
 30
0.0
  0
VERTEX
  5
2E96
330
2A68
100
AcDbEntity
  8
0
100
AcDbVertex
100
AcDb2dVertex
 10
4.149606299212598
 20
5.52755905511811
 30
0.0
  0
VERTEX
  5
2E97
330
2A68
100
AcDbEntity
  8
0
100
AcDbVertex
100
AcDb2dVertex
 10
4.149606299212598
 20
5.55511811023622
 30
0.0
  0
VERTEX
  5
2E98
330
2A68
100
AcDbEntity
  8
0
100
AcDbVertex
100
AcDb2dVertex
 10
4.149606299212598
 20
5.583661417322834
 30
0.0
  0
VERTEX
  5
2E99
330
2A68
100
AcDbEntity
  8
0
100
AcDbVertex
100
AcDb2dVertex
 10
4.149606299212598
 20
5.611220472440944
 30
0.0
  0
VERTEX
  5
2E9A
330
2A68
100
AcDbEntity
  8
0
100
AcDbVertex
100
AcDb2dVertex
 10
4.149606299212598
 20
5.634842519685038
 30
0.0
  0
SEQEND
  5
2E9B
330
2A68
100
AcDbEntity
  8
0
  0
POLYLINE
  5
2A70
330
1E
100
AcDbEntity
  8
0
100
AcDb2dPolyline
 66
     1
 10
0.0
 20
0.0
 30
0.0
  0
VERTEX
  5
2E9C
330
2A70
100
AcDbEntity
  8
0
100
AcDbVertex
100
AcDb2dVertex
 10
2.912401574803149
 20
5.634842519685038
 30
0.0
  0
VERTEX
  5
2E9D
330
2A70
100
AcDbEntity
  8
0
100
AcDbVertex
100
AcDb2dVertex
 10
2.912401574803149
 20
5.611220472440944
 30
0.0
  0
VERTEX
  5
2E9E
330
2A70
100
AcDbEntity
  8
0
100
AcDbVertex
100
AcDb2dVertex
 10
2.912401574803149
 20
5.583661417322834
 30
0.0
  0
VERTEX
  5
2E9F
330
2A70
100
AcDbEntity
  8
0
100
AcDbVertex
100
AcDb2dVertex
 10
2.912401574803149
 20
5.55511811023622
 30
0.0
  0
VERTEX
  5
2EA0
330
2A70
100
AcDbEntity
  8
0
100
AcDbVertex
100
AcDb2dVertex
 10
2.912401574803149
 20
5.52755905511811
 30
0.0
  0
VERTEX
  5
2EA1
330
2A70
100
AcDbEntity
  8
0
100
AcDbVertex
100
AcDb2dVertex
 10
2.912401574803149
 20
5.503937007874015
 30
0.0
  0
SEQEND
  5
2EA2
330
2A70
100
AcDbEntity
  8
0
  0
POLYLINE
  5
2A78
330
1E
100
AcDbEntity
  8
0
100
AcDb2dPolyline
 66
     1
 10
0.0
 20
0.0
 30
0.0
  0
VERTEX
  5
2EA3
330
2A78
100
AcDbEntity
  8
0
100
AcDbVertex
100
AcDb2dVertex
 10
4.242125984251968
 20
5.569881889763779
 30
0.0
  0
VERTEX
  5
2EA4
330
2A78
100
AcDbEntity
  8
0
100
AcDbVertex
100
AcDb2dVertex
 10
4.237204724409449
 20
5.589566929133858
 30
0.0
  0
VERTEX
  5
2EA5
330
2A78
100
AcDbEntity
  8
0
100
AcDbVertex
100
AcDb2dVertex
 10
4.223425196850393
 20
5.607283464566928
 30
0.0
  0
VERTEX
  5
2EA6
330
2A78
100
AcDbEntity
  8
0
100
AcDbVertex
100
AcDb2dVertex
 10
4.202755905511811
 20
5.622047244094487
 30
0.0
  0
VERTEX
  5
2EA7
330
2A78
100
AcDbEntity
  8
0
100
AcDbVertex
100
AcDb2dVertex
 10
4.177165354330708
 20
5.630905511811023
 30
0.0
  0
VERTEX
  5
2EA8
330
2A78
100
AcDbEntity
  8
0
100
AcDbVertex
100
AcDb2dVertex
 10
4.149606299212598
 20
5.634842519685038
 30
0.0
  0
SEQEND
  5
2EA9
330
2A78
100
AcDbEntity
  8
0
  0
POLYLINE
  5
2A80
330
1E
100
AcDbEntity
  8
0
100
AcDb2dPolyline
 66
     1
 10
0.0
 20
0.0
 30
0.0
  0
VERTEX
  5
2EAA
330
2A80
100
AcDbEntity
  8
0
100
AcDbVertex
100
AcDb2dVertex
 10
4.242125984251968
 20
5.569881889763779
 30
0.0
  0
VERTEX
  5
2EAB
330
2A80
100
AcDbEntity
  8
0
100
AcDbVertex
100
AcDb2dVertex
 10
4.237204724409449
 20
5.549212598425197
 30
0.0
  0
VERTEX
  5
2EAC
330
2A80
100
AcDbEntity
  8
0
100
AcDbVertex
100
AcDb2dVertex
 10
4.223425196850393
 20
5.531496062992125
 30
0.0
  0
VERTEX
  5
2EAD
330
2A80
100
AcDbEntity
  8
0
100
AcDbVertex
100
AcDb2dVertex
 10
4.202755905511811
 20
5.516732283464566
 30
0.0
  0
VERTEX
  5
2EAE
330
2A80
100
AcDbEntity
  8
0
100
AcDbVertex
100
AcDb2dVertex
 10
4.177165354330708
 20
5.507874015748031
 30
0.0
  0
VERTEX
  5
2EAF
330
2A80
100
AcDbEntity
  8
0
100
AcDbVertex
100
AcDb2dVertex
 10
4.149606299212598
 20
5.503937007874015
 30
0.0
  0
SEQEND
  5
2EB0
330
2A80
100
AcDbEntity
  8
0
  0
POLYLINE
  5
2A88
330
1E
100
AcDbEntity
  8
0
100
AcDb2dPolyline
 66
     1
 10
0.0
 20
0.0
 30
0.0
  0
VERTEX
  5
2EB1
330
2A88
100
AcDbEntity
  8
0
100
AcDbVertex
100
AcDb2dVertex
 10
2.819881889763779
 20
5.569881889763779
 30
0.0
  0
VERTEX
  5
2EB2
330
2A88
100
AcDbEntity
  8
0
100
AcDbVertex
100
AcDb2dVertex
 10
2.824803149606299
 20
5.549212598425197
 30
0.0
  0
VERTEX
  5
2EB3
330
2A88
100
AcDbEntity
  8
0
100
AcDbVertex
100
AcDb2dVertex
 10
2.838582677165354
 20
5.531496062992125
 30
0.0
  0
VERTEX
  5
2EB4
330
2A88
100
AcDbEntity
  8
0
100
AcDbVertex
100
AcDb2dVertex
 10
2.859251968503937
 20
5.516732283464566
 30
0.0
  0
VERTEX
  5
2EB5
330
2A88
100
AcDbEntity
  8
0
100
AcDbVertex
100
AcDb2dVertex
 10
2.884842519685039
 20
5.507874015748031
 30
0.0
  0
VERTEX
  5
2EB6
330
2A88
100
AcDbEntity
  8
0
100
AcDbVertex
100
AcDb2dVertex
 10
2.912401574803149
 20
5.503937007874015
 30
0.0
  0
SEQEND
  5
2EB7
330
2A88
100
AcDbEntity
  8
0
  0
POLYLINE
  5
2A90
330
1E
100
AcDbEntity
  8
0
100
AcDb2dPolyline
 66
     1
 10
0.0
 20
0.0
 30
0.0
  0
VERTEX
  5
2EB8
330
2A90
100
AcDbEntity
  8
0
100
AcDbVertex
100
AcDb2dVertex
 10
2.819881889763779
 20
5.569881889763779
 30
0.0
  0
VERTEX
  5
2EB9
330
2A90
100
AcDbEntity
  8
0
100
AcDbVertex
100
AcDb2dVertex
 10
2.824803149606299
 20
5.589566929133858
 30
0.0
  0
VERTEX
  5
2EBA
330
2A90
100
AcDbEntity
  8
0
100
AcDbVertex
100
AcDb2dVertex
 10
2.838582677165354
 20
5.607283464566928
 30
0.0
  0
VERTEX
  5
2EBB
330
2A90
100
AcDbEntity
  8
0
100
AcDbVertex
100
AcDb2dVertex
 10
2.859251968503937
 20
5.622047244094487
 30
0.0
  0
VERTEX
  5
2EBC
330
2A90
100
AcDbEntity
  8
0
100
AcDbVertex
100
AcDb2dVertex
 10
2.884842519685039
 20
5.630905511811023
 30
0.0
  0
VERTEX
  5
2EBD
330
2A90
100
AcDbEntity
  8
0
100
AcDbVertex
100
AcDb2dVertex
 10
2.912401574803149
 20
5.634842519685038
 30
0.0
  0
SEQEND
  5
2EBE
330
2A90
100
AcDbEntity
  8
0
  0
LINE
  5
2A98
330
1E
100
AcDbEntity
  8
0
100
AcDbLine
 10
2.511811023622047
 20
6.355314960629921
 30
0.0
 11
2.511811023622047
 21
6.039370078740157
 31
0.0
  0
LINE
  5
2A99
330
1E
100
AcDbEntity
  8
0
100
AcDbLine
 10
2.553149606299212
 20
6.077755905511811
 30
0.0
 11
2.553149606299212
 21
6.316929133858267
 31
0.0
  0
LINE
  5
2A9A
330
1E
100
AcDbEntity
  8
0
100
AcDbLine
 10
2.553149606299212
 20
6.077755905511811
 30
0.0
 11
2.559055118110236
 21
6.071850393700787
 31
0.0
  0
LINE
  5
2A9B
330
1E
100
AcDbEntity
  8
0
100
AcDbLine
 10
2.559055118110236
 20
6.321850393700787
 30
0.0
 11
2.553149606299212
 21
6.316929133858267
 31
0.0
  0
LINE
  5
2A9C
330
1E
100
AcDbEntity
  8
0
100
AcDbLine
 10
2.511811023622047
 20
6.355314960629921
 30
0.0
 11
2.5501968503937
 21
6.355314960629921
 31
0.0
  0
POLYLINE
  5
2A9D
330
1E
100
AcDbEntity
  8
0
100
AcDb2dPolyline
 66
     1
 10
0.0
 20
0.0
 30
0.0
  0
VERTEX
  5
2EBF
330
2A9D
100
AcDbEntity
  8
0
100
AcDbVertex
100
AcDb2dVertex
 10
2.5501968503937
 20
6.355314960629921
 30
0.0
  0
VERTEX
  5
2EC0
330
2A9D
100
AcDbEntity
  8
0
100
AcDbVertex
100
AcDb2dVertex
 10
2.558070866141732
 20
6.358267716535433
 30
0.0
  0
VERTEX
  5
2EC1
330
2A9D
100
AcDbEntity
  8
0
100
AcDbVertex
100
AcDb2dVertex
 10
2.561023622047243
 20
6.36515748031496
 30
0.0
  0
SEQEND
  5
2EC2
330
2A9D
100
AcDbEntity
  8
0
  0
LINE
  5
2AA2
330
1E
100
AcDbEntity
  8
0
100
AcDbLine
 10
2.508858267716535
 20
6.450787401574802
 30
0.0
 11
2.561023622047243
 21
6.450787401574802
 31
0.0
  0
LINE
  5
2AA3
330
1E
100
AcDbEntity
  8
0
100
AcDbLine
 10
2.531496062992125
 20
6.572834645669291
 30
0.0
 11
2.613188976377952
 21
6.572834645669291
 31
0.0
  0
LINE
  5
2AA4
330
1E
100
AcDbEntity
  8
0
100
AcDbLine
 10
2.53248031496063
 20
6.571850393700787
 30
0.0
 11
2.531496062992125
 21
6.572834645669291
 31
0.0
  0
LINE
  5
2AA5
330
1E
100
AcDbEntity
  8
0
100
AcDbLine
 10
2.53248031496063
 20
6.571850393700787
 30
0.0
 11
2.61515748031496
 21
6.571850393700787
 31
0.0
  0
LINE
  5
2AA6
330
1E
100
AcDbEntity
  8
0
100
AcDbLine
 10
2.613188976377952
 20
6.572834645669291
 30
0.0
 11
2.61515748031496
 21
6.571850393700787
 31
0.0
  0
LINE
  5
2AA7
330
1E
100
AcDbEntity
  8
0
100
AcDbLine
 10
2.531496062992125
 20
6.572834645669291
 30
0.0
 11
2.531496062992125
 21
6.499015748031496
 31
0.0
  0
LINE
  5
2AA8
330
1E
100
AcDbEntity
  8
0
100
AcDbLine
 10
2.508858267716535
 20
6.450787401574802
 30
0.0
 11
2.508858267716535
 21
6.499015748031496
 31
0.0
  0
LINE
  5
2AA9
330
1E
100
AcDbEntity
  8
0
100
AcDbLine
 10
2.508858267716535
 20
5.943897637795275
 30
0.0
 11
2.508858267716535
 21
5.895669291338582
 31
0.0
  0
LINE
  5
2AAA
330
1E
100
AcDbEntity
  8
0
100
AcDbLine
 10
2.531496062992125
 20
5.821850393700787
 30
0.0
 11
2.531496062992125
 21
5.895669291338582
 31
0.0
  0
LINE
  5
2AAB
330
1E
100
AcDbEntity
  8
0
100
AcDbLine
 10
2.508858267716535
 20
5.943897637795275
 30
0.0
 11
2.510826771653543
 21
5.942913385826771
 31
0.0
  0
LINE
  5
2AAC
330
1E
100
AcDbEntity
  8
0
100
AcDbLine
 10
2.563976377952756
 20
5.940944881889763
 30
0.0
 11
2.510826771653543
 21
5.942913385826771
 31
0.0
  0
LINE
  5
2AAD
330
1E
100
AcDbEntity
  8
0
100
AcDbLine
 10
2.561023622047243
 20
5.943897637795275
 30
0.0
 11
2.563976377952756
 21
5.940944881889763
 31
0.0
  0
LINE
  5
2AAE
330
1E
100
AcDbEntity
  8
0
100
AcDbLine
 10
2.508858267716535
 20
5.943897637795275
 30
0.0
 11
2.561023622047243
 21
5.943897637795275
 31
0.0
  0
LINE
  5
2AAF
330
1E
100
AcDbEntity
  8
0
100
AcDbLine
 10
2.508858267716535
 20
6.450787401574802
 30
0.0
 11
2.510826771653543
 21
6.451771653543307
 31
0.0
  0
LINE
  5
2AB0
330
1E
100
AcDbEntity
  8
0
100
AcDbLine
 10
2.561023622047243
 20
6.450787401574802
 30
0.0
 11
2.563976377952756
 21
6.453740157480314
 31
0.0
  0
LINE
  5
2AB1
330
1E
100
AcDbEntity
  8
0
100
AcDbLine
 10
2.563976377952756
 20
6.453740157480314
 30
0.0
 11
2.510826771653543
 21
6.451771653543307
 31
0.0
  0
LINE
  5
2AB2
330
1E
100
AcDbEntity
  8
0
100
AcDbLine
 10
2.561023622047243
 20
6.450787401574802
 30
0.0
 11
2.561023622047243
 21
6.36515748031496
 31
0.0
  0
LINE
  5
2AB3
330
1E
100
AcDbEntity
  8
0
100
AcDbLine
 10
2.511811023622047
 20
6.039370078740157
 30
0.0
 11
2.5501968503937
 21
6.039370078740157
 31
0.0
  0
POLYLINE
  5
2AB4
330
1E
100
AcDbEntity
  8
0
100
AcDb2dPolyline
 66
     1
 10
0.0
 20
0.0
 30
0.0
  0
VERTEX
  5
2EC3
330
2AB4
100
AcDbEntity
  8
0
100
AcDbVertex
100
AcDb2dVertex
 10
2.561023622047243
 20
6.029527559055117
 30
0.0
  0
VERTEX
  5
2EC4
330
2AB4
100
AcDbEntity
  8
0
100
AcDbVertex
100
AcDb2dVertex
 10
2.558070866141732
 20
6.036417322834645
 30
0.0
  0
VERTEX
  5
2EC5
330
2AB4
100
AcDbEntity
  8
0
100
AcDbVertex
100
AcDb2dVertex
 10
2.5501968503937
 20
6.039370078740157
 30
0.0
  0
SEQEND
  5
2EC6
330
2AB4
100
AcDbEntity
  8
0
  0
LINE
  5
2AB9
330
1E
100
AcDbEntity
  8
0
100
AcDbLine
 10
2.561023622047243
 20
6.029527559055117
 30
0.0
 11
2.561023622047243
 21
6.071850393700787
 31
0.0
  0
LINE
  5
2ABA
330
1E
100
AcDbEntity
  8
0
100
AcDbLine
 10
2.561023622047243
 20
6.071850393700787
 30
0.0
 11
2.559055118110236
 21
6.071850393700787
 31
0.0
  0
LINE
  5
2ABB
330
1E
100
AcDbEntity
  8
0
100
AcDbLine
 10
2.561023622047243
 20
6.321850393700787
 30
0.0
 11
2.559055118110236
 21
6.321850393700787
 31
0.0
  0
LINE
  5
2ABC
330
1E
100
AcDbEntity
  8
0
100
AcDbLine
 10
2.561023622047243
 20
6.36515748031496
 30
0.0
 11
2.561023622047243
 21
6.321850393700787
 31
0.0
  0
LINE
  5
2ABD
330
1E
100
AcDbEntity
  8
0
100
AcDbLine
 10
2.531496062992125
 20
5.821850393700787
 30
0.0
 11
2.613188976377952
 21
5.821850393700787
 31
0.0
  0
LINE
  5
2ABE
330
1E
100
AcDbEntity
  8
0
100
AcDbLine
 10
2.613188976377952
 20
5.821850393700787
 30
0.0
 11
2.61515748031496
 21
5.822834645669291
 31
0.0
  0
LINE
  5
2ABF
330
1E
100
AcDbEntity
  8
0
100
AcDbLine
 10
2.53248031496063
 20
5.822834645669291
 30
0.0
 11
2.61515748031496
 21
5.822834645669291
 31
0.0
  0
LINE
  5
2AC0
330
1E
100
AcDbEntity
  8
0
100
AcDbLine
 10
2.53248031496063
 20
5.822834645669291
 30
0.0
 11
2.531496062992125
 21
5.821850393700787
 31
0.0
  0
LINE
  5
2AC1
330
1E
100
AcDbEntity
  8
0
100
AcDbLine
 10
2.561023622047243
 20
5.943897637795275
 30
0.0
 11
2.561023622047243
 21
6.029527559055117
 31
0.0
  0
LINE
  5
2AC2
330
1E
100
AcDbEntity
  8
0
100
AcDbLine
 10
2.561023622047243
 20
6.071850393700787
 30
0.0
 11
2.562007874015748
 21
6.079724409448818
 31
0.0
  0
LINE
  5
2AC3
330
1E
100
AcDbEntity
  8
0
100
AcDbLine
 10
2.562007874015748
 20
6.079724409448818
 30
0.0
 11
2.562007874015748
 21
6.31496062992126
 31
0.0
  0
LINE
  5
2AC4
330
1E
100
AcDbEntity
  8
0
100
AcDbLine
 10
2.561023622047243
 20
6.321850393700787
 30
0.0
 11
2.562007874015748
 21
6.31496062992126
 31
0.0
  0
LINE
  5
2AC5
330
1E
100
AcDbEntity
  8
0
100
AcDbLine
 10
2.603346456692913
 20
6.834645669291338
 30
0.0
 11
2.603346456692913
 21
6.779527559055117
 31
0.0
  0
LINE
  5
2AC6
330
1E
100
AcDbEntity
  8
0
100
AcDbLine
 10
2.603346456692913
 20
6.779527559055117
 30
0.0
 11
2.604330708661417
 21
6.781496062992125
 31
0.0
  0
LINE
  5
2AC7
330
1E
100
AcDbEntity
  8
0
100
AcDbLine
 10
2.604330708661417
 20
6.833661417322834
 30
0.0
 11
2.604330708661417
 21
6.781496062992125
 31
0.0
  0
LINE
  5
2AC8
330
1E
100
AcDbEntity
  8
0
100
AcDbLine
 10
2.603346456692913
 20
6.834645669291338
 30
0.0
 11
2.604330708661417
 21
6.833661417322834
 31
0.0
  0
LINE
  5
2AC9
330
1E
100
AcDbEntity
  8
0
100
AcDbLine
 10
2.614173228346456
 20
6.499015748031496
 30
0.0
 11
2.61515748031496
 21
6.571850393700787
 31
0.0
  0
LINE
  5
2ACA
330
1E
100
AcDbEntity
  8
0
100
AcDbLine
 10
2.614173228346456
 20
6.499015748031496
 30
0.0
 11
2.627952755905511
 21
6.494094488188975
 31
0.0
  0
LINE
  5
2ACB
330
1E
100
AcDbEntity
  8
0
100
AcDbLine
 10
2.53248031496063
 20
6.499015748031496
 30
0.0
 11
2.53248031496063
 21
6.571850393700787
 31
0.0
  0
LINE
  5
2ACC
330
1E
100
AcDbEntity
  8
0
100
AcDbLine
 10
2.614173228346456
 20
6.499015748031496
 30
0.0
 11
2.53248031496063
 21
6.499015748031496
 31
0.0
  0
LINE
  5
2ACD
330
1E
100
AcDbEntity
  8
0
100
AcDbLine
 10
2.531496062992125
 20
6.499015748031496
 30
0.0
 11
2.53248031496063
 21
6.499015748031496
 31
0.0
  0
LINE
  5
2ACE
330
1E
100
AcDbEntity
  8
0
100
AcDbLine
 10
2.508858267716535
 20
6.499015748031496
 30
0.0
 11
2.531496062992125
 21
6.499015748031496
 31
0.0
  0
LINE
  5
2ACF
330
1E
100
AcDbEntity
  8
0
100
AcDbLine
 10
2.510826771653543
 20
6.497047244094487
 30
0.0
 11
2.508858267716535
 21
6.499015748031496
 31
0.0
  0
LINE
  5
2AD0
330
1E
100
AcDbEntity
  8
0
100
AcDbLine
 10
2.510826771653543
 20
6.497047244094487
 30
0.0
 11
2.510826771653543
 21
6.451771653543307
 31
0.0
  0
LINE
  5
2AD1
330
1E
100
AcDbEntity
  8
0
100
AcDbLine
 10
2.563976377952756
 20
6.496062992125984
 30
0.0
 11
2.510826771653543
 21
6.497047244094487
 31
0.0
  0
LINE
  5
2AD2
330
1E
100
AcDbEntity
  8
0
100
AcDbLine
 10
2.563976377952756
 20
6.453740157480314
 30
0.0
 11
2.563976377952756
 21
6.496062992125984
 31
0.0
  0
LINE
  5
2AD3
330
1E
100
AcDbEntity
  8
0
100
AcDbLine
 10
2.563976377952756
 20
5.898622047244094
 30
0.0
 11
2.510826771653543
 21
5.89763779527559
 31
0.0
  0
LINE
  5
2AD4
330
1E
100
AcDbEntity
  8
0
100
AcDbLine
 10
2.563976377952756
 20
5.940944881889763
 30
0.0
 11
2.563976377952756
 21
5.898622047244094
 31
0.0
  0
LINE
  5
2AD5
330
1E
100
AcDbEntity
  8
0
100
AcDbLine
 10
2.510826771653543
 20
5.89763779527559
 30
0.0
 11
2.510826771653543
 21
5.942913385826771
 31
0.0
  0
LINE
  5
2AD6
330
1E
100
AcDbEntity
  8
0
100
AcDbLine
 10
2.510826771653543
 20
5.89763779527559
 30
0.0
 11
2.508858267716535
 21
5.895669291338582
 31
0.0
  0
LINE
  5
2AD7
330
1E
100
AcDbEntity
  8
0
100
AcDbLine
 10
2.508858267716535
 20
5.895669291338582
 30
0.0
 11
2.531496062992125
 21
5.895669291338582
 31
0.0
  0
LINE
  5
2AD8
330
1E
100
AcDbEntity
  8
0
100
AcDbLine
 10
2.531496062992125
 20
5.895669291338582
 30
0.0
 11
2.53248031496063
 21
5.895669291338582
 31
0.0
  0
LINE
  5
2AD9
330
1E
100
AcDbEntity
  8
0
100
AcDbLine
 10
2.53248031496063
 20
5.895669291338582
 30
0.0
 11
2.53248031496063
 21
5.822834645669291
 31
0.0
  0
LINE
  5
2ADA
330
1E
100
AcDbEntity
  8
0
100
AcDbLine
 10
2.614173228346456
 20
5.895669291338582
 30
0.0
 11
2.61515748031496
 21
5.822834645669291
 31
0.0
  0
LINE
  5
2ADB
330
1E
100
AcDbEntity
  8
0
100
AcDbLine
 10
2.614173228346456
 20
5.895669291338582
 30
0.0
 11
2.53248031496063
 21
5.895669291338582
 31
0.0
  0
LINE
  5
2ADC
330
1E
100
AcDbEntity
  8
0
100
AcDbLine
 10
2.569881889763779
 20
5.904527559055117
 30
0.0
 11
2.563976377952756
 21
5.898622047244094
 31
0.0
  0
LINE
  5
2ADD
330
1E
100
AcDbEntity
  8
0
100
AcDbLine
 10
2.569881889763779
 20
5.904527559055117
 30
0.0
 11
2.569881889763779
 21
5.947834645669291
 31
0.0
  0
LINE
  5
2ADE
330
1E
100
AcDbEntity
  8
0
100
AcDbLine
 10
2.569881889763779
 20
5.948818897637795
 30
0.0
 11
2.569881889763779
 21
5.947834645669291
 31
0.0
  0
LINE
  5
2ADF
330
1E
100
AcDbEntity
  8
0
100
AcDbLine
 10
2.569881889763779
 20
5.948818897637795
 30
0.0
 11
2.569881889763779
 21
6.173228346456692
 31
0.0
  0
LINE
  5
2AE0
330
1E
100
AcDbEntity
  8
0
100
AcDbLine
 10
2.569881889763779
 20
6.173228346456692
 30
0.0
 11
2.569881889763779
 21
6.174212598425197
 31
0.0
  0
LINE
  5
2AE1
330
1E
100
AcDbEntity
  8
0
100
AcDbLine
 10
2.569881889763779
 20
6.220472440944881
 30
0.0
 11
2.569881889763779
 21
6.174212598425197
 31
0.0
  0
LINE
  5
2AE2
330
1E
100
AcDbEntity
  8
0
100
AcDbLine
 10
2.569881889763779
 20
6.220472440944881
 30
0.0
 11
2.569881889763779
 21
6.220472440944881
 31
0.0
  0
LINE
  5
2AE3
330
1E
100
AcDbEntity
  8
0
100
AcDbLine
 10
2.569881889763779
 20
6.445866141732283
 30
0.0
 11
2.569881889763779
 21
6.220472440944881
 31
0.0
  0
LINE
  5
2AE4
330
1E
100
AcDbEntity
  8
0
100
AcDbLine
 10
2.569881889763779
 20
6.445866141732283
 30
0.0
 11
2.569881889763779
 21
6.446850393700787
 31
0.0
  0
LINE
  5
2AE5
330
1E
100
AcDbEntity
  8
0
100
AcDbLine
 10
2.569881889763779
 20
6.446850393700787
 30
0.0
 11
2.569881889763779
 21
6.49015748031496
 31
0.0
  0
LINE
  5
2AE6
330
1E
100
AcDbEntity
  8
0
100
AcDbLine
 10
2.569881889763779
 20
6.49015748031496
 30
0.0
 11
2.563976377952756
 21
6.496062992125984
 31
0.0
  0
LINE
  5
2AE7
330
1E
100
AcDbEntity
  8
0
100
AcDbLine
 10
2.614173228346456
 20
5.895669291338582
 30
0.0
 11
2.627952755905511
 21
5.900590551181101
 31
0.0
  0
LINE
  5
2AE8
330
1E
100
AcDbEntity
  8
0
100
AcDbLine
 10
2.603346456692913
 20
5.61515748031496
 30
0.0
 11
2.603346456692913
 21
5.560039370078739
 31
0.0
  0
LINE
  5
2AE9
330
1E
100
AcDbEntity
  8
0
100
AcDbLine
 10
2.603346456692913
 20
5.560039370078739
 30
0.0
 11
2.604330708661417
 21
5.561023622047244
 31
0.0
  0
LINE
  5
2AEA
330
1E
100
AcDbEntity
  8
0
100
AcDbLine
 10
2.604330708661417
 20
5.613188976377952
 30
0.0
 11
2.604330708661417
 21
5.561023622047244
 31
0.0
  0
LINE
  5
2AEB
330
1E
100
AcDbEntity
  8
0
100
AcDbLine
 10
2.603346456692913
 20
5.61515748031496
 30
0.0
 11
2.604330708661417
 21
5.613188976377952
 31
0.0
  0
LINE
  5
2AEC
330
1E
100
AcDbEntity
  8
0
100
AcDbLine
 10
2.644685039370078
 20
5.61515748031496
 30
0.0
 11
2.603346456692913
 21
5.61515748031496
 31
0.0
  0
LINE
  5
2AED
330
1E
100
AcDbEntity
  8
0
100
AcDbLine
 10
2.75
 20
5.75
 30
0.0
 11
2.748031496062992
 21
5.75
 31
0.0
  0
LINE
  5
2AEE
330
1E
100
AcDbEntity
  8
0
100
AcDbLine
 10
2.74507874015748
 20
5.754921259842519
 30
0.0
 11
2.75
 21
5.754921259842519
 31
0.0
  0
LINE
  5
2AEF
330
1E
100
AcDbEntity
  8
0
100
AcDbLine
 10
2.74507874015748
 20
5.754921259842519
 30
0.0
 11
2.748031496062992
 21
5.75
 31
0.0
  0
LINE
  5
2AF0
330
1E
100
AcDbEntity
  8
0
100
AcDbLine
 10
2.74507874015748
 20
5.367125984251968
 30
0.0
 11
2.75
 21
5.367125984251968
 31
0.0
  0
LINE
  5
2AF1
330
1E
100
AcDbEntity
  8
0
100
AcDbLine
 10
2.75
 20
5.373031496062991
 30
0.0
 11
2.748031496062992
 21
5.373031496062991
 31
0.0
  0
LINE
  5
2AF2
330
1E
100
AcDbEntity
  8
0
100
AcDbLine
 10
2.74507874015748
 20
5.367125984251968
 30
0.0
 11
2.748031496062992
 21
5.373031496062991
 31
0.0
  0
LINE
  5
2AF3
330
1E
100
AcDbEntity
  8
0
100
AcDbLine
 10
2.644685039370078
 20
6.834645669291338
 30
0.0
 11
2.603346456692913
 21
6.834645669291338
 31
0.0
  0
LINE
  5
2AF4
330
1E
100
AcDbEntity
  8
0
100
AcDbLine
 10
2.64763779527559
 20
6.833661417322834
 30
0.0
 11
2.604330708661417
 21
6.833661417322834
 31
0.0
  0
LINE
  5
2AF5
330
1E
100
AcDbEntity
  8
0
100
AcDbLine
 10
2.644685039370078
 20
6.834645669291338
 30
0.0
 11
2.64763779527559
 21
6.833661417322834
 31
0.0
  0
LINE
  5
2AF6
330
1E
100
AcDbEntity
  8
0
100
AcDbLine
 10
2.604330708661417
 20
6.781496062992125
 30
0.0
 11
2.64763779527559
 21
6.781496062992125
 31
0.0
  0
LINE
  5
2AF7
330
1E
100
AcDbEntity
  8
0
100
AcDbLine
 10
2.64763779527559
 20
6.781496062992125
 30
0.0
 11
2.64763779527559
 21
6.833661417322834
 31
0.0
  0
LINE
  5
2AF8
330
1E
100
AcDbEntity
  8
0
100
AcDbLine
 10
2.603346456692913
 20
6.779527559055117
 30
0.0
 11
2.644685039370078
 21
6.779527559055117
 31
0.0
  0
LINE
  5
2AF9
330
1E
100
AcDbEntity
  8
0
100
AcDbLine
 10
2.644685039370078
 20
6.779527559055117
 30
0.0
 11
2.64763779527559
 21
6.781496062992125
 31
0.0
  0
LINE
  5
2AFA
330
1E
100
AcDbEntity
  8
0
100
AcDbLine
 10
2.638779527559055
 20
6.494094488188975
 30
0.0
 11
2.627952755905511
 21
6.494094488188975
 31
0.0
  0
LINE
  5
2AFB
330
1E
100
AcDbEntity
  8
0
100
AcDbLine
 10
2.638779527559055
 20
6.494094488188975
 30
0.0
 11
2.644685039370078
 21
6.497047244094487
 31
0.0
  0
LINE
  5
2AFC
330
1E
100
AcDbEntity
  8
0
100
AcDbLine
 10
2.638779527559055
 20
6.494094488188975
 30
0.0
 11
2.649606299212598
 21
6.489173228346456
 31
0.0
  0
LINE
  5
2AFD
330
1E
100
AcDbEntity
  8
0
100
AcDbLine
 10
2.569881889763779
 20
6.49015748031496
 30
0.0
 11
2.649606299212598
 21
6.489173228346456
 31
0.0
  0
LINE
  5
2AFE
330
1E
100
AcDbEntity
  8
0
100
AcDbLine
 10
2.569881889763779
 20
6.446850393700787
 30
0.0
 11
2.649606299212598
 21
6.447834645669291
 31
0.0
  0
LINE
  5
2AFF
330
1E
100
AcDbEntity
  8
0
100
AcDbLine
 10
2.649606299212598
 20
6.489173228346456
 30
0.0
 11
2.649606299212598
 21
6.447834645669291
 31
0.0
  0
LINE
  5
2B00
330
1E
100
AcDbEntity
  8
0
100
AcDbLine
 10
2.646653543307086
 20
6.445866141732283
 30
0.0
 11
2.569881889763779
 21
6.445866141732283
 31
0.0
  0
LINE
  5
2B01
330
1E
100
AcDbEntity
  8
0
100
AcDbLine
 10
2.649606299212598
 20
6.447834645669291
 30
0.0
 11
2.646653543307086
 21
6.445866141732283
 31
0.0
  0
LINE
  5
2B02
330
1E
100
AcDbEntity
  8
0
100
AcDbLine
 10
2.646653543307086
 20
6.220472440944881
 30
0.0
 11
2.569881889763779
 21
6.220472440944881
 31
0.0
  0
LINE
  5
2B03
330
1E
100
AcDbEntity
  8
0
100
AcDbLine
 10
2.646653543307086
 20
6.220472440944881
 30
0.0
 11
2.646653543307086
 21
6.445866141732283
 31
0.0
  0
LINE
  5
2B04
330
1E
100
AcDbEntity
  8
0
100
AcDbLine
 10
2.649606299212598
 20
6.219488188976377
 30
0.0
 11
2.646653543307086
 21
6.220472440944881
 31
0.0
  0
LINE
  5
2B05
330
1E
100
AcDbEntity
  8
0
100
AcDbLine
 10
2.569881889763779
 20
6.220472440944881
 30
0.0
 11
2.649606299212598
 21
6.219488188976377
 31
0.0
  0
LINE
  5
2B06
330
1E
100
AcDbEntity
  8
0
100
AcDbLine
 10
2.649606299212598
 20
6.1751968503937
 30
0.0
 11
2.569881889763779
 21
6.174212598425197
 31
0.0
  0
LINE
  5
2B07
330
1E
100
AcDbEntity
  8
0
100
AcDbLine
 10
2.649606299212598
 20
6.1751968503937
 30
0.0
 11
2.649606299212598
 21
6.219488188976377
 31
0.0
  0
LINE
  5
2B08
330
1E
100
AcDbEntity
  8
0
100
AcDbLine
 10
2.569881889763779
 20
6.173228346456692
 30
0.0
 11
2.646653543307086
 21
6.173228346456692
 31
0.0
  0
LINE
  5
2B09
330
1E
100
AcDbEntity
  8
0
100
AcDbLine
 10
2.649606299212598
 20
6.1751968503937
 30
0.0
 11
2.646653543307086
 21
6.173228346456692
 31
0.0
  0
LINE
  5
2B0A
330
1E
100
AcDbEntity
  8
0
100
AcDbLine
 10
2.646653543307086
 20
5.948818897637795
 30
0.0
 11
2.646653543307086
 21
6.173228346456692
 31
0.0
  0
LINE
  5
2B0B
330
1E
100
AcDbEntity
  8
0
100
AcDbLine
 10
2.646653543307086
 20
5.948818897637795
 30
0.0
 11
2.569881889763779
 21
5.948818897637795
 31
0.0
  0
LINE
  5
2B0C
330
1E
100
AcDbEntity
  8
0
100
AcDbLine
 10
2.649606299212598
 20
5.946850393700787
 30
0.0
 11
2.646653543307086
 21
5.948818897637795
 31
0.0
  0
LINE
  5
2B0D
330
1E
100
AcDbEntity
  8
0
100
AcDbLine
 10
2.649606299212598
 20
5.946850393700787
 30
0.0
 11
2.569881889763779
 21
5.947834645669291
 31
0.0
  0
LINE
  5
2B0E
330
1E
100
AcDbEntity
  8
0
100
AcDbLine
 10
2.569881889763779
 20
5.904527559055117
 30
0.0
 11
2.649606299212598
 21
5.905511811023622
 31
0.0
  0
LINE
  5
2B0F
330
1E
100
AcDbEntity
  8
0
100
AcDbLine
 10
2.649606299212598
 20
5.946850393700787
 30
0.0
 11
2.649606299212598
 21
5.905511811023622
 31
0.0
  0
LINE
  5
2B10
330
1E
100
AcDbEntity
  8
0
100
AcDbLine
 10
2.638779527559055
 20
5.900590551181101
 30
0.0
 11
2.627952755905511
 21
5.900590551181101
 31
0.0
  0
LINE
  5
2B11
330
1E
100
AcDbEntity
  8
0
100
AcDbLine
 10
2.649606299212598
 20
5.905511811023622
 30
0.0
 11
2.638779527559055
 21
5.900590551181101
 31
0.0
  0
LINE
  5
2B12
330
1E
100
AcDbEntity
  8
0
100
AcDbLine
 10
2.638779527559055
 20
5.900590551181101
 30
0.0
 11
2.644685039370078
 21
5.89763779527559
 31
0.0
  0
LINE
  5
2B13
330
1E
100
AcDbEntity
  8
0
100
AcDbLine
 10
2.64763779527559
 20
5.613188976377952
 30
0.0
 11
2.604330708661417
 21
5.613188976377952
 31
0.0
  0
LINE
  5
2B14
330
1E
100
AcDbEntity
  8
0
100
AcDbLine
 10
2.644685039370078
 20
5.61515748031496
 30
0.0
 11
2.64763779527559
 21
5.613188976377952
 31
0.0
  0
LINE
  5
2B15
330
1E
100
AcDbEntity
  8
0
100
AcDbLine
 10
2.604330708661417
 20
5.561023622047244
 30
0.0
 11
2.64763779527559
 21
5.561023622047244
 31
0.0
  0
LINE
  5
2B16
330
1E
100
AcDbEntity
  8
0
100
AcDbLine
 10
2.64763779527559
 20
5.613188976377952
 30
0.0
 11
2.64763779527559
 21
5.561023622047244
 31
0.0
  0
LINE
  5
2B17
330
1E
100
AcDbEntity
  8
0
100
AcDbLine
 10
2.603346456692913
 20
5.560039370078739
 30
0.0
 11
2.644685039370078
 21
5.560039370078739
 31
0.0
  0
LINE
  5
2B18
330
1E
100
AcDbEntity
  8
0
100
AcDbLine
 10
2.644685039370078
 20
5.560039370078739
 30
0.0
 11
2.64763779527559
 21
5.561023622047244
 31
0.0
  0
LINE
  5
2B19
330
1E
100
AcDbEntity
  8
0
100
AcDbLine
 10
2.75
 20
6.229330708661417
 30
0.0
 11
2.74507874015748
 21
6.229330708661417
 31
0.0
  0
LINE
  5
2B1A
330
1E
100
AcDbEntity
  8
0
100
AcDbLine
 10
2.748031496062992
 20
5.75
 30
0.0
 11
2.75
 21
5.746062992125984
 31
0.0
  0
LINE
  5
2B1B
330
1E
100
AcDbEntity
  8
0
100
AcDbLine
 10
2.644685039370078
 20
5.89763779527559
 30
0.0
 11
2.644685039370078
 21
5.61515748031496
 31
0.0
  0
LINE
  5
2B1C
330
1E
100
AcDbEntity
  8
0
100
AcDbLine
 10
2.644685039370078
 20
6.497047244094487
 30
0.0
 11
2.644685039370078
 21
6.779527559055117
 31
0.0
  0
LINE
  5
2B1D
330
1E
100
AcDbEntity
  8
0
100
AcDbLine
 10
2.74507874015748
 20
5.479330708661417
 30
0.0
 11
2.74507874015748
 21
5.643700787401574
 31
0.0
  0
POLYLINE
  5
2B1E
330
1E
100
AcDbEntity
  8
0
100
AcDb2dPolyline
 66
     1
 10
0.0
 20
0.0
 30
0.0
  0
VERTEX
  5
2EC7
330
2B1E
100
AcDbEntity
  8
0
100
AcDbVertex
100
AcDb2dVertex
 10
2.737204724409448
 20
5.635826771653543
 30
0.0
  0
VERTEX
  5
2EC8
330
2B1E
100
AcDbEntity
  8
0
100
AcDbVertex
100
AcDb2dVertex
 10
2.742125984251968
 20
5.63779527559055
 30
0.0
  0
VERTEX
  5
2EC9
330
2B1E
100
AcDbEntity
  8
0
100
AcDbVertex
100
AcDb2dVertex
 10
2.74507874015748
 20
5.643700787401574
 30
0.0
  0
SEQEND
  5
2ECA
330
2B1E
100
AcDbEntity
  8
0
  0
LINE
  5
2B23
330
1E
100
AcDbEntity
  8
0
100
AcDbLine
 10
2.70767716535433
 20
5.635826771653543
 30
0.0
 11
2.737204724409448
 21
5.635826771653543
 31
0.0
  0
POLYLINE
  5
2B24
330
1E
100
AcDbEntity
  8
0
100
AcDb2dPolyline
 66
     1
 10
0.0
 20
0.0
 30
0.0
  0
VERTEX
  5
2ECB
330
2B24
100
AcDbEntity
  8
0
100
AcDbVertex
100
AcDb2dVertex
 10
2.699803149606299
 20
5.626968503937007
 30
0.0
  0
VERTEX
  5
2ECC
330
2B24
100
AcDbEntity
  8
0
100
AcDbVertex
100
AcDb2dVertex
 10
2.701771653543306
 20
5.632874015748031
 30
0.0
  0
VERTEX
  5
2ECD
330
2B24
100
AcDbEntity
  8
0
100
AcDbVertex
100
AcDb2dVertex
 10
2.70767716535433
 20
5.635826771653543
 30
0.0
  0
SEQEND
  5
2ECE
330
2B24
100
AcDbEntity
  8
0
  0
LINE
  5
2B29
330
1E
100
AcDbEntity
  8
0
100
AcDbLine
 10
2.699803149606299
 20
5.49507874015748
 30
0.0
 11
2.699803149606299
 21
5.626968503937007
 31
0.0
  0
POLYLINE
  5
2B2A
330
1E
100
AcDbEntity
  8
0
100
AcDb2dPolyline
 66
     1
 10
0.0
 20
0.0
 30
0.0
  0
VERTEX
  5
2ECF
330
2B2A
100
AcDbEntity
  8
0
100
AcDbVertex
100
AcDb2dVertex
 10
2.70767716535433
 20
5.487204724409449
 30
0.0
  0
VERTEX
  5
2ED0
330
2B2A
100
AcDbEntity
  8
0
100
AcDbVertex
100
AcDb2dVertex
 10
2.701771653543306
 20
5.489173228346456
 30
0.0
  0
VERTEX
  5
2ED1
330
2B2A
100
AcDbEntity
  8
0
100
AcDbVertex
100
AcDb2dVertex
 10
2.699803149606299
 20
5.49507874015748
 30
0.0
  0
SEQEND
  5
2ED2
330
2B2A
100
AcDbEntity
  8
0
  0
LINE
  5
2B2F
330
1E
100
AcDbEntity
  8
0
100
AcDbLine
 10
2.737204724409448
 20
5.487204724409449
 30
0.0
 11
2.70767716535433
 21
5.487204724409449
 31
0.0
  0
POLYLINE
  5
2B30
330
1E
100
AcDbEntity
  8
0
100
AcDb2dPolyline
 66
     1
 10
0.0
 20
0.0
 30
0.0
  0
VERTEX
  5
2ED3
330
2B30
100
AcDbEntity
  8
0
100
AcDbVertex
100
AcDb2dVertex
 10
2.74507874015748
 20
5.479330708661417
 30
0.0
  0
VERTEX
  5
2ED4
330
2B30
100
AcDbEntity
  8
0
100
AcDbVertex
100
AcDb2dVertex
 10
2.742125984251968
 20
5.484251968503937
 30
0.0
  0
VERTEX
  5
2ED5
330
2B30
100
AcDbEntity
  8
0
100
AcDbVertex
100
AcDb2dVertex
 10
2.737204724409448
 20
5.487204724409449
 30
0.0
  0
SEQEND
  5
2ED6
330
2B30
100
AcDbEntity
  8
0
  0
LINE
  5
2B35
330
1E
100
AcDbEntity
  8
0
100
AcDbLine
 10
2.748031496062992
 20
5.373031496062991
 30
0.0
 11
2.75
 21
5.375984251968503
 31
0.0
  0
LINE
  5
2B36
330
1E
100
AcDbEntity
  8
0
100
AcDbLine
 10
2.74507874015748
 20
5.754921259842519
 30
0.0
 11
2.74507874015748
 21
5.643700787401574
 31
0.0
  0
LINE
  5
2B37
330
1E
100
AcDbEntity
  8
0
100
AcDbLine
 10
2.74507874015748
 20
5.479330708661417
 30
0.0
 11
2.74507874015748
 21
5.367125984251968
 31
0.0
  0
LINE
  5
2B38
330
1E
100
AcDbEntity
  8
0
100
AcDbLine
 10
2.74507874015748
 20
6.229330708661417
 30
0.0
 11
2.74507874015748
 21
5.754921259842519
 31
0.0
  0
LINE
  5
2B39
330
1E
100
AcDbEntity
  8
0
100
AcDbLine
 10
2.744094488188976
 20
6.231299212598425
 30
0.0
 11
2.74507874015748
 21
6.229330708661417
 31
0.0
  0
LINE
  5
2B3A
330
1E
100
AcDbEntity
  8
0
100
AcDbLine
 10
2.74507874015748
 20
4.888779527559054
 30
0.0
 11
2.80511811023622
 21
4.888779527559054
 31
0.0
  0
LINE
  5
2B3B
330
1E
100
AcDbEntity
  8
0
100
AcDbLine
 10
2.80511811023622
 20
4.901574803149606
 30
0.0
 11
2.80511811023622
 21
4.888779527559054
 31
0.0
  0
LINE
  5
2B3C
330
1E
100
AcDbEntity
  8
0
100
AcDbLine
 10
2.74507874015748
 20
5.367125984251968
 30
0.0
 11
2.74507874015748
 21
4.888779527559054
 31
0.0
  0
LINE
  5
2B3D
330
1E
100
AcDbEntity
  8
0
100
AcDbLine
 10
2.806102362204724
 20
4.889763779527559
 30
0.0
 11
2.806102362204724
 21
4.901574803149606
 31
0.0
  0
LINE
  5
2B3E
330
1E
100
AcDbEntity
  8
0
100
AcDbLine
 10
2.656496062992125
 20
4.905511811023622
 30
0.0
 11
2.644685039370078
 21
4.893700787401574
 31
0.0
  0
POLYLINE
  5
2B3F
330
1E
100
AcDbEntity
  8
0
100
AcDb2dPolyline
 66
     1
 10
0.0
 20
0.0
 30
0.0
  0
VERTEX
  5
2ED7
330
2B3F
100
AcDbEntity
  8
0
100
AcDbVertex
100
AcDb2dVertex
 10
2.644685039370078
 20
4.893700787401574
 30
0.0
  0
VERTEX
  5
2ED8
330
2B3F
100
AcDbEntity
  8
0
100
AcDbVertex
100
AcDb2dVertex
 10
2.648622047244094
 20
4.867125984251968
 30
0.0
  0
VERTEX
  5
2ED9
330
2B3F
100
AcDbEntity
  8
0
100
AcDbVertex
100
AcDb2dVertex
 10
2.658464566929133
 20
4.843503937007874
 30
0.0
  0
VERTEX
  5
2EDA
330
2B3F
100
AcDbEntity
  8
0
100
AcDbVertex
100
AcDb2dVertex
 10
2.674212598425196
 20
4.822834645669291
 30
0.0
  0
VERTEX
  5
2EDB
330
2B3F
100
AcDbEntity
  8
0
100
AcDbVertex
100
AcDb2dVertex
 10
2.694881889763779
 20
4.807086614173228
 30
0.0
  0
VERTEX
  5
2EDC
330
2B3F
100
AcDbEntity
  8
0
100
AcDbVertex
100
AcDb2dVertex
 10
2.718503937007874
 20
4.797244094488188
 30
0.0
  0
VERTEX
  5
2EDD
330
2B3F
100
AcDbEntity
  8
0
100
AcDbVertex
100
AcDb2dVertex
 10
2.74507874015748
 20
4.793307086614173
 30
0.0
  0
SEQEND
  5
2EDE
330
2B3F
100
AcDbEntity
  8
0
  0
LINE
  5
2B48
330
1E
100
AcDbEntity
  8
0
100
AcDbLine
 10
2.74507874015748
 20
4.793307086614173
 30
0.0
 11
2.755905511811023
 21
4.80511811023622
 31
0.0
  0
POLYLINE
  5
2B49
330
1E
100
AcDbEntity
  8
0
100
AcDb2dPolyline
 66
     1
 10
0.0
 20
0.0
 30
0.0
  0
VERTEX
  5
2EDF
330
2B49
100
AcDbEntity
  8
0
100
AcDbVertex
100
AcDb2dVertex
 10
2.656496062992125
 20
4.905511811023622
 30
0.0
  0
VERTEX
  5
2EE0
330
2B49
100
AcDbEntity
  8
0
100
AcDbVertex
100
AcDb2dVertex
 10
2.659448818897637
 20
4.878937007874015
 30
0.0
  0
VERTEX
  5
2EE1
330
2B49
100
AcDbEntity
  8
0
100
AcDbVertex
100
AcDb2dVertex
 10
2.670275590551181
 20
4.855314960629921
 30
0.0
  0
VERTEX
  5
2EE2
330
2B49
100
AcDbEntity
  8
0
100
AcDbVertex
100
AcDb2dVertex
 10
2.686023622047243
 20
4.834645669291338
 30
0.0
  0
VERTEX
  5
2EE3
330
2B49
100
AcDbEntity
  8
0
100
AcDbVertex
100
AcDb2dVertex
 10
2.706692913385826
 20
4.818897637795275
 30
0.0
  0
VERTEX
  5
2EE4
330
2B49
100
AcDbEntity
  8
0
100
AcDbVertex
100
AcDb2dVertex
 10
2.730314960629921
 20
4.809055118110236
 30
0.0
  0
VERTEX
  5
2EE5
330
2B49
100
AcDbEntity
  8
0
100
AcDbVertex
100
AcDb2dVertex
 10
2.755905511811023
 20
4.80511811023622
 30
0.0
  0
SEQEND
  5
2EE6
330
2B49
100
AcDbEntity
  8
0
  0
LINE
  5
2B52
330
1E
100
AcDbEntity
  8
0
100
AcDbLine
 10
2.806102362204724
 20
4.889763779527559
 30
0.0
 11
2.806102362204724
 21
4.889763779527559
 31
0.0
  0
LINE
  5
2B53
330
1E
100
AcDbEntity
  8
0
100
AcDbLine
 10
2.806102362204724
 20
4.889763779527559
 30
0.0
 11
2.80511811023622
 21
4.888779527559054
 31
0.0
  0
LINE
  5
2B54
330
1E
100
AcDbEntity
  8
0
100
AcDbLine
 10
2.644685039370078
 20
7.500984251968503
 30
0.0
 11
2.656496062992125
 21
7.489173228346456
 31
0.0
  0
LINE
  5
2B55
330
1E
100
AcDbEntity
  8
0
100
AcDbLine
 10
2.644685039370078
 20
6.834645669291338
 30
0.0
 11
2.644685039370078
 21
7.500984251968503
 31
0.0
  0
LINE
  5
2B56
330
1E
100
AcDbEntity
  8
0
100
AcDbLine
 10
2.644685039370078
 20
5.560039370078739
 30
0.0
 11
2.644685039370078
 21
4.893700787401574
 31
0.0
  0
LINE
  5
2B57
330
1E
100
AcDbEntity
  8
0
100
AcDbLine
 10
2.656496062992125
 20
7.489173228346456
 30
0.0
 11
2.656496062992125
 21
4.905511811023622
 31
0.0
  0
LINE
  5
2B58
330
1E
100
AcDbEntity
  8
0
100
AcDbLine
 10
2.811023622047244
 20
7.483267716535433
 30
0.0
 11
2.811023622047244
 21
7.144685039370078
 31
0.0
  0
POLYLINE
  5
2B59
330
1E
100
AcDbEntity
  8
0
100
AcDb2dPolyline
 66
     1
 10
0.0
 20
0.0
 30
0.0
  0
VERTEX
  5
2EE7
330
2B59
100
AcDbEntity
  8
0
100
AcDbVertex
100
AcDb2dVertex
 10
2.820866141732283
 20
7.134842519685038
 30
0.0
  0
VERTEX
  5
2EE8
330
2B59
100
AcDbEntity
  8
0
100
AcDbVertex
100
AcDb2dVertex
 10
2.813976377952755
 20
7.136811023622047
 30
0.0
  0
VERTEX
  5
2EE9
330
2B59
100
AcDbEntity
  8
0
100
AcDbVertex
100
AcDb2dVertex
 10
2.811023622047244
 20
7.144685039370078
 30
0.0
  0
SEQEND
  5
2EEA
330
2B59
100
AcDbEntity
  8
0
  0
LINE
  5
2B5E
330
1E
100
AcDbEntity
  8
0
100
AcDbLine
 10
2.820866141732283
 20
7.134842519685038
 30
0.0
 11
2.861220472440944
 21
7.134842519685038
 31
0.0
  0
LINE
  5
2B5F
330
1E
100
AcDbEntity
  8
0
100
AcDbLine
 10
2.861220472440944
 20
7.493110236220472
 30
0.0
 11
2.820866141732283
 21
7.493110236220472
 31
0.0
  0
POLYLINE
  5
2B60
330
1E
100
AcDbEntity
  8
0
100
AcDb2dPolyline
 66
     1
 10
0.0
 20
0.0
 30
0.0
  0
VERTEX
  5
2EEB
330
2B60
100
AcDbEntity
  8
0
100
AcDbVertex
100
AcDb2dVertex
 10
2.811023622047244
 20
7.483267716535433
 30
0.0
  0
VERTEX
  5
2EEC
330
2B60
100
AcDbEntity
  8
0
100
AcDbVertex
100
AcDb2dVertex
 10
2.813976377952755
 20
7.49015748031496
 30
0.0
  0
VERTEX
  5
2EED
330
2B60
100
AcDbEntity
  8
0
100
AcDbVertex
100
AcDb2dVertex
 10
2.820866141732283
 20
7.493110236220472
 30
0.0
  0
SEQEND
  5
2EEE
330
2B60
100
AcDbEntity
  8
0
  0
LINE
  5
2B65
330
1E
100
AcDbEntity
  8
0
100
AcDbLine
 10
2.747047244094487
 20
6.23523622047244
 30
0.0
 11
2.744094488188976
 21
6.231299212598425
 31
0.0
  0
POLYLINE
  5
2B66
330
1E
100
AcDbEntity
  8
0
100
AcDb2dPolyline
 66
     1
 10
0.0
 20
0.0
 30
0.0
  0
VERTEX
  5
2EEF
330
2B66
100
AcDbEntity
  8
0
100
AcDbVertex
100
AcDb2dVertex
 10
2.74507874015748
 20
7.601377952755905
 30
0.0
  0
VERTEX
  5
2EF0
330
2B66
100
AcDbEntity
  8
0
100
AcDbVertex
100
AcDb2dVertex
 10
2.718503937007874
 20
7.597440944881889
 30
0.0
  0
VERTEX
  5
2EF1
330
2B66
100
AcDbEntity
  8
0
100
AcDbVertex
100
AcDb2dVertex
 10
2.694881889763779
 20
7.58759842519685
 30
0.0
  0
VERTEX
  5
2EF2
330
2B66
100
AcDbEntity
  8
0
100
AcDbVertex
100
AcDb2dVertex
 10
2.674212598425196
 20
7.571850393700787
 30
0.0
  0
VERTEX
  5
2EF3
330
2B66
100
AcDbEntity
  8
0
100
AcDbVertex
100
AcDb2dVertex
 10
2.658464566929133
 20
7.551181102362204
 30
0.0
  0
VERTEX
  5
2EF4
330
2B66
100
AcDbEntity
  8
0
100
AcDbVertex
100
AcDb2dVertex
 10
2.648622047244094
 20
7.52755905511811
 30
0.0
  0
VERTEX
  5
2EF5
330
2B66
100
AcDbEntity
  8
0
100
AcDbVertex
100
AcDb2dVertex
 10
2.644685039370078
 20
7.500984251968503
 30
0.0
  0
SEQEND
  5
2EF6
330
2B66
100
AcDbEntity
  8
0
  0
POLYLINE
  5
2B6F
330
1E
100
AcDbEntity
  8
0
100
AcDb2dPolyline
 66
     1
 10
0.0
 20
0.0
 30
0.0
  0
VERTEX
  5
2EF7
330
2B6F
100
AcDbEntity
  8
0
100
AcDbVertex
100
AcDb2dVertex
 10
2.755905511811023
 20
7.589566929133858
 30
0.0
  0
VERTEX
  5
2EF8
330
2B6F
100
AcDbEntity
  8
0
100
AcDbVertex
100
AcDb2dVertex
 10
2.730314960629921
 20
7.585629921259842
 30
0.0
  0
VERTEX
  5
2EF9
330
2B6F
100
AcDbEntity
  8
0
100
AcDbVertex
100
AcDb2dVertex
 10
2.706692913385826
 20
7.575787401574802
 30
0.0
  0
VERTEX
  5
2EFA
330
2B6F
100
AcDbEntity
  8
0
100
AcDbVertex
100
AcDb2dVertex
 10
2.686023622047243
 20
7.560039370078739
 30
0.0
  0
VERTEX
  5
2EFB
330
2B6F
100
AcDbEntity
  8
0
100
AcDbVertex
100
AcDb2dVertex
 10
2.670275590551181
 20
7.539370078740157
 30
0.0
  0
VERTEX
  5
2EFC
330
2B6F
100
AcDbEntity
  8
0
100
AcDbVertex
100
AcDb2dVertex
 10
2.659448818897637
 20
7.515748031496062
 30
0.0
  0
VERTEX
  5
2EFD
330
2B6F
100
AcDbEntity
  8
0
100
AcDbVertex
100
AcDb2dVertex
 10
2.656496062992125
 20
7.489173228346456
 30
0.0
  0
SEQEND
  5
2EFE
330
2B6F
100
AcDbEntity
  8
0
  0
LINE
  5
2B78
330
1E
100
AcDbEntity
  8
0
100
AcDbLine
 10
2.755905511811023
 20
7.589566929133858
 30
0.0
 11
2.74507874015748
 21
7.601377952755905
 31
0.0
  0
LINE
  5
2B79
330
1E
100
AcDbEntity
  8
0
100
AcDbLine
 10
2.741141732283464
 20
4.885826771653543
 30
0.0
 11
2.74507874015748
 21
4.888779527559054
 31
0.0
  0
LINE
  5
2B7A
330
1E
100
AcDbEntity
  8
0
100
AcDbLine
 10
2.741141732283464
 20
5.472440944881889
 30
0.0
 11
2.74507874015748
 21
5.479330708661417
 31
0.0
  0
LINE
  5
2B7B
330
1E
100
AcDbEntity
  8
0
100
AcDbLine
 10
2.741141732283464
 20
5.472440944881889
 30
0.0
 11
2.741141732283464
 21
4.885826771653543
 31
0.0
  0
LINE
  5
2B7C
330
1E
100
AcDbEntity
  8
0
100
AcDbLine
 10
2.737204724409448
 20
5.487204724409449
 30
0.0
 11
2.733267716535432
 21
5.480314960629921
 31
0.0
  0
POLYLINE
  5
2B7D
330
1E
100
AcDbEntity
  8
0
100
AcDb2dPolyline
 66
     1
 10
0.0
 20
0.0
 30
0.0
  0
VERTEX
  5
2EFF
330
2B7D
100
AcDbEntity
  8
0
100
AcDbVertex
100
AcDb2dVertex
 10
2.733267716535432
 20
5.480314960629921
 30
0.0
  0
VERTEX
  5
2F00
330
2B7D
100
AcDbEntity
  8
0
100
AcDbVertex
100
AcDb2dVertex
 10
2.739173228346456
 20
5.478346456692912
 30
0.0
  0
VERTEX
  5
2F01
330
2B7D
100
AcDbEntity
  8
0
100
AcDbVertex
100
AcDb2dVertex
 10
2.741141732283464
 20
5.472440944881889
 30
0.0
  0
SEQEND
  5
2F02
330
2B7D
100
AcDbEntity
  8
0
  0
LINE
  5
2B82
330
1E
100
AcDbEntity
  8
0
100
AcDbLine
 10
2.700787401574803
 20
5.480314960629921
 30
0.0
 11
2.70767716535433
 21
5.487204724409449
 31
0.0
  0
LINE
  5
2B83
330
1E
100
AcDbEntity
  8
0
100
AcDbLine
 10
2.733267716535432
 20
5.480314960629921
 30
0.0
 11
2.700787401574803
 21
5.480314960629921
 31
0.0
  0
LINE
  5
2B84
330
1E
100
AcDbEntity
  8
0
100
AcDbLine
 10
2.699803149606299
 20
5.49507874015748
 30
0.0
 11
2.692913385826771
 21
5.488188976377952
 31
0.0
  0
POLYLINE
  5
2B85
330
1E
100
AcDbEntity
  8
0
100
AcDb2dPolyline
 66
     1
 10
0.0
 20
0.0
 30
0.0
  0
VERTEX
  5
2F03
330
2B85
100
AcDbEntity
  8
0
100
AcDbVertex
100
AcDb2dVertex
 10
2.692913385826771
 20
5.488188976377952
 30
0.0
  0
VERTEX
  5
2F04
330
2B85
100
AcDbEntity
  8
0
100
AcDbVertex
100
AcDb2dVertex
 10
2.695866141732283
 20
5.482283464566928
 30
0.0
  0
VERTEX
  5
2F05
330
2B85
100
AcDbEntity
  8
0
100
AcDbVertex
100
AcDb2dVertex
 10
2.700787401574803
 20
5.480314960629921
 30
0.0
  0
SEQEND
  5
2F06
330
2B85
100
AcDbEntity
  8
0
  0
LINE
  5
2B8A
330
1E
100
AcDbEntity
  8
0
100
AcDbLine
 10
2.692913385826771
 20
5.633858267716535
 30
0.0
 11
2.699803149606299
 21
5.626968503937007
 31
0.0
  0
LINE
  5
2B8B
330
1E
100
AcDbEntity
  8
0
100
AcDbLine
 10
2.692913385826771
 20
5.488188976377952
 30
0.0
 11
2.692913385826771
 21
5.633858267716535
 31
0.0
  0
LINE
  5
2B8C
330
1E
100
AcDbEntity
  8
0
100
AcDbLine
 10
2.70767716535433
 20
5.635826771653543
 30
0.0
 11
2.700787401574803
 21
5.641732283464566
 31
0.0
  0
POLYLINE
  5
2B8D
330
1E
100
AcDbEntity
  8
0
100
AcDb2dPolyline
 66
     1
 10
0.0
 20
0.0
 30
0.0
  0
VERTEX
  5
2F07
330
2B8D
100
AcDbEntity
  8
0
100
AcDbVertex
100
AcDb2dVertex
 10
2.700787401574803
 20
5.641732283464566
 30
0.0
  0
VERTEX
  5
2F08
330
2B8D
100
AcDbEntity
  8
0
100
AcDbVertex
100
AcDb2dVertex
 10
2.695866141732283
 20
5.639763779527559
 30
0.0
  0
VERTEX
  5
2F09
330
2B8D
100
AcDbEntity
  8
0
100
AcDbVertex
100
AcDb2dVertex
 10
2.692913385826771
 20
5.633858267716535
 30
0.0
  0
SEQEND
  5
2F0A
330
2B8D
100
AcDbEntity
  8
0
  0
LINE
  5
2B92
330
1E
100
AcDbEntity
  8
0
100
AcDbLine
 10
2.733267716535432
 20
5.641732283464566
 30
0.0
 11
2.737204724409448
 21
5.635826771653543
 31
0.0
  0
LINE
  5
2B93
330
1E
100
AcDbEntity
  8
0
100
AcDbLine
 10
2.700787401574803
 20
5.641732283464566
 30
0.0
 11
2.733267716535432
 21
5.641732283464566
 31
0.0
  0
LINE
  5
2B94
330
1E
100
AcDbEntity
  8
0
100
AcDbLine
 10
2.74507874015748
 20
5.643700787401574
 30
0.0
 11
2.741141732283464
 21
5.649606299212598
 31
0.0
  0
POLYLINE
  5
2B95
330
1E
100
AcDbEntity
  8
0
100
AcDb2dPolyline
 66
     1
 10
0.0
 20
0.0
 30
0.0
  0
VERTEX
  5
2F0B
330
2B95
100
AcDbEntity
  8
0
100
AcDbVertex
100
AcDb2dVertex
 10
2.741141732283464
 20
5.649606299212598
 30
0.0
  0
VERTEX
  5
2F0C
330
2B95
100
AcDbEntity
  8
0
100
AcDbVertex
100
AcDb2dVertex
 10
2.739173228346456
 20
5.644685039370078
 30
0.0
  0
VERTEX
  5
2F0D
330
2B95
100
AcDbEntity
  8
0
100
AcDbVertex
100
AcDb2dVertex
 10
2.733267716535432
 20
5.641732283464566
 30
0.0
  0
SEQEND
  5
2F0E
330
2B95
100
AcDbEntity
  8
0
  0
LINE
  5
2B9A
330
1E
100
AcDbEntity
  8
0
100
AcDbLine
 10
2.811023622047244
 20
7.144685039370078
 30
0.0
 11
2.81003937007874
 21
7.143700787401574
 31
0.0
  0
POLYLINE
  5
2B9B
330
1E
100
AcDbEntity
  8
0
100
AcDb2dPolyline
 66
     1
 10
0.0
 20
0.0
 30
0.0
  0
VERTEX
  5
2F0F
330
2B9B
100
AcDbEntity
  8
0
100
AcDbVertex
100
AcDb2dVertex
 10
2.81003937007874
 20
7.143700787401574
 30
0.0
  0
VERTEX
  5
2F10
330
2B9B
100
AcDbEntity
  8
0
100
AcDbVertex
100
AcDb2dVertex
 10
2.812992125984251
 20
7.136811023622047
 30
0.0
  0
VERTEX
  5
2F11
330
2B9B
100
AcDbEntity
  8
0
100
AcDbVertex
100
AcDb2dVertex
 10
2.819881889763779
 20
7.133858267716535
 30
0.0
  0
SEQEND
  5
2F12
330
2B9B
100
AcDbEntity
  8
0
  0
LINE
  5
2BA0
330
1E
100
AcDbEntity
  8
0
100
AcDbLine
 10
2.819881889763779
 20
7.133858267716535
 30
0.0
 11
2.820866141732283
 21
7.134842519685038
 31
0.0
  0
LINE
  5
2BA1
330
1E
100
AcDbEntity
  8
0
100
AcDbLine
 10
2.81003937007874
 20
7.484251968503937
 30
0.0
 11
2.811023622047244
 21
7.483267716535433
 31
0.0
  0
LINE
  5
2BA2
330
1E
100
AcDbEntity
  8
0
100
AcDbLine
 10
2.81003937007874
 20
7.484251968503937
 30
0.0
 11
2.81003937007874
 21
7.143700787401574
 31
0.0
  0
LINE
  5
2BA3
330
1E
100
AcDbEntity
  8
0
100
AcDbLine
 10
2.820866141732283
 20
7.493110236220472
 30
0.0
 11
2.819881889763779
 21
7.494094488188975
 31
0.0
  0
POLYLINE
  5
2BA4
330
1E
100
AcDbEntity
  8
0
100
AcDb2dPolyline
 66
     1
 10
0.0
 20
0.0
 30
0.0
  0
VERTEX
  5
2F13
330
2BA4
100
AcDbEntity
  8
0
100
AcDbVertex
100
AcDb2dVertex
 10
2.819881889763779
 20
7.494094488188975
 30
0.0
  0
VERTEX
  5
2F14
330
2BA4
100
AcDbEntity
  8
0
100
AcDbVertex
100
AcDb2dVertex
 10
2.812992125984251
 20
7.491141732283464
 30
0.0
  0
VERTEX
  5
2F15
330
2BA4
100
AcDbEntity
  8
0
100
AcDbVertex
100
AcDb2dVertex
 10
2.81003937007874
 20
7.484251968503937
 30
0.0
  0
SEQEND
  5
2F16
330
2BA4
100
AcDbEntity
  8
0
  0
POLYLINE
  5
2BA9
330
1E
100
AcDbEntity
  8
0
100
AcDb2dPolyline
 66
     1
 10
0.0
 20
0.0
 30
0.0
  0
VERTEX
  5
2F17
330
2BA9
100
AcDbEntity
  8
0
100
AcDbVertex
100
AcDb2dVertex
 10
2.661417322834645
 20
7.489173228346456
 30
0.0
  0
VERTEX
  5
2F18
330
2BA9
100
AcDbEntity
  8
0
100
AcDbVertex
100
AcDb2dVertex
 10
2.666338582677165
 20
7.518700787401574
 30
0.0
  0
VERTEX
  5
2F19
330
2BA9
100
AcDbEntity
  8
0
100
AcDbVertex
100
AcDb2dVertex
 10
2.679133858267716
 20
7.54527559055118
 30
0.0
  0
VERTEX
  5
2F1A
330
2BA9
100
AcDbEntity
  8
0
100
AcDbVertex
100
AcDb2dVertex
 10
2.700787401574803
 20
7.565944881889763
 30
0.0
  0
VERTEX
  5
2F1B
330
2BA9
100
AcDbEntity
  8
0
100
AcDbVertex
100
AcDb2dVertex
 10
2.727362204724409
 20
7.579724409448818
 30
0.0
  0
VERTEX
  5
2F1C
330
2BA9
100
AcDbEntity
  8
0
100
AcDbVertex
100
AcDb2dVertex
 10
2.755905511811023
 20
7.584645669291338
 30
0.0
  0
SEQEND
  5
2F1D
330
2BA9
100
AcDbEntity
  8
0
  0
POLYLINE
  5
2BB1
330
1E
100
AcDbEntity
  8
0
100
AcDb2dPolyline
 66
     1
 10
0.0
 20
0.0
 30
0.0
  0
VERTEX
  5
2F1E
330
2BB1
100
AcDbEntity
  8
0
100
AcDbVertex
100
AcDb2dVertex
 10
2.755905511811023
 20
7.584645669291338
 30
0.0
  0
VERTEX
  5
2F1F
330
2BB1
100
AcDbEntity
  8
0
100
AcDbVertex
100
AcDb2dVertex
 10
2.755905511811023
 20
7.58759842519685
 30
0.0
  0
VERTEX
  5
2F20
330
2BB1
100
AcDbEntity
  8
0
100
AcDbVertex
100
AcDb2dVertex
 10
2.755905511811023
 20
7.589566929133858
 30
0.0
  0
SEQEND
  5
2F21
330
2BB1
100
AcDbEntity
  8
0
  0
POLYLINE
  5
2BB6
330
1E
100
AcDbEntity
  8
0
100
AcDb2dPolyline
 66
     1
 10
0.0
 20
0.0
 30
0.0
  0
VERTEX
  5
2F22
330
2BB6
100
AcDbEntity
  8
0
100
AcDbVertex
100
AcDb2dVertex
 10
2.656496062992125
 20
7.489173228346456
 30
0.0
  0
VERTEX
  5
2F23
330
2BB6
100
AcDbEntity
  8
0
100
AcDbVertex
100
AcDb2dVertex
 10
2.65748031496063
 20
7.489173228346456
 30
0.0
  0
VERTEX
  5
2F24
330
2BB6
100
AcDbEntity
  8
0
100
AcDbVertex
100
AcDb2dVertex
 10
2.661417322834645
 20
7.489173228346456
 30
0.0
  0
SEQEND
  5
2F25
330
2BB6
100
AcDbEntity
  8
0
  0
LINE
  5
2BBB
330
1E
100
AcDbEntity
  8
0
100
AcDbLine
 10
2.661417322834645
 20
4.905511811023622
 30
0.0
 11
2.661417322834645
 21
7.489173228346456
 31
0.0
  0
POLYLINE
  5
2BBC
330
1E
100
AcDbEntity
  8
0
100
AcDb2dPolyline
 66
     1
 10
0.0
 20
0.0
 30
0.0
  0
VERTEX
  5
2F26
330
2BBC
100
AcDbEntity
  8
0
100
AcDbVertex
100
AcDb2dVertex
 10
2.661417322834645
 20
4.905511811023622
 30
0.0
  0
VERTEX
  5
2F27
330
2BBC
100
AcDbEntity
  8
0
100
AcDbVertex
100
AcDb2dVertex
 10
2.65748031496063
 20
4.905511811023622
 30
0.0
  0
VERTEX
  5
2F28
330
2BBC
100
AcDbEntity
  8
0
100
AcDbVertex
100
AcDb2dVertex
 10
2.656496062992125
 20
4.905511811023622
 30
0.0
  0
SEQEND
  5
2F29
330
2BBC
100
AcDbEntity
  8
0
  0
POLYLINE
  5
2BC1
330
1E
100
AcDbEntity
  8
0
100
AcDb2dPolyline
 66
     1
 10
0.0
 20
0.0
 30
0.0
  0
VERTEX
  5
2F2A
330
2BC1
100
AcDbEntity
  8
0
100
AcDbVertex
100
AcDb2dVertex
 10
2.755905511811023
 20
4.80511811023622
 30
0.0
  0
VERTEX
  5
2F2B
330
2BC1
100
AcDbEntity
  8
0
100
AcDbVertex
100
AcDb2dVertex
 10
2.755905511811023
 20
4.807086614173228
 30
0.0
  0
VERTEX
  5
2F2C
330
2BC1
100
AcDbEntity
  8
0
100
AcDbVertex
100
AcDb2dVertex
 10
2.755905511811023
 20
4.810039370078739
 30
0.0
  0
SEQEND
  5
2F2D
330
2BC1
100
AcDbEntity
  8
0
  0
POLYLINE
  5
2BC6
330
1E
100
AcDbEntity
  8
0
100
AcDb2dPolyline
 66
     1
 10
0.0
 20
0.0
 30
0.0
  0
VERTEX
  5
2F2E
330
2BC6
100
AcDbEntity
  8
0
100
AcDbVertex
100
AcDb2dVertex
 10
2.755905511811023
 20
4.810039370078739
 30
0.0
  0
VERTEX
  5
2F2F
330
2BC6
100
AcDbEntity
  8
0
100
AcDbVertex
100
AcDb2dVertex
 10
2.727362204724409
 20
4.81496062992126
 30
0.0
  0
VERTEX
  5
2F30
330
2BC6
100
AcDbEntity
  8
0
100
AcDbVertex
100
AcDb2dVertex
 10
2.700787401574803
 20
4.828740157480314
 30
0.0
  0
VERTEX
  5
2F31
330
2BC6
100
AcDbEntity
  8
0
100
AcDbVertex
100
AcDb2dVertex
 10
2.679133858267716
 20
4.849409448818897
 30
0.0
  0
VERTEX
  5
2F32
330
2BC6
100
AcDbEntity
  8
0
100
AcDbVertex
100
AcDb2dVertex
 10
2.666338582677165
 20
4.875984251968503
 30
0.0
  0
VERTEX
  5
2F33
330
2BC6
100
AcDbEntity
  8
0
100
AcDbVertex
100
AcDb2dVertex
 10
2.661417322834645
 20
4.905511811023622
 30
0.0
  0
SEQEND
  5
2F34
330
2BC6
100
AcDbEntity
  8
0
  0
LINE
  5
2BCE
330
1E
100
AcDbEntity
  8
0
100
AcDbLine
 10
2.744094488188976
 20
6.231299212598425
 30
0.0
 11
2.743110236220472
 21
6.23523622047244
 31
0.0
  0
LINE
  5
2BCF
330
1E
100
AcDbEntity
  8
0
100
AcDbLine
 10
2.743110236220472
 20
6.23523622047244
 30
0.0
 11
2.741141732283464
 21
6.237204724409449
 31
0.0
  0
LINE
  5
2BD0
330
1E
100
AcDbEntity
  8
0
100
AcDbLine
 10
2.741141732283464
 20
6.237204724409449
 30
0.0
 11
2.741141732283464
 21
5.649606299212598
 31
0.0
  0
LINE
  5
2BD1
330
1E
100
AcDbEntity
  8
0
100
AcDbLine
 10
2.743110236220472
 20
6.23523622047244
 30
0.0
 11
2.747047244094487
 21
6.23523622047244
 31
0.0
  0
LINE
  5
2BD2
330
1E
100
AcDbEntity
  8
0
100
AcDbLine
 10
2.861220472440944
 20
7.134842519685038
 30
0.0
 11
2.864173228346456
 21
7.134842519685038
 31
0.0
  0
LINE
  5
2BD3
330
1E
100
AcDbEntity
  8
0
100
AcDbLine
 10
2.864173228346456
 20
7.134842519685038
 30
0.0
 11
2.864173228346456
 21
7.493110236220472
 31
0.0
  0
LINE
  5
2BD4
330
1E
100
AcDbEntity
  8
0
100
AcDbLine
 10
2.864173228346456
 20
7.493110236220472
 30
0.0
 11
2.861220472440944
 21
7.493110236220472
 31
0.0
  0
LINE
  5
2BD5
330
1E
100
AcDbEntity
  8
0
100
AcDbLine
 10
4.306102362204724
 20
7.589566929133858
 30
0.0
 11
2.755905511811023
 21
7.589566929133858
 31
0.0
  0
LINE
  5
2BD6
330
1E
100
AcDbEntity
  8
0
100
AcDbLine
 10
4.306102362204724
 20
7.589566929133858
 30
0.0
 11
4.316929133858267
 21
7.601377952755905
 31
0.0
  0
LINE
  5
2BD7
330
1E
100
AcDbEntity
  8
0
100
AcDbLine
 10
2.74507874015748
 20
7.601377952755905
 30
0.0
 11
4.316929133858267
 21
7.601377952755905
 31
0.0
  0
LINE
  5
2BD8
330
1E
100
AcDbEntity
  8
0
100
AcDbLine
 10
2.747047244094487
 20
6.23523622047244
 30
0.0
 11
2.75
 21
6.23523622047244
 31
0.0
  0
LINE
  5
2BD9
330
1E
100
AcDbEntity
  8
0
100
AcDbLine
 10
4.312007874015748
 20
6.23523622047244
 30
0.0
 11
4.31496062992126
 21
6.23523622047244
 31
0.0
  0
LINE
  5
2BDA
330
1E
100
AcDbEntity
  8
0
100
AcDbLine
 10
4.318897637795275
 20
6.23523622047244
 30
0.0
 11
4.31496062992126
 21
6.23523622047244
 31
0.0
  0
LINE
  5
2BDB
330
1E
100
AcDbEntity
  8
0
100
AcDbLine
 10
4.318897637795275
 20
6.23523622047244
 30
0.0
 11
4.320866141732283
 21
6.237204724409449
 31
0.0
  0
LINE
  5
2BDC
330
1E
100
AcDbEntity
  8
0
100
AcDbLine
 10
2.741141732283464
 20
6.237204724409449
 30
0.0
 11
4.320866141732283
 21
6.237204724409449
 31
0.0
  0
LINE
  5
2BDD
330
1E
100
AcDbEntity
  8
0
100
AcDbLine
 10
2.755905511811023
 20
4.80511811023622
 30
0.0
 11
4.306102362204724
 21
4.80511811023622
 31
0.0
  0
POLYLINE
  5
2BDE
330
1E
100
AcDbEntity
  8
0
100
AcDb2dPolyline
 66
     1
 10
0.0
 20
0.0
 30
0.0
  0
VERTEX
  5
2F35
330
2BDE
100
AcDbEntity
  8
0
100
AcDbVertex
100
AcDb2dVertex
 10
4.306102362204724
 20
4.80511811023622
 30
0.0
  0
VERTEX
  5
2F36
330
2BDE
100
AcDbEntity
  8
0
100
AcDbVertex
100
AcDb2dVertex
 10
4.306102362204724
 20
4.807086614173228
 30
0.0
  0
VERTEX
  5
2F37
330
2BDE
100
AcDbEntity
  8
0
100
AcDbVertex
100
AcDb2dVertex
 10
4.306102362204724
 20
4.810039370078739
 30
0.0
  0
SEQEND
  5
2F38
330
2BDE
100
AcDbEntity
  8
0
  0
LINE
  5
2BE3
330
1E
100
AcDbEntity
  8
0
100
AcDbLine
 10
4.306102362204724
 20
4.810039370078739
 30
0.0
 11
2.755905511811023
 21
4.810039370078739
 31
0.0
  0
POLYLINE
  5
2BE4
330
1E
100
AcDbEntity
  8
0
100
AcDb2dPolyline
 66
     1
 10
0.0
 20
0.0
 30
0.0
  0
VERTEX
  5
2F39
330
2BE4
100
AcDbEntity
  8
0
100
AcDbVertex
100
AcDb2dVertex
 10
4.251968503937007
 20
7.143700787401574
 30
0.0
  0
VERTEX
  5
2F3A
330
2BE4
100
AcDbEntity
  8
0
100
AcDbVertex
100
AcDb2dVertex
 10
4.249015748031496
 20
7.136811023622047
 30
0.0
  0
VERTEX
  5
2F3B
330
2BE4
100
AcDbEntity
  8
0
100
AcDbVertex
100
AcDb2dVertex
 10
4.242125984251968
 20
7.133858267716535
 30
0.0
  0
SEQEND
  5
2F3C
330
2BE4
100
AcDbEntity
  8
0
  0
LINE
  5
2BE9
330
1E
100
AcDbEntity
  8
0
100
AcDbLine
 10
4.242125984251968
 20
7.133858267716535
 30
0.0
 11
2.819881889763779
 21
7.133858267716535
 31
0.0
  0
LINE
  5
2BEA
330
1E
100
AcDbEntity
  8
0
100
AcDbLine
 10
2.819881889763779
 20
7.494094488188975
 30
0.0
 11
4.242125984251968
 21
7.494094488188975
 31
0.0
  0
POLYLINE
  5
2BEB
330
1E
100
AcDbEntity
  8
0
100
AcDb2dPolyline
 66
     1
 10
0.0
 20
0.0
 30
0.0
  0
VERTEX
  5
2F3D
330
2BEB
100
AcDbEntity
  8
0
100
AcDbVertex
100
AcDb2dVertex
 10
4.242125984251968
 20
7.494094488188975
 30
0.0
  0
VERTEX
  5
2F3E
330
2BEB
100
AcDbEntity
  8
0
100
AcDbVertex
100
AcDb2dVertex
 10
4.249015748031496
 20
7.491141732283464
 30
0.0
  0
VERTEX
  5
2F3F
330
2BEB
100
AcDbEntity
  8
0
100
AcDbVertex
100
AcDb2dVertex
 10
4.251968503937007
 20
7.484251968503937
 30
0.0
  0
SEQEND
  5
2F40
330
2BEB
100
AcDbEntity
  8
0
  0
LINE
  5
2BF0
330
1E
100
AcDbEntity
  8
0
100
AcDbLine
 10
4.251968503937007
 20
7.484251968503937
 30
0.0
 11
4.251968503937007
 21
7.143700787401574
 31
0.0
  0
POLYLINE
  5
2BF1
330
1E
100
AcDbEntity
  8
0
100
AcDb2dPolyline
 66
     1
 10
0.0
 20
0.0
 30
0.0
  0
VERTEX
  5
2F41
330
2BF1
100
AcDbEntity
  8
0
100
AcDbVertex
100
AcDb2dVertex
 10
4.400590551181101
 20
7.489173228346456
 30
0.0
  0
VERTEX
  5
2F42
330
2BF1
100
AcDbEntity
  8
0
100
AcDbVertex
100
AcDb2dVertex
 10
4.395669291338582
 20
7.518700787401574
 30
0.0
  0
VERTEX
  5
2F43
330
2BF1
100
AcDbEntity
  8
0
100
AcDbVertex
100
AcDb2dVertex
 10
4.382874015748031
 20
7.54527559055118
 30
0.0
  0
VERTEX
  5
2F44
330
2BF1
100
AcDbEntity
  8
0
100
AcDbVertex
100
AcDb2dVertex
 10
4.361220472440944
 20
7.565944881889763
 30
0.0
  0
VERTEX
  5
2F45
330
2BF1
100
AcDbEntity
  8
0
100
AcDbVertex
100
AcDb2dVertex
 10
4.334645669291338
 20
7.579724409448818
 30
0.0
  0
VERTEX
  5
2F46
330
2BF1
100
AcDbEntity
  8
0
100
AcDbVertex
100
AcDb2dVertex
 10
4.306102362204724
 20
7.584645669291338
 30
0.0
  0
SEQEND
  5
2F47
330
2BF1
100
AcDbEntity
  8
0
  0
LINE
  5
2BF9
330
1E
100
AcDbEntity
  8
0
100
AcDbLine
 10
2.755905511811023
 20
7.584645669291338
 30
0.0
 11
4.306102362204724
 21
7.584645669291338
 31
0.0
  0
POLYLINE
  5
2BFA
330
1E
100
AcDbEntity
  8
0
100
AcDb2dPolyline
 66
     1
 10
0.0
 20
0.0
 30
0.0
  0
VERTEX
  5
2F48
330
2BFA
100
AcDbEntity
  8
0
100
AcDbVertex
100
AcDb2dVertex
 10
4.306102362204724
 20
4.810039370078739
 30
0.0
  0
VERTEX
  5
2F49
330
2BFA
100
AcDbEntity
  8
0
100
AcDbVertex
100
AcDb2dVertex
 10
4.334645669291338
 20
4.81496062992126
 30
0.0
  0
VERTEX
  5
2F4A
330
2BFA
100
AcDbEntity
  8
0
100
AcDbVertex
100
AcDb2dVertex
 10
4.361220472440944
 20
4.828740157480314
 30
0.0
  0
VERTEX
  5
2F4B
330
2BFA
100
AcDbEntity
  8
0
100
AcDbVertex
100
AcDb2dVertex
 10
4.382874015748031
 20
4.849409448818897
 30
0.0
  0
VERTEX
  5
2F4C
330
2BFA
100
AcDbEntity
  8
0
100
AcDbVertex
100
AcDb2dVertex
 10
4.395669291338582
 20
4.875984251968503
 30
0.0
  0
VERTEX
  5
2F4D
330
2BFA
100
AcDbEntity
  8
0
100
AcDbVertex
100
AcDb2dVertex
 10
4.400590551181101
 20
4.905511811023622
 30
0.0
  0
SEQEND
  5
2F4E
330
2BFA
100
AcDbEntity
  8
0
  0
LINE
  5
2C02
330
1E
100
AcDbEntity
  8
0
100
AcDbLine
 10
4.400590551181101
 20
4.905511811023622
 30
0.0
 11
4.400590551181101
 21
7.489173228346456
 31
0.0
  0
LINE
  5
2C03
330
1E
100
AcDbEntity
  8
0
100
AcDbLine
 10
4.320866141732283
 20
6.237204724409449
 30
0.0
 11
4.320866141732283
 21
5.649606299212598
 31
0.0
  0
POLYLINE
  5
2C04
330
1E
100
AcDbEntity
  8
0
100
AcDb2dPolyline
 66
     1
 10
0.0
 20
0.0
 30
0.0
  0
VERTEX
  5
2F4F
330
2C04
100
AcDbEntity
  8
0
100
AcDbVertex
100
AcDb2dVertex
 10
4.320866141732283
 20
5.649606299212598
 30
0.0
  0
VERTEX
  5
2F50
330
2C04
100
AcDbEntity
  8
0
100
AcDbVertex
100
AcDb2dVertex
 10
4.322834645669291
 20
5.644685039370078
 30
0.0
  0
VERTEX
  5
2F51
330
2C04
100
AcDbEntity
  8
0
100
AcDbVertex
100
AcDb2dVertex
 10
4.328740157480314
 20
5.641732283464566
 30
0.0
  0
SEQEND
  5
2F52
330
2C04
100
AcDbEntity
  8
0
  0
LINE
  5
2C09
330
1E
100
AcDbEntity
  8
0
100
AcDbLine
 10
4.361220472440944
 20
5.641732283464566
 30
0.0
 11
4.328740157480314
 21
5.641732283464566
 31
0.0
  0
POLYLINE
  5
2C0A
330
1E
100
AcDbEntity
  8
0
100
AcDb2dPolyline
 66
     1
 10
0.0
 20
0.0
 30
0.0
  0
VERTEX
  5
2F53
330
2C0A
100
AcDbEntity
  8
0
100
AcDbVertex
100
AcDb2dVertex
 10
4.361220472440944
 20
5.641732283464566
 30
0.0
  0
VERTEX
  5
2F54
330
2C0A
100
AcDbEntity
  8
0
100
AcDbVertex
100
AcDb2dVertex
 10
4.366141732283464
 20
5.639763779527559
 30
0.0
  0
VERTEX
  5
2F55
330
2C0A
100
AcDbEntity
  8
0
100
AcDbVertex
100
AcDb2dVertex
 10
4.369094488188975
 20
5.633858267716535
 30
0.0
  0
SEQEND
  5
2F56
330
2C0A
100
AcDbEntity
  8
0
  0
LINE
  5
2C0F
330
1E
100
AcDbEntity
  8
0
100
AcDbLine
 10
4.369094488188975
 20
5.488188976377952
 30
0.0
 11
4.369094488188975
 21
5.633858267716535
 31
0.0
  0
POLYLINE
  5
2C10
330
1E
100
AcDbEntity
  8
0
100
AcDb2dPolyline
 66
     1
 10
0.0
 20
0.0
 30
0.0
  0
VERTEX
  5
2F57
330
2C10
100
AcDbEntity
  8
0
100
AcDbVertex
100
AcDb2dVertex
 10
4.369094488188975
 20
5.488188976377952
 30
0.0
  0
VERTEX
  5
2F58
330
2C10
100
AcDbEntity
  8
0
100
AcDbVertex
100
AcDb2dVertex
 10
4.366141732283464
 20
5.482283464566928
 30
0.0
  0
VERTEX
  5
2F59
330
2C10
100
AcDbEntity
  8
0
100
AcDbVertex
100
AcDb2dVertex
 10
4.361220472440944
 20
5.480314960629921
 30
0.0
  0
SEQEND
  5
2F5A
330
2C10
100
AcDbEntity
  8
0
  0
LINE
  5
2C15
330
1E
100
AcDbEntity
  8
0
100
AcDbLine
 10
4.328740157480314
 20
5.480314960629921
 30
0.0
 11
4.361220472440944
 21
5.480314960629921
 31
0.0
  0
POLYLINE
  5
2C16
330
1E
100
AcDbEntity
  8
0
100
AcDb2dPolyline
 66
     1
 10
0.0
 20
0.0
 30
0.0
  0
VERTEX
  5
2F5B
330
2C16
100
AcDbEntity
  8
0
100
AcDbVertex
100
AcDb2dVertex
 10
4.328740157480314
 20
5.480314960629921
 30
0.0
  0
VERTEX
  5
2F5C
330
2C16
100
AcDbEntity
  8
0
100
AcDbVertex
100
AcDb2dVertex
 10
4.322834645669291
 20
5.478346456692912
 30
0.0
  0
VERTEX
  5
2F5D
330
2C16
100
AcDbEntity
  8
0
100
AcDbVertex
100
AcDb2dVertex
 10
4.320866141732283
 20
5.472440944881889
 30
0.0
  0
SEQEND
  5
2F5E
330
2C16
100
AcDbEntity
  8
0
  0
LINE
  5
2C1B
330
1E
100
AcDbEntity
  8
0
100
AcDbLine
 10
4.320866141732283
 20
5.472440944881889
 30
0.0
 11
4.320866141732283
 21
4.885826771653543
 31
0.0
  0
LINE
  5
2C1C
330
1E
100
AcDbEntity
  8
0
100
AcDbLine
 10
4.320866141732283
 20
4.885826771653543
 30
0.0
 11
2.741141732283464
 21
4.885826771653543
 31
0.0
  0
POLYLINE
  5
2C1D
330
1E
100
AcDbEntity
  8
0
100
AcDb2dPolyline
 66
     1
 10
0.0
 20
0.0
 30
0.0
  0
VERTEX
  5
2F5F
330
2C1D
100
AcDbEntity
  8
0
100
AcDbVertex
100
AcDb2dVertex
 10
4.306102362204724
 20
7.584645669291338
 30
0.0
  0
VERTEX
  5
2F60
330
2C1D
100
AcDbEntity
  8
0
100
AcDbVertex
100
AcDb2dVertex
 10
4.306102362204724
 20
7.58759842519685
 30
0.0
  0
VERTEX
  5
2F61
330
2C1D
100
AcDbEntity
  8
0
100
AcDbVertex
100
AcDb2dVertex
 10
4.306102362204724
 20
7.589566929133858
 30
0.0
  0
SEQEND
  5
2F62
330
2C1D
100
AcDbEntity
  8
0
  0
LINE
  5
2C22
330
1E
100
AcDbEntity
  8
0
100
AcDbLine
 10
2.864173228346456
 20
7.134842519685038
 30
0.0
 11
4.197834645669291
 21
7.134842519685038
 31
0.0
  0
LINE
  5
2C23
330
1E
100
AcDbEntity
  8
0
100
AcDbLine
 10
4.242125984251968
 20
7.133858267716535
 30
0.0
 11
4.241141732283464
 21
7.134842519685038
 31
0.0
  0
LINE
  5
2C24
330
1E
100
AcDbEntity
  8
0
100
AcDbLine
 10
4.241141732283464
 20
7.134842519685038
 30
0.0
 11
4.200787401574802
 21
7.134842519685038
 31
0.0
  0
LINE
  5
2C25
330
1E
100
AcDbEntity
  8
0
100
AcDbLine
 10
4.200787401574802
 20
7.134842519685038
 30
0.0
 11
4.197834645669291
 21
7.134842519685038
 31
0.0
  0
LINE
  5
2C26
330
1E
100
AcDbEntity
  8
0
100
AcDbLine
 10
4.197834645669291
 20
7.493110236220472
 30
0.0
 11
2.864173228346456
 21
7.493110236220472
 31
0.0
  0
LINE
  5
2C27
330
1E
100
AcDbEntity
  8
0
100
AcDbLine
 10
4.197834645669291
 20
7.493110236220472
 30
0.0
 11
4.200787401574802
 21
7.493110236220472
 31
0.0
  0
LINE
  5
2C28
330
1E
100
AcDbEntity
  8
0
100
AcDbLine
 10
4.200787401574802
 20
7.493110236220472
 30
0.0
 11
4.241141732283464
 21
7.493110236220472
 31
0.0
  0
LINE
  5
2C29
330
1E
100
AcDbEntity
  8
0
100
AcDbLine
 10
4.241141732283464
 20
7.493110236220472
 30
0.0
 11
4.242125984251968
 21
7.494094488188975
 31
0.0
  0
LINE
  5
2C2A
330
1E
100
AcDbEntity
  8
0
100
AcDbLine
 10
4.197834645669291
 20
7.134842519685038
 30
0.0
 11
4.197834645669291
 21
7.493110236220472
 31
0.0
  0
POLYLINE
  5
2C2B
330
1E
100
AcDbEntity
  8
0
100
AcDb2dPolyline
 66
     1
 10
0.0
 20
0.0
 30
0.0
  0
VERTEX
  5
2F63
330
2C2B
100
AcDbEntity
  8
0
100
AcDbVertex
100
AcDb2dVertex
 10
4.316929133858267
 20
7.601377952755905
 30
0.0
  0
VERTEX
  5
2F64
330
2C2B
100
AcDbEntity
  8
0
100
AcDbVertex
100
AcDb2dVertex
 10
4.343503937007874
 20
7.597440944881889
 30
0.0
  0
VERTEX
  5
2F65
330
2C2B
100
AcDbEntity
  8
0
100
AcDbVertex
100
AcDb2dVertex
 10
4.367125984251968
 20
7.58759842519685
 30
0.0
  0
VERTEX
  5
2F66
330
2C2B
100
AcDbEntity
  8
0
100
AcDbVertex
100
AcDb2dVertex
 10
4.38779527559055
 20
7.571850393700787
 30
0.0
  0
VERTEX
  5
2F67
330
2C2B
100
AcDbEntity
  8
0
100
AcDbVertex
100
AcDb2dVertex
 10
4.403543307086613
 20
7.551181102362204
 30
0.0
  0
VERTEX
  5
2F68
330
2C2B
100
AcDbEntity
  8
0
100
AcDbVertex
100
AcDb2dVertex
 10
4.414370078740157
 20
7.52755905511811
 30
0.0
  0
VERTEX
  5
2F69
330
2C2B
100
AcDbEntity
  8
0
100
AcDbVertex
100
AcDb2dVertex
 10
4.417322834645669
 20
7.500984251968503
 30
0.0
  0
SEQEND
  5
2F6A
330
2C2B
100
AcDbEntity
  8
0
  0
LINE
  5
2C34
330
1E
100
AcDbEntity
  8
0
100
AcDbLine
 10
4.417322834645669
 20
6.834645669291338
 30
0.0
 11
4.417322834645669
 21
7.500984251968503
 31
0.0
  0
LINE
  5
2C35
330
1E
100
AcDbEntity
  8
0
100
AcDbLine
 10
2.806102362204724
 20
4.889763779527559
 30
0.0
 11
4.255905511811023
 21
4.889763779527559
 31
0.0
  0
LINE
  5
2C36
330
1E
100
AcDbEntity
  8
0
100
AcDbLine
 10
4.255905511811023
 20
4.889763779527559
 30
0.0
 11
4.255905511811023
 21
4.889763779527559
 31
0.0
  0
LINE
  5
2C37
330
1E
100
AcDbEntity
  8
0
100
AcDbLine
 10
4.255905511811023
 20
4.889763779527559
 30
0.0
 11
2.806102362204724
 21
4.889763779527559
 31
0.0
  0
LINE
  5
2C38
330
1E
100
AcDbEntity
  8
0
100
AcDbLine
 10
4.316929133858267
 20
4.793307086614173
 30
0.0
 11
2.74507874015748
 21
4.793307086614173
 31
0.0
  0
LINE
  5
2C39
330
1E
100
AcDbEntity
  8
0
100
AcDbLine
 10
4.417322834645669
 20
5.560039370078739
 30
0.0
 11
4.417322834645669
 21
4.893700787401574
 31
0.0
  0
POLYLINE
  5
2C3A
330
1E
100
AcDbEntity
  8
0
100
AcDb2dPolyline
 66
     1
 10
0.0
 20
0.0
 30
0.0
  0
VERTEX
  5
2F6B
330
2C3A
100
AcDbEntity
  8
0
100
AcDbVertex
100
AcDb2dVertex
 10
4.417322834645669
 20
4.893700787401574
 30
0.0
  0
VERTEX
  5
2F6C
330
2C3A
100
AcDbEntity
  8
0
100
AcDbVertex
100
AcDb2dVertex
 10
4.414370078740157
 20
4.867125984251968
 30
0.0
  0
VERTEX
  5
2F6D
330
2C3A
100
AcDbEntity
  8
0
100
AcDbVertex
100
AcDb2dVertex
 10
4.403543307086613
 20
4.843503937007874
 30
0.0
  0
VERTEX
  5
2F6E
330
2C3A
100
AcDbEntity
  8
0
100
AcDbVertex
100
AcDb2dVertex
 10
4.38779527559055
 20
4.822834645669291
 30
0.0
  0
VERTEX
  5
2F6F
330
2C3A
100
AcDbEntity
  8
0
100
AcDbVertex
100
AcDb2dVertex
 10
4.367125984251968
 20
4.807086614173228
 30
0.0
  0
VERTEX
  5
2F70
330
2C3A
100
AcDbEntity
  8
0
100
AcDbVertex
100
AcDb2dVertex
 10
4.343503937007874
 20
4.797244094488188
 30
0.0
  0
VERTEX
  5
2F71
330
2C3A
100
AcDbEntity
  8
0
100
AcDbVertex
100
AcDb2dVertex
 10
4.316929133858267
 20
4.793307086614173
 30
0.0
  0
SEQEND
  5
2F72
330
2C3A
100
AcDbEntity
  8
0
  0
LINE
  5
2C43
330
1E
100
AcDbEntity
  8
0
100
AcDbLine
 10
4.316929133858267
 20
4.793307086614173
 30
0.0
 11
4.306102362204724
 21
4.80511811023622
 31
0.0
  0
LINE
  5
2C44
330
1E
100
AcDbEntity
  8
0
100
AcDbLine
 10
4.320866141732283
 20
4.885826771653543
 30
0.0
 11
4.316929133858267
 21
4.888779527559054
 31
0.0
  0
LINE
  5
2C45
330
1E
100
AcDbEntity
  8
0
100
AcDbLine
 10
4.316929133858267
 20
4.888779527559054
 30
0.0
 11
4.256889763779527
 21
4.888779527559054
 31
0.0
  0
LINE
  5
2C46
330
1E
100
AcDbEntity
  8
0
100
AcDbLine
 10
4.255905511811023
 20
4.889763779527559
 30
0.0
 11
4.256889763779527
 21
4.888779527559054
 31
0.0
  0
LINE
  5
2C47
330
1E
100
AcDbEntity
  8
0
100
AcDbLine
 10
4.5501968503937
 20
6.355314960629921
 30
0.0
 11
4.5501968503937
 21
6.039370078740157
 31
0.0
  0
LINE
  5
2C48
330
1E
100
AcDbEntity
  8
0
100
AcDbLine
 10
4.508858267716535
 20
6.077755905511811
 30
0.0
 11
4.508858267716535
 21
6.316929133858267
 31
0.0
  0
LINE
  5
2C49
330
1E
100
AcDbEntity
  8
0
100
AcDbLine
 10
4.508858267716535
 20
6.077755905511811
 30
0.0
 11
4.503937007874015
 21
6.071850393700787
 31
0.0
  0
LINE
  5
2C4A
330
1E
100
AcDbEntity
  8
0
100
AcDbLine
 10
4.503937007874015
 20
6.321850393700787
 30
0.0
 11
4.508858267716535
 21
6.316929133858267
 31
0.0
  0
LINE
  5
2C4B
330
1E
100
AcDbEntity
  8
0
100
AcDbLine
 10
4.5501968503937
 20
6.355314960629921
 30
0.0
 11
4.511811023622047
 21
6.355314960629921
 31
0.0
  0
POLYLINE
  5
2C4C
330
1E
100
AcDbEntity
  8
0
100
AcDb2dPolyline
 66
     1
 10
0.0
 20
0.0
 30
0.0
  0
VERTEX
  5
2F73
330
2C4C
100
AcDbEntity
  8
0
100
AcDbVertex
100
AcDb2dVertex
 10
4.511811023622047
 20
6.355314960629921
 30
0.0
  0
VERTEX
  5
2F74
330
2C4C
100
AcDbEntity
  8
0
100
AcDbVertex
100
AcDb2dVertex
 10
4.503937007874015
 20
6.358267716535433
 30
0.0
  0
VERTEX
  5
2F75
330
2C4C
100
AcDbEntity
  8
0
100
AcDbVertex
100
AcDb2dVertex
 10
4.500984251968503
 20
6.36515748031496
 30
0.0
  0
SEQEND
  5
2F76
330
2C4C
100
AcDbEntity
  8
0
  0
LINE
  5
2C51
330
1E
100
AcDbEntity
  8
0
100
AcDbLine
 10
4.553149606299212
 20
6.450787401574802
 30
0.0
 11
4.500984251968503
 21
6.450787401574802
 31
0.0
  0
LINE
  5
2C52
330
1E
100
AcDbEntity
  8
0
100
AcDbLine
 10
4.530511811023622
 20
6.572834645669291
 30
0.0
 11
4.448818897637795
 21
6.572834645669291
 31
0.0
  0
LINE
  5
2C53
330
1E
100
AcDbEntity
  8
0
100
AcDbLine
 10
4.448818897637795
 20
6.572834645669291
 30
0.0
 11
4.446850393700787
 21
6.571850393700787
 31
0.0
  0
LINE
  5
2C54
330
1E
100
AcDbEntity
  8
0
100
AcDbLine
 10
4.529527559055117
 20
6.571850393700787
 30
0.0
 11
4.446850393700787
 21
6.571850393700787
 31
0.0
  0
LINE
  5
2C55
330
1E
100
AcDbEntity
  8
0
100
AcDbLine
 10
4.529527559055117
 20
6.571850393700787
 30
0.0
 11
4.530511811023622
 21
6.572834645669291
 31
0.0
  0
LINE
  5
2C56
330
1E
100
AcDbEntity
  8
0
100
AcDbLine
 10
4.530511811023622
 20
6.572834645669291
 30
0.0
 11
4.530511811023622
 21
6.499015748031496
 31
0.0
  0
LINE
  5
2C57
330
1E
100
AcDbEntity
  8
0
100
AcDbLine
 10
4.553149606299212
 20
6.450787401574802
 30
0.0
 11
4.553149606299212
 21
6.499015748031496
 31
0.0
  0
LINE
  5
2C58
330
1E
100
AcDbEntity
  8
0
100
AcDbLine
 10
4.553149606299212
 20
5.943897637795275
 30
0.0
 11
4.553149606299212
 21
5.895669291338582
 31
0.0
  0
LINE
  5
2C59
330
1E
100
AcDbEntity
  8
0
100
AcDbLine
 10
4.530511811023622
 20
5.821850393700787
 30
0.0
 11
4.530511811023622
 21
5.895669291338582
 31
0.0
  0
LINE
  5
2C5A
330
1E
100
AcDbEntity
  8
0
100
AcDbLine
 10
4.553149606299212
 20
5.943897637795275
 30
0.0
 11
4.551181102362204
 21
5.942913385826771
 31
0.0
  0
LINE
  5
2C5B
330
1E
100
AcDbEntity
  8
0
100
AcDbLine
 10
4.553149606299212
 20
5.943897637795275
 30
0.0
 11
4.500984251968503
 21
5.943897637795275
 31
0.0
  0
LINE
  5
2C5C
330
1E
100
AcDbEntity
  8
0
100
AcDbLine
 10
4.500984251968503
 20
5.943897637795275
 30
0.0
 11
4.498031496062991
 21
5.940944881889763
 31
0.0
  0
LINE
  5
2C5D
330
1E
100
AcDbEntity
  8
0
100
AcDbLine
 10
4.498031496062991
 20
5.940944881889763
 30
0.0
 11
4.551181102362204
 21
5.942913385826771
 31
0.0
  0
LINE
  5
2C5E
330
1E
100
AcDbEntity
  8
0
100
AcDbLine
 10
4.553149606299212
 20
6.450787401574802
 30
0.0
 11
4.551181102362204
 21
6.451771653543307
 31
0.0
  0
LINE
  5
2C5F
330
1E
100
AcDbEntity
  8
0
100
AcDbLine
 10
4.498031496062991
 20
6.453740157480314
 30
0.0
 11
4.551181102362204
 21
6.451771653543307
 31
0.0
  0
LINE
  5
2C60
330
1E
100
AcDbEntity
  8
0
100
AcDbLine
 10
4.500984251968503
 20
6.450787401574802
 30
0.0
 11
4.498031496062991
 21
6.453740157480314
 31
0.0
  0
LINE
  5
2C61
330
1E
100
AcDbEntity
  8
0
100
AcDbLine
 10
4.500984251968503
 20
6.450787401574802
 30
0.0
 11
4.500984251968503
 21
6.36515748031496
 31
0.0
  0
LINE
  5
2C62
330
1E
100
AcDbEntity
  8
0
100
AcDbLine
 10
4.500984251968503
 20
6.36515748031496
 30
0.0
 11
4.500984251968503
 21
6.321850393700787
 31
0.0
  0
LINE
  5
2C63
330
1E
100
AcDbEntity
  8
0
100
AcDbLine
 10
4.500984251968503
 20
6.321850393700787
 30
0.0
 11
4.503937007874015
 21
6.321850393700787
 31
0.0
  0
LINE
  5
2C64
330
1E
100
AcDbEntity
  8
0
100
AcDbLine
 10
4.500984251968503
 20
6.071850393700787
 30
0.0
 11
4.503937007874015
 21
6.071850393700787
 31
0.0
  0
LINE
  5
2C65
330
1E
100
AcDbEntity
  8
0
100
AcDbLine
 10
4.500984251968503
 20
6.029527559055117
 30
0.0
 11
4.500984251968503
 21
6.071850393700787
 31
0.0
  0
POLYLINE
  5
2C66
330
1E
100
AcDbEntity
  8
0
100
AcDb2dPolyline
 66
     1
 10
0.0
 20
0.0
 30
0.0
  0
VERTEX
  5
2F77
330
2C66
100
AcDbEntity
  8
0
100
AcDbVertex
100
AcDb2dVertex
 10
4.500984251968503
 20
6.029527559055117
 30
0.0
  0
VERTEX
  5
2F78
330
2C66
100
AcDbEntity
  8
0
100
AcDbVertex
100
AcDb2dVertex
 10
4.503937007874015
 20
6.036417322834645
 30
0.0
  0
VERTEX
  5
2F79
330
2C66
100
AcDbEntity
  8
0
100
AcDbVertex
100
AcDb2dVertex
 10
4.511811023622047
 20
6.039370078740157
 30
0.0
  0
SEQEND
  5
2F7A
330
2C66
100
AcDbEntity
  8
0
  0
LINE
  5
2C6B
330
1E
100
AcDbEntity
  8
0
100
AcDbLine
 10
4.5501968503937
 20
6.039370078740157
 30
0.0
 11
4.511811023622047
 21
6.039370078740157
 31
0.0
  0
LINE
  5
2C6C
330
1E
100
AcDbEntity
  8
0
100
AcDbLine
 10
4.530511811023622
 20
5.821850393700787
 30
0.0
 11
4.448818897637795
 21
5.821850393700787
 31
0.0
  0
LINE
  5
2C6D
330
1E
100
AcDbEntity
  8
0
100
AcDbLine
 10
4.529527559055117
 20
5.822834645669291
 30
0.0
 11
4.530511811023622
 21
5.821850393700787
 31
0.0
  0
LINE
  5
2C6E
330
1E
100
AcDbEntity
  8
0
100
AcDbLine
 10
4.529527559055117
 20
5.822834645669291
 30
0.0
 11
4.446850393700787
 21
5.822834645669291
 31
0.0
  0
LINE
  5
2C6F
330
1E
100
AcDbEntity
  8
0
100
AcDbLine
 10
4.448818897637795
 20
5.821850393700787
 30
0.0
 11
4.446850393700787
 21
5.822834645669291
 31
0.0
  0
LINE
  5
2C70
330
1E
100
AcDbEntity
  8
0
100
AcDbLine
 10
4.500984251968503
 20
5.943897637795275
 30
0.0
 11
4.500984251968503
 21
6.029527559055117
 31
0.0
  0
LINE
  5
2C71
330
1E
100
AcDbEntity
  8
0
100
AcDbLine
 10
4.500984251968503
 20
6.071850393700787
 30
0.0
 11
4.5
 21
6.079724409448818
 31
0.0
  0
LINE
  5
2C72
330
1E
100
AcDbEntity
  8
0
100
AcDbLine
 10
4.5
 20
6.079724409448818
 30
0.0
 11
4.5
 21
6.31496062992126
 31
0.0
  0
LINE
  5
2C73
330
1E
100
AcDbEntity
  8
0
100
AcDbLine
 10
4.500984251968503
 20
6.321850393700787
 30
0.0
 11
4.5
 21
6.31496062992126
 31
0.0
  0
LINE
  5
2C74
330
1E
100
AcDbEntity
  8
0
100
AcDbLine
 10
4.458661417322834
 20
6.834645669291338
 30
0.0
 11
4.458661417322834
 21
6.779527559055117
 31
0.0
  0
LINE
  5
2C75
330
1E
100
AcDbEntity
  8
0
100
AcDbLine
 10
4.458661417322834
 20
6.834645669291338
 30
0.0
 11
4.45767716535433
 21
6.833661417322834
 31
0.0
  0
LINE
  5
2C76
330
1E
100
AcDbEntity
  8
0
100
AcDbLine
 10
4.45767716535433
 20
6.833661417322834
 30
0.0
 11
4.45767716535433
 21
6.781496062992125
 31
0.0
  0
LINE
  5
2C77
330
1E
100
AcDbEntity
  8
0
100
AcDbLine
 10
4.458661417322834
 20
6.779527559055117
 30
0.0
 11
4.45767716535433
 21
6.781496062992125
 31
0.0
  0
LINE
  5
2C78
330
1E
100
AcDbEntity
  8
0
100
AcDbLine
 10
4.447834645669291
 20
6.499015748031496
 30
0.0
 11
4.434055118110236
 21
6.494094488188975
 31
0.0
  0
LINE
  5
2C79
330
1E
100
AcDbEntity
  8
0
100
AcDbLine
 10
4.447834645669291
 20
6.499015748031496
 30
0.0
 11
4.446850393700787
 21
6.571850393700787
 31
0.0
  0
LINE
  5
2C7A
330
1E
100
AcDbEntity
  8
0
100
AcDbLine
 10
4.529527559055117
 20
6.499015748031496
 30
0.0
 11
4.529527559055117
 21
6.571850393700787
 31
0.0
  0
LINE
  5
2C7B
330
1E
100
AcDbEntity
  8
0
100
AcDbLine
 10
4.447834645669291
 20
6.499015748031496
 30
0.0
 11
4.529527559055117
 21
6.499015748031496
 31
0.0
  0
LINE
  5
2C7C
330
1E
100
AcDbEntity
  8
0
100
AcDbLine
 10
4.530511811023622
 20
6.499015748031496
 30
0.0
 11
4.529527559055117
 21
6.499015748031496
 31
0.0
  0
LINE
  5
2C7D
330
1E
100
AcDbEntity
  8
0
100
AcDbLine
 10
4.553149606299212
 20
6.499015748031496
 30
0.0
 11
4.530511811023622
 21
6.499015748031496
 31
0.0
  0
LINE
  5
2C7E
330
1E
100
AcDbEntity
  8
0
100
AcDbLine
 10
4.551181102362204
 20
6.497047244094487
 30
0.0
 11
4.553149606299212
 21
6.499015748031496
 31
0.0
  0
LINE
  5
2C7F
330
1E
100
AcDbEntity
  8
0
100
AcDbLine
 10
4.551181102362204
 20
6.497047244094487
 30
0.0
 11
4.551181102362204
 21
6.451771653543307
 31
0.0
  0
LINE
  5
2C80
330
1E
100
AcDbEntity
  8
0
100
AcDbLine
 10
4.498031496062991
 20
6.496062992125984
 30
0.0
 11
4.551181102362204
 21
6.497047244094487
 31
0.0
  0
LINE
  5
2C81
330
1E
100
AcDbEntity
  8
0
100
AcDbLine
 10
4.498031496062991
 20
6.453740157480314
 30
0.0
 11
4.498031496062991
 21
6.496062992125984
 31
0.0
  0
LINE
  5
2C82
330
1E
100
AcDbEntity
  8
0
100
AcDbLine
 10
4.498031496062991
 20
5.898622047244094
 30
0.0
 11
4.551181102362204
 21
5.89763779527559
 31
0.0
  0
LINE
  5
2C83
330
1E
100
AcDbEntity
  8
0
100
AcDbLine
 10
4.551181102362204
 20
5.89763779527559
 30
0.0
 11
4.551181102362204
 21
5.942913385826771
 31
0.0
  0
LINE
  5
2C84
330
1E
100
AcDbEntity
  8
0
100
AcDbLine
 10
4.498031496062991
 20
5.940944881889763
 30
0.0
 11
4.498031496062991
 21
5.898622047244094
 31
0.0
  0
LINE
  5
2C85
330
1E
100
AcDbEntity
  8
0
100
AcDbLine
 10
4.551181102362204
 20
5.89763779527559
 30
0.0
 11
4.553149606299212
 21
5.895669291338582
 31
0.0
  0
LINE
  5
2C86
330
1E
100
AcDbEntity
  8
0
100
AcDbLine
 10
4.553149606299212
 20
5.895669291338582
 30
0.0
 11
4.530511811023622
 21
5.895669291338582
 31
0.0
  0
LINE
  5
2C87
330
1E
100
AcDbEntity
  8
0
100
AcDbLine
 10
4.530511811023622
 20
5.895669291338582
 30
0.0
 11
4.529527559055117
 21
5.895669291338582
 31
0.0
  0
LINE
  5
2C88
330
1E
100
AcDbEntity
  8
0
100
AcDbLine
 10
4.529527559055117
 20
5.895669291338582
 30
0.0
 11
4.529527559055117
 21
5.822834645669291
 31
0.0
  0
LINE
  5
2C89
330
1E
100
AcDbEntity
  8
0
100
AcDbLine
 10
4.447834645669291
 20
5.895669291338582
 30
0.0
 11
4.529527559055117
 21
5.895669291338582
 31
0.0
  0
LINE
  5
2C8A
330
1E
100
AcDbEntity
  8
0
100
AcDbLine
 10
4.447834645669291
 20
5.895669291338582
 30
0.0
 11
4.446850393700787
 21
5.822834645669291
 31
0.0
  0
LINE
  5
2C8B
330
1E
100
AcDbEntity
  8
0
100
AcDbLine
 10
4.492125984251968
 20
6.49015748031496
 30
0.0
 11
4.498031496062991
 21
6.496062992125984
 31
0.0
  0
LINE
  5
2C8C
330
1E
100
AcDbEntity
  8
0
100
AcDbLine
 10
4.492125984251968
 20
6.446850393700787
 30
0.0
 11
4.492125984251968
 21
6.49015748031496
 31
0.0
  0
LINE
  5
2C8D
330
1E
100
AcDbEntity
  8
0
100
AcDbLine
 10
4.493110236220472
 20
6.445866141732283
 30
0.0
 11
4.492125984251968
 21
6.446850393700787
 31
0.0
  0
LINE
  5
2C8E
330
1E
100
AcDbEntity
  8
0
100
AcDbLine
 10
4.493110236220472
 20
6.445866141732283
 30
0.0
 11
4.493110236220472
 21
6.220472440944881
 31
0.0
  0
LINE
  5
2C8F
330
1E
100
AcDbEntity
  8
0
100
AcDbLine
 10
4.493110236220472
 20
6.220472440944881
 30
0.0
 11
4.492125984251968
 21
6.220472440944881
 31
0.0
  0
LINE
  5
2C90
330
1E
100
AcDbEntity
  8
0
100
AcDbLine
 10
4.492125984251968
 20
6.220472440944881
 30
0.0
 11
4.492125984251968
 21
6.174212598425197
 31
0.0
  0
LINE
  5
2C91
330
1E
100
AcDbEntity
  8
0
100
AcDbLine
 10
4.493110236220472
 20
6.173228346456692
 30
0.0
 11
4.492125984251968
 21
6.174212598425197
 31
0.0
  0
LINE
  5
2C92
330
1E
100
AcDbEntity
  8
0
100
AcDbLine
 10
4.493110236220472
 20
5.948818897637795
 30
0.0
 11
4.493110236220472
 21
6.173228346456692
 31
0.0
  0
LINE
  5
2C93
330
1E
100
AcDbEntity
  8
0
100
AcDbLine
 10
4.493110236220472
 20
5.948818897637795
 30
0.0
 11
4.492125984251968
 21
5.947834645669291
 31
0.0
  0
LINE
  5
2C94
330
1E
100
AcDbEntity
  8
0
100
AcDbLine
 10
4.492125984251968
 20
5.904527559055117
 30
0.0
 11
4.492125984251968
 21
5.947834645669291
 31
0.0
  0
LINE
  5
2C95
330
1E
100
AcDbEntity
  8
0
100
AcDbLine
 10
4.492125984251968
 20
5.904527559055117
 30
0.0
 11
4.498031496062991
 21
5.898622047244094
 31
0.0
  0
LINE
  5
2C96
330
1E
100
AcDbEntity
  8
0
100
AcDbLine
 10
4.447834645669291
 20
5.895669291338582
 30
0.0
 11
4.434055118110236
 21
5.900590551181101
 31
0.0
  0
LINE
  5
2C97
330
1E
100
AcDbEntity
  8
0
100
AcDbLine
 10
4.458661417322834
 20
5.61515748031496
 30
0.0
 11
4.458661417322834
 21
5.560039370078739
 31
0.0
  0
LINE
  5
2C98
330
1E
100
AcDbEntity
  8
0
100
AcDbLine
 10
4.458661417322834
 20
5.61515748031496
 30
0.0
 11
4.45767716535433
 21
5.613188976377952
 31
0.0
  0
LINE
  5
2C99
330
1E
100
AcDbEntity
  8
0
100
AcDbLine
 10
4.45767716535433
 20
5.613188976377952
 30
0.0
 11
4.45767716535433
 21
5.561023622047244
 31
0.0
  0
LINE
  5
2C9A
330
1E
100
AcDbEntity
  8
0
100
AcDbLine
 10
4.458661417322834
 20
5.560039370078739
 30
0.0
 11
4.45767716535433
 21
5.561023622047244
 31
0.0
  0
LINE
  5
2C9B
330
1E
100
AcDbEntity
  8
0
100
AcDbLine
 10
4.417322834645669
 20
5.61515748031496
 30
0.0
 11
4.458661417322834
 21
5.61515748031496
 31
0.0
  0
LINE
  5
2C9C
330
1E
100
AcDbEntity
  8
0
100
AcDbLine
 10
4.312007874015748
 20
5.75
 30
0.0
 11
4.313976377952755
 21
5.75
 31
0.0
  0
LINE
  5
2C9D
330
1E
100
AcDbEntity
  8
0
100
AcDbLine
 10
4.316929133858267
 20
5.754921259842519
 30
0.0
 11
4.313976377952755
 21
5.75
 31
0.0
  0
LINE
  5
2C9E
330
1E
100
AcDbEntity
  8
0
100
AcDbLine
 10
4.316929133858267
 20
5.754921259842519
 30
0.0
 11
4.312007874015748
 21
5.754921259842519
 31
0.0
  0
LINE
  5
2C9F
330
1E
100
AcDbEntity
  8
0
100
AcDbLine
 10
4.316929133858267
 20
5.367125984251968
 30
0.0
 11
4.312007874015748
 21
5.367125984251968
 31
0.0
  0
LINE
  5
2CA0
330
1E
100
AcDbEntity
  8
0
100
AcDbLine
 10
4.316929133858267
 20
5.367125984251968
 30
0.0
 11
4.313976377952755
 21
5.373031496062991
 31
0.0
  0
LINE
  5
2CA1
330
1E
100
AcDbEntity
  8
0
100
AcDbLine
 10
4.312007874015748
 20
5.373031496062991
 30
0.0
 11
4.313976377952755
 21
5.373031496062991
 31
0.0
  0
LINE
  5
2CA2
330
1E
100
AcDbEntity
  8
0
100
AcDbLine
 10
4.417322834645669
 20
6.834645669291338
 30
0.0
 11
4.458661417322834
 21
6.834645669291338
 31
0.0
  0
LINE
  5
2CA3
330
1E
100
AcDbEntity
  8
0
100
AcDbLine
 10
4.417322834645669
 20
6.834645669291338
 30
0.0
 11
4.414370078740157
 21
6.833661417322834
 31
0.0
  0
LINE
  5
2CA4
330
1E
100
AcDbEntity
  8
0
100
AcDbLine
 10
4.414370078740157
 20
6.833661417322834
 30
0.0
 11
4.45767716535433
 21
6.833661417322834
 31
0.0
  0
LINE
  5
2CA5
330
1E
100
AcDbEntity
  8
0
100
AcDbLine
 10
4.414370078740157
 20
6.781496062992125
 30
0.0
 11
4.414370078740157
 21
6.833661417322834
 31
0.0
  0
LINE
  5
2CA6
330
1E
100
AcDbEntity
  8
0
100
AcDbLine
 10
4.45767716535433
 20
6.781496062992125
 30
0.0
 11
4.414370078740157
 21
6.781496062992125
 31
0.0
  0
LINE
  5
2CA7
330
1E
100
AcDbEntity
  8
0
100
AcDbLine
 10
4.458661417322834
 20
6.779527559055117
 30
0.0
 11
4.417322834645669
 21
6.779527559055117
 31
0.0
  0
LINE
  5
2CA8
330
1E
100
AcDbEntity
  8
0
100
AcDbLine
 10
4.417322834645669
 20
6.779527559055117
 30
0.0
 11
4.414370078740157
 21
6.781496062992125
 31
0.0
  0
LINE
  5
2CA9
330
1E
100
AcDbEntity
  8
0
100
AcDbLine
 10
4.423228346456692
 20
6.494094488188975
 30
0.0
 11
4.434055118110236
 21
6.494094488188975
 31
0.0
  0
LINE
  5
2CAA
330
1E
100
AcDbEntity
  8
0
100
AcDbLine
 10
4.423228346456692
 20
6.494094488188975
 30
0.0
 11
4.417322834645669
 21
6.497047244094487
 31
0.0
  0
LINE
  5
2CAB
330
1E
100
AcDbEntity
  8
0
100
AcDbLine
 10
4.423228346456692
 20
6.494094488188975
 30
0.0
 11
4.412401574803149
 21
6.489173228346456
 31
0.0
  0
LINE
  5
2CAC
330
1E
100
AcDbEntity
  8
0
100
AcDbLine
 10
4.492125984251968
 20
6.49015748031496
 30
0.0
 11
4.412401574803149
 21
6.489173228346456
 31
0.0
  0
LINE
  5
2CAD
330
1E
100
AcDbEntity
  8
0
100
AcDbLine
 10
4.412401574803149
 20
6.489173228346456
 30
0.0
 11
4.412401574803149
 21
6.447834645669291
 31
0.0
  0
LINE
  5
2CAE
330
1E
100
AcDbEntity
  8
0
100
AcDbLine
 10
4.492125984251968
 20
6.446850393700787
 30
0.0
 11
4.412401574803149
 21
6.447834645669291
 31
0.0
  0
LINE
  5
2CAF
330
1E
100
AcDbEntity
  8
0
100
AcDbLine
 10
4.412401574803149
 20
6.447834645669291
 30
0.0
 11
4.415354330708661
 21
6.445866141732283
 31
0.0
  0
LINE
  5
2CB0
330
1E
100
AcDbEntity
  8
0
100
AcDbLine
 10
4.415354330708661
 20
6.445866141732283
 30
0.0
 11
4.493110236220472
 21
6.445866141732283
 31
0.0
  0
LINE
  5
2CB1
330
1E
100
AcDbEntity
  8
0
100
AcDbLine
 10
4.415354330708661
 20
6.220472440944881
 30
0.0
 11
4.415354330708661
 21
6.445866141732283
 31
0.0
  0
LINE
  5
2CB2
330
1E
100
AcDbEntity
  8
0
100
AcDbLine
 10
4.415354330708661
 20
6.220472440944881
 30
0.0
 11
4.493110236220472
 21
6.220472440944881
 31
0.0
  0
LINE
  5
2CB3
330
1E
100
AcDbEntity
  8
0
100
AcDbLine
 10
4.412401574803149
 20
6.219488188976377
 30
0.0
 11
4.415354330708661
 21
6.220472440944881
 31
0.0
  0
LINE
  5
2CB4
330
1E
100
AcDbEntity
  8
0
100
AcDbLine
 10
4.492125984251968
 20
6.220472440944881
 30
0.0
 11
4.412401574803149
 21
6.219488188976377
 31
0.0
  0
LINE
  5
2CB5
330
1E
100
AcDbEntity
  8
0
100
AcDbLine
 10
4.412401574803149
 20
6.1751968503937
 30
0.0
 11
4.412401574803149
 21
6.219488188976377
 31
0.0
  0
LINE
  5
2CB6
330
1E
100
AcDbEntity
  8
0
100
AcDbLine
 10
4.412401574803149
 20
6.1751968503937
 30
0.0
 11
4.492125984251968
 21
6.174212598425197
 31
0.0
  0
LINE
  5
2CB7
330
1E
100
AcDbEntity
  8
0
100
AcDbLine
 10
4.412401574803149
 20
6.1751968503937
 30
0.0
 11
4.415354330708661
 21
6.173228346456692
 31
0.0
  0
LINE
  5
2CB8
330
1E
100
AcDbEntity
  8
0
100
AcDbLine
 10
4.493110236220472
 20
6.173228346456692
 30
0.0
 11
4.415354330708661
 21
6.173228346456692
 31
0.0
  0
LINE
  5
2CB9
330
1E
100
AcDbEntity
  8
0
100
AcDbLine
 10
4.415354330708661
 20
5.948818897637795
 30
0.0
 11
4.415354330708661
 21
6.173228346456692
 31
0.0
  0
LINE
  5
2CBA
330
1E
100
AcDbEntity
  8
0
100
AcDbLine
 10
4.415354330708661
 20
5.948818897637795
 30
0.0
 11
4.493110236220472
 21
5.948818897637795
 31
0.0
  0
LINE
  5
2CBB
330
1E
100
AcDbEntity
  8
0
100
AcDbLine
 10
4.412401574803149
 20
5.946850393700787
 30
0.0
 11
4.415354330708661
 21
5.948818897637795
 31
0.0
  0
LINE
  5
2CBC
330
1E
100
AcDbEntity
  8
0
100
AcDbLine
 10
4.412401574803149
 20
5.946850393700787
 30
0.0
 11
4.492125984251968
 21
5.947834645669291
 31
0.0
  0
LINE
  5
2CBD
330
1E
100
AcDbEntity
  8
0
100
AcDbLine
 10
4.412401574803149
 20
5.946850393700787
 30
0.0
 11
4.412401574803149
 21
5.905511811023622
 31
0.0
  0
LINE
  5
2CBE
330
1E
100
AcDbEntity
  8
0
100
AcDbLine
 10
4.492125984251968
 20
5.904527559055117
 30
0.0
 11
4.412401574803149
 21
5.905511811023622
 31
0.0
  0
LINE
  5
2CBF
330
1E
100
AcDbEntity
  8
0
100
AcDbLine
 10
4.412401574803149
 20
5.905511811023622
 30
0.0
 11
4.423228346456692
 21
5.900590551181101
 31
0.0
  0
LINE
  5
2CC0
330
1E
100
AcDbEntity
  8
0
100
AcDbLine
 10
4.423228346456692
 20
5.900590551181101
 30
0.0
 11
4.434055118110236
 21
5.900590551181101
 31
0.0
  0
LINE
  5
2CC1
330
1E
100
AcDbEntity
  8
0
100
AcDbLine
 10
4.423228346456692
 20
5.900590551181101
 30
0.0
 11
4.417322834645669
 21
5.89763779527559
 31
0.0
  0
LINE
  5
2CC2
330
1E
100
AcDbEntity
  8
0
100
AcDbLine
 10
4.417322834645669
 20
5.61515748031496
 30
0.0
 11
4.414370078740157
 21
5.613188976377952
 31
0.0
  0
LINE
  5
2CC3
330
1E
100
AcDbEntity
  8
0
100
AcDbLine
 10
4.414370078740157
 20
5.613188976377952
 30
0.0
 11
4.45767716535433
 21
5.613188976377952
 31
0.0
  0
LINE
  5
2CC4
330
1E
100
AcDbEntity
  8
0
100
AcDbLine
 10
4.414370078740157
 20
5.613188976377952
 30
0.0
 11
4.414370078740157
 21
5.561023622047244
 31
0.0
  0
LINE
  5
2CC5
330
1E
100
AcDbEntity
  8
0
100
AcDbLine
 10
4.45767716535433
 20
5.561023622047244
 30
0.0
 11
4.414370078740157
 21
5.561023622047244
 31
0.0
  0
LINE
  5
2CC6
330
1E
100
AcDbEntity
  8
0
100
AcDbLine
 10
4.458661417322834
 20
5.560039370078739
 30
0.0
 11
4.417322834645669
 21
5.560039370078739
 31
0.0
  0
LINE
  5
2CC7
330
1E
100
AcDbEntity
  8
0
100
AcDbLine
 10
4.417322834645669
 20
5.560039370078739
 30
0.0
 11
4.414370078740157
 21
5.561023622047244
 31
0.0
  0
LINE
  5
2CC8
330
1E
100
AcDbEntity
  8
0
100
AcDbLine
 10
4.312007874015748
 20
6.229330708661417
 30
0.0
 11
4.316929133858267
 21
6.229330708661417
 31
0.0
  0
LINE
  5
2CC9
330
1E
100
AcDbEntity
  8
0
100
AcDbLine
 10
4.313976377952755
 20
5.75
 30
0.0
 11
4.312007874015748
 21
5.746062992125984
 31
0.0
  0
LINE
  5
2CCA
330
1E
100
AcDbEntity
  8
0
100
AcDbLine
 10
4.417322834645669
 20
6.497047244094487
 30
0.0
 11
4.417322834645669
 21
6.779527559055117
 31
0.0
  0
LINE
  5
2CCB
330
1E
100
AcDbEntity
  8
0
100
AcDbLine
 10
4.417322834645669
 20
5.89763779527559
 30
0.0
 11
4.417322834645669
 21
5.61515748031496
 31
0.0
  0
LINE
  5
2CCC
330
1E
100
AcDbEntity
  8
0
100
AcDbLine
 10
4.316929133858267
 20
5.479330708661417
 30
0.0
 11
4.316929133858267
 21
5.643700787401574
 31
0.0
  0
POLYLINE
  5
2CCD
330
1E
100
AcDbEntity
  8
0
100
AcDb2dPolyline
 66
     1
 10
0.0
 20
0.0
 30
0.0
  0
VERTEX
  5
2F7B
330
2CCD
100
AcDbEntity
  8
0
100
AcDbVertex
100
AcDb2dVertex
 10
4.316929133858267
 20
5.479330708661417
 30
0.0
  0
VERTEX
  5
2F7C
330
2CCD
100
AcDbEntity
  8
0
100
AcDbVertex
100
AcDb2dVertex
 10
4.319881889763779
 20
5.484251968503937
 30
0.0
  0
VERTEX
  5
2F7D
330
2CCD
100
AcDbEntity
  8
0
100
AcDbVertex
100
AcDb2dVertex
 10
4.324803149606299
 20
5.487204724409449
 30
0.0
  0
SEQEND
  5
2F7E
330
2CCD
100
AcDbEntity
  8
0
  0
LINE
  5
2CD2
330
1E
100
AcDbEntity
  8
0
100
AcDbLine
 10
4.324803149606299
 20
5.487204724409449
 30
0.0
 11
4.354330708661417
 21
5.487204724409449
 31
0.0
  0
POLYLINE
  5
2CD3
330
1E
100
AcDbEntity
  8
0
100
AcDb2dPolyline
 66
     1
 10
0.0
 20
0.0
 30
0.0
  0
VERTEX
  5
2F7F
330
2CD3
100
AcDbEntity
  8
0
100
AcDbVertex
100
AcDb2dVertex
 10
4.354330708661417
 20
5.487204724409449
 30
0.0
  0
VERTEX
  5
2F80
330
2CD3
100
AcDbEntity
  8
0
100
AcDbVertex
100
AcDb2dVertex
 10
4.36023622047244
 20
5.489173228346456
 30
0.0
  0
VERTEX
  5
2F81
330
2CD3
100
AcDbEntity
  8
0
100
AcDbVertex
100
AcDb2dVertex
 10
4.362204724409449
 20
5.49507874015748
 30
0.0
  0
SEQEND
  5
2F82
330
2CD3
100
AcDbEntity
  8
0
  0
LINE
  5
2CD8
330
1E
100
AcDbEntity
  8
0
100
AcDbLine
 10
4.362204724409449
 20
5.49507874015748
 30
0.0
 11
4.362204724409449
 21
5.626968503937007
 31
0.0
  0
POLYLINE
  5
2CD9
330
1E
100
AcDbEntity
  8
0
100
AcDb2dPolyline
 66
     1
 10
0.0
 20
0.0
 30
0.0
  0
VERTEX
  5
2F83
330
2CD9
100
AcDbEntity
  8
0
100
AcDbVertex
100
AcDb2dVertex
 10
4.362204724409449
 20
5.626968503937007
 30
0.0
  0
VERTEX
  5
2F84
330
2CD9
100
AcDbEntity
  8
0
100
AcDbVertex
100
AcDb2dVertex
 10
4.36023622047244
 20
5.632874015748031
 30
0.0
  0
VERTEX
  5
2F85
330
2CD9
100
AcDbEntity
  8
0
100
AcDbVertex
100
AcDb2dVertex
 10
4.354330708661417
 20
5.635826771653543
 30
0.0
  0
SEQEND
  5
2F86
330
2CD9
100
AcDbEntity
  8
0
  0
LINE
  5
2CDE
330
1E
100
AcDbEntity
  8
0
100
AcDbLine
 10
4.354330708661417
 20
5.635826771653543
 30
0.0
 11
4.324803149606299
 21
5.635826771653543
 31
0.0
  0
POLYLINE
  5
2CDF
330
1E
100
AcDbEntity
  8
0
100
AcDb2dPolyline
 66
     1
 10
0.0
 20
0.0
 30
0.0
  0
VERTEX
  5
2F87
330
2CDF
100
AcDbEntity
  8
0
100
AcDbVertex
100
AcDb2dVertex
 10
4.324803149606299
 20
5.635826771653543
 30
0.0
  0
VERTEX
  5
2F88
330
2CDF
100
AcDbEntity
  8
0
100
AcDbVertex
100
AcDb2dVertex
 10
4.319881889763779
 20
5.63779527559055
 30
0.0
  0
VERTEX
  5
2F89
330
2CDF
100
AcDbEntity
  8
0
100
AcDbVertex
100
AcDb2dVertex
 10
4.316929133858267
 20
5.643700787401574
 30
0.0
  0
SEQEND
  5
2F8A
330
2CDF
100
AcDbEntity
  8
0
  0
LINE
  5
2CE4
330
1E
100
AcDbEntity
  8
0
100
AcDbLine
 10
4.313976377952755
 20
5.373031496062991
 30
0.0
 11
4.312007874015748
 21
5.375984251968503
 31
0.0
  0
LINE
  5
2CE5
330
1E
100
AcDbEntity
  8
0
100
AcDbLine
 10
4.316929133858267
 20
5.479330708661417
 30
0.0
 11
4.316929133858267
 21
5.367125984251968
 31
0.0
  0
LINE
  5
2CE6
330
1E
100
AcDbEntity
  8
0
100
AcDbLine
 10
4.316929133858267
 20
5.754921259842519
 30
0.0
 11
4.316929133858267
 21
5.643700787401574
 31
0.0
  0
LINE
  5
2CE7
330
1E
100
AcDbEntity
  8
0
100
AcDbLine
 10
4.316929133858267
 20
6.229330708661417
 30
0.0
 11
4.316929133858267
 21
5.754921259842519
 31
0.0
  0
LINE
  5
2CE8
330
1E
100
AcDbEntity
  8
0
100
AcDbLine
 10
4.317913385826771
 20
6.231299212598425
 30
0.0
 11
4.316929133858267
 21
6.229330708661417
 31
0.0
  0
LINE
  5
2CE9
330
1E
100
AcDbEntity
  8
0
100
AcDbLine
 10
4.316929133858267
 20
5.367125984251968
 30
0.0
 11
4.316929133858267
 21
4.888779527559054
 31
0.0
  0
LINE
  5
2CEA
330
1E
100
AcDbEntity
  8
0
100
AcDbLine
 10
4.256889763779527
 20
4.901574803149606
 30
0.0
 11
4.256889763779527
 21
4.888779527559054
 31
0.0
  0
LINE
  5
2CEB
330
1E
100
AcDbEntity
  8
0
100
AcDbLine
 10
4.255905511811023
 20
4.889763779527559
 30
0.0
 11
4.255905511811023
 21
4.901574803149606
 31
0.0
  0
LINE
  5
2CEC
330
1E
100
AcDbEntity
  8
0
100
AcDbLine
 10
4.405511811023622
 20
4.905511811023622
 30
0.0
 11
4.417322834645669
 21
4.893700787401574
 31
0.0
  0
POLYLINE
  5
2CED
330
1E
100
AcDbEntity
  8
0
100
AcDb2dPolyline
 66
     1
 10
0.0
 20
0.0
 30
0.0
  0
VERTEX
  5
2F8B
330
2CED
100
AcDbEntity
  8
0
100
AcDbVertex
100
AcDb2dVertex
 10
4.405511811023622
 20
4.905511811023622
 30
0.0
  0
VERTEX
  5
2F8C
330
2CED
100
AcDbEntity
  8
0
100
AcDbVertex
100
AcDb2dVertex
 10
4.40255905511811
 20
4.878937007874015
 30
0.0
  0
VERTEX
  5
2F8D
330
2CED
100
AcDbEntity
  8
0
100
AcDbVertex
100
AcDb2dVertex
 10
4.39271653543307
 20
4.855314960629921
 30
0.0
  0
VERTEX
  5
2F8E
330
2CED
100
AcDbEntity
  8
0
100
AcDbVertex
100
AcDb2dVertex
 10
4.375984251968503
 20
4.834645669291338
 30
0.0
  0
VERTEX
  5
2F8F
330
2CED
100
AcDbEntity
  8
0
100
AcDbVertex
100
AcDb2dVertex
 10
4.355314960629921
 20
4.818897637795275
 30
0.0
  0
VERTEX
  5
2F90
330
2CED
100
AcDbEntity
  8
0
100
AcDbVertex
100
AcDb2dVertex
 10
4.331692913385826
 20
4.809055118110236
 30
0.0
  0
VERTEX
  5
2F91
330
2CED
100
AcDbEntity
  8
0
100
AcDbVertex
100
AcDb2dVertex
 10
4.306102362204724
 20
4.80511811023622
 30
0.0
  0
SEQEND
  5
2F92
330
2CED
100
AcDbEntity
  8
0
  0
LINE
  5
2CF6
330
1E
100
AcDbEntity
  8
0
100
AcDbLine
 10
4.417322834645669
 20
7.500984251968503
 30
0.0
 11
4.405511811023622
 21
7.489173228346456
 31
0.0
  0
LINE
  5
2CF7
330
1E
100
AcDbEntity
  8
0
100
AcDbLine
 10
4.405511811023622
 20
7.489173228346456
 30
0.0
 11
4.405511811023622
 21
4.905511811023622
 31
0.0
  0
LINE
  5
2CF8
330
1E
100
AcDbEntity
  8
0
100
AcDbLine
 10
4.251968503937007
 20
7.483267716535433
 30
0.0
 11
4.251968503937007
 21
7.144685039370078
 31
0.0
  0
POLYLINE
  5
2CF9
330
1E
100
AcDbEntity
  8
0
100
AcDb2dPolyline
 66
     1
 10
0.0
 20
0.0
 30
0.0
  0
VERTEX
  5
2F93
330
2CF9
100
AcDbEntity
  8
0
100
AcDbVertex
100
AcDb2dVertex
 10
4.251968503937007
 20
7.483267716535433
 30
0.0
  0
VERTEX
  5
2F94
330
2CF9
100
AcDbEntity
  8
0
100
AcDbVertex
100
AcDb2dVertex
 10
4.249015748031496
 20
7.49015748031496
 30
0.0
  0
VERTEX
  5
2F95
330
2CF9
100
AcDbEntity
  8
0
100
AcDbVertex
100
AcDb2dVertex
 10
4.241141732283464
 20
7.493110236220472
 30
0.0
  0
SEQEND
  5
2F96
330
2CF9
100
AcDbEntity
  8
0
  0
POLYLINE
  5
2CFE
330
1E
100
AcDbEntity
  8
0
100
AcDb2dPolyline
 66
     1
 10
0.0
 20
0.0
 30
0.0
  0
VERTEX
  5
2F97
330
2CFE
100
AcDbEntity
  8
0
100
AcDbVertex
100
AcDb2dVertex
 10
4.241141732283464
 20
7.134842519685038
 30
0.0
  0
VERTEX
  5
2F98
330
2CFE
100
AcDbEntity
  8
0
100
AcDbVertex
100
AcDb2dVertex
 10
4.249015748031496
 20
7.136811023622047
 30
0.0
  0
VERTEX
  5
2F99
330
2CFE
100
AcDbEntity
  8
0
100
AcDbVertex
100
AcDb2dVertex
 10
4.251968503937007
 20
7.144685039370078
 30
0.0
  0
SEQEND
  5
2F9A
330
2CFE
100
AcDbEntity
  8
0
  0
LINE
  5
2D03
330
1E
100
AcDbEntity
  8
0
100
AcDbLine
 10
4.31496062992126
 20
6.23523622047244
 30
0.0
 11
4.317913385826771
 21
6.231299212598425
 31
0.0
  0
POLYLINE
  5
2D04
330
1E
100
AcDbEntity
  8
0
100
AcDb2dPolyline
 66
     1
 10
0.0
 20
0.0
 30
0.0
  0
VERTEX
  5
2F9B
330
2D04
100
AcDbEntity
  8
0
100
AcDbVertex
100
AcDb2dVertex
 10
4.306102362204724
 20
7.589566929133858
 30
0.0
  0
VERTEX
  5
2F9C
330
2D04
100
AcDbEntity
  8
0
100
AcDbVertex
100
AcDb2dVertex
 10
4.331692913385826
 20
7.585629921259842
 30
0.0
  0
VERTEX
  5
2F9D
330
2D04
100
AcDbEntity
  8
0
100
AcDbVertex
100
AcDb2dVertex
 10
4.355314960629921
 20
7.575787401574802
 30
0.0
  0
VERTEX
  5
2F9E
330
2D04
100
AcDbEntity
  8
0
100
AcDbVertex
100
AcDb2dVertex
 10
4.375984251968503
 20
7.560039370078739
 30
0.0
  0
VERTEX
  5
2F9F
330
2D04
100
AcDbEntity
  8
0
100
AcDbVertex
100
AcDb2dVertex
 10
4.39271653543307
 20
7.539370078740157
 30
0.0
  0
VERTEX
  5
2FA0
330
2D04
100
AcDbEntity
  8
0
100
AcDbVertex
100
AcDb2dVertex
 10
4.40255905511811
 20
7.515748031496062
 30
0.0
  0
VERTEX
  5
2FA1
330
2D04
100
AcDbEntity
  8
0
100
AcDbVertex
100
AcDb2dVertex
 10
4.405511811023622
 20
7.489173228346456
 30
0.0
  0
SEQEND
  5
2FA2
330
2D04
100
AcDbEntity
  8
0
  0
LINE
  5
2D0D
330
1E
100
AcDbEntity
  8
0
100
AcDbLine
 10
4.320866141732283
 20
5.472440944881889
 30
0.0
 11
4.316929133858267
 21
5.479330708661417
 31
0.0
  0
LINE
  5
2D0E
330
1E
100
AcDbEntity
  8
0
100
AcDbLine
 10
4.324803149606299
 20
5.487204724409449
 30
0.0
 11
4.328740157480314
 21
5.480314960629921
 31
0.0
  0
LINE
  5
2D0F
330
1E
100
AcDbEntity
  8
0
100
AcDbLine
 10
4.361220472440944
 20
5.480314960629921
 30
0.0
 11
4.354330708661417
 21
5.487204724409449
 31
0.0
  0
LINE
  5
2D10
330
1E
100
AcDbEntity
  8
0
100
AcDbLine
 10
4.362204724409449
 20
5.49507874015748
 30
0.0
 11
4.369094488188975
 21
5.488188976377952
 31
0.0
  0
LINE
  5
2D11
330
1E
100
AcDbEntity
  8
0
100
AcDbLine
 10
4.369094488188975
 20
5.633858267716535
 30
0.0
 11
4.362204724409449
 21
5.626968503937007
 31
0.0
  0
LINE
  5
2D12
330
1E
100
AcDbEntity
  8
0
100
AcDbLine
 10
4.354330708661417
 20
5.635826771653543
 30
0.0
 11
4.361220472440944
 21
5.641732283464566
 31
0.0
  0
LINE
  5
2D13
330
1E
100
AcDbEntity
  8
0
100
AcDbLine
 10
4.328740157480314
 20
5.641732283464566
 30
0.0
 11
4.324803149606299
 21
5.635826771653543
 31
0.0
  0
LINE
  5
2D14
330
1E
100
AcDbEntity
  8
0
100
AcDbLine
 10
4.316929133858267
 20
5.643700787401574
 30
0.0
 11
4.320866141732283
 21
5.649606299212598
 31
0.0
  0
LINE
  5
2D15
330
1E
100
AcDbEntity
  8
0
100
AcDbLine
 10
4.251968503937007
 20
7.144685039370078
 30
0.0
 11
4.251968503937007
 21
7.143700787401574
 31
0.0
  0
LINE
  5
2D16
330
1E
100
AcDbEntity
  8
0
100
AcDbLine
 10
4.251968503937007
 20
7.484251968503937
 30
0.0
 11
4.251968503937007
 21
7.483267716535433
 31
0.0
  0
POLYLINE
  5
2D17
330
1E
100
AcDbEntity
  8
0
100
AcDb2dPolyline
 66
     1
 10
0.0
 20
0.0
 30
0.0
  0
VERTEX
  5
2FA3
330
2D17
100
AcDbEntity
  8
0
100
AcDbVertex
100
AcDb2dVertex
 10
4.405511811023622
 20
7.489173228346456
 30
0.0
  0
VERTEX
  5
2FA4
330
2D17
100
AcDbEntity
  8
0
100
AcDbVertex
100
AcDb2dVertex
 10
4.404527559055117
 20
7.489173228346456
 30
0.0
  0
VERTEX
  5
2FA5
330
2D17
100
AcDbEntity
  8
0
100
AcDbVertex
100
AcDb2dVertex
 10
4.400590551181101
 20
7.489173228346456
 30
0.0
  0
SEQEND
  5
2FA6
330
2D17
100
AcDbEntity
  8
0
  0
POLYLINE
  5
2D1C
330
1E
100
AcDbEntity
  8
0
100
AcDb2dPolyline
 66
     1
 10
0.0
 20
0.0
 30
0.0
  0
VERTEX
  5
2FA7
330
2D1C
100
AcDbEntity
  8
0
100
AcDbVertex
100
AcDb2dVertex
 10
4.400590551181101
 20
4.905511811023622
 30
0.0
  0
VERTEX
  5
2FA8
330
2D1C
100
AcDbEntity
  8
0
100
AcDbVertex
100
AcDb2dVertex
 10
4.404527559055117
 20
4.905511811023622
 30
0.0
  0
VERTEX
  5
2FA9
330
2D1C
100
AcDbEntity
  8
0
100
AcDbVertex
100
AcDb2dVertex
 10
4.405511811023622
 20
4.905511811023622
 30
0.0
  0
SEQEND
  5
2FAA
330
2D1C
100
AcDbEntity
  8
0
  0
LINE
  5
2D21
330
1E
100
AcDbEntity
  8
0
100
AcDbLine
 10
4.317913385826771
 20
6.231299212598425
 30
0.0
 11
4.318897637795275
 21
6.23523622047244
 31
0.0
  0
LINE
  5
2D22
330
1E
100
AcDbEntity
  8
0
100
AcDbLine
 10
4.149606299212598
 20
4.206488375107229
 30
0.0
 11
2.912401574803149
 21
4.206488375107229
 31
0.0
  0
POLYLINE
  5
2D23
330
1E
100
AcDbEntity
  8
0
100
AcDb2dPolyline
 66
     1
 10
0.0
 20
0.0
 30
0.0
  0
VERTEX
  5
2FAB
330
2D23
100
AcDbEntity
  8
0
100
AcDbVertex
100
AcDb2dVertex
 10
4.242125984251968
 20
4.117905697941875
 30
0.0
  0
VERTEX
  5
2FAC
330
2D23
100
AcDbEntity
  8
0
100
AcDbVertex
100
AcDb2dVertex
 10
4.237204724409449
 20
4.145464753059985
 30
0.0
  0
VERTEX
  5
2FAD
330
2D23
100
AcDbEntity
  8
0
100
AcDbVertex
100
AcDb2dVertex
 10
4.223425196850393
 20
4.170071052272584
 30
0.0
  0
VERTEX
  5
2FAE
330
2D23
100
AcDbEntity
  8
0
100
AcDbVertex
100
AcDb2dVertex
 10
4.202755905511811
 20
4.189756091642663
 30
0.0
  0
VERTEX
  5
2FAF
330
2D23
100
AcDbEntity
  8
0
100
AcDbVertex
100
AcDb2dVertex
 10
4.177165354330708
 20
4.20156711526471
 30
0.0
  0
VERTEX
  5
2FB0
330
2D23
100
AcDbEntity
  8
0
100
AcDbVertex
100
AcDb2dVertex
 10
4.149606299212598
 20
4.206488375107229
 30
0.0
  0
SEQEND
  5
2FB1
330
2D23
100
AcDbEntity
  8
0
  0
POLYLINE
  5
2D2B
330
1E
100
AcDbEntity
  8
0
100
AcDb2dPolyline
 66
     1
 10
0.0
 20
0.0
 30
0.0
  0
VERTEX
  5
2FB2
330
2D2B
100
AcDbEntity
  8
0
100
AcDbVertex
100
AcDb2dVertex
 10
2.912401574803149
 20
4.206488375107229
 30
0.0
  0
VERTEX
  5
2FB3
330
2D2B
100
AcDbEntity
  8
0
100
AcDbVertex
100
AcDb2dVertex
 10
2.884842519685039
 20
4.20156711526471
 30
0.0
  0
VERTEX
  5
2FB4
330
2D2B
100
AcDbEntity
  8
0
100
AcDbVertex
100
AcDb2dVertex
 10
2.859251968503937
 20
4.189756091642663
 30
0.0
  0
VERTEX
  5
2FB5
330
2D2B
100
AcDbEntity
  8
0
100
AcDbVertex
100
AcDb2dVertex
 10
2.838582677165354
 20
4.170071052272584
 30
0.0
  0
VERTEX
  5
2FB6
330
2D2B
100
AcDbEntity
  8
0
100
AcDbVertex
100
AcDb2dVertex
 10
2.825787401574803
 20
4.145464753059985
 30
0.0
  0
VERTEX
  5
2FB7
330
2D2B
100
AcDbEntity
  8
0
100
AcDbVertex
100
AcDb2dVertex
 10
2.819881889763779
 20
4.117905697941875
 30
0.0
  0
SEQEND
  5
2FB8
330
2D2B
100
AcDbEntity
  8
0
  0
LINE
  5
2D33
330
1E
100
AcDbEntity
  8
0
100
AcDbLine
 10
2.915354330708661
 20
4.122826957784394
 30
0.0
 11
2.915354330708661
 21
3.665149792430064
 31
0.0
  0
LINE
  5
2D34
330
1E
100
AcDbEntity
  8
0
100
AcDbLine
 10
3.497047244094487
 20
4.122826957784394
 30
0.0
 11
3.497047244094487
 21
3.665149792430064
 31
0.0
  0
LINE
  5
2D35
330
1E
100
AcDbEntity
  8
0
100
AcDbLine
 10
4.146653543307086
 20
4.122826957784394
 30
0.0
 11
4.146653543307086
 21
3.665149792430064
 31
0.0
  0
LINE
  5
2D36
330
1E
100
AcDbEntity
  8
0
100
AcDbLine
 10
3.564960629921259
 20
4.122826957784394
 30
0.0
 11
3.564960629921259
 21
3.665149792430064
 31
0.0
  0
LINE
  5
2D37
330
1E
100
AcDbEntity
  8
0
100
AcDbLine
 10
4.242125984251968
 20
4.117905697941875
 30
0.0
 11
4.266732283464566
 21
3.64644900502849
 31
0.0
  0
LINE
  5
2D38
330
1E
100
AcDbEntity
  8
0
100
AcDbLine
 10
2.795275590551181
 20
3.64644900502849
 30
0.0
 11
2.819881889763779
 21
4.117905697941875
 31
0.0
  0
POLYLINE
  5
2D39
330
1E
100
AcDbEntity
  8
0
100
AcDb2dPolyline
 66
     1
 10
0.0
 20
0.0
 30
0.0
  0
VERTEX
  5
2FB9
330
2D39
100
AcDbEntity
  8
0
100
AcDbVertex
100
AcDb2dVertex
 10
3.455708661417322
 20
3.862000186130852
 30
0.0
  0
VERTEX
  5
2FBA
330
2D39
100
AcDbEntity
  8
0
100
AcDbVertex
100
AcDb2dVertex
 10
3.455708661417322
 20
3.862984438099355
 30
0.0
  0
VERTEX
  5
2FBB
330
2D39
100
AcDbEntity
  8
0
100
AcDbVertex
100
AcDb2dVertex
 10
3.455708661417322
 20
3.863968690067859
 30
0.0
  0
SEQEND
  5
2FBC
330
2D39
100
AcDbEntity
  8
0
  0
LINE
  5
2D3E
330
1E
100
AcDbEntity
  8
0
100
AcDbLine
 10
3.455708661417322
 20
3.890543493217466
 30
0.0
 11
3.455708661417322
 21
3.863968690067859
 31
0.0
  0
POLYLINE
  5
2D3F
330
1E
100
AcDbEntity
  8
0
100
AcDb2dPolyline
 66
     1
 10
0.0
 20
0.0
 30
0.0
  0
VERTEX
  5
2FBD
330
2D3F
100
AcDbEntity
  8
0
100
AcDbVertex
100
AcDb2dVertex
 10
3.455708661417322
 20
3.890543493217466
 30
0.0
  0
VERTEX
  5
2FBE
330
2D3F
100
AcDbEntity
  8
0
100
AcDbVertex
100
AcDb2dVertex
 10
3.455708661417322
 20
3.895464753059985
 30
0.0
  0
VERTEX
  5
2FBF
330
2D3F
100
AcDbEntity
  8
0
100
AcDbVertex
100
AcDb2dVertex
 10
3.455708661417322
 20
3.901370264871009
 30
0.0
  0
SEQEND
  5
2FC0
330
2D3F
100
AcDbEntity
  8
0
  0
LINE
  5
2D44
330
1E
100
AcDbEntity
  8
0
100
AcDbLine
 10
3.455708661417322
 20
3.901370264871009
 30
0.0
 11
3.455708661417322
 21
3.912197036524553
 31
0.0
  0
LINE
  5
2D45
330
1E
100
AcDbEntity
  8
0
100
AcDbLine
 10
3.455708661417322
 20
3.870858453847387
 30
0.0
 11
2.955708661417322
 21
3.870858453847387
 31
0.0
  0
LINE
  5
2D46
330
1E
100
AcDbEntity
  8
0
100
AcDbLine
 10
2.955708661417322
 20
3.912197036524553
 30
0.0
 11
3.455708661417322
 21
3.912197036524553
 31
0.0
  0
POLYLINE
  5
2D47
330
1E
100
AcDbEntity
  8
0
100
AcDb2dPolyline
 66
     1
 10
0.0
 20
0.0
 30
0.0
  0
VERTEX
  5
2FC1
330
2D47
100
AcDbEntity
  8
0
100
AcDbVertex
100
AcDb2dVertex
 10
2.955708661417322
 20
3.863968690067859
 30
0.0
  0
VERTEX
  5
2FC2
330
2D47
100
AcDbEntity
  8
0
100
AcDbVertex
100
AcDb2dVertex
 10
2.955708661417322
 20
3.862984438099355
 30
0.0
  0
VERTEX
  5
2FC3
330
2D47
100
AcDbEntity
  8
0
100
AcDbVertex
100
AcDb2dVertex
 10
2.955708661417322
 20
3.862000186130852
 30
0.0
  0
SEQEND
  5
2FC4
330
2D47
100
AcDbEntity
  8
0
  0
LINE
  5
2D4C
330
1E
100
AcDbEntity
  8
0
100
AcDbLine
 10
2.955708661417322
 20
3.901370264871009
 30
0.0
 11
2.955708661417322
 21
3.912197036524553
 31
0.0
  0
POLYLINE
  5
2D4D
330
1E
100
AcDbEntity
  8
0
100
AcDb2dPolyline
 66
     1
 10
0.0
 20
0.0
 30
0.0
  0
VERTEX
  5
2FC5
330
2D4D
100
AcDbEntity
  8
0
100
AcDbVertex
100
AcDb2dVertex
 10
2.955708661417322
 20
3.901370264871009
 30
0.0
  0
VERTEX
  5
2FC6
330
2D4D
100
AcDbEntity
  8
0
100
AcDbVertex
100
AcDb2dVertex
 10
2.955708661417322
 20
3.895464753059985
 30
0.0
  0
VERTEX
  5
2FC7
330
2D4D
100
AcDbEntity
  8
0
100
AcDbVertex
100
AcDb2dVertex
 10
2.955708661417322
 20
3.890543493217466
 30
0.0
  0
SEQEND
  5
2FC8
330
2D4D
100
AcDbEntity
  8
0
  0
LINE
  5
2D52
330
1E
100
AcDbEntity
  8
0
100
AcDbLine
 10
2.955708661417322
 20
3.890543493217466
 30
0.0
 11
2.955708661417322
 21
3.863968690067859
 31
0.0
  0
LINE
  5
2D53
330
1E
100
AcDbEntity
  8
0
100
AcDbLine
 10
4.106299212598425
 20
3.890543493217466
 30
0.0
 11
4.106299212598425
 21
3.863968690067859
 31
0.0
  0
POLYLINE
  5
2D54
330
1E
100
AcDbEntity
  8
0
100
AcDb2dPolyline
 66
     1
 10
0.0
 20
0.0
 30
0.0
  0
VERTEX
  5
2FC9
330
2D54
100
AcDbEntity
  8
0
100
AcDbVertex
100
AcDb2dVertex
 10
4.106299212598425
 20
3.890543493217466
 30
0.0
  0
VERTEX
  5
2FCA
330
2D54
100
AcDbEntity
  8
0
100
AcDbVertex
100
AcDb2dVertex
 10
4.106299212598425
 20
3.895464753059985
 30
0.0
  0
VERTEX
  5
2FCB
330
2D54
100
AcDbEntity
  8
0
100
AcDbVertex
100
AcDb2dVertex
 10
4.106299212598425
 20
3.901370264871009
 30
0.0
  0
SEQEND
  5
2FCC
330
2D54
100
AcDbEntity
  8
0
  0
LINE
  5
2D59
330
1E
100
AcDbEntity
  8
0
100
AcDbLine
 10
4.106299212598425
 20
3.901370264871009
 30
0.0
 11
4.106299212598425
 21
3.912197036524553
 31
0.0
  0
POLYLINE
  5
2D5A
330
1E
100
AcDbEntity
  8
0
100
AcDb2dPolyline
 66
     1
 10
0.0
 20
0.0
 30
0.0
  0
VERTEX
  5
2FCD
330
2D5A
100
AcDbEntity
  8
0
100
AcDbVertex
100
AcDb2dVertex
 10
4.106299212598425
 20
3.862000186130852
 30
0.0
  0
VERTEX
  5
2FCE
330
2D5A
100
AcDbEntity
  8
0
100
AcDbVertex
100
AcDb2dVertex
 10
4.106299212598425
 20
3.862984438099355
 30
0.0
  0
VERTEX
  5
2FCF
330
2D5A
100
AcDbEntity
  8
0
100
AcDbVertex
100
AcDb2dVertex
 10
4.106299212598425
 20
3.863968690067859
 30
0.0
  0
SEQEND
  5
2FD0
330
2D5A
100
AcDbEntity
  8
0
  0
LINE
  5
2D5F
330
1E
100
AcDbEntity
  8
0
100
AcDbLine
 10
4.106299212598425
 20
3.870858453847387
 30
0.0
 11
3.606299212598425
 21
3.870858453847387
 31
0.0
  0
LINE
  5
2D60
330
1E
100
AcDbEntity
  8
0
100
AcDbLine
 10
3.606299212598425
 20
3.912197036524553
 30
0.0
 11
4.106299212598425
 21
3.912197036524553
 31
0.0
  0
POLYLINE
  5
2D61
330
1E
100
AcDbEntity
  8
0
100
AcDb2dPolyline
 66
     1
 10
0.0
 20
0.0
 30
0.0
  0
VERTEX
  5
2FD1
330
2D61
100
AcDbEntity
  8
0
100
AcDbVertex
100
AcDb2dVertex
 10
3.606299212598425
 20
3.863968690067859
 30
0.0
  0
VERTEX
  5
2FD2
330
2D61
100
AcDbEntity
  8
0
100
AcDbVertex
100
AcDb2dVertex
 10
3.606299212598425
 20
3.862984438099355
 30
0.0
  0
VERTEX
  5
2FD3
330
2D61
100
AcDbEntity
  8
0
100
AcDbVertex
100
AcDb2dVertex
 10
3.606299212598425
 20
3.862000186130852
 30
0.0
  0
SEQEND
  5
2FD4
330
2D61
100
AcDbEntity
  8
0
  0
LINE
  5
2D66
330
1E
100
AcDbEntity
  8
0
100
AcDbLine
 10
3.606299212598425
 20
3.901370264871009
 30
0.0
 11
3.606299212598425
 21
3.912197036524553
 31
0.0
  0
POLYLINE
  5
2D67
330
1E
100
AcDbEntity
  8
0
100
AcDb2dPolyline
 66
     1
 10
0.0
 20
0.0
 30
0.0
  0
VERTEX
  5
2FD5
330
2D67
100
AcDbEntity
  8
0
100
AcDbVertex
100
AcDb2dVertex
 10
3.606299212598425
 20
3.901370264871009
 30
0.0
  0
VERTEX
  5
2FD6
330
2D67
100
AcDbEntity
  8
0
100
AcDbVertex
100
AcDb2dVertex
 10
3.606299212598425
 20
3.895464753059985
 30
0.0
  0
VERTEX
  5
2FD7
330
2D67
100
AcDbEntity
  8
0
100
AcDbVertex
100
AcDb2dVertex
 10
3.606299212598425
 20
3.890543493217466
 30
0.0
  0
SEQEND
  5
2FD8
330
2D67
100
AcDbEntity
  8
0
  0
LINE
  5
2D6C
330
1E
100
AcDbEntity
  8
0
100
AcDbLine
 10
3.606299212598425
 20
3.890543493217466
 30
0.0
 11
3.606299212598425
 21
3.863968690067859
 31
0.0
  0
LINE
  5
2D6D
330
1E
100
AcDbEntity
  8
0
100
AcDbLine
 10
2.955708661417322
 20
3.862000186130852
 30
0.0
 11
2.915354330708661
 21
3.862000186130852
 31
0.0
  0
LINE
  5
2D6E
330
1E
100
AcDbEntity
  8
0
100
AcDbLine
 10
2.915354330708661
 20
3.863968690067859
 30
0.0
 11
2.955708661417322
 21
3.863968690067859
 31
0.0
  0
LINE
  5
2D6F
330
1E
100
AcDbEntity
  8
0
100
AcDbLine
 10
3.497047244094487
 20
3.862000186130852
 30
0.0
 11
3.455708661417322
 21
3.862000186130852
 31
0.0
  0
LINE
  5
2D70
330
1E
100
AcDbEntity
  8
0
100
AcDbLine
 10
3.455708661417322
 20
3.863968690067859
 30
0.0
 11
3.497047244094487
 21
3.863968690067859
 31
0.0
  0
LINE
  5
2D71
330
1E
100
AcDbEntity
  8
0
100
AcDbLine
 10
3.606299212598425
 20
3.862000186130852
 30
0.0
 11
3.564960629921259
 21
3.862000186130852
 31
0.0
  0
LINE
  5
2D72
330
1E
100
AcDbEntity
  8
0
100
AcDbLine
 10
3.564960629921259
 20
3.863968690067859
 30
0.0
 11
3.606299212598425
 21
3.863968690067859
 31
0.0
  0
LINE
  5
2D73
330
1E
100
AcDbEntity
  8
0
100
AcDbLine
 10
4.146653543307086
 20
3.862000186130852
 30
0.0
 11
4.106299212598425
 21
3.862000186130852
 31
0.0
  0
LINE
  5
2D74
330
1E
100
AcDbEntity
  8
0
100
AcDbLine
 10
4.106299212598425
 20
3.863968690067859
 30
0.0
 11
4.146653543307086
 21
3.863968690067859
 31
0.0
  0
LINE
  5
2D75
330
1E
100
AcDbEntity
  8
0
100
AcDbLine
 10
2.915354330708661
 20
3.901370264871009
 30
0.0
 11
2.955708661417322
 21
3.901370264871009
 31
0.0
  0
LINE
  5
2D76
330
1E
100
AcDbEntity
  8
0
100
AcDbLine
 10
2.955708661417322
 20
3.890543493217466
 30
0.0
 11
2.915354330708661
 21
3.890543493217466
 31
0.0
  0
LINE
  5
2D77
330
1E
100
AcDbEntity
  8
0
100
AcDbLine
 10
3.497047244094487
 20
3.890543493217466
 30
0.0
 11
3.455708661417322
 21
3.890543493217466
 31
0.0
  0
LINE
  5
2D78
330
1E
100
AcDbEntity
  8
0
100
AcDbLine
 10
3.455708661417322
 20
3.901370264871009
 30
0.0
 11
3.497047244094487
 21
3.901370264871009
 31
0.0
  0
LINE
  5
2D79
330
1E
100
AcDbEntity
  8
0
100
AcDbLine
 10
3.497047244094487
 20
3.94664585542219
 30
0.0
 11
2.915354330708661
 21
3.94664585542219
 31
0.0
  0
LINE
  5
2D7A
330
1E
100
AcDbEntity
  8
0
100
AcDbLine
 10
3.497047244094487
 20
3.958456879044237
 30
0.0
 11
2.915354330708661
 21
3.958456879044237
 31
0.0
  0
LINE
  5
2D7B
330
1E
100
AcDbEntity
  8
0
100
AcDbLine
 10
3.497047244094487
 20
4.093299398729277
 30
0.0
 11
2.915354330708661
 21
4.093299398729277
 31
0.0
  0
LINE
  5
2D7C
330
1E
100
AcDbEntity
  8
0
100
AcDbLine
 10
3.497047244094487
 20
4.096252154634789
 30
0.0
 11
2.915354330708661
 21
4.096252154634789
 31
0.0
  0
LINE
  5
2D7D
330
1E
100
AcDbEntity
  8
0
100
AcDbLine
 10
2.915354330708661
 20
4.0992049105403
 30
0.0
 11
3.497047244094487
 21
4.0992049105403
 31
0.0
  0
LINE
  5
2D7E
330
1E
100
AcDbEntity
  8
0
100
AcDbLine
 10
2.915354330708661
 20
4.122826957784394
 30
0.0
 11
3.497047244094487
 21
4.122826957784394
 31
0.0
  0
LINE
  5
2D7F
330
1E
100
AcDbEntity
  8
0
100
AcDbLine
 10
2.915354330708661
 20
3.665149792430064
 30
0.0
 11
3.497047244094487
 21
3.665149792430064
 31
0.0
  0
LINE
  5
2D80
330
1E
100
AcDbEntity
  8
0
100
AcDbLine
 10
3.564960629921259
 20
3.901370264871009
 30
0.0
 11
3.606299212598425
 21
3.901370264871009
 31
0.0
  0
LINE
  5
2D81
330
1E
100
AcDbEntity
  8
0
100
AcDbLine
 10
3.606299212598425
 20
3.890543493217466
 30
0.0
 11
3.564960629921259
 21
3.890543493217466
 31
0.0
  0
LINE
  5
2D82
330
1E
100
AcDbEntity
  8
0
100
AcDbLine
 10
4.146653543307086
 20
3.890543493217466
 30
0.0
 11
4.106299212598425
 21
3.890543493217466
 31
0.0
  0
LINE
  5
2D83
330
1E
100
AcDbEntity
  8
0
100
AcDbLine
 10
4.106299212598425
 20
3.901370264871009
 30
0.0
 11
4.146653543307086
 21
3.901370264871009
 31
0.0
  0
LINE
  5
2D84
330
1E
100
AcDbEntity
  8
0
100
AcDbLine
 10
4.146653543307086
 20
3.94664585542219
 30
0.0
 11
3.564960629921259
 21
3.94664585542219
 31
0.0
  0
LINE
  5
2D85
330
1E
100
AcDbEntity
  8
0
100
AcDbLine
 10
4.146653543307086
 20
3.958456879044237
 30
0.0
 11
3.564960629921259
 21
3.958456879044237
 31
0.0
  0
LINE
  5
2D86
330
1E
100
AcDbEntity
  8
0
100
AcDbLine
 10
4.146653543307086
 20
4.093299398729277
 30
0.0
 11
3.564960629921259
 21
4.093299398729277
 31
0.0
  0
LINE
  5
2D87
330
1E
100
AcDbEntity
  8
0
100
AcDbLine
 10
4.146653543307086
 20
4.096252154634789
 30
0.0
 11
3.564960629921259
 21
4.096252154634789
 31
0.0
  0
LINE
  5
2D88
330
1E
100
AcDbEntity
  8
0
100
AcDbLine
 10
3.564960629921259
 20
4.0992049105403
 30
0.0
 11
4.146653543307086
 21
4.0992049105403
 31
0.0
  0
LINE
  5
2D89
330
1E
100
AcDbEntity
  8
0
100
AcDbLine
 10
3.564960629921259
 20
4.122826957784394
 30
0.0
 11
4.146653543307086
 21
4.122826957784394
 31
0.0
  0
LINE
  5
2D8A
330
1E
100
AcDbEntity
  8
0
100
AcDbLine
 10
4.177165354330708
 20
3.64644900502849
 30
0.0
 11
4.149606299212598
 21
4.178929319989119
 31
0.0
  0
LINE
  5
2D8B
330
1E
100
AcDbEntity
  8
0
100
AcDbLine
 10
4.149606299212598
 20
4.178929319989119
 30
0.0
 11
2.912401574803149
 21
4.178929319989119
 31
0.0
  0
LINE
  5
2D8C
330
1E
100
AcDbEntity
  8
0
100
AcDbLine
 10
2.912401574803149
 20
4.178929319989119
 30
0.0
 11
2.884842519685039
 21
3.64644900502849
 31
0.0
  0
LINE
  5
2D8D
330
1E
100
AcDbEntity
  8
0
100
AcDbLine
 10
3.564960629921259
 20
3.665149792430064
 30
0.0
 11
4.146653543307086
 21
3.665149792430064
 31
0.0
  0
LINE
  5
2D8E
330
1E
100
AcDbEntity
  8
0
100
AcDbLine
 10
4.226377952755905
 20
3.239952942036363
 30
0.0
 11
2.835629921259842
 21
3.239952942036363
 31
0.0
  0
POLYLINE
  5
2D8F
330
1E
100
AcDbEntity
  8
0
100
AcDb2dPolyline
 66
     1
 10
0.0
 20
0.0
 30
0.0
  0
VERTEX
  5
2FD9
330
2D8F
100
AcDbEntity
  8
0
100
AcDbVertex
100
AcDb2dVertex
 10
2.835629921259842
 20
3.239952942036363
 30
0.0
  0
VERTEX
  5
2FDA
330
2D8F
100
AcDbEntity
  8
0
100
AcDbVertex
100
AcDb2dVertex
 10
2.835629921259842
 20
3.244874201878883
 30
0.0
  0
VERTEX
  5
2FDB
330
2D8F
100
AcDbEntity
  8
0
100
AcDbVertex
100
AcDb2dVertex
 10
2.835629921259842
 20
3.258653729437938
 30
0.0
  0
VERTEX
  5
2FDC
330
2D8F
100
AcDbEntity
  8
0
100
AcDbVertex
100
AcDb2dVertex
 10
2.834645669291338
 20
3.279323020776521
 30
0.0
  0
VERTEX
  5
2FDD
330
2D8F
100
AcDbEntity
  8
0
100
AcDbVertex
100
AcDb2dVertex
 10
2.833661417322834
 20
3.306882075894631
 30
0.0
  0
SEQEND
  5
2FDE
330
2D8F
100
AcDbEntity
  8
0
  0
POLYLINE
  5
2D96
330
1E
100
AcDbEntity
  8
0
100
AcDb2dPolyline
 66
     1
 10
0.0
 20
0.0
 30
0.0
  0
VERTEX
  5
2FDF
330
2D96
100
AcDbEntity
  8
0
100
AcDbVertex
100
AcDb2dVertex
 10
4.228346456692912
 20
3.306882075894631
 30
0.0
  0
VERTEX
  5
2FE0
330
2D96
100
AcDbEntity
  8
0
100
AcDbVertex
100
AcDb2dVertex
 10
4.227362204724409
 20
3.279323020776521
 30
0.0
  0
VERTEX
  5
2FE1
330
2D96
100
AcDbEntity
  8
0
100
AcDbVertex
100
AcDb2dVertex
 10
4.226377952755905
 20
3.258653729437938
 30
0.0
  0
VERTEX
  5
2FE2
330
2D96
100
AcDbEntity
  8
0
100
AcDbVertex
100
AcDb2dVertex
 10
4.226377952755905
 20
3.244874201878883
 30
0.0
  0
VERTEX
  5
2FE3
330
2D96
100
AcDbEntity
  8
0
100
AcDbVertex
100
AcDb2dVertex
 10
4.226377952755905
 20
3.239952942036363
 30
0.0
  0
SEQEND
  5
2FE4
330
2D96
100
AcDbEntity
  8
0
  0
LINE
  5
2D9D
330
1E
100
AcDbEntity
  8
0
100
AcDbLine
 10
4.243110236220472
 20
3.128732469595418
 30
0.0
 11
4.239173228346456
 21
3.306882075894631
 31
0.0
  0
LINE
  5
2D9E
330
1E
100
AcDbEntity
  8
0
100
AcDbLine
 10
4.273622047244094
 20
3.128732469595418
 30
0.0
 11
4.243110236220472
 21
3.128732469595418
 31
0.0
  0
LINE
  5
2D9F
330
1E
100
AcDbEntity
  8
0
100
AcDbLine
 10
4.273622047244094
 20
3.128732469595418
 30
0.0
 11
4.348425196850393
 21
3.258653729437938
 31
0.0
  0
LINE
  5
2DA0
330
1E
100
AcDbEntity
  8
0
100
AcDbLine
 10
4.348425196850393
 20
3.277354516839513
 30
0.0
 11
4.348425196850393
 21
3.258653729437938
 31
0.0
  0
LINE
  5
2DA1
330
1E
100
AcDbEntity
  8
0
100
AcDbLine
 10
4.313976377952755
 20
3.277354516839513
 30
0.0
 11
4.348425196850393
 21
3.277354516839513
 31
0.0
  0
LINE
  5
2DA2
330
1E
100
AcDbEntity
  8
0
100
AcDbLine
 10
4.313976377952755
 20
3.283260028650536
 30
0.0
 11
4.313976377952755
 21
3.277354516839513
 31
0.0
  0
LINE
  5
2DA3
330
1E
100
AcDbEntity
  8
0
100
AcDbLine
 10
2.748031496062992
 20
3.283260028650536
 30
0.0
 11
2.748031496062992
 21
3.277354516839513
 31
0.0
  0
LINE
  5
2DA4
330
1E
100
AcDbEntity
  8
0
100
AcDbLine
 10
2.748031496062992
 20
3.277354516839513
 30
0.0
 11
2.713582677165354
 21
3.277354516839513
 31
0.0
  0
LINE
  5
2DA5
330
1E
100
AcDbEntity
  8
0
100
AcDbLine
 10
2.713582677165354
 20
3.277354516839513
 30
0.0
 11
2.713582677165354
 21
3.258653729437938
 31
0.0
  0
LINE
  5
2DA6
330
1E
100
AcDbEntity
  8
0
100
AcDbLine
 10
2.788385826771653
 20
3.128732469595418
 30
0.0
 11
2.713582677165354
 21
3.258653729437938
 31
0.0
  0
LINE
  5
2DA7
330
1E
100
AcDbEntity
  8
0
100
AcDbLine
 10
2.818897637795275
 20
3.128732469595418
 30
0.0
 11
2.788385826771653
 21
3.128732469595418
 31
0.0
  0
LINE
  5
2DA8
330
1E
100
AcDbEntity
  8
0
100
AcDbLine
 10
2.818897637795275
 20
3.128732469595418
 30
0.0
 11
2.822834645669291
 21
3.306882075894631
 31
0.0
  0
POLYLINE
  5
2DA9
330
1E
100
AcDbEntity
  8
0
100
AcDb2dPolyline
 66
     1
 10
0.0
 20
0.0
 30
0.0
  0
VERTEX
  5
2FE5
330
2DA9
100
AcDbEntity
  8
0
100
AcDbVertex
100
AcDb2dVertex
 10
4.149606299212598
 20
4.178929319989119
 30
0.0
  0
VERTEX
  5
2FE6
330
2DA9
100
AcDbEntity
  8
0
100
AcDbVertex
100
AcDb2dVertex
 10
4.149606299212598
 20
4.199598611327702
 30
0.0
  0
VERTEX
  5
2FE7
330
2DA9
100
AcDbEntity
  8
0
100
AcDbVertex
100
AcDb2dVertex
 10
4.149606299212598
 20
4.206488375107229
 30
0.0
  0
SEQEND
  5
2FE8
330
2DA9
100
AcDbEntity
  8
0
  0
POLYLINE
  5
2DAE
330
1E
100
AcDbEntity
  8
0
100
AcDb2dPolyline
 66
     1
 10
0.0
 20
0.0
 30
0.0
  0
VERTEX
  5
2FE9
330
2DAE
100
AcDbEntity
  8
0
100
AcDbVertex
100
AcDb2dVertex
 10
2.912401574803149
 20
4.206488375107229
 30
0.0
  0
VERTEX
  5
2FEA
330
2DAE
100
AcDbEntity
  8
0
100
AcDbVertex
100
AcDb2dVertex
 10
2.912401574803149
 20
4.199598611327702
 30
0.0
  0
VERTEX
  5
2FEB
330
2DAE
100
AcDbEntity
  8
0
100
AcDbVertex
100
AcDb2dVertex
 10
2.912401574803149
 20
4.178929319989119
 30
0.0
  0
SEQEND
  5
2FEC
330
2DAE
100
AcDbEntity
  8
0
  0
POLYLINE
  5
2DB3
330
1E
100
AcDbEntity
  8
0
100
AcDb2dPolyline
 66
     1
 10
0.0
 20
0.0
 30
0.0
  0
VERTEX
  5
2FED
330
2DB3
100
AcDbEntity
  8
0
100
AcDbVertex
100
AcDb2dVertex
 10
4.242125984251968
 20
4.117905697941875
 30
0.0
  0
VERTEX
  5
2FEE
330
2DB3
100
AcDbEntity
  8
0
100
AcDbVertex
100
AcDb2dVertex
 10
4.237204724409449
 20
4.137590737311954
 30
0.0
  0
VERTEX
  5
2FEF
330
2DB3
100
AcDbEntity
  8
0
100
AcDbVertex
100
AcDb2dVertex
 10
4.223425196850393
 20
4.155307272745025
 30
0.0
  0
VERTEX
  5
2FF0
330
2DB3
100
AcDbEntity
  8
0
100
AcDbVertex
100
AcDb2dVertex
 10
4.202755905511811
 20
4.168102548335576
 30
0.0
  0
VERTEX
  5
2FF1
330
2DB3
100
AcDbEntity
  8
0
100
AcDbVertex
100
AcDb2dVertex
 10
4.177165354330708
 20
4.176960816052111
 30
0.0
  0
VERTEX
  5
2FF2
330
2DB3
100
AcDbEntity
  8
0
100
AcDbVertex
100
AcDb2dVertex
 10
4.149606299212598
 20
4.178929319989119
 30
0.0
  0
SEQEND
  5
2FF3
330
2DB3
100
AcDbEntity
  8
0
  0
POLYLINE
  5
2DBB
330
1E
100
AcDbEntity
  8
0
100
AcDb2dPolyline
 66
     1
 10
0.0
 20
0.0
 30
0.0
  0
VERTEX
  5
2FF4
330
2DBB
100
AcDbEntity
  8
0
100
AcDbVertex
100
AcDb2dVertex
 10
2.819881889763779
 20
4.117905697941875
 30
0.0
  0
VERTEX
  5
2FF5
330
2DBB
100
AcDbEntity
  8
0
100
AcDbVertex
100
AcDb2dVertex
 10
2.824803149606299
 20
4.137590737311954
 30
0.0
  0
VERTEX
  5
2FF6
330
2DBB
100
AcDbEntity
  8
0
100
AcDbVertex
100
AcDb2dVertex
 10
2.838582677165354
 20
4.155307272745025
 30
0.0
  0
VERTEX
  5
2FF7
330
2DBB
100
AcDbEntity
  8
0
100
AcDbVertex
100
AcDb2dVertex
 10
2.859251968503937
 20
4.168102548335576
 30
0.0
  0
VERTEX
  5
2FF8
330
2DBB
100
AcDbEntity
  8
0
100
AcDbVertex
100
AcDb2dVertex
 10
2.884842519685039
 20
4.176960816052111
 30
0.0
  0
VERTEX
  5
2FF9
330
2DBB
100
AcDbEntity
  8
0
100
AcDbVertex
100
AcDb2dVertex
 10
2.912401574803149
 20
4.178929319989119
 30
0.0
  0
SEQEND
  5
2FFA
330
2DBB
100
AcDbEntity
  8
0
  0
LINE
  5
2DC3
330
1E
100
AcDbEntity
  8
0
100
AcDbLine
 10
2.508858267716535
 20
2.846252154634788
 30
0.0
 11
2.510826771653543
 21
2.726173414477308
 31
0.0
  0
LINE
  5
2DC4
330
1E
100
AcDbEntity
  8
0
100
AcDbLine
 10
2.531496062992125
 20
2.846252154634788
 30
0.0
 11
2.533464566929133
 21
2.726173414477308
 31
0.0
  0
LINE
  5
2DC5
330
1E
100
AcDbEntity
  8
0
100
AcDbLine
 10
2.531496062992125
 20
2.846252154634788
 30
0.0
 11
2.613188976377952
 21
2.846252154634788
 31
0.0
  0
LINE
  5
2DC6
330
1E
100
AcDbEntity
  8
0
100
AcDbLine
 10
2.613188976377952
 20
2.846252154634788
 30
0.0
 11
2.61515748031496
 21
2.882669477469434
 31
0.0
  0
LINE
  5
2DC7
330
1E
100
AcDbEntity
  8
0
100
AcDbLine
 10
2.53248031496063
 20
2.882669477469434
 30
0.0
 11
2.61515748031496
 21
2.882669477469434
 31
0.0
  0
LINE
  5
2DC8
330
1E
100
AcDbEntity
  8
0
100
AcDbLine
 10
2.53248031496063
 20
2.882669477469434
 30
0.0
 11
2.531496062992125
 21
2.846252154634788
 31
0.0
  0
LINE
  5
2DC9
330
1E
100
AcDbEntity
  8
0
100
AcDbLine
 10
2.605314960629921
 20
2.69664585542219
 30
0.0
 11
2.563976377952756
 21
2.69664585542219
 31
0.0
  0
LINE
  5
2DCA
330
1E
100
AcDbEntity
  8
0
100
AcDbLine
 10
2.613188976377952
 20
2.846252154634788
 30
0.0
 11
2.605314960629921
 21
2.69664585542219
 31
0.0
  0
POLYLINE
  5
2DCB
330
1E
100
AcDbEntity
  8
0
100
AcDb2dPolyline
 66
     1
 10
0.0
 20
0.0
 30
0.0
  0
VERTEX
  5
2FFB
330
2DCB
100
AcDbEntity
  8
0
100
AcDbVertex
100
AcDb2dVertex
 10
2.563976377952756
 20
2.69664585542219
 30
0.0
  0
VERTEX
  5
2FFC
330
2DCB
100
AcDbEntity
  8
0
100
AcDbVertex
100
AcDb2dVertex
 10
2.549212598425196
 20
2.700582863296206
 30
0.0
  0
VERTEX
  5
2FFD
330
2DCB
100
AcDbEntity
  8
0
100
AcDbVertex
100
AcDb2dVertex
 10
2.538385826771653
 20
2.711409634949749
 30
0.0
  0
VERTEX
  5
2FFE
330
2DCB
100
AcDbEntity
  8
0
100
AcDbVertex
100
AcDb2dVertex
 10
2.533464566929133
 20
2.726173414477308
 30
0.0
  0
SEQEND
  5
2FFF
330
2DCB
100
AcDbEntity
  8
0
  0
POLYLINE
  5
2DD1
330
1E
100
AcDbEntity
  8
0
100
AcDb2dPolyline
 66
     1
 10
0.0
 20
0.0
 30
0.0
  0
VERTEX
  5
3000
330
2DD1
100
AcDbEntity
  8
0
100
AcDbVertex
100
AcDb2dVertex
 10
2.540354330708661
 20
2.69664585542219
 30
0.0
  0
VERTEX
  5
3001
330
2DD1
100
AcDbEntity
  8
0
100
AcDbVertex
100
AcDb2dVertex
 10
2.525590551181102
 20
2.700582863296206
 30
0.0
  0
VERTEX
  5
3002
330
2DD1
100
AcDbEntity
  8
0
100
AcDbVertex
100
AcDb2dVertex
 10
2.514763779527558
 20
2.711409634949749
 30
0.0
  0
VERTEX
  5
3003
330
2DD1
100
AcDbEntity
  8
0
100
AcDbVertex
100
AcDb2dVertex
 10
2.510826771653543
 20
2.726173414477308
 30
0.0
  0
SEQEND
  5
3004
330
2DD1
100
AcDbEntity
  8
0
  0
LINE
  5
2DD7
330
1E
100
AcDbEntity
  8
0
100
AcDbLine
 10
2.706692913385826
 20
3.181882075894631
 30
0.0
 11
2.722440944881889
 21
3.241921445973371
 31
0.0
  0
LINE
  5
2DD8
330
1E
100
AcDbEntity
  8
0
100
AcDbLine
 10
2.563976377952756
 20
3.033260028650536
 30
0.0
 11
2.510826771653543
 21
2.947630107390694
 31
0.0
  0
LINE
  5
2DD9
330
1E
100
AcDbEntity
  8
0
100
AcDbLine
 10
2.510826771653543
 20
2.947630107390694
 30
0.0
 11
2.508858267716535
 21
2.846252154634788
 31
0.0
  0
LINE
  5
2DDA
330
1E
100
AcDbEntity
  8
0
100
AcDbLine
 10
2.540354330708661
 20
2.69664585542219
 30
0.0
 11
2.563976377952756
 21
2.69664585542219
 31
0.0
  0
LINE
  5
2DDB
330
1E
100
AcDbEntity
  8
0
100
AcDbLine
 10
2.508858267716535
 20
2.846252154634788
 30
0.0
 11
2.531496062992125
 21
2.846252154634788
 31
0.0
  0
LINE
  5
2DDC
330
1E
100
AcDbEntity
  8
0
100
AcDbLine
 10
2.569881889763779
 20
3.369874201878883
 30
0.0
 11
2.563976377952756
 21
3.033260028650536
 31
0.0
  0
LINE
  5
2DDD
330
1E
100
AcDbEntity
  8
0
100
AcDbLine
 10
2.61515748031496
 20
2.882669477469434
 30
0.0
 11
2.627952755905511
 21
3.13660648534345
 31
0.0
  0
LINE
  5
2DDE
330
1E
100
AcDbEntity
  8
0
100
AcDbLine
 10
2.605314960629921
 20
2.69664585542219
 30
0.0
 11
2.638779527559055
 21
2.69664585542219
 31
0.0
  0
LINE
  5
2DDF
330
1E
100
AcDbEntity
  8
0
100
AcDbLine
 10
2.603346456692913
 20
3.306882075894631
 30
0.0
 11
2.604330708661417
 21
3.383653729437938
 31
0.0
  0
LINE
  5
2DE0
330
1E
100
AcDbEntity
  8
0
100
AcDbLine
 10
2.720472440944881
 20
3.283260028650536
 30
0.0
 11
2.720472440944881
 21
3.277354516839513
 31
0.0
  0
LINE
  5
2DE1
330
1E
100
AcDbEntity
  8
0
100
AcDbLine
 10
2.716535433070866
 20
3.25176396565841
 30
0.0
 11
2.638779527559055
 21
2.69664585542219
 31
0.0
  0
LINE
  5
2DE2
330
1E
100
AcDbEntity
  8
0
100
AcDbLine
 10
2.731299212598425
 20
3.277354516839513
 30
0.0
 11
2.731299212598425
 21
3.283260028650536
 31
0.0
  0
LINE
  5
2DE3
330
1E
100
AcDbEntity
  8
0
100
AcDbLine
 10
2.703740157480314
 20
3.25668522550093
 30
0.0
 11
2.604330708661417
 21
3.25668522550093
 31
0.0
  0
LINE
  5
2DE4
330
1E
100
AcDbEntity
  8
0
100
AcDbLine
 10
2.703740157480314
 20
3.25668522550093
 30
0.0
 11
2.704724409448818
 21
3.282275776682033
 31
0.0
  0
LINE
  5
2DE5
330
1E
100
AcDbEntity
  8
0
100
AcDbLine
 10
2.604330708661417
 20
3.25668522550093
 30
0.0
 11
2.603346456692913
 21
3.306882075894631
 31
0.0
  0
LINE
  5
2DE6
330
1E
100
AcDbEntity
  8
0
100
AcDbLine
 10
2.753937007874015
 20
3.283260028650536
 30
0.0
 11
2.704724409448818
 21
3.283260028650536
 31
0.0
  0
LINE
  5
2DE7
330
1E
100
AcDbEntity
  8
0
100
AcDbLine
 10
2.569881889763779
 20
3.369874201878883
 30
0.0
 11
2.649606299212598
 21
3.449598611327702
 31
0.0
  0
LINE
  5
2DE8
330
1E
100
AcDbEntity
  8
0
100
AcDbLine
 10
2.638779527559055
 20
3.13660648534345
 30
0.0
 11
2.627952755905511
 21
3.13660648534345
 31
0.0
  0
LINE
  5
2DE9
330
1E
100
AcDbEntity
  8
0
100
AcDbLine
 10
2.638779527559055
 20
3.13660648534345
 30
0.0
 11
2.64271653543307
 21
3.25668522550093
 31
0.0
  0
LINE
  5
2DEA
330
1E
100
AcDbEntity
  8
0
100
AcDbLine
 10
2.604330708661417
 20
3.383653729437938
 30
0.0
 11
2.64763779527559
 21
3.383653729437938
 31
0.0
  0
LINE
  5
2DEB
330
1E
100
AcDbEntity
  8
0
100
AcDbLine
 10
2.603346456692913
 20
3.306882075894631
 30
0.0
 11
2.644685039370078
 21
3.306882075894631
 31
0.0
  0
LINE
  5
2DEC
330
1E
100
AcDbEntity
  8
0
100
AcDbLine
 10
2.737204724409448
 20
3.277354516839513
 30
0.0
 11
2.737204724409448
 21
3.283260028650536
 31
0.0
  0
LINE
  5
2DED
330
1E
100
AcDbEntity
  8
0
100
AcDbLine
 10
2.752952755905511
 20
3.306882075894631
 30
0.0
 11
2.753937007874015
 21
3.283260028650536
 31
0.0
  0
LINE
  5
2DEE
330
1E
100
AcDbEntity
  8
0
100
AcDbLine
 10
2.656496062992125
 20
3.641527745185969
 30
0.0
 11
2.644685039370078
 21
3.306882075894631
 31
0.0
  0
POLYLINE
  5
2DEF
330
1E
100
AcDbEntity
  8
0
100
AcDb2dPolyline
 66
     1
 10
0.0
 20
0.0
 30
0.0
  0
VERTEX
  5
3005
330
2DEF
100
AcDbEntity
  8
0
100
AcDbVertex
100
AcDb2dVertex
 10
2.644685039370078
 20
3.306882075894631
 30
0.0
  0
VERTEX
  5
3006
330
2DEF
100
AcDbEntity
  8
0
100
AcDbVertex
100
AcDb2dVertex
 10
2.648622047244094
 20
3.306882075894631
 30
0.0
  0
VERTEX
  5
3007
330
2DEF
100
AcDbEntity
  8
0
100
AcDbVertex
100
AcDb2dVertex
 10
2.658464566929133
 20
3.306882075894631
 30
0.0
  0
VERTEX
  5
3008
330
2DEF
100
AcDbEntity
  8
0
100
AcDbVertex
100
AcDb2dVertex
 10
2.674212598425196
 20
3.306882075894631
 30
0.0
  0
VERTEX
  5
3009
330
2DEF
100
AcDbEntity
  8
0
100
AcDbVertex
100
AcDb2dVertex
 10
2.694881889763779
 20
3.306882075894631
 30
0.0
  0
VERTEX
  5
300A
330
2DEF
100
AcDbEntity
  8
0
100
AcDbVertex
100
AcDb2dVertex
 10
2.718503937007874
 20
3.306882075894631
 30
0.0
  0
VERTEX
  5
300B
330
2DEF
100
AcDbEntity
  8
0
100
AcDbVertex
100
AcDb2dVertex
 10
2.74507874015748
 20
3.306882075894631
 30
0.0
  0
SEQEND
  5
300C
330
2DEF
100
AcDbEntity
  8
0
  0
LINE
  5
2DF8
330
1E
100
AcDbEntity
  8
0
100
AcDbLine
 10
2.74507874015748
 20
3.306882075894631
 30
0.0
 11
2.755905511811023
 21
3.641527745185969
 31
0.0
  0
POLYLINE
  5
2DF9
330
1E
100
AcDbEntity
  8
0
100
AcDb2dPolyline
 66
     1
 10
0.0
 20
0.0
 30
0.0
  0
VERTEX
  5
300D
330
2DF9
100
AcDbEntity
  8
0
100
AcDbVertex
100
AcDb2dVertex
 10
2.656496062992125
 20
3.641527745185969
 30
0.0
  0
VERTEX
  5
300E
330
2DF9
100
AcDbEntity
  8
0
100
AcDbVertex
100
AcDb2dVertex
 10
2.659448818897637
 20
3.641527745185969
 30
0.0
  0
VERTEX
  5
300F
330
2DF9
100
AcDbEntity
  8
0
100
AcDbVertex
100
AcDb2dVertex
 10
2.670275590551181
 20
3.641527745185969
 30
0.0
  0
VERTEX
  5
3010
330
2DF9
100
AcDbEntity
  8
0
100
AcDbVertex
100
AcDb2dVertex
 10
2.686023622047243
 20
3.641527745185969
 30
0.0
  0
VERTEX
  5
3011
330
2DF9
100
AcDbEntity
  8
0
100
AcDbVertex
100
AcDb2dVertex
 10
2.706692913385826
 20
3.641527745185969
 30
0.0
  0
VERTEX
  5
3012
330
2DF9
100
AcDbEntity
  8
0
100
AcDbVertex
100
AcDb2dVertex
 10
2.730314960629921
 20
3.641527745185969
 30
0.0
  0
VERTEX
  5
3013
330
2DF9
100
AcDbEntity
  8
0
100
AcDbVertex
100
AcDb2dVertex
 10
2.755905511811023
 20
3.641527745185969
 30
0.0
  0
SEQEND
  5
3014
330
2DF9
100
AcDbEntity
  8
0
  0
LINE
  5
2E02
330
1E
100
AcDbEntity
  8
0
100
AcDbLine
 10
2.704724409448818
 20
3.283260028650536
 30
0.0
 11
2.702755905511811
 21
3.306882075894631
 31
0.0
  0
POLYLINE
  5
2E03
330
1E
100
AcDbEntity
  8
0
100
AcDb2dPolyline
 66
     1
 10
0.0
 20
0.0
 30
0.0
  0
VERTEX
  5
3015
330
2E03
100
AcDbEntity
  8
0
100
AcDbVertex
100
AcDb2dVertex
 10
2.661417322834645
 20
3.64644900502849
 30
0.0
  0
VERTEX
  5
3016
330
2E03
100
AcDbEntity
  8
0
100
AcDbVertex
100
AcDb2dVertex
 10
2.65748031496063
 20
3.645464753059985
 30
0.0
  0
VERTEX
  5
3017
330
2E03
100
AcDbEntity
  8
0
100
AcDbVertex
100
AcDb2dVertex
 10
2.656496062992125
 20
3.641527745185969
 30
0.0
  0
SEQEND
  5
3018
330
2E03
100
AcDbEntity
  8
0
  0
POLYLINE
  5
2E08
330
1E
100
AcDbEntity
  8
0
100
AcDb2dPolyline
 66
     1
 10
0.0
 20
0.0
 30
0.0
  0
VERTEX
  5
3019
330
2E08
100
AcDbEntity
  8
0
100
AcDbVertex
100
AcDb2dVertex
 10
2.755905511811023
 20
3.641527745185969
 30
0.0
  0
VERTEX
  5
301A
330
2E08
100
AcDbEntity
  8
0
100
AcDbVertex
100
AcDb2dVertex
 10
2.755905511811023
 20
3.645464753059985
 30
0.0
  0
VERTEX
  5
301B
330
2E08
100
AcDbEntity
  8
0
100
AcDbVertex
100
AcDb2dVertex
 10
2.755905511811023
 20
3.64644900502849
 30
0.0
  0
SEQEND
  5
301C
330
2E08
100
AcDbEntity
  8
0
  0
POLYLINE
  5
2E0D
330
1E
100
AcDbEntity
  8
0
100
AcDb2dPolyline
 66
     1
 10
0.0
 20
0.0
 30
0.0
  0
VERTEX
  5
301D
330
2E0D
100
AcDbEntity
  8
0
100
AcDbVertex
100
AcDb2dVertex
 10
2.755905511811023
 20
3.64644900502849
 30
0.0
  0
VERTEX
  5
301E
330
2E0D
100
AcDbEntity
  8
0
100
AcDbVertex
100
AcDb2dVertex
 10
2.727362204724409
 20
3.64644900502849
 30
0.0
  0
VERTEX
  5
301F
330
2E0D
100
AcDbEntity
  8
0
100
AcDbVertex
100
AcDb2dVertex
 10
2.700787401574803
 20
3.64644900502849
 30
0.0
  0
VERTEX
  5
3020
330
2E0D
100
AcDbEntity
  8
0
100
AcDbVertex
100
AcDb2dVertex
 10
2.679133858267716
 20
3.64644900502849
 30
0.0
  0
VERTEX
  5
3021
330
2E0D
100
AcDbEntity
  8
0
100
AcDbVertex
100
AcDb2dVertex
 10
2.666338582677165
 20
3.64644900502849
 30
0.0
  0
VERTEX
  5
3022
330
2E0D
100
AcDbEntity
  8
0
100
AcDbVertex
100
AcDb2dVertex
 10
2.661417322834645
 20
3.64644900502849
 30
0.0
  0
SEQEND
  5
3023
330
2E0D
100
AcDbEntity
  8
0
  0
LINE
  5
2E15
330
1E
100
AcDbEntity
  8
0
100
AcDbLine
 10
2.755905511811023
 20
3.641527745185969
 30
0.0
 11
4.306102362204724
 21
3.641527745185969
 31
0.0
  0
POLYLINE
  5
2E16
330
1E
100
AcDbEntity
  8
0
100
AcDb2dPolyline
 66
     1
 10
0.0
 20
0.0
 30
0.0
  0
VERTEX
  5
3024
330
2E16
100
AcDbEntity
  8
0
100
AcDbVertex
100
AcDb2dVertex
 10
4.306102362204724
 20
3.641527745185969
 30
0.0
  0
VERTEX
  5
3025
330
2E16
100
AcDbEntity
  8
0
100
AcDbVertex
100
AcDb2dVertex
 10
4.306102362204724
 20
3.645464753059985
 30
0.0
  0
VERTEX
  5
3026
330
2E16
100
AcDbEntity
  8
0
100
AcDbVertex
100
AcDb2dVertex
 10
4.306102362204724
 20
3.64644900502849
 30
0.0
  0
SEQEND
  5
3027
330
2E16
100
AcDbEntity
  8
0
  0
LINE
  5
2E1B
330
1E
100
AcDbEntity
  8
0
100
AcDbLine
 10
4.306102362204724
 20
3.64644900502849
 30
0.0
 11
2.755905511811023
 21
3.64644900502849
 31
0.0
  0
POLYLINE
  5
2E1C
330
1E
100
AcDbEntity
  8
0
100
AcDb2dPolyline
 66
     1
 10
0.0
 20
0.0
 30
0.0
  0
VERTEX
  5
3028
330
2E1C
100
AcDbEntity
  8
0
100
AcDbVertex
100
AcDb2dVertex
 10
4.306102362204724
 20
3.64644900502849
 30
0.0
  0
VERTEX
  5
3029
330
2E1C
100
AcDbEntity
  8
0
100
AcDbVertex
100
AcDb2dVertex
 10
4.334645669291338
 20
3.64644900502849
 30
0.0
  0
VERTEX
  5
302A
330
2E1C
100
AcDbEntity
  8
0
100
AcDbVertex
100
AcDb2dVertex
 10
4.361220472440944
 20
3.64644900502849
 30
0.0
  0
VERTEX
  5
302B
330
2E1C
100
AcDbEntity
  8
0
100
AcDbVertex
100
AcDb2dVertex
 10
4.382874015748031
 20
3.64644900502849
 30
0.0
  0
VERTEX
  5
302C
330
2E1C
100
AcDbEntity
  8
0
100
AcDbVertex
100
AcDb2dVertex
 10
4.395669291338582
 20
3.64644900502849
 30
0.0
  0
VERTEX
  5
302D
330
2E1C
100
AcDbEntity
  8
0
100
AcDbVertex
100
AcDb2dVertex
 10
4.400590551181101
 20
3.64644900502849
 30
0.0
  0
SEQEND
  5
302E
330
2E1C
100
AcDbEntity
  8
0
  0
LINE
  5
2E24
330
1E
100
AcDbEntity
  8
0
100
AcDbLine
 10
4.316929133858267
 20
3.306882075894631
 30
0.0
 11
2.74507874015748
 21
3.306882075894631
 31
0.0
  0
POLYLINE
  5
2E25
330
1E
100
AcDbEntity
  8
0
100
AcDb2dPolyline
 66
     1
 10
0.0
 20
0.0
 30
0.0
  0
VERTEX
  5
302F
330
2E25
100
AcDbEntity
  8
0
100
AcDbVertex
100
AcDb2dVertex
 10
4.417322834645669
 20
3.306882075894631
 30
0.0
  0
VERTEX
  5
3030
330
2E25
100
AcDbEntity
  8
0
100
AcDbVertex
100
AcDb2dVertex
 10
4.414370078740157
 20
3.306882075894631
 30
0.0
  0
VERTEX
  5
3031
330
2E25
100
AcDbEntity
  8
0
100
AcDbVertex
100
AcDb2dVertex
 10
4.403543307086613
 20
3.306882075894631
 30
0.0
  0
VERTEX
  5
3032
330
2E25
100
AcDbEntity
  8
0
100
AcDbVertex
100
AcDb2dVertex
 10
4.38779527559055
 20
3.306882075894631
 30
0.0
  0
VERTEX
  5
3033
330
2E25
100
AcDbEntity
  8
0
100
AcDbVertex
100
AcDb2dVertex
 10
4.367125984251968
 20
3.306882075894631
 30
0.0
  0
VERTEX
  5
3034
330
2E25
100
AcDbEntity
  8
0
100
AcDbVertex
100
AcDb2dVertex
 10
4.343503937007874
 20
3.306882075894631
 30
0.0
  0
VERTEX
  5
3035
330
2E25
100
AcDbEntity
  8
0
100
AcDbVertex
100
AcDb2dVertex
 10
4.316929133858267
 20
3.306882075894631
 30
0.0
  0
SEQEND
  5
3036
330
2E25
100
AcDbEntity
  8
0
  0
LINE
  5
2E2E
330
1E
100
AcDbEntity
  8
0
100
AcDbLine
 10
4.316929133858267
 20
3.306882075894631
 30
0.0
 11
4.306102362204724
 21
3.641527745185969
 31
0.0
  0
LINE
  5
2E2F
330
1E
100
AcDbEntity
  8
0
100
AcDbLine
 10
4.553149606299212
 20
2.846252154634788
 30
0.0
 11
4.551181102362204
 21
2.726173414477308
 31
0.0
  0
LINE
  5
2E30
330
1E
100
AcDbEntity
  8
0
100
AcDbLine
 10
4.530511811023622
 20
2.846252154634788
 30
0.0
 11
4.528543307086613
 21
2.726173414477308
 31
0.0
  0
LINE
  5
2E31
330
1E
100
AcDbEntity
  8
0
100
AcDbLine
 10
4.530511811023622
 20
2.846252154634788
 30
0.0
 11
4.448818897637795
 21
2.846252154634788
 31
0.0
  0
LINE
  5
2E32
330
1E
100
AcDbEntity
  8
0
100
AcDbLine
 10
4.529527559055117
 20
2.882669477469434
 30
0.0
 11
4.530511811023622
 21
2.846252154634788
 31
0.0
  0
LINE
  5
2E33
330
1E
100
AcDbEntity
  8
0
100
AcDbLine
 10
4.529527559055117
 20
2.882669477469434
 30
0.0
 11
4.446850393700787
 21
2.882669477469434
 31
0.0
  0
LINE
  5
2E34
330
1E
100
AcDbEntity
  8
0
100
AcDbLine
 10
4.448818897637795
 20
2.846252154634788
 30
0.0
 11
4.446850393700787
 21
2.882669477469434
 31
0.0
  0
LINE
  5
2E35
330
1E
100
AcDbEntity
  8
0
100
AcDbLine
 10
4.456692913385826
 20
2.69664585542219
 30
0.0
 11
4.498031496062991
 21
2.69664585542219
 31
0.0
  0
POLYLINE
  5
2E36
330
1E
100
AcDbEntity
  8
0
100
AcDb2dPolyline
 66
     1
 10
0.0
 20
0.0
 30
0.0
  0
VERTEX
  5
3037
330
2E36
100
AcDbEntity
  8
0
100
AcDbVertex
100
AcDb2dVertex
 10
4.498031496062991
 20
2.69664585542219
 30
0.0
  0
VERTEX
  5
3038
330
2E36
100
AcDbEntity
  8
0
100
AcDbVertex
100
AcDb2dVertex
 10
4.51279527559055
 20
2.700582863296206
 30
0.0
  0
VERTEX
  5
3039
330
2E36
100
AcDbEntity
  8
0
100
AcDbVertex
100
AcDb2dVertex
 10
4.523622047244094
 20
2.711409634949749
 30
0.0
  0
VERTEX
  5
303A
330
2E36
100
AcDbEntity
  8
0
100
AcDbVertex
100
AcDb2dVertex
 10
4.528543307086613
 20
2.726173414477308
 30
0.0
  0
SEQEND
  5
303B
330
2E36
100
AcDbEntity
  8
0
  0
LINE
  5
2E3C
330
1E
100
AcDbEntity
  8
0
100
AcDbLine
 10
4.448818897637795
 20
2.846252154634788
 30
0.0
 11
4.456692913385826
 21
2.69664585542219
 31
0.0
  0
POLYLINE
  5
2E3D
330
1E
100
AcDbEntity
  8
0
100
AcDb2dPolyline
 66
     1
 10
0.0
 20
0.0
 30
0.0
  0
VERTEX
  5
303C
330
2E3D
100
AcDbEntity
  8
0
100
AcDbVertex
100
AcDb2dVertex
 10
4.521653543307086
 20
2.69664585542219
 30
0.0
  0
VERTEX
  5
303D
330
2E3D
100
AcDbEntity
  8
0
100
AcDbVertex
100
AcDb2dVertex
 10
4.536417322834645
 20
2.700582863296206
 30
0.0
  0
VERTEX
  5
303E
330
2E3D
100
AcDbEntity
  8
0
100
AcDbVertex
100
AcDb2dVertex
 10
4.547244094488188
 20
2.711409634949749
 30
0.0
  0
VERTEX
  5
303F
330
2E3D
100
AcDbEntity
  8
0
100
AcDbVertex
100
AcDb2dVertex
 10
4.551181102362204
 20
2.726173414477308
 30
0.0
  0
SEQEND
  5
3040
330
2E3D
100
AcDbEntity
  8
0
  0
LINE
  5
2E43
330
1E
100
AcDbEntity
  8
0
100
AcDbLine
 10
4.355314960629921
 20
3.181882075894631
 30
0.0
 11
4.339566929133858
 21
3.241921445973371
 31
0.0
  0
LINE
  5
2E44
330
1E
100
AcDbEntity
  8
0
100
AcDbLine
 10
4.498031496062991
 20
3.033260028650536
 30
0.0
 11
4.551181102362204
 21
2.947630107390694
 31
0.0
  0
LINE
  5
2E45
330
1E
100
AcDbEntity
  8
0
100
AcDbLine
 10
4.551181102362204
 20
2.947630107390694
 30
0.0
 11
4.553149606299212
 21
2.846252154634788
 31
0.0
  0
LINE
  5
2E46
330
1E
100
AcDbEntity
  8
0
100
AcDbLine
 10
4.521653543307086
 20
2.69664585542219
 30
0.0
 11
4.498031496062991
 21
2.69664585542219
 31
0.0
  0
LINE
  5
2E47
330
1E
100
AcDbEntity
  8
0
100
AcDbLine
 10
4.553149606299212
 20
2.846252154634788
 30
0.0
 11
4.530511811023622
 21
2.846252154634788
 31
0.0
  0
LINE
  5
2E48
330
1E
100
AcDbEntity
  8
0
100
AcDbLine
 10
4.492125984251968
 20
3.369874201878883
 30
0.0
 11
4.498031496062991
 21
3.033260028650536
 31
0.0
  0
LINE
  5
2E49
330
1E
100
AcDbEntity
  8
0
100
AcDbLine
 10
4.446850393700787
 20
2.882669477469434
 30
0.0
 11
4.434055118110236
 21
3.13660648534345
 31
0.0
  0
LINE
  5
2E4A
330
1E
100
AcDbEntity
  8
0
100
AcDbLine
 10
4.456692913385826
 20
2.69664585542219
 30
0.0
 11
4.423228346456692
 21
2.69664585542219
 31
0.0
  0
LINE
  5
2E4B
330
1E
100
AcDbEntity
  8
0
100
AcDbLine
 10
4.458661417322834
 20
3.306882075894631
 30
0.0
 11
4.45767716535433
 21
3.383653729437938
 31
0.0
  0
LINE
  5
2E4C
330
1E
100
AcDbEntity
  8
0
100
AcDbLine
 10
4.341535433070865
 20
3.283260028650536
 30
0.0
 11
4.341535433070865
 21
3.277354516839513
 31
0.0
  0
LINE
  5
2E4D
330
1E
100
AcDbEntity
  8
0
100
AcDbLine
 10
4.345472440944881
 20
3.25176396565841
 30
0.0
 11
4.423228346456692
 21
2.69664585542219
 31
0.0
  0
LINE
  5
2E4E
330
1E
100
AcDbEntity
  8
0
100
AcDbLine
 10
4.330708661417323
 20
3.277354516839513
 30
0.0
 11
4.330708661417323
 21
3.283260028650536
 31
0.0
  0
LINE
  5
2E4F
330
1E
100
AcDbEntity
  8
0
100
AcDbLine
 10
4.358267716535433
 20
3.25668522550093
 30
0.0
 11
4.45767716535433
 21
3.25668522550093
 31
0.0
  0
LINE
  5
2E50
330
1E
100
AcDbEntity
  8
0
100
AcDbLine
 10
4.358267716535433
 20
3.25668522550093
 30
0.0
 11
4.357283464566928
 21
3.282275776682033
 31
0.0
  0
LINE
  5
2E51
330
1E
100
AcDbEntity
  8
0
100
AcDbLine
 10
4.45767716535433
 20
3.25668522550093
 30
0.0
 11
4.458661417322834
 21
3.306882075894631
 31
0.0
  0
LINE
  5
2E52
330
1E
100
AcDbEntity
  8
0
100
AcDbLine
 10
4.308070866141732
 20
3.283260028650536
 30
0.0
 11
4.357283464566928
 21
3.283260028650536
 31
0.0
  0
LINE
  5
2E53
330
1E
100
AcDbEntity
  8
0
100
AcDbLine
 10
4.492125984251968
 20
3.369874201878883
 30
0.0
 11
4.412401574803149
 21
3.449598611327702
 31
0.0
  0
LINE
  5
2E54
330
1E
100
AcDbEntity
  8
0
100
AcDbLine
 10
4.423228346456692
 20
3.13660648534345
 30
0.0
 11
4.434055118110236
 21
3.13660648534345
 31
0.0
  0
LINE
  5
2E55
330
1E
100
AcDbEntity
  8
0
100
AcDbLine
 10
4.423228346456692
 20
3.13660648534345
 30
0.0
 11
4.419291338582676
 21
3.25668522550093
 31
0.0
  0
LINE
  5
2E56
330
1E
100
AcDbEntity
  8
0
100
AcDbLine
 10
4.45767716535433
 20
3.383653729437938
 30
0.0
 11
4.414370078740157
 21
3.383653729437938
 31
0.0
  0
LINE
  5
2E57
330
1E
100
AcDbEntity
  8
0
100
AcDbLine
 10
4.458661417322834
 20
3.306882075894631
 30
0.0
 11
4.417322834645669
 21
3.306882075894631
 31
0.0
  0
LINE
  5
2E58
330
1E
100
AcDbEntity
  8
0
100
AcDbLine
 10
4.324803149606299
 20
3.277354516839513
 30
0.0
 11
4.324803149606299
 21
3.283260028650536
 31
0.0
  0
LINE
  5
2E59
330
1E
100
AcDbEntity
  8
0
100
AcDbLine
 10
4.309055118110236
 20
3.306882075894631
 30
0.0
 11
4.308070866141732
 21
3.283260028650536
 31
0.0
  0
LINE
  5
2E5A
330
1E
100
AcDbEntity
  8
0
100
AcDbLine
 10
4.405511811023622
 20
3.641527745185969
 30
0.0
 11
4.417322834645669
 21
3.306882075894631
 31
0.0
  0
POLYLINE
  5
2E5B
330
1E
100
AcDbEntity
  8
0
100
AcDb2dPolyline
 66
     1
 10
0.0
 20
0.0
 30
0.0
  0
VERTEX
  5
3041
330
2E5B
100
AcDbEntity
  8
0
100
AcDbVertex
100
AcDb2dVertex
 10
4.405511811023622
 20
3.641527745185969
 30
0.0
  0
VERTEX
  5
3042
330
2E5B
100
AcDbEntity
  8
0
100
AcDbVertex
100
AcDb2dVertex
 10
4.40255905511811
 20
3.641527745185969
 30
0.0
  0
VERTEX
  5
3043
330
2E5B
100
AcDbEntity
  8
0
100
AcDbVertex
100
AcDb2dVertex
 10
4.39271653543307
 20
3.641527745185969
 30
0.0
  0
VERTEX
  5
3044
330
2E5B
100
AcDbEntity
  8
0
100
AcDbVertex
100
AcDb2dVertex
 10
4.375984251968503
 20
3.641527745185969
 30
0.0
  0
VERTEX
  5
3045
330
2E5B
100
AcDbEntity
  8
0
100
AcDbVertex
100
AcDb2dVertex
 10
4.355314960629921
 20
3.641527745185969
 30
0.0
  0
VERTEX
  5
3046
330
2E5B
100
AcDbEntity
  8
0
100
AcDbVertex
100
AcDb2dVertex
 10
4.331692913385826
 20
3.641527745185969
 30
0.0
  0
VERTEX
  5
3047
330
2E5B
100
AcDbEntity
  8
0
100
AcDbVertex
100
AcDb2dVertex
 10
4.306102362204724
 20
3.641527745185969
 30
0.0
  0
SEQEND
  5
3048
330
2E5B
100
AcDbEntity
  8
0
  0
LINE
  5
2E64
330
1E
100
AcDbEntity
  8
0
100
AcDbLine
 10
4.357283464566928
 20
3.283260028650536
 30
0.0
 11
4.359251968503937
 21
3.306882075894631
 31
0.0
  0
POLYLINE
  5
2E65
330
1E
100
AcDbEntity
  8
0
100
AcDb2dPolyline
 66
     1
 10
0.0
 20
0.0
 30
0.0
  0
VERTEX
  5
3049
330
2E65
100
AcDbEntity
  8
0
100
AcDbVertex
100
AcDb2dVertex
 10
4.400590551181101
 20
3.64644900502849
 30
0.0
  0
VERTEX
  5
304A
330
2E65
100
AcDbEntity
  8
0
100
AcDbVertex
100
AcDb2dVertex
 10
4.404527559055117
 20
3.645464753059985
 30
0.0
  0
VERTEX
  5
304B
330
2E65
100
AcDbEntity
  8
0
100
AcDbVertex
100
AcDb2dVertex
 10
4.405511811023622
 20
3.641527745185969
 30
0.0
  0
SEQEND
  5
304C
330
2E65
100
AcDbEntity
  8
0
  0
ENDSEC
  0
SECTION
  2
OBJECTS
  0
DICTIONARY
  5
C
330
0
100
AcDbDictionary
  3
ACAD_GROUP
350
D
  3
ACAD_MLINESTYLE
350
16
  3
ACAD_PLOTSETTINGS
350
18
  3
ACAD_LAYOUT
350
19
1001
ACAD
1000
TREAT_AS_HARD
1070
     0
  0
DICTIONARY
  5
2E73
330
1E
100
AcDbDictionary
  3
ACAD_LAYOUTSELFREF
350
2E74
  0
DICTIONARY
  5
2E71
330
1A
100
AcDbDictionary
  3
ACAD_LAYOUTSELFREF
350
2E72
  0
DICTIONARY
  5
D
102
{ACAD_REACTORS
330
C
102
}
330
C
100
AcDbDictionary
1001
ACAD
1000
TREAT_AS_HARD
1070
     0
  0
DICTIONARY
  5
16
102
{ACAD_REACTORS
330
C
102
}
330
C
100
AcDbDictionary
  3
STANDARD
350
17
1001
ACAD
1000
TREAT_AS_HARD
1070
     0
  0
DICTIONARY
  5
18
102
{ACAD_REACTORS
330
C
102
}
330
C
100
AcDbDictionary
1001
ACAD
1000
TREAT_AS_HARD
1070
     0
  0
DICTIONARY
  5
19
102
{ACAD_REACTORS
330
C
102
}
330
C
100
AcDbDictionary
1001
ACAD
1000
TREAT_AS_HARD
1070
     0
  0
XRECORD
  5
2E74
102
{ACAD_REACTORS
330
2E73
102
}
330
2E73
100
AcDbXrecord
340
1E
  0
XRECORD
  5
2E72
102
{ACAD_REACTORS
330
2E71
102
}
330
2E71
100
AcDbXrecord
340
1A
  0
MLINESTYLE
  5
17
102
{ACAD_REACTORS
330
16
102
}
330
16
100
AcDbMlineStyle
  2
STANDARD
 70
     0
  3

 62
   256
 51
90.0
 52
90.0
 71
     2
 49
0.5
 62
   256
  6
BYLAYER
 49
-0.5
 62
   256
  6
BYLAYER
  0
ENDSEC
  0
EOF
