  0
SECTION
  2
HEADER
  9
$ACADVER
  1
AC1032
  9
$ACADMAINTVER
 90
      228
  9
$DWGCODEPAGE
  3
ANSI_1252
  9
$REQUIREDVERSIONS
160
                 0
  9
$INSBASE
 10
0.0
 20
0.0
 30
0.0
  9
$EXTMIN
 10
1.000000000000000E+20
 20
1.000000000000000E+20
 30
1.000000000000000E+20
  9
$EXTMAX
 10
-1.000000000000000E+20
 20
-1.000000000000000E+20
 30
-1.000000000000000E+20
  9
$LIMMIN
 10
0.0
 20
0.0
  9
$LIMMAX
 10
12.0
 20
9.0
  9
$ORTHOMODE
 70
     0
  9
$REGENMODE
 70
     1
  9
$FILLMODE
 70
     1
  9
$QTEXTMODE
 70
     0
  9
$MIRRTEXT
 70
     0
  9
$LTSCALE
 40
1.0
  9
$ATTMODE
 70
     1
  9
$TEXTSIZE
 40
0.2
  9
$TRACEWID
 40
0.05
  9
$TEXTSTYLE
  7
Standard
  9
$CLAYER
  8
0
  9
$CELTYPE
  6
ByLayer
  9
$CECOLOR
 62
   256
  9
$CELTSCALE
 40
1.0
  9
$DISPSILH
 70
     0
  9
$DIMSCALE
 40
1.0
  9
$DIMASZ
 40
0.18
  9
$DIMEXO
 40
0.0625
  9
$DIMDLI
 40
0.38
  9
$DIMRND
 40
0.0
  9
$DIMDLE
 40
0.0
  9
$DIMEXE
 40
0.18
  9
$DIMTP
 40
0.0
  9
$DIMTM
 40
0.0
  9
$DIMTXT
 40
0.18
  9
$DIMCEN
 40
0.09
  9
$DIMTSZ
 40
0.0
  9
$DIMTOL
 70
     0
  9
$DIMLIM
 70
     0
  9
$DIMTIH
 70
     1
  9
$DIMTOH
 70
     1
  9
$DIMSE1
 70
     0
  9
$DIMSE2
 70
     0
  9
$DIMTAD
 70
     0
  9
$DIMZIN
 70
     0
  9
$DIMBLK
  1

  9
$DIMASO
 70
     1
  9
$DIMSHO
 70
     1
  9
$DIMPOST
  1

  9
$DIMAPOST
  1

  9
$DIMALT
 70
     0
  9
$DIMALTD
 70
     2
  9
$DIMALTF
 40
25.4
  9
$DIMLFAC
 40
1.0
  9
$DIMTOFL
 70
     0
  9
$DIMTVP
 40
0.0
  9
$DIMTIX
 70
     0
  9
$DIMSOXD
 70
     0
  9
$DIMSAH
 70
     0
  9
$DIMBLK1
  1

  9
$DIMBLK2
  1

  9
$DIMSTYLE
  2
Standard
  9
$DIMCLRD
 70
     0
  9
$DIMCLRE
 70
     0
  9
$DIMCLRT
 70
     0
  9
$DIMTFAC
 40
1.0
  9
$DIMGAP
 40
0.09
  9
$DIMJUST
 70
     0
  9
$DIMSD1
 70
     0
  9
$DIMSD2
 70
     0
  9
$DIMTOLJ
 70
     1
  9
$DIMTZIN
 70
     0
  9
$DIMALTZ
 70
     0
  9
$DIMALTTZ
 70
     0
  9
$DIMUPT
 70
     0
  9
$DIMDEC
 70
     4
  9
$DIMTDEC
 70
     4
  9
$DIMALTU
 70
     2
  9
$DIMALTTD
 70
     2
  9
$DIMTXSTY
  7
Standard
  9
$DIMAUNIT
 70
     0
  9
$DIMADEC
 70
     0
  9
$DIMALTRND
 40
0.0
  9
$DIMAZIN
 70
     0
  9
$DIMDSEP
 70
    46
  9
$DIMATFIT
 70
     3
  9
$DIMFRAC
 70
     0
  9
$DIMLDRBLK
  1

  9
$DIMLUNIT
 70
     2
  9
$DIMLWD
 70
    -2
  9
$DIMLWE
 70
    -2
  9
$DIMTMOVE
 70
     0
  9
$DIMFXL
 40
1.0
  9
$DIMFXLON
 70
     0
  9
$DIMJOGANG
 40
0.7853981633974483
  9
$DIMTFILL
 70
     0
  9
$DIMTFILLCLR
 70
     0
  9
$DIMARCSYM
 70
     0
  9
$DIMLTYPE
  6

  9
$DIMLTEX1
  6

  9
$DIMLTEX2
  6

  9
$DIMTXTDIRECTION
 70
     0
  9
$LUNITS
 70
     2
  9
$LUPREC
 70
     4
  9
$SKETCHINC
 40
0.1
  9
$FILLETRAD
 40
0.0
  9
$AUNITS
 70
     0
  9
$AUPREC
 70
     0
  9
$MENU
  1
.
  9
$ELEVATION
 40
0.0
  9
$PELEVATION
 40
0.0
  9
$THICKNESS
 40
0.0
  9
$LIMCHECK
 70
     0
  9
$CHAMFERA
 40
0.0
  9
$CHAMFERB
 40
0.0
  9
$CHAMFERC
 40
0.0
  9
$CHAMFERD
 40
0.0
  9
$SKPOLY
 70
     0
  9
$TDCREATE
 40
2460083.602592593
  9
$TDUCREATE
 40
2460083.810925926
  9
$TDUPDATE
 40
2460083.602592593
  9
$TDUUPDATE
 40
2460083.810925926
  9
$TDINDWG
 40
0.0000000000
  9
$TDUSRTIMER
 40
0.0000000000
  9
$USRTIMER
 70
     1
  9
$ANGBASE
 50
0.0
  9
$ANGDIR
 70
     0
  9
$PDMODE
 70
     0
  9
$PDSIZE
 40
0.0
  9
$PLINEWID
 40
0.0
  9
$SPLFRAME
 70
     0
  9
$SPLINETYPE
 70
     6
  9
$SPLINESEGS
 70
     8
  9
$HANDSEED
  5
FB
  9
$SURFTAB1
 70
     6
  9
$SURFTAB2
 70
     6
  9
$SURFTYPE
 70
     6
  9
$SURFU
 70
     6
  9
$SURFV
 70
     6
  9
$UCSBASE
  2

  9
$UCSNAME
  2

  9
$UCSORG
 10
0.0
 20
0.0
 30
0.0
  9
$UCSXDIR
 10
1.0
 20
0.0
 30
0.0
  9
$UCSYDIR
 10
0.0
 20
1.0
 30
0.0
  9
$UCSORTHOREF
  2

  9
$UCSORTHOVIEW
 70
     0
  9
$UCSORGTOP
 10
0.0
 20
0.0
 30
0.0
  9
$UCSORGBOTTOM
 10
0.0
 20
0.0
 30
0.0
  9
$UCSORGLEFT
 10
0.0
 20
0.0
 30
0.0
  9
$UCSORGRIGHT
 10
0.0
 20
0.0
 30
0.0
  9
$UCSORGFRONT
 10
0.0
 20
0.0
 30
0.0
  9
$UCSORGBACK
 10
0.0
 20
0.0
 30
0.0
  9
$PUCSBASE
  2

  9
$PUCSNAME
  2

  9
$PUCSORG
 10
0.0
 20
0.0
 30
0.0
  9
$PUCSXDIR
 10
1.0
 20
0.0
 30
0.0
  9
$PUCSYDIR
 10
0.0
 20
1.0
 30
0.0
  9
$PUCSORTHOREF
  2

  9
$PUCSORTHOVIEW
 70
     0
  9
$PUCSORGTOP
 10
0.0
 20
0.0
 30
0.0
  9
$PUCSORGBOTTOM
 10
0.0
 20
0.0
 30
0.0
  9
$PUCSORGLEFT
 10
0.0
 20
0.0
 30
0.0
  9
$PUCSORGRIGHT
 10
0.0
 20
0.0
 30
0.0
  9
$PUCSORGFRONT
 10
0.0
 20
0.0
 30
0.0
  9
$PUCSORGBACK
 10
0.0
 20
0.0
 30
0.0
  9
$USERI1
 70
     0
  9
$USERI2
 70
     0
  9
$USERI3
 70
     0
  9
$USERI4
 70
     0
  9
$USERI5
 70
     0
  9
$USERR1
 40
0.0
  9
$USERR2
 40
0.0
  9
$USERR3
 40
0.0
  9
$USERR4
 40
0.0
  9
$USERR5
 40
0.0
  9
$WORLDVIEW
 70
     1
  9
$SHADEDGE
 70
     3
  9
$SHADEDIF
 70
    70
  9
$TILEMODE
 70
     1
  9
$MAXACTVP
 70
    64
  9
$PINSBASE
 10
0.0
 20
0.0
 30
0.0
  9
$PLIMCHECK
 70
     0
  9
$PEXTMIN
 10
1.000000000000000E+20
 20
1.000000000000000E+20
 30
1.000000000000000E+20
  9
$PEXTMAX
 10
-1.000000000000000E+20
 20
-1.000000000000000E+20
 30
-1.000000000000000E+20
  9
$PLIMMIN
 10
0.0
 20
0.0
  9
$PLIMMAX
 10
12.0
 20
9.0
  9
$UNITMODE
 70
     0
  9
$VISRETAIN
 70
     1
  9
$PLINEGEN
 70
     0
  9
$PSLTSCALE
 70
     1
  9
$TREEDEPTH
 70
  3020
  9
$CMLSTYLE
  2
Standard
  9
$CMLJUST
 70
     0
  9
$CMLSCALE
 40
1.0
  9
$PROXYGRAPHICS
 70
     1
  9
$MEASUREMENT
 70
     0
  9
$CELWEIGHT
370
    -1
  9
$ENDCAPS
280
     0
  9
$JOINSTYLE
280
     0
  9
$LWDISPLAY
290
     1
  9
$INSUNITS
 70
     1
  9
$HYPERLINKBASE
  1

  9
$STYLESHEET
  1

  9
$XEDIT
290
     1
  9
$CEPSNTYPE
380
     0
  9
$PSTYLEMODE
290
     1
  9
$FINGERPRINTGUID
  2
{3D8F490A-9341-1E44-96BE-4ABC07BA89B9}
  9
$VERSIONGUID
  2
{04B79D10-DD0F-C649-9858-0C62612CDDFA}
  9
$EXTNAMES
290
     1
  9
$PSVPSCALE
 40
0.0
  9
$OLESTARTUP
290
     0
  9
$SORTENTS
280
   127
  9
$INDEXCTL
280
     0
  9
$HIDETEXT
280
     1
  9
$XCLIPFRAME
280
     2
  9
$HALOGAP
280
     0
  9
$OBSCOLOR
 70
   257
  9
$OBSLTYPE
280
     0
  9
$INTERSECTIONDISPLAY
280
     0
  9
$INTERSECTIONCOLOR
 70
   257
  9
$DIMASSOC
280
     2
  9
$PROJECTNAME
  1

  9
$CAMERADISPLAY
290
     0
  9
$LENSLENGTH
 40
50.0
  9
$CAMERAHEIGHT
 40
0.0
  9
$STEPSPERSEC
 40
2.0
  9
$STEPSIZE
 40
6.0
  9
$3DDWFPREC
 40
2.0
  9
$PSOLWIDTH
 40
0.25
  9
$PSOLHEIGHT
 40
4.0
  9
$LOFTANG1
 40
1.570796326794896
  9
$LOFTANG2
 40
1.570796326794896
  9
$LOFTMAG1
 40
0.0
  9
$LOFTMAG2
 40
0.0
  9
$LOFTPARAM
 70
     7
  9
$LOFTNORMALS
280
     1
  9
$LATITUDE
 40
37.795
  9
$LONGITUDE
 40
-122.394
  9
$NORTHDIRECTION
 40
0.0
  9
$TIMEZONE
 70
 -8000
  9
$LIGHTGLYPHDISPLAY
280
     1
  9
$TILEMODELIGHTSYNCH
280
     1
  9
$CMATERIAL
347
11
  9
$SOLIDHIST
280
     0
  9
$SHOWHIST
280
     1
  9
$DWFFRAME
280
     2
  9
$DGNFRAME
280
     0
  9
$REALWORLDSCALE
290
     1
  9
$INTERFERECOLOR
 62
     1
  9
$INTERFEREOBJVS
345
33
  9
$INTERFEREVPVS
346
30
  9
$CSHADOW
280
     0
  9
$SHADOWPLANELOCATION
 40
0.0
  0
ENDSEC
  0
SECTION
  2
CLASSES
  0
CLASS
  1
ACDBDICTIONARYWDFLT
  2
AcDbDictionaryWithDefault
  3
ObjectDBX Classes
 90
        0
 91
        1
280
     0
281
     0
  0
CLASS
  1
MATERIAL
  2
AcDbMaterial
  3
ObjectDBX Classes
 90
     1153
 91
        3
280
     0
281
     0
  0
CLASS
  1
VISUALSTYLE
  2
AcDbVisualStyle
  3
ObjectDBX Classes
 90
     4095
 91
       24
280
     0
281
     0
  0
CLASS
  1
SCALE
  2
AcDbScale
  3
ObjectDBX Classes
 90
     1153
 91
       17
280
     0
281
     0
  0
CLASS
  1
TABLESTYLE
  2
AcDbTableStyle
  3
ObjectDBX Classes
 90
     4095
 91
        1
280
     0
281
     0
  0
CLASS
  1
MLEADERSTYLE
  2
AcDbMLeaderStyle
  3
ACDB_MLEADERSTYLE_CLASS
 90
     4095
 91
        1
280
     0
281
     0
  0
CLASS
  1
ACDBSECTIONVIEWSTYLE
  2
AcDbSectionViewStyle
  3
ObjectDBX Classes
 90
     1025
 91
        1
280
     0
281
     0
  0
CLASS
  1
ACDBDETAILVIEWSTYLE
  2
AcDbDetailViewStyle
  3
ObjectDBX Classes
 90
     1025
 91
        1
280
     0
281
     0
  0
CLASS
  1
DICTIONARYVAR
  2
AcDbDictionaryVar
  3
ObjectDBX Classes
 90
        0
 91
        5
280
     0
281
     0
  0
CLASS
  1
CELLSTYLEMAP
  2
AcDbCellStyleMap
  3
ObjectDBX Classes
 90
     1152
 91
        1
280
     0
281
     0
  0
ENDSEC
  0
SECTION
  2
TABLES
  0
TABLE
  2
VPORT
  5
8
330
0
100
AcDbSymbolTable
 70
     1
  0
VPORT
  5
57
330
8
100
AcDbSymbolTableRecord
100
AcDbViewportTableRecord
  2
*Active
 70
     0
 10
0.0
 20
0.0
 11
1.0
 21
1.0
 12
0.0
 22
0.0
 13
0.0
 23
0.0
 14
1.0
 24
1.0
 15
0.0
 25
0.0
 16
0.0
 26
0.0
 36
1.0
 17
11.0
 27
8.5
 37
0.0
 40
17.34
 41
1.294117647058823
 42
50.0
 43
0.0
 44
0.0
 50
0.0
 51
0.0
 71
     0
 72
   100
 73
     1
 74
     1
 75
     0
 76
     0
 77
     0
 78
     0
281
     0
 65
     1
110
0.0
120
0.0
130
0.0
111
1.0
121
0.0
131
0.0
112
0.0
122
1.0
132
0.0
 79
     0
146
0.0
 60
     3
 61
     5
292
     1
282
     1
141
0.0
142
0.0
 63
   250
421
  3355443
  0
ENDTAB
  0
TABLE
  2
LTYPE
  5
5
330
0
100
AcDbSymbolTable
 70
     1
  0
LTYPE
  5
5B
330
5
100
AcDbSymbolTableRecord
100
AcDbLinetypeTableRecord
  2
ByBlock
 70
     0
  3

 72
    65
 73
     0
 40
0.0
  0
LTYPE
  5
5C
330
5
100
AcDbSymbolTableRecord
100
AcDbLinetypeTableRecord
  2
ByLayer
 70
     0
  3

 72
    65
 73
     0
 40
0.0
  0
LTYPE
  5
5D
330
5
100
AcDbSymbolTableRecord
100
AcDbLinetypeTableRecord
  2
Continuous
 70
     0
  3
Solid line
 72
    65
 73
     0
 40
0.0
  0
ENDTAB
  0
TABLE
  2
LAYER
  5
2
330
0
100
AcDbSymbolTable
 70
     2
  0
LAYER
  5
54
330
2
100
AcDbSymbolTableRecord
100
AcDbLayerTableRecord
  2
0
 70
     0
 62
     7
  6
Continuous
370
    -3
390
F
347
21
348
0
  0
LAYER
  5
78
330
2
100
AcDbSymbolTableRecord
100
AcDbLayerTableRecord
  2
Layer 1
 70
     0
 62
     7
  6
Continuous
370
     0
390
F
347
21
348
0
  0
ENDTAB
  0
TABLE
  2
STYLE
  5
3
330
0
100
AcDbSymbolTable
 70
     2
  0
STYLE
  5
55
330
3
100
AcDbSymbolTableRecord
100
AcDbTextStyleTableRecord
  2
Standard
 70
     0
 40
0.0
 41
1.0
 50
0.0
 71
     0
 42
0.2
  3
txt
  4

  0
STYLE
  5
5A
330
3
100
AcDbSymbolTableRecord
100
AcDbTextStyleTableRecord
  2
Annotative
 70
     0
 40
0.0
 41
1.0
 50
0.0
 71
     0
 42
0.2
  3
txt
  4

1001
AcadAnnotative
1000
AnnotativeData
1002
{
1070
     1
1070
     1
1002
}
  0
ENDTAB
  0
TABLE
  2
VIEW
  5
6
330
0
100
AcDbSymbolTable
 70
     0
  0
ENDTAB
  0
TABLE
  2
UCS
  5
7
330
0
100
AcDbSymbolTable
 70
     0
  0
ENDTAB
  0
TABLE
  2
APPID
  5
9
330
0
100
AcDbSymbolTable
 70
     2
  0
APPID
  5
56
330
9
100
AcDbSymbolTableRecord
100
AcDbRegAppTableRecord
  2
ACAD
 70
     0
  0
APPID
  5
5E
330
9
100
AcDbSymbolTableRecord
100
AcDbRegAppTableRecord
  2
AcadAnnotative
 70
     0
  0
ENDTAB
  0
TABLE
  2
DIMSTYLE
  5
A
330
0
100
AcDbSymbolTable
 70
     2
100
AcDbDimStyleTable
 71
     0
  0
DIMSTYLE
105
58
330
A
100
AcDbSymbolTableRecord
100
AcDbDimStyleTableRecord
  2
Standard
 70
     0
340
55
  0
DIMSTYLE
105
59
330
A
100
AcDbSymbolTableRecord
100
AcDbDimStyleTableRecord
  2
Annotative
 70
     0
340
55
1001
AcadAnnotative
1000
AnnotativeData
1002
{
1070
     1
1070
     1
1002
}
  0
ENDTAB
  0
TABLE
  2
BLOCK_RECORD
  5
1
330
0
100
AcDbSymbolTable
 70
     1
  0
BLOCK_RECORD
  5
70
330
1
100
AcDbSymbolTableRecord
100
AcDbBlockTableRecord
  2
*Model_Space
340
73
 70
     0
280
     1
281
     0
  0
BLOCK_RECORD
  5
6C
330
1
100
AcDbSymbolTableRecord
100
AcDbBlockTableRecord
  2
*Paper_Space
340
6F
 70
     0
280
     1
281
     0
  0
BLOCK_RECORD
  5
74
330
1
100
AcDbSymbolTableRecord
100
AcDbBlockTableRecord
  2
*Paper_Space0
340
77
 70
     0
280
     1
281
     0
  0
ENDTAB
  0
ENDSEC
  0
SECTION
  2
BLOCKS
  0
BLOCK
  5
71
330
70
100
AcDbEntity
  8
0
100
AcDbBlockBegin
  2
*Model_Space
 70
     0
 10
0.0
 20
0.0
 30
0.0
  3
*Model_Space
  1

  0
ENDBLK
  5
72
330
70
100
AcDbEntity
  8
0
100
AcDbBlockEnd
  0
BLOCK
  5
6D
330
6C
100
AcDbEntity
 67
     1
  8
0
100
AcDbBlockBegin
  2
*Paper_Space
 70
     0
 10
0.0
 20
0.0
 30
0.0
  3
*Paper_Space
  1

  0
ENDBLK
  5
6E
330
6C
100
AcDbEntity
 67
     1
  8
0
100
AcDbBlockEnd
  0
BLOCK
  5
75
330
74
100
AcDbEntity
 67
     1
  8
0
100
AcDbBlockBegin
  2
*Paper_Space0
 70
     0
 10
0.0
 20
0.0
 30
0.0
  3
*Paper_Space0
  1

  0
ENDBLK
  5
76
330
74
100
AcDbEntity
 67
     1
  8
0
100
AcDbBlockEnd
  0
ENDSEC
  0
SECTION
  2
ENTITIES
  0
SPLINE
  5
79
330
70
100
AcDbEntity
  8
Layer 1
 62
     3
420
  1307660
370
    18
100
AcDbSpline
210
0.0
220
0.0
230
1.0
 70
     8
 71
     3
 72
     8
 73
     4
 74
     0
 42
0.0000000001
 43
0.0000000001
 40
0.0
 40
0.0
 40
0.0
 40
0.0
 40
1.0
 40
1.0
 40
1.0
 40
1.0
 10
3.256374994913736
 20
12.96127743191189
 30
0.0
 10
2.771194458007812
 20
12.96127743191189
 30
0.0
 10
2.377875010172525
 20
12.56795840793185
 30
0.0
 10
2.377875010172525
 20
12.08277808295356
 30
0.0
  0
SPLINE
  5
7A
330
70
100
AcDbEntity
  8
Layer 1
 62
     3
420
  1307660
370
    18
100
AcDbSpline
210
0.0
220
0.0
230
1.0
 70
     8
 71
     3
 72
     8
 73
     4
 74
     0
 42
0.0000000001
 43
0.0000000001
 40
0.0
 40
0.0
 40
0.0
 40
0.0
 40
1.0
 40
1.0
 40
1.0
 40
1.0
 10
3.256374994913736
 20
13.20427788628472
 30
0.0
 10
2.636986202663845
 20
13.20427788628472
 30
0.0
 10
2.134874979654947
 20
12.70215267605252
 30
0.0
 10
2.134874979654947
 20
12.08277808295356
 30
0.0
  0
SPLINE
  5
7B
330
70
100
AcDbEntity
  8
Layer 1
 62
     3
420
  1307660
370
    18
100
AcDbSpline
210
0.0
220
0.0
230
1.0
 70
     8
 71
     3
 72
     8
 73
     4
 74
     0
 42
0.0000000001
 43
0.0000000001
 40
0.0
 40
0.0
 40
0.0
 40
0.0
 40
1.0
 40
1.0
 40
1.0
 40
1.0
 10
19.69041612413194
 20
12.08277808295356
 30
0.0
 10
19.69041612413194
 20
12.56795840793185
 30
0.0
 10
19.29708353678385
 20
12.96127743191189
 30
0.0
 10
18.81194390190972
 20
12.96127743191189
 30
0.0
  0
SPLINE
  5
7C
330
70
100
AcDbEntity
  8
Layer 1
 62
     3
420
  1307660
370
    18
100
AcDbSpline
210
0.0
220
0.0
230
1.0
 70
     8
 71
     3
 72
     8
 73
     4
 74
     0
 42
0.0000000001
 43
0.0000000001
 40
0.0
 40
0.0
 40
0.0
 40
0.0
 40
1.0
 40
1.0
 40
1.0
 40
1.0
 10
19.93333265516493
 20
12.08277808295356
 30
0.0
 10
19.93333265516493
 20
12.70215267605252
 30
0.0
 10
19.4312506781684
 20
13.20427788628472
 30
0.0
 10
18.81194390190972
 20
13.20427788628472
 30
0.0
  0
SPLINE
  5
7D
330
70
100
AcDbEntity
  8
Layer 1
 62
     3
420
  1307660
370
    18
100
AcDbSpline
210
0.0
220
0.0
230
1.0
 70
     8
 71
     3
 72
     8
 73
     4
 74
     0
 42
0.0000000001
 43
0.0000000001
 40
0.0
 40
0.0
 40
0.0
 40
0.0
 40
1.0
 40
1.0
 40
1.0
 40
1.0
 10
2.134874979654947
 20
11.17430538601345
 30
0.0
 10
2.134874979654947
 20
11.15773603651258
 30
0.0
 10
2.148305469089084
 20
11.14430575900607
 30
0.0
 10
2.164875030517578
 20
11.14430575900607
 30
0.0
  0
SPLINE
  5
7E
330
70
100
AcDbEntity
  8
Layer 1
 62
     3
420
  1307660
370
    18
100
AcDbSpline
210
0.0
220
0.0
230
1.0
 70
     8
 71
     3
 72
     8
 73
     4
 74
     0
 42
0.0000000001
 43
0.0000000001
 40
0.0
 40
0.0
 40
0.0
 40
0.0
 40
1.0
 40
1.0
 40
1.0
 40
1.0
 10
19.69041612413194
 20
11.17430538601345
 30
0.0
 10
19.69041612413194
 20
11.15773603651258
 30
0.0
 10
19.70375061035156
 20
11.14430575900607
 30
0.0
 10
19.72041659884983
 20
11.14430575900607
 30
0.0
  0
SPLINE
  5
7F
330
70
100
AcDbEntity
  8
Layer 1
 62
     3
420
  1307660
370
    18
100
AcDbSpline
210
0.0
220
0.0
230
1.0
 70
     8
 71
     3
 72
     8
 73
     4
 74
     0
 42
0.0000000001
 43
0.0000000001
 40
0.0
 40
0.0
 40
0.0
 40
0.0
 40
1.0
 40
1.0
 40
1.0
 40
1.0
 10
19.90333387586805
 20
11.14430575900607
 30
0.0
 10
19.91999986436631
 20
11.14430575900607
 30
0.0
 10
19.93333265516493
 20
11.15773603651258
 30
0.0
 10
19.93333265516493
 20
11.17430538601345
 30
0.0
  0
SPLINE
  5
80
330
70
100
AcDbEntity
  8
Layer 1
 62
     3
420
  1307660
370
    18
100
AcDbSpline
210
0.0
220
0.0
230
1.0
 70
     8
 71
     3
 72
     8
 73
     4
 74
     0
 42
0.0000000001
 43
0.0000000001
 40
0.0
 40
0.0
 40
0.0
 40
0.0
 40
1.0
 40
1.0
 40
1.0
 40
1.0
 10
2.347874959309895
 20
11.14430575900607
 30
0.0
 10
2.364444520738389
 20
11.14430575900607
 30
0.0
 10
2.377875010172525
 20
11.15773603651258
 30
0.0
 10
2.377875010172525
 20
11.17430538601345
 30
0.0
  0
SPLINE
  5
81
330
70
100
AcDbEntity
  8
Layer 1
 62
     3
420
  1307660
370
    18
100
AcDbSpline
210
0.0
220
0.0
230
1.0
 70
     8
 71
     3
 72
     8
 73
     4
 74
     0
 42
0.0000000001
 43
0.0000000001
 40
0.0
 40
0.0
 40
0.0
 40
0.0
 40
1.0
 40
1.0
 40
1.0
 40
1.0
 10
19.85694376627604
 20
10.51180521647135
 30
0.0
 10
19.85694376627604
 20
10.49523586697048
 30
0.0
 10
19.87027825249566
 20
10.48180558946397
 30
0.0
 10
19.88694424099392
 20
10.48180558946397
 30
0.0
  0
SPLINE
  5
82
330
70
100
AcDbEntity
  8
Layer 1
 62
     3
420
  1307660
370
    18
100
AcDbSpline
210
0.0
220
0.0
230
1.0
 70
     8
 71
     3
 72
     8
 73
     4
 74
     0
 42
0.0000000001
 43
0.0000000001
 40
0.0
 40
0.0
 40
0.0
 40
0.0
 40
1.0
 40
1.0
 40
1.0
 40
1.0
 10
19.7669440375434
 20
11.11430528428819
 30
0.0
 10
19.7669440375434
 20
11.13087463378906
 30
0.0
 10
19.75347222222222
 20
11.14430575900607
 30
0.0
 10
19.73694525824652
 20
11.14430575900607
 30
0.0
  0
SPLINE
  5
83
330
70
100
AcDbEntity
  8
Layer 1
 62
     3
420
  1307660
370
    18
100
AcDbSpline
210
0.0
220
0.0
230
1.0
 70
     8
 71
     3
 72
     8
 73
     4
 74
     0
 42
0.0000000001
 43
0.0000000001
 40
0.0
 40
0.0
 40
0.0
 40
0.0
 40
1.0
 40
1.0
 40
1.0
 40
1.0
 10
19.7669440375434
 20
10.48180558946397
 30
0.0
 10
19.7669440375434
 20
10.43209754096137
 30
0.0
 10
19.80722215440538
 20
10.39180586073134
 30
0.0
 10
19.85694376627604
 20
10.39180586073134
 30
0.0
  0
SPLINE
  5
84
330
70
100
AcDbEntity
  8
Layer 1
 62
     3
420
  1307660
370
    18
100
AcDbSpline
210
0.0
220
0.0
230
1.0
 70
     8
 71
     3
 72
     8
 73
     4
 74
     0
 42
0.0000000001
 43
0.0000000001
 40
0.0
 40
0.0
 40
0.0
 40
0.0
 40
1.0
 40
1.0
 40
1.0
 40
1.0
 10
2.211374918619791
 20
10.39180586073134
 30
0.0
 10
2.261083390977647
 20
10.39180586073134
 30
0.0
 10
2.301375071207682
 20
10.43209754096137
 30
0.0
 10
2.301375071207682
 20
10.48180558946397
 30
0.0
  0
SPLINE
  5
85
330
70
100
AcDbEntity
  8
Layer 1
 62
     3
420
  1307660
370
    18
100
AcDbSpline
210
0.0
220
0.0
230
1.0
 70
     8
 71
     3
 72
     8
 73
     4
 74
     0
 42
0.0000000001
 43
0.0000000001
 40
0.0
 40
0.0
 40
0.0
 40
0.0
 40
1.0
 40
1.0
 40
1.0
 40
1.0
 10
2.181375079684787
 20
10.48180558946397
 30
0.0
 10
2.197944429185655
 20
10.48180558946397
 30
0.0
 10
2.211374918619791
 20
10.49523586697048
 30
0.0
 10
2.211374918619791
 20
10.51180521647135
 30
0.0
  0
SPLINE
  5
86
330
70
100
AcDbEntity
  8
Layer 1
 62
     3
420
  1307660
370
    18
100
AcDbSpline
210
0.0
220
0.0
230
1.0
 70
     8
 71
     3
 72
     8
 73
     4
 74
     0
 42
0.0000000001
 43
0.0000000001
 40
0.0
 40
0.0
 40
0.0
 40
0.0
 40
1.0
 40
1.0
 40
1.0
 40
1.0
 10
19.88694424099392
 20
11.14430575900607
 30
0.0
 10
19.87027825249566
 20
11.14430575900607
 30
0.0
 10
19.85694376627604
 20
11.13087463378906
 30
0.0
 10
19.85694376627604
 20
11.11430528428819
 30
0.0
  0
SPLINE
  5
87
330
70
100
AcDbEntity
  8
Layer 1
 62
     3
420
  1307660
370
    18
100
AcDbSpline
210
0.0
220
0.0
230
1.0
 70
     8
 71
     3
 72
     8
 73
     4
 74
     0
 42
0.0000000001
 43
0.0000000001
 40
0.0
 40
0.0
 40
0.0
 40
0.0
 40
1.0
 40
1.0
 40
1.0
 40
1.0
 10
2.331374910142686
 20
11.14430575900607
 30
0.0
 10
2.314805560641818
 20
11.14430575900607
 30
0.0
 10
2.301375071207682
 20
11.13087463378906
 30
0.0
 10
2.301375071207682
 20
11.11430528428819
 30
0.0
  0
SPLINE
  5
88
330
70
100
AcDbEntity
  8
Layer 1
 62
     3
420
  1307660
370
    18
100
AcDbSpline
210
0.0
220
0.0
230
1.0
 70
     8
 71
     3
 72
     8
 73
     4
 74
     0
 42
0.0000000001
 43
0.0000000001
 40
0.0
 40
0.0
 40
0.0
 40
0.0
 40
1.0
 40
1.0
 40
1.0
 40
1.0
 10
2.211374918619791
 20
11.11430528428819
 30
0.0
 10
2.211374918619791
 20
11.13087463378906
 30
0.0
 10
2.197944429185655
 20
11.14430575900607
 30
0.0
 10
2.181375079684787
 20
11.14430575900607
 30
0.0
  0
SPLINE
  5
89
330
70
100
AcDbEntity
  8
Layer 1
 62
     3
420
  1307660
370
    18
100
AcDbSpline
210
0.0
220
0.0
230
1.0
 70
     8
 71
     3
 72
     8
 73
     4
 74
     0
 42
0.0000000001
 43
0.0000000001
 40
0.0
 40
0.0
 40
0.0
 40
0.0
 40
1.0
 40
1.0
 40
1.0
 40
1.0
 10
2.331374910142686
 20
6.359833187527126
 30
0.0
 10
2.353374905056423
 20
6.391319274902343
 30
0.0
 10
2.353374905056423
 20
6.433180491129556
 30
0.0
 10
2.331374910142686
 20
6.464666578504774
 30
0.0
  0
SPLINE
  5
8A
330
70
100
AcDbEntity
  8
Layer 1
 62
     3
420
  1307660
370
    18
100
AcDbSpline
210
0.0
220
0.0
230
1.0
 70
     8
 71
     3
 72
    11
 73
     7
 74
     0
 42
0.0000000001
 43
0.0000000001
 40
0.0
 40
0.0
 40
0.0
 40
0.0
 40
1.0
 40
1.0
 40
1.0
 40
2.0
 40
2.0
 40
2.0
 40
2.0
 10
2.316527684529622
 20
6.306680467393662
 30
0.0
 10
2.374833424886067
 20
6.33990266587999
 30
0.0
 10
2.395166609022352
 20
6.414097256130641
 30
0.0
 10
2.361944410536024
 20
6.472388797336154
 30
0.0
 10
2.351152843899197
 20
6.491333431667751
 30
0.0
 10
2.335472318861219
 20
6.507027943929036
 30
0.0
 10
2.316527684529622
 20
6.517819298638237
 30
0.0
  0
SPLINE
  5
8B
330
70
100
AcDbEntity
  8
Layer 1
 62
     3
420
  1307660
370
    18
100
AcDbSpline
210
0.0
220
0.0
230
1.0
 70
     8
 71
     3
 72
    11
 73
     7
 74
     0
 42
0.0000000001
 43
0.0000000001
 40
0.0
 40
0.0
 40
0.0
 40
0.0
 40
1.0
 40
1.0
 40
1.0
 40
2.0
 40
2.0
 40
2.0
 40
2.0
 10
19.75166659884983
 20
6.517819298638237
 30
0.0
 10
19.69347296820746
 20
6.484597100151908
 30
0.0
 10
19.67305501302083
 20
6.410402933756509
 30
0.0
 10
19.7062496609158
 20
6.35209740532769
 30
0.0
 10
19.71708340115017
 20
6.333152770996093
 30
0.0
 10
19.73277791341146
 20
6.317472245958115
 30
0.0
 10
19.75166659884983
 20
6.306680467393662
 30
0.0
  0
SPLINE
  5
8C
330
70
100
AcDbEntity
  8
Layer 1
 62
     3
420
  1307660
370
    18
100
AcDbSpline
210
0.0
220
0.0
230
1.0
 70
     8
 71
     3
 72
     8
 73
     4
 74
     0
 42
0.0000000001
 43
0.0000000001
 40
0.0
 40
0.0
 40
0.0
 40
0.0
 40
1.0
 40
1.0
 40
1.0
 40
1.0
 10
19.73694525824652
 20
6.464666578504774
 30
0.0
 10
19.71486070421007
 20
6.433180491129556
 30
0.0
 10
19.71486070421007
 20
6.391319274902343
 30
0.0
 10
19.73694525824652
 20
6.359833187527126
 30
0.0
  0
SPLINE
  5
8D
330
70
100
AcDbEntity
  8
Layer 1
 62
     3
420
  1307660
370
    18
100
AcDbSpline
210
0.0
220
0.0
230
1.0
 70
     8
 71
     3
 72
    11
 73
     7
 74
     0
 42
0.0000000001
 43
0.0000000001
 40
0.0
 40
0.0
 40
0.0
 40
0.0
 40
1.0
 40
1.0
 40
1.0
 40
2.0
 40
2.0
 40
2.0
 40
2.0
 10
20.10736083984375
 20
6.537250094943575
 30
0.0
 10
20.03833346896701
 20
6.537250094943575
 30
0.0
 10
19.98236083984375
 20
6.481277889675563
 30
0.0
 10
19.98236083984375
 20
6.412250094943575
 30
0.0
 10
19.98236083984375
 20
6.343208312988281
 30
0.0
 10
20.03833346896701
 20
6.287250094943575
 30
0.0
 10
20.10736083984375
 20
6.287250094943575
 30
0.0
  0
SPLINE
  5
8E
330
70
100
AcDbEntity
  8
Layer 1
 62
     3
420
  1307660
370
    18
100
AcDbSpline
210
0.0
220
0.0
230
1.0
 70
     8
 71
     3
 72
    11
 73
     7
 74
     0
 42
0.0000000001
 43
0.0000000001
 40
0.0
 40
0.0
 40
0.0
 40
0.0
 40
1.0
 40
1.0
 40
1.0
 40
2.0
 40
2.0
 40
2.0
 40
2.0
 10
20.25736151801215
 20
6.287250094943575
 30
0.0
 10
20.32638888888889
 20
6.287250094943575
 30
0.0
 10
20.38236151801215
 20
6.343208312988281
 30
0.0
 10
20.38236151801215
 20
6.412250094943575
 30
0.0
 10
20.38236151801215
 20
6.481277889675563
 30
0.0
 10
20.32638888888889
 20
6.537250094943575
 30
0.0
 10
20.25736151801215
 20
6.537250094943575
 30
0.0
  0
SPLINE
  5
8F
330
70
100
AcDbEntity
  8
Layer 1
 62
     3
420
  1307660
370
    18
100
AcDbSpline
210
0.0
220
0.0
230
1.0
 70
     8
 71
     3
 72
     8
 73
     4
 74
     0
 42
0.0000000001
 43
0.0000000001
 40
0.0
 40
0.0
 40
0.0
 40
0.0
 40
1.0
 40
1.0
 40
1.0
 40
1.0
 10
19.7669440375434
 20
6.280611250135633
 30
0.0
 10
19.7669440375434
 20
6.291389041476779
 30
0.0
 10
19.76111178927951
 20
6.301347096761067
 30
0.0
 10
19.75166659884983
 20
6.306680467393662
 30
0.0
  0
SPLINE
  5
90
330
70
100
AcDbEntity
  8
Layer 1
 62
     3
420
  1307660
370
    18
100
AcDbSpline
210
0.0
220
0.0
230
1.0
 70
     8
 71
     3
 72
    11
 73
     7
 74
     0
 42
0.0000000001
 43
0.0000000001
 40
0.0
 40
0.0
 40
0.0
 40
0.0
 40
1.0
 40
1.0
 40
1.0
 40
2.0
 40
2.0
 40
2.0
 40
2.0
 10
1.960874981350368
 20
6.287250094943575
 30
0.0
 10
2.029916763305664
 20
6.287250094943575
 30
0.0
 10
2.085874981350368
 20
6.343208312988281
 30
0.0
 10
2.085874981350368
 20
6.412250094943575
 30
0.0
 10
2.085874981350368
 20
6.481277889675563
 30
0.0
 10
2.029916763305664
 20
6.537250094943575
 30
0.0
 10
1.960874981350368
 20
6.537250094943575
 30
0.0
  0
SPLINE
  5
91
330
70
100
AcDbEntity
  8
Layer 1
 62
     3
420
  1307660
370
    18
100
AcDbSpline
210
0.0
220
0.0
230
1.0
 70
     8
 71
     3
 72
    11
 73
     7
 74
     0
 42
0.0000000001
 43
0.0000000001
 40
0.0
 40
0.0
 40
0.0
 40
0.0
 40
1.0
 40
1.0
 40
1.0
 40
2.0
 40
2.0
 40
2.0
 40
2.0
 10
1.810874938964843
 20
6.537250094943575
 30
0.0
 10
1.741847250196668
 20
6.537250094943575
 30
0.0
 10
1.685875044928656
 20
6.481277889675563
 30
0.0
 10
1.685875044928656
 20
6.412250094943575
 30
0.0
 10
1.685875044928656
 20
6.343208312988281
 30
0.0
 10
1.741847250196668
 20
6.287250094943575
 30
0.0
 10
1.810874938964843
 20
6.287250094943575
 30
0.0
  0
SPLINE
  5
92
330
70
100
AcDbEntity
  8
Layer 1
 62
     3
420
  1307660
370
    18
100
AcDbSpline
210
0.0
220
0.0
230
1.0
 70
     8
 71
     3
 72
     8
 73
     4
 74
     0
 42
0.0000000001
 43
0.0000000001
 40
0.0
 40
0.0
 40
0.0
 40
0.0
 40
1.0
 40
1.0
 40
1.0
 40
1.0
 10
19.75166659884983
 20
6.517819298638237
 30
0.0
 10
19.76111178927951
 20
6.523152669270833
 30
0.0
 10
19.7669440375434
 20
6.533097161187065
 30
0.0
 10
19.7669440375434
 20
6.543874952528211
 30
0.0
  0
SPLINE
  5
93
330
70
100
AcDbEntity
  8
Layer 1
 62
     3
420
  1307660
370
    18
100
AcDbSpline
210
0.0
220
0.0
230
1.0
 70
     8
 71
     3
 72
     8
 73
     4
 74
     0
 42
0.0000000001
 43
0.0000000001
 40
0.0
 40
0.0
 40
0.0
 40
0.0
 40
1.0
 40
1.0
 40
1.0
 40
1.0
 10
2.301375071207682
 20
6.543874952528211
 30
0.0
 10
2.301375071207682
 20
6.533097161187065
 30
0.0
 10
2.307166629367404
 20
6.523152669270833
 30
0.0
 10
2.316527684529622
 20
6.517819298638237
 30
0.0
  0
SPLINE
  5
94
330
70
100
AcDbEntity
  8
Layer 1
 62
     3
420
  1307660
370
    18
100
AcDbSpline
210
0.0
220
0.0
230
1.0
 70
     8
 71
     3
 72
     8
 73
     4
 74
     0
 42
0.0000000001
 43
0.0000000001
 40
0.0
 40
0.0
 40
0.0
 40
0.0
 40
1.0
 40
1.0
 40
1.0
 40
1.0
 10
2.316527684529622
 20
6.306680467393662
 30
0.0
 10
2.307166629367404
 20
6.301347096761067
 30
0.0
 10
2.301375071207682
 20
6.291389041476779
 30
0.0
 10
2.301375071207682
 20
6.280611250135633
 30
0.0
  0
LWPOLYLINE
  5
95
330
70
100
AcDbEntity
  8
Layer 1
 62
     3
420
  1307660
370
    18
100
AcDbPolyline
 90
        7
 70
     0
 43
0.0
 10
2.316527684529622
 20
6.306680467393662
 10
2.316847271389431
 20
6.308069441053602
 10
2.317750083075629
 20
6.311902787950303
 10
2.319222132364908
 20
6.317819383409287
 10
2.322458267211914
 20
6.329625023735893
 10
2.326888826158311
 20
6.344555748833549
 10
2.331374910142686
 20
6.359833187527126
  0
LWPOLYLINE
  5
96
330
70
100
AcDbEntity
  8
Layer 1
 62
     3
420
  1307660
370
    18
100
AcDbPolyline
 90
        4
 70
     0
 43
0.0
 10
2.331374910142686
 20
6.359833187527126
 10
2.316375096638997
 20
6.359833187527126
 10
2.305402755737304
 20
6.359833187527126
 10
2.301375071207682
 20
6.359833187527126
  0
LWPOLYLINE
  5
97
330
70
100
AcDbEntity
  8
Layer 1
 62
     3
420
  1307660
370
    18
100
AcDbPolyline
 90
        4
 70
     0
 43
0.0
 10
2.331374910142686
 20
6.464666578504774
 10
2.316375096638997
 20
6.464666578504774
 10
2.305402755737304
 20
6.464666578504774
 10
2.301375071207682
 20
6.464666578504774
  0
LWPOLYLINE
  5
98
330
70
100
AcDbEntity
  8
Layer 1
 62
     3
420
  1307660
370
    18
100
AcDbPolyline
 90
        7
 70
     0
 43
0.0
 10
2.316527684529622
 20
6.517819298638237
 10
2.316541671752929
 20
6.517763773600259
 10
2.316930558946397
 20
6.516014099121093
 10
2.317986170450846
 20
6.511583540174695
 10
2.320138931274414
 20
6.503180609809027
 10
2.322861141628689
 20
6.493430667453341
 10
2.331374910142686
 20
6.464666578504774
  0
LWPOLYLINE
  5
99
330
70
100
AcDbEntity
  8
Layer 1
 62
     3
420
  1307660
370
    18
100
AcDbPolyline
 90
        6
 70
     0
 43
0.0
 10
2.301375071207682
 20
6.212250179714626
 10
2.296972274780273
 20
6.212250179714626
 10
2.28419452243381
 20
6.212250179714626
 10
2.264277776082356
 20
6.212250179714626
 10
2.239194446139865
 20
6.212250179714626
 10
2.211374918619791
 20
6.212250179714626
  0
LINE
  5
9A
330
70
100
AcDbEntity
  8
Layer 1
 62
     3
420
  1307660
370
    18
100
AcDbLine
 10
1.542874972025553
 20
6.212250179714626
 30
0.0
 11
2.211374918619791
 21
6.212250179714626
 31
0.0
  0
LINE
  5
9B
330
70
100
AcDbEntity
  8
Layer 1
 62
     3
420
  1307660
370
    18
100
AcDbLine
 10
1.542874972025553
 20
6.212250179714626
 30
0.0
 11
1.542874972025553
 21
6.612250010172525
 31
0.0
  0
LINE
  5
9C
330
70
100
AcDbEntity
  8
Layer 1
 62
     3
420
  1307660
370
    18
100
AcDbLine
 10
2.211374918619791
 20
6.212250179714626
 30
0.0
 11
2.211374918619791
 21
6.612250010172525
 31
0.0
  0
LINE
  5
9D
330
70
100
AcDbEntity
  8
Layer 1
 62
     3
420
  1307660
370
    18
100
AcDbLine
 10
1.810874938964843
 20
6.287250094943575
 30
0.0
 11
1.960874981350368
 21
6.287250094943575
 31
0.0
  0
LINE
  5
9E
330
70
100
AcDbEntity
  8
Layer 1
 62
     3
420
  1307660
370
    18
100
AcDbLine
 10
1.960874981350368
 20
6.537250094943575
 30
0.0
 11
1.810874938964843
 21
6.537250094943575
 31
0.0
  0
LWPOLYLINE
  5
9F
330
70
100
AcDbEntity
  8
Layer 1
 62
     3
420
  1307660
370
    18
100
AcDbPolyline
 90
        4
 70
     0
 43
0.0
 10
19.73694525824652
 20
6.464666578504774
 10
19.75194464789496
 20
6.464666578504774
 10
19.76291741265191
 20
6.464666578504774
 10
19.7669440375434
 20
6.464666578504774
  0
LWPOLYLINE
  5
A0
330
70
100
AcDbEntity
  8
Layer 1
 62
     3
420
  1307660
370
    18
100
AcDbPolyline
 90
        6
 70
     0
 43
0.0
 10
2.211374918619791
 20
6.612250010172525
 10
2.239194446139865
 20
6.612250010172525
 10
2.264277776082356
 20
6.612250010172525
 10
2.28419452243381
 20
6.612250010172525
 10
2.296972274780273
 20
6.612250010172525
 10
2.301375071207682
 20
6.612250010172525
  0
LINE
  5
A1
330
70
100
AcDbEntity
  8
Layer 1
 62
     3
420
  1307660
370
    18
100
AcDbLine
 10
2.211374918619791
 20
6.612250010172525
 30
0.0
 11
1.542874972025553
 21
6.612250010172525
 31
0.0
  0
LINE
  5
A2
330
70
100
AcDbEntity
  8
Layer 1
 62
     3
420
  1307660
370
    18
100
AcDbLine
 10
19.85694376627604
 20
6.612250010172525
 30
0.0
 11
19.85694376627604
 21
6.212250179714626
 31
0.0
  0
LWPOLYLINE
  5
A3
330
70
100
AcDbEntity
  8
Layer 1
 62
     3
420
  1307660
370
    18
100
AcDbPolyline
 90
        4
 70
     0
 43
0.0
 10
19.73694525824652
 20
6.359833187527126
 10
19.75194464789496
 20
6.359833187527126
 10
19.76291741265191
 20
6.359833187527126
 10
19.7669440375434
 20
6.359833187527126
  0
LWPOLYLINE
  5
A4
330
70
100
AcDbEntity
  8
Layer 1
 62
     3
420
  1307660
370
    18
100
AcDbPolyline
 90
        6
 70
     0
 43
0.0
 10
19.85694376627604
 20
6.212250179714626
 10
19.82902696397569
 20
6.212250179714626
 10
19.80402798122829
 20
6.212250179714626
 10
19.78402709960937
 20
6.212250179714626
 10
19.77125040690104
 20
6.212250179714626
 10
19.7669440375434
 20
6.212250179714626
  0
LWPOLYLINE
  5
A5
330
70
100
AcDbEntity
  8
Layer 1
 62
     3
420
  1307660
370
    18
100
AcDbPolyline
 90
        7
 70
     0
 43
0.0
 10
19.75166659884983
 20
6.517819298638237
 10
19.75138854980469
 20
6.516430748833549
 10
19.75055609809027
 20
6.512597401936848
 10
19.74902852376302
 20
6.506680382622612
 10
19.74583265516493
 20
6.49486117892795
 10
19.74138895670573
 20
6.479944441053602
 10
19.73694525824652
 20
6.464666578504774
  0
LWPOLYLINE
  5
A6
330
70
100
AcDbEntity
  8
Layer 1
 62
     3
420
  1307660
370
    18
100
AcDbPolyline
 90
        7
 70
     0
 43
0.0
 10
19.75166659884983
 20
6.306680467393662
 10
19.75166659884983
 20
6.306722429063584
 10
19.75124952528211
 20
6.308472103542751
 10
19.75027804904514
 20
6.312916649712455
 10
19.74805535210503
 20
6.321305592854817
 10
19.74541727701822
 20
6.33106952243381
 10
19.73694525824652
 20
6.359833187527126
  0
LINE
  5
A7
330
70
100
AcDbEntity
  8
Layer 1
 62
     3
420
  1307660
370
    18
100
AcDbLine
 10
20.5254160563151
 20
6.612250010172525
 30
0.0
 11
19.85694376627604
 21
6.612250010172525
 31
0.0
  0
LWPOLYLINE
  5
A8
330
70
100
AcDbEntity
  8
Layer 1
 62
     3
420
  1307660
370
    18
100
AcDbPolyline
 90
        6
 70
     0
 43
0.0
 10
19.7669440375434
 20
6.612250010172525
 10
19.77125040690104
 20
6.612250010172525
 10
19.78402709960937
 20
6.612250010172525
 10
19.80402798122829
 20
6.612250010172525
 10
19.82902696397569
 20
6.612250010172525
 10
19.85694376627604
 20
6.612250010172525
  0
LINE
  5
A9
330
70
100
AcDbEntity
  8
Layer 1
 62
     3
420
  1307660
370
    18
100
AcDbLine
 10
19.85694376627604
 20
6.212250179714626
 30
0.0
 11
20.5254160563151
 21
6.212250179714626
 31
0.0
  0
LINE
  5
AA
330
70
100
AcDbEntity
  8
Layer 1
 62
     3
420
  1307660
370
    18
100
AcDbLine
 10
20.5254160563151
 20
6.612250010172525
 30
0.0
 11
20.5254160563151
 21
6.212250179714626
 31
0.0
  0
LINE
  5
AB
330
70
100
AcDbEntity
  8
Layer 1
 62
     3
420
  1307660
370
    18
100
AcDbLine
 10
19.73694525824652
 20
6.359833187527126
 30
0.0
 11
19.73694525824652
 21
6.464666578504774
 31
0.0
  0
LINE
  5
AC
330
70
100
AcDbEntity
  8
Layer 1
 62
     3
420
  1307660
370
    18
100
AcDbLine
 10
20.10736083984375
 20
6.287250094943575
 30
0.0
 11
20.25736151801215
 21
6.287250094943575
 31
0.0
  0
LINE
  5
AD
330
70
100
AcDbEntity
  8
Layer 1
 62
     3
420
  1307660
370
    18
100
AcDbLine
 10
20.25736151801215
 20
6.537250094943575
 30
0.0
 11
20.10736083984375
 21
6.537250094943575
 31
0.0
  0
LINE
  5
AE
330
70
100
AcDbEntity
  8
Layer 1
 62
     3
420
  1307660
370
    18
100
AcDbLine
 10
19.7669440375434
 20
6.212250179714626
 30
0.0
 11
19.7669440375434
 21
6.612250010172525
 31
0.0
  0
LWPOLYLINE
  5
AF
330
70
100
AcDbEntity
  8
Layer 1
 62
     3
420
  1307660
370
    18
100
AcDbPolyline
 90
       13
 70
     0
 43
0.0
 10
18.81194390190972
 20
6.290749867757161
 10
18.81194390190972
 20
6.294888814290364
 10
18.81194390190972
 20
6.307027604844834
 10
18.81194390190972
 20
6.326333363850911
 10
18.81194390190972
 20
6.351500193277994
 10
18.81194390190972
 20
6.380805545383029
 10
18.81194390190972
 20
6.412250094943575
 10
18.81194390190972
 20
6.443694644504122
 10
18.81194390190972
 20
6.472999996609157
 10
18.81194390190972
 20
6.49816682603624
 10
18.81194390190972
 20
6.517472161187065
 10
18.81194390190972
 20
6.529610951741536
 10
18.81194390190972
 20
6.533749898274739
  0
LINE
  5
B0
330
70
100
AcDbEntity
  8
Layer 1
 62
     3
420
  1307660
370
    18
100
AcDbLine
 10
2.301375071207682
 20
6.612250010172525
 30
0.0
 11
2.301375071207682
 21
6.212250179714626
 31
0.0
  0
LWPOLYLINE
  5
B1
330
70
100
AcDbEntity
  8
Layer 1
 62
     3
420
  1307660
370
    18
100
AcDbPolyline
 90
       13
 70
     0
 43
0.0
 10
3.256374994913736
 20
6.533749898274739
 10
3.256374994913736
 20
6.529610951741536
 10
3.256374994913736
 20
6.517472161187065
 10
3.256374994913736
 20
6.49816682603624
 10
3.256374994913736
 20
6.472999996609157
 10
3.256374994913736
 20
6.443694644504122
 10
3.256374994913736
 20
6.412250094943575
 10
3.256374994913736
 20
6.380805545383029
 10
3.256374994913736
 20
6.351500193277994
 10
3.256374994913736
 20
6.326333363850911
 10
3.256374994913736
 20
6.307027604844834
 10
3.256374994913736
 20
6.294888814290364
 10
3.256374994913736
 20
6.290749867757161
  0
LINE
  5
B2
330
70
100
AcDbEntity
  8
Layer 1
 62
     3
420
  1307660
370
    18
100
AcDbLine
 10
2.331374910142686
 20
6.464666578504774
 30
0.0
 11
2.331374910142686
 21
6.359833187527126
 31
0.0
  0
LWPOLYLINE
  5
B3
330
70
100
AcDbEntity
  8
Layer 1
 62
     3
420
  1307660
370
    18
100
AcDbPolyline
 90
       15
 70
     0
 43
0.0
 10
19.765138414171
 20
6.533749898274739
 10
19.73402743869358
 20
6.533749898274739
 10
19.69541592068142
 20
6.533749898274739
 10
19.64958360460069
 20
6.533749898274739
 10
19.59680514865451
 20
6.533749898274739
 10
19.53777737087673
 20
6.533749898274739
 10
19.47291734483506
 20
6.533749898274739
 10
19.40249972873264
 20
6.533749898274739
 10
19.32736036512586
 20
6.533749898274739
 10
19.24805535210503
 20
6.533749898274739
 10
19.16513909233941
 20
6.533749898274739
 10
19.0794440375434
 20
6.533749898274739
 10
18.99138895670573
 20
6.533749898274739
 10
18.90208265516493
 20
6.533749898274739
 10
18.81194390190972
 20
6.533749898274739
  0
LWPOLYLINE
  5
B4
330
70
100
AcDbEntity
  8
Layer 1
 62
     3
420
  1307660
370
    18
100
AcDbPolyline
 90
       15
 70
     0
 43
0.0
 10
18.81194390190972
 20
6.290749867757161
 10
18.90208265516493
 20
6.290749867757161
 10
18.99138895670573
 20
6.290749867757161
 10
19.0794440375434
 20
6.290749867757161
 10
19.16513909233941
 20
6.290749867757161
 10
19.24805535210503
 20
6.290749867757161
 10
19.32736036512586
 20
6.290749867757161
 10
19.40249972873264
 20
6.290749867757161
 10
19.47291734483506
 20
6.290749867757161
 10
19.53777737087673
 20
6.290749867757161
 10
19.59680514865451
 20
6.290749867757161
 10
19.64958360460069
 20
6.290749867757161
 10
19.69541592068142
 20
6.290749867757161
 10
19.73402743869358
 20
6.290749867757161
 10
19.765138414171
 20
6.290749867757161
  0
LWPOLYLINE
  5
B5
330
70
100
AcDbEntity
  8
Layer 1
 62
     3
420
  1307660
370
    18
100
AcDbPolyline
 90
       15
 70
     0
 43
0.0
 10
2.303138944837781
 20
6.290749867757161
 10
2.334277682834201
 20
6.290749867757161
 10
2.372902764214409
 20
6.290749867757161
 10
2.418736139933268
 20
6.290749867757161
 10
2.471388922797308
 20
6.290749867757161
 10
2.530430475870768
 20
6.290749867757161
 10
2.595375061035156
 20
6.290749867757161
 10
2.665722317165798
 20
6.290749867757161
 10
2.740861044989691
 20
6.290749867757161
 10
2.820208231608072
 20
6.290749867757161
 10
2.90309715270996
 20
6.290749867757161
 10
2.988875071207682
 20
6.290749867757161
 10
3.076819525824652
 20
6.290749867757161
 10
3.166236029730902
 20
6.290749867757161
 10
3.256374994913736
 20
6.290749867757161
  0
LWPOLYLINE
  5
B6
330
70
100
AcDbEntity
  8
Layer 1
 62
     3
420
  1307660
370
    18
100
AcDbPolyline
 90
       15
 70
     0
 43
0.0
 10
3.256374994913736
 20
6.533749898274739
 10
3.166236029730902
 20
6.533749898274739
 10
3.076819525824652
 20
6.533749898274739
 10
2.988875071207682
 20
6.533749898274739
 10
2.90309715270996
 20
6.533749898274739
 10
2.820208231608072
 20
6.533749898274739
 10
2.740861044989691
 20
6.533749898274739
 10
2.665722317165798
 20
6.533749898274739
 10
2.595375061035156
 20
6.533749898274739
 10
2.530430475870768
 20
6.533749898274739
 10
2.471388922797308
 20
6.533749898274739
 10
2.418736139933268
 20
6.533749898274739
 10
2.372902764214409
 20
6.533749898274739
 10
2.334277682834201
 20
6.533749898274739
 10
2.303138944837781
 20
6.533749898274739
  0
LINE
  5
B7
330
70
100
AcDbEntity
  8
Layer 1
 62
     3
420
  1307660
370
    18
100
AcDbLine
 10
18.81194390190972
 20
6.533749898274739
 30
0.0
 11
3.256374994913736
 21
6.533749898274739
 31
0.0
  0
LINE
  5
B8
330
70
100
AcDbEntity
  8
Layer 1
 62
     3
420
  1307660
370
    18
100
AcDbLine
 10
3.256374994913736
 20
6.290749867757161
 30
0.0
 11
18.81194390190972
 21
6.290749867757161
 31
0.0
  0
LWPOLYLINE
  5
B9
330
70
100
AcDbEntity
  8
Layer 1
 62
     3
420
  1307660
370
    18
100
AcDbPolyline
 90
        3
 70
     0
 43
0.0
 10
2.196222305297851
 20
11.17430538601345
 10
2.20731947157118
 20
11.17430538601345
 10
2.211374918619791
 20
11.17430538601345
  0
LWPOLYLINE
  5
BA
330
70
100
AcDbEntity
  8
Layer 1
 62
     3
420
  1307660
370
    18
100
AcDbPolyline
 90
        7
 70
     0
 43
0.0
 10
2.196222305297851
 20
11.17430538601345
 10
2.195916705661349
 20
11.16647254096137
 10
2.195013893975152
 20
11.15956963433159
 10
2.193527857462564
 20
11.1538331773546
 10
2.190305497911241
 20
11.14793056911892
 10
2.185874938964843
 20
11.14493052164713
 10
2.181375079684787
 20
11.14430575900607
  0
LWPOLYLINE
  5
BB
330
70
100
AcDbEntity
  8
Layer 1
 62
     3
420
  1307660
370
    18
100
AcDbPolyline
 90
        7
 70
     0
 43
0.0
 10
2.316527684529622
 20
11.17430538601345
 10
2.316541671752929
 20
11.17281934950087
 10
2.316930558946397
 20
11.16541629367404
 10
2.317986170450846
 20
11.15833367241753
 10
2.320138931274414
 20
11.15156979031033
 10
2.322861141628689
 20
11.1474863688151
 10
2.331374910142686
 20
11.14430575900607
  0
LWPOLYLINE
  5
BC
330
70
100
AcDbEntity
  8
Layer 1
 62
     3
420
  1307660
370
    18
100
AcDbPolyline
 90
        3
 70
     0
 43
0.0
 10
2.316527684529622
 20
11.17430538601345
 10
2.3054445054796
 20
11.17430538601345
 10
2.301375071207682
 20
11.17430538601345
  0
LWPOLYLINE
  5
BD
330
70
100
AcDbEntity
  8
Layer 1
 62
     3
420
  1307660
370
    18
100
AcDbPolyline
 90
        3
 70
     0
 43
0.0
 10
19.75166659884983
 20
11.17430538601345
 10
19.76277838812934
 20
11.17430538601345
 10
19.7669440375434
 20
11.17430538601345
  0
LWPOLYLINE
  5
BE
330
70
100
AcDbEntity
  8
Layer 1
 62
     3
420
  1307660
370
    18
100
AcDbPolyline
 90
        7
 70
     0
 43
0.0
 10
19.87208387586805
 20
11.17430538601345
 10
19.87208387586805
 20
11.17281934950087
 10
19.87249925401475
 20
11.16541629367404
 10
19.87347242567274
 20
11.15833367241753
 10
19.87569512261284
 20
11.15156979031033
 10
19.87833319769965
 20
11.1474863688151
 10
19.88694424099392
 20
11.14430575900607
  0
LINE
  5
BF
330
70
100
AcDbEntity
  8
Layer 1
 62
     3
420
  1307660
370
    18
100
AcDbLine
 10
1.542874972025553
 20
10.39180586073134
 30
0.0
 11
1.542874972025553
 21
10.48180558946397
 31
0.0
  0
LINE
  5
C0
330
70
100
AcDbEntity
  8
Layer 1
 62
     3
420
  1307660
370
    18
100
AcDbLine
 10
1.542874972025553
 20
10.48180558946397
 30
0.0
 11
2.181375079684787
 21
10.48180558946397
 31
0.0
  0
LINE
  5
C1
330
70
100
AcDbEntity
  8
Layer 1
 62
     3
420
  1307660
370
    18
100
AcDbLine
 10
2.211374918619791
 20
10.39180586073134
 30
0.0
 11
1.542874972025553
 21
10.39180586073134
 31
0.0
  0
LINE
  5
C2
330
70
100
AcDbEntity
  8
Layer 1
 62
     3
420
  1307660
370
    18
100
AcDbLine
 10
19.75166659884983
 20
11.17430538601345
 30
0.0
 11
19.75166659884983
 21
11.20409732394748
 31
0.0
  0
LWPOLYLINE
  5
C3
330
70
100
AcDbEntity
  8
Layer 1
 62
     3
420
  1307660
370
    18
100
AcDbPolyline
 90
        3
 70
     0
 43
0.0
 10
19.87208387586805
 20
11.17430538601345
 10
19.86097208658854
 20
11.17430538601345
 10
19.85694376627604
 20
11.17430538601345
  0
LWPOLYLINE
  5
C4
330
70
100
AcDbEntity
  8
Layer 1
 62
     3
420
  1307660
370
    18
100
AcDbPolyline
 90
        7
 70
     0
 43
0.0
 10
19.75166659884983
 20
11.17430538601345
 10
19.75138854980469
 20
11.16647254096137
 10
19.75055609809027
 20
11.15956963433159
 10
19.74902852376302
 20
11.1538331773546
 10
19.74583265516493
 20
11.14793056911892
 10
19.74138895670573
 20
11.14493052164713
 10
19.73694525824652
 20
11.14430575900607
  0
LINE
  5
C5
330
70
100
AcDbEntity
  8
Layer 1
 62
     3
420
  1307660
370
    18
100
AcDbLine
 10
20.5254160563151
 20
10.39180586073134
 30
0.0
 11
19.85694376627604
 21
10.39180586073134
 31
0.0
  0
LINE
  5
C6
330
70
100
AcDbEntity
  8
Layer 1
 62
     3
420
  1307660
370
    18
100
AcDbLine
 10
19.87208387586805
 20
11.20409732394748
 30
0.0
 11
19.87208387586805
 21
11.17430538601345
 31
0.0
  0
LINE
  5
C7
330
70
100
AcDbEntity
  8
Layer 1
 62
     3
420
  1307660
370
    18
100
AcDbLine
 10
19.88694424099392
 20
10.48180558946397
 30
0.0
 11
20.5254160563151
 21
10.48180558946397
 31
0.0
  0
LINE
  5
C8
330
70
100
AcDbEntity
  8
Layer 1
 62
     3
420
  1307660
370
    18
100
AcDbLine
 10
20.5254160563151
 20
10.48180558946397
 30
0.0
 11
20.5254160563151
 21
10.39180586073134
 31
0.0
  0
LWPOLYLINE
  5
C9
330
70
100
AcDbEntity
  8
Layer 1
 62
     3
420
  1307660
370
    18
100
AcDbPolyline
 90
        5
 70
     0
 43
0.0
 10
19.87208387586805
 20
11.17430538601345
 10
19.89736090766059
 20
11.17430538601345
 10
19.9169447157118
 20
11.17430538601345
 10
19.92916700575086
 20
11.17430538601345
 10
19.93333265516493
 20
11.17430538601345
  0
LWPOLYLINE
  5
CA
330
70
100
AcDbEntity
  8
Layer 1
 62
     3
420
  1307660
370
    18
100
AcDbPolyline
 90
        3
 70
     0
 43
0.0
 10
2.181375079684787
 20
11.14430575900607
 10
2.169097264607747
 20
11.14430575900607
 10
2.164875030517578
 20
11.14430575900607
  0
LWPOLYLINE
  5
CB
330
70
100
AcDbEntity
  8
Layer 1
 62
     3
420
  1307660
370
    18
100
AcDbPolyline
 90
        3
 70
     0
 43
0.0
 10
19.73694525824652
 20
11.14430575900607
 10
19.72458394368489
 20
11.14430575900607
 10
19.72041659884983
 20
11.14430575900607
  0
LWPOLYLINE
  5
CC
330
70
100
AcDbEntity
  8
Layer 1
 62
     3
420
  1307660
370
    18
100
AcDbPolyline
 90
        5
 70
     0
 43
0.0
 10
19.85694376627604
 20
11.1753192477756
 10
19.85833401150173
 20
11.18123626708984
 10
19.86388821072048
 20
11.19190300835503
 10
19.87111070421007
 20
11.2029308742947
 10
19.87208387586805
 20
11.20409732394748
  0
LWPOLYLINE
  5
CD
330
70
100
AcDbEntity
  8
Layer 1
 62
     3
420
  1307660
370
    18
100
AcDbPolyline
 90
        5
 70
     0
 43
0.0
 10
19.69041612413194
 20
11.17430538601345
 10
19.69458346896701
 20
11.17430538601345
 10
19.70680575900608
 20
11.17430538601345
 10
19.72638956705729
 20
11.17430538601345
 10
19.75166659884983
 20
11.17430538601345
  0
LINE
  5
CE
330
70
100
AcDbEntity
  8
Layer 1
 62
     3
420
  1307660
370
    18
100
AcDbLine
 10
19.7669440375434
 20
10.48180558946397
 30
0.0
 11
19.7669440375434
 21
11.09930589463975
 31
0.0
  0
LWPOLYLINE
  5
CF
330
70
100
AcDbEntity
  8
Layer 1
 62
     3
420
  1307660
370
    18
100
AcDbPolyline
 90
        5
 70
     0
 43
0.0
 10
19.75166659884983
 20
11.20409732394748
 10
19.77138943142361
 20
11.20277743869357
 10
19.79319424099392
 20
11.20136091444227
 10
19.83388943142361
 20
11.20152791341145
 10
19.87208387586805
 20
11.20409732394748
  0
LWPOLYLINE
  5
D0
330
70
100
AcDbEntity
  8
Layer 1
 62
     3
420
  1307660
370
    18
100
AcDbPolyline
 90
        3
 70
     0
 43
0.0
 10
19.85694376627604
 20
11.17298634847005
 10
19.80874972873264
 20
11.17188856336805
 10
19.7669440375434
 20
11.17298634847005
  0
LINE
  5
D1
330
70
100
AcDbEntity
  8
Layer 1
 62
     3
420
  1307660
370
    18
100
AcDbLine
 10
19.85694376627604
 20
11.09930589463975
 30
0.0
 11
19.85694376627604
 21
10.51180521647135
 31
0.0
  0
LWPOLYLINE
  5
D2
330
70
100
AcDbEntity
  8
Layer 1
 62
     3
420
  1307660
370
    18
100
AcDbPolyline
 90
        5
 70
     0
 43
0.0
 10
19.85694376627604
 20
11.17298634847005
 10
19.85694376627604
 20
11.16387515597873
 10
19.85694376627604
 20
11.14712524414062
 10
19.85694376627604
 20
11.12472195095486
 10
19.85694376627604
 20
11.09930589463975
  0
LINE
  5
D3
330
70
100
AcDbEntity
  8
Layer 1
 62
     3
420
  1307660
370
    18
100
AcDbLine
 10
19.85694376627604
 20
11.09930589463975
 30
0.0
 11
19.7669440375434
 21
11.09930589463975
 31
0.0
  0
LWPOLYLINE
  5
D4
330
70
100
AcDbEntity
  8
Layer 1
 62
     3
420
  1307660
370
    18
100
AcDbPolyline
 90
        5
 70
     0
 43
0.0
 10
19.7669440375434
 20
11.09930589463975
 10
19.7669440375434
 20
11.12472195095486
 10
19.7669440375434
 20
11.14712524414062
 10
19.7669440375434
 20
11.16387515597873
 10
19.7669440375434
 20
11.17298634847005
  0
LWPOLYLINE
  5
D5
330
70
100
AcDbEntity
  8
Layer 1
 62
     3
420
  1307660
370
    18
100
AcDbPolyline
 90
        5
 70
     0
 43
0.0
 10
19.75166659884983
 20
11.20409732394748
 10
19.7526380750868
 20
11.2029308742947
 10
19.75986056857639
 20
11.19190300835503
 10
19.76541646321614
 20
11.18123626708984
 10
19.7669440375434
 20
11.1753192477756
  0
LWPOLYLINE
  5
D6
330
70
100
AcDbEntity
  8
Layer 1
 62
     3
420
  1307660
370
    18
100
AcDbPolyline
 90
        5
 70
     0
 43
0.0
 10
2.316527684529622
 20
11.17430538601345
 10
2.341916614108615
 20
11.17430538601345
 10
2.361430486043293
 20
11.17430538601345
 10
2.373694525824652
 20
11.17430538601345
 10
2.377875010172525
 20
11.17430538601345
  0
LWPOLYLINE
  5
D7
330
70
100
AcDbEntity
  8
Layer 1
 62
     3
420
  1307660
370
    18
100
AcDbPolyline
 90
        7
 70
     0
 43
0.0
 10
19.93333265516493
 20
12.08277808295356
 10
19.92930603027344
 20
12.08277808295356
 10
19.91708374023437
 20
12.08277808295356
 10
19.8977779812283
 20
12.08277808295356
 10
19.87263827853732
 20
12.08277808295356
 10
19.84333292643229
 20
12.08277808295356
 10
19.81194390190972
 20
12.08277808295356
  0
LWPOLYLINE
  5
D8
330
70
100
AcDbEntity
  8
Layer 1
 62
     3
420
  1307660
370
    18
100
AcDbPolyline
 90
        7
 70
     0
 43
0.0
 10
19.81194390190972
 20
12.08277808295356
 10
19.78041585286458
 20
12.08277808295356
 10
19.75111050075955
 20
12.08277808295356
 10
19.72597249348958
 20
12.08277808295356
 10
19.7066667344835
 20
12.08277808295356
 10
19.69458346896701
 20
12.08277808295356
 10
19.69041612413194
 20
12.08277808295356
  0
LWPOLYLINE
  5
D9
330
70
100
AcDbEntity
  8
Layer 1
 62
     3
420
  1307660
370
    18
100
AcDbPolyline
 90
        5
 70
     0
 43
0.0
 10
2.196222305297851
 20
11.20409732394748
 10
2.197097142537434
 20
11.2029308742947
 10
2.204416698879665
 20
11.19190300835503
 10
2.209874894883897
 20
11.18123626708984
 10
2.211374918619791
 20
11.1753192477756
  0
LWPOLYLINE
  5
DA
330
70
100
AcDbEntity
  8
Layer 1
 62
     3
420
  1307660
370
    18
100
AcDbPolyline
 90
        7
 70
     0
 43
0.0
 10
18.81194390190972
 20
12.96127743191189
 10
18.81194390190972
 20
12.96541680230034
 10
18.81194390190972
 20
12.97755516899956
 10
18.81194390190972
 20
12.99686092800564
 10
18.81194390190972
 20
13.02202775743272
 10
18.81194390190972
 20
13.0513195461697
 10
18.81194390190972
 20
13.08277808295356
  0
LWPOLYLINE
  5
DB
330
70
100
AcDbEntity
  8
Layer 1
 62
     3
420
  1307660
370
    18
100
AcDbPolyline
 90
        7
 70
     0
 43
0.0
 10
18.81194390190972
 20
13.08277808295356
 10
18.81194390190972
 20
13.11422220865885
 10
18.81194390190972
 20
13.14352756076389
 10
18.81194390190972
 20
13.16868082682291
 10
18.81194390190972
 20
13.18800014919705
 10
18.81194390190972
 20
13.20012495252821
 10
18.81194390190972
 20
13.20427788628472
  0
LINE
  5
DC
330
70
100
AcDbEntity
  8
Layer 1
 62
     3
420
  1307660
370
    18
100
AcDbLine
 10
2.211374918619791
 20
10.51180521647135
 30
0.0
 11
2.211374918619791
 21
11.09930589463975
 31
0.0
  0
LINE
  5
DD
330
70
100
AcDbEntity
  8
Layer 1
 62
     3
420
  1307660
370
    18
100
AcDbLine
 10
2.316527684529622
 20
11.20409732394748
 30
0.0
 11
2.316527684529622
 21
11.17430538601345
 31
0.0
  0
LINE
  5
DE
330
70
100
AcDbEntity
  8
Layer 1
 62
     3
420
  1307660
370
    18
100
AcDbLine
 10
2.196222305297851
 20
11.17430538601345
 30
0.0
 11
2.196222305297851
 21
11.20409732394748
 31
0.0
  0
LWPOLYLINE
  5
DF
330
70
100
AcDbEntity
  8
Layer 1
 62
     3
420
  1307660
370
    18
100
AcDbPolyline
 90
        5
 70
     0
 43
0.0
 10
2.134874979654947
 20
11.17430538601345
 10
2.139069451226128
 20
11.17430538601345
 10
2.151333279079861
 20
11.17430538601345
 10
2.170833375718858
 20
11.17430538601345
 10
2.196222305297851
 20
11.17430538601345
  0
LWPOLYLINE
  5
E0
330
70
100
AcDbEntity
  8
Layer 1
 62
     3
420
  1307660
370
    18
100
AcDbPolyline
 90
        5
 70
     0
 43
0.0
 10
2.301375071207682
 20
11.1753192477756
 10
2.302888870239257
 20
11.18123626708984
 10
2.308333290947807
 20
11.19190300835503
 10
2.31566662258572
 20
11.2029308742947
 10
2.316527684529622
 20
11.20409732394748
  0
LWPOLYLINE
  5
E1
330
70
100
AcDbEntity
  8
Layer 1
 62
     3
420
  1307660
370
    18
100
AcDbPolyline
 90
        5
 70
     0
 43
0.0
 10
2.211374918619791
 20
11.09930589463975
 10
2.211374918619791
 20
11.12472195095486
 10
2.211374918619791
 20
11.14712524414062
 10
2.211374918619791
 20
11.16387515597873
 10
2.211374918619791
 20
11.17298634847005
  0
LWPOLYLINE
  5
E2
330
70
100
AcDbEntity
  8
Layer 1
 62
     3
420
  1307660
370
    18
100
AcDbPolyline
 90
        7
 70
     0
 43
0.0
 10
2.377875010172525
 20
12.08277808295356
 10
2.373736063639322
 20
12.08277808295356
 10
2.361597273084852
 20
12.08277808295356
 10
2.342291726006401
 20
12.08277808295356
 10
2.317124896579318
 20
12.08277808295356
 10
2.287819544474283
 20
12.08277808295356
 10
2.256374994913736
 20
12.08277808295356
  0
LWPOLYLINE
  5
E3
330
70
100
AcDbEntity
  8
Layer 1
 62
     3
420
  1307660
370
    18
100
AcDbPolyline
 90
        7
 70
     0
 43
0.0
 10
2.256374994913736
 20
12.08277808295356
 10
2.224930657280815
 20
12.08277808295356
 10
2.195625093248155
 20
12.08277808295356
 10
2.170458263821072
 20
12.08277808295356
 10
2.151152716742621
 20
12.08277808295356
 10
2.13901392618815
 20
12.08277808295356
 10
2.134874979654947
 20
12.08277808295356
  0
LINE
  5
E4
330
70
100
AcDbEntity
  8
Layer 1
 62
     3
420
  1307660
370
    18
100
AcDbLine
 10
2.301375071207682
 20
11.09930589463975
 30
0.0
 11
2.301375071207682
 21
10.48180558946397
 31
0.0
  0
LWPOLYLINE
  5
E5
330
70
100
AcDbEntity
  8
Layer 1
 62
     3
420
  1307660
370
    18
100
AcDbPolyline
 90
        5
 70
     0
 43
0.0
 10
2.301375071207682
 20
11.17298634847005
 10
2.301375071207682
 20
11.16387515597873
 10
2.301375071207682
 20
11.14712524414062
 10
2.301375071207682
 20
11.12472195095486
 10
2.301375071207682
 20
11.09930589463975
  0
LINE
  5
E6
330
70
100
AcDbEntity
  8
Layer 1
 62
     3
420
  1307660
370
    18
100
AcDbLine
 10
2.301375071207682
 20
11.09930589463975
 30
0.0
 11
2.211374918619791
 21
11.09930589463975
 31
0.0
  0
LWPOLYLINE
  5
E7
330
70
100
AcDbEntity
  8
Layer 1
 62
     3
420
  1307660
370
    18
100
AcDbPolyline
 90
        5
 70
     0
 43
0.0
 10
2.196222305297851
 20
11.20409732394748
 10
2.215958277384439
 20
11.20277743869357
 10
2.237694422403971
 20
11.20136091444227
 10
2.278347227308485
 20
11.20152791341145
 10
2.316527684529622
 20
11.20409732394748
  0
LWPOLYLINE
  5
E8
330
70
100
AcDbEntity
  8
Layer 1
 62
     3
420
  1307660
370
    18
100
AcDbPolyline
 90
        3
 70
     0
 43
0.0
 10
2.301375071207682
 20
11.17298634847005
 10
2.253208372328016
 20
11.17188856336805
 10
2.211374918619791
 20
11.17298634847005
  0
LWPOLYLINE
  5
E9
330
70
100
AcDbEntity
  8
Layer 1
 62
     3
420
  1307660
370
    18
100
AcDbPolyline
 90
        3
 70
     0
 43
0.0
 10
19.90333387586805
 20
11.14430575900607
 10
19.89916653103298
 20
11.14430575900607
 10
19.88694424099392
 20
11.14430575900607
  0
LWPOLYLINE
  5
EA
330
70
100
AcDbEntity
  8
Layer 1
 62
     3
420
  1307660
370
    18
100
AcDbPolyline
 90
       13
 70
     0
 43
0.0
 10
3.256374994913736
 20
13.20427788628472
 10
3.256374994913736
 20
13.20012495252821
 10
3.256374994913736
 20
13.18800014919705
 10
3.256374994913736
 20
13.16868082682291
 10
3.256374994913736
 20
13.14352756076389
 10
3.256374994913736
 20
13.11422220865885
 10
3.256374994913736
 20
13.08277808295356
 10
3.256374994913736
 20
13.0513195461697
 10
3.256374994913736
 20
13.02202775743272
 10
3.256374994913736
 20
12.99686092800564
 10
3.256374994913736
 20
12.97755516899956
 10
3.256374994913736
 20
12.96541680230034
 10
3.256374994913736
 20
12.96127743191189
  0
LWPOLYLINE
  5
EB
330
70
100
AcDbEntity
  8
Layer 1
 62
     3
420
  1307660
370
    18
100
AcDbPolyline
 90
        3
 70
     0
 43
0.0
 10
2.347874959309895
 20
11.14430575900607
 10
2.343652725219726
 20
11.14430575900607
 10
2.331374910142686
 20
11.14430575900607
  0
LINE
  5
EC
330
70
100
AcDbEntity
  8
Layer 1
 62
     3
420
  1307660
370
    18
100
AcDbLine
 10
19.93333265516493
 20
11.17430538601345
 30
0.0
 11
19.93333265516493
 21
12.08277808295356
 31
0.0
  0
LINE
  5
ED
330
70
100
AcDbEntity
  8
Layer 1
 62
     3
420
  1307660
370
    18
100
AcDbLine
 10
19.69041612413194
 20
12.08277808295356
 30
0.0
 11
19.69041612413194
 21
11.17430538601345
 31
0.0
  0
LINE
  5
EE
330
70
100
AcDbEntity
  8
Layer 1
 62
     3
420
  1307660
370
    18
100
AcDbLine
 10
2.377875010172525
 20
11.17430538601345
 30
0.0
 11
2.377875010172525
 21
12.08277808295356
 31
0.0
  0
LINE
  5
EF
330
70
100
AcDbEntity
  8
Layer 1
 62
     3
420
  1307660
370
    18
100
AcDbLine
 10
2.134874979654947
 20
12.08277808295356
 30
0.0
 11
2.134874979654947
 21
11.17430538601345
 31
0.0
  0
LINE
  5
F0
330
70
100
AcDbEntity
  8
Layer 1
 62
     3
420
  1307660
370
    18
100
AcDbLine
 10
18.81194390190972
 20
13.20427788628472
 30
0.0
 11
3.256374994913736
 21
13.20427788628472
 31
0.0
  0
LINE
  5
F1
330
70
100
AcDbEntity
  8
Layer 1
 62
     3
420
  1307660
370
    18
100
AcDbLine
 10
3.256374994913736
 20
12.96127743191189
 30
0.0
 11
18.81194390190972
 21
12.96127743191189
 31
0.0
  0
ENDSEC
  0
SECTION
  2
OBJECTS
  0
DICTIONARY
  5
C
330
0
100
AcDbDictionary
281
     1
  3
ACAD_COLOR
350
63
  3
ACAD_DETAILVIEWSTYLE
350
6A
  3
ACAD_GROUP
350
D
  3
ACAD_LAYOUT
350
62
  3
ACAD_MATERIAL
350
10
  3
ACAD_MLEADERSTYLE
350
66
  3
ACAD_MLINESTYLE
350
5F
  3
ACAD_PLOTSETTINGS
350
61
  3
ACAD_PLOTSTYLENAME
350
E
  3
ACAD_SCALELIST
350
42
  3
ACAD_SECTIONVIEWSTYLE
350
68
  3
ACAD_TABLESTYLE
350
64
  3
ACAD_VISUALSTYLE
350
29
  3
ACDB_RECOMPOSE_DATA
350
FA
  3
AcDbVariableDictionary
350
F2
  0
DICTIONARY
  5
63
102
{ACAD_REACTORS
330
C
102
}
330
C
100
AcDbDictionary
281
     1
  0
DICTIONARY
  5
6A
102
{ACAD_REACTORS
330
C
102
}
330
C
100
AcDbDictionary
281
     1
  3
Imperial24
350
6B
  0
DICTIONARY
  5
D
102
{ACAD_REACTORS
330
C
102
}
330
C
100
AcDbDictionary
281
     1
  0
DICTIONARY
  5
62
102
{ACAD_REACTORS
330
C
102
}
330
C
100
AcDbDictionary
281
     1
  3
Layout1
350
6F
  3
Layout2
350
77
  3
Model
350
73
  0
DICTIONARY
  5
10
102
{ACAD_REACTORS
330
C
102
}
330
C
100
AcDbDictionary
281
     1
  3
ByBlock
350
19
  3
ByLayer
350
11
  3
Global
350
21
  0
DICTIONARY
  5
66
102
{ACAD_REACTORS
330
C
102
}
330
C
100
AcDbDictionary
281
     1
  3
Standard
350
67
  0
DICTIONARY
  5
5F
102
{ACAD_REACTORS
330
C
102
}
330
C
100
AcDbDictionary
281
     1
  3
Standard
350
60
  0
DICTIONARY
  5
61
102
{ACAD_REACTORS
330
C
102
}
330
C
100
AcDbDictionary
281
     1
  0
ACDBDICTIONARYWDFLT
  5
E
102
{ACAD_REACTORS
330
C
102
}
330
C
100
AcDbDictionary
281
     1
  3
Normal
350
F
100
AcDbDictionaryWithDefault
340
F
  0
DICTIONARY
  5
42
102
{ACAD_REACTORS
330
C
102
}
330
C
100
AcDbDictionary
281
     1
  3
A0
350
43
  3
A1
350
44
  3
A2
350
45
  3
A3
350
46
  3
A4
350
47
  3
A5
350
48
  3
A6
350
49
  3
A7
350
4A
  3
A8
350
4B
  3
A9
350
4C
  3
B0
350
4D
  3
B1
350
4E
  3
B2
350
4F
  3
B3
350
50
  3
B4
350
51
  3
B5
350
52
  3
B6
350
53
  0
DICTIONARY
  5
68
102
{ACAD_REACTORS
330
C
102
}
330
C
100
AcDbDictionary
281
     1
  3
Imperial24
350
69
  0
DICTIONARY
  5
64
102
{ACAD_REACTORS
330
C
102
}
330
C
100
AcDbDictionary
281
     1
  3
Standard
350
65
  0
DICTIONARY
  5
29
102
{ACAD_REACTORS
330
C
102
}
330
C
100
AcDbDictionary
281
     1
  3
2dWireframe
350
2F
  3
Basic
350
2E
  3
Brighten
350
35
  3
ColorChange
350
39
  3
Conceptual
350
32
  3
Dim
350
34
  3
EdgeColorOff
350
41
  3
Facepattern
350
38
  3
Flat
350
2A
  3
FlatWithEdges
350
2B
  3
Gouraud
350
2C
  3
GouraudWithEdges
350
2D
  3
Hidden
350
31
  3
JitterOff
350
3F
  3
Linepattern
350
37
  3
OverhangOff
350
40
  3
Realistic
350
33
  3
Shaded
350
3E
  3
Shaded with edges
350
3D
  3
Shades of Gray
350
3A
  3
Sketchy
350
3B
  3
Thicken
350
36
  3
Wireframe
350
30
  3
X-Ray
350
3C
  0
XRECORD
  5
FA
102
{ACAD_REACTORS
330
C
102
}
330
C
100
AcDbXrecord
280
     1
 90
        1
330
65
  0
DICTIONARY
  5
F2
102
{ACAD_REACTORS
330
C
102
}
330
C
100
AcDbDictionary
281
     1
  3
CANNOSCALE
350
F7
  3
CMLEADERSTYLE
350
F4
  3
CTABLESTYLE
350
F3
  3
CVIEWDETAILSTYLE
350
F5
  3
CVIEWSECTIONSTYLE
350
F6
  0
ACDBDETAILVIEWSTYLE
  5
6B
102
{ACAD_REACTORS
330
6A
102
}
330
6A
100
AcDbModelDocViewStyle
 70
     0
  3
Imperial24
290
     1
300
Imperial24
 90
        0
100
AcDbDetailViewStyle
 70
     0
 71
     0
 90
        3
 71
     1
340
55
 62
   256
 40
0.24
340
0
 62
   256
 40
0.24
300

 40
0.36
280
     3
 71
     2
340
5D
 90
       25
 62
   256
 71
     3
340
55
 62
   256
 40
0.24
 90
        1
 40
0.75
 90
        1
300
%<\AcVar ViewType \f "%tc1">% %<\AcVar ViewDetailId>%\PSCALE %<\AcVar ViewScale \f "%sn">%
 71
     4
340
5D
 90
       25
 62
   256
340
5D
 90
       25
 62
   256
280
     0
  0
LAYOUT
  5
6F
102
{ACAD_REACTORS
330
62
102
}
330
62
100
AcDbPlotSettings
  1

  2

  4

  6

 40
0.0
 41
0.0
 42
0.0
 43
0.0
 44
0.0
 45
0.0
 46
0.0
 47
0.0
 48
0.0
 49
0.0
140
0.0
141
0.0
142
1.0
143
1.0
 70
   688
 72
     0
 73
     0
 74
     5
  7

 75
    16
147
1.0
 76
     0
 77
     2
 78
   300
148
0.0
149
0.0
100
AcDbLayout
  1
Layout1
 70
     1
 71
     1
 10
0.0
 20
0.0
 11
12.0
 21
9.0
 12
0.0
 22
0.0
 32
0.0
 14
0.0
 24
0.0
 34
0.0
 15
0.0
 25
0.0
 35
0.0
146
0.0
 13
0.0
 23
0.0
 33
0.0
 16
1.0
 26
0.0
 36
0.0
 17
0.0
 27
1.0
 37
0.0
 76
     0
330
6C
  0
LAYOUT
  5
77
102
{ACAD_REACTORS
330
62
102
}
330
62
100
AcDbPlotSettings
  1

  2

  4

  6

 40
0.0
 41
0.0
 42
0.0
 43
0.0
 44
0.0
 45
0.0
 46
0.0
 47
0.0
 48
0.0
 49
0.0
140
0.0
141
0.0
142
1.0
143
1.0
 70
   688
 72
     0
 73
     0
 74
     5
  7

 75
    16
147
1.0
 76
     0
 77
     2
 78
   300
148
0.0
149
0.0
100
AcDbLayout
  1
Layout2
 70
     1
 71
     2
 10
0.0
 20
0.0
 11
12.0
 21
9.0
 12
0.0
 22
0.0
 32
0.0
 14
0.0
 24
0.0
 34
0.0
 15
0.0
 25
0.0
 35
0.0
146
0.0
 13
0.0
 23
0.0
 33
0.0
 16
1.0
 26
0.0
 36
0.0
 17
0.0
 27
1.0
 37
0.0
 76
     0
330
74
  0
LAYOUT
  5
73
102
{ACAD_REACTORS
330
62
102
}
330
62
100
AcDbPlotSettings
  1

  2

  4

  6

 40
0.0
 41
0.0
 42
0.0
 43
0.0
 44
0.0
 45
0.0
 46
0.0
 47
0.0
 48
0.0
 49
0.0
140
0.0
141
0.0
142
1.0
143
1.0
 70
  1712
 72
     0
 73
     0
 74
     0
  7

 75
     0
147
1.0
 76
     0
 77
     2
 78
   300
148
0.0
149
0.0
100
AcDbLayout
  1
Model
 70
     1
 71
     0
 10
0.0
 20
0.0
 11
12.0
 21
9.0
 12
0.0
 22
0.0
 32
0.0
 14
0.0
 24
0.0
 34
0.0
 15
0.0
 25
0.0
 35
0.0
146
0.0
 13
0.0
 23
0.0
 33
0.0
 16
1.0
 26
0.0
 36
0.0
 17
0.0
 27
1.0
 37
0.0
 76
     0
330
70
  0
MATERIAL
  5
19
102
{ACAD_XDICTIONARY
360
1A
102
}
102
{ACAD_REACTORS
330
10
102
}
330
10
100
AcDbMaterial
  1
ByBlock
 72
     0
 43
0.0208333333333333
 43
0.0
 43
0.0
 43
0.0
 43
0.0
 43
0.0208333333333333
 43
0.0
 43
0.0
 43
0.0
 43
0.0
 43
1.0
 43
0.0
 43
0.0
 43
0.0
 43
0.0
 43
1.0
 77
     0
 47
0.0208333333333333
 47
0.0
 47
0.0
 47
0.0
 47
0.0
 47
0.0208333333333333
 47
0.0
 47
0.0
 47
0.0
 47
0.0
 47
1.0
 47
0.0
 47
0.0
 47
0.0
 47
0.0
 47
1.0
171
     0
 49
0.0208333333333333
 49
0.0
 49
0.0
 49
0.0
 49
0.0
 49
0.0208333333333333
 49
0.0
 49
0.0
 49
0.0
 49
0.0
 49
1.0
 49
0.0
 49
0.0
 49
0.0
 49
0.0
 49
1.0
175
     0
142
0.0208333333333333
142
0.0
142
0.0
142
0.0
142
0.0
142
0.0208333333333333
142
0.0
142
0.0
142
0.0
142
0.0
142
1.0
142
0.0
142
0.0
142
0.0
142
0.0
142
1.0
179
     0
144
0.0208333333333333
144
0.0
144
0.0
144
0.0
144
0.0
144
0.0208333333333333
144
0.0
144
0.0
144
0.0
144
0.0
144
1.0
144
0.0
144
0.0
144
0.0
144
0.0
144
1.0
147
0.0208333333333333
147
0.0
147
0.0
147
0.0
147
0.0
147
0.0208333333333333
147
0.0
147
0.0
147
0.0
147
0.0
147
1.0
147
0.0
147
0.0
147
0.0
147
0.0
147
1.0
  0
MATERIAL
  5
11
102
{ACAD_XDICTIONARY
360
12
102
}
102
{ACAD_REACTORS
330
10
102
}
330
10
100
AcDbMaterial
  1
ByLayer
 72
     0
 43
0.0208333333333333
 43
0.0
 43
0.0
 43
0.0
 43
0.0
 43
0.0208333333333333
 43
0.0
 43
0.0
 43
0.0
 43
0.0
 43
1.0
 43
0.0
 43
0.0
 43
0.0
 43
0.0
 43
1.0
 77
     0
 47
0.0208333333333333
 47
0.0
 47
0.0
 47
0.0
 47
0.0
 47
0.0208333333333333
 47
0.0
 47
0.0
 47
0.0
 47
0.0
 47
1.0
 47
0.0
 47
0.0
 47
0.0
 47
0.0
 47
1.0
171
     0
 49
0.0208333333333333
 49
0.0
 49
0.0
 49
0.0
 49
0.0
 49
0.0208333333333333
 49
0.0
 49
0.0
 49
0.0
 49
0.0
 49
1.0
 49
0.0
 49
0.0
 49
0.0
 49
0.0
 49
1.0
175
     0
142
0.0208333333333333
142
0.0
142
0.0
142
0.0
142
0.0
142
0.0208333333333333
142
0.0
142
0.0
142
0.0
142
0.0
142
1.0
142
0.0
142
0.0
142
0.0
142
0.0
142
1.0
179
     0
144
0.0208333333333333
144
0.0
144
0.0
144
0.0
144
0.0
144
0.0208333333333333
144
0.0
144
0.0
144
0.0
144
0.0
144
1.0
144
0.0
144
0.0
144
0.0
144
0.0
144
1.0
147
0.0208333333333333
147
0.0
147
0.0
147
0.0
147
0.0
147
0.0208333333333333
147
0.0
147
0.0
147
0.0
147
0.0
147
1.0
147
0.0
147
0.0
147
0.0
147
0.0
147
1.0
  0
MATERIAL
  5
21
102
{ACAD_XDICTIONARY
360
22
102
}
102
{ACAD_REACTORS
330
10
102
}
330
10
100
AcDbMaterial
  1
Global
 72
     0
 43
0.0208333333333333
 43
0.0
 43
0.0
 43
0.0
 43
0.0
 43
0.0208333333333333
 43
0.0
 43
0.0
 43
0.0
 43
0.0
 43
1.0
 43
0.0
 43
0.0
 43
0.0
 43
0.0
 43
1.0
 77
     0
 47
0.0208333333333333
 47
0.0
 47
0.0
 47
0.0
 47
0.0
 47
0.0208333333333333
 47
0.0
 47
0.0
 47
0.0
 47
0.0
 47
1.0
 47
0.0
 47
0.0
 47
0.0
 47
0.0
 47
1.0
171
     0
 49
0.0208333333333333
 49
0.0
 49
0.0
 49
0.0
 49
0.0
 49
0.0208333333333333
 49
0.0
 49
0.0
 49
0.0
 49
0.0
 49
1.0
 49
0.0
 49
0.0
 49
0.0
 49
0.0
 49
1.0
175
     0
142
0.0208333333333333
142
0.0
142
0.0
142
0.0
142
0.0
142
0.0208333333333333
142
0.0
142
0.0
142
0.0
142
0.0
142
1.0
142
0.0
142
0.0
142
0.0
142
0.0
142
1.0
179
     0
144
0.0208333333333333
144
0.0
144
0.0
144
0.0
144
0.0
144
0.0208333333333333
144
0.0
144
0.0
144
0.0
144
0.0
144
1.0
144
0.0
144
0.0
144
0.0
144
0.0
144
1.0
147
0.0208333333333333
147
0.0
147
0.0
147
0.0
147
0.0
147
0.0208333333333333
147
0.0
147
0.0
147
0.0
147
0.0
147
1.0
147
0.0
147
0.0
147
0.0
147
0.0
147
1.0
  0
MLEADERSTYLE
  5
67
102
{ACAD_REACTORS
330
66
102
}
330
66
100
AcDbMLeaderStyle
179
     2
170
     2
171
     1
172
     0
 90
        2
 40
0.0
 41
0.0
173
     1
 91
-1056964608
340
5B
 92
       -2
290
     1
 42
0.09
291
     1
 43
0.36
  3
Standard
 44
0.18
300

342
55
174
     1
178
     6
175
     1
176
     0
 93
-1056964608
 45
0.18
292
     0
297
     0
 46
0.18
 94
-1056964608
 47
1.0
 49
1.0
140
1.0
293
     1
141
0.0
294
     1
177
     0
142
1.0
295
     1
296
     0
143
0.125
271
     0
272
     9
273
     9
298
     1
  0
MLINESTYLE
  5
60
102
{ACAD_REACTORS
330
5F
102
}
330
5F
100
AcDbMlineStyle
  2
STANDARD
 70
     0
  3

 62
   256
 51
90.0
 52
90.0
 71
     2
 49
0.5
 62
   256
  6
BYLAYER
 49
-0.5
 62
   256
  6
BYLAYER
  0
ACDBPLACEHOLDER
  5
F
102
{ACAD_REACTORS
330
E
102
}
330
E
  0
SCALE
  5
43
102
{ACAD_REACTORS
330
42
102
}
330
42
100
AcDbScale
 70
     0
300
1:1
140
1.0
141
1.0
290
     1
  0
SCALE
  5
44
102
{ACAD_REACTORS
330
42
102
}
330
42
100
AcDbScale
 70
     0
300
1/128" = 1'-0"
140
0.0078125
141
12.0
290
     0
  0
SCALE
  5
45
102
{ACAD_REACTORS
330
42
102
}
330
42
100
AcDbScale
 70
     0
300
1/64" = 1'-0"
140
0.015625
141
12.0
290
     0
  0
SCALE
  5
46
102
{ACAD_REACTORS
330
42
102
}
330
42
100
AcDbScale
 70
     0
300
1/32" = 1'-0"
140
0.03125
141
12.0
290
     0
  0
SCALE
  5
47
102
{ACAD_REACTORS
330
42
102
}
330
42
100
AcDbScale
 70
     0
300
1/16" = 1'-0"
140
0.0625
141
12.0
290
     0
  0
SCALE
  5
48
102
{ACAD_REACTORS
330
42
102
}
330
42
100
AcDbScale
 70
     0
300
3/32" = 1'-0"
140
0.09375
141
12.0
290
     0
  0
SCALE
  5
49
102
{ACAD_REACTORS
330
42
102
}
330
42
100
AcDbScale
 70
     0
300
1/8" = 1'-0"
140
0.125
141
12.0
290
     0
  0
SCALE
  5
4A
102
{ACAD_REACTORS
330
42
102
}
330
42
100
AcDbScale
 70
     0
300
3/16" = 1'-0"
140
0.1875
141
12.0
290
     0
  0
SCALE
  5
4B
102
{ACAD_REACTORS
330
42
102
}
330
42
100
AcDbScale
 70
     0
300
1/4" = 1'-0"
140
0.25
141
12.0
290
     0
  0
SCALE
  5
4C
102
{ACAD_REACTORS
330
42
102
}
330
42
100
AcDbScale
 70
     0
300
3/8" = 1'-0"
140
0.375
141
12.0
290
     0
  0
SCALE
  5
4D
102
{ACAD_REACTORS
330
42
102
}
330
42
100
AcDbScale
 70
     0
300
1/2" = 1'-0"
140
0.5
141
12.0
290
     0
  0
SCALE
  5
4E
102
{ACAD_REACTORS
330
42
102
}
330
42
100
AcDbScale
 70
     0
300
3/4" = 1'-0"
140
0.75
141
12.0
290
     0
  0
SCALE
  5
4F
102
{ACAD_REACTORS
330
42
102
}
330
42
100
AcDbScale
 70
     0
300
1" = 1'-0"
140
1.0
141
12.0
290
     0
  0
SCALE
  5
50
102
{ACAD_REACTORS
330
42
102
}
330
42
100
AcDbScale
 70
     0
300
1-1/2" = 1'-0"
140
1.5
141
12.0
290
     0
  0
SCALE
  5
51
102
{ACAD_REACTORS
330
42
102
}
330
42
100
AcDbScale
 70
     0
300
3" = 1'-0"
140
3.0
141
12.0
290
     0
  0
SCALE
  5
52
102
{ACAD_REACTORS
330
42
102
}
330
42
100
AcDbScale
 70
     0
300
6" = 1'-0"
140
6.0
141
12.0
290
     0
  0
SCALE
  5
53
102
{ACAD_REACTORS
330
42
102
}
330
42
100
AcDbScale
 70
     0
300
1'-0" = 1'-0"
140
12.0
141
12.0
290
     0
  0
ACDBSECTIONVIEWSTYLE
  5
69
102
{ACAD_REACTORS
330
68
102
}
330
68
100
AcDbModelDocViewStyle
 70
     0
  3
Imperial24
290
     1
300
Imperial24
 90
        0
100
AcDbSectionViewStyle
 70
     0
 71
     0
 90
       78
 71
     1
340
55
 62
   256
 40
0.24
340
0
340
0
 62
   256
 40
0.24
300
I, O, Q, S, X, Z
 40
0.48
 90
        3
 40
0.18
 90
        1
 71
     2
340
5D
 90
       25
 62
   256
340
5D
 90
       50
 62
   256
 40
0.24
 40
0.0
 40
0.24
 71
     3
340
55
 62
   256
 40
0.24
 90
        1
 40
0.75
 90
        1
300
%<\AcVar ViewType \f "%tc1">% %<\AcVar ViewSectionStartId>%-%<\AcVar ViewSectionEndId>%\PSCALE %<\AcVar ViewScale \f "%sn">%
 71
     4
 62
   256
 62
   257
300
ANSI31
 40
1.0
 90
        0
290
     0
290
     0
 90
        6
 40
0.0
 40
1.570796326794896
 40
0.2617993877991494
 40
1.308996938995747
 40
-0.2617993877991494
 40
1.832595714594046
  0
TABLESTYLE
  5
65
102
{ACAD_XDICTIONARY
360
F8
102
}
102
{ACAD_REACTORS
330
64
102
}
330
64
100
AcDbTableStyle
280
     0
  3
Standard
 70
     0
 71
     0
 40
0.06
 41
0.06
280
     0
281
     0
  7
Standard
140
0.18
170
     2
 62
     0
 63
     7
283
     0
 90
      512
 91
        0
  1

274
    -2
284
     1
 64
     0
275
    -2
285
     1
 65
     0
276
    -2
286
     1
 66
     0
277
    -2
287
     1
 67
     0
278
    -2
288
     1
 68
     0
279
    -2
289
     1
 69
     0
  7
Standard
140
0.25
170
     5
 62
     0
 63
     7
283
     0
 90
      512
 91
        0
  1

274
    -2
284
     1
 64
     0
275
    -2
285
     1
 65
     0
276
    -2
286
     1
 66
     0
277
    -2
287
     1
 67
     0
278
    -2
288
     1
 68
     0
279
    -2
289
     1
 69
     0
  7
Standard
140
0.18
170
     5
 62
     0
 63
     7
283
     0
 90
      512
 91
        0
  1

274
    -2
284
     1
 64
     0
275
    -2
285
     1
 65
     0
276
    -2
286
     1
 66
     0
277
    -2
287
     1
 67
     0
278
    -2
288
     1
 68
     0
279
    -2
289
     1
 69
     0
  0
VISUALSTYLE
  5
2F
102
{ACAD_REACTORS
330
29
102
}
330
29
100
AcDbVisualStyle
  2
2dWireframe
 70
     4
177
     3
291
     0
 70
    58
 90
        0
176
     1
 90
        2
176
     1
 90
        0
176
     1
 90
        0
176
     1
 40
0.6
176
     1
 40
30.0
176
     1
 62
     7
420
 16777215
176
     1
 90
        1
176
     1
 90
        4
176
     1
 62
     7
176
     1
 62
   257
176
     1
 90
        1
176
     1
 90
        1
176
     1
 40
1.0
176
     1
 90
        0
176
     1
 62
   257
176
     1
 40
1.0
176
     1
 90
        1
176
     1
 90
        6
176
     1
 90
        2
176
     1
 62
     7
176
     1
 90
        5
176
     1
 90
        0
176
     1
 90
        0
176
     1
290
     0
176
     1
 90
        1
176
     1
 40
0.0
176
     1
 90
        0
176
     1
290
     1
176
     1
290
     1
176
     1
290
     0
176
     1
290
     0
176
     1
290
     0
176
     1
290
     0
176
     1
290
     0
176
     1
290
     0
176
     1
290
     0
176
     1
 90
       50
176
     1
 40
0.0
176
     1
 40
1.0
176
     1
 90
        0
176
     1
 62
    18
420
        0
176
     1
 90
       50
176
     1
 90
        3
176
     1
 62
     5
420
      255
176
     1
290
     0
176
     1
 90
       50
176
     1
 90
       50
176
     1
 90
       50
176
     1
290
     0
176
     1
 90
       50
176
     1
 62
   256
176
     0
 40
1.0
176
     0
 90
        2
176
     1
  1
strokes_ogs.tif
176
     1
290
     0
176
     1
 40
1.0
176
     1
 40
1.0
176
     1
  0
VISUALSTYLE
  5
2E
102
{ACAD_REACTORS
330
29
102
}
330
29
100
AcDbVisualStyle
  2
Basic
 70
     7
177
     3
291
     1
 70
    58
 90
        1
176
     1
 90
        0
176
     1
 90
        1
176
     1
 90
        0
176
     1
 40
0.6
176
     1
 40
30.0
176
     1
 62
     7
420
 16777215
176
     1
 90
        0
176
     1
 90
        4
176
     1
 62
     7
176
     1
 62
   257
176
     1
 90
        1
176
     1
 90
        1
176
     1
 40
1.0
176
     1
 90
        8
176
     1
 62
     7
176
     1
 40
1.0
176
     1
 90
        1
176
     1
 90
        6
176
     1
 90
        2
176
     1
 62
     7
176
     1
 90
        5
176
     1
 90
        0
176
     1
 90
        0
176
     1
290
     0
176
     1
 90
        1
176
     1
 40
0.0
176
     1
 90
        0
176
     1
290
     0
176
     1
290
     1
176
     1
290
     1
176
     1
290
     0
176
     1
290
     0
176
     1
290
     0
176
     1
290
     0
176
     1
290
     0
176
     1
290
     0
176
     1
 90
       50
176
     1
 40
0.0
176
     1
 40
1.0
176
     1
 90
        0
176
     1
 62
    18
420
        0
176
     1
 90
       50
176
     1
 90
        3
176
     1
 62
     5
420
      255
176
     1
290
     0
176
     1
 90
       50
176
     1
 90
       50
176
     1
 90
       50
176
     1
290
     0
176
     1
 90
       50
176
     1
 62
   256
176
     0
 40
1.0
176
     0
 90
        2
176
     1
  1
strokes_ogs.tif
176
     1
290
     0
176
     1
 40
1.0
176
     1
 40
1.0
176
     1
  0
VISUALSTYLE
  5
35
102
{ACAD_REACTORS
330
29
102
}
330
29
100
AcDbVisualStyle
  2
Brighten
 70
    12
177
     3
291
     1
 70
    58
 90
        2
176
     1
 90
        2
176
     1
 90
        0
176
     1
 90
        0
176
     1
 40
0.6
176
     1
 40
30.0
176
     1
 62
     7
420
 16777215
176
     1
 90
        1
176
     1
 90
        4
176
     1
 62
     7
176
     1
 62
   257
176
     1
 90
        1
176
     1
 90
        1
176
     1
 40
1.0
176
     1
 90
        8
176
     1
 62
     7
176
     1
 40
1.0
176
     1
 90
        1
176
     1
 90
        6
176
     1
 90
        2
176
     1
 62
     7
176
     1
 90
        5
176
     1
 90
        0
176
     1
 90
        0
176
     1
290
     0
176
     1
 90
        1
176
     1
 40
50.0
176
     1
 90
        0
176
     1
290
     0
176
     1
290
     1
176
     1
290
     1
176
     1
290
     0
176
     1
290
     0
176
     1
290
     0
176
     1
290
     0
176
     1
290
     0
176
     1
290
     0
176
     1
 90
       50
176
     1
 40
0.0
176
     1
 40
1.0
176
     1
 90
        0
176
     1
 62
    18
420
        0
176
     1
 90
       50
176
     1
 90
        3
176
     1
 62
     5
420
      255
176
     1
290
     0
176
     1
 90
       50
176
     1
 90
       50
176
     1
 90
       50
176
     1
290
     0
176
     1
 90
       50
176
     1
 62
   256
176
     0
 40
1.0
176
     0
 90
        2
176
     1
  1
strokes_ogs.tif
176
     1
290
     0
176
     1
 40
1.0
176
     1
 40
1.0
176
     1
  0
VISUALSTYLE
  5
39
102
{ACAD_REACTORS
330
29
102
}
330
29
100
AcDbVisualStyle
  2
ColorChange
 70
    16
177
     3
291
     1
 70
    58
 90
        2
176
     1
 90
        2
176
     1
 90
        3
176
     1
 90
        0
176
     1
 40
0.6
176
     1
 40
30.0
176
     1
 62
     8
420
  8421504
176
     1
 90
        1
176
     1
 90
        4
176
     1
 62
     7
176
     1
 62
   257
176
     1
 90
        1
176
     1
 90
        1
176
     1
 40
1.0
176
     1
 90
        8
176
     1
 62
     8
420
  8421504
176
     1
 40
1.0
176
     1
 90
        1
176
     1
 90
        6
176
     1
 90
        2
176
     1
 62
     7
176
     1
 90
        5
176
     1
 90
        0
176
     1
 90
        0
176
     1
290
     0
176
     1
 90
        1
176
     1
 40
0.0
176
     1
 90
        0
176
     1
290
     0
176
     1
290
     1
176
     1
290
     1
176
     1
290
     0
176
     1
290
     0
176
     1
290
     0
176
     1
290
     0
176
     1
290
     0
176
     1
290
     0
176
     1
 90
       50
176
     1
 40
0.0
176
     1
 40
1.0
176
     1
 90
        0
176
     1
 62
    18
420
        0
176
     1
 90
       50
176
     1
 90
        3
176
     1
 62
     5
420
      255
176
     1
290
     0
176
     1
 90
       50
176
     1
 90
       50
176
     1
 90
       50
176
     1
290
     0
176
     1
 90
       50
176
     1
 62
   256
176
     0
 40
1.0
176
     0
 90
        2
176
     1
  1
strokes_ogs.tif
176
     1
290
     0
176
     1
 40
1.0
176
     1
 40
1.0
176
     1
  0
VISUALSTYLE
  5
32
102
{ACAD_REACTORS
330
29
102
}
330
29
100
AcDbVisualStyle
  2
Conceptual
 70
     9
177
     3
291
     0
 70
    58
 90
        3
176
     1
 90
        2
176
     1
 90
        0
176
     1
 90
        0
176
     1
 40
0.6
176
     1
 40
30.0
176
     1
 62
     7
420
 16777215
176
     1
 90
        2
176
     1
 90
        2
176
     1
 62
     7
176
     1
 62
   257
176
     1
 90
        1
176
     1
 90
        1
176
     1
 40
179.0
176
     1
 90
        8
176
     1
 62
     7
176
     1
 40
1.0
176
     1
 90
        1
176
     1
 90
        6
176
     1
 90
        2
176
     1
 62
     7
176
     1
 90
        3
176
     1
 90
        0
176
     1
 90
        0
176
     1
290
     0
176
     1
 90
        1
176
     1
 40
0.0
176
     1
 90
        0
176
     1
290
     0
176
     1
290
     1
176
     1
290
     1
176
     1
290
     0
176
     1
290
     0
176
     1
290
     0
176
     1
290
     0
176
     1
290
     0
176
     1
290
     0
176
     1
 90
       50
176
     1
 40
0.0
176
     1
 40
1.0
176
     1
 90
        0
176
     1
 62
    18
420
        0
176
     1
 90
       50
176
     1
 90
        3
176
     1
 62
     5
420
      255
176
     1
290
     0
176
     1
 90
       50
176
     1
 90
       50
176
     1
 90
       50
176
     1
290
     0
176
     1
 90
       50
176
     1
 62
   256
176
     0
 40
1.0
176
     0
 90
        2
176
     1
  1
strokes_ogs.tif
176
     1
290
     0
176
     1
 40
1.0
176
     1
 40
1.0
176
     1
  0
VISUALSTYLE
  5
34
102
{ACAD_REACTORS
330
29
102
}
330
29
100
AcDbVisualStyle
  2
Dim
 70
    11
177
     3
291
     1
 70
    58
 90
        2
176
     1
 90
        2
176
     1
 90
        0
176
     1
 90
        0
176
     1
 40
0.6
176
     1
 40
30.0
176
     1
 62
     7
420
 16777215
176
     1
 90
        1
176
     1
 90
        4
176
     1
 62
     7
176
     1
 62
   257
176
     1
 90
        1
176
     1
 90
        1
176
     1
 40
1.0
176
     1
 90
        8
176
     1
 62
     7
176
     1
 40
1.0
176
     1
 90
        1
176
     1
 90
        6
176
     1
 90
        2
176
     1
 62
     7
176
     1
 90
        5
176
     1
 90
        0
176
     1
 90
        0
176
     1
290
     0
176
     1
 90
        1
176
     1
 40
-50.0
176
     1
 90
        0
176
     1
290
     0
176
     1
290
     1
176
     1
290
     1
176
     1
290
     0
176
     1
290
     0
176
     1
290
     0
176
     1
290
     0
176
     1
290
     0
176
     1
290
     0
176
     1
 90
       50
176
     1
 40
0.0
176
     1
 40
1.0
176
     1
 90
        0
176
     1
 62
    18
420
        0
176
     1
 90
       50
176
     1
 90
        3
176
     1
 62
     5
420
      255
176
     1
290
     0
176
     1
 90
       50
176
     1
 90
       50
176
     1
 90
       50
176
     1
290
     0
176
     1
 90
       50
176
     1
 62
   256
176
     0
 40
1.0
176
     0
 90
        2
176
     1
  1
strokes_ogs.tif
176
     1
290
     0
176
     1
 40
1.0
176
     1
 40
1.0
176
     1
  0
VISUALSTYLE
  5
41
102
{ACAD_REACTORS
330
29
102
}
330
29
100
AcDbVisualStyle
  2
EdgeColorOff
 70
    22
177
     3
291
     1
 70
    58
 90
        2
176
     0
 90
        2
176
     0
 90
        0
176
     0
 90
        0
176
     0
 40
0.6
176
     0
 40
30.0
176
     0
 62
     7
420
 16777215
176
     0
 90
        1
176
     0
 90
        4
176
     0
 62
     7
176
     0
 62
   257
176
     0
 90
        1
176
     0
 90
        1
176
     0
 40
1.0
176
     0
 90
        8
176
     2
 62
     7
176
     0
 40
1.0
176
     0
 90
        1
176
     0
 90
        6
176
     0
 90
        2
176
     0
 62
     7
176
     0
 90
        5
176
     0
 90
        0
176
     0
 90
        0
176
     0
290
     0
176
     0
 90
        1
176
     0
 40
0.0
176
     0
 90
        0
176
     0
290
     0
176
     0
290
     1
176
     0
290
     1
176
     0
290
     0
176
     0
290
     0
176
     0
290
     0
176
     0
290
     0
176
     0
290
     0
176
     0
290
     0
176
     0
 90
       50
176
     0
 40
0.0
176
     0
 40
1.0
176
     0
 90
        0
176
     0
 62
    18
420
        0
176
     0
 90
       50
176
     0
 90
        3
176
     0
 62
     5
420
      255
176
     0
290
     0
176
     0
 90
       50
176
     0
 90
       50
176
     0
 90
       50
176
     0
290
     0
176
     0
 90
       50
176
     0
 62
   256
176
     0
 40
1.0
176
     0
 90
        2
176
     0
  1
strokes_ogs.tif
176
     0
290
     0
176
     0
 40
1.0
176
     0
 40
1.0
176
     0
  0
VISUALSTYLE
  5
38
102
{ACAD_REACTORS
330
29
102
}
330
29
100
AcDbVisualStyle
  2
Facepattern
 70
    15
177
     3
291
     1
 70
    58
 90
        2
176
     1
 90
        2
176
     1
 90
        0
176
     1
 90
        0
176
     1
 40
0.6
176
     1
 40
30.0
176
     1
 62
     7
420
 16777215
176
     1
 90
        1
176
     1
 90
        4
176
     1
 62
     7
176
     1
 62
   257
176
     1
 90
        1
176
     1
 90
        1
176
     1
 40
1.0
176
     1
 90
        8
176
     1
 62
     7
176
     1
 40
1.0
176
     1
 90
        1
176
     1
 90
        6
176
     1
 90
        2
176
     1
 62
     7
176
     1
 90
        5
176
     1
 90
        0
176
     1
 90
        0
176
     1
290
     0
176
     1
 90
        1
176
     1
 40
0.0
176
     1
 90
        0
176
     1
290
     0
176
     1
290
     1
176
     1
290
     1
176
     1
290
     0
176
     1
290
     0
176
     1
290
     0
176
     1
290
     0
176
     1
290
     0
176
     1
290
     0
176
     1
 90
       50
176
     1
 40
0.0
176
     1
 40
1.0
176
     1
 90
        0
176
     1
 62
    18
420
        0
176
     1
 90
       50
176
     1
 90
        3
176
     1
 62
     5
420
      255
176
     1
290
     0
176
     1
 90
       50
176
     1
 90
       50
176
     1
 90
       50
176
     1
290
     0
176
     1
 90
       50
176
     1
 62
   256
176
     0
 40
1.0
176
     0
 90
        2
176
     1
  1
strokes_ogs.tif
176
     1
290
     0
176
     1
 40
1.0
176
     1
 40
1.0
176
     1
  0
VISUALSTYLE
  5
2A
102
{ACAD_REACTORS
330
29
102
}
330
29
100
AcDbVisualStyle
  2
Flat
 70
     0
177
     3
291
     1
 70
    58
 90
        2
176
     1
 90
        1
176
     1
 90
        1
176
     1
 90
        2
176
     1
 40
0.6
176
     1
 40
30.0
176
     1
 62
     7
420
 16777215
176
     1
 90
        0
176
     1
 90
        0
176
     1
 62
     7
176
     1
 62
   257
176
     1
 90
        1
176
     1
 90
        1
176
     1
 40
1.0
176
     1
 90
        8
176
     1
 62
     7
176
     1
 40
1.0
176
     1
 90
        1
176
     1
 90
        6
176
     1
 90
        2
176
     1
 62
     7
176
     1
 90
        5
176
     1
 90
        0
176
     1
 90
        0
176
     1
290
     0
176
     1
 90
       13
176
     1
 40
0.0
176
     1
 90
        0
176
     1
290
     0
176
     1
290
     1
176
     1
290
     1
176
     1
290
     0
176
     1
290
     0
176
     1
290
     0
176
     1
290
     0
176
     1
290
     0
176
     1
290
     0
176
     1
 90
       50
176
     1
 40
0.0
176
     1
 40
1.0
176
     1
 90
        0
176
     1
 62
    18
420
        0
176
     1
 90
       50
176
     1
 90
        3
176
     1
 62
     5
420
      255
176
     1
290
     0
176
     1
 90
       50
176
     1
 90
       50
176
     1
 90
       50
176
     1
290
     0
176
     1
 90
       50
176
     1
 62
   256
176
     0
 40
1.0
176
     0
 90
        2
176
     1
  1
strokes_ogs.tif
176
     1
290
     0
176
     1
 40
1.0
176
     1
 40
1.0
176
     1
  0
VISUALSTYLE
  5
2B
102
{ACAD_REACTORS
330
29
102
}
330
29
100
AcDbVisualStyle
  2
FlatWithEdges
 70
     1
177
     3
291
     1
 70
    58
 90
        2
176
     1
 90
        1
176
     1
 90
        1
176
     1
 90
        2
176
     1
 40
0.6
176
     1
 40
30.0
176
     1
 62
     7
420
 16777215
176
     1
 90
        1
176
     1
 90
        0
176
     1
 62
     7
176
     1
 62
   257
176
     1
 90
        1
176
     1
 90
        1
176
     1
 40
1.0
176
     1
 90
        0
176
     1
 62
   257
176
     1
 40
1.0
176
     1
 90
        1
176
     1
 90
        6
176
     1
 90
        2
176
     1
 62
     7
176
     1
 90
        5
176
     1
 90
        0
176
     1
 90
        0
176
     1
290
     0
176
     1
 90
       13
176
     1
 40
0.0
176
     1
 90
        0
176
     1
290
     0
176
     1
290
     1
176
     1
290
     1
176
     1
290
     0
176
     1
290
     0
176
     1
290
     0
176
     1
290
     0
176
     1
290
     0
176
     1
290
     0
176
     1
 90
       50
176
     1
 40
0.0
176
     1
 40
1.0
176
     1
 90
        0
176
     1
 62
    18
420
        0
176
     1
 90
       50
176
     1
 90
        3
176
     1
 62
     5
420
      255
176
     1
290
     0
176
     1
 90
       50
176
     1
 90
       50
176
     1
 90
       50
176
     1
290
     0
176
     1
 90
       50
176
     1
 62
   256
176
     0
 40
1.0
176
     0
 90
        2
176
     1
  1
strokes_ogs.tif
176
     1
290
     0
176
     1
 40
1.0
176
     1
 40
1.0
176
     1
  0
VISUALSTYLE
  5
2C
102
{ACAD_REACTORS
330
29
102
}
330
29
100
AcDbVisualStyle
  2
Gouraud
 70
     2
177
     3
291
     1
 70
    58
 90
        2
176
     1
 90
        2
176
     1
 90
        1
176
     1
 90
        2
176
     1
 40
0.6
176
     1
 40
30.0
176
     1
 62
     7
420
 16777215
176
     1
 90
        0
176
     1
 90
        0
176
     1
 62
     7
176
     1
 62
   257
176
     1
 90
        1
176
     1
 90
        1
176
     1
 40
1.0
176
     1
 90
        0
176
     1
 62
     7
176
     1
 40
1.0
176
     1
 90
        1
176
     1
 90
        6
176
     1
 90
        2
176
     1
 62
     7
176
     1
 90
        5
176
     1
 90
        0
176
     1
 90
        0
176
     1
290
     0
176
     1
 90
       13
176
     1
 40
0.0
176
     1
 90
        0
176
     1
290
     0
176
     1
290
     1
176
     1
290
     1
176
     1
290
     0
176
     1
290
     0
176
     1
290
     0
176
     1
290
     0
176
     1
290
     0
176
     1
290
     0
176
     1
 90
       50
176
     1
 40
0.0
176
     1
 40
1.0
176
     1
 90
        0
176
     1
 62
    18
420
        0
176
     1
 90
       50
176
     1
 90
        3
176
     1
 62
     5
420
      255
176
     1
290
     0
176
     1
 90
       50
176
     1
 90
       50
176
     1
 90
       50
176
     1
290
     0
176
     1
 90
       50
176
     1
 62
   256
176
     0
 40
1.0
176
     0
 90
        2
176
     1
  1
strokes_ogs.tif
176
     1
290
     0
176
     1
 40
1.0
176
     1
 40
1.0
176
     1
  0
VISUALSTYLE
  5
2D
102
{ACAD_REACTORS
330
29
102
}
330
29
100
AcDbVisualStyle
  2
GouraudWithEdges
 70
     3
177
     3
291
     1
 70
    58
 90
        2
176
     1
 90
        2
176
     1
 90
        1
176
     1
 90
        2
176
     1
 40
0.6
176
     1
 40
30.0
176
     1
 62
     7
420
 16777215
176
     1
 90
        1
176
     1
 90
        0
176
     1
 62
     7
176
     1
 62
   257
176
     1
 90
        1
176
     1
 90
        1
176
     1
 40
1.0
176
     1
 90
        0
176
     1
 62
   257
176
     1
 40
1.0
176
     1
 90
        1
176
     1
 90
        6
176
     1
 90
        2
176
     1
 62
     7
176
     1
 90
        5
176
     1
 90
        0
176
     1
 90
        0
176
     1
290
     0
176
     1
 90
       13
176
     1
 40
0.0
176
     1
 90
        0
176
     1
290
     0
176
     1
290
     1
176
     1
290
     1
176
     1
290
     0
176
     1
290
     0
176
     1
290
     0
176
     1
290
     0
176
     1
290
     0
176
     1
290
     0
176
     1
 90
       50
176
     1
 40
0.0
176
     1
 40
1.0
176
     1
 90
        0
176
     1
 62
    18
420
        0
176
     1
 90
       50
176
     1
 90
        3
176
     1
 62
     5
420
      255
176
     1
290
     0
176
     1
 90
       50
176
     1
 90
       50
176
     1
 90
       50
176
     1
290
     0
176
     1
 90
       50
176
     1
 62
   256
176
     0
 40
1.0
176
     0
 90
        2
176
     1
  1
strokes_ogs.tif
176
     1
290
     0
176
     1
 40
1.0
176
     1
 40
1.0
176
     1
  0
VISUALSTYLE
  5
31
102
{ACAD_REACTORS
330
29
102
}
330
29
100
AcDbVisualStyle
  2
Hidden
 70
     6
177
     3
291
     0
 70
    58
 90
        1
176
     1
 90
        2
176
     1
 90
        2
176
     1
 90
        0
176
     1
 40
0.6
176
     1
 40
30.0
176
     1
 62
     7
420
 16777215
176
     1
 90
        2
176
     1
 90
        2
176
     1
 62
     7
176
     1
 62
   257
176
     1
 90
        2
176
     1
 90
        1
176
     1
 40
40.0
176
     1
 90
        0
176
     1
 62
   257
176
     1
 40
1.0
176
     1
 90
        1
176
     1
 90
        6
176
     1
 90
        2
176
     1
 62
     7
176
     1
 90
        3
176
     1
 90
        0
176
     1
 90
        0
176
     1
290
     0
176
     1
 90
        1
176
     1
 40
0.0
176
     1
 90
        0
176
     1
290
     0
176
     1
290
     1
176
     1
290
     1
176
     1
290
     0
176
     1
290
     0
176
     1
290
     0
176
     1
290
     0
176
     1
290
     0
176
     1
290
     0
176
     1
 90
       50
176
     1
 40
0.0
176
     1
 40
1.0
176
     1
 90
        0
176
     1
 62
    18
420
        0
176
     1
 90
       50
176
     1
 90
        3
176
     1
 62
     5
420
      255
176
     1
290
     0
176
     1
 90
       50
176
     1
 90
       50
176
     1
 90
       50
176
     1
290
     0
176
     1
 90
       50
176
     1
 62
   256
176
     0
 40
1.0
176
     0
 90
        2
176
     1
  1
strokes_ogs.tif
176
     1
290
     0
176
     1
 40
1.0
176
     1
 40
1.0
176
     1
  0
VISUALSTYLE
  5
3F
102
{ACAD_REACTORS
330
29
102
}
330
29
100
AcDbVisualStyle
  2
JitterOff
 70
    20
177
     3
291
     1
 70
    58
 90
        2
176
     0
 90
        2
176
     0
 90
        0
176
     0
 90
        0
176
     0
 40
0.6
176
     0
 40
30.0
176
     0
 62
     7
420
 16777215
176
     0
 90
        1
176
     0
 90
        4
176
     0
 62
     7
176
     0
 62
   257
176
     0
 90
        1
176
     0
 90
        1
176
     0
 40
1.0
176
     0
 90
       10
176
     2
 62
     7
176
     0
 40
1.0
176
     0
 90
        1
176
     0
 90
        6
176
     0
 90
        2
176
     0
 62
     7
176
     0
 90
        5
176
     0
 90
        0
176
     0
 90
        0
176
     0
290
     0
176
     0
 90
        1
176
     0
 40
0.0
176
     0
 90
        0
176
     0
290
     0
176
     0
290
     1
176
     0
290
     1
176
     0
290
     0
176
     0
290
     0
176
     0
290
     0
176
     0
290
     0
176
     0
290
     0
176
     0
290
     0
176
     0
 90
       50
176
     0
 40
0.0
176
     0
 40
1.0
176
     0
 90
        0
176
     0
 62
    18
420
        0
176
     0
 90
       50
176
     0
 90
        3
176
     0
 62
     5
420
      255
176
     0
290
     0
176
     0
 90
       50
176
     0
 90
       50
176
     0
 90
       50
176
     0
290
     0
176
     0
 90
       50
176
     0
 62
   256
176
     0
 40
1.0
176
     0
 90
        2
176
     0
  1
strokes_ogs.tif
176
     0
290
     0
176
     0
 40
1.0
176
     0
 40
1.0
176
     0
  0
VISUALSTYLE
  5
37
102
{ACAD_REACTORS
330
29
102
}
330
29
100
AcDbVisualStyle
  2
Linepattern
 70
    14
177
     3
291
     1
 70
    58
 90
        2
176
     1
 90
        2
176
     1
 90
        0
176
     1
 90
        0
176
     1
 40
0.6
176
     1
 40
30.0
176
     1
 62
     7
420
 16777215
176
     1
 90
        1
176
     1
 90
        4
176
     1
 62
     7
176
     1
 62
   257
176
     1
 90
        7
176
     1
 90
        7
176
     1
 40
1.0
176
     1
 90
        8
176
     1
 62
     7
176
     1
 40
1.0
176
     1
 90
        1
176
     1
 90
        6
176
     1
 90
        2
176
     1
 62
     7
176
     1
 90
        5
176
     1
 90
        0
176
     1
 90
        0
176
     1
290
     0
176
     1
 90
        1
176
     1
 40
0.0
176
     1
 90
        0
176
     1
290
     0
176
     1
290
     1
176
     1
290
     1
176
     1
290
     0
176
     1
290
     0
176
     1
290
     0
176
     1
290
     0
176
     1
290
     0
176
     1
290
     0
176
     1
 90
       50
176
     1
 40
0.0
176
     1
 40
1.0
176
     1
 90
        0
176
     1
 62
    18
420
        0
176
     1
 90
       50
176
     1
 90
        3
176
     1
 62
     5
420
      255
176
     1
290
     0
176
     1
 90
       50
176
     1
 90
       50
176
     1
 90
       50
176
     1
290
     0
176
     1
 90
       50
176
     1
 62
   256
176
     0
 40
1.0
176
     0
 90
        2
176
     1
  1
strokes_ogs.tif
176
     1
290
     0
176
     1
 40
1.0
176
     1
 40
1.0
176
     1
  0
VISUALSTYLE
  5
40
102
{ACAD_REACTORS
330
29
102
}
330
29
100
AcDbVisualStyle
  2
OverhangOff
 70
    21
177
     3
291
     1
 70
    58
 90
        2
176
     0
 90
        2
176
     0
 90
        0
176
     0
 90
        0
176
     0
 40
0.6
176
     0
 40
30.0
176
     0
 62
     7
420
 16777215
176
     0
 90
        1
176
     0
 90
        4
176
     0
 62
     7
176
     0
 62
   257
176
     0
 90
        1
176
     0
 90
        1
176
     0
 40
1.0
176
     0
 90
        9
176
     2
 62
     7
176
     0
 40
1.0
176
     0
 90
        1
176
     0
 90
        6
176
     0
 90
        2
176
     0
 62
     7
176
     0
 90
        5
176
     0
 90
        0
176
     0
 90
        0
176
     0
290
     0
176
     0
 90
        1
176
     0
 40
0.0
176
     0
 90
        0
176
     0
290
     0
176
     0
290
     1
176
     0
290
     1
176
     0
290
     0
176
     0
290
     0
176
     0
290
     0
176
     0
290
     0
176
     0
290
     0
176
     0
290
     0
176
     0
 90
       50
176
     0
 40
0.0
176
     0
 40
1.0
176
     0
 90
        0
176
     0
 62
    18
420
        0
176
     0
 90
       50
176
     0
 90
        3
176
     0
 62
     5
420
      255
176
     0
290
     0
176
     0
 90
       50
176
     0
 90
       50
176
     0
 90
       50
176
     0
290
     0
176
     0
 90
       50
176
     0
 62
   256
176
     0
 40
1.0
176
     0
 90
        2
176
     0
  1
strokes_ogs.tif
176
     0
290
     0
176
     0
 40
1.0
176
     0
 40
1.0
176
     0
  0
VISUALSTYLE
  5
33
102
{ACAD_REACTORS
330
29
102
}
330
29
100
AcDbVisualStyle
  2
Realistic
 70
     8
177
     3
291
     0
 70
    58
 90
        2
176
     1
 90
        3
176
     1
 90
        0
176
     1
 90
        2
176
     1
 40
0.6
176
     1
 40
30.0
176
     1
 62
     7
420
 16777215
176
     1
 90
        0
176
     1
 90
        0
176
     1
 62
     7
176
     1
 62
   257
176
     1
 90
        1
176
     1
 90
        1
176
     1
 40
1.0
176
     1
 90
        8
176
     1
 62
   257
176
     1
 40
1.0
176
     1
 90
        1
176
     1
 90
        6
176
     1
 90
        2
176
     1
 62
     7
176
     1
 90
        3
176
     1
 90
        0
176
     1
 90
        0
176
     1
290
     0
176
     1
 90
       13
176
     1
 40
0.0
176
     1
 90
        0
176
     1
290
     0
176
     1
290
     1
176
     1
290
     1
176
     1
290
     0
176
     1
290
     0
176
     1
290
     0
176
     1
290
     0
176
     1
290
     0
176
     1
290
     0
176
     1
 90
       50
176
     1
 40
0.0
176
     1
 40
1.0
176
     1
 90
        0
176
     1
 62
    18
420
        0
176
     1
 90
       50
176
     1
 90
        3
176
     1
 62
     5
420
      255
176
     1
290
     0
176
     1
 90
       50
176
     1
 90
       50
176
     1
 90
       50
176
     1
290
     0
176
     1
 90
       50
176
     1
 62
   256
176
     0
 40
1.0
176
     0
 90
        2
176
     1
  1
strokes_ogs.tif
176
     1
290
     0
176
     1
 40
1.0
176
     1
 40
1.0
176
     1
  0
VISUALSTYLE
  5
3E
102
{ACAD_REACTORS
330
29
102
}
330
29
100
AcDbVisualStyle
  2
Shaded
 70
    27
177
     3
291
     0
 70
    58
 90
        2
176
     1
 90
        2
176
     1
 90
        1
176
     1
 90
        2
176
     1
 40
0.6
176
     1
 40
30.0
176
     1
 62
     7
420
 16777215
176
     1
 90
        0
176
     1
 90
        4
176
     1
 62
     7
176
     1
 62
   257
176
     1
 90
        1
176
     1
 90
        1
176
     1
 40
1.0
176
     1
 90
        8
176
     1
 62
   257
176
     1
 40
1.0
176
     1
 90
        1
176
     1
 90
        6
176
     1
 90
        2
176
     1
 62
     8
420
  7895160
176
     1
 90
        3
176
     1
 90
        0
176
     1
 90
        0
176
     1
290
     0
176
     1
 90
        5
176
     1
 40
0.0
176
     1
 90
        0
176
     1
290
     0
176
     1
290
     1
176
     1
290
     1
176
     1
290
     0
176
     1
290
     0
176
     1
290
     0
176
     1
290
     0
176
     1
290
     0
176
     1
290
     0
176
     1
 90
       50
176
     1
 40
0.0
176
     1
 40
1.0
176
     1
 90
        0
176
     1
 62
    18
420
        0
176
     1
 90
       50
176
     1
 90
        3
176
     1
 62
     5
420
      255
176
     1
290
     0
176
     1
 90
       50
176
     1
 90
       50
176
     1
 90
       50
176
     1
290
     0
176
     1
 90
       50
176
     1
 62
   256
176
     0
 40
1.0
176
     0
 90
        2
176
     1
  1
strokes_ogs.tif
176
     1
290
     0
176
     1
 40
1.0
176
     1
 40
1.0
176
     1
  0
VISUALSTYLE
  5
3D
102
{ACAD_REACTORS
330
29
102
}
330
29
100
AcDbVisualStyle
  2
Shaded with edges
 70
    26
177
     3
291
     0
 70
    58
 90
        2
176
     1
 90
        2
176
     1
 90
        1
176
     1
 90
        2
176
     1
 40
0.6
176
     1
 40
30.0
176
     1
 62
     7
420
 16777215
176
     1
 90
        1
176
     1
 90
        2
176
     1
 62
     7
176
     1
 62
   257
176
     1
 90
        2
176
     1
 90
        1
176
     1
 40
1.0
176
     1
 90
        8
176
     1
 62
   257
176
     1
 40
1.0
176
     1
 90
        1
176
     1
 90
        6
176
     1
 90
        2
176
     1
 62
     7
176
     1
 90
        3
176
     1
 90
        0
176
     1
 90
        0
176
     1
290
     0
176
     1
 90
        5
176
     1
 40
0.0
176
     1
 90
        0
176
     1
290
     0
176
     1
290
     1
176
     1
290
     1
176
     1
290
     0
176
     1
290
     0
176
     1
290
     0
176
     1
290
     0
176
     1
290
     0
176
     1
290
     0
176
     1
 90
       50
176
     1
 40
0.0
176
     1
 40
1.0
176
     1
 90
        0
176
     1
 62
    18
420
        0
176
     1
 90
       50
176
     1
 90
        3
176
     1
 62
     5
420
      255
176
     1
290
     0
176
     1
 90
       50
176
     1
 90
       50
176
     1
 90
       50
176
     1
290
     0
176
     1
 90
       50
176
     1
 62
   256
176
     0
 40
1.0
176
     0
 90
        2
176
     1
  1
strokes_ogs.tif
176
     1
290
     0
176
     1
 40
1.0
176
     1
 40
1.0
176
     1
  0
VISUALSTYLE
  5
3A
102
{ACAD_REACTORS
330
29
102
}
330
29
100
AcDbVisualStyle
  2
Shades of Gray
 70
    23
177
     3
291
     0
 70
    58
 90
        2
176
     1
 90
        2
176
     1
 90
        3
176
     1
 90
        0
176
     1
 40
0.6
176
     1
 40
30.0
176
     1
 62
     7
420
 16777215
176
     1
 90
        2
176
     1
 90
        2
176
     1
 62
     7
176
     1
 62
     7
176
     1
 90
        1
176
     1
 90
        1
176
     1
 40
40.0
176
     1
 90
        8
176
     1
 62
     7
176
     1
 40
1.0
176
     1
 90
        1
176
     1
 90
        6
176
     1
 90
        2
176
     1
 62
     7
176
     1
 90
        3
176
     1
 90
        0
176
     1
 90
        0
176
     1
290
     0
176
     1
 90
        1
176
     1
 40
0.0
176
     1
 90
        0
176
     1
290
     0
176
     1
290
     1
176
     1
290
     1
176
     1
290
     0
176
     1
290
     0
176
     1
290
     0
176
     1
290
     0
176
     1
290
     0
176
     1
290
     0
176
     1
 90
       50
176
     1
 40
0.0
176
     1
 40
1.0
176
     1
 90
        0
176
     1
 62
    18
420
        0
176
     1
 90
       50
176
     1
 90
        3
176
     1
 62
     5
420
      255
176
     1
290
     0
176
     1
 90
       50
176
     1
 90
       50
176
     1
 90
       50
176
     1
290
     0
176
     1
 90
       50
176
     1
 62
   256
176
     0
 40
1.0
176
     0
 90
        2
176
     1
  1
strokes_ogs.tif
176
     1
290
     0
176
     1
 40
1.0
176
     1
 40
1.0
176
     1
  0
VISUALSTYLE
  5
3B
102
{ACAD_REACTORS
330
29
102
}
330
29
100
AcDbVisualStyle
  2
Sketchy
 70
    24
177
     3
291
     0
 70
    58
 90
        1
176
     1
 90
        2
176
     1
 90
        2
176
     1
 90
        0
176
     1
 40
0.6
176
     1
 40
30.0
176
     1
 62
     7
420
 16777215
176
     1
 90
        2
176
     1
 90
        2
176
     1
 62
     7
176
     1
 62
     7
176
     1
 90
        1
176
     1
 90
        1
176
     1
 40
40.0
176
     1
 90
       11
176
     1
 62
     7
176
     1
 40
1.0
176
     1
 90
        1
176
     1
 90
        6
176
     1
 90
        2
176
     1
 62
     7
176
     1
 90
        6
176
     1
 90
        0
176
     1
 90
        0
176
     1
290
     0
176
     1
 90
        1
176
     1
 40
0.0
176
     1
 90
        0
176
     1
290
     0
176
     1
290
     1
176
     1
290
     1
176
     1
290
     0
176
     1
290
     0
176
     1
290
     0
176
     1
290
     0
176
     1
290
     0
176
     1
290
     0
176
     1
 90
       50
176
     1
 40
0.0
176
     1
 40
1.0
176
     1
 90
        0
176
     1
 62
    18
420
        0
176
     1
 90
       50
176
     1
 90
        3
176
     1
 62
     5
420
      255
176
     1
290
     0
176
     1
 90
       50
176
     1
 90
       50
176
     1
 90
       50
176
     1
290
     0
176
     1
 90
       50
176
     1
 62
   256
176
     0
 40
1.0
176
     0
 90
        2
176
     1
  1
strokes_ogs.tif
176
     1
290
     0
176
     1
 40
1.0
176
     1
 40
1.0
176
     1
  0
VISUALSTYLE
  5
36
102
{ACAD_REACTORS
330
29
102
}
330
29
100
AcDbVisualStyle
  2
Thicken
 70
    13
177
     3
291
     1
 70
    58
 90
        2
176
     1
 90
        2
176
     1
 90
        0
176
     1
 90
        0
176
     1
 40
0.6
176
     1
 40
30.0
176
     1
 62
     7
420
 16777215
176
     1
 90
        1
176
     1
 90
        4
176
     1
 62
     7
176
     1
 62
   257
176
     1
 90
        1
176
     1
 90
        1
176
     1
 40
1.0
176
     1
 90
       12
176
     1
 62
     7
176
     1
 40
1.0
176
     1
 90
        1
176
     1
 90
        6
176
     1
 90
        2
176
     1
 62
     7
176
     1
 90
        5
176
     1
 90
        0
176
     1
 90
        0
176
     1
290
     0
176
     1
 90
        1
176
     1
 40
0.0
176
     1
 90
        0
176
     1
290
     0
176
     1
290
     1
176
     1
290
     1
176
     1
290
     0
176
     1
290
     0
176
     1
290
     0
176
     1
290
     0
176
     1
290
     0
176
     1
290
     0
176
     1
 90
       50
176
     1
 40
0.0
176
     1
 40
1.0
176
     1
 90
        0
176
     1
 62
    18
420
        0
176
     1
 90
       50
176
     1
 90
        3
176
     1
 62
     5
420
      255
176
     1
290
     0
176
     1
 90
       50
176
     1
 90
       50
176
     1
 90
       50
176
     1
290
     0
176
     1
 90
       50
176
     1
 62
   256
176
     0
 40
1.0
176
     0
 90
        2
176
     1
  1
strokes_ogs.tif
176
     1
290
     0
176
     1
 40
1.0
176
     1
 40
1.0
176
     1
  0
VISUALSTYLE
  5
30
102
{ACAD_REACTORS
330
29
102
}
330
29
100
AcDbVisualStyle
  2
Wireframe
 70
     5
177
     3
291
     0
 70
    58
 90
        0
176
     1
 90
        2
176
     1
 90
        0
176
     1
 90
        0
176
     1
 40
0.6
176
     1
 40
30.0
176
     1
 62
     7
420
 16777215
176
     1
 90
        1
176
     1
 90
        4
176
     1
 62
     7
176
     1
 62
   257
176
     1
 90
        1
176
     1
 90
        1
176
     1
 40
1.0
176
     1
 90
        0
176
     1
 62
   257
176
     1
 40
1.0
176
     1
 90
        1
176
     1
 90
        6
176
     1
 90
        2
176
     1
 62
     7
176
     1
 90
        3
176
     1
 90
        0
176
     1
 90
        0
176
     1
290
     0
176
     1
 90
        1
176
     1
 40
0.0
176
     1
 90
        0
176
     1
290
     0
176
     1
290
     1
176
     1
290
     1
176
     1
290
     0
176
     1
290
     0
176
     1
290
     0
176
     1
290
     0
176
     1
290
     0
176
     1
290
     0
176
     1
 90
       50
176
     1
 40
0.0
176
     1
 40
1.0
176
     1
 90
        0
176
     1
 62
    18
420
        0
176
     1
 90
       50
176
     1
 90
        3
176
     1
 62
     5
420
      255
176
     1
290
     0
176
     1
 90
       50
176
     1
 90
       50
176
     1
 90
       50
176
     1
290
     0
176
     1
 90
       50
176
     1
 62
   256
176
     0
 40
1.0
176
     0
 90
        2
176
     1
  1
strokes_ogs.tif
176
     1
290
     0
176
     1
 40
1.0
176
     1
 40
1.0
176
     1
  0
VISUALSTYLE
  5
3C
102
{ACAD_REACTORS
330
29
102
}
330
29
100
AcDbVisualStyle
  2
X-Ray
 70
    25
177
     3
291
     0
 70
    58
 90
        2
176
     1
 90
        2
176
     1
 90
        1
176
     1
 90
        1
176
     1
 40
0.5
176
     1
 40
30.0
176
     1
 62
     7
420
 16777215
176
     1
 90
        1
176
     1
 90
        0
176
     1
 62
     7
176
     1
 62
   257
176
     1
 90
        1
176
     1
 90
        1
176
     1
 40
1.0
176
     1
 90
        8
176
     1
 62
     7
176
     1
 40
1.0
176
     1
 90
        1
176
     1
 90
        6
176
     1
 90
        2
176
     1
 62
     7
176
     1
 90
        3
176
     1
 90
        0
176
     1
 90
        0
176
     1
290
     0
176
     1
 90
       13
176
     1
 40
0.0
176
     1
 90
        0
176
     1
290
     0
176
     1
290
     1
176
     1
290
     1
176
     1
290
     0
176
     1
290
     0
176
     1
290
     0
176
     1
290
     0
176
     1
290
     0
176
     1
290
     0
176
     1
 90
       50
176
     1
 40
0.0
176
     1
 40
1.0
176
     1
 90
        0
176
     1
 62
    18
420
        0
176
     1
 90
       50
176
     1
 90
        3
176
     1
 62
     5
420
      255
176
     1
290
     0
176
     1
 90
       50
176
     1
 90
       50
176
     1
 90
       50
176
     1
290
     0
176
     1
 90
       50
176
     1
 62
   256
176
     0
 40
1.0
176
     0
 90
        2
176
     1
  1
strokes_ogs.tif
176
     1
290
     0
176
     1
 40
1.0
176
     1
 40
1.0
176
     1
  0
DICTIONARYVAR
  5
F7
102
{ACAD_REACTORS
330
F2
102
}
330
F2
100
DictionaryVariables
280
     0
  1
1:1
  0
DICTIONARYVAR
  5
F4
102
{ACAD_REACTORS
330
F2
102
}
330
F2
100
DictionaryVariables
280
     0
  1
STANDARD
  0
DICTIONARYVAR
  5
F3
102
{ACAD_REACTORS
330
F2
102
}
330
F2
100
DictionaryVariables
280
     0
  1
STANDARD
  0
DICTIONARYVAR
  5
F5
102
{ACAD_REACTORS
330
F2
102
}
330
F2
100
DictionaryVariables
280
     0
  1
Imperial24
  0
DICTIONARYVAR
  5
F6
102
{ACAD_REACTORS
330
F2
102
}
330
F2
100
DictionaryVariables
280
     0
  1
Imperial24
  0
DICTIONARY
  5
1A
330
19
100
AcDbDictionary
280
     1
281
     1
  3
BUMPTILE
360
1C
  3
DIFFUSETILE
360
1B
  3
OPACITYTILE
360
1F
  3
REFLECTIONTILE
360
1E
  3
REFRACTIONTILE
360
20
  3
SPECULARTILE
360
1D
  0
DICTIONARY
  5
12
330
11
100
AcDbDictionary
280
     1
281
     1
  3
BUMPTILE
360
14
  3
DIFFUSETILE
360
13
  3
OPACITYTILE
360
17
  3
REFLECTIONTILE
360
16
  3
REFRACTIONTILE
360
18
  3
SPECULARTILE
360
15
  0
DICTIONARY
  5
22
330
21
100
AcDbDictionary
280
     1
281
     1
  3
BUMPTILE
360
24
  3
DIFFUSETILE
360
23
  3
OPACITYTILE
360
27
  3
REFLECTIONTILE
360
26
  3
REFRACTIONTILE
360
28
  3
SPECULARTILE
360
25
  0
DICTIONARY
  5
F8
330
65
100
AcDbDictionary
280
     1
281
     1
  3
ACAD_ROUNDTRIP_2008_TABLESTYLE_CELLSTYLEMAP
360
F9
  0
XRECORD
  5
1C
102
{ACAD_REACTORS
330
1A
102
}
330
1A
100
AcDbXrecord
280
     1
270
     1
271
     1
  0
XRECORD
  5
1B
102
{ACAD_REACTORS
330
1A
102
}
330
1A
100
AcDbXrecord
280
     1
270
     1
271
     1
  0
XRECORD
  5
1F
102
{ACAD_REACTORS
330
1A
102
}
330
1A
100
AcDbXrecord
280
     1
270
     1
271
     1
  0
XRECORD
  5
1E
102
{ACAD_REACTORS
330
1A
102
}
330
1A
100
AcDbXrecord
280
     1
270
     1
271
     1
  0
XRECORD
  5
20
102
{ACAD_REACTORS
330
1A
102
}
330
1A
100
AcDbXrecord
280
     1
270
     1
271
     1
  0
XRECORD
  5
1D
102
{ACAD_REACTORS
330
1A
102
}
330
1A
100
AcDbXrecord
280
     1
270
     1
271
     1
  0
XRECORD
  5
14
102
{ACAD_REACTORS
330
12
102
}
330
12
100
AcDbXrecord
280
     1
270
     1
271
     1
  0
XRECORD
  5
13
102
{ACAD_REACTORS
330
12
102
}
330
12
100
AcDbXrecord
280
     1
270
     1
271
     1
  0
XRECORD
  5
17
102
{ACAD_REACTORS
330
12
102
}
330
12
100
AcDbXrecord
280
     1
270
     1
271
     1
  0
XRECORD
  5
16
102
{ACAD_REACTORS
330
12
102
}
330
12
100
AcDbXrecord
280
     1
270
     1
271
     1
  0
XRECORD
  5
18
102
{ACAD_REACTORS
330
12
102
}
330
12
100
AcDbXrecord
280
     1
270
     1
271
     1
  0
XRECORD
  5
15
102
{ACAD_REACTORS
330
12
102
}
330
12
100
AcDbXrecord
280
     1
270
     1
271
     1
  0
XRECORD
  5
24
102
{ACAD_REACTORS
330
22
102
}
330
22
100
AcDbXrecord
280
     1
270
     1
271
     1
  0
XRECORD
  5
23
102
{ACAD_REACTORS
330
22
102
}
330
22
100
AcDbXrecord
280
     1
270
     1
271
     1
  0
XRECORD
  5
27
102
{ACAD_REACTORS
330
22
102
}
330
22
100
AcDbXrecord
280
     1
270
     1
271
     1
  0
XRECORD
  5
26
102
{ACAD_REACTORS
330
22
102
}
330
22
100
AcDbXrecord
280
     1
270
     1
271
     1
  0
XRECORD
  5
28
102
{ACAD_REACTORS
330
22
102
}
330
22
100
AcDbXrecord
280
     1
270
     1
271
     1
  0
XRECORD
  5
25
102
{ACAD_REACTORS
330
22
102
}
330
22
100
AcDbXrecord
280
     1
270
     1
271
     1
  0
CELLSTYLEMAP
  5
F9
102
{ACAD_REACTORS
330
F8
102
}
330
F8
100
AcDbCellStyleMap
 90
        3
300
CELLSTYLE
  1
TABLEFORMAT_BEGIN
 90
        5
170
     1
 91
        0
 92
    32768
 62
   257
 93
        1
300
CONTENTFORMAT
  1
CONTENTFORMAT_BEGIN
 90
        0
 91
        0
 92
      512
 93
        0
300

 40
0.0
140
1.0
 94
        5
 62
     0
340
55
144
0.25
309
CONTENTFORMAT_END
171
     0
 94
        0
309
TABLEFORMAT_END
  1
CELLSTYLE_BEGIN
 90
        1
 91
        1
300
_TITLE
309
CELLSTYLE_END
300
CELLSTYLE
  1
TABLEFORMAT_BEGIN
 90
        5
170
     1
 91
        0
 92
        0
 62
   257
 93
        1
300
CONTENTFORMAT
  1
CONTENTFORMAT_BEGIN
 90
        0
 91
        0
 92
      512
 93
        0
300

 40
0.0
140
1.0
 94
        5
 62
     0
340
55
144
0.18
309
CONTENTFORMAT_END
171
     0
 94
        0
309
TABLEFORMAT_END
  1
CELLSTYLE_BEGIN
 90
        2
 91
        1
300
_HEADER
309
CELLSTYLE_END
300
CELLSTYLE
  1
TABLEFORMAT_BEGIN
 90
        5
170
     1
 91
        0
 92
        0
 62
   257
 93
        1
300
CONTENTFORMAT
  1
CONTENTFORMAT_BEGIN
 90
        0
 91
        0
 92
      512
 93
        0
300

 40
0.0
140
1.0
 94
        2
 62
     0
340
55
144
0.18
309
CONTENTFORMAT_END
171
     0
 94
        0
309
TABLEFORMAT_END
  1
CELLSTYLE_BEGIN
 90
        3
 91
        2
300
_DATA
309
CELLSTYLE_END
  0
ENDSEC
  0
EOF
