  0
SECTION
  2
HEADER
  9
$ACADVER
  1
AC1012
  9
$DWGCODEPAGE
  3
ANSI_1252
  9
$INSBASE
 10
0.0
 20
0.0
 30
0.0
  9
$EXTMIN
 10
0.1314697546552281
 20
3.575088526093271
 30
-0.0015258207003583
  9
$EXTMAX
 10
4.355712909665555
 20
7.675735493045923
 30
0.0000000349246037
  9
$LIMMIN
 10
0.0
 20
0.0
  9
$LIMMAX
 10
12.0
 20
9.0
  9
$ORTHOMODE
 70
     0
  9
$REGENMODE
 70
     1
  9
$FILLMODE
 70
     1
  9
$QTEXTMODE
 70
     0
  9
$MIRRTEXT
 70
     1
  9
$DRAGMODE
 70
     2
  9
$LTSCALE
 40
1.0
  9
$OSMODE
 70
   547
  9
$ATTMODE
 70
     1
  9
$TEXTSIZE
 40
0.2
  9
$TRACEWID
 40
0.05
  9
$TEXTSTYLE
  7
STANDARD
  9
$CLAYER
  8
0
  9
$CELTYPE
  6
BYLAYER
  9
$CECOLOR
 62
   256
  9
$CELTSCALE
 40
1.0
  9
$DELOBJ
 70
     1
  9
$DISPSILH
 70
     0
  9
$DIMSCALE
 40
1.0
  9
$DIMASZ
 40
0.18
  9
$DIMEXO
 40
0.0625
  9
$DIMDLI
 40
0.38
  9
$DIMRND
 40
0.0
  9
$DIMDLE
 40
0.0
  9
$DIMEXE
 40
0.18
  9
$DIMTP
 40
0.0
  9
$DIMTM
 40
0.0
  9
$DIMTXT
 40
0.18
  9
$DIMCEN
 40
0.09
  9
$DIMTSZ
 40
0.0
  9
$DIMTOL
 70
     0
  9
$DIMLIM
 70
     0
  9
$DIMTIH
 70
     1
  9
$DIMTOH
 70
     1
  9
$DIMSE1
 70
     0
  9
$DIMSE2
 70
     0
  9
$DIMTAD
 70
     0
  9
$DIMZIN
 70
     0
  9
$DIMBLK
  1

  9
$DIMASO
 70
     1
  9
$DIMSHO
 70
     1
  9
$DIMPOST
  1

  9
$DIMAPOST
  1

  9
$DIMALT
 70
     0
  9
$DIMALTD
 70
     2
  9
$DIMALTF
 40
25.4
  9
$DIMLFAC
 40
1.0
  9
$DIMTOFL
 70
     0
  9
$DIMTVP
 40
0.0
  9
$DIMTIX
 70
     0
  9
$DIMSOXD
 70
     0
  9
$DIMSAH
 70
     0
  9
$DIMBLK1
  1

  9
$DIMBLK2
  1

  9
$DIMSTYLE
  2
STANDARD
  9
$DIMCLRD
 70
     0
  9
$DIMCLRE
 70
     0
  9
$DIMCLRT
 70
     0
  9
$DIMTFAC
 40
1.0
  9
$DIMGAP
 40
0.09
  9
$DIMJUST
 70
     0
  9
$DIMSD1
 70
     0
  9
$DIMSD2
 70
     0
  9
$DIMTOLJ
 70
     1
  9
$DIMTZIN
 70
     0
  9
$DIMALTZ
 70
     0
  9
$DIMALTTZ
 70
     0
  9
$DIMFIT
 70
     5
  9
$DIMUPT
 70
     0
  9
$DIMUNIT
 70
     2
  9
$DIMDEC
 70
     4
  9
$DIMTDEC
 70
     4
  9
$DIMALTU
 70
     2
  9
$DIMALTTD
 70
     2
  9
$DIMTXSTY
  7
STANDARD
  9
$DIMAUNIT
 70
     0
  9
$LUNITS
 70
     2
  9
$LUPREC
 70
     4
  9
$SKETCHINC
 40
0.1
  9
$FILLETRAD
 40
0.0
  9
$AUNITS
 70
     0
  9
$AUPREC
 70
     0
  9
$MENU
  1
acad
  9
$ELEVATION
 40
0.0
  9
$PELEVATION
 40
0.0
  9
$THICKNESS
 40
0.0
  9
$LIMCHECK
 70
     0
  9
$BLIPMODE
 70
     0
  9
$CHAMFERA
 40
0.0
  9
$CHAMFERB
 40
0.0
  9
$CHAMFERC
 40
0.0
  9
$CHAMFERD
 40
0.0
  9
$SKPOLY
 70
     0
  9
$TDCREATE
 40
2453943.437476852
  9
$TDUPDATE
 40
2453943.439645011
  9
$TDINDWG
 40
0.0017853704
  9
$TDUSRTIMER
 40
0.0017853704
  9
$USRTIMER
 70
     1
  9
$ANGBASE
 50
0.0
  9
$ANGDIR
 70
     0
  9
$PDMODE
 70
     0
  9
$PDSIZE
 40
0.0
  9
$PLINEWID
 40
0.0
  9
$COORDS
 70
     1
  9
$SPLFRAME
 70
     0
  9
$SPLINETYPE
 70
     6
  9
$SPLINESEGS
 70
     8
  9
$ATTDIA
 70
     0
  9
$ATTREQ
 70
     1
  9
$HANDLING
 70
  4097
  9
$HANDSEED
  5
2FA0
  9
$SURFTAB1
 70
     6
  9
$SURFTAB2
 70
     6
  9
$SURFTYPE
 70
     6
  9
$SURFU
 70
     6
  9
$SURFV
 70
     6
  9
$UCSNAME
  2

  9
$UCSORG
 10
0.0
 20
0.0
 30
0.0
  9
$UCSXDIR
 10
1.0
 20
0.0
 30
0.0
  9
$UCSYDIR
 10
0.0
 20
1.0
 30
0.0
  9
$PUCSNAME
  2

  9
$PUCSORG
 10
0.0
 20
0.0
 30
0.0
  9
$PUCSXDIR
 10
1.0
 20
0.0
 30
0.0
  9
$PUCSYDIR
 10
0.0
 20
1.0
 30
0.0
  9
$USERI1
 70
     0
  9
$USERI2
 70
     0
  9
$USERI3
 70
     0
  9
$USERI4
 70
     0
  9
$USERI5
 70
     0
  9
$USERR1
 40
0.0
  9
$USERR2
 40
0.0
  9
$USERR3
 40
0.0
  9
$USERR4
 40
0.0
  9
$USERR5
 40
0.0
  9
$WORLDVIEW
 70
     1
  9
$SHADEDGE
 70
     3
  9
$SHADEDIF
 70
    70
  9
$TILEMODE
 70
     1
  9
$MAXACTVP
 70
    16
  9
$PINSBASE
 10
0.0
 20
0.0
 30
0.0
  9
$PLIMCHECK
 70
     0
  9
$PEXTMIN
 10
1.000000000000000E+20
 20
1.000000000000000E+20
 30
1.000000000000000E+20
  9
$PEXTMAX
 10
-1.000000000000000E+20
 20
-1.000000000000000E+20
 30
-1.000000000000000E+20
  9
$PLIMMIN
 10
0.0
 20
0.0
  9
$PLIMMAX
 10
12.0
 20
9.0
  9
$UNITMODE
 70
     0
  9
$VISRETAIN
 70
     0
  9
$PLINEGEN
 70
     0
  9
$PSLTSCALE
 70
     1
  9
$TREEDEPTH
 70
  3020
  9
$PICKSTYLE
 70
     1
  9
$CMLSTYLE
  2
STANDARD
  9
$CMLJUST
 70
     0
  9
$CMLSCALE
 40
1.0
  9
$SAVEIMAGES
 70
     1
  0
ENDSEC
  0
SECTION
  2
CLASSES
  0
CLASS
  1
ACDBDICTIONARYWDFLT
  2
AcDbDictionaryWithDefault
  3
AutoCAD 2000
 90
    32768
280
     0
281
     0
  0
CLASS
  1
ACDBPLACEHOLDER
  2
AcDbPlaceHolder
  3
AutoCAD 2000
 90
    32768
280
     0
281
     0
  0
CLASS
  1
LAYOUT
  2
AcDbLayout
  3
AutoCAD 2000
 90
    32768
280
     0
281
     0
  0
CLASS
  1
LONG_TRANSACTION
  2
AcDbLongTransaction
  3
AutoCAD 2000
 90
    32768
280
     0
281
     0
  0
CLASS
  1
LWPOLYLINE
  2
AcDbPolyline
  3
AutoCAD 2000
 90
    32768
280
     0
281
     1
  0
CLASS
  1
HATCH
  2
AcDbHatch
  3
AutoCAD 2000
 90
    32768
280
     0
281
     1
  0
CLASS
  1
XRECORD
  2
AcDbXrecord
  3
AutoCAD 2000
 90
    32768
280
     0
281
     0
  0
ENDSEC
  0
SECTION
  2
TABLES
  0
TABLE
  2
VPORT
  5
8
330
0
100
AcDbSymbolTable
 70
     3
  0
VPORT
  5
2C7C
330
8
100
AcDbSymbolTableRecord
100
AcDbViewportTableRecord
  2
*ACTIVE
 70
     0
 10
0.0
 20
0.0
 11
1.0
 21
1.0
 12
2.243591332160391
 22
5.625412009569597
 13
0.0
 23
0.0
 14
1.0
 24
1.0
 15
0.0
 25
0.0
 16
0.0
 26
0.0
 36
1.0
 17
0.0
 27
0.0
 37
0.0
 40
4.146464251499608
 41
1.740671641791044
 42
50.0
 43
0.0
 44
0.0
 50
0.0
 51
0.0
 71
     0
 72
   100
 73
     1
 74
     1
 75
     0
 76
     0
 77
     0
 78
     0
  0
ENDTAB
  0
TABLE
  2
LTYPE
  5
5
330
0
100
AcDbSymbolTable
 70
    25
  0
LTYPE
  5
13
330
5
100
AcDbSymbolTableRecord
100
AcDbLinetypeTableRecord
  2
BYBLOCK
 70
     0
  3

 72
    65
 73
     0
 40
0.0
  0
LTYPE
  5
14
330
5
100
AcDbSymbolTableRecord
100
AcDbLinetypeTableRecord
  2
BYLAYER
 70
     0
  3

 72
    65
 73
     0
 40
0.0
  0
LTYPE
  5
15
330
5
100
AcDbSymbolTableRecord
100
AcDbLinetypeTableRecord
  2
CONTINUOUS
 70
     0
  3
Solid line
 72
    65
 73
     0
 40
0.0
  0
LTYPE
  5
22
330
5
100
AcDbSymbolTableRecord
100
AcDbLinetypeTableRecord
  2
BORDER
 70
     0
  3
__ __ . __ __ . __ __ . __ __ . __ __ . __ __ .
 72
    65
 73
     6
 40
1.75
 49
0.5
 74
     0
 49
-0.25
 74
     0
 49
0.5
 74
     0
 49
-0.25
 74
     0
 49
0.5
 74
     0
 49
-0.25
 74
     0
  0
LTYPE
  5
23
330
5
100
AcDbSymbolTableRecord
100
AcDbLinetypeTableRecord
  2
BORDER2
 70
     0
  3
__.__.__.__.__.__.__.__.
 72
    65
 73
     6
 40
0.875
 49
0.25
 74
     0
 49
-0.125
 74
     0
 49
0.25
 74
     0
 49
-0.125
 74
     0
 49
0.25
 74
     0
 49
-0.125
 74
     0
  0
LTYPE
  5
24
330
5
100
AcDbSymbolTableRecord
100
AcDbLinetypeTableRecord
  2
BORDERX2
 70
     0
  3
____  ____  .  
 72
    65
 73
     6
 40
3.5
 49
1.0
 74
     0
 49
-0.5
 74
     0
 49
1.0
 74
     0
 49
-0.5
 74
     0
 49
1.0
 74
     0
 49
-0.5
 74
     0
  0
LTYPE
  5
25
330
5
100
AcDbSymbolTableRecord
100
AcDbLinetypeTableRecord
  2
CENTER
 70
     0
  3
____ _ ____ _ ____ _ 
 72
    65
 73
     4
 40
2.0
 49
1.25
 74
     0
 49
-0.25
 74
     0
 49
0.25
 74
     0
 49
-0.25
 74
     0
  0
LTYPE
  5
26
330
5
100
AcDbSymbolTableRecord
100
AcDbLinetypeTableRecord
  2
CENTER2
 70
     0
  3
____ _ ____ _ ____ _ 
 72
    65
 73
     4
 40
1.125
 49
0.75
 74
     0
 49
-0.125
 74
     0
 49
0.125
 74
     0
 49
-0.125
 74
     0
  0
LTYPE
  5
27
330
5
100
AcDbSymbolTableRecord
100
AcDbLinetypeTableRecord
  2
CENTERX2
 70
     0
  3
________  __  
 72
    65
 73
     4
 40
4.0
 49
2.5
 74
     0
 49
-0.5
 74
     0
 49
0.5
 74
     0
 49
-0.5
 74
     0
  0
LTYPE
  5
28
330
5
100
AcDbSymbolTableRecord
100
AcDbLinetypeTableRecord
  2
DASHDOT
 70
     0
  3
__ . __ . __ . __ . 
 72
    65
 73
     4
 40
1.0
 49
0.5
 74
     0
 49
-0.25
 74
     0
 49
0.0
 74
     0
 49
-0.25
 74
     0
  0
LTYPE
  5
29
330
5
100
AcDbSymbolTableRecord
100
AcDbLinetypeTableRecord
  2
DASHDOT2
 70
     0
  3
_._._._._._._._._.
 72
    65
 73
     4
 40
0.5
 49
0.25
 74
     0
 49
-0.125
 74
     0
 49
0.0
 74
     0
 49
-0.125
 74
     0
  0
LTYPE
  5
2A
330
5
100
AcDbSymbolTableRecord
100
AcDbLinetypeTableRecord
  2
DASHDOTX2
 70
     0
  3
____  .  ____  .  
 72
    65
 73
     4
 40
2.0
 49
1.0
 74
     0
 49
-0.5
 74
     0
 49
0.0
 74
     0
 49
-0.5
 74
     0
  0
LTYPE
  5
2B
330
5
100
AcDbSymbolTableRecord
100
AcDbLinetypeTableRecord
  2
DASHED
 70
     0
  3
__ __ __ __ __ __ __ 
 72
    65
 73
     2
 40
0.75
 49
0.5
 74
     0
 49
-0.25
 74
     0
  0
LTYPE
  5
2C
330
5
100
AcDbSymbolTableRecord
100
AcDbLinetypeTableRecord
  2
DASHED2
 70
     0
  3
_ _ _ _ _ _ _ _ _ _ 
 72
    65
 73
     2
 40
0.375
 49
0.25
 74
     0
 49
-0.125
 74
     0
  0
LTYPE
  5
2D
330
5
100
AcDbSymbolTableRecord
100
AcDbLinetypeTableRecord
  2
DASHEDX2
 70
     0
  3
____  ____  ____  
 72
    65
 73
     2
 40
1.5
 49
1.0
 74
     0
 49
-0.5
 74
     0
  0
LTYPE
  5
2E
330
5
100
AcDbSymbolTableRecord
100
AcDbLinetypeTableRecord
  2
DIVIDE
 70
     0
  3
____ . . ____ . . 
 72
    65
 73
     6
 40
1.25
 49
0.5
 74
     0
 49
-0.25
 74
     0
 49
0.0
 74
     0
 49
-0.25
 74
     0
 49
0.0
 74
     0
 49
-0.25
 74
     0
  0
LTYPE
  5
2F
330
5
100
AcDbSymbolTableRecord
100
AcDbLinetypeTableRecord
  2
DIVIDE2
 70
     0
  3
__..__..__..__..__..
 72
    65
 73
     6
 40
0.625
 49
0.25
 74
     0
 49
-0.125
 74
     0
 49
0.0
 74
     0
 49
-0.125
 74
     0
 49
0.0
 74
     0
 49
-0.125
 74
     0
  0
LTYPE
  5
30
330
5
100
AcDbSymbolTableRecord
100
AcDbLinetypeTableRecord
  2
DIVIDEX2
 70
     0
  3
________  .  .  
 72
    65
 73
     6
 40
2.5
 49
1.0
 74
     0
 49
-0.5
 74
     0
 49
0.0
 74
     0
 49
-0.5
 74
     0
 49
0.0
 74
     0
 49
-0.5
 74
     0
  0
LTYPE
  5
31
330
5
100
AcDbSymbolTableRecord
100
AcDbLinetypeTableRecord
  2
DOT
 70
     0
  3
. . . . . . . . . 
 72
    65
 73
     2
 40
0.25
 49
0.0
 74
     0
 49
-0.25
 74
     0
  0
LTYPE
  5
32
330
5
100
AcDbSymbolTableRecord
100
AcDbLinetypeTableRecord
  2
DOT2
 70
     0
  3
..................
 72
    65
 73
     2
 40
0.125
 49
0.0
 74
     0
 49
-0.125
 74
     0
  0
LTYPE
  5
33
330
5
100
AcDbSymbolTableRecord
100
AcDbLinetypeTableRecord
  2
DOTX2
 70
     0
  3
.  .  .  .  .  .  
 72
    65
 73
     2
 40
0.5
 49
0.0
 74
     0
 49
-0.5
 74
     0
  0
LTYPE
  5
34
330
5
100
AcDbSymbolTableRecord
100
AcDbLinetypeTableRecord
  2
HIDDEN
 70
     0
  3
__ __ __ __ __ __ 
 72
    65
 73
     2
 40
0.375
 49
0.25
 74
     0
 49
-0.125
 74
     0
  0
LTYPE
  5
35
330
5
100
AcDbSymbolTableRecord
100
AcDbLinetypeTableRecord
  2
HIDDEN2
 70
     0
  3
_ _ _ _ _ _ _ _ _ 
 72
    65
 73
     2
 40
0.1875
 49
0.125
 74
     0
 49
-0.0625
 74
     0
  0
LTYPE
  5
36
330
5
100
AcDbSymbolTableRecord
100
AcDbLinetypeTableRecord
  2
HIDDENX2
 70
     0
  3
____ ____ ____ ____ 
 72
    65
 73
     2
 40
0.75
 49
0.5
 74
     0
 49
-0.25
 74
     0
  0
LTYPE
  5
37
330
5
100
AcDbSymbolTableRecord
100
AcDbLinetypeTableRecord
  2
PHANTOM
 70
     0
  3
______  __  __  
 72
    65
 73
     6
 40
2.5
 49
1.25
 74
     0
 49
-0.25
 74
     0
 49
0.25
 74
     0
 49
-0.25
 74
     0
 49
0.25
 74
     0
 49
-0.25
 74
     0
  0
LTYPE
  5
38
330
5
100
AcDbSymbolTableRecord
100
AcDbLinetypeTableRecord
  2
PHANTOM2
 70
     0
  3
___ _ _ ___ _ _ 
 72
    65
 73
     6
 40
1.25
 49
0.625
 74
     0
 49
-0.125
 74
     0
 49
0.125
 74
     0
 49
-0.125
 74
     0
 49
0.125
 74
     0
 49
-0.125
 74
     0
  0
LTYPE
  5
39
330
5
100
AcDbSymbolTableRecord
100
AcDbLinetypeTableRecord
  2
PHANTOMX2
 70
     0
  3
___ _ _ ___ _ _ 
 72
    65
 73
     6
 40
5.0
 49
2.5
 74
     0
 49
-0.5
 74
     0
 49
0.5
 74
     0
 49
-0.5
 74
     0
 49
0.5
 74
     0
 49
-0.5
 74
     0
  0
ENDTAB
  0
TABLE
  2
LAYER
  5
2
330
0
100
AcDbSymbolTable
 70
   257
  0
LAYER
  5
10
330
2
100
AcDbSymbolTableRecord
100
AcDbLayerTableRecord
  2
0
 70
     0
 62
     7
  6
CONTINUOUS
  0
LAYER
  5
3A
330
2
100
AcDbSymbolTableRecord
100
AcDbLayerTableRecord
  2
1
 70
     0
 62
     1
  6
CONTINUOUS
  0
LAYER
  5
3B
330
2
100
AcDbSymbolTableRecord
100
AcDbLayerTableRecord
  2
2
 70
     0
 62
     2
  6
CONTINUOUS
  0
LAYER
  5
3C
330
2
100
AcDbSymbolTableRecord
100
AcDbLayerTableRecord
  2
3
 70
     0
 62
     3
  6
CONTINUOUS
  0
LAYER
  5
3D
330
2
100
AcDbSymbolTableRecord
100
AcDbLayerTableRecord
  2
4
 70
     0
 62
     4
  6
CONTINUOUS
  0
LAYER
  5
3E
330
2
100
AcDbSymbolTableRecord
100
AcDbLayerTableRecord
  2
5
 70
     0
 62
     5
  6
CONTINUOUS
  0
LAYER
  5
3F
330
2
100
AcDbSymbolTableRecord
100
AcDbLayerTableRecord
  2
6
 70
     0
 62
     6
  6
CONTINUOUS
  0
LAYER
  5
40
330
2
100
AcDbSymbolTableRecord
100
AcDbLayerTableRecord
  2
7
 70
     0
 62
     7
  6
CONTINUOUS
  0
LAYER
  5
41
330
2
100
AcDbSymbolTableRecord
100
AcDbLayerTableRecord
  2
8
 70
     0
 62
     8
  6
CONTINUOUS
  0
LAYER
  5
42
330
2
100
AcDbSymbolTableRecord
100
AcDbLayerTableRecord
  2
9
 70
     0
 62
     9
  6
CONTINUOUS
  0
LAYER
  5
43
330
2
100
AcDbSymbolTableRecord
100
AcDbLayerTableRecord
  2
10
 70
     0
 62
    10
  6
CONTINUOUS
  0
LAYER
  5
44
330
2
100
AcDbSymbolTableRecord
100
AcDbLayerTableRecord
  2
11
 70
     0
 62
    11
  6
CONTINUOUS
  0
LAYER
  5
45
330
2
100
AcDbSymbolTableRecord
100
AcDbLayerTableRecord
  2
12
 70
     0
 62
    12
  6
CONTINUOUS
  0
LAYER
  5
46
330
2
100
AcDbSymbolTableRecord
100
AcDbLayerTableRecord
  2
13
 70
     0
 62
    13
  6
CONTINUOUS
  0
LAYER
  5
47
330
2
100
AcDbSymbolTableRecord
100
AcDbLayerTableRecord
  2
14
 70
     0
 62
    14
  6
CONTINUOUS
  0
LAYER
  5
48
330
2
100
AcDbSymbolTableRecord
100
AcDbLayerTableRecord
  2
15
 70
     0
 62
    15
  6
CONTINUOUS
  0
LAYER
  5
49
330
2
100
AcDbSymbolTableRecord
100
AcDbLayerTableRecord
  2
16
 70
     0
 62
    16
  6
CONTINUOUS
  0
LAYER
  5
4A
330
2
100
AcDbSymbolTableRecord
100
AcDbLayerTableRecord
  2
17
 70
     0
 62
    17
  6
CONTINUOUS
  0
LAYER
  5
4B
330
2
100
AcDbSymbolTableRecord
100
AcDbLayerTableRecord
  2
18
 70
     0
 62
    18
  6
CONTINUOUS
  0
LAYER
  5
4C
330
2
100
AcDbSymbolTableRecord
100
AcDbLayerTableRecord
  2
19
 70
     0
 62
    19
  6
CONTINUOUS
  0
LAYER
  5
4D
330
2
100
AcDbSymbolTableRecord
100
AcDbLayerTableRecord
  2
20
 70
     0
 62
    20
  6
CONTINUOUS
  0
LAYER
  5
4E
330
2
100
AcDbSymbolTableRecord
100
AcDbLayerTableRecord
  2
21
 70
     0
 62
    21
  6
CONTINUOUS
  0
LAYER
  5
4F
330
2
100
AcDbSymbolTableRecord
100
AcDbLayerTableRecord
  2
22
 70
     0
 62
    22
  6
CONTINUOUS
  0
LAYER
  5
50
330
2
100
AcDbSymbolTableRecord
100
AcDbLayerTableRecord
  2
23
 70
     0
 62
    23
  6
CONTINUOUS
  0
LAYER
  5
51
330
2
100
AcDbSymbolTableRecord
100
AcDbLayerTableRecord
  2
24
 70
     0
 62
    24
  6
CONTINUOUS
  0
LAYER
  5
52
330
2
100
AcDbSymbolTableRecord
100
AcDbLayerTableRecord
  2
25
 70
     0
 62
    25
  6
CONTINUOUS
  0
LAYER
  5
53
330
2
100
AcDbSymbolTableRecord
100
AcDbLayerTableRecord
  2
26
 70
     0
 62
    26
  6
CONTINUOUS
  0
LAYER
  5
54
330
2
100
AcDbSymbolTableRecord
100
AcDbLayerTableRecord
  2
27
 70
     0
 62
    27
  6
CONTINUOUS
  0
LAYER
  5
55
330
2
100
AcDbSymbolTableRecord
100
AcDbLayerTableRecord
  2
28
 70
     0
 62
    28
  6
CONTINUOUS
  0
LAYER
  5
56
330
2
100
AcDbSymbolTableRecord
100
AcDbLayerTableRecord
  2
29
 70
     0
 62
    29
  6
CONTINUOUS
  0
LAYER
  5
57
330
2
100
AcDbSymbolTableRecord
100
AcDbLayerTableRecord
  2
30
 70
     0
 62
    30
  6
CONTINUOUS
  0
LAYER
  5
58
330
2
100
AcDbSymbolTableRecord
100
AcDbLayerTableRecord
  2
31
 70
     0
 62
    31
  6
CONTINUOUS
  0
LAYER
  5
59
330
2
100
AcDbSymbolTableRecord
100
AcDbLayerTableRecord
  2
32
 70
     0
 62
    32
  6
CONTINUOUS
  0
LAYER
  5
5A
330
2
100
AcDbSymbolTableRecord
100
AcDbLayerTableRecord
  2
33
 70
     0
 62
    33
  6
CONTINUOUS
  0
LAYER
  5
5B
330
2
100
AcDbSymbolTableRecord
100
AcDbLayerTableRecord
  2
34
 70
     0
 62
    34
  6
CONTINUOUS
  0
LAYER
  5
5C
330
2
100
AcDbSymbolTableRecord
100
AcDbLayerTableRecord
  2
35
 70
     0
 62
    35
  6
CONTINUOUS
  0
LAYER
  5
5D
330
2
100
AcDbSymbolTableRecord
100
AcDbLayerTableRecord
  2
36
 70
     0
 62
    36
  6
CONTINUOUS
  0
LAYER
  5
5E
330
2
100
AcDbSymbolTableRecord
100
AcDbLayerTableRecord
  2
37
 70
     0
 62
    37
  6
CONTINUOUS
  0
LAYER
  5
5F
330
2
100
AcDbSymbolTableRecord
100
AcDbLayerTableRecord
  2
38
 70
     0
 62
    38
  6
CONTINUOUS
  0
LAYER
  5
60
330
2
100
AcDbSymbolTableRecord
100
AcDbLayerTableRecord
  2
39
 70
     0
 62
    39
  6
CONTINUOUS
  0
LAYER
  5
61
330
2
100
AcDbSymbolTableRecord
100
AcDbLayerTableRecord
  2
40
 70
     0
 62
    40
  6
CONTINUOUS
  0
LAYER
  5
62
330
2
100
AcDbSymbolTableRecord
100
AcDbLayerTableRecord
  2
41
 70
     0
 62
    41
  6
CONTINUOUS
  0
LAYER
  5
63
330
2
100
AcDbSymbolTableRecord
100
AcDbLayerTableRecord
  2
42
 70
     0
 62
    42
  6
CONTINUOUS
  0
LAYER
  5
64
330
2
100
AcDbSymbolTableRecord
100
AcDbLayerTableRecord
  2
43
 70
     0
 62
    43
  6
CONTINUOUS
  0
LAYER
  5
65
330
2
100
AcDbSymbolTableRecord
100
AcDbLayerTableRecord
  2
44
 70
     0
 62
    44
  6
CONTINUOUS
  0
LAYER
  5
66
330
2
100
AcDbSymbolTableRecord
100
AcDbLayerTableRecord
  2
45
 70
     0
 62
    45
  6
CONTINUOUS
  0
LAYER
  5
67
330
2
100
AcDbSymbolTableRecord
100
AcDbLayerTableRecord
  2
46
 70
     0
 62
    46
  6
CONTINUOUS
  0
LAYER
  5
68
330
2
100
AcDbSymbolTableRecord
100
AcDbLayerTableRecord
  2
47
 70
     0
 62
    47
  6
CONTINUOUS
  0
LAYER
  5
69
330
2
100
AcDbSymbolTableRecord
100
AcDbLayerTableRecord
  2
48
 70
     0
 62
    48
  6
CONTINUOUS
  0
LAYER
  5
6A
330
2
100
AcDbSymbolTableRecord
100
AcDbLayerTableRecord
  2
49
 70
     0
 62
    49
  6
CONTINUOUS
  0
LAYER
  5
6B
330
2
100
AcDbSymbolTableRecord
100
AcDbLayerTableRecord
  2
50
 70
     0
 62
    50
  6
CONTINUOUS
  0
LAYER
  5
6C
330
2
100
AcDbSymbolTableRecord
100
AcDbLayerTableRecord
  2
51
 70
     0
 62
    51
  6
CONTINUOUS
  0
LAYER
  5
6D
330
2
100
AcDbSymbolTableRecord
100
AcDbLayerTableRecord
  2
52
 70
     0
 62
    52
  6
CONTINUOUS
  0
LAYER
  5
6E
330
2
100
AcDbSymbolTableRecord
100
AcDbLayerTableRecord
  2
53
 70
     0
 62
    53
  6
CONTINUOUS
  0
LAYER
  5
6F
330
2
100
AcDbSymbolTableRecord
100
AcDbLayerTableRecord
  2
54
 70
     0
 62
    54
  6
CONTINUOUS
  0
LAYER
  5
70
330
2
100
AcDbSymbolTableRecord
100
AcDbLayerTableRecord
  2
55
 70
     0
 62
    55
  6
CONTINUOUS
  0
LAYER
  5
71
330
2
100
AcDbSymbolTableRecord
100
AcDbLayerTableRecord
  2
56
 70
     0
 62
    56
  6
CONTINUOUS
  0
LAYER
  5
72
330
2
100
AcDbSymbolTableRecord
100
AcDbLayerTableRecord
  2
57
 70
     0
 62
    57
  6
CONTINUOUS
  0
LAYER
  5
73
330
2
100
AcDbSymbolTableRecord
100
AcDbLayerTableRecord
  2
58
 70
     0
 62
    58
  6
CONTINUOUS
  0
LAYER
  5
74
330
2
100
AcDbSymbolTableRecord
100
AcDbLayerTableRecord
  2
59
 70
     0
 62
    59
  6
CONTINUOUS
  0
LAYER
  5
75
330
2
100
AcDbSymbolTableRecord
100
AcDbLayerTableRecord
  2
60
 70
     0
 62
    60
  6
CONTINUOUS
  0
LAYER
  5
76
330
2
100
AcDbSymbolTableRecord
100
AcDbLayerTableRecord
  2
61
 70
     0
 62
    61
  6
CONTINUOUS
  0
LAYER
  5
77
330
2
100
AcDbSymbolTableRecord
100
AcDbLayerTableRecord
  2
62
 70
     0
 62
    62
  6
CONTINUOUS
  0
LAYER
  5
78
330
2
100
AcDbSymbolTableRecord
100
AcDbLayerTableRecord
  2
63
 70
     0
 62
    63
  6
CONTINUOUS
  0
LAYER
  5
79
330
2
100
AcDbSymbolTableRecord
100
AcDbLayerTableRecord
  2
64
 70
     0
 62
    64
  6
CONTINUOUS
  0
LAYER
  5
7A
330
2
100
AcDbSymbolTableRecord
100
AcDbLayerTableRecord
  2
65
 70
     0
 62
    65
  6
CONTINUOUS
  0
LAYER
  5
7B
330
2
100
AcDbSymbolTableRecord
100
AcDbLayerTableRecord
  2
66
 70
     0
 62
    66
  6
CONTINUOUS
  0
LAYER
  5
7C
330
2
100
AcDbSymbolTableRecord
100
AcDbLayerTableRecord
  2
67
 70
     0
 62
    67
  6
CONTINUOUS
  0
LAYER
  5
7D
330
2
100
AcDbSymbolTableRecord
100
AcDbLayerTableRecord
  2
68
 70
     0
 62
    68
  6
CONTINUOUS
  0
LAYER
  5
7E
330
2
100
AcDbSymbolTableRecord
100
AcDbLayerTableRecord
  2
69
 70
     0
 62
    69
  6
CONTINUOUS
  0
LAYER
  5
7F
330
2
100
AcDbSymbolTableRecord
100
AcDbLayerTableRecord
  2
70
 70
     0
 62
    70
  6
CONTINUOUS
  0
LAYER
  5
80
330
2
100
AcDbSymbolTableRecord
100
AcDbLayerTableRecord
  2
71
 70
     0
 62
    71
  6
CONTINUOUS
  0
LAYER
  5
81
330
2
100
AcDbSymbolTableRecord
100
AcDbLayerTableRecord
  2
72
 70
     0
 62
    72
  6
CONTINUOUS
  0
LAYER
  5
82
330
2
100
AcDbSymbolTableRecord
100
AcDbLayerTableRecord
  2
73
 70
     0
 62
    73
  6
CONTINUOUS
  0
LAYER
  5
83
330
2
100
AcDbSymbolTableRecord
100
AcDbLayerTableRecord
  2
74
 70
     0
 62
    74
  6
CONTINUOUS
  0
LAYER
  5
84
330
2
100
AcDbSymbolTableRecord
100
AcDbLayerTableRecord
  2
75
 70
     0
 62
    75
  6
CONTINUOUS
  0
LAYER
  5
85
330
2
100
AcDbSymbolTableRecord
100
AcDbLayerTableRecord
  2
76
 70
     0
 62
    76
  6
CONTINUOUS
  0
LAYER
  5
86
330
2
100
AcDbSymbolTableRecord
100
AcDbLayerTableRecord
  2
77
 70
     0
 62
    77
  6
CONTINUOUS
  0
LAYER
  5
87
330
2
100
AcDbSymbolTableRecord
100
AcDbLayerTableRecord
  2
78
 70
     0
 62
    78
  6
CONTINUOUS
  0
LAYER
  5
88
330
2
100
AcDbSymbolTableRecord
100
AcDbLayerTableRecord
  2
79
 70
     0
 62
    79
  6
CONTINUOUS
  0
LAYER
  5
89
330
2
100
AcDbSymbolTableRecord
100
AcDbLayerTableRecord
  2
80
 70
     0
 62
    80
  6
CONTINUOUS
  0
LAYER
  5
8A
330
2
100
AcDbSymbolTableRecord
100
AcDbLayerTableRecord
  2
81
 70
     0
 62
    81
  6
CONTINUOUS
  0
LAYER
  5
8B
330
2
100
AcDbSymbolTableRecord
100
AcDbLayerTableRecord
  2
82
 70
     0
 62
    82
  6
CONTINUOUS
  0
LAYER
  5
8C
330
2
100
AcDbSymbolTableRecord
100
AcDbLayerTableRecord
  2
83
 70
     0
 62
    83
  6
CONTINUOUS
  0
LAYER
  5
8D
330
2
100
AcDbSymbolTableRecord
100
AcDbLayerTableRecord
  2
84
 70
     0
 62
    84
  6
CONTINUOUS
  0
LAYER
  5
8E
330
2
100
AcDbSymbolTableRecord
100
AcDbLayerTableRecord
  2
85
 70
     0
 62
    85
  6
CONTINUOUS
  0
LAYER
  5
8F
330
2
100
AcDbSymbolTableRecord
100
AcDbLayerTableRecord
  2
86
 70
     0
 62
    86
  6
CONTINUOUS
  0
LAYER
  5
90
330
2
100
AcDbSymbolTableRecord
100
AcDbLayerTableRecord
  2
87
 70
     0
 62
    87
  6
CONTINUOUS
  0
LAYER
  5
91
330
2
100
AcDbSymbolTableRecord
100
AcDbLayerTableRecord
  2
88
 70
     0
 62
    88
  6
CONTINUOUS
  0
LAYER
  5
92
330
2
100
AcDbSymbolTableRecord
100
AcDbLayerTableRecord
  2
89
 70
     0
 62
    89
  6
CONTINUOUS
  0
LAYER
  5
93
330
2
100
AcDbSymbolTableRecord
100
AcDbLayerTableRecord
  2
90
 70
     0
 62
    90
  6
CONTINUOUS
  0
LAYER
  5
94
330
2
100
AcDbSymbolTableRecord
100
AcDbLayerTableRecord
  2
91
 70
     0
 62
    91
  6
CONTINUOUS
  0
LAYER
  5
95
330
2
100
AcDbSymbolTableRecord
100
AcDbLayerTableRecord
  2
92
 70
     0
 62
    92
  6
CONTINUOUS
  0
LAYER
  5
96
330
2
100
AcDbSymbolTableRecord
100
AcDbLayerTableRecord
  2
93
 70
     0
 62
    93
  6
CONTINUOUS
  0
LAYER
  5
97
330
2
100
AcDbSymbolTableRecord
100
AcDbLayerTableRecord
  2
94
 70
     0
 62
    94
  6
CONTINUOUS
  0
LAYER
  5
98
330
2
100
AcDbSymbolTableRecord
100
AcDbLayerTableRecord
  2
95
 70
     0
 62
    95
  6
CONTINUOUS
  0
LAYER
  5
99
330
2
100
AcDbSymbolTableRecord
100
AcDbLayerTableRecord
  2
96
 70
     0
 62
    96
  6
CONTINUOUS
  0
LAYER
  5
9A
330
2
100
AcDbSymbolTableRecord
100
AcDbLayerTableRecord
  2
97
 70
     0
 62
    97
  6
CONTINUOUS
  0
LAYER
  5
9B
330
2
100
AcDbSymbolTableRecord
100
AcDbLayerTableRecord
  2
98
 70
     0
 62
    98
  6
CONTINUOUS
  0
LAYER
  5
9C
330
2
100
AcDbSymbolTableRecord
100
AcDbLayerTableRecord
  2
99
 70
     0
 62
    99
  6
CONTINUOUS
  0
LAYER
  5
9D
330
2
100
AcDbSymbolTableRecord
100
AcDbLayerTableRecord
  2
100
 70
     0
 62
   100
  6
CONTINUOUS
  0
LAYER
  5
9E
330
2
100
AcDbSymbolTableRecord
100
AcDbLayerTableRecord
  2
101
 70
     0
 62
   101
  6
CONTINUOUS
  0
LAYER
  5
9F
330
2
100
AcDbSymbolTableRecord
100
AcDbLayerTableRecord
  2
102
 70
     0
 62
   102
  6
CONTINUOUS
  0
LAYER
  5
A0
330
2
100
AcDbSymbolTableRecord
100
AcDbLayerTableRecord
  2
103
 70
     0
 62
   103
  6
CONTINUOUS
  0
LAYER
  5
A1
330
2
100
AcDbSymbolTableRecord
100
AcDbLayerTableRecord
  2
104
 70
     0
 62
   104
  6
CONTINUOUS
  0
LAYER
  5
A2
330
2
100
AcDbSymbolTableRecord
100
AcDbLayerTableRecord
  2
105
 70
     0
 62
   105
  6
CONTINUOUS
  0
LAYER
  5
A3
330
2
100
AcDbSymbolTableRecord
100
AcDbLayerTableRecord
  2
106
 70
     0
 62
   106
  6
CONTINUOUS
  0
LAYER
  5
A4
330
2
100
AcDbSymbolTableRecord
100
AcDbLayerTableRecord
  2
107
 70
     0
 62
   107
  6
CONTINUOUS
  0
LAYER
  5
A5
330
2
100
AcDbSymbolTableRecord
100
AcDbLayerTableRecord
  2
108
 70
     0
 62
   108
  6
CONTINUOUS
  0
LAYER
  5
A6
330
2
100
AcDbSymbolTableRecord
100
AcDbLayerTableRecord
  2
109
 70
     0
 62
   109
  6
CONTINUOUS
  0
LAYER
  5
A7
330
2
100
AcDbSymbolTableRecord
100
AcDbLayerTableRecord
  2
110
 70
     0
 62
   110
  6
CONTINUOUS
  0
LAYER
  5
A8
330
2
100
AcDbSymbolTableRecord
100
AcDbLayerTableRecord
  2
111
 70
     0
 62
   111
  6
CONTINUOUS
  0
LAYER
  5
A9
330
2
100
AcDbSymbolTableRecord
100
AcDbLayerTableRecord
  2
112
 70
     0
 62
   112
  6
CONTINUOUS
  0
LAYER
  5
AA
330
2
100
AcDbSymbolTableRecord
100
AcDbLayerTableRecord
  2
113
 70
     0
 62
   113
  6
CONTINUOUS
  0
LAYER
  5
AB
330
2
100
AcDbSymbolTableRecord
100
AcDbLayerTableRecord
  2
114
 70
     0
 62
   114
  6
CONTINUOUS
  0
LAYER
  5
AC
330
2
100
AcDbSymbolTableRecord
100
AcDbLayerTableRecord
  2
115
 70
     0
 62
   115
  6
CONTINUOUS
  0
LAYER
  5
AD
330
2
100
AcDbSymbolTableRecord
100
AcDbLayerTableRecord
  2
116
 70
     0
 62
   116
  6
CONTINUOUS
  0
LAYER
  5
AE
330
2
100
AcDbSymbolTableRecord
100
AcDbLayerTableRecord
  2
117
 70
     0
 62
   117
  6
CONTINUOUS
  0
LAYER
  5
AF
330
2
100
AcDbSymbolTableRecord
100
AcDbLayerTableRecord
  2
118
 70
     0
 62
   118
  6
CONTINUOUS
  0
LAYER
  5
B0
330
2
100
AcDbSymbolTableRecord
100
AcDbLayerTableRecord
  2
119
 70
     0
 62
   119
  6
CONTINUOUS
  0
LAYER
  5
B1
330
2
100
AcDbSymbolTableRecord
100
AcDbLayerTableRecord
  2
120
 70
     0
 62
   120
  6
CONTINUOUS
  0
LAYER
  5
B2
330
2
100
AcDbSymbolTableRecord
100
AcDbLayerTableRecord
  2
121
 70
     0
 62
   121
  6
CONTINUOUS
  0
LAYER
  5
B3
330
2
100
AcDbSymbolTableRecord
100
AcDbLayerTableRecord
  2
122
 70
     0
 62
   122
  6
CONTINUOUS
  0
LAYER
  5
B4
330
2
100
AcDbSymbolTableRecord
100
AcDbLayerTableRecord
  2
123
 70
     0
 62
   123
  6
CONTINUOUS
  0
LAYER
  5
B5
330
2
100
AcDbSymbolTableRecord
100
AcDbLayerTableRecord
  2
124
 70
     0
 62
   124
  6
CONTINUOUS
  0
LAYER
  5
B6
330
2
100
AcDbSymbolTableRecord
100
AcDbLayerTableRecord
  2
125
 70
     0
 62
   125
  6
CONTINUOUS
  0
LAYER
  5
B7
330
2
100
AcDbSymbolTableRecord
100
AcDbLayerTableRecord
  2
126
 70
     0
 62
   126
  6
CONTINUOUS
  0
LAYER
  5
B8
330
2
100
AcDbSymbolTableRecord
100
AcDbLayerTableRecord
  2
127
 70
     0
 62
   127
  6
CONTINUOUS
  0
LAYER
  5
B9
330
2
100
AcDbSymbolTableRecord
100
AcDbLayerTableRecord
  2
128
 70
     0
 62
   128
  6
CONTINUOUS
  0
LAYER
  5
BA
330
2
100
AcDbSymbolTableRecord
100
AcDbLayerTableRecord
  2
129
 70
     0
 62
   129
  6
CONTINUOUS
  0
LAYER
  5
BB
330
2
100
AcDbSymbolTableRecord
100
AcDbLayerTableRecord
  2
130
 70
     0
 62
   130
  6
CONTINUOUS
  0
LAYER
  5
BC
330
2
100
AcDbSymbolTableRecord
100
AcDbLayerTableRecord
  2
131
 70
     0
 62
   131
  6
CONTINUOUS
  0
LAYER
  5
BD
330
2
100
AcDbSymbolTableRecord
100
AcDbLayerTableRecord
  2
132
 70
     0
 62
   132
  6
CONTINUOUS
  0
LAYER
  5
BE
330
2
100
AcDbSymbolTableRecord
100
AcDbLayerTableRecord
  2
133
 70
     0
 62
   133
  6
CONTINUOUS
  0
LAYER
  5
BF
330
2
100
AcDbSymbolTableRecord
100
AcDbLayerTableRecord
  2
134
 70
     0
 62
   134
  6
CONTINUOUS
  0
LAYER
  5
C0
330
2
100
AcDbSymbolTableRecord
100
AcDbLayerTableRecord
  2
135
 70
     0
 62
   135
  6
CONTINUOUS
  0
LAYER
  5
C1
330
2
100
AcDbSymbolTableRecord
100
AcDbLayerTableRecord
  2
136
 70
     0
 62
   136
  6
CONTINUOUS
  0
LAYER
  5
C2
330
2
100
AcDbSymbolTableRecord
100
AcDbLayerTableRecord
  2
137
 70
     0
 62
   137
  6
CONTINUOUS
  0
LAYER
  5
C3
330
2
100
AcDbSymbolTableRecord
100
AcDbLayerTableRecord
  2
138
 70
     0
 62
   138
  6
CONTINUOUS
  0
LAYER
  5
C4
330
2
100
AcDbSymbolTableRecord
100
AcDbLayerTableRecord
  2
139
 70
     0
 62
   139
  6
CONTINUOUS
  0
LAYER
  5
C5
330
2
100
AcDbSymbolTableRecord
100
AcDbLayerTableRecord
  2
140
 70
     0
 62
   140
  6
CONTINUOUS
  0
LAYER
  5
C6
330
2
100
AcDbSymbolTableRecord
100
AcDbLayerTableRecord
  2
141
 70
     0
 62
   141
  6
CONTINUOUS
  0
LAYER
  5
C7
330
2
100
AcDbSymbolTableRecord
100
AcDbLayerTableRecord
  2
142
 70
     0
 62
   142
  6
CONTINUOUS
  0
LAYER
  5
C8
330
2
100
AcDbSymbolTableRecord
100
AcDbLayerTableRecord
  2
143
 70
     0
 62
   143
  6
CONTINUOUS
  0
LAYER
  5
C9
330
2
100
AcDbSymbolTableRecord
100
AcDbLayerTableRecord
  2
144
 70
     0
 62
   144
  6
CONTINUOUS
  0
LAYER
  5
CA
330
2
100
AcDbSymbolTableRecord
100
AcDbLayerTableRecord
  2
145
 70
     0
 62
   145
  6
CONTINUOUS
  0
LAYER
  5
CB
330
2
100
AcDbSymbolTableRecord
100
AcDbLayerTableRecord
  2
146
 70
     0
 62
   146
  6
CONTINUOUS
  0
LAYER
  5
CC
330
2
100
AcDbSymbolTableRecord
100
AcDbLayerTableRecord
  2
147
 70
     0
 62
   147
  6
CONTINUOUS
  0
LAYER
  5
CD
330
2
100
AcDbSymbolTableRecord
100
AcDbLayerTableRecord
  2
148
 70
     0
 62
   148
  6
CONTINUOUS
  0
LAYER
  5
CE
330
2
100
AcDbSymbolTableRecord
100
AcDbLayerTableRecord
  2
149
 70
     0
 62
   149
  6
CONTINUOUS
  0
LAYER
  5
CF
330
2
100
AcDbSymbolTableRecord
100
AcDbLayerTableRecord
  2
150
 70
     0
 62
   150
  6
CONTINUOUS
  0
LAYER
  5
D0
330
2
100
AcDbSymbolTableRecord
100
AcDbLayerTableRecord
  2
151
 70
     0
 62
   151
  6
CONTINUOUS
  0
LAYER
  5
D1
330
2
100
AcDbSymbolTableRecord
100
AcDbLayerTableRecord
  2
152
 70
     0
 62
   152
  6
CONTINUOUS
  0
LAYER
  5
D2
330
2
100
AcDbSymbolTableRecord
100
AcDbLayerTableRecord
  2
153
 70
     0
 62
   153
  6
CONTINUOUS
  0
LAYER
  5
D3
330
2
100
AcDbSymbolTableRecord
100
AcDbLayerTableRecord
  2
154
 70
     0
 62
   154
  6
CONTINUOUS
  0
LAYER
  5
D4
330
2
100
AcDbSymbolTableRecord
100
AcDbLayerTableRecord
  2
155
 70
     0
 62
   155
  6
CONTINUOUS
  0
LAYER
  5
D5
330
2
100
AcDbSymbolTableRecord
100
AcDbLayerTableRecord
  2
156
 70
     0
 62
   156
  6
CONTINUOUS
  0
LAYER
  5
D6
330
2
100
AcDbSymbolTableRecord
100
AcDbLayerTableRecord
  2
157
 70
     0
 62
   157
  6
CONTINUOUS
  0
LAYER
  5
D7
330
2
100
AcDbSymbolTableRecord
100
AcDbLayerTableRecord
  2
158
 70
     0
 62
   158
  6
CONTINUOUS
  0
LAYER
  5
D8
330
2
100
AcDbSymbolTableRecord
100
AcDbLayerTableRecord
  2
159
 70
     0
 62
   159
  6
CONTINUOUS
  0
LAYER
  5
D9
330
2
100
AcDbSymbolTableRecord
100
AcDbLayerTableRecord
  2
160
 70
     0
 62
   160
  6
CONTINUOUS
  0
LAYER
  5
DA
330
2
100
AcDbSymbolTableRecord
100
AcDbLayerTableRecord
  2
161
 70
     0
 62
   161
  6
CONTINUOUS
  0
LAYER
  5
DB
330
2
100
AcDbSymbolTableRecord
100
AcDbLayerTableRecord
  2
162
 70
     0
 62
   162
  6
CONTINUOUS
  0
LAYER
  5
DC
330
2
100
AcDbSymbolTableRecord
100
AcDbLayerTableRecord
  2
163
 70
     0
 62
   163
  6
CONTINUOUS
  0
LAYER
  5
DD
330
2
100
AcDbSymbolTableRecord
100
AcDbLayerTableRecord
  2
164
 70
     0
 62
   164
  6
CONTINUOUS
  0
LAYER
  5
DE
330
2
100
AcDbSymbolTableRecord
100
AcDbLayerTableRecord
  2
165
 70
     0
 62
   165
  6
CONTINUOUS
  0
LAYER
  5
DF
330
2
100
AcDbSymbolTableRecord
100
AcDbLayerTableRecord
  2
166
 70
     0
 62
   166
  6
CONTINUOUS
  0
LAYER
  5
E0
330
2
100
AcDbSymbolTableRecord
100
AcDbLayerTableRecord
  2
167
 70
     0
 62
   167
  6
CONTINUOUS
  0
LAYER
  5
E1
330
2
100
AcDbSymbolTableRecord
100
AcDbLayerTableRecord
  2
168
 70
     0
 62
   168
  6
CONTINUOUS
  0
LAYER
  5
E2
330
2
100
AcDbSymbolTableRecord
100
AcDbLayerTableRecord
  2
169
 70
     0
 62
   169
  6
CONTINUOUS
  0
LAYER
  5
E3
330
2
100
AcDbSymbolTableRecord
100
AcDbLayerTableRecord
  2
170
 70
     0
 62
   170
  6
CONTINUOUS
  0
LAYER
  5
E4
330
2
100
AcDbSymbolTableRecord
100
AcDbLayerTableRecord
  2
171
 70
     0
 62
   171
  6
CONTINUOUS
  0
LAYER
  5
E5
330
2
100
AcDbSymbolTableRecord
100
AcDbLayerTableRecord
  2
172
 70
     0
 62
   172
  6
CONTINUOUS
  0
LAYER
  5
E6
330
2
100
AcDbSymbolTableRecord
100
AcDbLayerTableRecord
  2
173
 70
     0
 62
   173
  6
CONTINUOUS
  0
LAYER
  5
E7
330
2
100
AcDbSymbolTableRecord
100
AcDbLayerTableRecord
  2
174
 70
     0
 62
   174
  6
CONTINUOUS
  0
LAYER
  5
E8
330
2
100
AcDbSymbolTableRecord
100
AcDbLayerTableRecord
  2
175
 70
     0
 62
   175
  6
CONTINUOUS
  0
LAYER
  5
E9
330
2
100
AcDbSymbolTableRecord
100
AcDbLayerTableRecord
  2
176
 70
     0
 62
   176
  6
CONTINUOUS
  0
LAYER
  5
EA
330
2
100
AcDbSymbolTableRecord
100
AcDbLayerTableRecord
  2
177
 70
     0
 62
   177
  6
CONTINUOUS
  0
LAYER
  5
EB
330
2
100
AcDbSymbolTableRecord
100
AcDbLayerTableRecord
  2
178
 70
     0
 62
   178
  6
CONTINUOUS
  0
LAYER
  5
EC
330
2
100
AcDbSymbolTableRecord
100
AcDbLayerTableRecord
  2
179
 70
     0
 62
   179
  6
CONTINUOUS
  0
LAYER
  5
ED
330
2
100
AcDbSymbolTableRecord
100
AcDbLayerTableRecord
  2
180
 70
     0
 62
   180
  6
CONTINUOUS
  0
LAYER
  5
EE
330
2
100
AcDbSymbolTableRecord
100
AcDbLayerTableRecord
  2
181
 70
     0
 62
   181
  6
CONTINUOUS
  0
LAYER
  5
EF
330
2
100
AcDbSymbolTableRecord
100
AcDbLayerTableRecord
  2
182
 70
     0
 62
   182
  6
CONTINUOUS
  0
LAYER
  5
F0
330
2
100
AcDbSymbolTableRecord
100
AcDbLayerTableRecord
  2
183
 70
     0
 62
   183
  6
CONTINUOUS
  0
LAYER
  5
F1
330
2
100
AcDbSymbolTableRecord
100
AcDbLayerTableRecord
  2
184
 70
     0
 62
   184
  6
CONTINUOUS
  0
LAYER
  5
F2
330
2
100
AcDbSymbolTableRecord
100
AcDbLayerTableRecord
  2
185
 70
     0
 62
   185
  6
CONTINUOUS
  0
LAYER
  5
F3
330
2
100
AcDbSymbolTableRecord
100
AcDbLayerTableRecord
  2
186
 70
     0
 62
   186
  6
CONTINUOUS
  0
LAYER
  5
F4
330
2
100
AcDbSymbolTableRecord
100
AcDbLayerTableRecord
  2
187
 70
     0
 62
   187
  6
CONTINUOUS
  0
LAYER
  5
F5
330
2
100
AcDbSymbolTableRecord
100
AcDbLayerTableRecord
  2
188
 70
     0
 62
   188
  6
CONTINUOUS
  0
LAYER
  5
F6
330
2
100
AcDbSymbolTableRecord
100
AcDbLayerTableRecord
  2
189
 70
     0
 62
   189
  6
CONTINUOUS
  0
LAYER
  5
F7
330
2
100
AcDbSymbolTableRecord
100
AcDbLayerTableRecord
  2
190
 70
     0
 62
   190
  6
CONTINUOUS
  0
LAYER
  5
F8
330
2
100
AcDbSymbolTableRecord
100
AcDbLayerTableRecord
  2
191
 70
     0
 62
   191
  6
CONTINUOUS
  0
LAYER
  5
F9
330
2
100
AcDbSymbolTableRecord
100
AcDbLayerTableRecord
  2
192
 70
     0
 62
   192
  6
CONTINUOUS
  0
LAYER
  5
FA
330
2
100
AcDbSymbolTableRecord
100
AcDbLayerTableRecord
  2
193
 70
     0
 62
   193
  6
CONTINUOUS
  0
LAYER
  5
FB
330
2
100
AcDbSymbolTableRecord
100
AcDbLayerTableRecord
  2
194
 70
     0
 62
   194
  6
CONTINUOUS
  0
LAYER
  5
FC
330
2
100
AcDbSymbolTableRecord
100
AcDbLayerTableRecord
  2
195
 70
     0
 62
   195
  6
CONTINUOUS
  0
LAYER
  5
FD
330
2
100
AcDbSymbolTableRecord
100
AcDbLayerTableRecord
  2
196
 70
     0
 62
   196
  6
CONTINUOUS
  0
LAYER
  5
FE
330
2
100
AcDbSymbolTableRecord
100
AcDbLayerTableRecord
  2
197
 70
     0
 62
   197
  6
CONTINUOUS
  0
LAYER
  5
FF
330
2
100
AcDbSymbolTableRecord
100
AcDbLayerTableRecord
  2
198
 70
     0
 62
   198
  6
CONTINUOUS
  0
LAYER
  5
100
330
2
100
AcDbSymbolTableRecord
100
AcDbLayerTableRecord
  2
199
 70
     0
 62
   199
  6
CONTINUOUS
  0
LAYER
  5
101
330
2
100
AcDbSymbolTableRecord
100
AcDbLayerTableRecord
  2
200
 70
     0
 62
   200
  6
CONTINUOUS
  0
LAYER
  5
102
330
2
100
AcDbSymbolTableRecord
100
AcDbLayerTableRecord
  2
201
 70
     0
 62
   201
  6
CONTINUOUS
  0
LAYER
  5
103
330
2
100
AcDbSymbolTableRecord
100
AcDbLayerTableRecord
  2
202
 70
     0
 62
   202
  6
CONTINUOUS
  0
LAYER
  5
104
330
2
100
AcDbSymbolTableRecord
100
AcDbLayerTableRecord
  2
203
 70
     0
 62
   203
  6
CONTINUOUS
  0
LAYER
  5
105
330
2
100
AcDbSymbolTableRecord
100
AcDbLayerTableRecord
  2
204
 70
     0
 62
   204
  6
CONTINUOUS
  0
LAYER
  5
106
330
2
100
AcDbSymbolTableRecord
100
AcDbLayerTableRecord
  2
205
 70
     0
 62
   205
  6
CONTINUOUS
  0
LAYER
  5
107
330
2
100
AcDbSymbolTableRecord
100
AcDbLayerTableRecord
  2
206
 70
     0
 62
   206
  6
CONTINUOUS
  0
LAYER
  5
108
330
2
100
AcDbSymbolTableRecord
100
AcDbLayerTableRecord
  2
207
 70
     0
 62
   207
  6
CONTINUOUS
  0
LAYER
  5
109
330
2
100
AcDbSymbolTableRecord
100
AcDbLayerTableRecord
  2
208
 70
     0
 62
   208
  6
CONTINUOUS
  0
LAYER
  5
10A
330
2
100
AcDbSymbolTableRecord
100
AcDbLayerTableRecord
  2
209
 70
     0
 62
   209
  6
CONTINUOUS
  0
LAYER
  5
10B
330
2
100
AcDbSymbolTableRecord
100
AcDbLayerTableRecord
  2
210
 70
     0
 62
   210
  6
CONTINUOUS
  0
LAYER
  5
10C
330
2
100
AcDbSymbolTableRecord
100
AcDbLayerTableRecord
  2
211
 70
     0
 62
   211
  6
CONTINUOUS
  0
LAYER
  5
10D
330
2
100
AcDbSymbolTableRecord
100
AcDbLayerTableRecord
  2
212
 70
     0
 62
   212
  6
CONTINUOUS
  0
LAYER
  5
10E
330
2
100
AcDbSymbolTableRecord
100
AcDbLayerTableRecord
  2
213
 70
     0
 62
   213
  6
CONTINUOUS
  0
LAYER
  5
10F
330
2
100
AcDbSymbolTableRecord
100
AcDbLayerTableRecord
  2
214
 70
     0
 62
   214
  6
CONTINUOUS
  0
LAYER
  5
110
330
2
100
AcDbSymbolTableRecord
100
AcDbLayerTableRecord
  2
215
 70
     0
 62
   215
  6
CONTINUOUS
  0
LAYER
  5
111
330
2
100
AcDbSymbolTableRecord
100
AcDbLayerTableRecord
  2
216
 70
     0
 62
   216
  6
CONTINUOUS
  0
LAYER
  5
112
330
2
100
AcDbSymbolTableRecord
100
AcDbLayerTableRecord
  2
217
 70
     0
 62
   217
  6
CONTINUOUS
  0
LAYER
  5
113
330
2
100
AcDbSymbolTableRecord
100
AcDbLayerTableRecord
  2
218
 70
     0
 62
   218
  6
CONTINUOUS
  0
LAYER
  5
114
330
2
100
AcDbSymbolTableRecord
100
AcDbLayerTableRecord
  2
219
 70
     0
 62
   219
  6
CONTINUOUS
  0
LAYER
  5
115
330
2
100
AcDbSymbolTableRecord
100
AcDbLayerTableRecord
  2
220
 70
     0
 62
   220
  6
CONTINUOUS
  0
LAYER
  5
116
330
2
100
AcDbSymbolTableRecord
100
AcDbLayerTableRecord
  2
221
 70
     0
 62
   221
  6
CONTINUOUS
  0
LAYER
  5
117
330
2
100
AcDbSymbolTableRecord
100
AcDbLayerTableRecord
  2
222
 70
     0
 62
   222
  6
CONTINUOUS
  0
LAYER
  5
118
330
2
100
AcDbSymbolTableRecord
100
AcDbLayerTableRecord
  2
223
 70
     0
 62
   223
  6
CONTINUOUS
  0
LAYER
  5
119
330
2
100
AcDbSymbolTableRecord
100
AcDbLayerTableRecord
  2
224
 70
     0
 62
   224
  6
CONTINUOUS
  0
LAYER
  5
11A
330
2
100
AcDbSymbolTableRecord
100
AcDbLayerTableRecord
  2
225
 70
     0
 62
   225
  6
CONTINUOUS
  0
LAYER
  5
11B
330
2
100
AcDbSymbolTableRecord
100
AcDbLayerTableRecord
  2
226
 70
     0
 62
   226
  6
CONTINUOUS
  0
LAYER
  5
11C
330
2
100
AcDbSymbolTableRecord
100
AcDbLayerTableRecord
  2
227
 70
     0
 62
   227
  6
CONTINUOUS
  0
LAYER
  5
11D
330
2
100
AcDbSymbolTableRecord
100
AcDbLayerTableRecord
  2
228
 70
     0
 62
   228
  6
CONTINUOUS
  0
LAYER
  5
11E
330
2
100
AcDbSymbolTableRecord
100
AcDbLayerTableRecord
  2
229
 70
     0
 62
   229
  6
CONTINUOUS
  0
LAYER
  5
11F
330
2
100
AcDbSymbolTableRecord
100
AcDbLayerTableRecord
  2
230
 70
     0
 62
   230
  6
CONTINUOUS
  0
LAYER
  5
120
330
2
100
AcDbSymbolTableRecord
100
AcDbLayerTableRecord
  2
231
 70
     0
 62
   231
  6
CONTINUOUS
  0
LAYER
  5
121
330
2
100
AcDbSymbolTableRecord
100
AcDbLayerTableRecord
  2
232
 70
     0
 62
   232
  6
CONTINUOUS
  0
LAYER
  5
122
330
2
100
AcDbSymbolTableRecord
100
AcDbLayerTableRecord
  2
233
 70
     0
 62
   233
  6
CONTINUOUS
  0
LAYER
  5
123
330
2
100
AcDbSymbolTableRecord
100
AcDbLayerTableRecord
  2
234
 70
     0
 62
   234
  6
CONTINUOUS
  0
LAYER
  5
124
330
2
100
AcDbSymbolTableRecord
100
AcDbLayerTableRecord
  2
235
 70
     0
 62
   235
  6
CONTINUOUS
  0
LAYER
  5
125
330
2
100
AcDbSymbolTableRecord
100
AcDbLayerTableRecord
  2
236
 70
     0
 62
   236
  6
CONTINUOUS
  0
LAYER
  5
126
330
2
100
AcDbSymbolTableRecord
100
AcDbLayerTableRecord
  2
237
 70
     0
 62
   237
  6
CONTINUOUS
  0
LAYER
  5
127
330
2
100
AcDbSymbolTableRecord
100
AcDbLayerTableRecord
  2
238
 70
     0
 62
   238
  6
CONTINUOUS
  0
LAYER
  5
128
330
2
100
AcDbSymbolTableRecord
100
AcDbLayerTableRecord
  2
239
 70
     0
 62
   239
  6
CONTINUOUS
  0
LAYER
  5
129
330
2
100
AcDbSymbolTableRecord
100
AcDbLayerTableRecord
  2
240
 70
     0
 62
   240
  6
CONTINUOUS
  0
LAYER
  5
12A
330
2
100
AcDbSymbolTableRecord
100
AcDbLayerTableRecord
  2
241
 70
     0
 62
   241
  6
CONTINUOUS
  0
LAYER
  5
12B
330
2
100
AcDbSymbolTableRecord
100
AcDbLayerTableRecord
  2
242
 70
     0
 62
   242
  6
CONTINUOUS
  0
LAYER
  5
12C
330
2
100
AcDbSymbolTableRecord
100
AcDbLayerTableRecord
  2
243
 70
     0
 62
   243
  6
CONTINUOUS
  0
LAYER
  5
12D
330
2
100
AcDbSymbolTableRecord
100
AcDbLayerTableRecord
  2
244
 70
     0
 62
   244
  6
CONTINUOUS
  0
LAYER
  5
12E
330
2
100
AcDbSymbolTableRecord
100
AcDbLayerTableRecord
  2
245
 70
     0
 62
   245
  6
CONTINUOUS
  0
LAYER
  5
12F
330
2
100
AcDbSymbolTableRecord
100
AcDbLayerTableRecord
  2
246
 70
     0
 62
   246
  6
CONTINUOUS
  0
LAYER
  5
130
330
2
100
AcDbSymbolTableRecord
100
AcDbLayerTableRecord
  2
247
 70
     0
 62
   247
  6
CONTINUOUS
  0
LAYER
  5
131
330
2
100
AcDbSymbolTableRecord
100
AcDbLayerTableRecord
  2
248
 70
     0
 62
   248
  6
CONTINUOUS
  0
LAYER
  5
132
330
2
100
AcDbSymbolTableRecord
100
AcDbLayerTableRecord
  2
249
 70
     0
 62
   249
  6
CONTINUOUS
  0
LAYER
  5
133
330
2
100
AcDbSymbolTableRecord
100
AcDbLayerTableRecord
  2
250
 70
     0
 62
   250
  6
CONTINUOUS
  0
LAYER
  5
134
330
2
100
AcDbSymbolTableRecord
100
AcDbLayerTableRecord
  2
251
 70
     0
 62
   251
  6
CONTINUOUS
  0
LAYER
  5
135
330
2
100
AcDbSymbolTableRecord
100
AcDbLayerTableRecord
  2
252
 70
     0
 62
   252
  6
CONTINUOUS
  0
LAYER
  5
136
330
2
100
AcDbSymbolTableRecord
100
AcDbLayerTableRecord
  2
253
 70
     0
 62
   253
  6
CONTINUOUS
  0
LAYER
  5
137
330
2
100
AcDbSymbolTableRecord
100
AcDbLayerTableRecord
  2
254
 70
     0
 62
   254
  6
CONTINUOUS
  0
LAYER
  5
138
330
2
100
AcDbSymbolTableRecord
100
AcDbLayerTableRecord
  2
255
 70
     0
 62
   255
  6
CONTINUOUS
  0
LAYER
  5
2C63
330
2
100
AcDbSymbolTableRecord
100
AcDbLayerTableRecord
  2
DEFPOINTS
 70
     0
 62
     7
  6
CONTINUOUS
  0
ENDTAB
  0
TABLE
  2
STYLE
  5
3
330
0
100
AcDbSymbolTable
 70
     1
  0
STYLE
  5
11
330
3
100
AcDbSymbolTableRecord
100
AcDbTextStyleTableRecord
  2
STANDARD
 70
     0
 40
0.0
 41
1.0
 50
0.0
 71
     0
 42
0.2
  3
txt
  4

  0
ENDTAB
  0
TABLE
  2
VIEW
  5
6
330
0
100
AcDbSymbolTable
 70
     0
  0
ENDTAB
  0
TABLE
  2
UCS
  5
7
330
0
100
AcDbSymbolTable
 70
     0
  0
ENDTAB
  0
TABLE
  2
APPID
  5
9
330
0
100
AcDbSymbolTable
 70
     1
  0
APPID
  5
12
330
9
100
AcDbSymbolTableRecord
100
AcDbRegAppTableRecord
  2
ACAD
 70
     0
  0
ENDTAB
  0
TABLE
  2
DIMSTYLE
  5
A
330
0
100
AcDbSymbolTable
 70
     1
  0
DIMSTYLE
105
2C5F
102
{ACAD_REACTORS
330
2C62
102
}
330
A
100
AcDbSymbolTableRecord
100
AcDbDimStyleTableRecord
  2
STANDARD
 70
     0
  3

  4

  5

  6

  7

 40
1.0
 41
0.18
 42
0.0625
 43
0.38
 44
0.18
 45
0.0
 46
0.0
 47
0.0
 48
0.0
140
0.18
141
0.09
142
0.0
143
25.4
144
1.0
145
0.0
146
1.0
147
0.09
 71
     0
 72
     0
 73
     1
 74
     1
 75
     0
 76
     0
 77
     0
 78
     0
170
     0
171
     2
172
     0
173
     0
174
     0
175
     0
176
     0
177
     0
178
     0
270
     2
271
     4
272
     4
273
     2
274
     2
340
11
275
     0
280
     0
281
     0
282
     0
283
     1
284
     0
285
     0
286
     0
287
     3
288
     0
  0
ENDTAB
  0
TABLE
  2
BLOCK_RECORD
  5
1
330
0
100
AcDbSymbolTable
 70
     1
  0
BLOCK_RECORD
  5
1E
102
{ACAD_XDICTIONARY
360
2C7F
102
}
330
1
100
AcDbSymbolTableRecord
100
AcDbBlockTableRecord
  2
*MODEL_SPACE
  0
BLOCK_RECORD
  5
1A
102
{ACAD_XDICTIONARY
360
2C7D
102
}
330
1
100
AcDbSymbolTableRecord
100
AcDbBlockTableRecord
  2
*PAPER_SPACE
  0
BLOCK_RECORD
  5
2C64
330
1
100
AcDbSymbolTableRecord
100
AcDbBlockTableRecord
  2
*D0
  0
ENDTAB
  0
ENDSEC
  0
SECTION
  2
BLOCKS
  0
BLOCK
  5
13B
330
1E
100
AcDbEntity
  8
0
100
AcDbBlockBegin
  2
*MODEL_SPACE
 70
     0
 10
0.0
 20
0.0
 30
0.0
  3
*MODEL_SPACE
  1

  0
ENDBLK
  5
13C
330
1E
100
AcDbEntity
  8
0
100
AcDbBlockEnd
  0
BLOCK
  5
139
330
1A
100
AcDbEntity
 67
     1
  8
0
100
AcDbBlockBegin
  2
*PAPER_SPACE
 70
     0
 10
0.0
 20
0.0
 30
0.0
  3
*PAPER_SPACE
  1

  0
ENDBLK
  5
13A
330
1A
100
AcDbEntity
 67
     1
  8
0
100
AcDbBlockEnd
  0
BLOCK
  5
2C6F
330
2C64
100
AcDbEntity
  8
0
100
AcDbBlockBegin
  2
*D0
 70
     1
 10
0.0
 20
0.0
 30
0.0
  3
*D0
  1

  0
LINE
  5
2C71
330
2C64
100
AcDbEntity
  8
0
 62
     0
100
AcDbLine
 10
-0.8282568628627771
 20
7.675632685601743
 30
0.0
 11
-2.428356600095691
 21
7.675632685601744
 31
0.0
  0
LINE
  5
2C72
330
2C64
100
AcDbEntity
  8
0
 62
     0
100
AcDbLine
 10
-0.8282568628627771
 20
3.57561934898757
 30
0.0
 11
-2.428356600095692
 21
3.575619348987571
 31
0.0
  0
LINE
  5
2C73
330
2C64
100
AcDbEntity
  8
0
 62
     0
100
AcDbLine
 10
-2.248356600095691
 20
7.495632685601744
 30
0.0
 11
-2.248356600095692
 21
5.805626017294658
 31
0.0
  0
LINE
  5
2C74
330
2C64
100
AcDbEntity
  8
0
 62
     0
100
AcDbLine
 10
-2.248356600095692
 20
3.755619348987571
 30
0.0
 11
-2.248356600095692
 21
5.445626017294658
 31
0.0
  0
SOLID
  5
2C75
330
2C64
100
AcDbEntity
  8
0
 62
     0
100
AcDbTrace
 10
-2.278356600095691
 20
7.495632685601744
 30
0.0
 11
-2.218356600095691
 21
7.495632685601744
 31
0.0
 12
-2.248356600095691
 22
7.675632685601744
 32
0.0
 13
-2.248356600095691
 23
7.675632685601744
 33
0.0
  0
SOLID
  5
2C76
330
2C64
100
AcDbEntity
  8
0
 62
     0
100
AcDbTrace
 10
-2.278356600095692
 20
3.755619348987571
 30
0.0
 11
-2.218356600095692
 21
3.755619348987571
 31
0.0
 12
-2.248356600095692
 22
3.575619348987571
 32
0.0
 13
-2.248356600095692
 23
3.575619348987571
 33
0.0
  0
MTEXT
  5
2C77
330
2C64
100
AcDbEntity
  8
0
 62
     0
100
AcDbMText
 10
-2.248356600095692
 20
5.625626017294657
 30
0.0
 40
0.18
 41
0.0
 71
     5
 72
     1
  1
\A1;4.1000
1001
ACAD
1000
MTEXTBEGIN
1070
    73
1070
     1
1070
    44
1040
1.0
1070
    74
1070
     0
1000
MTEXTEND
  0
POINT
  5
2C78
330
2C64
100
AcDbEntity
  8
DEFPOINTS
 62
     0
100
AcDbPoint
 10
-0.7657568628627772
 20
7.675632685601743
 30
0.0
  0
POINT
  5
2C79
330
2C64
100
AcDbEntity
  8
DEFPOINTS
 62
     0
100
AcDbPoint
 10
-0.7657568628627772
 20
3.57561934898757
 30
0.0
  0
POINT
  5
2C7A
330
2C64
100
AcDbEntity
  8
DEFPOINTS
 62
     0
100
AcDbPoint
 10
-2.248356600095692
 20
3.575619348987571
 30
0.0
  0
ENDBLK
  5
2C70
330
2C64
100
AcDbEntity
  8
0
100
AcDbBlockEnd
  0
ENDSEC
  0
SECTION
  2
ENTITIES
  0
LINE
  5
245C
330
1E
100
AcDbEntity
  8
0
100
AcDbLine
 10
1.37811818634982
 20
5.747064132452138
 30
0.0
 11
1.364989741467931
 21
5.752315510404893
 31
0.0
  0
LINE
  5
245D
330
1E
100
AcDbEntity
  8
0
100
AcDbLine
 10
1.35317414107423
 20
5.690611819460011
 30
0.0
 11
1.364989741467931
 21
5.690611819460011
 31
0.0
  0
LINE
  5
245E
330
1E
100
AcDbEntity
  8
0
100
AcDbLine
 10
1.173314446192341
 20
5.752315510404893
 30
0.0
 11
1.129990578082105
 21
5.708991642294656
 31
0.0
  0
LINE
  5
245F
330
1E
100
AcDbEntity
  8
0
100
AcDbLine
 10
1.340045696192341
 20
5.747064132452138
 30
0.0
 11
1.333481473751396
 21
5.727371465129302
 31
0.0
  0
LINE
  5
2460
330
1E
100
AcDbEntity
  8
0
100
AcDbLine
 10
1.198258491467931
 20
5.702427419853711
 30
0.0
 11
1.198258491467931
 21
5.690611819460011
 31
0.0
  0
LINE
  5
2461
330
1E
100
AcDbEntity
  8
0
100
AcDbLine
 10
1.471330145011238
 20
5.690611819460011
 30
0.0
 11
1.471330145011238
 21
5.752315510404893
 31
0.0
  0
LINE
  5
2462
330
1E
100
AcDbEntity
  8
0
100
AcDbLine
 10
0.5996014048537584
 20
5.663042085208042
 30
0.0
 11
0.5996014048537584
 21
5.588209949381271
 31
0.0
  0
LINE
  5
2463
330
1E
100
AcDbEntity
  8
0
100
AcDbLine
 10
0.3239040623340728
 20
5.588209949381271
 30
0.0
 11
0.3239040623340728
 21
5.663042085208042
 31
0.0
  0
LINE
  5
2464
330
1E
100
AcDbEntity
  8
0
100
AcDbLine
 10
1.240269515089978
 20
7.245019693475759
 30
0.0
 11
1.240269515089978
 21
7.133427911979696
 31
0.0
  0
LINE
  5
2465
330
1E
100
AcDbEntity
  8
0
100
AcDbLine
 10
0.242507704066357
 20
5.588209949381271
 30
0.0
 11
0.2727031272947036
 21
5.663042085208042
 31
0.0
  0
LINE
  5
2466
330
1E
100
AcDbEntity
  8
0
100
AcDbLine
 10
0.4880096233576952
 20
5.663042085208042
 30
0.0
 11
0.4880096233576952
 21
5.60265123875135
 31
0.0
  0
LINE
  5
2467
330
1E
100
AcDbEntity
  8
0
100
AcDbLine
 10
0.4499371332002147
 20
5.588209949381271
 30
0.0
 11
0.4656912670584826
 21
5.60265123875135
 31
0.0
  0
LINE
  5
2468
330
1E
100
AcDbEntity
  8
0
100
AcDbLine
 10
1.569793481625412
 20
5.727371465129302
 30
0.0
 11
1.539598058397064
 21
5.727371465129302
 31
0.0
  0
LINE
  5
2469
330
1E
100
AcDbEntity
  8
0
100
AcDbLine
 10
1.414877832019111
 20
5.752315510404893
 30
0.0
 11
1.439821877294702
 21
5.752315510404893
 31
0.0
  0
LINE
  5
246A
330
1E
100
AcDbEntity
  8
0
100
AcDbLine
 10
1.403062231625411
 20
5.702427419853711
 30
0.0
 11
1.403062231625411
 21
5.740499910011192
 31
0.0
  0
LINE
  5
246B
330
1E
100
AcDbEntity
  8
0
100
AcDbLine
 10
1.414877832019111
 20
5.727371465129302
 30
0.0
 11
1.439821877294702
 21
5.727371465129302
 31
0.0
  0
LINE
  5
246C
330
1E
100
AcDbEntity
  8
0
100
AcDbLine
 10
1.333481473751396
 20
5.727371465129302
 30
0.0
 11
1.334794318239585
 21
5.715555864735602
 31
0.0
  0
LINE
  5
246D
330
1E
100
AcDbEntity
  8
0
100
AcDbLine
 10
1.451637477688403
 20
5.702427419853711
 30
0.0
 11
1.439821877294702
 21
5.690611819460011
 31
0.0
  0
LINE
  5
246E
330
1E
100
AcDbEntity
  8
0
100
AcDbLine
 10
1.273090627294703
 20
7.069098532058436
 30
0.0
 11
1.257336493436435
 21
7.061221465129302
 31
0.0
  0
LINE
  5
246F
330
1E
100
AcDbEntity
  8
0
100
AcDbLine
 10
0.680997763121475
 20
5.663042085208042
 30
0.0
 11
0.680997763121475
 21
5.588209949381271
 31
0.0
  0
LINE
  5
2470
330
1E
100
AcDbEntity
  8
0
100
AcDbLine
 10
1.257336493436435
 20
7.061221465129302
 30
0.0
 11
1.214012625326199
 21
7.061221465129302
 31
0.0
  0
LINE
  5
2471
330
1E
100
AcDbEntity
  8
0
100
AcDbLine
 10
0.1611113457986404
 20
5.588209949381271
 30
0.0
 11
0.1611113457986404
 21
5.663042085208042
 31
0.0
  0
LINE
  5
2472
330
1E
100
AcDbEntity
  8
0
100
AcDbLine
 10
0.4053004206017903
 20
5.663042085208042
 30
0.0
 11
0.4053004206017903
 21
5.588209949381271
 31
0.0
  0
LINE
  5
2473
330
1E
100
AcDbEntity
  8
0
100
AcDbLine
 10
0.2569489934364348
 20
5.62628243953875
 30
0.0
 11
0.2871444166647814
 21
5.62628243953875
 31
0.0
  0
LINE
  5
2474
330
1E
100
AcDbEntity
  8
0
100
AcDbLine
 10
1.384682408790766
 20
5.727371465129302
 30
0.0
 11
1.37811818634982
 21
5.747064132452138
 31
0.0
  0
LINE
  5
2475
330
1E
100
AcDbEntity
  8
0
100
AcDbLine
 10
1.291470450129348
 20
5.752315510404893
 30
0.0
 11
1.291470450129348
 21
5.690611819460011
 31
0.0
  0
LINE
  5
2476
330
1E
100
AcDbEntity
  8
0
100
AcDbLine
 10
1.439821877294702
 20
5.690611819460011
 30
0.0
 11
1.414877832019111
 21
5.690611819460011
 31
0.0
  0
LINE
  5
2477
330
1E
100
AcDbEntity
  8
0
100
AcDbLine
 10
1.439821877294702
 20
5.727371465129302
 30
0.0
 11
1.451637477688403
 21
5.715555864735602
 31
0.0
  0
LINE
  5
2478
330
1E
100
AcDbEntity
  8
0
100
AcDbLine
 10
1.471330145011238
 20
5.752315510404893
 30
0.0
 11
1.49496134579864
 21
5.690611819460011
 31
0.0
  0
LINE
  5
2479
330
1E
100
AcDbEntity
  8
0
100
AcDbLine
 10
1.340045696192341
 20
5.697176041900956
 30
0.0
 11
1.35317414107423
 21
5.690611819460011
 31
0.0
  0
LINE
  5
247A
330
1E
100
AcDbEntity
  8
0
100
AcDbLine
 10
0.5313334914679313
 20
5.588209949381271
 30
0.0
 11
0.5470876253261992
 21
5.60265123875135
 31
0.0
  0
LINE
  5
247B
330
1E
100
AcDbEntity
  8
0
100
AcDbLine
 10
1.273090627294703
 20
7.091416888357649
 30
0.0
 11
1.273090627294703
 21
7.069098532058436
 31
0.0
  0
LINE
  5
247C
330
1E
100
AcDbEntity
  8
0
100
AcDbLine
 10
1.202197024932498
 20
7.351360097019066
 30
0.0
 11
1.277029160759269
 21
7.245019693475759
 31
0.0
  0
LINE
  5
247D
330
1E
100
AcDbEntity
  8
0
100
AcDbLine
 10
1.214012625326199
 20
7.024461819460011
 30
0.0
 11
1.214012625326199
 21
7.097981110798594
 31
0.0
  0
LINE
  5
247E
330
1E
100
AcDbEntity
  8
0
100
AcDbLine
 10
1.128677733593915
 20
7.245019693475759
 30
0.0
 11
1.165437379263207
 21
7.245019693475759
 31
0.0
  0
LINE
  5
247F
330
1E
100
AcDbEntity
  8
0
100
AcDbLine
 10
0.4053004206017903
 20
5.588209949381271
 30
0.0
 11
0.4499371332002147
 21
5.588209949381271
 31
0.0
  0
LINE
  5
2480
330
1E
100
AcDbEntity
  8
0
100
AcDbLine
 10
1.49496134579864
 20
5.690611819460011
 30
0.0
 11
1.519905391074231
 21
5.752315510404893
 31
0.0
  0
LINE
  5
2481
330
1E
100
AcDbEntity
  8
0
100
AcDbLine
 10
1.111610755247459
 20
5.690611819460011
 30
0.0
 11
1.111610755247459
 21
5.752315510404893
 31
0.0
  0
LINE
  5
2482
330
1E
100
AcDbEntity
  8
0
100
AcDbLine
 10
1.384682408790766
 20
5.715555864735602
 30
0.0
 11
1.384682408790766
 21
5.727371465129302
 31
0.0
  0
LINE
  5
2483
330
1E
100
AcDbEntity
  8
0
100
AcDbLine
 10
1.061722664696278
 20
5.690611819460011
 30
0.0
 11
1.061722664696278
 21
5.752315510404893
 31
0.0
  0
LINE
  5
2484
330
1E
100
AcDbEntity
  8
0
100
AcDbLine
 10
1.286219072176592
 20
5.747064132452138
 30
0.0
 11
1.291470450129348
 21
5.752315510404893
 31
0.0
  0
LINE
  5
2485
330
1E
100
AcDbEntity
  8
0
100
AcDbLine
 10
1.173314446192341
 20
5.690611819460011
 30
0.0
 11
1.14837040091675
 21
5.727371465129302
 31
0.0
  0
LINE
  5
2486
330
1E
100
AcDbEntity
  8
0
100
AcDbLine
 10
1.403062231625411
 20
5.740499910011192
 30
0.0
 11
1.414877832019111
 21
5.752315510404893
 31
0.0
  0
LINE
  5
2487
330
1E
100
AcDbEntity
  8
0
100
AcDbLine
 10
0.2057480583970648
 20
5.663042085208042
 30
0.0
 11
0.2201893477671444
 21
5.655165018278909
 31
0.0
  0
LINE
  5
2488
330
1E
100
AcDbEntity
  8
0
100
AcDbLine
 10
0.5011380682395848
 20
5.588209949381271
 30
0.0
 11
0.5313334914679313
 21
5.588209949381271
 31
0.0
  0
LINE
  5
2489
330
1E
100
AcDbEntity
  8
0
100
AcDbLine
 10
1.258649337924624
 20
7.097981110798594
 30
0.0
 11
1.273090627294703
 21
7.091416888357649
 31
0.0
  0
LINE
  5
248A
330
1E
100
AcDbEntity
  8
0
100
AcDbLine
 10
1.128677733593915
 20
7.245019693475759
 30
0.0
 11
1.202197024932498
 21
7.351360097019066
 31
0.0
  0
LINE
  5
248B
330
1E
100
AcDbEntity
  8
0
100
AcDbLine
 10
0.3829820643025767
 20
5.588209949381271
 30
0.0
 11
0.3829820643025767
 21
5.663042085208042
 31
0.0
  0
LINE
  5
248C
330
1E
100
AcDbEntity
  8
0
100
AcDbLine
 10
1.214012625326199
 20
7.097981110798594
 30
0.0
 11
1.258649337924624
 21
7.097981110798594
 31
0.0
  0
LINE
  5
248D
330
1E
100
AcDbEntity
  8
0
100
AcDbLine
 10
1.240269515089978
 20
7.133427911979696
 30
0.0
 11
1.165437379263207
 21
7.133427911979696
 31
0.0
  0
LINE
  5
248E
330
1E
100
AcDbEntity
  8
0
100
AcDbLine
 10
1.451637477688403
 20
5.715555864735602
 30
0.0
 11
1.451637477688403
 21
5.702427419853711
 31
0.0
  0
LINE
  5
248F
330
1E
100
AcDbEntity
  8
0
100
AcDbLine
 10
1.519905391074231
 20
5.752315510404893
 30
0.0
 11
1.519905391074231
 21
5.690611819460011
 31
0.0
  0
LINE
  5
2490
330
1E
100
AcDbEntity
  8
0
100
AcDbLine
 10
1.539598058397064
 20
5.690611819460011
 30
0.0
 11
1.539598058397064
 21
5.752315510404893
 31
0.0
  0
LINE
  5
2491
330
1E
100
AcDbEntity
  8
0
100
AcDbLine
 10
1.061722664696278
 20
5.752315510404893
 30
0.0
 11
1.111610755247459
 21
5.690611819460011
 31
0.0
  0
LINE
  5
2492
330
1E
100
AcDbEntity
  8
0
100
AcDbLine
 10
1.198258491467931
 20
5.747064132452138
 30
0.0
 11
1.210074091861632
 21
5.752315510404893
 31
0.0
  0
LINE
  5
2493
330
1E
100
AcDbEntity
  8
0
100
AcDbLine
 10
1.129990578082105
 20
5.690611819460011
 30
0.0
 11
1.129990578082105
 21
5.752315510404893
 31
0.0
  0
LINE
  5
2494
330
1E
100
AcDbEntity
  8
0
100
AcDbLine
 10
1.439821877294702
 20
5.752315510404893
 30
0.0
 11
1.451637477688403
 21
5.740499910011192
 31
0.0
  0
LINE
  5
2495
330
1E
100
AcDbEntity
  8
0
100
AcDbLine
 10
1.145744711940372
 20
7.024461819460011
 30
0.0
 11
1.175940135168718
 21
7.024461819460011
 31
0.0
  0
LINE
  5
2496
330
1E
100
AcDbEntity
  8
0
100
AcDbLine
 10
0.2201893477671444
 20
5.655165018278909
 30
0.0
 11
0.2201893477671444
 21
5.632846661979696
 31
0.0
  0
LINE
  5
2497
330
1E
100
AcDbEntity
  8
0
100
AcDbLine
 10
0.4880096233576952
 20
5.60265123875135
 30
0.0
 11
0.5011380682395848
 21
5.588209949381271
 31
0.0
  0
LINE
  5
2498
330
1E
100
AcDbEntity
  8
0
100
AcDbLine
 10
0.2044352139088756
 20
5.62628243953875
 30
0.0
 11
0.1611113457986404
 21
5.62628243953875
 31
0.0
  0
LINE
  5
2499
330
1E
100
AcDbEntity
  8
0
100
AcDbLine
 10
0.4656912670584826
 20
5.647287951349774
 30
0.0
 11
0.4499371332002147
 21
5.663042085208042
 31
0.0
  0
LINE
  5
249A
330
1E
100
AcDbEntity
  8
0
100
AcDbLine
 10
1.191694269026986
 20
7.038903108830089
 30
0.0
 11
1.191694269026986
 21
7.097981110798594
 31
0.0
  0
LINE
  5
249B
330
1E
100
AcDbEntity
  8
0
100
AcDbLine
 10
0.5470876253261992
 20
5.60265123875135
 30
0.0
 11
0.5470876253261992
 21
5.663042085208042
 31
0.0
  0
LINE
  5
249C
330
1E
100
AcDbEntity
  8
0
100
AcDbLine
 10
1.198258491467931
 20
5.690611819460011
 30
0.0
 11
1.248146582019112
 21
5.690611819460011
 31
0.0
  0
LINE
  5
249D
330
1E
100
AcDbEntity
  8
0
100
AcDbLine
 10
1.334794318239585
 20
5.715555864735602
 30
0.0
 11
1.340045696192341
 21
5.697176041900956
 31
0.0
  0
LINE
  5
249E
330
1E
100
AcDbEntity
  8
0
100
AcDbLine
 10
1.210074091861632
 20
5.752315510404893
 30
0.0
 11
1.235018137137222
 21
5.752315510404893
 31
0.0
  0
LINE
  5
249F
330
1E
100
AcDbEntity
  8
0
100
AcDbLine
 10
1.248146582019112
 20
5.733935687570247
 30
0.0
 11
1.198258491467931
 21
5.702427419853711
 31
0.0
  0
LINE
  5
24A0
330
1E
100
AcDbEntity
  8
0
100
AcDbLine
 10
1.37811818634982
 20
5.697176041900956
 30
0.0
 11
1.384682408790766
 21
5.715555864735602
 31
0.0
  0
LINE
  5
24A1
330
1E
100
AcDbEntity
  8
0
100
AcDbLine
 10
1.414877832019111
 20
5.690611819460011
 30
0.0
 11
1.403062231625411
 21
5.702427419853711
 31
0.0
  0
LINE
  5
24A2
330
1E
100
AcDbEntity
  8
0
100
AcDbLine
 10
1.235018137137222
 20
5.752315510404893
 30
0.0
 11
1.248146582019112
 21
5.747064132452138
 31
0.0
  0
LINE
  5
24A3
330
1E
100
AcDbEntity
  8
0
100
AcDbLine
 10
0.2201893477671444
 20
5.632846661979696
 30
0.0
 11
0.2044352139088756
 21
5.62628243953875
 31
0.0
  0
LINE
  5
24A4
330
1E
100
AcDbEntity
  8
0
100
AcDbLine
 10
1.132616267058482
 20
7.038903108830089
 30
0.0
 11
1.145744711940372
 21
7.024461819460011
 31
0.0
  0
LINE
  5
24A5
330
1E
100
AcDbEntity
  8
0
100
AcDbLine
 10
1.175940135168718
 20
7.024461819460011
 30
0.0
 11
1.191694269026986
 21
7.038903108830089
 31
0.0
  0
LINE
  5
24A6
330
1E
100
AcDbEntity
  8
0
100
AcDbLine
 10
0.3239040623340728
 20
5.663042085208042
 30
0.0
 11
0.3829820643025767
 21
5.588209949381271
 31
0.0
  0
LINE
  5
24A7
330
1E
100
AcDbEntity
  8
0
100
AcDbLine
 10
0.2727031272947036
 20
5.663042085208042
 30
0.0
 11
0.301585706034861
 21
5.588209949381271
 31
0.0
  0
LINE
  5
24A8
330
1E
100
AcDbEntity
  8
0
100
AcDbLine
 10
1.165437379263207
 20
7.133427911979696
 30
0.0
 11
1.165437379263207
 21
7.245019693475759
 31
0.0
  0
LINE
  5
24A9
330
1E
100
AcDbEntity
  8
0
100
AcDbLine
 10
0.1611113457986404
 20
5.663042085208042
 30
0.0
 11
0.2057480583970648
 21
5.663042085208042
 31
0.0
  0
LINE
  5
24AA
330
1E
100
AcDbEntity
  8
0
100
AcDbLine
 10
1.364989741467931
 20
5.690611819460011
 30
0.0
 11
1.37811818634982
 21
5.697176041900956
 31
0.0
  0
LINE
  5
24AB
330
1E
100
AcDbEntity
  8
0
100
AcDbLine
 10
1.248146582019112
 20
5.747064132452138
 30
0.0
 11
1.248146582019112
 21
5.733935687570247
 31
0.0
  0
LINE
  5
24AC
330
1E
100
AcDbEntity
  8
0
100
AcDbLine
 10
1.539598058397064
 20
5.752315510404893
 30
0.0
 11
1.588173304460057
 21
5.752315510404893
 31
0.0
  0
LINE
  5
24AD
330
1E
100
AcDbEntity
  8
0
100
AcDbLine
 10
1.403062231625411
 20
5.715555864735602
 30
0.0
 11
1.414877832019111
 21
5.727371465129302
 31
0.0
  0
LINE
  5
24AE
330
1E
100
AcDbEntity
  8
0
100
AcDbLine
 10
1.364989741467931
 20
5.752315510404893
 30
0.0
 11
1.35317414107423
 21
5.752315510404893
 31
0.0
  0
LINE
  5
24AF
330
1E
100
AcDbEntity
  8
0
100
AcDbLine
 10
1.35317414107423
 20
5.752315510404893
 30
0.0
 11
1.340045696192341
 21
5.747064132452138
 31
0.0
  0
LINE
  5
24B0
330
1E
100
AcDbEntity
  8
0
100
AcDbLine
 10
1.283593383200215
 20
5.690611819460011
 30
0.0
 11
1.299347517058482
 21
5.690611819460011
 31
0.0
  0
LINE
  5
24B1
330
1E
100
AcDbEntity
  8
0
100
AcDbLine
 10
0.7111931863498207
 20
5.663042085208042
 30
0.0
 11
0.6508023398931285
 21
5.663042085208042
 31
0.0
  0
LINE
  5
24B2
330
1E
100
AcDbEntity
  8
0
100
AcDbLine
 10
0.4499371332002147
 20
5.663042085208042
 30
0.0
 11
0.4053004206017903
 21
5.663042085208042
 31
0.0
  0
LINE
  5
24B3
330
1E
100
AcDbEntity
  8
0
100
AcDbLine
 10
0.5917243379246245
 20
5.588209949381271
 30
0.0
 11
0.6061656272947032
 21
5.588209949381271
 31
0.0
  0
LINE
  5
24B4
330
1E
100
AcDbEntity
  8
0
100
AcDbLine
 10
0.5917243379246245
 20
5.663042085208042
 30
0.0
 11
0.6061656272947032
 21
5.663042085208042
 31
0.0
  0
LINE
  5
24B5
330
1E
100
AcDbEntity
  8
0
100
AcDbLine
 10
1.240269515089978
 20
7.245019693475759
 30
0.0
 11
1.277029160759269
 21
7.245019693475759
 31
0.0
  0
LINE
  5
24B6
330
1E
100
AcDbEntity
  8
0
100
AcDbLine
 10
0.4656912670584826
 20
5.60265123875135
 30
0.0
 11
0.4656912670584826
 21
5.647287951349774
 31
0.0
  0
LINE
  5
24B7
330
1E
100
AcDbEntity
  8
0
100
AcDbLine
 10
1.132616267058482
 20
7.097981110798594
 30
0.0
 11
1.132616267058482
 21
7.038903108830089
 31
0.0
  0
LINE
  5
24B8
330
1E
100
AcDbEntity
  8
0
100
AcDbLine
 10
0.5917243379246245
 20
6.068711032058436
 30
0.0
 11
0.5917243379246245
 21
6.713317675759223
 31
0.0
  0
LINE
  5
24B9
330
1E
100
AcDbEntity
  8
0
100
AcDbLine
 10
1.172001601704152
 20
6.068711032058436
 30
0.0
 11
1.172001601704152
 21
6.713317675759223
 31
0.0
  0
LINE
  5
24BA
330
1E
100
AcDbEntity
  8
0
100
AcDbLine
 10
0.5917243379246245
 20
4.5366215143419
 30
0.0
 11
0.5917243379246245
 21
5.182541002530877
 31
0.0
  0
LINE
  5
24BB
330
1E
100
AcDbEntity
  8
0
100
AcDbLine
 10
1.172001601704152
 20
4.5366215143419
 30
0.0
 11
1.172001601704152
 21
5.182541002530877
 31
0.0
  0
POLYLINE
  5
24BC
330
1E
100
AcDbEntity
  8
0
100
AcDb2dPolyline
 66
     1
 10
0.0
 20
0.0
 30
0.0
  0
VERTEX
  5
2C81
330
24BC
100
AcDbEntity
  8
0
100
AcDbVertex
100
AcDb2dVertex
 10
0.4433729107592704
 20
7.158371957255286
 30
0.0
  0
VERTEX
  5
2C82
330
24BC
100
AcDbEntity
  8
0
100
AcDbVertex
100
AcDb2dVertex
 10
0.4354958438301364
 20
7.12686368953875
 30
0.0
  0
VERTEX
  5
2C83
330
24BC
100
AcDbEntity
  8
0
100
AcDbVertex
100
AcDb2dVertex
 10
0.4131774875309238
 20
7.104545333239538
 30
0.0
  0
VERTEX
  5
2C84
330
24BC
100
AcDbEntity
  8
0
100
AcDbVertex
100
AcDb2dVertex
 10
0.3816692198143881
 20
7.096668266310405
 30
0.0
  0
SEQEND
  5
2C85
330
24BC
100
AcDbEntity
  8
0
  0
LINE
  5
24C2
330
1E
100
AcDbEntity
  8
0
100
AcDbLine
 10
0.1952453024915526
 20
7.096668266310405
 30
0.0
 11
0.3816692198143876
 21
7.096668266310405
 31
0.0
  0
POLYLINE
  5
24C3
330
1E
100
AcDbEntity
  8
0
100
AcDb2dPolyline
 66
     1
 10
0.0
 20
0.0
 30
0.0
  0
VERTEX
  5
2C86
330
24C3
100
AcDbEntity
  8
0
100
AcDbVertex
100
AcDb2dVertex
 10
0.1322287670584825
 20
7.033651730877333
 30
0.0
  0
VERTEX
  5
2C87
330
24C3
100
AcDbEntity
  8
0
100
AcDbVertex
100
AcDb2dVertex
 10
0.1401058339876164
 20
7.065159998593869
 30
0.0
  0
VERTEX
  5
2C88
330
24C3
100
AcDbEntity
  8
0
100
AcDbVertex
100
AcDb2dVertex
 10
0.1637370347750182
 20
7.087478354893081
 30
0.0
  0
VERTEX
  5
2C89
330
24C3
100
AcDbEntity
  8
0
100
AcDbVertex
100
AcDb2dVertex
 10
0.1952453024915535
 20
7.096668266310405
 30
0.0
  0
SEQEND
  5
2C8A
330
24C3
100
AcDbEntity
  8
0
  0
LINE
  5
24C9
330
1E
100
AcDbEntity
  8
0
100
AcDbLine
 10
0.1322287670584821
 20
7.033651730877333
 30
0.0
 11
0.1322287670584821
 21
4.21760030371198
 31
0.0
  0
POLYLINE
  5
24CA
330
1E
100
AcDbEntity
  8
0
100
AcDb2dPolyline
 66
     1
 10
0.0
 20
0.0
 30
0.0
  0
VERTEX
  5
2C8B
330
24CA
100
AcDbEntity
  8
0
100
AcDbVertex
100
AcDb2dVertex
 10
0.1322287670584825
 20
4.21760030371198
 30
0.0
  0
VERTEX
  5
2C8C
330
24CA
100
AcDbEntity
  8
0
100
AcDbVertex
100
AcDb2dVertex
 10
0.1401058339876164
 20
4.186092035995444
 30
0.0
  0
VERTEX
  5
2C8D
330
24CA
100
AcDbEntity
  8
0
100
AcDbVertex
100
AcDb2dVertex
 10
0.1637370347750182
 20
4.163773679696232
 30
0.0
  0
VERTEX
  5
2C8E
330
24CA
100
AcDbEntity
  8
0
100
AcDbVertex
100
AcDb2dVertex
 10
0.1952453024915535
 20
4.154583768278909
 30
0.0
  0
SEQEND
  5
2C8F
330
24CA
100
AcDbEntity
  8
0
  0
LINE
  5
24D0
330
1E
100
AcDbEntity
  8
0
100
AcDbLine
 10
0.3816692198143876
 20
4.154583768278909
 30
0.0
 11
0.1952453024915526
 21
4.154583768278909
 31
0.0
  0
POLYLINE
  5
24D1
330
1E
100
AcDbEntity
  8
0
100
AcDb2dPolyline
 66
     1
 10
0.0
 20
0.0
 30
0.0
  0
VERTEX
  5
2C90
330
24D1
100
AcDbEntity
  8
0
100
AcDbVertex
100
AcDb2dVertex
 10
0.4433729107592704
 20
4.092880077334027
 30
0.0
  0
VERTEX
  5
2C91
330
24D1
100
AcDbEntity
  8
0
100
AcDbVertex
100
AcDb2dVertex
 10
0.4354958438301364
 20
4.123075500562373
 30
0.0
  0
VERTEX
  5
2C92
330
24D1
100
AcDbEntity
  8
0
100
AcDbVertex
100
AcDb2dVertex
 10
0.4131774875309238
 20
4.146706701349774
 30
0.0
  0
VERTEX
  5
2C93
330
24D1
100
AcDbEntity
  8
0
100
AcDbVertex
100
AcDb2dVertex
 10
0.3816692198143881
 20
4.154583768278909
 30
0.0
  0
SEQEND
  5
2C94
330
24D1
100
AcDbEntity
  8
0
  0
LINE
  5
24D7
330
1E
100
AcDbEntity
  8
0
100
AcDbLine
 10
0.4433729107592699
 20
7.280466494656861
 30
0.0
 11
0.4433729107592699
 21
7.158371957255286
 31
0.0
  0
LINE
  5
24D8
330
1E
100
AcDbEntity
  8
0
100
AcDbLine
 10
0.4446857552474591
 20
7.297533473003317
 30
0.0
 11
0.4433729107592699
 21
7.280466494656861
 31
0.0
  0
LINE
  5
24D9
330
1E
100
AcDbEntity
  8
0
100
AcDbLine
 10
0.4446857552474591
 20
7.297533473003317
 30
0.0
 11
0.4446857552474591
 21
7.301472006467886
 31
0.0
  0
LINE
  5
24DA
330
1E
100
AcDbEntity
  8
0
100
AcDbLine
 10
0.4446857552474591
 20
3.953718561585995
 30
0.0
 11
0.4446857552474591
 21
3.949780028121429
 31
0.0
  0
LINE
  5
24DB
330
1E
100
AcDbEntity
  8
0
100
AcDbLine
 10
0.4446857552474591
 20
3.953718561585995
 30
0.0
 11
0.4433729107592699
 21
3.970785539932452
 31
0.0
  0
LINE
  5
24DC
330
1E
100
AcDbEntity
  8
0
100
AcDbLine
 10
0.4433729107592699
 20
3.970785539932452
 30
0.0
 11
0.4433729107592699
 21
4.092880077334027
 31
0.0
  0
POLYLINE
  5
24DD
330
1E
100
AcDbEntity
  8
0
100
AcDb2dPolyline
 66
     1
 10
0.0
 20
0.0
 30
0.0
  0
VERTEX
  5
2C95
330
24DD
100
AcDbEntity
  8
0
100
AcDbVertex
100
AcDb2dVertex
 10
0.6442381174521837
 20
3.750227665916703
 30
0.0
  0
VERTEX
  5
2C96
330
24DD
100
AcDbEntity
  8
0
100
AcDbVertex
100
AcDb2dVertex
 10
0.6442381174521837
 20
3.748914821428515
 30
0.0
  0
VERTEX
  5
2C97
330
24DD
100
AcDbEntity
  8
0
100
AcDbVertex
100
AcDb2dVertex
 10
0.6429252729639945
 20
3.747601976940326
 30
0.0
  0
VERTEX
  5
2C98
330
24DD
100
AcDbEntity
  8
0
100
AcDbVertex
100
AcDb2dVertex
 10
0.6429252729639945
 20
3.746289132452138
 30
0.0
  0
SEQEND
  5
2C99
330
24DD
100
AcDbEntity
  8
0
  0
LINE
  5
24E3
330
1E
100
AcDbEntity
  8
0
100
AcDbLine
 10
0.6429252729639945
 20
3.746289132452138
 30
0.0
 11
0.6416124284758054
 21
3.731847843082058
 31
0.0
  0
POLYLINE
  5
24E4
330
1E
100
AcDbEntity
  8
0
100
AcDb2dPolyline
 66
     1
 10
0.0
 20
0.0
 30
0.0
  0
VERTEX
  5
2C9A
330
24E4
100
AcDbEntity
  8
0
100
AcDbVertex
100
AcDb2dVertex
 10
0.4249930879246247
 20
3.948467183633239
 30
0.0
  0
VERTEX
  5
2C9B
330
24E4
100
AcDbEntity
  8
0
100
AcDbVertex
100
AcDb2dVertex
 10
0.3816692198143881
 20
3.93533873875135
 30
0.0
  0
VERTEX
  5
2C9C
330
24E4
100
AcDbEntity
  8
0
100
AcDbVertex
100
AcDb2dVertex
 10
0.3422838851687189
 20
3.911707537963947
 30
0.0
  0
VERTEX
  5
2C9D
330
24E4
100
AcDbEntity
  8
0
100
AcDbVertex
100
AcDb2dVertex
 10
0.3107756174521836
 20
3.880199270247413
 30
0.0
  0
VERTEX
  5
2C9E
330
24E4
100
AcDbEntity
  8
0
100
AcDbVertex
100
AcDb2dVertex
 10
0.2871444166647819
 20
3.840813935601744
 30
0.0
  0
VERTEX
  5
2C9F
330
24E4
100
AcDbEntity
  8
0
100
AcDbVertex
100
AcDb2dVertex
 10
0.2727031272947031
 20
3.797490067491507
 30
0.0
  0
VERTEX
  5
2CA0
330
24E4
100
AcDbEntity
  8
0
100
AcDbVertex
100
AcDb2dVertex
 10
0.2700774383183253
 20
3.752853354893082
 30
0.0
  0
VERTEX
  5
2CA1
330
24E4
100
AcDbEntity
  8
0
100
AcDbVertex
100
AcDb2dVertex
 10
0.2779545052474592
 20
3.708216642294656
 30
0.0
  0
VERTEX
  5
2CA2
330
24E4
100
AcDbEntity
  8
0
100
AcDbVertex
100
AcDb2dVertex
 10
0.2963343280821049
 20
3.666205618672609
 30
0.0
  0
VERTEX
  5
2CA3
330
24E4
100
AcDbEntity
  8
0
100
AcDbVertex
100
AcDb2dVertex
 10
0.3252169068222623
 20
3.630758817491507
 30
0.0
  0
VERTEX
  5
2CA4
330
24E4
100
AcDbEntity
  8
0
100
AcDbVertex
100
AcDb2dVertex
 10
0.3606637080033646
 20
3.603189083239539
 30
0.0
  0
VERTEX
  5
2CA5
330
24E4
100
AcDbEntity
  8
0
100
AcDbVertex
100
AcDb2dVertex
 10
0.4013618871372229
 20
3.583496415916704
 30
0.0
  0
VERTEX
  5
2CA6
330
24E4
100
AcDbEntity
  8
0
100
AcDbVertex
100
AcDb2dVertex
 10
0.4459985997356482
 20
3.57561934898757
 30
0.0
  0
VERTEX
  5
2CA7
330
24E4
100
AcDbEntity
  8
0
100
AcDbVertex
100
AcDb2dVertex
 10
0.4919481568222622
 20
3.578245037963948
 30
0.0
  0
VERTEX
  5
2CA8
330
24E4
100
AcDbEntity
  8
0
100
AcDbVertex
100
AcDb2dVertex
 10
0.5352720249324983
 20
3.592686327334027
 30
0.0
  0
VERTEX
  5
2CA9
330
24E4
100
AcDbEntity
  8
0
100
AcDbVertex
100
AcDb2dVertex
 10
0.5733445150899788
 20
3.616317528121428
 30
0.0
  0
VERTEX
  5
2CAA
330
24E4
100
AcDbEntity
  8
0
100
AcDbVertex
100
AcDb2dVertex
 10
0.6061656272947032
 20
3.649138640326153
 30
0.0
  0
VERTEX
  5
2CAB
330
24E4
100
AcDbEntity
  8
0
100
AcDbVertex
100
AcDb2dVertex
 10
0.6284839835939158
 20
3.688523974971823
 30
0.0
  0
VERTEX
  5
2CAC
330
24E4
100
AcDbEntity
  8
0
100
AcDbVertex
100
AcDb2dVertex
 10
0.6416124284758054
 20
3.731847843082058
 30
0.0
  0
SEQEND
  5
2CAD
330
24E4
100
AcDbEntity
  8
0
  0
LINE
  5
24F9
330
1E
100
AcDbEntity
  8
0
100
AcDbLine
 10
0.4249930879246247
 20
3.948467183633239
 30
0.0
 11
0.4407472217828925
 21
3.949780028121429
 31
0.0
  0
POLYLINE
  5
24FA
330
1E
100
AcDbEntity
  8
0
100
AcDb2dPolyline
 66
     1
 10
0.0
 20
0.0
 30
0.0
  0
VERTEX
  5
2CAE
330
24FA
100
AcDbEntity
  8
0
100
AcDbVertex
100
AcDb2dVertex
 10
0.4407472217828921
 20
3.949780028121429
 30
0.0
  0
VERTEX
  5
2CAF
330
24FA
100
AcDbEntity
  8
0
100
AcDbVertex
100
AcDb2dVertex
 10
0.4420600662710812
 20
3.949780028121429
 30
0.0
  0
VERTEX
  5
2CB0
330
24FA
100
AcDbEntity
  8
0
100
AcDbVertex
100
AcDb2dVertex
 10
0.4433729107592704
 20
3.949780028121429
 30
0.0
  0
VERTEX
  5
2CB1
330
24FA
100
AcDbEntity
  8
0
100
AcDbVertex
100
AcDb2dVertex
 10
0.4446857552474591
 20
3.949780028121429
 30
0.0
  0
SEQEND
  5
2CB2
330
24FA
100
AcDbEntity
  8
0
  0
LINE
  5
2500
330
1E
100
AcDbEntity
  8
0
100
AcDbLine
 10
0.4446857552474591
 20
3.949780028121429
 30
0.0
 11
0.4446857552474591
 21
3.949780028121429
 31
0.0
  0
LINE
  5
2501
330
1E
100
AcDbEntity
  8
0
100
AcDbLine
 10
0.4446857552474591
 20
7.301472006467886
 30
0.0
 11
0.4446857552474591
 21
7.301472006467886
 31
0.0
  0
POLYLINE
  5
2502
330
1E
100
AcDbEntity
  8
0
100
AcDb2dPolyline
 66
     1
 10
0.0
 20
0.0
 30
0.0
  0
VERTEX
  5
2CB3
330
2502
100
AcDbEntity
  8
0
100
AcDbVertex
100
AcDb2dVertex
 10
0.4407472217828921
 20
7.301472006467885
 30
0.0
  0
VERTEX
  5
2CB4
330
2502
100
AcDbEntity
  8
0
100
AcDbVertex
100
AcDb2dVertex
 10
0.4420600662710812
 20
7.301472006467885
 30
0.0
  0
VERTEX
  5
2CB5
330
2502
100
AcDbEntity
  8
0
100
AcDbVertex
100
AcDb2dVertex
 10
0.4433729107592704
 20
7.301472006467885
 30
0.0
  0
VERTEX
  5
2CB6
330
2502
100
AcDbEntity
  8
0
100
AcDbVertex
100
AcDb2dVertex
 10
0.4446857552474591
 20
7.301472006467885
 30
0.0
  0
SEQEND
  5
2CB7
330
2502
100
AcDbEntity
  8
0
  0
LINE
  5
2508
330
1E
100
AcDbEntity
  8
0
100
AcDbLine
 10
0.4249930879246247
 20
7.302784850956074
 30
0.0
 11
0.4407472217828925
 21
7.301472006467886
 31
0.0
  0
POLYLINE
  5
2509
330
1E
100
AcDbEntity
  8
0
100
AcDb2dPolyline
 66
     1
 10
0.0
 20
0.0
 30
0.0
  0
VERTEX
  5
2CB8
330
2509
100
AcDbEntity
  8
0
100
AcDbVertex
100
AcDb2dVertex
 10
0.4249930879246247
 20
7.302784850956073
 30
0.0
  0
VERTEX
  5
2CB9
330
2509
100
AcDbEntity
  8
0
100
AcDbVertex
100
AcDb2dVertex
 10
0.3816692198143881
 20
7.315913295837964
 30
0.0
  0
VERTEX
  5
2CBA
330
2509
100
AcDbEntity
  8
0
100
AcDbVertex
100
AcDb2dVertex
 10
0.3422838851687189
 20
7.339544496625365
 30
0.0
  0
VERTEX
  5
2CBB
330
2509
100
AcDbEntity
  8
0
100
AcDbVertex
100
AcDb2dVertex
 10
0.3107756174521836
 20
7.371052764341901
 30
0.0
  0
VERTEX
  5
2CBC
330
2509
100
AcDbEntity
  8
0
100
AcDbVertex
100
AcDb2dVertex
 10
0.2871444166647819
 20
7.41043809898757
 30
0.0
  0
VERTEX
  5
2CBD
330
2509
100
AcDbEntity
  8
0
100
AcDbVertex
100
AcDb2dVertex
 10
0.2727031272947031
 20
7.453761967097807
 30
0.0
  0
VERTEX
  5
2CBE
330
2509
100
AcDbEntity
  8
0
100
AcDbVertex
100
AcDb2dVertex
 10
0.2700774383183253
 20
7.498398679696232
 30
0.0
  0
VERTEX
  5
2CBF
330
2509
100
AcDbEntity
  8
0
100
AcDbVertex
100
AcDb2dVertex
 10
0.2779545052474592
 20
7.543035392294656
 30
0.0
  0
VERTEX
  5
2CC0
330
2509
100
AcDbEntity
  8
0
100
AcDbVertex
100
AcDb2dVertex
 10
0.2963343280821049
 20
7.585046415916703
 30
0.0
  0
VERTEX
  5
2CC1
330
2509
100
AcDbEntity
  8
0
100
AcDbVertex
100
AcDb2dVertex
 10
0.3252169068222623
 20
7.620493217097807
 30
0.0
  0
VERTEX
  5
2CC2
330
2509
100
AcDbEntity
  8
0
100
AcDbVertex
100
AcDb2dVertex
 10
0.3606637080033646
 20
7.648062951349774
 30
0.0
  0
VERTEX
  5
2CC3
330
2509
100
AcDbEntity
  8
0
100
AcDbVertex
100
AcDb2dVertex
 10
0.4013618871372229
 20
7.667755618672608
 30
0.0
  0
VERTEX
  5
2CC4
330
2509
100
AcDbEntity
  8
0
100
AcDbVertex
100
AcDb2dVertex
 10
0.4459985997356482
 20
7.675632685601743
 30
0.0
  0
VERTEX
  5
2CC5
330
2509
100
AcDbEntity
  8
0
100
AcDbVertex
100
AcDb2dVertex
 10
0.4919481568222622
 20
7.671694152137177
 30
0.0
  0
VERTEX
  5
2CC6
330
2509
100
AcDbEntity
  8
0
100
AcDbVertex
100
AcDb2dVertex
 10
0.5352720249324983
 20
7.658565707255285
 30
0.0
  0
VERTEX
  5
2CC7
330
2509
100
AcDbEntity
  8
0
100
AcDbVertex
100
AcDb2dVertex
 10
0.5733445150899788
 20
7.634934506467884
 30
0.0
  0
VERTEX
  5
2CC8
330
2509
100
AcDbEntity
  8
0
100
AcDbVertex
100
AcDb2dVertex
 10
0.6061656272947032
 20
7.60211339426316
 30
0.0
  0
VERTEX
  5
2CC9
330
2509
100
AcDbEntity
  8
0
100
AcDbVertex
100
AcDb2dVertex
 10
0.6284839835939158
 20
7.562728059617492
 30
0.0
  0
VERTEX
  5
2CCA
330
2509
100
AcDbEntity
  8
0
100
AcDbVertex
100
AcDb2dVertex
 10
0.6416124284758054
 20
7.519404191507255
 30
0.0
  0
SEQEND
  5
2CCB
330
2509
100
AcDbEntity
  8
0
  0
LINE
  5
251E
330
1E
100
AcDbEntity
  8
0
100
AcDbLine
 10
0.6429252729639945
 20
7.504962902137176
 30
0.0
 11
0.6416124284758054
 21
7.519404191507256
 31
0.0
  0
POLYLINE
  5
251F
330
1E
100
AcDbEntity
  8
0
100
AcDb2dPolyline
 66
     1
 10
0.0
 20
0.0
 30
0.0
  0
VERTEX
  5
2CCC
330
251F
100
AcDbEntity
  8
0
100
AcDbVertex
100
AcDb2dVertex
 10
0.6442381174521837
 20
7.501024368672609
 30
0.0
  0
VERTEX
  5
2CCD
330
251F
100
AcDbEntity
  8
0
100
AcDbVertex
100
AcDb2dVertex
 10
0.6429252729639945
 20
7.502337213160799
 30
0.0
  0
VERTEX
  5
2CCE
330
251F
100
AcDbEntity
  8
0
100
AcDbVertex
100
AcDb2dVertex
 10
0.6429252729639945
 20
7.503650057648987
 30
0.0
  0
VERTEX
  5
2CCF
330
251F
100
AcDbEntity
  8
0
100
AcDbVertex
100
AcDb2dVertex
 10
0.6429252729639945
 20
7.504962902137177
 30
0.0
  0
SEQEND
  5
2CD0
330
251F
100
AcDbEntity
  8
0
  0
LINE
  5
2525
330
1E
100
AcDbEntity
  8
0
100
AcDbLine
 10
0.6481766509167502
 20
7.501024368672609
 30
0.0
 11
0.6442381174521837
 21
7.501024368672609
 31
0.0
  0
LINE
  5
2526
330
1E
100
AcDbEntity
  8
0
100
AcDbLine
 10
0.6481766509167502
 20
7.501024368672609
 30
0.0
 11
0.6652436292632072
 21
7.501024368672609
 31
0.0
  0
LINE
  5
2527
330
1E
100
AcDbEntity
  8
0
100
AcDbLine
 10
0.6652436292632072
 20
7.501024368672609
 30
0.0
 11
1.099795154853757
 21
7.501024368672609
 31
0.0
  0
LINE
  5
2528
330
1E
100
AcDbEntity
  8
0
100
AcDbLine
 10
1.099795154853757
 20
7.501024368672609
 30
0.0
 11
1.116862133200214
 21
7.501024368672609
 31
0.0
  0
LINE
  5
2529
330
1E
100
AcDbEntity
  8
0
100
AcDbLine
 10
1.120800666664781
 20
7.501024368672609
 30
0.0
 11
1.116862133200214
 21
7.501024368672609
 31
0.0
  0
LINE
  5
252A
330
1E
100
AcDbEntity
  8
0
100
AcDbLine
 10
0.8372262572159634
 20
7.109796711192294
 30
0.0
 11
0.8372262572159634
 21
7.109796711192294
 31
0.0
  0
POLYLINE
  5
252B
330
1E
100
AcDbEntity
  8
0
100
AcDb2dPolyline
 66
     1
 10
0.0
 20
0.0
 30
0.0
  0
VERTEX
  5
2CD1
330
252B
100
AcDbEntity
  8
0
100
AcDbVertex
100
AcDb2dVertex
 10
0.837226257215963
 20
7.423566543869459
 30
0.0
  0
VERTEX
  5
2CD2
330
252B
100
AcDbEntity
  8
0
100
AcDbVertex
100
AcDb2dVertex
 10
0.7965280780821047
 20
7.418315165916703
 30
0.0
  0
VERTEX
  5
2CD3
330
252B
100
AcDbEntity
  8
0
100
AcDbVertex
100
AcDb2dVertex
 10
0.7597684324128134
 20
7.402561032058435
 30
0.0
  0
VERTEX
  5
2CD4
330
252B
100
AcDbEntity
  8
0
100
AcDbVertex
100
AcDb2dVertex
 10
0.726947320208089
 20
7.377616986782846
 30
0.0
  0
VERTEX
  5
2CD5
330
252B
100
AcDbEntity
  8
0
100
AcDbVertex
100
AcDb2dVertex
 10
0.7020032749324985
 20
7.34479587457812
 30
0.0
  0
VERTEX
  5
2CD6
330
252B
100
AcDbEntity
  8
0
100
AcDbVertex
100
AcDb2dVertex
 10
0.6862491410742307
 20
7.306723384420641
 30
0.0
  0
VERTEX
  5
2CD7
330
252B
100
AcDbEntity
  8
0
100
AcDbVertex
100
AcDb2dVertex
 10
0.6809977631214746
 20
7.266025205286783
 30
0.0
  0
VERTEX
  5
2CD8
330
252B
100
AcDbEntity
  8
0
100
AcDbVertex
100
AcDb2dVertex
 10
0.6862491410742307
 20
7.226639870641114
 30
0.0
  0
VERTEX
  5
2CD9
330
252B
100
AcDbEntity
  8
0
100
AcDbVertex
100
AcDb2dVertex
 10
0.7020032749324985
 20
7.188567380483633
 30
0.0
  0
VERTEX
  5
2CDA
330
252B
100
AcDbEntity
  8
0
100
AcDbVertex
100
AcDb2dVertex
 10
0.726947320208089
 20
7.155746268278909
 30
0.0
  0
VERTEX
  5
2CDB
330
252B
100
AcDbEntity
  8
0
100
AcDbVertex
100
AcDb2dVertex
 10
0.7597684324128134
 20
7.130802223003319
 30
0.0
  0
VERTEX
  5
2CDC
330
252B
100
AcDbEntity
  8
0
100
AcDbVertex
100
AcDb2dVertex
 10
0.7965280780821047
 20
7.115048089145051
 30
0.0
  0
VERTEX
  5
2CDD
330
252B
100
AcDbEntity
  8
0
100
AcDbVertex
100
AcDb2dVertex
 10
0.837226257215963
 20
7.109796711192294
 30
0.0
  0
SEQEND
  5
2CDE
330
252B
100
AcDbEntity
  8
0
  0
LINE
  5
253A
330
1E
100
AcDbEntity
  8
0
100
AcDbLine
 10
0.8372262572159634
 20
7.423566543869459
 30
0.0
 11
0.8372262572159634
 21
7.423566543869459
 31
0.0
  0
POLYLINE
  5
253B
330
1E
100
AcDbEntity
  8
0
100
AcDb2dPolyline
 66
     1
 10
0.0
 20
0.0
 30
0.0
  0
VERTEX
  5
2CDF
330
253B
100
AcDbEntity
  8
0
100
AcDbVertex
100
AcDb2dVertex
 10
0.837226257215963
 20
7.423566543869459
 30
0.0
  0
VERTEX
  5
2CE0
330
253B
100
AcDbEntity
  8
0
100
AcDbVertex
100
AcDb2dVertex
 10
0.7965280780821047
 20
7.418315165916703
 30
0.0
  0
VERTEX
  5
2CE1
330
253B
100
AcDbEntity
  8
0
100
AcDbVertex
100
AcDb2dVertex
 10
0.7584555879246247
 20
7.402561032058435
 30
0.0
  0
VERTEX
  5
2CE2
330
253B
100
AcDbEntity
  8
0
100
AcDbVertex
100
AcDb2dVertex
 10
0.7256344757199003
 20
7.377616986782846
 30
0.0
  0
VERTEX
  5
2CE3
330
253B
100
AcDbEntity
  8
0
100
AcDbVertex
100
AcDb2dVertex
 10
0.7006904304443094
 20
7.34479587457812
 30
0.0
  0
VERTEX
  5
2CE4
330
253B
100
AcDbEntity
  8
0
100
AcDbVertex
100
AcDb2dVertex
 10
0.6849362965860415
 20
7.306723384420641
 30
0.0
  0
VERTEX
  5
2CE5
330
253B
100
AcDbEntity
  8
0
100
AcDbVertex
100
AcDb2dVertex
 10
0.6796849186332859
 20
7.266025205286783
 30
0.0
  0
VERTEX
  5
2CE6
330
253B
100
AcDbEntity
  8
0
100
AcDbVertex
100
AcDb2dVertex
 10
0.6849362965860415
 20
7.226639870641114
 30
0.0
  0
VERTEX
  5
2CE7
330
253B
100
AcDbEntity
  8
0
100
AcDbVertex
100
AcDb2dVertex
 10
0.7006904304443094
 20
7.188567380483633
 30
0.0
  0
VERTEX
  5
2CE8
330
253B
100
AcDbEntity
  8
0
100
AcDbVertex
100
AcDb2dVertex
 10
0.7256344757199003
 20
7.155746268278909
 30
0.0
  0
VERTEX
  5
2CE9
330
253B
100
AcDbEntity
  8
0
100
AcDbVertex
100
AcDb2dVertex
 10
0.7584555879246247
 20
7.130802223003319
 30
0.0
  0
VERTEX
  5
2CEA
330
253B
100
AcDbEntity
  8
0
100
AcDbVertex
100
AcDb2dVertex
 10
0.7965280780821047
 20
7.115048089145051
 30
0.0
  0
VERTEX
  5
2CEB
330
253B
100
AcDbEntity
  8
0
100
AcDbVertex
100
AcDb2dVertex
 10
0.837226257215963
 20
7.109796711192294
 30
0.0
  0
SEQEND
  5
2CEC
330
253B
100
AcDbEntity
  8
0
  0
LINE
  5
254A
330
1E
100
AcDbEntity
  8
0
100
AcDbLine
 10
0.9278125269010022
 20
7.109796711192294
 30
0.0
 11
0.9278125269010022
 21
7.109796711192294
 31
0.0
  0
LINE
  5
254B
330
1E
100
AcDbEntity
  8
0
100
AcDbLine
 10
0.8372262572159634
 20
7.109796711192294
 30
0.0
 11
0.9278125269010022
 21
7.109796711192294
 31
0.0
  0
LINE
  5
254C
330
1E
100
AcDbEntity
  8
0
100
AcDbLine
 10
0.8372262572159634
 20
7.109796711192294
 30
0.0
 11
0.9278125269010022
 21
7.109796711192294
 31
0.0
  0
LINE
  5
254D
330
1E
100
AcDbEntity
  8
0
100
AcDbLine
 10
0.9278125269010022
 20
7.423566543869459
 30
0.0
 11
0.9278125269010022
 21
7.423566543869459
 31
0.0
  0
POLYLINE
  5
254E
330
1E
100
AcDbEntity
  8
0
100
AcDb2dPolyline
 66
     1
 10
0.0
 20
0.0
 30
0.0
  0
VERTEX
  5
2CED
330
254E
100
AcDbEntity
  8
0
100
AcDbVertex
100
AcDb2dVertex
 10
0.9278125269010022
 20
7.423566543869459
 30
0.0
  0
VERTEX
  5
2CEE
330
254E
100
AcDbEntity
  8
0
100
AcDbVertex
100
AcDb2dVertex
 10
0.9671978615466713
 20
7.418315165916703
 30
0.0
  0
VERTEX
  5
2CEF
330
254E
100
AcDbEntity
  8
0
100
AcDbVertex
100
AcDb2dVertex
 10
1.005270351704151
 20
7.402561032058435
 30
0.0
  0
VERTEX
  5
2CF0
330
254E
100
AcDbEntity
  8
0
100
AcDbVertex
100
AcDb2dVertex
 10
1.038091463908876
 20
7.377616986782846
 30
0.0
  0
VERTEX
  5
2CF1
330
254E
100
AcDbEntity
  8
0
100
AcDbVertex
100
AcDb2dVertex
 10
1.063035509184466
 20
7.34479587457812
 30
0.0
  0
VERTEX
  5
2CF2
330
254E
100
AcDbEntity
  8
0
100
AcDbVertex
100
AcDb2dVertex
 10
1.078789643042734
 20
7.306723384420641
 30
0.0
  0
VERTEX
  5
2CF3
330
254E
100
AcDbEntity
  8
0
100
AcDbVertex
100
AcDb2dVertex
 10
1.08404102099549
 20
7.266025205286783
 30
0.0
  0
VERTEX
  5
2CF4
330
254E
100
AcDbEntity
  8
0
100
AcDbVertex
100
AcDb2dVertex
 10
1.078789643042734
 20
7.226639870641114
 30
0.0
  0
VERTEX
  5
2CF5
330
254E
100
AcDbEntity
  8
0
100
AcDbVertex
100
AcDb2dVertex
 10
1.063035509184466
 20
7.188567380483633
 30
0.0
  0
VERTEX
  5
2CF6
330
254E
100
AcDbEntity
  8
0
100
AcDbVertex
100
AcDb2dVertex
 10
1.038091463908876
 20
7.155746268278909
 30
0.0
  0
VERTEX
  5
2CF7
330
254E
100
AcDbEntity
  8
0
100
AcDbVertex
100
AcDb2dVertex
 10
1.005270351704151
 20
7.130802223003319
 30
0.0
  0
VERTEX
  5
2CF8
330
254E
100
AcDbEntity
  8
0
100
AcDbVertex
100
AcDb2dVertex
 10
0.9671978615466713
 20
7.115048089145051
 30
0.0
  0
VERTEX
  5
2CF9
330
254E
100
AcDbEntity
  8
0
100
AcDbVertex
100
AcDb2dVertex
 10
0.9278125269010022
 20
7.109796711192294
 30
0.0
  0
SEQEND
  5
2CFA
330
254E
100
AcDbEntity
  8
0
  0
POLYLINE
  5
255D
330
1E
100
AcDbEntity
  8
0
100
AcDb2dPolyline
 66
     1
 10
0.0
 20
0.0
 30
0.0
  0
VERTEX
  5
2CFB
330
255D
100
AcDbEntity
  8
0
100
AcDbVertex
100
AcDb2dVertex
 10
0.9278125269010022
 20
7.423566543869459
 30
0.0
  0
VERTEX
  5
2CFC
330
255D
100
AcDbEntity
  8
0
100
AcDbVertex
100
AcDb2dVertex
 10
0.9685107060348606
 20
7.418315165916703
 30
0.0
  0
VERTEX
  5
2CFD
330
255D
100
AcDbEntity
  8
0
100
AcDbVertex
100
AcDb2dVertex
 10
1.006583196192341
 20
7.402561032058435
 30
0.0
  0
VERTEX
  5
2CFE
330
255D
100
AcDbEntity
  8
0
100
AcDbVertex
100
AcDb2dVertex
 10
1.038091463908876
 20
7.377616986782846
 30
0.0
  0
VERTEX
  5
2CFF
330
255D
100
AcDbEntity
  8
0
100
AcDbVertex
100
AcDb2dVertex
 10
1.063035509184466
 20
7.34479587457812
 30
0.0
  0
VERTEX
  5
2D00
330
255D
100
AcDbEntity
  8
0
100
AcDbVertex
100
AcDb2dVertex
 10
1.078789643042734
 20
7.306723384420641
 30
0.0
  0
VERTEX
  5
2D01
330
255D
100
AcDbEntity
  8
0
100
AcDbVertex
100
AcDb2dVertex
 10
1.08404102099549
 20
7.266025205286783
 30
0.0
  0
VERTEX
  5
2D02
330
255D
100
AcDbEntity
  8
0
100
AcDbVertex
100
AcDb2dVertex
 10
1.078789643042734
 20
7.226639870641114
 30
0.0
  0
VERTEX
  5
2D03
330
255D
100
AcDbEntity
  8
0
100
AcDbVertex
100
AcDb2dVertex
 10
1.063035509184466
 20
7.188567380483633
 30
0.0
  0
VERTEX
  5
2D04
330
255D
100
AcDbEntity
  8
0
100
AcDbVertex
100
AcDb2dVertex
 10
1.038091463908876
 20
7.155746268278909
 30
0.0
  0
VERTEX
  5
2D05
330
255D
100
AcDbEntity
  8
0
100
AcDbVertex
100
AcDb2dVertex
 10
1.006583196192341
 20
7.130802223003319
 30
0.0
  0
VERTEX
  5
2D06
330
255D
100
AcDbEntity
  8
0
100
AcDbVertex
100
AcDb2dVertex
 10
0.9685107060348606
 20
7.115048089145051
 30
0.0
  0
VERTEX
  5
2D07
330
255D
100
AcDbEntity
  8
0
100
AcDbVertex
100
AcDb2dVertex
 10
0.9278125269010022
 20
7.109796711192294
 30
0.0
  0
SEQEND
  5
2D08
330
255D
100
AcDbEntity
  8
0
  0
LINE
  5
256C
330
1E
100
AcDbEntity
  8
0
100
AcDbLine
 10
0.8372262572159634
 20
7.423566543869459
 30
0.0
 11
0.9278125269010022
 21
7.423566543869459
 31
0.0
  0
LINE
  5
256D
330
1E
100
AcDbEntity
  8
0
100
AcDbLine
 10
0.9278125269010022
 20
7.423566543869459
 30
0.0
 11
0.8372262572159634
 21
7.423566543869459
 31
0.0
  0
POLYLINE
  5
256E
330
1E
100
AcDbEntity
  8
0
100
AcDb2dPolyline
 66
     1
 10
0.0
 20
0.0
 30
0.0
  0
VERTEX
  5
2D09
330
256E
100
AcDbEntity
  8
0
100
AcDbVertex
100
AcDb2dVertex
 10
0.8779244363498213
 20
5.768069644263161
 30
0.0
  0
VERTEX
  5
2D0A
330
256E
100
AcDbEntity
  8
0
100
AcDbVertex
100
AcDb2dVertex
 10
0.837226257215963
 20
5.761505421822215
 30
0.0
  0
VERTEX
  5
2D0B
330
256E
100
AcDbEntity
  8
0
100
AcDbVertex
100
AcDb2dVertex
 10
0.8017794560348608
 20
5.74312559898757
 30
0.0
  0
VERTEX
  5
2D0C
330
256E
100
AcDbEntity
  8
0
100
AcDbVertex
100
AcDb2dVertex
 10
0.7715840328065143
 20
5.716868709223791
 30
0.0
  0
VERTEX
  5
2D0D
330
256E
100
AcDbEntity
  8
0
100
AcDbVertex
100
AcDb2dVertex
 10
0.7505785209954908
 20
5.682734752530877
 30
0.0
  0
VERTEX
  5
2D0E
330
256E
100
AcDbEntity
  8
0
100
AcDbVertex
100
AcDb2dVertex
 10
0.740075765089979
 20
5.643349417885208
 30
0.0
  0
VERTEX
  5
2D0F
330
256E
100
AcDbEntity
  8
0
100
AcDbVertex
100
AcDb2dVertex
 10
0.7413886095781677
 20
5.60265123875135
 30
0.0
  0
VERTEX
  5
2D10
330
256E
100
AcDbEntity
  8
0
100
AcDbVertex
100
AcDb2dVertex
 10
0.7532042099718686
 20
5.56457874859387
 30
0.0
  0
VERTEX
  5
2D11
330
256E
100
AcDbEntity
  8
0
100
AcDbVertex
100
AcDb2dVertex
 10
0.7755225662710812
 20
5.530444791900956
 30
0.0
  0
VERTEX
  5
2D12
330
256E
100
AcDbEntity
  8
0
100
AcDbVertex
100
AcDb2dVertex
 10
0.8057179894994273
 20
5.504187902137176
 30
0.0
  0
VERTEX
  5
2D13
330
256E
100
AcDbEntity
  8
0
100
AcDbVertex
100
AcDb2dVertex
 10
0.842477635168719
 20
5.488433768278909
 30
0.0
  0
VERTEX
  5
2D14
330
256E
100
AcDbEntity
  8
0
100
AcDbVertex
100
AcDb2dVertex
 10
0.8818629698143883
 20
5.481869545837964
 30
0.0
  0
VERTEX
  5
2D15
330
256E
100
AcDbEntity
  8
0
100
AcDbVertex
100
AcDb2dVertex
 10
0.922561148948246
 20
5.488433768278909
 30
0.0
  0
VERTEX
  5
2D16
330
256E
100
AcDbEntity
  8
0
100
AcDbVertex
100
AcDb2dVertex
 10
0.9593207946175375
 20
5.504187902137176
 30
0.0
  0
VERTEX
  5
2D17
330
256E
100
AcDbEntity
  8
0
100
AcDbVertex
100
AcDb2dVertex
 10
0.9895162178458839
 20
5.530444791900956
 30
0.0
  0
VERTEX
  5
2D18
330
256E
100
AcDbEntity
  8
0
100
AcDbVertex
100
AcDb2dVertex
 10
1.011834574145097
 20
5.56457874859387
 30
0.0
  0
VERTEX
  5
2D19
330
256E
100
AcDbEntity
  8
0
100
AcDbVertex
100
AcDb2dVertex
 10
1.023650174538797
 20
5.60265123875135
 30
0.0
  0
VERTEX
  5
2D1A
330
256E
100
AcDbEntity
  8
0
100
AcDbVertex
100
AcDb2dVertex
 10
1.024963019026986
 20
5.643349417885208
 30
0.0
  0
VERTEX
  5
2D1B
330
256E
100
AcDbEntity
  8
0
100
AcDbVertex
100
AcDb2dVertex
 10
1.014460263121474
 20
5.682734752530877
 30
0.0
  0
VERTEX
  5
2D1C
330
256E
100
AcDbEntity
  8
0
100
AcDbVertex
100
AcDb2dVertex
 10
0.9934547513104515
 20
5.716868709223791
 30
0.0
  0
VERTEX
  5
2D1D
330
256E
100
AcDbEntity
  8
0
100
AcDbVertex
100
AcDb2dVertex
 10
0.9632593280821048
 20
5.74312559898757
 30
0.0
  0
VERTEX
  5
2D1E
330
256E
100
AcDbEntity
  8
0
100
AcDbVertex
100
AcDb2dVertex
 10
0.9264996824128136
 20
5.761505421822215
 30
0.0
  0
VERTEX
  5
2D1F
330
256E
100
AcDbEntity
  8
0
100
AcDbVertex
100
AcDb2dVertex
 10
0.8871143477671443
 20
5.768069644263161
 30
0.0
  0
SEQEND
  5
2D20
330
256E
100
AcDbEntity
  8
0
  0
POLYLINE
  5
2587
330
1E
100
AcDbEntity
  8
0
100
AcDb2dPolyline
 66
     1
 10
0.0
 20
0.0
 30
0.0
  0
VERTEX
  5
2D21
330
2587
100
AcDbEntity
  8
0
100
AcDbVertex
100
AcDb2dVertex
 10
0.8818629698143883
 20
5.547511770247412
 30
0.0
  0
VERTEX
  5
2D22
330
2587
100
AcDbEntity
  8
0
100
AcDbVertex
100
AcDb2dVertex
 10
0.8529803910742309
 20
5.554075992688358
 30
0.0
  0
VERTEX
  5
2D23
330
2587
100
AcDbEntity
  8
0
100
AcDbVertex
100
AcDb2dVertex
 10
0.8267235013104512
 20
5.569830126546626
 30
0.0
  0
VERTEX
  5
2D24
330
2587
100
AcDbEntity
  8
0
100
AcDbVertex
100
AcDb2dVertex
 10
0.8096565229639942
 20
5.596087016310405
 30
0.0
  0
VERTEX
  5
2D25
330
2587
100
AcDbEntity
  8
0
100
AcDbVertex
100
AcDb2dVertex
 10
0.8044051450112386
 20
5.624969595050562
 30
0.0
  0
VERTEX
  5
2D26
330
2587
100
AcDbEntity
  8
0
100
AcDbVertex
100
AcDb2dVertex
 10
0.8096565229639942
 20
5.655165018278909
 30
0.0
  0
VERTEX
  5
2D27
330
2587
100
AcDbEntity
  8
0
100
AcDbVertex
100
AcDb2dVertex
 10
0.8267235013104512
 20
5.6801090635545
 30
0.0
  0
VERTEX
  5
2D28
330
2587
100
AcDbEntity
  8
0
100
AcDbVertex
100
AcDb2dVertex
 10
0.8529803910742309
 20
5.697176041900956
 30
0.0
  0
VERTEX
  5
2D29
330
2587
100
AcDbEntity
  8
0
100
AcDbVertex
100
AcDb2dVertex
 10
0.8818629698143883
 20
5.703740264341901
 30
0.0
  0
VERTEX
  5
2D2A
330
2587
100
AcDbEntity
  8
0
100
AcDbVertex
100
AcDb2dVertex
 10
0.9120583930427343
 20
5.697176041900956
 30
0.0
  0
VERTEX
  5
2D2B
330
2587
100
AcDbEntity
  8
0
100
AcDbVertex
100
AcDb2dVertex
 10
0.9370024383183253
 20
5.6801090635545
 30
0.0
  0
VERTEX
  5
2D2C
330
2587
100
AcDbEntity
  8
0
100
AcDbVertex
100
AcDb2dVertex
 10
0.9540694166647814
 20
5.655165018278909
 30
0.0
  0
VERTEX
  5
2D2D
330
2587
100
AcDbEntity
  8
0
100
AcDbVertex
100
AcDb2dVertex
 10
0.9606336391057265
 20
5.624969595050562
 30
0.0
  0
VERTEX
  5
2D2E
330
2587
100
AcDbEntity
  8
0
100
AcDbVertex
100
AcDb2dVertex
 10
0.9540694166647814
 20
5.596087016310405
 30
0.0
  0
VERTEX
  5
2D2F
330
2587
100
AcDbEntity
  8
0
100
AcDbVertex
100
AcDb2dVertex
 10
0.9370024383183253
 20
5.569830126546626
 30
0.0
  0
VERTEX
  5
2D30
330
2587
100
AcDbEntity
  8
0
100
AcDbVertex
100
AcDb2dVertex
 10
0.9120583930427343
 20
5.554075992688358
 30
0.0
  0
VERTEX
  5
2D31
330
2587
100
AcDbEntity
  8
0
100
AcDbVertex
100
AcDb2dVertex
 10
0.8818629698143883
 20
5.547511770247412
 30
0.0
  0
SEQEND
  5
2D32
330
2587
100
AcDbEntity
  8
0
  0
POLYLINE
  5
259A
330
1E
100
AcDbEntity
  8
0
100
AcDb2dPolyline
 66
     1
 10
0.0
 20
0.0
 30
0.0
  0
VERTEX
  5
2D33
330
259A
100
AcDbEntity
  8
0
100
AcDbVertex
100
AcDb2dVertex
 10
1.120800666664781
 20
7.501024368672609
 30
0.0
  0
VERTEX
  5
2D34
330
259A
100
AcDbEntity
  8
0
100
AcDbVertex
100
AcDb2dVertex
 10
1.120800666664781
 20
7.502337213160799
 30
0.0
  0
VERTEX
  5
2D35
330
259A
100
AcDbEntity
  8
0
100
AcDbVertex
100
AcDb2dVertex
 10
1.120800666664781
 20
7.503650057648987
 30
0.0
  0
VERTEX
  5
2D36
330
259A
100
AcDbEntity
  8
0
100
AcDbVertex
100
AcDb2dVertex
 10
1.120800666664781
 20
7.504962902137177
 30
0.0
  0
SEQEND
  5
2D37
330
259A
100
AcDbEntity
  8
0
  0
LINE
  5
25A0
330
1E
100
AcDbEntity
  8
0
100
AcDbLine
 10
1.120800666664781
 20
7.504962902137176
 30
0.0
 11
1.122113511152971
 21
7.519404191507256
 31
0.0
  0
POLYLINE
  5
25A1
330
1E
100
AcDbEntity
  8
0
100
AcDb2dPolyline
 66
     1
 10
0.0
 20
0.0
 30
0.0
  0
VERTEX
  5
2D38
330
25A1
100
AcDbEntity
  8
0
100
AcDbVertex
100
AcDb2dVertex
 10
1.338732851704151
 20
7.302784850956073
 30
0.0
  0
VERTEX
  5
2D39
330
25A1
100
AcDbEntity
  8
0
100
AcDbVertex
100
AcDb2dVertex
 10
1.383369564302577
 20
7.315913295837964
 30
0.0
  0
VERTEX
  5
2D3A
330
25A1
100
AcDbEntity
  8
0
100
AcDbVertex
100
AcDb2dVertex
 10
1.421442054460057
 20
7.339544496625365
 30
0.0
  0
VERTEX
  5
2D3B
330
25A1
100
AcDbEntity
  8
0
100
AcDbVertex
100
AcDb2dVertex
 10
1.454263166664781
 20
7.371052764341901
 30
0.0
  0
VERTEX
  5
2D3C
330
25A1
100
AcDbEntity
  8
0
100
AcDbVertex
100
AcDb2dVertex
 10
1.477894367452182
 20
7.41043809898757
 30
0.0
  0
VERTEX
  5
2D3D
330
25A1
100
AcDbEntity
  8
0
100
AcDbVertex
100
AcDb2dVertex
 10
1.492335656822262
 20
7.453761967097807
 30
0.0
  0
VERTEX
  5
2D3E
330
25A1
100
AcDbEntity
  8
0
100
AcDbVertex
100
AcDb2dVertex
 10
1.494961345798639
 20
7.498398679696232
 30
0.0
  0
VERTEX
  5
2D3F
330
25A1
100
AcDbEntity
  8
0
100
AcDbVertex
100
AcDb2dVertex
 10
1.487084278869506
 20
7.543035392294656
 30
0.0
  0
VERTEX
  5
2D40
330
25A1
100
AcDbEntity
  8
0
100
AcDbVertex
100
AcDb2dVertex
 10
1.46870445603486
 20
7.585046415916703
 30
0.0
  0
VERTEX
  5
2D41
330
25A1
100
AcDbEntity
  8
0
100
AcDbVertex
100
AcDb2dVertex
 10
1.439821877294703
 20
7.620493217097807
 30
0.0
  0
VERTEX
  5
2D42
330
25A1
100
AcDbEntity
  8
0
100
AcDbVertex
100
AcDb2dVertex
 10
1.4043750761136
 20
7.648062951349774
 30
0.0
  0
VERTEX
  5
2D43
330
25A1
100
AcDbEntity
  8
0
100
AcDbVertex
100
AcDb2dVertex
 10
1.362364052491553
 20
7.667755618672608
 30
0.0
  0
VERTEX
  5
2D44
330
25A1
100
AcDbEntity
  8
0
100
AcDbVertex
100
AcDb2dVertex
 10
1.317727339893128
 20
7.675632685601743
 30
0.0
  0
VERTEX
  5
2D45
330
25A1
100
AcDbEntity
  8
0
100
AcDbVertex
100
AcDb2dVertex
 10
1.273090627294703
 20
7.671694152137177
 30
0.0
  0
VERTEX
  5
2D46
330
25A1
100
AcDbEntity
  8
0
100
AcDbVertex
100
AcDb2dVertex
 10
1.229766759184466
 20
7.658565707255285
 30
0.0
  0
VERTEX
  5
2D47
330
25A1
100
AcDbEntity
  8
0
100
AcDbVertex
100
AcDb2dVertex
 10
1.190381424538797
 20
7.634934506467884
 30
0.0
  0
VERTEX
  5
2D48
330
25A1
100
AcDbEntity
  8
0
100
AcDbVertex
100
AcDb2dVertex
 10
1.158873156822262
 20
7.60211339426316
 30
0.0
  0
VERTEX
  5
2D49
330
25A1
100
AcDbEntity
  8
0
100
AcDbVertex
100
AcDb2dVertex
 10
1.13524195603486
 20
7.562728059617492
 30
0.0
  0
VERTEX
  5
2D4A
330
25A1
100
AcDbEntity
  8
0
100
AcDbVertex
100
AcDb2dVertex
 10
1.12211351115297
 20
7.519404191507255
 30
0.0
  0
SEQEND
  5
2D4B
330
25A1
100
AcDbEntity
  8
0
  0
LINE
  5
25B6
330
1E
100
AcDbEntity
  8
0
100
AcDbLine
 10
1.338732851704151
 20
7.302784850956074
 30
0.0
 11
1.324291562334073
 21
7.301472006467886
 31
0.0
  0
POLYLINE
  5
25B7
330
1E
100
AcDbEntity
  8
0
100
AcDb2dPolyline
 66
     1
 10
0.0
 20
0.0
 30
0.0
  0
VERTEX
  5
2D4C
330
25B7
100
AcDbEntity
  8
0
100
AcDbVertex
100
AcDb2dVertex
 10
1.324291562334073
 20
7.301472006467885
 30
0.0
  0
VERTEX
  5
2D4D
330
25B7
100
AcDbEntity
  8
0
100
AcDbVertex
100
AcDb2dVertex
 10
1.322978717845884
 20
7.301472006467885
 30
0.0
  0
VERTEX
  5
2D4E
330
25B7
100
AcDbEntity
  8
0
100
AcDbVertex
100
AcDb2dVertex
 10
1.320353028869506
 20
7.301472006467885
 30
0.0
  0
SEQEND
  5
2D4F
330
25B7
100
AcDbEntity
  8
0
  0
LINE
  5
25BC
330
1E
100
AcDbEntity
  8
0
100
AcDbLine
 10
1.320353028869505
 20
7.301472006467886
 30
0.0
 11
1.320353028869505
 21
7.301472006467886
 31
0.0
  0
POLYLINE
  5
25BD
330
1E
100
AcDbEntity
  8
0
100
AcDb2dPolyline
 66
     1
 10
0.0
 20
0.0
 30
0.0
  0
VERTEX
  5
2D50
330
25BD
100
AcDbEntity
  8
0
100
AcDbVertex
100
AcDb2dVertex
 10
1.383369564302577
 20
4.154583768278909
 30
0.0
  0
VERTEX
  5
2D51
330
25BD
100
AcDbEntity
  8
0
100
AcDbVertex
100
AcDb2dVertex
 10
1.351861296586041
 20
4.146706701349774
 30
0.0
  0
VERTEX
  5
2D52
330
25BD
100
AcDbEntity
  8
0
100
AcDbVertex
100
AcDb2dVertex
 10
1.329542940286829
 20
4.123075500562373
 30
0.0
  0
VERTEX
  5
2D53
330
25BD
100
AcDbEntity
  8
0
100
AcDbVertex
100
AcDb2dVertex
 10
1.320353028869506
 20
4.092880077334027
 30
0.0
  0
SEQEND
  5
2D54
330
25BD
100
AcDbEntity
  8
0
  0
LINE
  5
25C3
330
1E
100
AcDbEntity
  8
0
100
AcDbLine
 10
1.569793481625412
 20
4.154583768278909
 30
0.0
 11
1.383369564302577
 21
4.154583768278909
 31
0.0
  0
POLYLINE
  5
25C4
330
1E
100
AcDbEntity
  8
0
100
AcDb2dPolyline
 66
     1
 10
0.0
 20
0.0
 30
0.0
  0
VERTEX
  5
2D55
330
25C4
100
AcDbEntity
  8
0
100
AcDbVertex
100
AcDb2dVertex
 10
1.569793481625411
 20
4.154583768278909
 30
0.0
  0
VERTEX
  5
2D56
330
25C4
100
AcDbEntity
  8
0
100
AcDbVertex
100
AcDb2dVertex
 10
1.601301749341947
 20
4.163773679696232
 30
0.0
  0
VERTEX
  5
2D57
330
25C4
100
AcDbEntity
  8
0
100
AcDbVertex
100
AcDb2dVertex
 10
1.624932950129348
 20
4.186092035995444
 30
0.0
  0
VERTEX
  5
2D58
330
25C4
100
AcDbEntity
  8
0
100
AcDbVertex
100
AcDb2dVertex
 10
1.632810017058482
 20
4.21760030371198
 30
0.0
  0
SEQEND
  5
2D59
330
25C4
100
AcDbEntity
  8
0
  0
LINE
  5
25CA
330
1E
100
AcDbEntity
  8
0
100
AcDbLine
 10
1.632810017058482
 20
7.033651730877333
 30
0.0
 11
1.632810017058482
 21
4.21760030371198
 31
0.0
  0
POLYLINE
  5
25CB
330
1E
100
AcDbEntity
  8
0
100
AcDb2dPolyline
 66
     1
 10
0.0
 20
0.0
 30
0.0
  0
VERTEX
  5
2D5A
330
25CB
100
AcDbEntity
  8
0
100
AcDbVertex
100
AcDb2dVertex
 10
1.569793481625411
 20
7.096668266310405
 30
0.0
  0
VERTEX
  5
2D5B
330
25CB
100
AcDbEntity
  8
0
100
AcDbVertex
100
AcDb2dVertex
 10
1.601301749341947
 20
7.087478354893081
 30
0.0
  0
VERTEX
  5
2D5C
330
25CB
100
AcDbEntity
  8
0
100
AcDbVertex
100
AcDb2dVertex
 10
1.624932950129348
 20
7.065159998593869
 30
0.0
  0
VERTEX
  5
2D5D
330
25CB
100
AcDbEntity
  8
0
100
AcDbVertex
100
AcDb2dVertex
 10
1.632810017058482
 20
7.033651730877333
 30
0.0
  0
SEQEND
  5
2D5E
330
25CB
100
AcDbEntity
  8
0
  0
LINE
  5
25D1
330
1E
100
AcDbEntity
  8
0
100
AcDbLine
 10
1.383369564302577
 20
7.096668266310405
 30
0.0
 11
1.569793481625412
 21
7.096668266310405
 31
0.0
  0
POLYLINE
  5
25D2
330
1E
100
AcDbEntity
  8
0
100
AcDb2dPolyline
 66
     1
 10
0.0
 20
0.0
 30
0.0
  0
VERTEX
  5
2D5F
330
25D2
100
AcDbEntity
  8
0
100
AcDbVertex
100
AcDb2dVertex
 10
1.383369564302577
 20
7.096668266310405
 30
0.0
  0
VERTEX
  5
2D60
330
25D2
100
AcDbEntity
  8
0
100
AcDbVertex
100
AcDb2dVertex
 10
1.351861296586041
 20
7.104545333239538
 30
0.0
  0
VERTEX
  5
2D61
330
25D2
100
AcDbEntity
  8
0
100
AcDbVertex
100
AcDb2dVertex
 10
1.329542940286829
 20
7.12686368953875
 30
0.0
  0
VERTEX
  5
2D62
330
25D2
100
AcDbEntity
  8
0
100
AcDbVertex
100
AcDb2dVertex
 10
1.320353028869506
 20
7.158371957255286
 30
0.0
  0
SEQEND
  5
2D63
330
25D2
100
AcDbEntity
  8
0
  0
LINE
  5
25D8
330
1E
100
AcDbEntity
  8
0
100
AcDbLine
 10
1.320353028869505
 20
7.301472006467886
 30
0.0
 11
1.320353028869505
 21
7.297533473003317
 31
0.0
  0
LINE
  5
25D9
330
1E
100
AcDbEntity
  8
0
100
AcDbLine
 10
1.320353028869505
 20
7.280466494656861
 30
0.0
 11
1.320353028869505
 21
7.297533473003317
 31
0.0
  0
LINE
  5
25DA
330
1E
100
AcDbEntity
  8
0
100
AcDbLine
 10
1.320353028869505
 20
7.158371957255286
 30
0.0
 11
1.320353028869505
 21
7.280466494656861
 31
0.0
  0
LINE
  5
25DB
330
1E
100
AcDbEntity
  8
0
100
AcDbLine
 10
1.320353028869505
 20
4.092880077334027
 30
0.0
 11
1.320353028869505
 21
3.970785539932452
 31
0.0
  0
LINE
  5
25DC
330
1E
100
AcDbEntity
  8
0
100
AcDbLine
 10
1.320353028869505
 20
3.970785539932452
 30
0.0
 11
1.320353028869505
 21
3.953718561585995
 31
0.0
  0
LINE
  5
25DD
330
1E
100
AcDbEntity
  8
0
100
AcDbLine
 10
1.320353028869505
 20
3.949780028121429
 30
0.0
 11
1.320353028869505
 21
3.953718561585995
 31
0.0
  0
LINE
  5
25DE
330
1E
100
AcDbEntity
  8
0
100
AcDbLine
 10
1.320353028869505
 20
3.949780028121429
 30
0.0
 11
1.320353028869505
 21
3.949780028121429
 31
0.0
  0
POLYLINE
  5
25DF
330
1E
100
AcDbEntity
  8
0
100
AcDb2dPolyline
 66
     1
 10
0.0
 20
0.0
 30
0.0
  0
VERTEX
  5
2D64
330
25DF
100
AcDbEntity
  8
0
100
AcDbVertex
100
AcDb2dVertex
 10
1.324291562334073
 20
3.949780028121429
 30
0.0
  0
VERTEX
  5
2D65
330
25DF
100
AcDbEntity
  8
0
100
AcDbVertex
100
AcDb2dVertex
 10
1.322978717845884
 20
3.949780028121429
 30
0.0
  0
VERTEX
  5
2D66
330
25DF
100
AcDbEntity
  8
0
100
AcDbVertex
100
AcDb2dVertex
 10
1.320353028869506
 20
3.949780028121429
 30
0.0
  0
SEQEND
  5
2D67
330
25DF
100
AcDbEntity
  8
0
  0
LINE
  5
25E4
330
1E
100
AcDbEntity
  8
0
100
AcDbLine
 10
1.338732851704151
 20
3.948467183633239
 30
0.0
 11
1.324291562334073
 21
3.949780028121429
 31
0.0
  0
POLYLINE
  5
25E5
330
1E
100
AcDbEntity
  8
0
100
AcDb2dPolyline
 66
     1
 10
0.0
 20
0.0
 30
0.0
  0
VERTEX
  5
2D68
330
25E5
100
AcDbEntity
  8
0
100
AcDbVertex
100
AcDb2dVertex
 10
1.338732851704151
 20
3.948467183633239
 30
0.0
  0
VERTEX
  5
2D69
330
25E5
100
AcDbEntity
  8
0
100
AcDbVertex
100
AcDb2dVertex
 10
1.383369564302577
 20
3.93533873875135
 30
0.0
  0
VERTEX
  5
2D6A
330
25E5
100
AcDbEntity
  8
0
100
AcDbVertex
100
AcDb2dVertex
 10
1.421442054460057
 20
3.911707537963947
 30
0.0
  0
VERTEX
  5
2D6B
330
25E5
100
AcDbEntity
  8
0
100
AcDbVertex
100
AcDb2dVertex
 10
1.454263166664781
 20
3.880199270247413
 30
0.0
  0
VERTEX
  5
2D6C
330
25E5
100
AcDbEntity
  8
0
100
AcDbVertex
100
AcDb2dVertex
 10
1.477894367452182
 20
3.840813935601744
 30
0.0
  0
VERTEX
  5
2D6D
330
25E5
100
AcDbEntity
  8
0
100
AcDbVertex
100
AcDb2dVertex
 10
1.492335656822262
 20
3.797490067491507
 30
0.0
  0
VERTEX
  5
2D6E
330
25E5
100
AcDbEntity
  8
0
100
AcDbVertex
100
AcDb2dVertex
 10
1.494961345798639
 20
3.752853354893082
 30
0.0
  0
VERTEX
  5
2D6F
330
25E5
100
AcDbEntity
  8
0
100
AcDbVertex
100
AcDb2dVertex
 10
1.487084278869506
 20
3.708216642294656
 30
0.0
  0
VERTEX
  5
2D70
330
25E5
100
AcDbEntity
  8
0
100
AcDbVertex
100
AcDb2dVertex
 10
1.46870445603486
 20
3.666205618672609
 30
0.0
  0
VERTEX
  5
2D71
330
25E5
100
AcDbEntity
  8
0
100
AcDbVertex
100
AcDb2dVertex
 10
1.439821877294703
 20
3.630758817491507
 30
0.0
  0
VERTEX
  5
2D72
330
25E5
100
AcDbEntity
  8
0
100
AcDbVertex
100
AcDb2dVertex
 10
1.4043750761136
 20
3.603189083239539
 30
0.0
  0
VERTEX
  5
2D73
330
25E5
100
AcDbEntity
  8
0
100
AcDbVertex
100
AcDb2dVertex
 10
1.362364052491553
 20
3.583496415916704
 30
0.0
  0
VERTEX
  5
2D74
330
25E5
100
AcDbEntity
  8
0
100
AcDbVertex
100
AcDb2dVertex
 10
1.317727339893128
 20
3.57561934898757
 30
0.0
  0
VERTEX
  5
2D75
330
25E5
100
AcDbEntity
  8
0
100
AcDbVertex
100
AcDb2dVertex
 10
1.273090627294703
 20
3.578245037963948
 30
0.0
  0
VERTEX
  5
2D76
330
25E5
100
AcDbEntity
  8
0
100
AcDbVertex
100
AcDb2dVertex
 10
1.229766759184466
 20
3.592686327334027
 30
0.0
  0
VERTEX
  5
2D77
330
25E5
100
AcDbEntity
  8
0
100
AcDbVertex
100
AcDb2dVertex
 10
1.190381424538797
 20
3.616317528121428
 30
0.0
  0
VERTEX
  5
2D78
330
25E5
100
AcDbEntity
  8
0
100
AcDbVertex
100
AcDb2dVertex
 10
1.158873156822262
 20
3.649138640326153
 30
0.0
  0
VERTEX
  5
2D79
330
25E5
100
AcDbEntity
  8
0
100
AcDbVertex
100
AcDb2dVertex
 10
1.13524195603486
 20
3.688523974971823
 30
0.0
  0
VERTEX
  5
2D7A
330
25E5
100
AcDbEntity
  8
0
100
AcDbVertex
100
AcDb2dVertex
 10
1.12211351115297
 20
3.731847843082058
 30
0.0
  0
SEQEND
  5
2D7B
330
25E5
100
AcDbEntity
  8
0
  0
LINE
  5
25FA
330
1E
100
AcDbEntity
  8
0
100
AcDbLine
 10
1.120800666664781
 20
3.746289132452138
 30
0.0
 11
1.122113511152971
 21
3.731847843082058
 31
0.0
  0
POLYLINE
  5
25FB
330
1E
100
AcDbEntity
  8
0
100
AcDb2dPolyline
 66
     1
 10
0.0
 20
0.0
 30
0.0
  0
VERTEX
  5
2D7C
330
25FB
100
AcDbEntity
  8
0
100
AcDbVertex
100
AcDb2dVertex
 10
1.120800666664781
 20
3.750227665916703
 30
0.0
  0
VERTEX
  5
2D7D
330
25FB
100
AcDbEntity
  8
0
100
AcDbVertex
100
AcDb2dVertex
 10
1.120800666664781
 20
3.748914821428515
 30
0.0
  0
VERTEX
  5
2D7E
330
25FB
100
AcDbEntity
  8
0
100
AcDbVertex
100
AcDb2dVertex
 10
1.120800666664781
 20
3.747601976940326
 30
0.0
  0
VERTEX
  5
2D7F
330
25FB
100
AcDbEntity
  8
0
100
AcDbVertex
100
AcDb2dVertex
 10
1.120800666664781
 20
3.746289132452138
 30
0.0
  0
SEQEND
  5
2D80
330
25FB
100
AcDbEntity
  8
0
  0
LINE
  5
2601
330
1E
100
AcDbEntity
  8
0
100
AcDbLine
 10
0.8372262572159634
 20
4.140142478908829
 30
0.0
 11
0.8372262572159634
 21
4.141455323397019
 31
0.0
  0
LINE
  5
2602
330
1E
100
AcDbEntity
  8
0
100
AcDbLine
 10
0.8372262572159634
 20
4.140142478908829
 30
0.0
 11
0.9278125269010022
 21
4.140142478908829
 31
0.0
  0
LINE
  5
2603
330
1E
100
AcDbEntity
  8
0
100
AcDbLine
 10
0.9278125269010022
 20
4.140142478908829
 30
0.0
 11
0.9278125269010022
 21
4.141455323397019
 31
0.0
  0
LINE
  5
2604
330
1E
100
AcDbEntity
  8
0
100
AcDbLine
 10
0.8372262572159634
 20
4.141455323397019
 30
0.0
 11
0.9278125269010022
 21
4.141455323397019
 31
0.0
  0
LINE
  5
2605
330
1E
100
AcDbEntity
  8
0
100
AcDbLine
 10
0.8372262572159634
 20
3.827685490719853
 30
0.0
 11
0.8372262572159634
 21
3.827685490719853
 31
0.0
  0
POLYLINE
  5
2606
330
1E
100
AcDbEntity
  8
0
100
AcDb2dPolyline
 66
     1
 10
0.0
 20
0.0
 30
0.0
  0
VERTEX
  5
2D81
330
2606
100
AcDbEntity
  8
0
100
AcDbVertex
100
AcDb2dVertex
 10
0.837226257215963
 20
3.827685490719853
 30
0.0
  0
VERTEX
  5
2D82
330
2606
100
AcDbEntity
  8
0
100
AcDbVertex
100
AcDb2dVertex
 10
0.7965280780821047
 20
3.832936868672609
 30
0.0
  0
VERTEX
  5
2D83
330
2606
100
AcDbEntity
  8
0
100
AcDbVertex
100
AcDb2dVertex
 10
0.7597684324128134
 20
3.848691002530877
 30
0.0
  0
VERTEX
  5
2D84
330
2606
100
AcDbEntity
  8
0
100
AcDbVertex
100
AcDb2dVertex
 10
0.726947320208089
 20
3.873635047806468
 30
0.0
  0
VERTEX
  5
2D85
330
2606
100
AcDbEntity
  8
0
100
AcDbVertex
100
AcDb2dVertex
 10
0.7020032749324985
 20
3.906456160011192
 30
0.0
  0
VERTEX
  5
2D86
330
2606
100
AcDbEntity
  8
0
100
AcDbVertex
100
AcDb2dVertex
 10
0.6862491410742307
 20
3.944528650168673
 30
0.0
  0
VERTEX
  5
2D87
330
2606
100
AcDbEntity
  8
0
100
AcDbVertex
100
AcDb2dVertex
 10
0.6809977631214746
 20
3.983913984814342
 30
0.0
  0
VERTEX
  5
2D88
330
2606
100
AcDbEntity
  8
0
100
AcDbVertex
100
AcDb2dVertex
 10
0.6862491410742307
 20
4.0246121639482
 30
0.0
  0
VERTEX
  5
2D89
330
2606
100
AcDbEntity
  8
0
100
AcDbVertex
100
AcDb2dVertex
 10
0.7020032749324985
 20
4.06268465410568
 30
0.0
  0
VERTEX
  5
2D8A
330
2606
100
AcDbEntity
  8
0
100
AcDbVertex
100
AcDb2dVertex
 10
0.726947320208089
 20
4.095505766310405
 30
0.0
  0
VERTEX
  5
2D8B
330
2606
100
AcDbEntity
  8
0
100
AcDbVertex
100
AcDb2dVertex
 10
0.7597684324128134
 20
4.119136967097806
 30
0.0
  0
VERTEX
  5
2D8C
330
2606
100
AcDbEntity
  8
0
100
AcDbVertex
100
AcDb2dVertex
 10
0.7965280780821047
 20
4.134891100956074
 30
0.0
  0
VERTEX
  5
2D8D
330
2606
100
AcDbEntity
  8
0
100
AcDbVertex
100
AcDb2dVertex
 10
0.837226257215963
 20
4.140142478908829
 30
0.0
  0
SEQEND
  5
2D8E
330
2606
100
AcDbEntity
  8
0
  0
POLYLINE
  5
2615
330
1E
100
AcDbEntity
  8
0
100
AcDb2dPolyline
 66
     1
 10
0.0
 20
0.0
 30
0.0
  0
VERTEX
  5
2D8F
330
2615
100
AcDbEntity
  8
0
100
AcDbVertex
100
AcDb2dVertex
 10
0.837226257215963
 20
3.827685490719853
 30
0.0
  0
VERTEX
  5
2D90
330
2615
100
AcDbEntity
  8
0
100
AcDbVertex
100
AcDb2dVertex
 10
0.7965280780821047
 20
3.832936868672609
 30
0.0
  0
VERTEX
  5
2D91
330
2615
100
AcDbEntity
  8
0
100
AcDbVertex
100
AcDb2dVertex
 10
0.7584555879246247
 20
3.848691002530877
 30
0.0
  0
VERTEX
  5
2D92
330
2615
100
AcDbEntity
  8
0
100
AcDbVertex
100
AcDb2dVertex
 10
0.7256344757199003
 20
3.873635047806468
 30
0.0
  0
VERTEX
  5
2D93
330
2615
100
AcDbEntity
  8
0
100
AcDbVertex
100
AcDb2dVertex
 10
0.7006904304443094
 20
3.906456160011192
 30
0.0
  0
VERTEX
  5
2D94
330
2615
100
AcDbEntity
  8
0
100
AcDbVertex
100
AcDb2dVertex
 10
0.6849362965860415
 20
3.943215805680483
 30
0.0
  0
VERTEX
  5
2D95
330
2615
100
AcDbEntity
  8
0
100
AcDbVertex
100
AcDb2dVertex
 10
0.6796849186332859
 20
3.983913984814342
 30
0.0
  0
VERTEX
  5
2D96
330
2615
100
AcDbEntity
  8
0
100
AcDbVertex
100
AcDb2dVertex
 10
0.6849362965860415
 20
4.0246121639482
 30
0.0
  0
VERTEX
  5
2D97
330
2615
100
AcDbEntity
  8
0
100
AcDbVertex
100
AcDb2dVertex
 10
0.7006904304443094
 20
4.06268465410568
 30
0.0
  0
VERTEX
  5
2D98
330
2615
100
AcDbEntity
  8
0
100
AcDbVertex
100
AcDb2dVertex
 10
0.7256344757199003
 20
4.095505766310405
 30
0.0
  0
VERTEX
  5
2D99
330
2615
100
AcDbEntity
  8
0
100
AcDbVertex
100
AcDb2dVertex
 10
0.7584555879246247
 20
4.120449811585995
 30
0.0
  0
VERTEX
  5
2D9A
330
2615
100
AcDbEntity
  8
0
100
AcDbVertex
100
AcDb2dVertex
 10
0.7965280780821047
 20
4.136203945444262
 30
0.0
  0
VERTEX
  5
2D9B
330
2615
100
AcDbEntity
  8
0
100
AcDbVertex
100
AcDb2dVertex
 10
0.837226257215963
 20
4.141455323397019
 30
0.0
  0
SEQEND
  5
2D9C
330
2615
100
AcDbEntity
  8
0
  0
LINE
  5
2624
330
1E
100
AcDbEntity
  8
0
100
AcDbLine
 10
0.9278125269010022
 20
3.827685490719853
 30
0.0
 11
0.9278125269010022
 21
3.827685490719853
 31
0.0
  0
LINE
  5
2625
330
1E
100
AcDbEntity
  8
0
100
AcDbLine
 10
0.8372262572159634
 20
3.827685490719853
 30
0.0
 11
0.9278125269010022
 21
3.827685490719853
 31
0.0
  0
LINE
  5
2626
330
1E
100
AcDbEntity
  8
0
100
AcDbLine
 10
0.9278125269010022
 20
3.827685490719853
 30
0.0
 11
0.8372262572159634
 21
3.827685490719853
 31
0.0
  0
POLYLINE
  5
2627
330
1E
100
AcDbEntity
  8
0
100
AcDb2dPolyline
 66
     1
 10
0.0
 20
0.0
 30
0.0
  0
VERTEX
  5
2D9D
330
2627
100
AcDbEntity
  8
0
100
AcDbVertex
100
AcDb2dVertex
 10
0.9278125269010022
 20
3.827685490719853
 30
0.0
  0
VERTEX
  5
2D9E
330
2627
100
AcDbEntity
  8
0
100
AcDbVertex
100
AcDb2dVertex
 10
0.9671978615466713
 20
3.832936868672609
 30
0.0
  0
VERTEX
  5
2D9F
330
2627
100
AcDbEntity
  8
0
100
AcDbVertex
100
AcDb2dVertex
 10
1.005270351704151
 20
3.848691002530877
 30
0.0
  0
VERTEX
  5
2DA0
330
2627
100
AcDbEntity
  8
0
100
AcDbVertex
100
AcDb2dVertex
 10
1.038091463908876
 20
3.873635047806468
 30
0.0
  0
VERTEX
  5
2DA1
330
2627
100
AcDbEntity
  8
0
100
AcDbVertex
100
AcDb2dVertex
 10
1.063035509184466
 20
3.906456160011192
 30
0.0
  0
VERTEX
  5
2DA2
330
2627
100
AcDbEntity
  8
0
100
AcDbVertex
100
AcDb2dVertex
 10
1.078789643042734
 20
3.944528650168673
 30
0.0
  0
VERTEX
  5
2DA3
330
2627
100
AcDbEntity
  8
0
100
AcDbVertex
100
AcDb2dVertex
 10
1.08404102099549
 20
3.983913984814342
 30
0.0
  0
VERTEX
  5
2DA4
330
2627
100
AcDbEntity
  8
0
100
AcDbVertex
100
AcDb2dVertex
 10
1.078789643042734
 20
4.0246121639482
 30
0.0
  0
VERTEX
  5
2DA5
330
2627
100
AcDbEntity
  8
0
100
AcDbVertex
100
AcDb2dVertex
 10
1.063035509184466
 20
4.06268465410568
 30
0.0
  0
VERTEX
  5
2DA6
330
2627
100
AcDbEntity
  8
0
100
AcDbVertex
100
AcDb2dVertex
 10
1.038091463908876
 20
4.095505766310405
 30
0.0
  0
VERTEX
  5
2DA7
330
2627
100
AcDbEntity
  8
0
100
AcDbVertex
100
AcDb2dVertex
 10
1.005270351704151
 20
4.119136967097806
 30
0.0
  0
VERTEX
  5
2DA8
330
2627
100
AcDbEntity
  8
0
100
AcDbVertex
100
AcDb2dVertex
 10
0.9671978615466713
 20
4.134891100956074
 30
0.0
  0
VERTEX
  5
2DA9
330
2627
100
AcDbEntity
  8
0
100
AcDbVertex
100
AcDb2dVertex
 10
0.9278125269010022
 20
4.140142478908829
 30
0.0
  0
SEQEND
  5
2DAA
330
2627
100
AcDbEntity
  8
0
  0
POLYLINE
  5
2636
330
1E
100
AcDbEntity
  8
0
100
AcDb2dPolyline
 66
     1
 10
0.0
 20
0.0
 30
0.0
  0
VERTEX
  5
2DAB
330
2636
100
AcDbEntity
  8
0
100
AcDbVertex
100
AcDb2dVertex
 10
0.9278125269010022
 20
3.827685490719853
 30
0.0
  0
VERTEX
  5
2DAC
330
2636
100
AcDbEntity
  8
0
100
AcDbVertex
100
AcDb2dVertex
 10
0.9685107060348606
 20
3.832936868672609
 30
0.0
  0
VERTEX
  5
2DAD
330
2636
100
AcDbEntity
  8
0
100
AcDbVertex
100
AcDb2dVertex
 10
1.006583196192341
 20
3.848691002530877
 30
0.0
  0
VERTEX
  5
2DAE
330
2636
100
AcDbEntity
  8
0
100
AcDbVertex
100
AcDb2dVertex
 10
1.038091463908876
 20
3.873635047806468
 30
0.0
  0
VERTEX
  5
2DAF
330
2636
100
AcDbEntity
  8
0
100
AcDbVertex
100
AcDb2dVertex
 10
1.063035509184466
 20
3.906456160011192
 30
0.0
  0
VERTEX
  5
2DB0
330
2636
100
AcDbEntity
  8
0
100
AcDbVertex
100
AcDb2dVertex
 10
1.078789643042734
 20
3.943215805680483
 30
0.0
  0
VERTEX
  5
2DB1
330
2636
100
AcDbEntity
  8
0
100
AcDbVertex
100
AcDb2dVertex
 10
1.08404102099549
 20
3.983913984814342
 30
0.0
  0
VERTEX
  5
2DB2
330
2636
100
AcDbEntity
  8
0
100
AcDbVertex
100
AcDb2dVertex
 10
1.078789643042734
 20
4.0246121639482
 30
0.0
  0
VERTEX
  5
2DB3
330
2636
100
AcDbEntity
  8
0
100
AcDbVertex
100
AcDb2dVertex
 10
1.063035509184466
 20
4.06268465410568
 30
0.0
  0
VERTEX
  5
2DB4
330
2636
100
AcDbEntity
  8
0
100
AcDbVertex
100
AcDb2dVertex
 10
1.038091463908876
 20
4.095505766310405
 30
0.0
  0
VERTEX
  5
2DB5
330
2636
100
AcDbEntity
  8
0
100
AcDbVertex
100
AcDb2dVertex
 10
1.006583196192341
 20
4.120449811585995
 30
0.0
  0
VERTEX
  5
2DB6
330
2636
100
AcDbEntity
  8
0
100
AcDbVertex
100
AcDb2dVertex
 10
0.9685107060348606
 20
4.136203945444262
 30
0.0
  0
VERTEX
  5
2DB7
330
2636
100
AcDbEntity
  8
0
100
AcDbVertex
100
AcDb2dVertex
 10
0.9278125269010022
 20
4.141455323397019
 30
0.0
  0
SEQEND
  5
2DB8
330
2636
100
AcDbEntity
  8
0
  0
LINE
  5
2645
330
1E
100
AcDbEntity
  8
0
100
AcDbLine
 10
1.116862133200214
 20
3.750227665916703
 30
0.0
 11
1.120800666664781
 21
3.750227665916703
 31
0.0
  0
LINE
  5
2646
330
1E
100
AcDbEntity
  8
0
100
AcDbLine
 10
1.116862133200214
 20
3.750227665916703
 30
0.0
 11
1.099795154853757
 21
3.750227665916703
 31
0.0
  0
LINE
  5
2647
330
1E
100
AcDbEntity
  8
0
100
AcDbLine
 10
1.099795154853757
 20
3.750227665916703
 30
0.0
 11
0.6652436292632072
 21
3.750227665916703
 31
0.0
  0
LINE
  5
2648
330
1E
100
AcDbEntity
  8
0
100
AcDbLine
 10
0.6652436292632072
 20
3.750227665916703
 30
0.0
 11
0.6481766509167502
 21
3.750227665916703
 31
0.0
  0
LINE
  5
2649
330
1E
100
AcDbEntity
  8
0
100
AcDbLine
 10
0.6442381174521837
 20
3.750227665916703
 30
0.0
 11
0.6481766509167502
 21
3.750227665916703
 31
0.0
  0
LINE
  5
264A
330
1E
100
AcDbEntity
  8
0
100
AcDbLine
 10
1.246833737530923
 20
5.836337557648987
 30
0.0
 11
0.5182050465860418
 21
5.836337557648987
 31
0.0
  0
POLYLINE
  5
264B
330
1E
100
AcDbEntity
  8
0
100
AcDb2dPolyline
 66
     1
 10
0.0
 20
0.0
 30
0.0
  0
VERTEX
  5
2DB9
330
264B
100
AcDbEntity
  8
0
100
AcDbVertex
100
AcDb2dVertex
 10
1.246833737530923
 20
6.947003994656861
 30
0.0
  0
VERTEX
  5
2DBA
330
264B
100
AcDbEntity
  8
0
100
AcDbVertex
100
AcDb2dVertex
 10
1.317727339893128
 20
6.894490215129303
 30
0.0
  0
VERTEX
  5
2DBB
330
264B
100
AcDbEntity
  8
0
100
AcDbVertex
100
AcDb2dVertex
 10
1.37943103083801
 20
6.832786524184421
 30
0.0
  0
VERTEX
  5
2DBC
330
264B
100
AcDbEntity
  8
0
100
AcDbVertex
100
AcDb2dVertex
 10
1.433257654853758
 20
6.763205766310405
 30
0.0
  0
VERTEX
  5
2DBD
330
264B
100
AcDbEntity
  8
0
100
AcDbVertex
100
AcDb2dVertex
 10
1.477894367452182
 20
6.687060785995444
 30
0.0
  0
VERTEX
  5
2DBE
330
264B
100
AcDbEntity
  8
0
100
AcDbVertex
100
AcDb2dVertex
 10
1.510715479656907
 20
6.606977272215917
 30
0.0
  0
VERTEX
  5
2DBF
330
264B
100
AcDbEntity
  8
0
100
AcDbVertex
100
AcDb2dVertex
 10
1.534346680444309
 20
6.521642380483632
 30
0.0
  0
VERTEX
  5
2DC0
330
264B
100
AcDbEntity
  8
0
100
AcDbVertex
100
AcDb2dVertex
 10
1.54616228083801
 20
6.43499464426316
 30
0.0
  0
VERTEX
  5
2DC1
330
264B
100
AcDbEntity
  8
0
100
AcDbVertex
100
AcDb2dVertex
 10
1.54616228083801
 20
6.3470340635545
 30
0.0
  0
VERTEX
  5
2DC2
330
264B
100
AcDbEntity
  8
0
100
AcDbVertex
100
AcDb2dVertex
 10
1.534346680444309
 20
6.260386327334027
 30
0.0
  0
VERTEX
  5
2DC3
330
264B
100
AcDbEntity
  8
0
100
AcDbVertex
100
AcDb2dVertex
 10
1.510715479656907
 20
6.176364280089932
 30
0.0
  0
VERTEX
  5
2DC4
330
264B
100
AcDbEntity
  8
0
100
AcDbVertex
100
AcDb2dVertex
 10
1.477894367452182
 20
6.094967921822215
 30
0.0
  0
VERTEX
  5
2DC5
330
264B
100
AcDbEntity
  8
0
100
AcDbVertex
100
AcDb2dVertex
 10
1.433257654853758
 20
6.018822941507255
 30
0.0
  0
VERTEX
  5
2DC6
330
264B
100
AcDbEntity
  8
0
100
AcDbVertex
100
AcDb2dVertex
 10
1.37943103083801
 20
5.950555028121429
 30
0.0
  0
VERTEX
  5
2DC7
330
264B
100
AcDbEntity
  8
0
100
AcDbVertex
100
AcDb2dVertex
 10
1.317727339893128
 20
5.888851337176546
 30
0.0
  0
VERTEX
  5
2DC8
330
264B
100
AcDbEntity
  8
0
100
AcDbVertex
100
AcDb2dVertex
 10
1.246833737530923
 20
5.836337557648987
 30
0.0
  0
SEQEND
  5
2DC9
330
264B
100
AcDbEntity
  8
0
  0
LINE
  5
265D
330
1E
100
AcDbEntity
  8
0
100
AcDbLine
 10
0.5182050465860418
 20
6.947003994656862
 30
0.0
 11
1.246833737530923
 21
6.947003994656862
 31
0.0
  0
POLYLINE
  5
265E
330
1E
100
AcDbEntity
  8
0
100
AcDb2dPolyline
 66
     1
 10
0.0
 20
0.0
 30
0.0
  0
VERTEX
  5
2DCA
330
265E
100
AcDbEntity
  8
0
100
AcDbVertex
100
AcDb2dVertex
 10
0.5182050465860418
 20
5.836337557648987
 30
0.0
  0
VERTEX
  5
2DCB
330
265E
100
AcDbEntity
  8
0
100
AcDbVertex
100
AcDb2dVertex
 10
0.4473114442238369
 20
5.888851337176546
 30
0.0
  0
VERTEX
  5
2DCC
330
265E
100
AcDbEntity
  8
0
100
AcDbVertex
100
AcDb2dVertex
 10
0.385607753278955
 20
5.950555028121429
 30
0.0
  0
VERTEX
  5
2DCD
330
265E
100
AcDbEntity
  8
0
100
AcDbVertex
100
AcDb2dVertex
 10
0.3317811292632071
 20
6.018822941507255
 30
0.0
  0
VERTEX
  5
2DCE
330
265E
100
AcDbEntity
  8
0
100
AcDbVertex
100
AcDb2dVertex
 10
0.2871444166647819
 20
6.094967921822215
 30
0.0
  0
VERTEX
  5
2DCF
330
265E
100
AcDbEntity
  8
0
100
AcDbVertex
100
AcDb2dVertex
 10
0.2530104599718688
 20
6.176364280089932
 30
0.0
  0
VERTEX
  5
2DD0
330
265E
100
AcDbEntity
  8
0
100
AcDbVertex
100
AcDb2dVertex
 10
0.2306921036726561
 20
6.260386327334027
 30
0.0
  0
VERTEX
  5
2DD1
330
265E
100
AcDbEntity
  8
0
100
AcDbVertex
100
AcDb2dVertex
 10
0.2188765032789548
 20
6.3470340635545
 30
0.0
  0
VERTEX
  5
2DD2
330
265E
100
AcDbEntity
  8
0
100
AcDbVertex
100
AcDb2dVertex
 10
0.2188765032789548
 20
6.43499464426316
 30
0.0
  0
VERTEX
  5
2DD3
330
265E
100
AcDbEntity
  8
0
100
AcDbVertex
100
AcDb2dVertex
 10
0.2306921036726561
 20
6.521642380483632
 30
0.0
  0
VERTEX
  5
2DD4
330
265E
100
AcDbEntity
  8
0
100
AcDbVertex
100
AcDb2dVertex
 10
0.2530104599718688
 20
6.606977272215917
 30
0.0
  0
VERTEX
  5
2DD5
330
265E
100
AcDbEntity
  8
0
100
AcDbVertex
100
AcDb2dVertex
 10
0.2871444166647819
 20
6.687060785995444
 30
0.0
  0
VERTEX
  5
2DD6
330
265E
100
AcDbEntity
  8
0
100
AcDbVertex
100
AcDb2dVertex
 10
0.3317811292632071
 20
6.763205766310405
 30
0.0
  0
VERTEX
  5
2DD7
330
265E
100
AcDbEntity
  8
0
100
AcDbVertex
100
AcDb2dVertex
 10
0.385607753278955
 20
6.832786524184421
 30
0.0
  0
VERTEX
  5
2DD8
330
265E
100
AcDbEntity
  8
0
100
AcDbVertex
100
AcDb2dVertex
 10
0.4473114442238369
 20
6.894490215129303
 30
0.0
  0
VERTEX
  5
2DD9
330
265E
100
AcDbEntity
  8
0
100
AcDbVertex
100
AcDb2dVertex
 10
0.5182050465860418
 20
6.947003994656861
 30
0.0
  0
SEQEND
  5
2DDA
330
265E
100
AcDbEntity
  8
0
  0
LINE
  5
2670
330
1E
100
AcDbEntity
  8
0
100
AcDbLine
 10
1.172001601704152
 20
6.068711032058436
 30
0.0
 11
0.5917243379246245
 21
6.068711032058436
 31
0.0
  0
LINE
  5
2671
330
1E
100
AcDbEntity
  8
0
100
AcDbLine
 10
1.172001601704152
 20
6.713317675759223
 30
0.0
 11
0.5917243379246245
 21
6.713317675759223
 31
0.0
  0
POLYLINE
  5
2672
330
1E
100
AcDbEntity
  8
0
100
AcDb2dPolyline
 66
     1
 10
0.0
 20
0.0
 30
0.0
  0
VERTEX
  5
2DDB
330
2672
100
AcDbEntity
  8
0
100
AcDbVertex
100
AcDb2dVertex
 10
0.2398820150899787
 20
6.98770217379072
 30
0.0
  0
VERTEX
  5
2DDC
330
2672
100
AcDbEntity
  8
0
100
AcDbVertex
100
AcDb2dVertex
 10
0.2175636587907661
 20
6.982450795837965
 30
0.0
  0
VERTEX
  5
2DDD
330
2672
100
AcDbEntity
  8
0
100
AcDbVertex
100
AcDb2dVertex
 10
0.1978709914679313
 20
6.969322350956073
 30
0.0
  0
VERTEX
  5
2DDE
330
2672
100
AcDbEntity
  8
0
100
AcDbVertex
100
AcDb2dVertex
 10
0.1847425465860417
 20
6.950942528121429
 30
0.0
  0
VERTEX
  5
2DDF
330
2672
100
AcDbEntity
  8
0
100
AcDbVertex
100
AcDb2dVertex
 10
0.1794911686332856
 20
6.927311327334026
 30
0.0
  0
SEQEND
  5
2DE0
330
2672
100
AcDbEntity
  8
0
  0
LINE
  5
2679
330
1E
100
AcDbEntity
  8
0
100
AcDbLine
 10
0.2385691706017896
 20
6.98770217379072
 30
0.0
 11
0.2398820150899787
 21
6.98770217379072
 31
0.0
  0
POLYLINE
  5
267A
330
1E
100
AcDbEntity
  8
0
100
AcDb2dPolyline
 66
     1
 10
0.0
 20
0.0
 30
0.0
  0
VERTEX
  5
2DE1
330
267A
100
AcDbEntity
  8
0
100
AcDbVertex
100
AcDb2dVertex
 10
0.1794911686332856
 20
6.928624171822215
 30
0.0
  0
VERTEX
  5
2DE2
330
267A
100
AcDbEntity
  8
0
100
AcDbVertex
100
AcDb2dVertex
 10
0.1834297020978526
 20
6.950942528121429
 30
0.0
  0
VERTEX
  5
2DE3
330
267A
100
AcDbEntity
  8
0
100
AcDbVertex
100
AcDb2dVertex
 10
0.1965581469797426
 20
6.970635195444262
 30
0.0
  0
VERTEX
  5
2DE4
330
267A
100
AcDbEntity
  8
0
100
AcDbVertex
100
AcDb2dVertex
 10
0.216250814302577
 20
6.983763640326153
 30
0.0
  0
VERTEX
  5
2DE5
330
267A
100
AcDbEntity
  8
0
100
AcDbVertex
100
AcDb2dVertex
 10
0.2385691706017901
 20
6.98770217379072
 30
0.0
  0
SEQEND
  5
2DE6
330
267A
100
AcDbEntity
  8
0
  0
LINE
  5
2681
330
1E
100
AcDbEntity
  8
0
100
AcDbLine
 10
0.1794911686332865
 20
6.927311327334026
 30
0.0
 11
0.1794911686332865
 21
6.928624171822216
 31
0.0
  0
LINE
  5
2682
330
1E
100
AcDbEntity
  8
0
100
AcDbLine
 10
0.1794911686332865
 20
5.878348581271035
 30
0.0
 11
0.1794911686332865
 21
6.928624171822216
 31
0.0
  0
LINE
  5
2683
330
1E
100
AcDbEntity
  8
0
100
AcDbLine
 10
0.1794911686332865
 20
5.878348581271035
 30
0.0
 11
0.1794911686332865
 21
5.878348581271035
 31
0.0
  0
LINE
  5
2684
330
1E
100
AcDbEntity
  8
0
100
AcDbLine
 10
0.1794911686332865
 20
6.927311327334026
 30
0.0
 11
0.1794911686332865
 21
5.878348581271035
 31
0.0
  0
POLYLINE
  5
2685
330
1E
100
AcDbEntity
  8
0
100
AcDb2dPolyline
 66
     1
 10
0.0
 20
0.0
 30
0.0
  0
VERTEX
  5
2DE7
330
2685
100
AcDbEntity
  8
0
100
AcDbVertex
100
AcDb2dVertex
 10
0.5168922020978526
 20
6.948316839145051
 30
0.0
  0
VERTEX
  5
2DE8
330
2685
100
AcDbEntity
  8
0
100
AcDbVertex
100
AcDb2dVertex
 10
0.4473114442238369
 20
6.895803059617491
 30
0.0
  0
VERTEX
  5
2DE9
330
2685
100
AcDbEntity
  8
0
100
AcDbVertex
100
AcDb2dVertex
 10
0.3842949087907659
 20
6.834099368672609
 30
0.0
  0
VERTEX
  5
2DEA
330
2685
100
AcDbEntity
  8
0
100
AcDbVertex
100
AcDb2dVertex
 10
0.330468284775018
 20
6.764518610798593
 30
0.0
  0
VERTEX
  5
2DEB
330
2685
100
AcDbEntity
  8
0
100
AcDbVertex
100
AcDb2dVertex
 10
0.2858315721765927
 20
6.688373630483632
 30
0.0
  0
VERTEX
  5
2DEC
330
2685
100
AcDbEntity
  8
0
100
AcDbVertex
100
AcDb2dVertex
 10
0.2516976154836796
 20
6.606977272215917
 30
0.0
  0
VERTEX
  5
2DED
330
2685
100
AcDbEntity
  8
0
100
AcDbVertex
100
AcDb2dVertex
 10
0.229379259184467
 20
6.522955224971821
 30
0.0
  0
VERTEX
  5
2DEE
330
2685
100
AcDbEntity
  8
0
100
AcDbVertex
100
AcDb2dVertex
 10
0.2175636587907661
 20
6.43499464426316
 30
0.0
  0
VERTEX
  5
2DEF
330
2685
100
AcDbEntity
  8
0
100
AcDbVertex
100
AcDb2dVertex
 10
0.2175636587907661
 20
6.3470340635545
 30
0.0
  0
VERTEX
  5
2DF0
330
2685
100
AcDbEntity
  8
0
100
AcDbVertex
100
AcDb2dVertex
 10
0.229379259184467
 20
6.260386327334027
 30
0.0
  0
VERTEX
  5
2DF1
330
2685
100
AcDbEntity
  8
0
100
AcDbVertex
100
AcDb2dVertex
 10
0.2516976154836796
 20
6.175051435601743
 30
0.0
  0
VERTEX
  5
2DF2
330
2685
100
AcDbEntity
  8
0
100
AcDbVertex
100
AcDb2dVertex
 10
0.2858315721765927
 20
6.094967921822215
 30
0.0
  0
VERTEX
  5
2DF3
330
2685
100
AcDbEntity
  8
0
100
AcDbVertex
100
AcDb2dVertex
 10
0.330468284775018
 20
6.018822941507255
 30
0.0
  0
VERTEX
  5
2DF4
330
2685
100
AcDbEntity
  8
0
100
AcDbVertex
100
AcDb2dVertex
 10
0.3842949087907659
 20
5.949242183633239
 30
0.0
  0
VERTEX
  5
2DF5
330
2685
100
AcDbEntity
  8
0
100
AcDbVertex
100
AcDb2dVertex
 10
0.4473114442238369
 20
5.887538492688358
 30
0.0
  0
VERTEX
  5
2DF6
330
2685
100
AcDbEntity
  8
0
100
AcDbVertex
100
AcDb2dVertex
 10
0.5168922020978526
 20
5.833711868672609
 30
0.0
  0
SEQEND
  5
2DF7
330
2685
100
AcDbEntity
  8
0
  0
POLYLINE
  5
2697
330
1E
100
AcDbEntity
  8
0
100
AcDb2dPolyline
 66
     1
 10
0.0
 20
0.0
 30
0.0
  0
VERTEX
  5
2DF8
330
2697
100
AcDbEntity
  8
0
100
AcDbVertex
100
AcDb2dVertex
 10
0.5182050465860418
 20
5.836337557648987
 30
0.0
  0
VERTEX
  5
2DF9
330
2697
100
AcDbEntity
  8
0
100
AcDbVertex
100
AcDb2dVertex
 10
0.5168922020978526
 20
5.835024713160798
 30
0.0
  0
VERTEX
  5
2DFA
330
2697
100
AcDbEntity
  8
0
100
AcDbVertex
100
AcDb2dVertex
 10
0.5168922020978526
 20
5.833711868672609
 30
0.0
  0
SEQEND
  5
2DFB
330
2697
100
AcDbEntity
  8
0
  0
LINE
  5
269C
330
1E
100
AcDbEntity
  8
0
100
AcDbLine
 10
0.5168922020978526
 20
6.94831683914505
 30
0.0
 11
0.5182050465860418
 21
6.947003994656862
 31
0.0
  0
LINE
  5
269D
330
1E
100
AcDbEntity
  8
0
100
AcDbLine
 10
0.5182050465860418
 20
4.304248039932453
 30
0.0
 11
0.5168922020978526
 21
4.302935195444263
 31
0.0
  0
POLYLINE
  5
269E
330
1E
100
AcDbEntity
  8
0
100
AcDb2dPolyline
 66
     1
 10
0.0
 20
0.0
 30
0.0
  0
VERTEX
  5
2DFC
330
269E
100
AcDbEntity
  8
0
100
AcDbVertex
100
AcDb2dVertex
 10
0.5182050465860418
 20
4.304248039932453
 30
0.0
  0
VERTEX
  5
2DFD
330
269E
100
AcDbEntity
  8
0
100
AcDbVertex
100
AcDb2dVertex
 10
0.4473114442238369
 20
4.356761819460011
 30
0.0
  0
VERTEX
  5
2DFE
330
269E
100
AcDbEntity
  8
0
100
AcDbVertex
100
AcDb2dVertex
 10
0.385607753278955
 20
4.418465510404893
 30
0.0
  0
VERTEX
  5
2DFF
330
269E
100
AcDbEntity
  8
0
100
AcDbVertex
100
AcDb2dVertex
 10
0.3317811292632071
 20
4.488046268278909
 30
0.0
  0
VERTEX
  5
2E00
330
269E
100
AcDbEntity
  8
0
100
AcDbVertex
100
AcDb2dVertex
 10
0.2871444166647819
 20
4.56287840410568
 30
0.0
  0
VERTEX
  5
2E01
330
269E
100
AcDbEntity
  8
0
100
AcDbVertex
100
AcDb2dVertex
 10
0.2530104599718688
 20
4.644274762373397
 30
0.0
  0
VERTEX
  5
2E02
330
269E
100
AcDbEntity
  8
0
100
AcDbVertex
100
AcDb2dVertex
 10
0.2306921036726561
 20
4.72960965410568
 30
0.0
  0
VERTEX
  5
2E03
330
269E
100
AcDbEntity
  8
0
100
AcDbVertex
100
AcDb2dVertex
 10
0.2188765032789548
 20
4.816257390326152
 30
0.0
  0
VERTEX
  5
2E04
330
269E
100
AcDbEntity
  8
0
100
AcDbVertex
100
AcDb2dVertex
 10
0.2188765032789548
 20
4.904217971034814
 30
0.0
  0
VERTEX
  5
2E05
330
269E
100
AcDbEntity
  8
0
100
AcDbVertex
100
AcDb2dVertex
 10
0.2306921036726561
 20
4.990865707255286
 30
0.0
  0
VERTEX
  5
2E06
330
269E
100
AcDbEntity
  8
0
100
AcDbVertex
100
AcDb2dVertex
 10
0.2530104599718688
 20
5.074887754499381
 30
0.0
  0
VERTEX
  5
2E07
330
269E
100
AcDbEntity
  8
0
100
AcDbVertex
100
AcDb2dVertex
 10
0.2871444166647819
 20
5.156284112767098
 30
0.0
  0
VERTEX
  5
2E08
330
269E
100
AcDbEntity
  8
0
100
AcDbVertex
100
AcDb2dVertex
 10
0.3317811292632071
 20
5.23111624859387
 30
0.0
  0
VERTEX
  5
2E09
330
269E
100
AcDbEntity
  8
0
100
AcDbVertex
100
AcDb2dVertex
 10
0.385607753278955
 20
5.300697006467885
 30
0.0
  0
VERTEX
  5
2E0A
330
269E
100
AcDbEntity
  8
0
100
AcDbVertex
100
AcDb2dVertex
 10
0.4473114442238369
 20
5.362400697412767
 30
0.0
  0
VERTEX
  5
2E0B
330
269E
100
AcDbEntity
  8
0
100
AcDbVertex
100
AcDb2dVertex
 10
0.5182050465860418
 20
5.414914476940326
 30
0.0
  0
SEQEND
  5
2E0C
330
269E
100
AcDbEntity
  8
0
  0
LINE
  5
26B0
330
1E
100
AcDbEntity
  8
0
100
AcDbLine
 10
0.5168922020978526
 20
5.416227321428515
 30
0.0
 11
0.5182050465860418
 21
5.414914476940326
 31
0.0
  0
POLYLINE
  5
26B1
330
1E
100
AcDbEntity
  8
0
100
AcDb2dPolyline
 66
     1
 10
0.0
 20
0.0
 30
0.0
  0
VERTEX
  5
2E0D
330
26B1
100
AcDbEntity
  8
0
100
AcDbVertex
100
AcDb2dVertex
 10
0.5168922020978526
 20
5.416227321428515
 30
0.0
  0
VERTEX
  5
2E0E
330
26B1
100
AcDbEntity
  8
0
100
AcDbVertex
100
AcDb2dVertex
 10
0.4473114442238369
 20
5.363713541900956
 30
0.0
  0
VERTEX
  5
2E0F
330
26B1
100
AcDbEntity
  8
0
100
AcDbVertex
100
AcDb2dVertex
 10
0.3842949087907659
 20
5.302009850956074
 30
0.0
  0
VERTEX
  5
2E10
330
26B1
100
AcDbEntity
  8
0
100
AcDbVertex
100
AcDb2dVertex
 10
0.330468284775018
 20
5.232429093082059
 30
0.0
  0
VERTEX
  5
2E11
330
26B1
100
AcDbEntity
  8
0
100
AcDbVertex
100
AcDb2dVertex
 10
0.2858315721765927
 20
5.156284112767098
 30
0.0
  0
VERTEX
  5
2E12
330
26B1
100
AcDbEntity
  8
0
100
AcDbVertex
100
AcDb2dVertex
 10
0.2516976154836796
 20
5.07620059898757
 30
0.0
  0
VERTEX
  5
2E13
330
26B1
100
AcDbEntity
  8
0
100
AcDbVertex
100
AcDb2dVertex
 10
0.229379259184467
 20
4.990865707255286
 30
0.0
  0
VERTEX
  5
2E14
330
26B1
100
AcDbEntity
  8
0
100
AcDbVertex
100
AcDb2dVertex
 10
0.2175636587907661
 20
4.904217971034814
 30
0.0
  0
VERTEX
  5
2E15
330
26B1
100
AcDbEntity
  8
0
100
AcDbVertex
100
AcDb2dVertex
 10
0.2175636587907661
 20
4.816257390326152
 30
0.0
  0
VERTEX
  5
2E16
330
26B1
100
AcDbEntity
  8
0
100
AcDbVertex
100
AcDb2dVertex
 10
0.229379259184467
 20
4.728296809617491
 30
0.0
  0
VERTEX
  5
2E17
330
26B1
100
AcDbEntity
  8
0
100
AcDbVertex
100
AcDb2dVertex
 10
0.2516976154836796
 20
4.644274762373397
 30
0.0
  0
VERTEX
  5
2E18
330
26B1
100
AcDbEntity
  8
0
100
AcDbVertex
100
AcDb2dVertex
 10
0.2858315721765927
 20
4.56287840410568
 30
0.0
  0
VERTEX
  5
2E19
330
26B1
100
AcDbEntity
  8
0
100
AcDbVertex
100
AcDb2dVertex
 10
0.330468284775018
 20
4.48673342379072
 30
0.0
  0
VERTEX
  5
2E1A
330
26B1
100
AcDbEntity
  8
0
100
AcDbVertex
100
AcDb2dVertex
 10
0.3842949087907659
 20
4.417152665916703
 30
0.0
  0
VERTEX
  5
2E1B
330
26B1
100
AcDbEntity
  8
0
100
AcDbVertex
100
AcDb2dVertex
 10
0.4473114442238369
 20
4.355448974971823
 30
0.0
  0
VERTEX
  5
2E1C
330
26B1
100
AcDbEntity
  8
0
100
AcDbVertex
100
AcDb2dVertex
 10
0.5168922020978526
 20
4.302935195444263
 30
0.0
  0
SEQEND
  5
2E1D
330
26B1
100
AcDbEntity
  8
0
  0
LINE
  5
26C3
330
1E
100
AcDbEntity
  8
0
100
AcDbLine
 10
0.1794911686332865
 20
5.372903453318279
 30
0.0
 11
0.1794911686332865
 21
4.322627862767097
 31
0.0
  0
LINE
  5
26C4
330
1E
100
AcDbEntity
  8
0
100
AcDbLine
 10
0.1794911686332865
 20
4.322627862767097
 30
0.0
 11
0.1794911686332865
 21
4.323940707255286
 31
0.0
  0
LINE
  5
26C5
330
1E
100
AcDbEntity
  8
0
100
AcDbLine
 10
0.1794911686332865
 20
5.372903453318279
 30
0.0
 11
0.1794911686332865
 21
4.323940707255286
 31
0.0
  0
LINE
  5
26C6
330
1E
100
AcDbEntity
  8
0
100
AcDbLine
 10
0.1794911686332865
 20
5.372903453318279
 30
0.0
 11
0.1794911686332865
 21
5.372903453318279
 31
0.0
  0
POLYLINE
  5
26C7
330
1E
100
AcDbEntity
  8
0
100
AcDb2dPolyline
 66
     1
 10
0.0
 20
0.0
 30
0.0
  0
VERTEX
  5
2E1E
330
26C7
100
AcDbEntity
  8
0
100
AcDbVertex
100
AcDb2dVertex
 10
0.2385691706017901
 20
4.262237016310405
 30
0.0
  0
VERTEX
  5
2E1F
330
26C7
100
AcDbEntity
  8
0
100
AcDbVertex
100
AcDb2dVertex
 10
0.216250814302577
 20
4.267488394263161
 30
0.0
  0
VERTEX
  5
2E20
330
26C7
100
AcDbEntity
  8
0
100
AcDbVertex
100
AcDb2dVertex
 10
0.1965581469797426
 20
4.28061683914505
 30
0.0
  0
VERTEX
  5
2E21
330
26C7
100
AcDbEntity
  8
0
100
AcDbVertex
100
AcDb2dVertex
 10
0.1834297020978526
 20
4.300309506467885
 30
0.0
  0
VERTEX
  5
2E22
330
26C7
100
AcDbEntity
  8
0
100
AcDbVertex
100
AcDb2dVertex
 10
0.1794911686332856
 20
4.322627862767097
 30
0.0
  0
SEQEND
  5
2E23
330
26C7
100
AcDbEntity
  8
0
  0
LINE
  5
26CE
330
1E
100
AcDbEntity
  8
0
100
AcDbLine
 10
0.2398820150899787
 20
4.263549860798594
 30
0.0
 11
0.2385691706017896
 21
4.262237016310405
 31
0.0
  0
POLYLINE
  5
26CF
330
1E
100
AcDbEntity
  8
0
100
AcDb2dPolyline
 66
     1
 10
0.0
 20
0.0
 30
0.0
  0
VERTEX
  5
2E24
330
26CF
100
AcDbEntity
  8
0
100
AcDbVertex
100
AcDb2dVertex
 10
0.1794911686332856
 20
4.323940707255286
 30
0.0
  0
VERTEX
  5
2E25
330
26CF
100
AcDbEntity
  8
0
100
AcDbVertex
100
AcDb2dVertex
 10
0.1847425465860417
 20
4.300309506467885
 30
0.0
  0
VERTEX
  5
2E26
330
26CF
100
AcDbEntity
  8
0
100
AcDbVertex
100
AcDb2dVertex
 10
0.1978709914679313
 20
4.28061683914505
 30
0.0
  0
VERTEX
  5
2E27
330
26CF
100
AcDbEntity
  8
0
100
AcDbVertex
100
AcDb2dVertex
 10
0.2175636587907661
 20
4.26880123875135
 30
0.0
  0
VERTEX
  5
2E28
330
26CF
100
AcDbEntity
  8
0
100
AcDbVertex
100
AcDb2dVertex
 10
0.2398820150899787
 20
4.263549860798594
 30
0.0
  0
SEQEND
  5
2E29
330
26CF
100
AcDbEntity
  8
0
  0
POLYLINE
  5
26D6
330
1E
100
AcDbEntity
  8
0
100
AcDb2dPolyline
 66
     1
 10
0.0
 20
0.0
 30
0.0
  0
VERTEX
  5
2E2A
330
26D6
100
AcDbEntity
  8
0
100
AcDbVertex
100
AcDb2dVertex
 10
0.1794911686332856
 20
5.372903453318279
 30
0.0
  0
VERTEX
  5
2E2B
330
26D6
100
AcDbEntity
  8
0
100
AcDbVertex
100
AcDb2dVertex
 10
0.1847425465860417
 20
5.395221809617491
 30
0.0
  0
VERTEX
  5
2E2C
330
26D6
100
AcDbEntity
  8
0
100
AcDbVertex
100
AcDb2dVertex
 10
0.1978709914679313
 20
5.414914476940326
 30
0.0
  0
VERTEX
  5
2E2D
330
26D6
100
AcDbEntity
  8
0
100
AcDbVertex
100
AcDb2dVertex
 10
0.2175636587907661
 20
5.428042921822215
 30
0.0
  0
VERTEX
  5
2E2E
330
26D6
100
AcDbEntity
  8
0
100
AcDbVertex
100
AcDb2dVertex
 10
0.2398820150899787
 20
5.431981455286782
 30
0.0
  0
SEQEND
  5
2E2F
330
26D6
100
AcDbEntity
  8
0
  0
LINE
  5
26DD
330
1E
100
AcDbEntity
  8
0
100
AcDbLine
 10
0.2398820150899787
 20
5.431981455286782
 30
0.0
 11
0.2385691706017896
 21
5.433294299774972
 31
0.0
  0
POLYLINE
  5
26DE
330
1E
100
AcDbEntity
  8
0
100
AcDb2dPolyline
 66
     1
 10
0.0
 20
0.0
 30
0.0
  0
VERTEX
  5
2E30
330
26DE
100
AcDbEntity
  8
0
100
AcDbVertex
100
AcDb2dVertex
 10
0.2385691706017901
 20
5.433294299774972
 30
0.0
  0
VERTEX
  5
2E31
330
26DE
100
AcDbEntity
  8
0
100
AcDbVertex
100
AcDb2dVertex
 10
0.216250814302577
 20
5.429355766310405
 30
0.0
  0
VERTEX
  5
2E32
330
26DE
100
AcDbEntity
  8
0
100
AcDbVertex
100
AcDb2dVertex
 10
0.1965581469797426
 20
5.416227321428515
 30
0.0
  0
VERTEX
  5
2E33
330
26DE
100
AcDbEntity
  8
0
100
AcDbVertex
100
AcDb2dVertex
 10
0.1834297020978526
 20
5.39653465410568
 30
0.0
  0
VERTEX
  5
2E34
330
26DE
100
AcDbEntity
  8
0
100
AcDbVertex
100
AcDb2dVertex
 10
0.1794911686332856
 20
5.372903453318279
 30
0.0
  0
SEQEND
  5
2E35
330
26DE
100
AcDbEntity
  8
0
  0
POLYLINE
  5
26E5
330
1E
100
AcDbEntity
  8
0
100
AcDb2dPolyline
 66
     1
 10
0.0
 20
0.0
 30
0.0
  0
VERTEX
  5
2E36
330
26E5
100
AcDbEntity
  8
0
100
AcDbVertex
100
AcDb2dVertex
 10
0.2385691706017901
 20
5.817957734814341
 30
0.0
  0
VERTEX
  5
2E37
330
26E5
100
AcDbEntity
  8
0
100
AcDbVertex
100
AcDb2dVertex
 10
0.216250814302577
 20
5.821896268278909
 30
0.0
  0
VERTEX
  5
2E38
330
26E5
100
AcDbEntity
  8
0
100
AcDbVertex
100
AcDb2dVertex
 10
0.1965581469797426
 20
5.835024713160798
 30
0.0
  0
VERTEX
  5
2E39
330
26E5
100
AcDbEntity
  8
0
100
AcDbVertex
100
AcDb2dVertex
 10
0.1834297020978526
 20
5.854717380483632
 30
0.0
  0
VERTEX
  5
2E3A
330
26E5
100
AcDbEntity
  8
0
100
AcDbVertex
100
AcDb2dVertex
 10
0.1794911686332856
 20
5.878348581271035
 30
0.0
  0
SEQEND
  5
2E3B
330
26E5
100
AcDbEntity
  8
0
  0
LINE
  5
26EC
330
1E
100
AcDbEntity
  8
0
100
AcDbLine
 10
0.2385691706017896
 20
5.817957734814341
 30
0.0
 11
0.2398820150899787
 21
5.81927057930253
 31
0.0
  0
POLYLINE
  5
26ED
330
1E
100
AcDbEntity
  8
0
100
AcDb2dPolyline
 66
     1
 10
0.0
 20
0.0
 30
0.0
  0
VERTEX
  5
2E3C
330
26ED
100
AcDbEntity
  8
0
100
AcDbVertex
100
AcDb2dVertex
 10
0.2398820150899787
 20
5.81927057930253
 30
0.0
  0
VERTEX
  5
2E3D
330
26ED
100
AcDbEntity
  8
0
100
AcDbVertex
100
AcDb2dVertex
 10
0.2175636587907661
 20
5.823209112767098
 30
0.0
  0
VERTEX
  5
2E3E
330
26ED
100
AcDbEntity
  8
0
100
AcDbVertex
100
AcDb2dVertex
 10
0.1978709914679313
 20
5.836337557648987
 30
0.0
  0
VERTEX
  5
2E3F
330
26ED
100
AcDbEntity
  8
0
100
AcDbVertex
100
AcDb2dVertex
 10
0.1847425465860417
 20
5.856030224971822
 30
0.0
  0
VERTEX
  5
2E40
330
26ED
100
AcDbEntity
  8
0
100
AcDbVertex
100
AcDb2dVertex
 10
0.1794911686332856
 20
5.878348581271035
 30
0.0
  0
SEQEND
  5
2E41
330
26ED
100
AcDbEntity
  8
0
  0
LINE
  5
26F4
330
1E
100
AcDbEntity
  8
0
100
AcDbLine
 10
0.5168922020978526
 20
5.833711868672609
 30
0.0
 11
0.8057179894994268
 21
5.833711868672609
 31
0.0
  0
LINE
  5
26F5
330
1E
100
AcDbEntity
  8
0
100
AcDbLine
 10
0.8057179894994268
 20
5.833711868672609
 30
0.0
 11
0.8057179894994268
 21
5.833711868672609
 31
0.0
  0
LINE
  5
26F6
330
1E
100
AcDbEntity
  8
0
100
AcDbLine
 10
0.8057179894994268
 20
5.833711868672609
 30
0.0
 11
0.9580079501293488
 21
5.833711868672609
 31
0.0
  0
LINE
  5
26F7
330
1E
100
AcDbEntity
  8
0
100
AcDbLine
 10
0.959320794617537
 20
5.833711868672609
 30
0.0
 11
0.9580079501293488
 21
5.833711868672609
 31
0.0
  0
LINE
  5
26F8
330
1E
100
AcDbEntity
  8
0
100
AcDbLine
 10
0.959320794617537
 20
5.833711868672609
 30
0.0
 11
1.248146582019112
 21
5.833711868672609
 31
0.0
  0
POLYLINE
  5
26F9
330
1E
100
AcDbEntity
  8
0
100
AcDb2dPolyline
 66
     1
 10
0.0
 20
0.0
 30
0.0
  0
VERTEX
  5
2E42
330
26F9
100
AcDbEntity
  8
0
100
AcDbVertex
100
AcDb2dVertex
 10
1.248146582019112
 20
5.833711868672609
 30
0.0
  0
VERTEX
  5
2E43
330
26F9
100
AcDbEntity
  8
0
100
AcDbVertex
100
AcDb2dVertex
 10
1.246833737530923
 20
5.835024713160798
 30
0.0
  0
VERTEX
  5
2E44
330
26F9
100
AcDbEntity
  8
0
100
AcDbVertex
100
AcDb2dVertex
 10
1.246833737530923
 20
5.836337557648987
 30
0.0
  0
SEQEND
  5
2E45
330
26F9
100
AcDbEntity
  8
0
  0
LINE
  5
26FE
330
1E
100
AcDbEntity
  8
0
100
AcDbLine
 10
0.2385691706017896
 20
5.817957734814341
 30
0.0
 11
0.7623941213891916
 21
5.817957734814341
 31
0.0
  0
LINE
  5
26FF
330
1E
100
AcDbEntity
  8
0
100
AcDbLine
 10
0.7623941213891916
 20
5.81927057930253
 30
0.0
 11
0.7623941213891916
 21
5.817957734814341
 31
0.0
  0
LINE
  5
2700
330
1E
100
AcDbEntity
  8
0
100
AcDbLine
 10
0.7623941213891916
 20
5.81927057930253
 30
0.0
 11
0.2398820150899787
 21
5.81927057930253
 31
0.0
  0
LINE
  5
2701
330
1E
100
AcDbEntity
  8
0
100
AcDbLine
 10
0.2385691706017896
 20
4.262237016310405
 30
0.0
 11
1.525156769026986
 21
4.262237016310405
 31
0.0
  0
LINE
  5
2702
330
1E
100
AcDbEntity
  8
0
100
AcDbLine
 10
1.525156769026986
 20
4.262237016310405
 30
0.0
 11
1.525156769026986
 21
4.263549860798594
 31
0.0
  0
LINE
  5
2703
330
1E
100
AcDbEntity
  8
0
100
AcDbLine
 10
0.2398820150899787
 20
4.263549860798594
 30
0.0
 11
1.525156769026986
 21
4.263549860798594
 31
0.0
  0
LINE
  5
2704
330
1E
100
AcDbEntity
  8
0
100
AcDbLine
 10
0.7623941213891916
 20
5.431981455286782
 30
0.0
 11
0.2398820150899787
 21
5.431981455286782
 31
0.0
  0
LINE
  5
2705
330
1E
100
AcDbEntity
  8
0
100
AcDbLine
 10
0.7623941213891916
 20
5.431981455286782
 30
0.0
 11
0.7623941213891916
 21
5.433294299774972
 31
0.0
  0
LINE
  5
2706
330
1E
100
AcDbEntity
  8
0
100
AcDbLine
 10
0.7623941213891916
 20
5.433294299774972
 30
0.0
 11
0.2385691706017896
 21
5.433294299774972
 31
0.0
  0
LINE
  5
2707
330
1E
100
AcDbEntity
  8
0
100
AcDbLine
 10
0.8057179894994268
 20
5.416227321428515
 30
0.0
 11
0.5168922020978526
 21
5.416227321428515
 31
0.0
  0
LINE
  5
2708
330
1E
100
AcDbEntity
  8
0
100
AcDbLine
 10
0.7623941213891916
 20
5.431981455286782
 30
0.0
 11
0.8057179894994268
 21
5.416227321428515
 31
0.0
  0
POLYLINE
  5
2709
330
1E
100
AcDbEntity
  8
0
100
AcDb2dPolyline
 66
     1
 10
0.0
 20
0.0
 30
0.0
  0
VERTEX
  5
2E46
330
2709
100
AcDbEntity
  8
0
100
AcDbVertex
100
AcDb2dVertex
 10
1.525156769026986
 20
4.263549860798594
 30
0.0
  0
VERTEX
  5
2E47
330
2709
100
AcDbEntity
  8
0
100
AcDbVertex
100
AcDb2dVertex
 10
1.547475125326199
 20
4.26880123875135
 30
0.0
  0
VERTEX
  5
2E48
330
2709
100
AcDbEntity
  8
0
100
AcDbVertex
100
AcDb2dVertex
 10
1.567167792649033
 20
4.28061683914505
 30
0.0
  0
VERTEX
  5
2E49
330
2709
100
AcDbEntity
  8
0
100
AcDbVertex
100
AcDb2dVertex
 10
1.580296237530923
 20
4.300309506467885
 30
0.0
  0
VERTEX
  5
2E4A
330
2709
100
AcDbEntity
  8
0
100
AcDbVertex
100
AcDb2dVertex
 10
1.58423477099549
 20
4.323940707255286
 30
0.0
  0
SEQEND
  5
2E4B
330
2709
100
AcDbEntity
  8
0
  0
LINE
  5
2710
330
1E
100
AcDbEntity
  8
0
100
AcDbLine
 10
1.58423477099549
 20
5.372903453318279
 30
0.0
 11
1.58423477099549
 21
4.323940707255286
 31
0.0
  0
POLYLINE
  5
2711
330
1E
100
AcDbEntity
  8
0
100
AcDb2dPolyline
 66
     1
 10
0.0
 20
0.0
 30
0.0
  0
VERTEX
  5
2E4C
330
2711
100
AcDbEntity
  8
0
100
AcDbVertex
100
AcDb2dVertex
 10
1.58423477099549
 20
5.372903453318279
 30
0.0
  0
VERTEX
  5
2E4D
330
2711
100
AcDbEntity
  8
0
100
AcDbVertex
100
AcDb2dVertex
 10
1.580296237530923
 20
5.395221809617491
 30
0.0
  0
VERTEX
  5
2E4E
330
2711
100
AcDbEntity
  8
0
100
AcDbVertex
100
AcDb2dVertex
 10
1.567167792649033
 20
5.414914476940326
 30
0.0
  0
VERTEX
  5
2E4F
330
2711
100
AcDbEntity
  8
0
100
AcDbVertex
100
AcDb2dVertex
 10
1.547475125326199
 20
5.428042921822215
 30
0.0
  0
VERTEX
  5
2E50
330
2711
100
AcDbEntity
  8
0
100
AcDbVertex
100
AcDb2dVertex
 10
1.525156769026986
 20
5.431981455286782
 30
0.0
  0
SEQEND
  5
2E51
330
2711
100
AcDbEntity
  8
0
  0
LINE
  5
2718
330
1E
100
AcDbEntity
  8
0
100
AcDbLine
 10
1.001331818239584
 20
5.431981455286782
 30
0.0
 11
1.525156769026986
 21
5.431981455286782
 31
0.0
  0
LINE
  5
2719
330
1E
100
AcDbEntity
  8
0
100
AcDbLine
 10
1.001331818239584
 20
5.431981455286782
 30
0.0
 11
0.959320794617537
 21
5.416227321428515
 31
0.0
  0
LINE
  5
271A
330
1E
100
AcDbEntity
  8
0
100
AcDbLine
 10
1.248146582019112
 20
5.416227321428515
 30
0.0
 11
0.959320794617537
 21
5.416227321428515
 31
0.0
  0
POLYLINE
  5
271B
330
1E
100
AcDbEntity
  8
0
100
AcDb2dPolyline
 66
     1
 10
0.0
 20
0.0
 30
0.0
  0
VERTEX
  5
2E52
330
271B
100
AcDbEntity
  8
0
100
AcDbVertex
100
AcDb2dVertex
 10
1.248146582019112
 20
4.302935195444263
 30
0.0
  0
VERTEX
  5
2E53
330
271B
100
AcDbEntity
  8
0
100
AcDbVertex
100
AcDb2dVertex
 10
1.317727339893128
 20
4.355448974971823
 30
0.0
  0
VERTEX
  5
2E54
330
271B
100
AcDbEntity
  8
0
100
AcDbVertex
100
AcDb2dVertex
 10
1.380743875326198
 20
4.417152665916703
 30
0.0
  0
VERTEX
  5
2E55
330
271B
100
AcDbEntity
  8
0
100
AcDbVertex
100
AcDb2dVertex
 10
1.434570499341947
 20
4.48673342379072
 30
0.0
  0
VERTEX
  5
2E56
330
271B
100
AcDbEntity
  8
0
100
AcDbVertex
100
AcDb2dVertex
 10
1.477894367452182
 20
4.56287840410568
 30
0.0
  0
VERTEX
  5
2E57
330
271B
100
AcDbEntity
  8
0
100
AcDbVertex
100
AcDb2dVertex
 10
1.512028324145096
 20
4.644274762373397
 30
0.0
  0
VERTEX
  5
2E58
330
271B
100
AcDbEntity
  8
0
100
AcDbVertex
100
AcDb2dVertex
 10
1.535659524932498
 20
4.728296809617491
 30
0.0
  0
VERTEX
  5
2E59
330
271B
100
AcDbEntity
  8
0
100
AcDbVertex
100
AcDb2dVertex
 10
1.547475125326199
 20
4.816257390326152
 30
0.0
  0
VERTEX
  5
2E5A
330
271B
100
AcDbEntity
  8
0
100
AcDbVertex
100
AcDb2dVertex
 10
1.547475125326199
 20
4.904217971034814
 30
0.0
  0
VERTEX
  5
2E5B
330
271B
100
AcDbEntity
  8
0
100
AcDbVertex
100
AcDb2dVertex
 10
1.535659524932498
 20
4.990865707255286
 30
0.0
  0
VERTEX
  5
2E5C
330
271B
100
AcDbEntity
  8
0
100
AcDbVertex
100
AcDb2dVertex
 10
1.512028324145096
 20
5.07620059898757
 30
0.0
  0
VERTEX
  5
2E5D
330
271B
100
AcDbEntity
  8
0
100
AcDbVertex
100
AcDb2dVertex
 10
1.477894367452182
 20
5.156284112767098
 30
0.0
  0
VERTEX
  5
2E5E
330
271B
100
AcDbEntity
  8
0
100
AcDbVertex
100
AcDb2dVertex
 10
1.434570499341947
 20
5.232429093082059
 30
0.0
  0
VERTEX
  5
2E5F
330
271B
100
AcDbEntity
  8
0
100
AcDbVertex
100
AcDb2dVertex
 10
1.380743875326198
 20
5.302009850956074
 30
0.0
  0
VERTEX
  5
2E60
330
271B
100
AcDbEntity
  8
0
100
AcDbVertex
100
AcDb2dVertex
 10
1.317727339893128
 20
5.363713541900956
 30
0.0
  0
VERTEX
  5
2E61
330
271B
100
AcDbEntity
  8
0
100
AcDbVertex
100
AcDb2dVertex
 10
1.248146582019112
 20
5.416227321428515
 30
0.0
  0
SEQEND
  5
2E62
330
271B
100
AcDbEntity
  8
0
  0
LINE
  5
272D
330
1E
100
AcDbEntity
  8
0
100
AcDbLine
 10
0.5168922020978526
 20
4.302935195444263
 30
0.0
 11
1.248146582019112
 21
4.302935195444263
 31
0.0
  0
POLYLINE
  5
272E
330
1E
100
AcDbEntity
  8
0
100
AcDb2dPolyline
 66
     1
 10
0.0
 20
0.0
 30
0.0
  0
VERTEX
  5
2E63
330
272E
100
AcDbEntity
  8
0
100
AcDbVertex
100
AcDb2dVertex
 10
1.248146582019112
 20
4.302935195444263
 30
0.0
  0
VERTEX
  5
2E64
330
272E
100
AcDbEntity
  8
0
100
AcDbVertex
100
AcDb2dVertex
 10
1.246833737530923
 20
4.302935195444263
 30
0.0
  0
VERTEX
  5
2E65
330
272E
100
AcDbEntity
  8
0
100
AcDbVertex
100
AcDb2dVertex
 10
1.246833737530923
 20
4.304248039932453
 30
0.0
  0
SEQEND
  5
2E66
330
272E
100
AcDbEntity
  8
0
  0
LINE
  5
2733
330
1E
100
AcDbEntity
  8
0
100
AcDbLine
 10
1.246833737530923
 20
4.304248039932453
 30
0.0
 11
0.5182050465860418
 21
4.304248039932453
 31
0.0
  0
LINE
  5
2734
330
1E
100
AcDbEntity
  8
0
100
AcDbLine
 10
0.5182050465860418
 20
5.414914476940326
 30
0.0
 11
1.246833737530923
 21
5.414914476940326
 31
0.0
  0
POLYLINE
  5
2735
330
1E
100
AcDbEntity
  8
0
100
AcDb2dPolyline
 66
     1
 10
0.0
 20
0.0
 30
0.0
  0
VERTEX
  5
2E67
330
2735
100
AcDbEntity
  8
0
100
AcDbVertex
100
AcDb2dVertex
 10
1.246833737530923
 20
5.414914476940326
 30
0.0
  0
VERTEX
  5
2E68
330
2735
100
AcDbEntity
  8
0
100
AcDbVertex
100
AcDb2dVertex
 10
1.246833737530923
 20
5.416227321428515
 30
0.0
  0
VERTEX
  5
2E69
330
2735
100
AcDbEntity
  8
0
100
AcDbVertex
100
AcDb2dVertex
 10
1.248146582019112
 20
5.416227321428515
 30
0.0
  0
SEQEND
  5
2E6A
330
2735
100
AcDbEntity
  8
0
  0
LINE
  5
273A
330
1E
100
AcDbEntity
  8
0
100
AcDbLine
 10
0.959320794617537
 20
5.416227321428515
 30
0.0
 11
0.9580079501293488
 21
5.417540165916704
 31
0.0
  0
LINE
  5
273B
330
1E
100
AcDbEntity
  8
0
100
AcDbLine
 10
0.9580079501293488
 20
5.417540165916704
 30
0.0
 11
0.8057179894994268
 21
5.417540165916704
 31
0.0
  0
LINE
  5
273C
330
1E
100
AcDbEntity
  8
0
100
AcDbLine
 10
0.8057179894994268
 20
5.416227321428515
 30
0.0
 11
0.8057179894994268
 21
5.417540165916704
 31
0.0
  0
POLYLINE
  5
273D
330
1E
100
AcDbEntity
  8
0
100
AcDb2dPolyline
 66
     1
 10
0.0
 20
0.0
 30
0.0
  0
VERTEX
  5
2E6B
330
273D
100
AcDbEntity
  8
0
100
AcDbVertex
100
AcDb2dVertex
 10
1.246833737530923
 20
5.414914476940326
 30
0.0
  0
VERTEX
  5
2E6C
330
273D
100
AcDbEntity
  8
0
100
AcDbVertex
100
AcDb2dVertex
 10
1.317727339893128
 20
5.362400697412767
 30
0.0
  0
VERTEX
  5
2E6D
330
273D
100
AcDbEntity
  8
0
100
AcDbVertex
100
AcDb2dVertex
 10
1.37943103083801
 20
5.300697006467885
 30
0.0
  0
VERTEX
  5
2E6E
330
273D
100
AcDbEntity
  8
0
100
AcDbVertex
100
AcDb2dVertex
 10
1.433257654853758
 20
5.23111624859387
 30
0.0
  0
VERTEX
  5
2E6F
330
273D
100
AcDbEntity
  8
0
100
AcDbVertex
100
AcDb2dVertex
 10
1.477894367452182
 20
5.156284112767098
 30
0.0
  0
VERTEX
  5
2E70
330
273D
100
AcDbEntity
  8
0
100
AcDbVertex
100
AcDb2dVertex
 10
1.510715479656907
 20
5.074887754499381
 30
0.0
  0
VERTEX
  5
2E71
330
273D
100
AcDbEntity
  8
0
100
AcDbVertex
100
AcDb2dVertex
 10
1.534346680444309
 20
4.990865707255286
 30
0.0
  0
VERTEX
  5
2E72
330
273D
100
AcDbEntity
  8
0
100
AcDbVertex
100
AcDb2dVertex
 10
1.54616228083801
 20
4.904217971034814
 30
0.0
  0
VERTEX
  5
2E73
330
273D
100
AcDbEntity
  8
0
100
AcDbVertex
100
AcDb2dVertex
 10
1.54616228083801
 20
4.816257390326152
 30
0.0
  0
VERTEX
  5
2E74
330
273D
100
AcDbEntity
  8
0
100
AcDbVertex
100
AcDb2dVertex
 10
1.534346680444309
 20
4.72960965410568
 30
0.0
  0
VERTEX
  5
2E75
330
273D
100
AcDbEntity
  8
0
100
AcDbVertex
100
AcDb2dVertex
 10
1.510715479656907
 20
4.644274762373397
 30
0.0
  0
VERTEX
  5
2E76
330
273D
100
AcDbEntity
  8
0
100
AcDbVertex
100
AcDb2dVertex
 10
1.477894367452182
 20
4.56287840410568
 30
0.0
  0
VERTEX
  5
2E77
330
273D
100
AcDbEntity
  8
0
100
AcDbVertex
100
AcDb2dVertex
 10
1.433257654853758
 20
4.488046268278909
 30
0.0
  0
VERTEX
  5
2E78
330
273D
100
AcDbEntity
  8
0
100
AcDbVertex
100
AcDb2dVertex
 10
1.37943103083801
 20
4.418465510404893
 30
0.0
  0
VERTEX
  5
2E79
330
273D
100
AcDbEntity
  8
0
100
AcDbVertex
100
AcDb2dVertex
 10
1.317727339893128
 20
4.356761819460011
 30
0.0
  0
VERTEX
  5
2E7A
330
273D
100
AcDbEntity
  8
0
100
AcDbVertex
100
AcDb2dVertex
 10
1.246833737530923
 20
4.304248039932453
 30
0.0
  0
SEQEND
  5
2E7B
330
273D
100
AcDbEntity
  8
0
  0
LINE
  5
274F
330
1E
100
AcDbEntity
  8
0
100
AcDbLine
 10
1.172001601704152
 20
4.5366215143419
 30
0.0
 11
0.5917243379246245
 21
4.5366215143419
 31
0.0
  0
LINE
  5
2750
330
1E
100
AcDbEntity
  8
0
100
AcDbLine
 10
1.172001601704152
 20
5.182541002530877
 30
0.0
 11
0.5917243379246245
 21
5.182541002530877
 31
0.0
  0
LINE
  5
2751
330
1E
100
AcDbEntity
  8
0
100
AcDbLine
 10
0.4249930879246247
 20
3.948467183633239
 30
0.0
 11
0.6416124284758054
 21
3.731847843082058
 31
0.0
  0
LINE
  5
2752
330
1E
100
AcDbEntity
  8
0
100
AcDbLine
 10
0.6429252729639945
 20
3.746289132452138
 30
0.0
 11
0.4407472217828925
 21
3.949780028121429
 31
0.0
  0
LINE
  5
2753
330
1E
100
AcDbEntity
  8
0
100
AcDbLine
 10
0.6442381174521837
 20
3.750227665916703
 30
0.0
 11
0.4446857552474591
 21
3.949780028121429
 31
0.0
  0
LINE
  5
2754
330
1E
100
AcDbEntity
  8
0
100
AcDbLine
 10
0.6481766509167502
 20
3.750227665916703
 30
0.0
 11
0.4446857552474591
 21
3.953718561585995
 31
0.0
  0
LINE
  5
2755
330
1E
100
AcDbEntity
  8
0
100
AcDbLine
 10
0.4433729107592699
 20
3.970785539932452
 30
0.0
 11
0.6652436292632072
 21
3.750227665916703
 31
0.0
  0
LINE
  5
2756
330
1E
100
AcDbEntity
  8
0
100
AcDbLine
 10
0.6652436292632072
 20
7.501024368672609
 30
0.0
 11
0.4433729107592699
 21
7.280466494656861
 31
0.0
  0
LINE
  5
2757
330
1E
100
AcDbEntity
  8
0
100
AcDbLine
 10
0.6481766509167502
 20
7.501024368672609
 30
0.0
 11
0.4446857552474591
 21
7.297533473003317
 31
0.0
  0
LINE
  5
2758
330
1E
100
AcDbEntity
  8
0
100
AcDbLine
 10
0.6442381174521837
 20
7.501024368672609
 30
0.0
 11
0.4446857552474591
 21
7.301472006467886
 31
0.0
  0
POLYLINE
  5
2759
330
1E
100
AcDbEntity
  8
0
100
AcDb2dPolyline
 66
     1
 10
0.0
 20
0.0
 30
0.0
  0
VERTEX
  5
2E7C
330
2759
100
AcDbEntity
  8
0
100
AcDbVertex
100
AcDb2dVertex
 10
0.6429252729639945
 20
7.504962902137177
 30
0.0
  0
VERTEX
  5
2E7D
330
2759
100
AcDbEntity
  8
0
100
AcDbVertex
100
AcDb2dVertex
 10
0.6442381174521837
 20
7.502337213160799
 30
0.0
  0
VERTEX
  5
2E7E
330
2759
100
AcDbEntity
  8
0
100
AcDbVertex
100
AcDb2dVertex
 10
0.6442381174521837
 20
7.501024368672609
 30
0.0
  0
SEQEND
  5
2E7F
330
2759
100
AcDbEntity
  8
0
  0
LINE
  5
275E
330
1E
100
AcDbEntity
  8
0
100
AcDbLine
 10
0.6429252729639945
 20
7.504962902137176
 30
0.0
 11
0.4407472217828925
 21
7.301472006467886
 31
0.0
  0
LINE
  5
275F
330
1E
100
AcDbEntity
  8
0
100
AcDbLine
 10
0.6416124284758054
 20
7.519404191507256
 30
0.0
 11
0.4249930879246247
 21
7.302784850956074
 31
0.0
  0
LINE
  5
2760
330
1E
100
AcDbEntity
  8
0
100
AcDbLine
 10
1.099795154853757
 20
3.750227665916703
 30
0.0
 11
1.320353028869505
 21
3.970785539932452
 31
0.0
  0
LINE
  5
2761
330
1E
100
AcDbEntity
  8
0
100
AcDbLine
 10
1.320353028869505
 20
7.280466494656861
 30
0.0
 11
1.099795154853757
 21
7.501024368672609
 31
0.0
  0
LINE
  5
2762
330
1E
100
AcDbEntity
  8
0
100
AcDbLine
 10
1.001331818239584
 20
5.433294299774972
 30
0.0
 11
1.525156769026986
 21
5.433294299774972
 31
0.0
  0
POLYLINE
  5
2763
330
1E
100
AcDbEntity
  8
0
100
AcDb2dPolyline
 66
     1
 10
0.0
 20
0.0
 30
0.0
  0
VERTEX
  5
2E80
330
2763
100
AcDbEntity
  8
0
100
AcDbVertex
100
AcDb2dVertex
 10
1.525156769026986
 20
5.433294299774972
 30
0.0
  0
VERTEX
  5
2E81
330
2763
100
AcDbEntity
  8
0
100
AcDbVertex
100
AcDb2dVertex
 10
1.548787969814388
 20
5.429355766310405
 30
0.0
  0
VERTEX
  5
2E82
330
2763
100
AcDbEntity
  8
0
100
AcDbVertex
100
AcDb2dVertex
 10
1.568480637137222
 20
5.416227321428515
 30
0.0
  0
VERTEX
  5
2E83
330
2763
100
AcDbEntity
  8
0
100
AcDbVertex
100
AcDb2dVertex
 10
1.581609082019112
 20
5.39653465410568
 30
0.0
  0
VERTEX
  5
2E84
330
2763
100
AcDbEntity
  8
0
100
AcDbVertex
100
AcDb2dVertex
 10
1.585547615483679
 20
5.372903453318279
 30
0.0
  0
SEQEND
  5
2E85
330
2763
100
AcDbEntity
  8
0
  0
LINE
  5
276A
330
1E
100
AcDbEntity
  8
0
100
AcDbLine
 10
1.585547615483679
 20
5.372903453318279
 30
0.0
 11
1.585547615483679
 21
4.322627862767097
 31
0.0
  0
POLYLINE
  5
276B
330
1E
100
AcDbEntity
  8
0
100
AcDb2dPolyline
 66
     1
 10
0.0
 20
0.0
 30
0.0
  0
VERTEX
  5
2E86
330
276B
100
AcDbEntity
  8
0
100
AcDbVertex
100
AcDb2dVertex
 10
1.585547615483679
 20
4.322627862767097
 30
0.0
  0
VERTEX
  5
2E87
330
276B
100
AcDbEntity
  8
0
100
AcDbVertex
100
AcDb2dVertex
 10
1.581609082019112
 20
4.300309506467885
 30
0.0
  0
VERTEX
  5
2E88
330
276B
100
AcDbEntity
  8
0
100
AcDbVertex
100
AcDb2dVertex
 10
1.568480637137222
 20
4.28061683914505
 30
0.0
  0
VERTEX
  5
2E89
330
276B
100
AcDbEntity
  8
0
100
AcDbVertex
100
AcDb2dVertex
 10
1.548787969814388
 20
4.267488394263161
 30
0.0
  0
VERTEX
  5
2E8A
330
276B
100
AcDbEntity
  8
0
100
AcDbVertex
100
AcDb2dVertex
 10
1.525156769026986
 20
4.262237016310405
 30
0.0
  0
SEQEND
  5
2E8B
330
276B
100
AcDbEntity
  8
0
  0
LINE
  5
2772
330
1E
100
AcDbEntity
  8
0
100
AcDbLine
 10
0.7623941213891916
 20
5.433294299774972
 30
0.0
 11
0.8057179894994268
 21
5.417540165916704
 31
0.0
  0
LINE
  5
2773
330
1E
100
AcDbEntity
  8
0
100
AcDbLine
 10
1.001331818239584
 20
5.433294299774972
 30
0.0
 11
0.9580079501293488
 21
5.417540165916704
 31
0.0
  0
LINE
  5
2774
330
1E
100
AcDbEntity
  8
0
100
AcDbLine
 10
0.2385691706017896
 20
6.98770217379072
 30
0.0
 11
1.525156769026986
 21
6.98770217379072
 31
0.0
  0
POLYLINE
  5
2775
330
1E
100
AcDbEntity
  8
0
100
AcDb2dPolyline
 66
     1
 10
0.0
 20
0.0
 30
0.0
  0
VERTEX
  5
2E8C
330
2775
100
AcDbEntity
  8
0
100
AcDbVertex
100
AcDb2dVertex
 10
1.525156769026986
 20
6.98770217379072
 30
0.0
  0
VERTEX
  5
2E8D
330
2775
100
AcDbEntity
  8
0
100
AcDbVertex
100
AcDb2dVertex
 10
1.548787969814388
 20
6.983763640326153
 30
0.0
  0
VERTEX
  5
2E8E
330
2775
100
AcDbEntity
  8
0
100
AcDbVertex
100
AcDb2dVertex
 10
1.568480637137222
 20
6.970635195444262
 30
0.0
  0
VERTEX
  5
2E8F
330
2775
100
AcDbEntity
  8
0
100
AcDbVertex
100
AcDb2dVertex
 10
1.581609082019112
 20
6.950942528121429
 30
0.0
  0
VERTEX
  5
2E90
330
2775
100
AcDbEntity
  8
0
100
AcDbVertex
100
AcDb2dVertex
 10
1.585547615483679
 20
6.928624171822215
 30
0.0
  0
SEQEND
  5
2E91
330
2775
100
AcDbEntity
  8
0
  0
LINE
  5
277C
330
1E
100
AcDbEntity
  8
0
100
AcDbLine
 10
1.585547615483679
 20
5.878348581271035
 30
0.0
 11
1.585547615483679
 21
6.928624171822216
 31
0.0
  0
POLYLINE
  5
277D
330
1E
100
AcDbEntity
  8
0
100
AcDb2dPolyline
 66
     1
 10
0.0
 20
0.0
 30
0.0
  0
VERTEX
  5
2E92
330
277D
100
AcDbEntity
  8
0
100
AcDbVertex
100
AcDb2dVertex
 10
1.525156769026986
 20
5.817957734814341
 30
0.0
  0
VERTEX
  5
2E93
330
277D
100
AcDbEntity
  8
0
100
AcDbVertex
100
AcDb2dVertex
 10
1.548787969814388
 20
5.821896268278909
 30
0.0
  0
VERTEX
  5
2E94
330
277D
100
AcDbEntity
  8
0
100
AcDbVertex
100
AcDb2dVertex
 10
1.568480637137222
 20
5.835024713160798
 30
0.0
  0
VERTEX
  5
2E95
330
277D
100
AcDbEntity
  8
0
100
AcDbVertex
100
AcDb2dVertex
 10
1.581609082019112
 20
5.854717380483632
 30
0.0
  0
VERTEX
  5
2E96
330
277D
100
AcDbEntity
  8
0
100
AcDbVertex
100
AcDb2dVertex
 10
1.585547615483679
 20
5.878348581271035
 30
0.0
  0
SEQEND
  5
2E97
330
277D
100
AcDbEntity
  8
0
  0
LINE
  5
2784
330
1E
100
AcDbEntity
  8
0
100
AcDbLine
 10
1.525156769026986
 20
5.817957734814341
 30
0.0
 11
1.001331818239584
 21
5.817957734814341
 31
0.0
  0
LINE
  5
2785
330
1E
100
AcDbEntity
  8
0
100
AcDbLine
 10
1.001331818239584
 20
5.817957734814341
 30
0.0
 11
0.9580079501293488
 21
5.833711868672609
 31
0.0
  0
LINE
  5
2786
330
1E
100
AcDbEntity
  8
0
100
AcDbLine
 10
0.7623941213891916
 20
5.817957734814341
 30
0.0
 11
0.8057179894994268
 21
5.833711868672609
 31
0.0
  0
LINE
  5
2787
330
1E
100
AcDbEntity
  8
0
100
AcDbLine
 10
0.8779244363498213
 20
5.768069644263161
 30
0.0
 11
0.8871143477671443
 21
5.768069644263161
 31
0.0
  0
LINE
  5
2788
330
1E
100
AcDbEntity
  8
0
100
AcDbLine
 10
1.248146582019112
 20
6.94831683914505
 30
0.0
 11
0.5168922020978526
 21
6.94831683914505
 31
0.0
  0
POLYLINE
  5
2789
330
1E
100
AcDbEntity
  8
0
100
AcDb2dPolyline
 66
     1
 10
0.0
 20
0.0
 30
0.0
  0
VERTEX
  5
2E98
330
2789
100
AcDbEntity
  8
0
100
AcDbVertex
100
AcDb2dVertex
 10
1.248146582019112
 20
5.833711868672609
 30
0.0
  0
VERTEX
  5
2E99
330
2789
100
AcDbEntity
  8
0
100
AcDbVertex
100
AcDb2dVertex
 10
1.317727339893128
 20
5.887538492688358
 30
0.0
  0
VERTEX
  5
2E9A
330
2789
100
AcDbEntity
  8
0
100
AcDbVertex
100
AcDb2dVertex
 10
1.380743875326198
 20
5.949242183633239
 30
0.0
  0
VERTEX
  5
2E9B
330
2789
100
AcDbEntity
  8
0
100
AcDbVertex
100
AcDb2dVertex
 10
1.434570499341947
 20
6.018822941507255
 30
0.0
  0
VERTEX
  5
2E9C
330
2789
100
AcDbEntity
  8
0
100
AcDbVertex
100
AcDb2dVertex
 10
1.477894367452182
 20
6.094967921822215
 30
0.0
  0
VERTEX
  5
2E9D
330
2789
100
AcDbEntity
  8
0
100
AcDbVertex
100
AcDb2dVertex
 10
1.512028324145096
 20
6.175051435601743
 30
0.0
  0
VERTEX
  5
2E9E
330
2789
100
AcDbEntity
  8
0
100
AcDbVertex
100
AcDb2dVertex
 10
1.535659524932498
 20
6.260386327334027
 30
0.0
  0
VERTEX
  5
2E9F
330
2789
100
AcDbEntity
  8
0
100
AcDbVertex
100
AcDb2dVertex
 10
1.547475125326199
 20
6.3470340635545
 30
0.0
  0
VERTEX
  5
2EA0
330
2789
100
AcDbEntity
  8
0
100
AcDbVertex
100
AcDb2dVertex
 10
1.547475125326199
 20
6.43499464426316
 30
0.0
  0
VERTEX
  5
2EA1
330
2789
100
AcDbEntity
  8
0
100
AcDbVertex
100
AcDb2dVertex
 10
1.535659524932498
 20
6.522955224971821
 30
0.0
  0
VERTEX
  5
2EA2
330
2789
100
AcDbEntity
  8
0
100
AcDbVertex
100
AcDb2dVertex
 10
1.512028324145096
 20
6.606977272215917
 30
0.0
  0
VERTEX
  5
2EA3
330
2789
100
AcDbEntity
  8
0
100
AcDbVertex
100
AcDb2dVertex
 10
1.477894367452182
 20
6.688373630483632
 30
0.0
  0
VERTEX
  5
2EA4
330
2789
100
AcDbEntity
  8
0
100
AcDbVertex
100
AcDb2dVertex
 10
1.434570499341947
 20
6.764518610798593
 30
0.0
  0
VERTEX
  5
2EA5
330
2789
100
AcDbEntity
  8
0
100
AcDbVertex
100
AcDb2dVertex
 10
1.380743875326198
 20
6.834099368672609
 30
0.0
  0
VERTEX
  5
2EA6
330
2789
100
AcDbEntity
  8
0
100
AcDbVertex
100
AcDb2dVertex
 10
1.317727339893128
 20
6.895803059617491
 30
0.0
  0
VERTEX
  5
2EA7
330
2789
100
AcDbEntity
  8
0
100
AcDbVertex
100
AcDb2dVertex
 10
1.248146582019112
 20
6.948316839145051
 30
0.0
  0
SEQEND
  5
2EA8
330
2789
100
AcDbEntity
  8
0
  0
LINE
  5
279B
330
1E
100
AcDbEntity
  8
0
100
AcDbLine
 10
0.959320794617537
 20
5.833711868672609
 30
0.0
 11
1.001331818239584
 21
5.81927057930253
 31
0.0
  0
LINE
  5
279C
330
1E
100
AcDbEntity
  8
0
100
AcDbLine
 10
1.001331818239584
 20
5.81927057930253
 30
0.0
 11
1.525156769026986
 21
5.81927057930253
 31
0.0
  0
POLYLINE
  5
279D
330
1E
100
AcDbEntity
  8
0
100
AcDb2dPolyline
 66
     1
 10
0.0
 20
0.0
 30
0.0
  0
VERTEX
  5
2EA9
330
279D
100
AcDbEntity
  8
0
100
AcDbVertex
100
AcDb2dVertex
 10
1.525156769026986
 20
5.81927057930253
 30
0.0
  0
VERTEX
  5
2EAA
330
279D
100
AcDbEntity
  8
0
100
AcDbVertex
100
AcDb2dVertex
 10
1.547475125326199
 20
5.823209112767098
 30
0.0
  0
VERTEX
  5
2EAB
330
279D
100
AcDbEntity
  8
0
100
AcDbVertex
100
AcDb2dVertex
 10
1.567167792649033
 20
5.836337557648987
 30
0.0
  0
VERTEX
  5
2EAC
330
279D
100
AcDbEntity
  8
0
100
AcDbVertex
100
AcDb2dVertex
 10
1.580296237530923
 20
5.856030224971822
 30
0.0
  0
VERTEX
  5
2EAD
330
279D
100
AcDbEntity
  8
0
100
AcDbVertex
100
AcDb2dVertex
 10
1.58423477099549
 20
5.878348581271035
 30
0.0
  0
SEQEND
  5
2EAE
330
279D
100
AcDbEntity
  8
0
  0
LINE
  5
27A4
330
1E
100
AcDbEntity
  8
0
100
AcDbLine
 10
1.58423477099549
 20
6.927311327334026
 30
0.0
 11
1.58423477099549
 21
5.878348581271035
 31
0.0
  0
POLYLINE
  5
27A5
330
1E
100
AcDbEntity
  8
0
100
AcDb2dPolyline
 66
     1
 10
0.0
 20
0.0
 30
0.0
  0
VERTEX
  5
2EAF
330
27A5
100
AcDbEntity
  8
0
100
AcDbVertex
100
AcDb2dVertex
 10
1.58423477099549
 20
6.927311327334026
 30
0.0
  0
VERTEX
  5
2EB0
330
27A5
100
AcDbEntity
  8
0
100
AcDbVertex
100
AcDb2dVertex
 10
1.580296237530923
 20
6.950942528121429
 30
0.0
  0
VERTEX
  5
2EB1
330
27A5
100
AcDbEntity
  8
0
100
AcDbVertex
100
AcDb2dVertex
 10
1.567167792649033
 20
6.969322350956073
 30
0.0
  0
VERTEX
  5
2EB2
330
27A5
100
AcDbEntity
  8
0
100
AcDbVertex
100
AcDb2dVertex
 10
1.547475125326199
 20
6.982450795837965
 30
0.0
  0
VERTEX
  5
2EB3
330
27A5
100
AcDbEntity
  8
0
100
AcDbVertex
100
AcDb2dVertex
 10
1.525156769026986
 20
6.98770217379072
 30
0.0
  0
SEQEND
  5
2EB4
330
27A5
100
AcDbEntity
  8
0
  0
LINE
  5
27AC
330
1E
100
AcDbEntity
  8
0
100
AcDbLine
 10
0.2398820150899787
 20
6.98770217379072
 30
0.0
 11
1.525156769026986
 21
6.98770217379072
 31
0.0
  0
LINE
  5
27AD
330
1E
100
AcDbEntity
  8
0
100
AcDbLine
 10
0.8057179894994268
 20
5.833711868672609
 30
0.0
 11
0.7623941213891916
 21
5.81927057930253
 31
0.0
  0
POLYLINE
  5
27AE
330
1E
100
AcDbEntity
  8
0
100
AcDb2dPolyline
 66
     1
 10
0.0
 20
0.0
 30
0.0
  0
VERTEX
  5
2EB5
330
27AE
100
AcDbEntity
  8
0
100
AcDbVertex
100
AcDb2dVertex
 10
1.246833737530923
 20
6.947003994656861
 30
0.0
  0
VERTEX
  5
2EB6
330
27AE
100
AcDbEntity
  8
0
100
AcDbVertex
100
AcDb2dVertex
 10
1.246833737530923
 20
6.948316839145051
 30
0.0
  0
VERTEX
  5
2EB7
330
27AE
100
AcDbEntity
  8
0
100
AcDbVertex
100
AcDb2dVertex
 10
1.248146582019112
 20
6.948316839145051
 30
0.0
  0
SEQEND
  5
2EB8
330
27AE
100
AcDbEntity
  8
0
  0
LINE
  5
27B3
330
1E
100
AcDbEntity
  8
0
100
AcDbLine
 10
1.525156769026986
 20
6.98770217379072
 30
0.0
 11
1.525156769026986
 21
6.98770217379072
 31
0.0
  0
LINE
  5
27B4
330
1E
100
AcDbEntity
  8
0
100
AcDbLine
 10
1.001331818239584
 20
5.81927057930253
 30
0.0
 11
1.001331818239584
 21
5.817957734814341
 31
0.0
  0
LINE
  5
27B5
330
1E
100
AcDbEntity
  8
0
100
AcDbLine
 10
1.001331818239584
 20
5.431981455286782
 30
0.0
 11
1.001331818239584
 21
5.433294299774972
 31
0.0
  0
LINE
  5
27B6
330
1E
100
AcDbEntity
  8
0
100
AcDbLine
 10
1.525156769026986
 20
5.431981455286782
 30
0.0
 11
1.525156769026986
 21
5.433294299774972
 31
0.0
  0
LINE
  5
27B7
330
1E
100
AcDbEntity
  8
0
100
AcDbLine
 10
1.525156769026986
 20
5.817957734814341
 30
0.0
 11
1.525156769026986
 21
5.81927057930253
 31
0.0
  0
LINE
  5
27B8
330
1E
100
AcDbEntity
  8
0
100
AcDbLine
 10
1.116862133200214
 20
7.501024368672609
 30
0.0
 11
1.320353028869505
 21
7.297533473003317
 31
0.0
  0
LINE
  5
27B9
330
1E
100
AcDbEntity
  8
0
100
AcDbLine
 10
1.120800666664781
 20
7.501024368672609
 30
0.0
 11
1.320353028869505
 21
7.301472006467886
 31
0.0
  0
LINE
  5
27BA
330
1E
100
AcDbEntity
  8
0
100
AcDbLine
 10
1.120800666664781
 20
7.504962902137176
 30
0.0
 11
1.324291562334073
 21
7.301472006467886
 31
0.0
  0
LINE
  5
27BB
330
1E
100
AcDbEntity
  8
0
100
AcDbLine
 10
1.338732851704151
 20
7.302784850956074
 30
0.0
 11
1.122113511152971
 21
7.519404191507256
 31
0.0
  0
LINE
  5
27BC
330
1E
100
AcDbEntity
  8
0
100
AcDbLine
 10
1.58423477099549
 20
5.878348581271035
 30
0.0
 11
1.585547615483679
 21
5.878348581271035
 31
0.0
  0
LINE
  5
27BD
330
1E
100
AcDbEntity
  8
0
100
AcDbLine
 10
1.585547615483679
 20
6.928624171822216
 30
0.0
 11
1.58423477099549
 21
6.927311327334026
 31
0.0
  0
LINE
  5
27BE
330
1E
100
AcDbEntity
  8
0
100
AcDbLine
 10
1.585547615483679
 20
5.372903453318279
 30
0.0
 11
1.58423477099549
 21
5.372903453318279
 31
0.0
  0
LINE
  5
27BF
330
1E
100
AcDbEntity
  8
0
100
AcDbLine
 10
1.58423477099549
 20
4.323940707255286
 30
0.0
 11
1.585547615483679
 21
4.322627862767097
 31
0.0
  0
LINE
  5
27C0
330
1E
100
AcDbEntity
  8
0
100
AcDbLine
 10
1.122113511152971
 20
3.731847843082058
 30
0.0
 11
1.338732851704151
 21
3.948467183633239
 31
0.0
  0
LINE
  5
27C1
330
1E
100
AcDbEntity
  8
0
100
AcDbLine
 10
1.120800666664781
 20
3.746289132452138
 30
0.0
 11
1.324291562334073
 21
3.949780028121429
 31
0.0
  0
LINE
  5
27C2
330
1E
100
AcDbEntity
  8
0
100
AcDbLine
 10
1.120800666664781
 20
3.750227665916703
 30
0.0
 11
1.320353028869505
 21
3.949780028121429
 31
0.0
  0
LINE
  5
27C3
330
1E
100
AcDbEntity
  8
0
100
AcDbLine
 10
1.116862133200214
 20
3.750227665916703
 30
0.0
 11
1.320353028869505
 21
3.953718561585995
 31
0.0
  0
LINE
  5
27C4
330
1E
100
AcDbEntity
  8
0
100
AcDbLine
 10
0.9908290623340736
 20
7.315913295837964
 30
0.0
 11
0.7742097217828921
 21
7.315913295837964
 31
0.0
  0
LINE
  5
27C5
330
1E
100
AcDbEntity
  8
0
100
AcDbLine
 10
0.7742097217828921
 20
7.217449959223791
 30
0.0
 11
0.9908290623340736
 21
7.217449959223791
 31
0.0
  0
LINE
  5
27C6
330
1E
100
AcDbEntity
  8
0
100
AcDbLine
 10
0.9908290623340736
 20
3.93533873875135
 30
0.0
 11
0.7742097217828921
 21
3.93533873875135
 31
0.0
  0
LINE
  5
27C7
330
1E
100
AcDbEntity
  8
0
100
AcDbLine
 10
0.7742097217828921
 20
4.033802075365523
 30
0.0
 11
0.9908290623340736
 21
4.033802075365523
 31
0.0
  0
POLYLINE
  5
27C8
330
1E
100
AcDbEntity
  8
0
100
AcDb2dPolyline
 66
     1
 10
0.0
 20
0.0
 30
0.0
  0
VERTEX
  5
2EB9
330
27C8
100
AcDbEntity
  8
0
100
AcDbVertex
100
AcDb2dVertex
 10
0.7742097217828921
 20
3.93533873875135
 30
0.0
  0
VERTEX
  5
2EBA
330
27C8
100
AcDbEntity
  8
0
100
AcDbVertex
100
AcDb2dVertex
 10
0.7597684324128134
 20
3.966847006467885
 30
0.0
  0
VERTEX
  5
2EBB
330
27C8
100
AcDbEntity
  8
0
100
AcDbVertex
100
AcDb2dVertex
 10
0.7597684324128134
 20
4.002293807648988
 30
0.0
  0
VERTEX
  5
2EBC
330
27C8
100
AcDbEntity
  8
0
100
AcDbVertex
100
AcDb2dVertex
 10
0.7742097217828921
 20
4.033802075365523
 30
0.0
  0
SEQEND
  5
2EBD
330
27C8
100
AcDbEntity
  8
0
  0
POLYLINE
  5
27CE
330
1E
100
AcDbEntity
  8
0
100
AcDb2dPolyline
 66
     1
 10
0.0
 20
0.0
 30
0.0
  0
VERTEX
  5
2EBE
330
27CE
100
AcDbEntity
  8
0
100
AcDbVertex
100
AcDb2dVertex
 10
0.9908290623340736
 20
3.93533873875135
 30
0.0
  0
VERTEX
  5
2EBF
330
27CE
100
AcDbEntity
  8
0
100
AcDbVertex
100
AcDb2dVertex
 10
1.005270351704151
 20
3.966847006467885
 30
0.0
  0
VERTEX
  5
2EC0
330
27CE
100
AcDbEntity
  8
0
100
AcDbVertex
100
AcDb2dVertex
 10
1.005270351704151
 20
4.002293807648988
 30
0.0
  0
VERTEX
  5
2EC1
330
27CE
100
AcDbEntity
  8
0
100
AcDbVertex
100
AcDb2dVertex
 10
0.9908290623340736
 20
4.033802075365523
 30
0.0
  0
SEQEND
  5
2EC2
330
27CE
100
AcDbEntity
  8
0
  0
POLYLINE
  5
27D4
330
1E
100
AcDbEntity
  8
0
100
AcDb2dPolyline
 66
     1
 10
0.0
 20
0.0
 30
0.0
  0
VERTEX
  5
2EC3
330
27D4
100
AcDbEntity
  8
0
100
AcDbVertex
100
AcDb2dVertex
 10
0.9908290623340736
 20
7.315913295837964
 30
0.0
  0
VERTEX
  5
2EC4
330
27D4
100
AcDbEntity
  8
0
100
AcDbVertex
100
AcDb2dVertex
 10
1.005270351704151
 20
7.284405028121429
 30
0.0
  0
VERTEX
  5
2EC5
330
27D4
100
AcDbEntity
  8
0
100
AcDbVertex
100
AcDb2dVertex
 10
1.005270351704151
 20
7.248958226940326
 30
0.0
  0
VERTEX
  5
2EC6
330
27D4
100
AcDbEntity
  8
0
100
AcDbVertex
100
AcDb2dVertex
 10
0.9908290623340736
 20
7.217449959223791
 30
0.0
  0
SEQEND
  5
2EC7
330
27D4
100
AcDbEntity
  8
0
  0
POLYLINE
  5
27DA
330
1E
100
AcDbEntity
  8
0
100
AcDb2dPolyline
 66
     1
 10
0.0
 20
0.0
 30
0.0
  0
VERTEX
  5
2EC8
330
27DA
100
AcDbEntity
  8
0
100
AcDbVertex
100
AcDb2dVertex
 10
0.7742097217828921
 20
7.315913295837964
 30
0.0
  0
VERTEX
  5
2EC9
330
27DA
100
AcDbEntity
  8
0
100
AcDbVertex
100
AcDb2dVertex
 10
0.7597684324128134
 20
7.284405028121429
 30
0.0
  0
VERTEX
  5
2ECA
330
27DA
100
AcDbEntity
  8
0
100
AcDbVertex
100
AcDb2dVertex
 10
0.7597684324128134
 20
7.248958226940326
 30
0.0
  0
VERTEX
  5
2ECB
330
27DA
100
AcDbEntity
  8
0
100
AcDbVertex
100
AcDb2dVertex
 10
0.7742097217828921
 20
7.217449959223791
 30
0.0
  0
SEQEND
  5
2ECC
330
27DA
100
AcDbEntity
  8
0
  0
LINE
  5
27E0
330
1E
100
AcDbEntity
  8
0
100
AcDbLine
 10
4.056320942255333
 20
7.674319841113554
 30
0.0
 11
3.963108983593915
 21
7.675632685601744
 31
0.0
  0
LINE
  5
27E1
330
1E
100
AcDbEntity
  8
0
100
AcDbLine
 10
3.963108983593915
 20
3.57561934898757
 30
0.0
 11
4.056320942255333
 21
3.576932193475759
 31
0.0
  0
LINE
  5
27E2
330
1E
100
AcDbEntity
  8
0
100
AcDbLine
 10
3.997242940286828
 20
7.301472006467886
 30
0.0
 11
3.997242940286828
 21
7.301472006467886
 31
0.0
  0
LINE
  5
27E3
330
1E
100
AcDbEntity
  8
0
100
AcDbLine
 10
4.255873304460057
 20
5.476618167885209
 30
0.0
 11
4.355649485562419
 21
5.477931012373397
 31
0.0
  0
LINE
  5
27E4
330
1E
100
AcDbEntity
  8
0
100
AcDbLine
 10
4.355649485562419
 20
5.773321022215917
 30
0.0
 11
4.255873304460057
 21
5.774633866704106
 31
0.0
  0
LINE
  5
27E5
330
1E
100
AcDbEntity
  8
0
100
AcDbLine
 10
3.963108983593915
 20
5.747064132452138
 30
0.0
 11
3.963108983593915
 21
5.752315510404893
 31
0.0
  0
LINE
  5
27E6
330
1E
100
AcDbEntity
  8
0
100
AcDbLine
 10
3.963108983593915
 20
5.690611819460011
 30
0.0
 11
3.963108983593915
 21
5.690611819460011
 31
0.0
  0
LINE
  5
27E7
330
1E
100
AcDbEntity
  8
0
100
AcDbLine
 10
3.963108983593915
 20
5.752315510404893
 30
0.0
 11
3.963108983593915
 21
5.708991642294656
 31
0.0
  0
LINE
  5
27E8
330
1E
100
AcDbEntity
  8
0
100
AcDbLine
 10
3.963108983593915
 20
5.747064132452138
 30
0.0
 11
3.963108983593915
 21
5.727371465129302
 31
0.0
  0
LINE
  5
27E9
330
1E
100
AcDbEntity
  8
0
100
AcDbLine
 10
3.963108983593915
 20
5.702427419853711
 30
0.0
 11
3.963108983593915
 21
5.690611819460011
 31
0.0
  0
LINE
  5
27EA
330
1E
100
AcDbEntity
  8
0
100
AcDbLine
 10
3.963108983593915
 20
5.690611819460011
 30
0.0
 11
3.963108983593915
 21
5.752315510404893
 31
0.0
  0
LINE
  5
27EB
330
1E
100
AcDbEntity
  8
0
100
AcDbLine
 10
3.963108983593915
 20
5.727371465129302
 30
0.0
 11
3.963108983593915
 21
5.727371465129302
 31
0.0
  0
LINE
  5
27EC
330
1E
100
AcDbEntity
  8
0
100
AcDbLine
 10
3.963108983593915
 20
5.752315510404893
 30
0.0
 11
3.963108983593915
 21
5.752315510404893
 31
0.0
  0
LINE
  5
27ED
330
1E
100
AcDbEntity
  8
0
100
AcDbLine
 10
3.963108983593915
 20
5.702427419853711
 30
0.0
 11
3.963108983593915
 21
5.740499910011192
 31
0.0
  0
LINE
  5
27EE
330
1E
100
AcDbEntity
  8
0
100
AcDbLine
 10
3.963108983593915
 20
5.727371465129302
 30
0.0
 11
3.963108983593915
 21
5.727371465129302
 31
0.0
  0
LINE
  5
27EF
330
1E
100
AcDbEntity
  8
0
100
AcDbLine
 10
3.963108983593915
 20
5.727371465129302
 30
0.0
 11
3.963108983593915
 21
5.715555864735602
 31
0.0
  0
LINE
  5
27F0
330
1E
100
AcDbEntity
  8
0
100
AcDbLine
 10
3.963108983593915
 20
5.702427419853711
 30
0.0
 11
3.963108983593915
 21
5.690611819460011
 31
0.0
  0
LINE
  5
27F1
330
1E
100
AcDbEntity
  8
0
100
AcDbLine
 10
3.963108983593915
 20
5.727371465129302
 30
0.0
 11
3.963108983593915
 21
5.747064132452138
 31
0.0
  0
LINE
  5
27F2
330
1E
100
AcDbEntity
  8
0
100
AcDbLine
 10
3.963108983593915
 20
5.752315510404893
 30
0.0
 11
3.963108983593915
 21
5.690611819460011
 31
0.0
  0
LINE
  5
27F3
330
1E
100
AcDbEntity
  8
0
100
AcDbLine
 10
3.963108983593915
 20
5.690611819460011
 30
0.0
 11
3.963108983593915
 21
5.690611819460011
 31
0.0
  0
LINE
  5
27F4
330
1E
100
AcDbEntity
  8
0
100
AcDbLine
 10
3.963108983593915
 20
5.727371465129302
 30
0.0
 11
3.963108983593915
 21
5.715555864735602
 31
0.0
  0
LINE
  5
27F5
330
1E
100
AcDbEntity
  8
0
100
AcDbLine
 10
3.963108983593915
 20
5.752315510404893
 30
0.0
 11
3.963108983593915
 21
5.690611819460011
 31
0.0
  0
LINE
  5
27F6
330
1E
100
AcDbEntity
  8
0
100
AcDbLine
 10
3.963108983593915
 20
5.697176041900956
 30
0.0
 11
3.963108983593915
 21
5.690611819460011
 31
0.0
  0
LINE
  5
27F7
330
1E
100
AcDbEntity
  8
0
100
AcDbLine
 10
3.963108983593915
 20
5.690611819460011
 30
0.0
 11
3.963108983593915
 21
5.752315510404893
 31
0.0
  0
LINE
  5
27F8
330
1E
100
AcDbEntity
  8
0
100
AcDbLine
 10
3.963108983593915
 20
5.690611819460011
 30
0.0
 11
3.963108983593915
 21
5.752315510404893
 31
0.0
  0
LINE
  5
27F9
330
1E
100
AcDbEntity
  8
0
100
AcDbLine
 10
3.963108983593915
 20
5.715555864735602
 30
0.0
 11
3.963108983593915
 21
5.727371465129302
 31
0.0
  0
LINE
  5
27FA
330
1E
100
AcDbEntity
  8
0
100
AcDbLine
 10
3.963108983593915
 20
5.690611819460011
 30
0.0
 11
3.963108983593915
 21
5.752315510404893
 31
0.0
  0
LINE
  5
27FB
330
1E
100
AcDbEntity
  8
0
100
AcDbLine
 10
3.963108983593915
 20
5.747064132452138
 30
0.0
 11
3.963108983593915
 21
5.752315510404893
 31
0.0
  0
LINE
  5
27FC
330
1E
100
AcDbEntity
  8
0
100
AcDbLine
 10
3.963108983593915
 20
5.690611819460011
 30
0.0
 11
3.963108983593915
 21
5.727371465129302
 31
0.0
  0
LINE
  5
27FD
330
1E
100
AcDbEntity
  8
0
100
AcDbLine
 10
3.963108983593915
 20
5.740499910011192
 30
0.0
 11
3.963108983593915
 21
5.752315510404893
 31
0.0
  0
LINE
  5
27FE
330
1E
100
AcDbEntity
  8
0
100
AcDbLine
 10
3.963108983593915
 20
5.715555864735602
 30
0.0
 11
3.963108983593915
 21
5.702427419853711
 31
0.0
  0
LINE
  5
27FF
330
1E
100
AcDbEntity
  8
0
100
AcDbLine
 10
3.963108983593915
 20
5.752315510404893
 30
0.0
 11
3.963108983593915
 21
5.690611819460011
 31
0.0
  0
LINE
  5
2800
330
1E
100
AcDbEntity
  8
0
100
AcDbLine
 10
3.963108983593915
 20
5.690611819460011
 30
0.0
 11
3.963108983593915
 21
5.752315510404893
 31
0.0
  0
LINE
  5
2801
330
1E
100
AcDbEntity
  8
0
100
AcDbLine
 10
3.963108983593915
 20
5.752315510404893
 30
0.0
 11
3.963108983593915
 21
5.690611819460011
 31
0.0
  0
LINE
  5
2802
330
1E
100
AcDbEntity
  8
0
100
AcDbLine
 10
3.963108983593915
 20
5.747064132452138
 30
0.0
 11
3.963108983593915
 21
5.752315510404893
 31
0.0
  0
LINE
  5
2803
330
1E
100
AcDbEntity
  8
0
100
AcDbLine
 10
3.963108983593915
 20
5.690611819460011
 30
0.0
 11
3.963108983593915
 21
5.752315510404893
 31
0.0
  0
LINE
  5
2804
330
1E
100
AcDbEntity
  8
0
100
AcDbLine
 10
3.963108983593915
 20
5.752315510404893
 30
0.0
 11
3.963108983593915
 21
5.740499910011192
 31
0.0
  0
LINE
  5
2805
330
1E
100
AcDbEntity
  8
0
100
AcDbLine
 10
3.963108983593915
 20
5.690611819460011
 30
0.0
 11
3.963108983593915
 21
5.690611819460011
 31
0.0
  0
LINE
  5
2806
330
1E
100
AcDbEntity
  8
0
100
AcDbLine
 10
3.963108983593915
 20
5.715555864735602
 30
0.0
 11
3.963108983593915
 21
5.697176041900956
 31
0.0
  0
LINE
  5
2807
330
1E
100
AcDbEntity
  8
0
100
AcDbLine
 10
3.963108983593915
 20
5.752315510404893
 30
0.0
 11
3.963108983593915
 21
5.752315510404893
 31
0.0
  0
LINE
  5
2808
330
1E
100
AcDbEntity
  8
0
100
AcDbLine
 10
3.963108983593915
 20
5.733935687570247
 30
0.0
 11
3.963108983593915
 21
5.702427419853711
 31
0.0
  0
LINE
  5
2809
330
1E
100
AcDbEntity
  8
0
100
AcDbLine
 10
3.963108983593915
 20
5.697176041900956
 30
0.0
 11
3.963108983593915
 21
5.715555864735602
 31
0.0
  0
LINE
  5
280A
330
1E
100
AcDbEntity
  8
0
100
AcDbLine
 10
3.963108983593915
 20
5.690611819460011
 30
0.0
 11
3.963108983593915
 21
5.702427419853711
 31
0.0
  0
LINE
  5
280B
330
1E
100
AcDbEntity
  8
0
100
AcDbLine
 10
3.963108983593915
 20
5.752315510404893
 30
0.0
 11
3.963108983593915
 21
5.747064132452138
 31
0.0
  0
LINE
  5
280C
330
1E
100
AcDbEntity
  8
0
100
AcDbLine
 10
3.963108983593915
 20
5.690611819460011
 30
0.0
 11
3.963108983593915
 21
5.697176041900956
 31
0.0
  0
LINE
  5
280D
330
1E
100
AcDbEntity
  8
0
100
AcDbLine
 10
3.963108983593915
 20
5.747064132452138
 30
0.0
 11
3.963108983593915
 21
5.733935687570247
 31
0.0
  0
LINE
  5
280E
330
1E
100
AcDbEntity
  8
0
100
AcDbLine
 10
3.963108983593915
 20
5.752315510404893
 30
0.0
 11
3.963108983593915
 21
5.752315510404893
 31
0.0
  0
LINE
  5
280F
330
1E
100
AcDbEntity
  8
0
100
AcDbLine
 10
3.963108983593915
 20
5.715555864735602
 30
0.0
 11
3.963108983593915
 21
5.727371465129302
 31
0.0
  0
LINE
  5
2810
330
1E
100
AcDbEntity
  8
0
100
AcDbLine
 10
3.963108983593915
 20
5.752315510404893
 30
0.0
 11
3.963108983593915
 21
5.752315510404893
 31
0.0
  0
LINE
  5
2811
330
1E
100
AcDbEntity
  8
0
100
AcDbLine
 10
3.963108983593915
 20
5.752315510404893
 30
0.0
 11
3.963108983593915
 21
5.747064132452138
 31
0.0
  0
LINE
  5
2812
330
1E
100
AcDbEntity
  8
0
100
AcDbLine
 10
3.963108983593915
 20
5.690611819460011
 30
0.0
 11
3.963108983593915
 21
5.690611819460011
 31
0.0
  0
LINE
  5
2813
330
1E
100
AcDbEntity
  8
0
100
AcDbLine
 10
4.255873304460057
 20
4.250421415916703
 30
0.0
 11
4.056320942255333
 21
4.246482882452138
 31
0.0
  0
POLYLINE
  5
2814
330
1E
100
AcDbEntity
  8
0
100
AcDb2dPolyline
 66
     1
 10
0.0
 20
0.0
 30
0.0
  0
VERTEX
  5
2ECD
330
2814
100
AcDbEntity
  8
0
100
AcDbVertex
100
AcDb2dVertex
 10
4.255873304460058
 20
7.027087508436388
 30
0.0
  0
VERTEX
  5
2ECE
330
2814
100
AcDbEntity
  8
0
100
AcDbVertex
100
AcDb2dVertex
 10
4.255873304460058
 20
7.021836130483632
 30
0.0
  0
VERTEX
  5
2ECF
330
2814
100
AcDbEntity
  8
0
100
AcDbVertex
100
AcDb2dVertex
 10
4.255873304460058
 20
7.006081996625366
 30
0.0
  0
VERTEX
  5
2ED0
330
2814
100
AcDbEntity
  8
0
100
AcDbVertex
100
AcDb2dVertex
 10
4.255873304460058
 20
6.981137951349775
 30
0.0
  0
VERTEX
  5
2ED1
330
2814
100
AcDbEntity
  8
0
100
AcDbVertex
100
AcDb2dVertex
 10
4.255873304460058
 20
6.952255372609617
 30
0.0
  0
SEQEND
  5
2ED2
330
2814
100
AcDbEntity
  8
0
  0
LINE
  5
281B
330
1E
100
AcDbEntity
  8
0
100
AcDbLine
 10
4.255873304460057
 20
6.952255372609617
 30
0.0
 11
4.255873304460057
 21
4.325253551743476
 31
0.0
  0
POLYLINE
  5
281C
330
1E
100
AcDbEntity
  8
0
100
AcDb2dPolyline
 66
     1
 10
0.0
 20
0.0
 30
0.0
  0
VERTEX
  5
2ED3
330
281C
100
AcDbEntity
  8
0
100
AcDbVertex
100
AcDb2dVertex
 10
4.255873304460058
 20
4.325253551743476
 30
0.0
  0
VERTEX
  5
2ED4
330
281C
100
AcDbEntity
  8
0
100
AcDbVertex
100
AcDb2dVertex
 10
4.255873304460058
 20
4.296370973003318
 30
0.0
  0
VERTEX
  5
2ED5
330
281C
100
AcDbEntity
  8
0
100
AcDbVertex
100
AcDb2dVertex
 10
4.255873304460058
 20
4.272739772215917
 30
0.0
  0
VERTEX
  5
2ED6
330
281C
100
AcDbEntity
  8
0
100
AcDbVertex
100
AcDb2dVertex
 10
4.255873304460058
 20
4.255672793869459
 30
0.0
  0
VERTEX
  5
2ED7
330
281C
100
AcDbEntity
  8
0
100
AcDbVertex
100
AcDb2dVertex
 10
4.255873304460058
 20
4.250421415916703
 30
0.0
  0
SEQEND
  5
2ED8
330
281C
100
AcDbEntity
  8
0
  0
LINE
  5
2823
330
1E
100
AcDbEntity
  8
0
100
AcDbLine
 10
4.255873304460057
 20
6.928624171822216
 30
0.0
 11
4.283443038712025
 21
6.928624171822216
 31
0.0
  0
LINE
  5
2824
330
1E
100
AcDbEntity
  8
0
100
AcDbLine
 10
4.255873304460057
 20
4.431593955286783
 30
0.0
 11
4.283443038712025
 21
4.432906799774971
 31
0.0
  0
LINE
  5
2825
330
1E
100
AcDbEntity
  8
0
100
AcDbLine
 10
4.056320942255333
 20
4.321315018278909
 30
0.0
 11
4.255873304460057
 21
4.325253551743476
 31
0.0
  0
LINE
  5
2826
330
1E
100
AcDbEntity
  8
0
100
AcDbLine
 10
4.255873304460057
 20
6.952255372609617
 30
0.0
 11
4.056320942255333
 21
6.956193906074185
 31
0.0
  0
LINE
  5
2827
330
1E
100
AcDbEntity
  8
0
100
AcDbLine
 10
4.056320942255333
 20
5.714243020247412
 30
0.0
 11
4.056320942255333
 21
5.56457874859387
 31
0.0
  0
LINE
  5
2828
330
1E
100
AcDbEntity
  8
0
100
AcDbLine
 10
4.056320942255333
 20
7.031026041900956
 30
0.0
 11
4.255873304460057
 21
7.027087508436388
 31
0.0
  0
LINE
  5
2829
330
1E
100
AcDbEntity
  8
0
100
AcDbLine
 10
4.056320942255333
 20
7.302784850956074
 30
0.0
 11
3.997242940286828
 21
7.301472006467886
 31
0.0
  0
POLYLINE
  5
282A
330
1E
100
AcDbEntity
  8
0
100
AcDb2dPolyline
 66
     1
 10
0.0
 20
0.0
 30
0.0
  0
VERTEX
  5
2ED9
330
282A
100
AcDbEntity
  8
0
100
AcDbVertex
100
AcDb2dVertex
 10
4.056320942255332
 20
7.302784850956073
 30
0.0
  0
VERTEX
  5
2EDA
330
282A
100
AcDbEntity
  8
0
100
AcDbVertex
100
AcDb2dVertex
 10
4.056320942255332
 20
7.311974762373396
 30
0.0
  0
VERTEX
  5
2EDB
330
282A
100
AcDbEntity
  8
0
100
AcDbVertex
100
AcDb2dVertex
 10
4.056320942255332
 20
7.331667429696232
 30
0.0
  0
VERTEX
  5
2EDC
330
282A
100
AcDbEntity
  8
0
100
AcDbVertex
100
AcDb2dVertex
 10
4.056320942255332
 20
7.363175697412768
 30
0.0
  0
VERTEX
  5
2EDD
330
282A
100
AcDbEntity
  8
0
100
AcDbVertex
100
AcDb2dVertex
 10
4.056320942255332
 20
7.401248187570247
 30
0.0
  0
VERTEX
  5
2EDE
330
282A
100
AcDbEntity
  8
0
100
AcDbVertex
100
AcDb2dVertex
 10
4.056320942255332
 20
7.445884900168672
 30
0.0
  0
VERTEX
  5
2EDF
330
282A
100
AcDbEntity
  8
0
100
AcDbVertex
100
AcDb2dVertex
 10
4.056320942255332
 20
7.493147301743475
 30
0.0
  0
VERTEX
  5
2EE0
330
282A
100
AcDbEntity
  8
0
100
AcDbVertex
100
AcDb2dVertex
 10
4.056320942255332
 20
7.540409703318279
 30
0.0
  0
VERTEX
  5
2EE1
330
282A
100
AcDbEntity
  8
0
100
AcDbVertex
100
AcDb2dVertex
 10
4.056320942255332
 20
7.583733571428514
 30
0.0
  0
VERTEX
  5
2EE2
330
282A
100
AcDbEntity
  8
0
100
AcDbVertex
100
AcDb2dVertex
 10
4.056320942255332
 20
7.621806061585995
 30
0.0
  0
VERTEX
  5
2EE3
330
282A
100
AcDbEntity
  8
0
100
AcDbVertex
100
AcDb2dVertex
 10
4.056320942255332
 20
7.649375795837964
 30
0.0
  0
VERTEX
  5
2EE4
330
282A
100
AcDbEntity
  8
0
100
AcDbVertex
100
AcDb2dVertex
 10
4.056320942255332
 20
7.667755618672608
 30
0.0
  0
VERTEX
  5
2EE5
330
282A
100
AcDbEntity
  8
0
100
AcDbVertex
100
AcDb2dVertex
 10
4.056320942255332
 20
7.674319841113553
 30
0.0
  0
SEQEND
  5
2EE6
330
282A
100
AcDbEntity
  8
0
  0
POLYLINE
  5
2839
330
1E
100
AcDbEntity
  8
0
100
AcDb2dPolyline
 66
     1
 10
0.0
 20
0.0
 30
0.0
  0
VERTEX
  5
2EE7
330
2839
100
AcDbEntity
  8
0
100
AcDbVertex
100
AcDb2dVertex
 10
3.963108983593916
 20
7.302784850956073
 30
0.0
  0
VERTEX
  5
2EE8
330
2839
100
AcDbEntity
  8
0
100
AcDbVertex
100
AcDb2dVertex
 10
3.963108983593916
 20
7.315913295837964
 30
0.0
  0
VERTEX
  5
2EE9
330
2839
100
AcDbEntity
  8
0
100
AcDbVertex
100
AcDb2dVertex
 10
3.963108983593916
 20
7.340857341113554
 30
0.0
  0
VERTEX
  5
2EEA
330
2839
100
AcDbEntity
  8
0
100
AcDbVertex
100
AcDb2dVertex
 10
3.963108983593916
 20
7.373678453318279
 30
0.0
  0
VERTEX
  5
2EEB
330
2839
100
AcDbEntity
  8
0
100
AcDbVertex
100
AcDb2dVertex
 10
3.963108983593916
 20
7.413063787963948
 30
0.0
  0
VERTEX
  5
2EEC
330
2839
100
AcDbEntity
  8
0
100
AcDbVertex
100
AcDb2dVertex
 10
3.963108983593916
 20
7.457700500562373
 30
0.0
  0
VERTEX
  5
2EED
330
2839
100
AcDbEntity
  8
0
100
AcDbVertex
100
AcDb2dVertex
 10
3.963108983593916
 20
7.503650057648987
 30
0.0
  0
VERTEX
  5
2EEE
330
2839
100
AcDbEntity
  8
0
100
AcDbVertex
100
AcDb2dVertex
 10
3.963108983593916
 20
7.549599614735602
 30
0.0
  0
VERTEX
  5
2EEF
330
2839
100
AcDbEntity
  8
0
100
AcDbVertex
100
AcDb2dVertex
 10
3.963108983593916
 20
7.590297793869459
 30
0.0
  0
VERTEX
  5
2EF0
330
2839
100
AcDbEntity
  8
0
100
AcDbVertex
100
AcDb2dVertex
 10
3.963108983593916
 20
7.625744595050561
 30
0.0
  0
VERTEX
  5
2EF1
330
2839
100
AcDbEntity
  8
0
100
AcDbVertex
100
AcDb2dVertex
 10
3.963108983593916
 20
7.65331432930253
 30
0.0
  0
VERTEX
  5
2EF2
330
2839
100
AcDbEntity
  8
0
100
AcDbVertex
100
AcDb2dVertex
 10
3.963108983593916
 20
7.670381307648988
 30
0.0
  0
VERTEX
  5
2EF3
330
2839
100
AcDbEntity
  8
0
100
AcDbVertex
100
AcDb2dVertex
 10
3.963108983593916
 20
7.675632685601743
 30
0.0
  0
SEQEND
  5
2EF4
330
2839
100
AcDbEntity
  8
0
  0
LINE
  5
2848
330
1E
100
AcDbEntity
  8
0
100
AcDbLine
 10
3.963108983593915
 20
7.302784850956074
 30
0.0
 11
3.994617251310451
 21
7.301472006467886
 31
0.0
  0
POLYLINE
  5
2849
330
1E
100
AcDbEntity
  8
0
100
AcDb2dPolyline
 66
     1
 10
0.0
 20
0.0
 30
0.0
  0
VERTEX
  5
2EF5
330
2849
100
AcDbEntity
  8
0
100
AcDbVertex
100
AcDb2dVertex
 10
3.994617251310451
 20
7.301472006467885
 30
0.0
  0
VERTEX
  5
2EF6
330
2849
100
AcDbEntity
  8
0
100
AcDbVertex
100
AcDb2dVertex
 10
3.99593009579864
 20
7.301472006467885
 30
0.0
  0
VERTEX
  5
2EF7
330
2849
100
AcDbEntity
  8
0
100
AcDbVertex
100
AcDb2dVertex
 10
3.997242940286828
 20
7.301472006467885
 30
0.0
  0
SEQEND
  5
2EF8
330
2849
100
AcDbEntity
  8
0
  0
LINE
  5
284E
330
1E
100
AcDbEntity
  8
0
100
AcDbLine
 10
3.997242940286828
 20
7.301472006467886
 30
0.0
 11
3.997242940286828
 21
7.301472006467886
 31
0.0
  0
LINE
  5
284F
330
1E
100
AcDbEntity
  8
0
100
AcDbLine
 10
4.056320942255333
 20
4.092880077334027
 30
0.0
 11
3.963108983593915
 21
4.092880077334027
 31
0.0
  0
POLYLINE
  5
2850
330
1E
100
AcDbEntity
  8
0
100
AcDb2dPolyline
 66
     1
 10
0.0
 20
0.0
 30
0.0
  0
VERTEX
  5
2EF9
330
2850
100
AcDbEntity
  8
0
100
AcDbVertex
100
AcDb2dVertex
 10
4.056320942255332
 20
4.157209457255286
 30
0.0
  0
VERTEX
  5
2EFA
330
2850
100
AcDbEntity
  8
0
100
AcDbVertex
100
AcDb2dVertex
 10
4.056320942255332
 20
4.148019545837964
 30
0.0
  0
VERTEX
  5
2EFB
330
2850
100
AcDbEntity
  8
0
100
AcDbVertex
100
AcDb2dVertex
 10
4.056320942255332
 20
4.124388345050562
 30
0.0
  0
VERTEX
  5
2EFC
330
2850
100
AcDbEntity
  8
0
100
AcDbVertex
100
AcDb2dVertex
 10
4.056320942255332
 20
4.092880077334027
 30
0.0
  0
SEQEND
  5
2EFD
330
2850
100
AcDbEntity
  8
0
  0
POLYLINE
  5
2856
330
1E
100
AcDbEntity
  8
0
100
AcDb2dPolyline
 66
     1
 10
0.0
 20
0.0
 30
0.0
  0
VERTEX
  5
2EFE
330
2856
100
AcDbEntity
  8
0
100
AcDbVertex
100
AcDb2dVertex
 10
3.963108983593916
 20
4.154583768278909
 30
0.0
  0
VERTEX
  5
2EFF
330
2856
100
AcDbEntity
  8
0
100
AcDbVertex
100
AcDb2dVertex
 10
3.963108983593916
 20
4.146706701349774
 30
0.0
  0
VERTEX
  5
2F00
330
2856
100
AcDbEntity
  8
0
100
AcDbVertex
100
AcDb2dVertex
 10
3.963108983593916
 20
4.123075500562373
 30
0.0
  0
VERTEX
  5
2F01
330
2856
100
AcDbEntity
  8
0
100
AcDbVertex
100
AcDb2dVertex
 10
3.963108983593916
 20
4.092880077334027
 30
0.0
  0
SEQEND
  5
2F02
330
2856
100
AcDbEntity
  8
0
  0
LINE
  5
285C
330
1E
100
AcDbEntity
  8
0
100
AcDbLine
 10
4.056320942255333
 20
4.157209457255286
 30
0.0
 11
3.963108983593915
 21
4.154583768278909
 31
0.0
  0
POLYLINE
  5
285D
330
1E
100
AcDbEntity
  8
0
100
AcDb2dPolyline
 66
     1
 10
0.0
 20
0.0
 30
0.0
  0
VERTEX
  5
2F03
330
285D
100
AcDbEntity
  8
0
100
AcDbVertex
100
AcDb2dVertex
 10
4.056320942255332
 20
4.157209457255286
 30
0.0
  0
VERTEX
  5
2F04
330
285D
100
AcDbEntity
  8
0
100
AcDbVertex
100
AcDb2dVertex
 10
4.056320942255332
 20
4.16508652418442
 30
0.0
  0
VERTEX
  5
2F05
330
285D
100
AcDbEntity
  8
0
100
AcDbVertex
100
AcDb2dVertex
 10
4.056320942255332
 20
4.187404880483633
 30
0.0
  0
VERTEX
  5
2F06
330
285D
100
AcDbEntity
  8
0
100
AcDbVertex
100
AcDb2dVertex
 10
4.056320942255332
 20
4.21760030371198
 30
0.0
  0
SEQEND
  5
2F07
330
285D
100
AcDbEntity
  8
0
  0
LINE
  5
2863
330
1E
100
AcDbEntity
  8
0
100
AcDbLine
 10
4.056320942255333
 20
4.21760030371198
 30
0.0
 11
3.963108983593915
 21
4.21760030371198
 31
0.0
  0
POLYLINE
  5
2864
330
1E
100
AcDbEntity
  8
0
100
AcDb2dPolyline
 66
     1
 10
0.0
 20
0.0
 30
0.0
  0
VERTEX
  5
2F08
330
2864
100
AcDbEntity
  8
0
100
AcDbVertex
100
AcDb2dVertex
 10
3.963108983593916
 20
4.154583768278909
 30
0.0
  0
VERTEX
  5
2F09
330
2864
100
AcDbEntity
  8
0
100
AcDbVertex
100
AcDb2dVertex
 10
3.963108983593916
 20
4.163773679696232
 30
0.0
  0
VERTEX
  5
2F0A
330
2864
100
AcDbEntity
  8
0
100
AcDbVertex
100
AcDb2dVertex
 10
3.963108983593916
 20
4.186092035995444
 30
0.0
  0
VERTEX
  5
2F0B
330
2864
100
AcDbEntity
  8
0
100
AcDbVertex
100
AcDb2dVertex
 10
3.963108983593916
 20
4.21760030371198
 30
0.0
  0
SEQEND
  5
2F0C
330
2864
100
AcDbEntity
  8
0
  0
LINE
  5
286A
330
1E
100
AcDbEntity
  8
0
100
AcDbLine
 10
3.997242940286828
 20
5.714243020247412
 30
0.0
 11
3.997242940286828
 21
5.56457874859387
 31
0.0
  0
LINE
  5
286B
330
1E
100
AcDbEntity
  8
0
100
AcDbLine
 10
3.997242940286828
 20
5.714243020247412
 30
0.0
 11
4.056320942255333
 21
5.714243020247412
 31
0.0
  0
LINE
  5
286C
330
1E
100
AcDbEntity
  8
0
100
AcDbLine
 10
4.056320942255333
 20
7.033651730877333
 30
0.0
 11
4.056320942255333
 21
5.714243020247412
 31
0.0
  0
LINE
  5
286D
330
1E
100
AcDbEntity
  8
0
100
AcDbLine
 10
4.056320942255333
 20
7.033651730877333
 30
0.0
 11
3.963108983593915
 21
7.033651730877333
 31
0.0
  0
LINE
  5
286E
330
1E
100
AcDbEntity
  8
0
100
AcDbLine
 10
3.963108983593915
 20
7.033651730877333
 30
0.0
 11
3.963108983593915
 21
4.21760030371198
 31
0.0
  0
LINE
  5
286F
330
1E
100
AcDbEntity
  8
0
100
AcDbLine
 10
4.056320942255333
 20
5.56457874859387
 30
0.0
 11
4.056320942255333
 21
4.21760030371198
 31
0.0
  0
LINE
  5
2870
330
1E
100
AcDbEntity
  8
0
100
AcDbLine
 10
3.997242940286828
 20
5.56457874859387
 30
0.0
 11
4.056320942255333
 21
5.56457874859387
 31
0.0
  0
POLYLINE
  5
2871
330
1E
100
AcDbEntity
  8
0
100
AcDb2dPolyline
 66
     1
 10
0.0
 20
0.0
 30
0.0
  0
VERTEX
  5
2F0D
330
2871
100
AcDbEntity
  8
0
100
AcDbVertex
100
AcDb2dVertex
 10
4.056320942255332
 20
7.094042577334026
 30
0.0
  0
VERTEX
  5
2F0E
330
2871
100
AcDbEntity
  8
0
100
AcDbVertex
100
AcDb2dVertex
 10
4.056320942255332
 20
7.086165510404893
 30
0.0
  0
VERTEX
  5
2F0F
330
2871
100
AcDbEntity
  8
0
100
AcDbVertex
100
AcDb2dVertex
 10
4.056320942255332
 20
7.063847154105681
 30
0.0
  0
VERTEX
  5
2F10
330
2871
100
AcDbEntity
  8
0
100
AcDbVertex
100
AcDb2dVertex
 10
4.056320942255332
 20
7.033651730877333
 30
0.0
  0
SEQEND
  5
2F11
330
2871
100
AcDbEntity
  8
0
  0
LINE
  5
2877
330
1E
100
AcDbEntity
  8
0
100
AcDbLine
 10
4.056320942255333
 20
7.094042577334027
 30
0.0
 11
3.963108983593915
 21
7.096668266310405
 31
0.0
  0
POLYLINE
  5
2878
330
1E
100
AcDbEntity
  8
0
100
AcDb2dPolyline
 66
     1
 10
0.0
 20
0.0
 30
0.0
  0
VERTEX
  5
2F12
330
2878
100
AcDbEntity
  8
0
100
AcDbVertex
100
AcDb2dVertex
 10
3.963108983593916
 20
7.096668266310405
 30
0.0
  0
VERTEX
  5
2F13
330
2878
100
AcDbEntity
  8
0
100
AcDbVertex
100
AcDb2dVertex
 10
3.963108983593916
 20
7.087478354893081
 30
0.0
  0
VERTEX
  5
2F14
330
2878
100
AcDbEntity
  8
0
100
AcDbVertex
100
AcDb2dVertex
 10
3.963108983593916
 20
7.065159998593869
 30
0.0
  0
VERTEX
  5
2F15
330
2878
100
AcDbEntity
  8
0
100
AcDbVertex
100
AcDb2dVertex
 10
3.963108983593916
 20
7.033651730877333
 30
0.0
  0
SEQEND
  5
2F16
330
2878
100
AcDbEntity
  8
0
  0
POLYLINE
  5
287E
330
1E
100
AcDbEntity
  8
0
100
AcDb2dPolyline
 66
     1
 10
0.0
 20
0.0
 30
0.0
  0
VERTEX
  5
2F17
330
287E
100
AcDbEntity
  8
0
100
AcDbVertex
100
AcDb2dVertex
 10
4.056320942255332
 20
7.094042577334026
 30
0.0
  0
VERTEX
  5
2F18
330
287E
100
AcDbEntity
  8
0
100
AcDbVertex
100
AcDb2dVertex
 10
4.056320942255332
 20
7.103232488751349
 30
0.0
  0
VERTEX
  5
2F19
330
287E
100
AcDbEntity
  8
0
100
AcDbVertex
100
AcDb2dVertex
 10
4.056320942255332
 20
7.12686368953875
 30
0.0
  0
VERTEX
  5
2F1A
330
287E
100
AcDbEntity
  8
0
100
AcDbVertex
100
AcDb2dVertex
 10
4.056320942255332
 20
7.158371957255286
 30
0.0
  0
SEQEND
  5
2F1B
330
287E
100
AcDbEntity
  8
0
  0
LINE
  5
2884
330
1E
100
AcDbEntity
  8
0
100
AcDbLine
 10
4.056320942255333
 20
7.158371957255286
 30
0.0
 11
3.963108983593915
 21
7.158371957255286
 31
0.0
  0
POLYLINE
  5
2885
330
1E
100
AcDbEntity
  8
0
100
AcDb2dPolyline
 66
     1
 10
0.0
 20
0.0
 30
0.0
  0
VERTEX
  5
2F1C
330
2885
100
AcDbEntity
  8
0
100
AcDbVertex
100
AcDb2dVertex
 10
3.963108983593916
 20
7.096668266310405
 30
0.0
  0
VERTEX
  5
2F1D
330
2885
100
AcDbEntity
  8
0
100
AcDbVertex
100
AcDb2dVertex
 10
3.963108983593916
 20
7.104545333239538
 30
0.0
  0
VERTEX
  5
2F1E
330
2885
100
AcDbEntity
  8
0
100
AcDbVertex
100
AcDb2dVertex
 10
3.963108983593916
 20
7.12686368953875
 30
0.0
  0
VERTEX
  5
2F1F
330
2885
100
AcDbEntity
  8
0
100
AcDbVertex
100
AcDb2dVertex
 10
3.963108983593916
 20
7.158371957255286
 30
0.0
  0
SEQEND
  5
2F20
330
2885
100
AcDbEntity
  8
0
  0
LINE
  5
288B
330
1E
100
AcDbEntity
  8
0
100
AcDbLine
 10
4.056320942255333
 20
7.158371957255286
 30
0.0
 11
4.056320942255333
 21
7.302784850956074
 31
0.0
  0
LINE
  5
288C
330
1E
100
AcDbEntity
  8
0
100
AcDbLine
 10
3.997242940286828
 20
7.301472006467886
 30
0.0
 11
3.994617251310451
 21
7.297533473003317
 31
0.0
  0
LINE
  5
288D
330
1E
100
AcDbEntity
  8
0
100
AcDbLine
 10
3.963108983593915
 20
7.280466494656861
 30
0.0
 11
3.994617251310451
 21
7.297533473003317
 31
0.0
  0
LINE
  5
288E
330
1E
100
AcDbEntity
  8
0
100
AcDbLine
 10
3.963108983593915
 20
7.158371957255286
 30
0.0
 11
3.963108983593915
 21
7.280466494656861
 31
0.0
  0
LINE
  5
288F
330
1E
100
AcDbEntity
  8
0
100
AcDbLine
 10
4.056320942255333
 20
3.948467183633239
 30
0.0
 11
3.997242940286828
 21
3.949780028121429
 31
0.0
  0
LINE
  5
2890
330
1E
100
AcDbEntity
  8
0
100
AcDbLine
 10
4.056320942255333
 20
4.092880077334027
 30
0.0
 11
4.056320942255333
 21
3.948467183633239
 31
0.0
  0
LINE
  5
2891
330
1E
100
AcDbEntity
  8
0
100
AcDbLine
 10
3.963108983593915
 20
4.092880077334027
 30
0.0
 11
3.963108983593915
 21
3.970785539932452
 31
0.0
  0
LINE
  5
2892
330
1E
100
AcDbEntity
  8
0
100
AcDbLine
 10
3.963108983593915
 20
3.970785539932452
 30
0.0
 11
3.994617251310451
 21
3.953718561585995
 31
0.0
  0
LINE
  5
2893
330
1E
100
AcDbEntity
  8
0
100
AcDbLine
 10
3.997242940286828
 20
3.949780028121429
 30
0.0
 11
3.994617251310451
 21
3.953718561585995
 31
0.0
  0
POLYLINE
  5
2894
330
1E
100
AcDbEntity
  8
0
100
AcDb2dPolyline
 66
     1
 10
0.0
 20
0.0
 30
0.0
  0
VERTEX
  5
2F21
330
2894
100
AcDbEntity
  8
0
100
AcDbVertex
100
AcDb2dVertex
 10
4.056320942255332
 20
3.948467183633239
 30
0.0
  0
VERTEX
  5
2F22
330
2894
100
AcDbEntity
  8
0
100
AcDbVertex
100
AcDb2dVertex
 10
4.056320942255332
 20
3.939277272215917
 30
0.0
  0
VERTEX
  5
2F23
330
2894
100
AcDbEntity
  8
0
100
AcDbVertex
100
AcDb2dVertex
 10
4.056320942255332
 20
3.919584604893082
 30
0.0
  0
VERTEX
  5
2F24
330
2894
100
AcDbEntity
  8
0
100
AcDbVertex
100
AcDb2dVertex
 10
4.056320942255332
 20
3.888076337176546
 30
0.0
  0
VERTEX
  5
2F25
330
2894
100
AcDbEntity
  8
0
100
AcDbVertex
100
AcDb2dVertex
 10
4.056320942255332
 20
3.848691002530877
 30
0.0
  0
VERTEX
  5
2F26
330
2894
100
AcDbEntity
  8
0
100
AcDbVertex
100
AcDb2dVertex
 10
4.056320942255332
 20
3.804054289932452
 30
0.0
  0
VERTEX
  5
2F27
330
2894
100
AcDbEntity
  8
0
100
AcDbVertex
100
AcDb2dVertex
 10
4.056320942255332
 20
3.756791888357649
 30
0.0
  0
VERTEX
  5
2F28
330
2894
100
AcDbEntity
  8
0
100
AcDbVertex
100
AcDb2dVertex
 10
4.056320942255332
 20
3.710842331271035
 30
0.0
  0
VERTEX
  5
2F29
330
2894
100
AcDbEntity
  8
0
100
AcDbVertex
100
AcDb2dVertex
 10
4.056320942255332
 20
3.666205618672609
 30
0.0
  0
VERTEX
  5
2F2A
330
2894
100
AcDbEntity
  8
0
100
AcDbVertex
100
AcDb2dVertex
 10
4.056320942255332
 20
3.629445973003318
 30
0.0
  0
VERTEX
  5
2F2B
330
2894
100
AcDbEntity
  8
0
100
AcDbVertex
100
AcDb2dVertex
 10
4.056320942255332
 20
3.60056339426316
 30
0.0
  0
VERTEX
  5
2F2C
330
2894
100
AcDbEntity
  8
0
100
AcDbVertex
100
AcDb2dVertex
 10
4.056320942255332
 20
3.583496415916704
 30
0.0
  0
VERTEX
  5
2F2D
330
2894
100
AcDbEntity
  8
0
100
AcDbVertex
100
AcDb2dVertex
 10
4.056320942255332
 20
3.576932193475759
 30
0.0
  0
SEQEND
  5
2F2E
330
2894
100
AcDbEntity
  8
0
  0
LINE
  5
28A3
330
1E
100
AcDbEntity
  8
0
100
AcDbLine
 10
3.997242940286828
 20
3.949780028121429
 30
0.0
 11
3.997242940286828
 21
3.949780028121429
 31
0.0
  0
POLYLINE
  5
28A4
330
1E
100
AcDbEntity
  8
0
100
AcDb2dPolyline
 66
     1
 10
0.0
 20
0.0
 30
0.0
  0
VERTEX
  5
2F2F
330
28A4
100
AcDbEntity
  8
0
100
AcDbVertex
100
AcDb2dVertex
 10
3.994617251310451
 20
3.949780028121429
 30
0.0
  0
VERTEX
  5
2F30
330
28A4
100
AcDbEntity
  8
0
100
AcDbVertex
100
AcDb2dVertex
 10
3.99593009579864
 20
3.949780028121429
 30
0.0
  0
VERTEX
  5
2F31
330
28A4
100
AcDbEntity
  8
0
100
AcDbVertex
100
AcDb2dVertex
 10
3.997242940286828
 20
3.949780028121429
 30
0.0
  0
SEQEND
  5
2F32
330
28A4
100
AcDbEntity
  8
0
  0
LINE
  5
28A9
330
1E
100
AcDbEntity
  8
0
100
AcDbLine
 10
3.963108983593915
 20
3.948467183633239
 30
0.0
 11
3.994617251310451
 21
3.949780028121429
 31
0.0
  0
POLYLINE
  5
28AA
330
1E
100
AcDbEntity
  8
0
100
AcDb2dPolyline
 66
     1
 10
0.0
 20
0.0
 30
0.0
  0
VERTEX
  5
2F33
330
28AA
100
AcDbEntity
  8
0
100
AcDbVertex
100
AcDb2dVertex
 10
3.963108983593916
 20
3.948467183633239
 30
0.0
  0
VERTEX
  5
2F34
330
28AA
100
AcDbEntity
  8
0
100
AcDbVertex
100
AcDb2dVertex
 10
3.963108983593916
 20
3.934025894263161
 30
0.0
  0
VERTEX
  5
2F35
330
28AA
100
AcDbEntity
  8
0
100
AcDbVertex
100
AcDb2dVertex
 10
3.963108983593916
 20
3.910394693475759
 30
0.0
  0
VERTEX
  5
2F36
330
28AA
100
AcDbEntity
  8
0
100
AcDbVertex
100
AcDb2dVertex
 10
3.963108983593916
 20
3.877573581271035
 30
0.0
  0
VERTEX
  5
2F37
330
28AA
100
AcDbEntity
  8
0
100
AcDbVertex
100
AcDb2dVertex
 10
3.963108983593916
 20
3.838188246625365
 30
0.0
  0
VERTEX
  5
2F38
330
28AA
100
AcDbEntity
  8
0
100
AcDbVertex
100
AcDb2dVertex
 10
3.963108983593916
 20
3.79355153402694
 30
0.0
  0
VERTEX
  5
2F39
330
28AA
100
AcDbEntity
  8
0
100
AcDbVertex
100
AcDb2dVertex
 10
3.963108983593916
 20
3.747601976940326
 30
0.0
  0
VERTEX
  5
2F3A
330
28AA
100
AcDbEntity
  8
0
100
AcDbVertex
100
AcDb2dVertex
 10
3.963108983593916
 20
3.701652419853711
 30
0.0
  0
VERTEX
  5
2F3B
330
28AA
100
AcDbEntity
  8
0
100
AcDbVertex
100
AcDb2dVertex
 10
3.963108983593916
 20
3.660954240719854
 30
0.0
  0
VERTEX
  5
2F3C
330
28AA
100
AcDbEntity
  8
0
100
AcDbVertex
100
AcDb2dVertex
 10
3.963108983593916
 20
3.625507439538751
 30
0.0
  0
VERTEX
  5
2F3D
330
28AA
100
AcDbEntity
  8
0
100
AcDbVertex
100
AcDb2dVertex
 10
3.963108983593916
 20
3.597937705286782
 30
0.0
  0
VERTEX
  5
2F3E
330
28AA
100
AcDbEntity
  8
0
100
AcDbVertex
100
AcDb2dVertex
 10
3.963108983593916
 20
3.580870726940326
 30
0.0
  0
VERTEX
  5
2F3F
330
28AA
100
AcDbEntity
  8
0
100
AcDbVertex
100
AcDb2dVertex
 10
3.963108983593916
 20
3.57561934898757
 30
0.0
  0
SEQEND
  5
2F40
330
28AA
100
AcDbEntity
  8
0
  0
POLYLINE
  5
28B9
330
1E
100
AcDbEntity
  8
0
100
AcDb2dPolyline
 66
     1
 10
0.0
 20
0.0
 30
0.0
  0
VERTEX
  5
2F41
330
28B9
100
AcDbEntity
  8
0
100
AcDbVertex
100
AcDb2dVertex
 10
3.833137379263206
 20
6.947003994656861
 30
0.0
  0
VERTEX
  5
2F42
330
28B9
100
AcDbEntity
  8
0
100
AcDbVertex
100
AcDb2dVertex
 10
3.833137379263206
 20
6.894490215129303
 30
0.0
  0
VERTEX
  5
2F43
330
28B9
100
AcDbEntity
  8
0
100
AcDbVertex
100
AcDb2dVertex
 10
3.833137379263206
 20
6.832786524184421
 30
0.0
  0
VERTEX
  5
2F44
330
28B9
100
AcDbEntity
  8
0
100
AcDbVertex
100
AcDb2dVertex
 10
3.833137379263206
 20
6.763205766310405
 30
0.0
  0
VERTEX
  5
2F45
330
28B9
100
AcDbEntity
  8
0
100
AcDbVertex
100
AcDb2dVertex
 10
3.833137379263206
 20
6.687060785995444
 30
0.0
  0
VERTEX
  5
2F46
330
28B9
100
AcDbEntity
  8
0
100
AcDbVertex
100
AcDb2dVertex
 10
3.833137379263206
 20
6.606977272215917
 30
0.0
  0
VERTEX
  5
2F47
330
28B9
100
AcDbEntity
  8
0
100
AcDbVertex
100
AcDb2dVertex
 10
3.833137379263206
 20
6.521642380483632
 30
0.0
  0
VERTEX
  5
2F48
330
28B9
100
AcDbEntity
  8
0
100
AcDbVertex
100
AcDb2dVertex
 10
3.833137379263206
 20
6.43499464426316
 30
0.0
  0
VERTEX
  5
2F49
330
28B9
100
AcDbEntity
  8
0
100
AcDbVertex
100
AcDb2dVertex
 10
3.833137379263206
 20
6.3470340635545
 30
0.0
  0
VERTEX
  5
2F4A
330
28B9
100
AcDbEntity
  8
0
100
AcDbVertex
100
AcDb2dVertex
 10
3.833137379263206
 20
6.260386327334027
 30
0.0
  0
VERTEX
  5
2F4B
330
28B9
100
AcDbEntity
  8
0
100
AcDbVertex
100
AcDb2dVertex
 10
3.833137379263206
 20
6.176364280089932
 30
0.0
  0
VERTEX
  5
2F4C
330
28B9
100
AcDbEntity
  8
0
100
AcDbVertex
100
AcDb2dVertex
 10
3.833137379263206
 20
6.094967921822215
 30
0.0
  0
VERTEX
  5
2F4D
330
28B9
100
AcDbEntity
  8
0
100
AcDbVertex
100
AcDb2dVertex
 10
3.833137379263206
 20
6.018822941507255
 30
0.0
  0
VERTEX
  5
2F4E
330
28B9
100
AcDbEntity
  8
0
100
AcDbVertex
100
AcDb2dVertex
 10
3.833137379263206
 20
5.950555028121429
 30
0.0
  0
VERTEX
  5
2F4F
330
28B9
100
AcDbEntity
  8
0
100
AcDbVertex
100
AcDb2dVertex
 10
3.833137379263206
 20
5.888851337176546
 30
0.0
  0
VERTEX
  5
2F50
330
28B9
100
AcDbEntity
  8
0
100
AcDbVertex
100
AcDb2dVertex
 10
3.833137379263206
 20
5.836337557648987
 30
0.0
  0
SEQEND
  5
2F51
330
28B9
100
AcDbEntity
  8
0
  0
POLYLINE
  5
28CB
330
1E
100
AcDbEntity
  8
0
100
AcDb2dPolyline
 66
     1
 10
0.0
 20
0.0
 30
0.0
  0
VERTEX
  5
2F52
330
28CB
100
AcDbEntity
  8
0
100
AcDbVertex
100
AcDb2dVertex
 10
3.913220893042734
 20
5.833711868672609
 30
0.0
  0
VERTEX
  5
2F53
330
28CB
100
AcDbEntity
  8
0
100
AcDbVertex
100
AcDb2dVertex
 10
3.877774091861632
 20
5.835024713160798
 30
0.0
  0
VERTEX
  5
2F54
330
28CB
100
AcDbEntity
  8
0
100
AcDbVertex
100
AcDb2dVertex
 10
3.833137379263206
 20
5.836337557648987
 30
0.0
  0
SEQEND
  5
2F55
330
28CB
100
AcDbEntity
  8
0
  0
LINE
  5
28D0
330
1E
100
AcDbEntity
  8
0
100
AcDbLine
 10
3.963108983593915
 20
4.262237016310405
 30
0.0
 11
3.913220893042734
 21
4.263549860798594
 31
0.0
  0
POLYLINE
  5
28D1
330
1E
100
AcDbEntity
  8
0
100
AcDb2dPolyline
 66
     1
 10
0.0
 20
0.0
 30
0.0
  0
VERTEX
  5
2F56
330
28D1
100
AcDbEntity
  8
0
100
AcDbVertex
100
AcDb2dVertex
 10
3.913220893042734
 20
4.263549860798594
 30
0.0
  0
VERTEX
  5
2F57
330
28D1
100
AcDbEntity
  8
0
100
AcDbVertex
100
AcDb2dVertex
 10
3.913220893042734
 20
4.26880123875135
 30
0.0
  0
VERTEX
  5
2F58
330
28D1
100
AcDbEntity
  8
0
100
AcDbVertex
100
AcDb2dVertex
 10
3.913220893042734
 20
4.28061683914505
 30
0.0
  0
VERTEX
  5
2F59
330
28D1
100
AcDbEntity
  8
0
100
AcDbVertex
100
AcDb2dVertex
 10
3.913220893042734
 20
4.300309506467885
 30
0.0
  0
VERTEX
  5
2F5A
330
28D1
100
AcDbEntity
  8
0
100
AcDbVertex
100
AcDb2dVertex
 10
3.913220893042734
 20
4.323940707255286
 30
0.0
  0
SEQEND
  5
2F5B
330
28D1
100
AcDbEntity
  8
0
  0
LINE
  5
28D8
330
1E
100
AcDbEntity
  8
0
100
AcDbLine
 10
3.913220893042734
 20
5.372903453318279
 30
0.0
 11
3.913220893042734
 21
4.323940707255286
 31
0.0
  0
POLYLINE
  5
28D9
330
1E
100
AcDbEntity
  8
0
100
AcDb2dPolyline
 66
     1
 10
0.0
 20
0.0
 30
0.0
  0
VERTEX
  5
2F5C
330
28D9
100
AcDbEntity
  8
0
100
AcDbVertex
100
AcDb2dVertex
 10
3.913220893042734
 20
5.372903453318279
 30
0.0
  0
VERTEX
  5
2F5D
330
28D9
100
AcDbEntity
  8
0
100
AcDbVertex
100
AcDb2dVertex
 10
3.913220893042734
 20
5.395221809617491
 30
0.0
  0
VERTEX
  5
2F5E
330
28D9
100
AcDbEntity
  8
0
100
AcDbVertex
100
AcDb2dVertex
 10
3.913220893042734
 20
5.414914476940326
 30
0.0
  0
VERTEX
  5
2F5F
330
28D9
100
AcDbEntity
  8
0
100
AcDbVertex
100
AcDb2dVertex
 10
3.913220893042734
 20
5.428042921822215
 30
0.0
  0
VERTEX
  5
2F60
330
28D9
100
AcDbEntity
  8
0
100
AcDbVertex
100
AcDb2dVertex
 10
3.913220893042734
 20
5.431981455286782
 30
0.0
  0
SEQEND
  5
2F61
330
28D9
100
AcDbEntity
  8
0
  0
POLYLINE
  5
28E0
330
1E
100
AcDbEntity
  8
0
100
AcDb2dPolyline
 66
     1
 10
0.0
 20
0.0
 30
0.0
  0
VERTEX
  5
2F62
330
28E0
100
AcDbEntity
  8
0
100
AcDbVertex
100
AcDb2dVertex
 10
3.913220893042734
 20
4.302935195444263
 30
0.0
  0
VERTEX
  5
2F63
330
28E0
100
AcDbEntity
  8
0
100
AcDbVertex
100
AcDb2dVertex
 10
3.877774091861632
 20
4.302935195444263
 30
0.0
  0
VERTEX
  5
2F64
330
28E0
100
AcDbEntity
  8
0
100
AcDbVertex
100
AcDb2dVertex
 10
3.833137379263206
 20
4.304248039932453
 30
0.0
  0
SEQEND
  5
2F65
330
28E0
100
AcDbEntity
  8
0
  0
POLYLINE
  5
28E5
330
1E
100
AcDbEntity
  8
0
100
AcDb2dPolyline
 66
     1
 10
0.0
 20
0.0
 30
0.0
  0
VERTEX
  5
2F66
330
28E5
100
AcDbEntity
  8
0
100
AcDbVertex
100
AcDb2dVertex
 10
3.833137379263206
 20
5.414914476940326
 30
0.0
  0
VERTEX
  5
2F67
330
28E5
100
AcDbEntity
  8
0
100
AcDbVertex
100
AcDb2dVertex
 10
3.877774091861632
 20
5.416227321428515
 30
0.0
  0
VERTEX
  5
2F68
330
28E5
100
AcDbEntity
  8
0
100
AcDbVertex
100
AcDb2dVertex
 10
3.913220893042734
 20
5.416227321428515
 30
0.0
  0
SEQEND
  5
2F69
330
28E5
100
AcDbEntity
  8
0
  0
POLYLINE
  5
28EA
330
1E
100
AcDbEntity
  8
0
100
AcDb2dPolyline
 66
     1
 10
0.0
 20
0.0
 30
0.0
  0
VERTEX
  5
2F6A
330
28EA
100
AcDbEntity
  8
0
100
AcDbVertex
100
AcDb2dVertex
 10
3.833137379263206
 20
5.414914476940326
 30
0.0
  0
VERTEX
  5
2F6B
330
28EA
100
AcDbEntity
  8
0
100
AcDbVertex
100
AcDb2dVertex
 10
3.833137379263206
 20
5.362400697412767
 30
0.0
  0
VERTEX
  5
2F6C
330
28EA
100
AcDbEntity
  8
0
100
AcDbVertex
100
AcDb2dVertex
 10
3.833137379263206
 20
5.300697006467885
 30
0.0
  0
VERTEX
  5
2F6D
330
28EA
100
AcDbEntity
  8
0
100
AcDbVertex
100
AcDb2dVertex
 10
3.833137379263206
 20
5.23111624859387
 30
0.0
  0
VERTEX
  5
2F6E
330
28EA
100
AcDbEntity
  8
0
100
AcDbVertex
100
AcDb2dVertex
 10
3.833137379263206
 20
5.156284112767098
 30
0.0
  0
VERTEX
  5
2F6F
330
28EA
100
AcDbEntity
  8
0
100
AcDbVertex
100
AcDb2dVertex
 10
3.833137379263206
 20
5.074887754499381
 30
0.0
  0
VERTEX
  5
2F70
330
28EA
100
AcDbEntity
  8
0
100
AcDbVertex
100
AcDb2dVertex
 10
3.833137379263206
 20
4.990865707255286
 30
0.0
  0
VERTEX
  5
2F71
330
28EA
100
AcDbEntity
  8
0
100
AcDbVertex
100
AcDb2dVertex
 10
3.833137379263206
 20
4.904217971034814
 30
0.0
  0
VERTEX
  5
2F72
330
28EA
100
AcDbEntity
  8
0
100
AcDbVertex
100
AcDb2dVertex
 10
3.833137379263206
 20
4.816257390326152
 30
0.0
  0
VERTEX
  5
2F73
330
28EA
100
AcDbEntity
  8
0
100
AcDbVertex
100
AcDb2dVertex
 10
3.833137379263206
 20
4.72960965410568
 30
0.0
  0
VERTEX
  5
2F74
330
28EA
100
AcDbEntity
  8
0
100
AcDbVertex
100
AcDb2dVertex
 10
3.833137379263206
 20
4.644274762373397
 30
0.0
  0
VERTEX
  5
2F75
330
28EA
100
AcDbEntity
  8
0
100
AcDbVertex
100
AcDb2dVertex
 10
3.833137379263206
 20
4.56287840410568
 30
0.0
  0
VERTEX
  5
2F76
330
28EA
100
AcDbEntity
  8
0
100
AcDbVertex
100
AcDb2dVertex
 10
3.833137379263206
 20
4.488046268278909
 30
0.0
  0
VERTEX
  5
2F77
330
28EA
100
AcDbEntity
  8
0
100
AcDbVertex
100
AcDb2dVertex
 10
3.833137379263206
 20
4.418465510404893
 30
0.0
  0
VERTEX
  5
2F78
330
28EA
100
AcDbEntity
  8
0
100
AcDbVertex
100
AcDb2dVertex
 10
3.833137379263206
 20
4.356761819460011
 30
0.0
  0
VERTEX
  5
2F79
330
28EA
100
AcDbEntity
  8
0
100
AcDbVertex
100
AcDb2dVertex
 10
3.833137379263206
 20
4.304248039932453
 30
0.0
  0
SEQEND
  5
2F7A
330
28EA
100
AcDbEntity
  8
0
  0
LINE
  5
28FC
330
1E
100
AcDbEntity
  8
0
100
AcDbLine
 10
3.963108983593915
 20
3.948467183633239
 30
0.0
 11
3.963108983593915
 21
3.970785539932452
 31
0.0
  0
LINE
  5
28FD
330
1E
100
AcDbEntity
  8
0
100
AcDbLine
 10
3.963108983593915
 20
7.280466494656861
 30
0.0
 11
3.963108983593915
 21
7.302784850956074
 31
0.0
  0
POLYLINE
  5
28FE
330
1E
100
AcDbEntity
  8
0
100
AcDb2dPolyline
 66
     1
 10
0.0
 20
0.0
 30
0.0
  0
VERTEX
  5
2F7B
330
28FE
100
AcDbEntity
  8
0
100
AcDbVertex
100
AcDb2dVertex
 10
3.913220893042734
 20
5.81927057930253
 30
0.0
  0
VERTEX
  5
2F7C
330
28FE
100
AcDbEntity
  8
0
100
AcDbVertex
100
AcDb2dVertex
 10
3.913220893042734
 20
5.823209112767098
 30
0.0
  0
VERTEX
  5
2F7D
330
28FE
100
AcDbEntity
  8
0
100
AcDbVertex
100
AcDb2dVertex
 10
3.913220893042734
 20
5.836337557648987
 30
0.0
  0
VERTEX
  5
2F7E
330
28FE
100
AcDbEntity
  8
0
100
AcDbVertex
100
AcDb2dVertex
 10
3.913220893042734
 20
5.856030224971822
 30
0.0
  0
VERTEX
  5
2F7F
330
28FE
100
AcDbEntity
  8
0
100
AcDbVertex
100
AcDb2dVertex
 10
3.913220893042734
 20
5.878348581271035
 30
0.0
  0
SEQEND
  5
2F80
330
28FE
100
AcDbEntity
  8
0
  0
LINE
  5
2905
330
1E
100
AcDbEntity
  8
0
100
AcDbLine
 10
3.913220893042734
 20
6.927311327334026
 30
0.0
 11
3.913220893042734
 21
5.878348581271035
 31
0.0
  0
POLYLINE
  5
2906
330
1E
100
AcDbEntity
  8
0
100
AcDb2dPolyline
 66
     1
 10
0.0
 20
0.0
 30
0.0
  0
VERTEX
  5
2F81
330
2906
100
AcDbEntity
  8
0
100
AcDbVertex
100
AcDb2dVertex
 10
3.913220893042734
 20
6.927311327334026
 30
0.0
  0
VERTEX
  5
2F82
330
2906
100
AcDbEntity
  8
0
100
AcDbVertex
100
AcDb2dVertex
 10
3.913220893042734
 20
6.950942528121429
 30
0.0
  0
VERTEX
  5
2F83
330
2906
100
AcDbEntity
  8
0
100
AcDbVertex
100
AcDb2dVertex
 10
3.913220893042734
 20
6.969322350956073
 30
0.0
  0
VERTEX
  5
2F84
330
2906
100
AcDbEntity
  8
0
100
AcDbVertex
100
AcDb2dVertex
 10
3.913220893042734
 20
6.982450795837965
 30
0.0
  0
VERTEX
  5
2F85
330
2906
100
AcDbEntity
  8
0
100
AcDbVertex
100
AcDb2dVertex
 10
3.913220893042734
 20
6.98770217379072
 30
0.0
  0
SEQEND
  5
2F86
330
2906
100
AcDbEntity
  8
0
  0
POLYLINE
  5
290D
330
1E
100
AcDbEntity
  8
0
100
AcDb2dPolyline
 66
     1
 10
0.0
 20
0.0
 30
0.0
  0
VERTEX
  5
2F87
330
290D
100
AcDbEntity
  8
0
100
AcDbVertex
100
AcDb2dVertex
 10
3.833137379263206
 20
6.947003994656861
 30
0.0
  0
VERTEX
  5
2F88
330
290D
100
AcDbEntity
  8
0
100
AcDbVertex
100
AcDb2dVertex
 10
3.877774091861632
 20
6.948316839145051
 30
0.0
  0
VERTEX
  5
2F89
330
290D
100
AcDbEntity
  8
0
100
AcDbVertex
100
AcDb2dVertex
 10
3.913220893042734
 20
6.948316839145051
 30
0.0
  0
SEQEND
  5
2F8A
330
290D
100
AcDbEntity
  8
0
  0
LINE
  5
2912
330
1E
100
AcDbEntity
  8
0
100
AcDbLine
 10
3.913220893042734
 20
6.98770217379072
 30
0.0
 11
3.963108983593915
 21
6.98770217379072
 31
0.0
  0
LINE
  5
2913
330
1E
100
AcDbEntity
  8
0
100
AcDbLine
 10
3.913220893042734
 20
5.431981455286782
 30
0.0
 11
3.963108983593915
 21
5.433294299774972
 31
0.0
  0
LINE
  5
2914
330
1E
100
AcDbEntity
  8
0
100
AcDbLine
 10
3.963108983593915
 20
5.817957734814341
 30
0.0
 11
3.913220893042734
 21
5.81927057930253
 31
0.0
  0
LINE
  5
2915
330
1E
100
AcDbEntity
  8
0
100
AcDbLine
 10
3.994617251310451
 20
7.301472006467886
 30
0.0
 11
3.994617251310451
 21
7.297533473003317
 31
0.0
  0
LINE
  5
2916
330
1E
100
AcDbEntity
  8
0
100
AcDbLine
 10
3.913220893042734
 20
5.878348581271035
 30
0.0
 11
3.963108983593915
 21
5.878348581271035
 31
0.0
  0
LINE
  5
2917
330
1E
100
AcDbEntity
  8
0
100
AcDbLine
 10
3.963108983593915
 20
6.928624171822216
 30
0.0
 11
3.913220893042734
 21
6.927311327334026
 31
0.0
  0
LINE
  5
2918
330
1E
100
AcDbEntity
  8
0
100
AcDbLine
 10
3.963108983593915
 20
5.372903453318279
 30
0.0
 11
3.913220893042734
 21
5.372903453318279
 31
0.0
  0
LINE
  5
2919
330
1E
100
AcDbEntity
  8
0
100
AcDbLine
 10
3.913220893042734
 20
4.323940707255286
 30
0.0
 11
3.963108983593915
 21
4.322627862767097
 31
0.0
  0
LINE
  5
291A
330
1E
100
AcDbEntity
  8
0
100
AcDbLine
 10
3.994617251310451
 20
3.949780028121429
 30
0.0
 11
3.994617251310451
 21
3.953718561585995
 31
0.0
  0
POLYLINE
  5
291B
330
1E
100
AcDbEntity
  8
0
100
AcDb2dPolyline
 66
     1
 10
0.0
 20
0.0
 30
0.0
  0
VERTEX
  5
2F8B
330
291B
100
AcDbEntity
  8
0
100
AcDbVertex
100
AcDb2dVertex
 10
4.35564948556242
 20
5.477931012373397
 30
0.0
  0
VERTEX
  5
2F8C
330
291B
100
AcDbEntity
  8
0
100
AcDbVertex
100
AcDb2dVertex
 10
4.35564948556242
 20
5.484495234814342
 30
0.0
  0
VERTEX
  5
2F8D
330
291B
100
AcDbEntity
  8
0
100
AcDbVertex
100
AcDb2dVertex
 10
4.35564948556242
 20
5.501562213160798
 30
0.0
  0
VERTEX
  5
2F8E
330
291B
100
AcDbEntity
  8
0
100
AcDbVertex
100
AcDb2dVertex
 10
4.35564948556242
 20
5.529131947412767
 30
0.0
  0
VERTEX
  5
2F8F
330
291B
100
AcDbEntity
  8
0
100
AcDbVertex
100
AcDb2dVertex
 10
4.35564948556242
 20
5.56457874859387
 30
0.0
  0
VERTEX
  5
2F90
330
291B
100
AcDbEntity
  8
0
100
AcDbVertex
100
AcDb2dVertex
 10
4.35564948556242
 20
5.603964083239539
 30
0.0
  0
VERTEX
  5
2F91
330
291B
100
AcDbEntity
  8
0
100
AcDbVertex
100
AcDb2dVertex
 10
4.35564948556242
 20
5.645975106861586
 30
0.0
  0
VERTEX
  5
2F92
330
291B
100
AcDbEntity
  8
0
100
AcDbVertex
100
AcDb2dVertex
 10
4.35564948556242
 20
5.686673285995444
 30
0.0
  0
VERTEX
  5
2F93
330
291B
100
AcDbEntity
  8
0
100
AcDbVertex
100
AcDb2dVertex
 10
4.35564948556242
 20
5.722120087176547
 30
0.0
  0
VERTEX
  5
2F94
330
291B
100
AcDbEntity
  8
0
100
AcDbVertex
100
AcDb2dVertex
 10
4.35564948556242
 20
5.749689821428515
 30
0.0
  0
VERTEX
  5
2F95
330
291B
100
AcDbEntity
  8
0
100
AcDbVertex
100
AcDb2dVertex
 10
4.35564948556242
 20
5.766756799774971
 30
0.0
  0
VERTEX
  5
2F96
330
291B
100
AcDbEntity
  8
0
100
AcDbVertex
100
AcDb2dVertex
 10
4.35564948556242
 20
5.773321022215917
 30
0.0
  0
SEQEND
  5
2F97
330
291B
100
AcDbEntity
  8
0
  0
LINE
  5
2929
330
1E
100
AcDbEntity
  8
0
100
AcDbLine
 10
4.255873304460057
 20
5.963683473003317
 30
0.0
 11
4.283443038712025
 21
5.963683473003317
 31
0.0
  0
LINE
  5
292A
330
1E
100
AcDbEntity
  8
0
100
AcDbLine
 10
4.283443038712025
 20
5.963683473003317
 30
0.0
 11
4.283443038712025
 21
6.001755963160798
 31
0.0
  0
POLYLINE
  5
292B
330
1E
100
AcDbEntity
  8
0
100
AcDb2dPolyline
 66
     1
 10
0.0
 20
0.0
 30
0.0
  0
VERTEX
  5
2F98
330
292B
100
AcDbEntity
  8
0
100
AcDbVertex
100
AcDb2dVertex
 10
4.255873304460058
 20
6.052956898200168
 30
0.0
  0
VERTEX
  5
2F99
330
292B
100
AcDbEntity
  8
0
100
AcDbVertex
100
AcDb2dVertex
 10
4.27687881627108
 20
6.030638541900956
 30
0.0
  0
VERTEX
  5
2F9A
330
292B
100
AcDbEntity
  8
0
100
AcDbVertex
100
AcDb2dVertex
 10
4.283443038712025
 20
6.001755963160798
 30
0.0
  0
SEQEND
  5
2F9B
330
292B
100
AcDbEntity
  8
0
  0
LINE
  5
2930
330
1E
100
AcDbEntity
  8
0
100
AcDbLine
 10
4.255873304460057
 20
6.868233325365523
 30
0.0
 11
4.27687881627108
 21
6.882674614735602
 31
0.0
  0
LINE
  5
2931
330
1E
100
AcDbEntity
  8
0
100
AcDbLine
 10
4.27687881627108
 20
6.882674614735602
 30
0.0
 11
4.283443038712025
 21
6.895803059617492
 31
0.0
  0
LINE
  5
2932
330
1E
100
AcDbEntity
  8
0
100
AcDbLine
 10
4.283443038712025
 20
6.895803059617492
 30
0.0
 11
4.283443038712025
 21
6.928624171822216
 31
0.0
  0
LINE
  5
2933
330
1E
100
AcDbEntity
  8
0
100
AcDbLine
 10
4.283443038712025
 20
4.432906799774971
 30
0.0
 11
4.283443038712025
 21
4.469666445444262
 31
0.0
  0
POLYLINE
  5
2934
330
1E
100
AcDbEntity
  8
0
100
AcDb2dPolyline
 66
     1
 10
0.0
 20
0.0
 30
0.0
  0
VERTEX
  5
2F9C
330
2934
100
AcDbEntity
  8
0
100
AcDbVertex
100
AcDb2dVertex
 10
4.255873304460058
 20
4.520867380483633
 30
0.0
  0
VERTEX
  5
2F9D
330
2934
100
AcDbEntity
  8
0
100
AcDbVertex
100
AcDb2dVertex
 10
4.27687881627108
 20
4.499861868672609
 30
0.0
  0
VERTEX
  5
2F9E
330
2934
100
AcDbEntity
  8
0
100
AcDbVertex
100
AcDb2dVertex
 10
4.283443038712025
 20
4.469666445444262
 30
0.0
  0
SEQEND
  5
2F9F
330
2934
100
AcDbEntity
  8
0
  0
LINE
  5
2939
330
1E
100
AcDbEntity
  8
0
100
AcDbLine
 10
4.255873304460057
 20
5.337456652137176
 30
0.0
 11
4.27687881627108
 21
5.351897941507255
 31
0.0
  0
LINE
  5
293A
330
1E
100
AcDbEntity
  8
0
100
AcDbLine
 10
4.27687881627108
 20
5.351897941507255
 30
0.0
 11
4.283443038712025
 21
5.363713541900956
 31
0.0
  0
LINE
  5
293B
330
1E
100
AcDbEntity
  8
0
100
AcDbLine
 10
4.283443038712025
 20
5.363713541900956
 30
0.0
 11
4.283443038712025
 21
5.39653465410568
 31
0.0
  0
LINE
  5
293C
330
1E
100
AcDbEntity
  8
0
100
AcDbLine
 10
4.255873304460057
 20
5.39653465410568
 30
0.0
 11
4.283443038712025
 21
5.39653465410568
 31
0.0
  0
ENDSEC
  0
SECTION
  2
OBJECTS
  0
DICTIONARY
  5
C
330
0
100
AcDbDictionary
  3
ACAD_GROUP
350
D
  3
ACAD_MLINESTYLE
350
16
  3
ACAD_PLOTSETTINGS
350
18
  3
ACAD_LAYOUT
350
19
1001
ACAD
1000
TREAT_AS_HARD
1070
     0
  0
DICTIONARY
  5
2C7F
330
1E
100
AcDbDictionary
  3
ACAD_LAYOUTSELFREF
350
2C80
  0
DICTIONARY
  5
2C7D
330
1A
100
AcDbDictionary
  3
ACAD_LAYOUTSELFREF
350
2C7E
  0
DICTIONARY
  5
D
102
{ACAD_REACTORS
330
C
102
}
330
C
100
AcDbDictionary
1001
ACAD
1000
TREAT_AS_HARD
1070
     0
  0
DICTIONARY
  5
16
102
{ACAD_REACTORS
330
C
102
}
330
C
100
AcDbDictionary
  3
STANDARD
350
17
1001
ACAD
1000
TREAT_AS_HARD
1070
     0
  0
DICTIONARY
  5
18
102
{ACAD_REACTORS
330
C
102
}
330
C
100
AcDbDictionary
1001
ACAD
1000
TREAT_AS_HARD
1070
     0
  0
DICTIONARY
  5
19
102
{ACAD_REACTORS
330
C
102
}
330
C
100
AcDbDictionary
1001
ACAD
1000
TREAT_AS_HARD
1070
     0
  0
XRECORD
  5
2C80
102
{ACAD_REACTORS
330
2C7F
102
}
330
2C7F
100
AcDbXrecord
340
1E
  0
XRECORD
  5
2C7E
102
{ACAD_REACTORS
330
2C7D
102
}
330
2C7D
100
AcDbXrecord
340
1A
  0
MLINESTYLE
  5
17
102
{ACAD_REACTORS
330
16
102
}
330
16
100
AcDbMlineStyle
  2
STANDARD
 70
     0
  3

 62
   256
 51
90.0
 52
90.0
 71
     2
 49
0.5
 62
   256
  6
BYLAYER
 49
-0.5
 62
   256
  6
BYLAYER
  0
ENDSEC
  0
EOF
