  0
SECTION
  2
HEADER
  9
$ACADVER
  1
AC1012
  9
$DWGCODEPAGE
  3
ANSI_1252
  9
$INSBASE
 10
0.0
 20
0.0
 30
0.0
  9
$EXTMIN
 10
8.407872341636675
 20
3.783142115202664
 30
-0.0000000349181948
  9
$EXTMAX
 10
11.87724397869593
 20
7.137405414294224
 30
0.0000000814935746
  9
$LIMMIN
 10
0.0
 20
0.0
  9
$LIMMAX
 10
12.0
 20
9.0
  9
$ORTHOMODE
 70
     0
  9
$REGENMODE
 70
     1
  9
$FILLMODE
 70
     1
  9
$QTEXTMODE
 70
     0
  9
$MIRRTEXT
 70
     1
  9
$DRAGMODE
 70
     2
  9
$LTSCALE
 40
1.0
  9
$OSMODE
 70
    33
  9
$ATTMODE
 70
     1
  9
$TEXTSIZE
 40
0.2
  9
$TRACEWID
 40
0.05
  9
$TEXTSTYLE
  7
STANDARD
  9
$CLAYER
  8
0
  9
$CELTYPE
  6
BYLAYER
  9
$CECOLOR
 62
   256
  9
$CELTSCALE
 40
1.0
  9
$DELOBJ
 70
     1
  9
$DISPSILH
 70
     0
  9
$DIMSCALE
 40
1.0
  9
$DIMASZ
 40
0.18
  9
$DIMEXO
 40
0.0625
  9
$DIMDLI
 40
0.38
  9
$DIMRND
 40
0.0
  9
$DIMDLE
 40
0.0
  9
$DIMEXE
 40
0.18
  9
$DIMTP
 40
0.0
  9
$DIMTM
 40
0.0
  9
$DIMTXT
 40
0.18
  9
$DIMCEN
 40
0.09
  9
$DIMTSZ
 40
0.0
  9
$DIMTOL
 70
     0
  9
$DIMLIM
 70
     0
  9
$DIMTIH
 70
     1
  9
$DIMTOH
 70
     1
  9
$DIMSE1
 70
     0
  9
$DIMSE2
 70
     0
  9
$DIMTAD
 70
     0
  9
$DIMZIN
 70
     0
  9
$DIMBLK
  1

  9
$DIMASO
 70
     1
  9
$DIMSHO
 70
     1
  9
$DIMPOST
  1

  9
$DIMAPOST
  1

  9
$DIMALT
 70
     0
  9
$DIMALTD
 70
     2
  9
$DIMALTF
 40
25.4
  9
$DIMLFAC
 40
1.0
  9
$DIMTOFL
 70
     0
  9
$DIMTVP
 40
0.0
  9
$DIMTIX
 70
     0
  9
$DIMSOXD
 70
     0
  9
$DIMSAH
 70
     0
  9
$DIMBLK1
  1

  9
$DIMBLK2
  1

  9
$DIMSTYLE
  2
STANDARD
  9
$DIMCLRD
 70
     0
  9
$DIMCLRE
 70
     0
  9
$DIMCLRT
 70
     0
  9
$DIMTFAC
 40
1.0
  9
$DIMGAP
 40
0.09
  9
$DIMJUST
 70
     0
  9
$DIMSD1
 70
     0
  9
$DIMSD2
 70
     0
  9
$DIMTOLJ
 70
     1
  9
$DIMTZIN
 70
     0
  9
$DIMALTZ
 70
     0
  9
$DIMALTTZ
 70
     0
  9
$DIMFIT
 70
     5
  9
$DIMUPT
 70
     0
  9
$DIMUNIT
 70
     2
  9
$DIMDEC
 70
     4
  9
$DIMTDEC
 70
     4
  9
$DIMALTU
 70
     2
  9
$DIMALTTD
 70
     2
  9
$DIMTXSTY
  7
STANDARD
  9
$DIMAUNIT
 70
     0
  9
$LUNITS
 70
     2
  9
$LUPREC
 70
     4
  9
$SKETCHINC
 40
0.1
  9
$FILLETRAD
 40
0.0
  9
$AUNITS
 70
     0
  9
$AUPREC
 70
     0
  9
$MENU
  1
acad
  9
$ELEVATION
 40
0.0
  9
$PELEVATION
 40
0.0
  9
$THICKNESS
 40
0.0
  9
$LIMCHECK
 70
     0
  9
$BLIPMODE
 70
     0
  9
$CHAMFERA
 40
0.0
  9
$CHAMFERB
 40
0.0
  9
$CHAMFERC
 40
0.0
  9
$CHAMFERD
 40
0.0
  9
$SKPOLY
 70
     0
  9
$TDCREATE
 40
2451992.466840278
  9
$TDUPDATE
 40
2452347.369609930
  9
$TDINDWG
 40
0.0010221412
  9
$TDUSRTIMER
 40
0.0010221412
  9
$USRTIMER
 70
     1
  9
$ANGBASE
 50
0.0
  9
$ANGDIR
 70
     0
  9
$PDMODE
 70
     0
  9
$PDSIZE
 40
0.0
  9
$PLINEWID
 40
0.0
  9
$COORDS
 70
     2
  9
$SPLFRAME
 70
     0
  9
$SPLINETYPE
 70
     6
  9
$SPLINESEGS
 70
     8
  9
$ATTDIA
 70
     0
  9
$ATTREQ
 70
     1
  9
$HANDLING
 70
  4097
  9
$HANDSEED
  5
2B28
  9
$SURFTAB1
 70
     6
  9
$SURFTAB2
 70
     6
  9
$SURFTYPE
 70
     6
  9
$SURFU
 70
     6
  9
$SURFV
 70
     6
  9
$UCSNAME
  2

  9
$UCSORG
 10
0.0
 20
0.0
 30
0.0
  9
$UCSXDIR
 10
1.0
 20
0.0
 30
0.0
  9
$UCSYDIR
 10
0.0
 20
1.0
 30
0.0
  9
$PUCSNAME
  2

  9
$PUCSORG
 10
0.0
 20
0.0
 30
0.0
  9
$PUCSXDIR
 10
1.0
 20
0.0
 30
0.0
  9
$PUCSYDIR
 10
0.0
 20
1.0
 30
0.0
  9
$USERI1
 70
     0
  9
$USERI2
 70
     0
  9
$USERI3
 70
     0
  9
$USERI4
 70
     0
  9
$USERI5
 70
     0
  9
$USERR1
 40
0.0
  9
$USERR2
 40
0.0
  9
$USERR3
 40
0.0
  9
$USERR4
 40
0.0
  9
$USERR5
 40
0.0
  9
$WORLDVIEW
 70
     1
  9
$SHADEDGE
 70
     3
  9
$SHADEDIF
 70
    70
  9
$TILEMODE
 70
     1
  9
$MAXACTVP
 70
    16
  9
$PINSBASE
 10
0.0
 20
0.0
 30
0.0
  9
$PLIMCHECK
 70
     0
  9
$PEXTMIN
 10
1.000000000000000E+20
 20
1.000000000000000E+20
 30
1.000000000000000E+20
  9
$PEXTMAX
 10
-1.000000000000000E+20
 20
-1.000000000000000E+20
 30
-1.000000000000000E+20
  9
$PLIMMIN
 10
0.0
 20
0.0
  9
$PLIMMAX
 10
12.0
 20
9.0
  9
$UNITMODE
 70
     0
  9
$VISRETAIN
 70
     0
  9
$PLINEGEN
 70
     0
  9
$PSLTSCALE
 70
     1
  9
$TREEDEPTH
 70
  3020
  9
$PICKSTYLE
 70
     1
  9
$CMLSTYLE
  2
STANDARD
  9
$CMLJUST
 70
     0
  9
$CMLSCALE
 40
1.0
  9
$SAVEIMAGES
 70
     1
  0
ENDSEC
  0
SECTION
  2
CLASSES
  0
CLASS
  1
ACDBDICTIONARYWDFLT
  2
AcDbDictionaryWithDefault
  3
AutoCAD 2000
 90
    32768
280
     0
281
     0
  0
CLASS
  1
ACDBPLACEHOLDER
  2
AcDbPlaceHolder
  3
AutoCAD 2000
 90
    32768
280
     0
281
     0
  0
CLASS
  1
LAYOUT
  2
AcDbLayout
  3
AutoCAD 2000
 90
    32768
280
     0
281
     0
  0
CLASS
  1
LONG_TRANSACTION
  2
AcDbLongTransaction
  3
AutoCAD 2000
 90
    32768
280
     0
281
     0
  0
CLASS
  1
LWPOLYLINE
  2
AcDbPolyline
  3
AutoCAD 2000
 90
    32768
280
     0
281
     1
  0
CLASS
  1
HATCH
  2
AcDbHatch
  3
AutoCAD 2000
 90
    32768
280
     0
281
     1
  0
CLASS
  1
XRECORD
  2
AcDbXrecord
  3
AutoCAD 2000
 90
    32768
280
     0
281
     0
  0
ENDSEC
  0
SECTION
  2
TABLES
  0
TABLE
  2
VPORT
  5
8
330
0
100
AcDbSymbolTable
 70
     3
  0
VPORT
  5
2B23
330
8
100
AcDbSymbolTableRecord
100
AcDbViewportTableRecord
  2
*ACTIVE
 70
     0
 10
0.0
 20
0.0
 11
1.0
 21
1.0
 12
10.1425581601663
 22
5.460273764748444
 13
0.0
 23
0.0
 14
1.0
 24
1.0
 15
0.0
 25
0.0
 16
0.0
 26
0.0
 36
1.0
 17
0.0
 27
0.0
 37
0.0
 40
3.380779214499398
 41
1.608179419525066
 42
50.0
 43
0.0
 44
0.0
 50
0.0
 51
0.0
 71
     0
 72
   100
 73
     1
 74
     1
 75
     0
 76
     0
 77
     0
 78
     0
  0
ENDTAB
  0
TABLE
  2
LTYPE
  5
5
330
0
100
AcDbSymbolTable
 70
    25
  0
LTYPE
  5
13
330
5
100
AcDbSymbolTableRecord
100
AcDbLinetypeTableRecord
  2
BYBLOCK
 70
     0
  3

 72
    65
 73
     0
 40
0.0
  0
LTYPE
  5
14
330
5
100
AcDbSymbolTableRecord
100
AcDbLinetypeTableRecord
  2
BYLAYER
 70
     0
  3

 72
    65
 73
     0
 40
0.0
  0
LTYPE
  5
15
330
5
100
AcDbSymbolTableRecord
100
AcDbLinetypeTableRecord
  2
CONTINUOUS
 70
     0
  3
Solid line
 72
    65
 73
     0
 40
0.0
  0
LTYPE
  5
22
330
5
100
AcDbSymbolTableRecord
100
AcDbLinetypeTableRecord
  2
BORDER
 70
     0
  3
__ __ . __ __ . __ __ . __ __ . __ __ . __ __ .
 72
    65
 73
     6
 40
1.75
 49
0.5
 74
     0
 49
-0.25
 74
     0
 49
0.5
 74
     0
 49
-0.25
 74
     0
 49
0.5
 74
     0
 49
-0.25
 74
     0
  0
LTYPE
  5
23
330
5
100
AcDbSymbolTableRecord
100
AcDbLinetypeTableRecord
  2
BORDER2
 70
     0
  3
__.__.__.__.__.__.__.__.__.__.__.__.__.__.__.__
 72
    65
 73
     6
 40
0.875
 49
0.25
 74
     0
 49
-0.125
 74
     0
 49
0.25
 74
     0
 49
-0.125
 74
     0
 49
0.25
 74
     0
 49
-0.125
 74
     0
  0
LTYPE
  5
24
330
5
100
AcDbSymbolTableRecord
100
AcDbLinetypeTableRecord
  2
BORDERX2
 70
     0
  3
____  ____  .  ____  ____  .  
 72
    65
 73
     6
 40
3.5
 49
1.0
 74
     0
 49
-0.5
 74
     0
 49
1.0
 74
     0
 49
-0.5
 74
     0
 49
1.0
 74
     0
 49
-0.5
 74
     0
  0
LTYPE
  5
25
330
5
100
AcDbSymbolTableRecord
100
AcDbLinetypeTableRecord
  2
CENTER
 70
     0
  3
____ _ ____ _ ____ _ ____ _ ____ _ ____ _ ____
 72
    65
 73
     4
 40
2.0
 49
1.25
 74
     0
 49
-0.25
 74
     0
 49
0.25
 74
     0
 49
-0.25
 74
     0
  0
LTYPE
  5
26
330
5
100
AcDbSymbolTableRecord
100
AcDbLinetypeTableRecord
  2
CENTER2
 70
     0
  3
____ _ ____ _ ____ _ ____ _ ____ _ ____ _ ____
 72
    65
 73
     4
 40
1.125
 49
0.75
 74
     0
 49
-0.125
 74
     0
 49
0.125
 74
     0
 49
-0.125
 74
     0
  0
LTYPE
  5
27
330
5
100
AcDbSymbolTableRecord
100
AcDbLinetypeTableRecord
  2
CENTERX2
 70
     0
  3
________  __  ________  __  ________  __  
 72
    65
 73
     4
 40
4.0
 49
2.5
 74
     0
 49
-0.5
 74
     0
 49
0.5
 74
     0
 49
-0.5
 74
     0
  0
LTYPE
  5
28
330
5
100
AcDbSymbolTableRecord
100
AcDbLinetypeTableRecord
  2
DASHDOT
 70
     0
  3
__ . __ . __ . __ . __ . __ . __ . 
 72
    65
 73
     4
 40
1.0
 49
0.5
 74
     0
 49
-0.25
 74
     0
 49
0.0
 74
     0
 49
-0.25
 74
     0
  0
LTYPE
  5
29
330
5
100
AcDbSymbolTableRecord
100
AcDbLinetypeTableRecord
  2
DASHDOT2
 70
     0
  3
_._._._._._._._._._._._._._._._.
 72
    65
 73
     4
 40
0.5
 49
0.25
 74
     0
 49
-0.125
 74
     0
 49
0.0
 74
     0
 49
-0.125
 74
     0
  0
LTYPE
  5
2A
330
5
100
AcDbSymbolTableRecord
100
AcDbLinetypeTableRecord
  2
DASHDOTX2
 70
     0
  3
____  .  ____  .  ____  .  ____  .  
 72
    65
 73
     4
 40
2.0
 49
1.0
 74
     0
 49
-0.5
 74
     0
 49
0.0
 74
     0
 49
-0.5
 74
     0
  0
LTYPE
  5
2B
330
5
100
AcDbSymbolTableRecord
100
AcDbLinetypeTableRecord
  2
DASHED
 70
     0
  3
__ __ __ __ __ __ __ __ __ __ __ __ 
 72
    65
 73
     2
 40
0.75
 49
0.5
 74
     0
 49
-0.25
 74
     0
  0
LTYPE
  5
2C
330
5
100
AcDbSymbolTableRecord
100
AcDbLinetypeTableRecord
  2
DASHED2
 70
     0
  3
_ _ _ _ _ _ _ _ _ _ _ _ _ _ _ _ _ _ 
 72
    65
 73
     2
 40
0.375
 49
0.25
 74
     0
 49
-0.125
 74
     0
  0
LTYPE
  5
2D
330
5
100
AcDbSymbolTableRecord
100
AcDbLinetypeTableRecord
  2
DASHEDX2
 70
     0
  3
____  ____  ____  ____  ____  ____  
 72
    65
 73
     2
 40
1.5
 49
1.0
 74
     0
 49
-0.5
 74
     0
  0
LTYPE
  5
2E
330
5
100
AcDbSymbolTableRecord
100
AcDbLinetypeTableRecord
  2
DIVIDE
 70
     0
  3
____ . . ____ . . ____ . . ____ . . 
 72
    65
 73
     6
 40
1.25
 49
0.5
 74
     0
 49
-0.25
 74
     0
 49
0.0
 74
     0
 49
-0.25
 74
     0
 49
0.0
 74
     0
 49
-0.25
 74
     0
  0
LTYPE
  5
2F
330
5
100
AcDbSymbolTableRecord
100
AcDbLinetypeTableRecord
  2
DIVIDE2
 70
     0
  3
__..__..__..__..__..__..__..__..__..
 72
    65
 73
     6
 40
0.625
 49
0.25
 74
     0
 49
-0.125
 74
     0
 49
0.0
 74
     0
 49
-0.125
 74
     0
 49
0.0
 74
     0
 49
-0.125
 74
     0
  0
LTYPE
  5
30
330
5
100
AcDbSymbolTableRecord
100
AcDbLinetypeTableRecord
  2
DIVIDEX2
 70
     0
  3
________  .  .  ________  .  .  ________  .  . 
 72
    65
 73
     6
 40
2.5
 49
1.0
 74
     0
 49
-0.5
 74
     0
 49
0.0
 74
     0
 49
-0.5
 74
     0
 49
0.0
 74
     0
 49
-0.5
 74
     0
  0
LTYPE
  5
31
330
5
100
AcDbSymbolTableRecord
100
AcDbLinetypeTableRecord
  2
DOT
 70
     0
  3
. . . . . . . . . . . . . . . . . . 
 72
    65
 73
     2
 40
0.25
 49
0.0
 74
     0
 49
-0.25
 74
     0
  0
LTYPE
  5
32
330
5
100
AcDbSymbolTableRecord
100
AcDbLinetypeTableRecord
  2
DOT2
 70
     0
  3
....................................
 72
    65
 73
     2
 40
0.125
 49
0.0
 74
     0
 49
-0.125
 74
     0
  0
LTYPE
  5
33
330
5
100
AcDbSymbolTableRecord
100
AcDbLinetypeTableRecord
  2
DOTX2
 70
     0
  3
.  .  .  .  .  .  .  .  .  .  .  .  .  
 72
    65
 73
     2
 40
0.5
 49
0.0
 74
     0
 49
-0.5
 74
     0
  0
LTYPE
  5
34
330
5
100
AcDbSymbolTableRecord
100
AcDbLinetypeTableRecord
  2
HIDDEN
 70
     0
  3
__ __ __ __ __ __ __ __ __ __ __ __ 
 72
    65
 73
     2
 40
0.375
 49
0.25
 74
     0
 49
-0.125
 74
     0
  0
LTYPE
  5
35
330
5
100
AcDbSymbolTableRecord
100
AcDbLinetypeTableRecord
  2
HIDDEN2
 70
     0
  3
_ _ _ _ _ _ _ _ _ _ _ _ _ _ _ _ _ _ 
 72
    65
 73
     2
 40
0.1875
 49
0.125
 74
     0
 49
-0.0625
 74
     0
  0
LTYPE
  5
36
330
5
100
AcDbSymbolTableRecord
100
AcDbLinetypeTableRecord
  2
HIDDENX2
 70
     0
  3
____ ____ ____ ____ ____ ____ ____ 
 72
    65
 73
     2
 40
0.75
 49
0.5
 74
     0
 49
-0.25
 74
     0
  0
LTYPE
  5
37
330
5
100
AcDbSymbolTableRecord
100
AcDbLinetypeTableRecord
  2
PHANTOM
 70
     0
  3
______  __  __  ______  __  __  
 72
    65
 73
     6
 40
2.5
 49
1.25
 74
     0
 49
-0.25
 74
     0
 49
0.25
 74
     0
 49
-0.25
 74
     0
 49
0.25
 74
     0
 49
-0.25
 74
     0
  0
LTYPE
  5
38
330
5
100
AcDbSymbolTableRecord
100
AcDbLinetypeTableRecord
  2
PHANTOM2
 70
     0
  3
___ _ _ ___ _ _ ___ _ _ ___ _ _ 
 72
    65
 73
     6
 40
1.25
 49
0.625
 74
     0
 49
-0.125
 74
     0
 49
0.125
 74
     0
 49
-0.125
 74
     0
 49
0.125
 74
     0
 49
-0.125
 74
     0
  0
LTYPE
  5
39
330
5
100
AcDbSymbolTableRecord
100
AcDbLinetypeTableRecord
  2
PHANTOMX2
 70
     0
  3
___ _ _ ___ _ _ ___ _ _ ___ _ _ 
 72
    65
 73
     6
 40
5.0
 49
2.5
 74
     0
 49
-0.5
 74
     0
 49
0.5
 74
     0
 49
-0.5
 74
     0
 49
0.5
 74
     0
 49
-0.5
 74
     0
  0
ENDTAB
  0
TABLE
  2
LAYER
  5
2
330
0
100
AcDbSymbolTable
 70
   256
  0
LAYER
  5
10
330
2
100
AcDbSymbolTableRecord
100
AcDbLayerTableRecord
  2
0
 70
     0
 62
     7
  6
CONTINUOUS
  0
LAYER
  5
3A
330
2
100
AcDbSymbolTableRecord
100
AcDbLayerTableRecord
  2
1
 70
     0
 62
     1
  6
CONTINUOUS
  0
LAYER
  5
3B
330
2
100
AcDbSymbolTableRecord
100
AcDbLayerTableRecord
  2
2
 70
     0
 62
     2
  6
CONTINUOUS
  0
LAYER
  5
3C
330
2
100
AcDbSymbolTableRecord
100
AcDbLayerTableRecord
  2
3
 70
     0
 62
     3
  6
CONTINUOUS
  0
LAYER
  5
3D
330
2
100
AcDbSymbolTableRecord
100
AcDbLayerTableRecord
  2
4
 70
     0
 62
     4
  6
CONTINUOUS
  0
LAYER
  5
3E
330
2
100
AcDbSymbolTableRecord
100
AcDbLayerTableRecord
  2
5
 70
     0
 62
     5
  6
CONTINUOUS
  0
LAYER
  5
3F
330
2
100
AcDbSymbolTableRecord
100
AcDbLayerTableRecord
  2
6
 70
     0
 62
     6
  6
CONTINUOUS
  0
LAYER
  5
40
330
2
100
AcDbSymbolTableRecord
100
AcDbLayerTableRecord
  2
7
 70
     0
 62
     7
  6
CONTINUOUS
  0
LAYER
  5
41
330
2
100
AcDbSymbolTableRecord
100
AcDbLayerTableRecord
  2
8
 70
     0
 62
     8
  6
CONTINUOUS
  0
LAYER
  5
42
330
2
100
AcDbSymbolTableRecord
100
AcDbLayerTableRecord
  2
9
 70
     0
 62
     9
  6
CONTINUOUS
  0
LAYER
  5
43
330
2
100
AcDbSymbolTableRecord
100
AcDbLayerTableRecord
  2
10
 70
     0
 62
    10
  6
CONTINUOUS
  0
LAYER
  5
44
330
2
100
AcDbSymbolTableRecord
100
AcDbLayerTableRecord
  2
11
 70
     0
 62
    11
  6
CONTINUOUS
  0
LAYER
  5
45
330
2
100
AcDbSymbolTableRecord
100
AcDbLayerTableRecord
  2
12
 70
     0
 62
    12
  6
CONTINUOUS
  0
LAYER
  5
46
330
2
100
AcDbSymbolTableRecord
100
AcDbLayerTableRecord
  2
13
 70
     0
 62
    13
  6
CONTINUOUS
  0
LAYER
  5
47
330
2
100
AcDbSymbolTableRecord
100
AcDbLayerTableRecord
  2
14
 70
     0
 62
    14
  6
CONTINUOUS
  0
LAYER
  5
48
330
2
100
AcDbSymbolTableRecord
100
AcDbLayerTableRecord
  2
15
 70
     0
 62
    15
  6
CONTINUOUS
  0
LAYER
  5
49
330
2
100
AcDbSymbolTableRecord
100
AcDbLayerTableRecord
  2
16
 70
     0
 62
    16
  6
CONTINUOUS
  0
LAYER
  5
4A
330
2
100
AcDbSymbolTableRecord
100
AcDbLayerTableRecord
  2
17
 70
     0
 62
    17
  6
CONTINUOUS
  0
LAYER
  5
4B
330
2
100
AcDbSymbolTableRecord
100
AcDbLayerTableRecord
  2
18
 70
     0
 62
    18
  6
CONTINUOUS
  0
LAYER
  5
4C
330
2
100
AcDbSymbolTableRecord
100
AcDbLayerTableRecord
  2
19
 70
     0
 62
    19
  6
CONTINUOUS
  0
LAYER
  5
4D
330
2
100
AcDbSymbolTableRecord
100
AcDbLayerTableRecord
  2
20
 70
     0
 62
    20
  6
CONTINUOUS
  0
LAYER
  5
4E
330
2
100
AcDbSymbolTableRecord
100
AcDbLayerTableRecord
  2
21
 70
     0
 62
    21
  6
CONTINUOUS
  0
LAYER
  5
4F
330
2
100
AcDbSymbolTableRecord
100
AcDbLayerTableRecord
  2
22
 70
     0
 62
    22
  6
CONTINUOUS
  0
LAYER
  5
50
330
2
100
AcDbSymbolTableRecord
100
AcDbLayerTableRecord
  2
23
 70
     0
 62
    23
  6
CONTINUOUS
  0
LAYER
  5
51
330
2
100
AcDbSymbolTableRecord
100
AcDbLayerTableRecord
  2
24
 70
     0
 62
    24
  6
CONTINUOUS
  0
LAYER
  5
52
330
2
100
AcDbSymbolTableRecord
100
AcDbLayerTableRecord
  2
25
 70
     0
 62
    25
  6
CONTINUOUS
  0
LAYER
  5
53
330
2
100
AcDbSymbolTableRecord
100
AcDbLayerTableRecord
  2
26
 70
     0
 62
    26
  6
CONTINUOUS
  0
LAYER
  5
54
330
2
100
AcDbSymbolTableRecord
100
AcDbLayerTableRecord
  2
27
 70
     0
 62
    27
  6
CONTINUOUS
  0
LAYER
  5
55
330
2
100
AcDbSymbolTableRecord
100
AcDbLayerTableRecord
  2
28
 70
     0
 62
    28
  6
CONTINUOUS
  0
LAYER
  5
56
330
2
100
AcDbSymbolTableRecord
100
AcDbLayerTableRecord
  2
29
 70
     0
 62
    29
  6
CONTINUOUS
  0
LAYER
  5
57
330
2
100
AcDbSymbolTableRecord
100
AcDbLayerTableRecord
  2
30
 70
     0
 62
    30
  6
CONTINUOUS
  0
LAYER
  5
58
330
2
100
AcDbSymbolTableRecord
100
AcDbLayerTableRecord
  2
31
 70
     0
 62
    31
  6
CONTINUOUS
  0
LAYER
  5
59
330
2
100
AcDbSymbolTableRecord
100
AcDbLayerTableRecord
  2
32
 70
     0
 62
    32
  6
CONTINUOUS
  0
LAYER
  5
5A
330
2
100
AcDbSymbolTableRecord
100
AcDbLayerTableRecord
  2
33
 70
     0
 62
    33
  6
CONTINUOUS
  0
LAYER
  5
5B
330
2
100
AcDbSymbolTableRecord
100
AcDbLayerTableRecord
  2
34
 70
     0
 62
    34
  6
CONTINUOUS
  0
LAYER
  5
5C
330
2
100
AcDbSymbolTableRecord
100
AcDbLayerTableRecord
  2
35
 70
     0
 62
    35
  6
CONTINUOUS
  0
LAYER
  5
5D
330
2
100
AcDbSymbolTableRecord
100
AcDbLayerTableRecord
  2
36
 70
     0
 62
    36
  6
CONTINUOUS
  0
LAYER
  5
5E
330
2
100
AcDbSymbolTableRecord
100
AcDbLayerTableRecord
  2
37
 70
     0
 62
    37
  6
CONTINUOUS
  0
LAYER
  5
5F
330
2
100
AcDbSymbolTableRecord
100
AcDbLayerTableRecord
  2
38
 70
     0
 62
    38
  6
CONTINUOUS
  0
LAYER
  5
60
330
2
100
AcDbSymbolTableRecord
100
AcDbLayerTableRecord
  2
39
 70
     0
 62
    39
  6
CONTINUOUS
  0
LAYER
  5
61
330
2
100
AcDbSymbolTableRecord
100
AcDbLayerTableRecord
  2
40
 70
     0
 62
    40
  6
CONTINUOUS
  0
LAYER
  5
62
330
2
100
AcDbSymbolTableRecord
100
AcDbLayerTableRecord
  2
41
 70
     0
 62
    41
  6
CONTINUOUS
  0
LAYER
  5
63
330
2
100
AcDbSymbolTableRecord
100
AcDbLayerTableRecord
  2
42
 70
     0
 62
    42
  6
CONTINUOUS
  0
LAYER
  5
64
330
2
100
AcDbSymbolTableRecord
100
AcDbLayerTableRecord
  2
43
 70
     0
 62
    43
  6
CONTINUOUS
  0
LAYER
  5
65
330
2
100
AcDbSymbolTableRecord
100
AcDbLayerTableRecord
  2
44
 70
     0
 62
    44
  6
CONTINUOUS
  0
LAYER
  5
66
330
2
100
AcDbSymbolTableRecord
100
AcDbLayerTableRecord
  2
45
 70
     0
 62
    45
  6
CONTINUOUS
  0
LAYER
  5
67
330
2
100
AcDbSymbolTableRecord
100
AcDbLayerTableRecord
  2
46
 70
     0
 62
    46
  6
CONTINUOUS
  0
LAYER
  5
68
330
2
100
AcDbSymbolTableRecord
100
AcDbLayerTableRecord
  2
47
 70
     0
 62
    47
  6
CONTINUOUS
  0
LAYER
  5
69
330
2
100
AcDbSymbolTableRecord
100
AcDbLayerTableRecord
  2
48
 70
     0
 62
    48
  6
CONTINUOUS
  0
LAYER
  5
6A
330
2
100
AcDbSymbolTableRecord
100
AcDbLayerTableRecord
  2
49
 70
     0
 62
    49
  6
CONTINUOUS
  0
LAYER
  5
6B
330
2
100
AcDbSymbolTableRecord
100
AcDbLayerTableRecord
  2
50
 70
     0
 62
    50
  6
CONTINUOUS
  0
LAYER
  5
6C
330
2
100
AcDbSymbolTableRecord
100
AcDbLayerTableRecord
  2
51
 70
     0
 62
    51
  6
CONTINUOUS
  0
LAYER
  5
6D
330
2
100
AcDbSymbolTableRecord
100
AcDbLayerTableRecord
  2
52
 70
     0
 62
    52
  6
CONTINUOUS
  0
LAYER
  5
6E
330
2
100
AcDbSymbolTableRecord
100
AcDbLayerTableRecord
  2
53
 70
     0
 62
    53
  6
CONTINUOUS
  0
LAYER
  5
6F
330
2
100
AcDbSymbolTableRecord
100
AcDbLayerTableRecord
  2
54
 70
     0
 62
    54
  6
CONTINUOUS
  0
LAYER
  5
70
330
2
100
AcDbSymbolTableRecord
100
AcDbLayerTableRecord
  2
55
 70
     0
 62
    55
  6
CONTINUOUS
  0
LAYER
  5
71
330
2
100
AcDbSymbolTableRecord
100
AcDbLayerTableRecord
  2
56
 70
     0
 62
    56
  6
CONTINUOUS
  0
LAYER
  5
72
330
2
100
AcDbSymbolTableRecord
100
AcDbLayerTableRecord
  2
57
 70
     0
 62
    57
  6
CONTINUOUS
  0
LAYER
  5
73
330
2
100
AcDbSymbolTableRecord
100
AcDbLayerTableRecord
  2
58
 70
     0
 62
    58
  6
CONTINUOUS
  0
LAYER
  5
74
330
2
100
AcDbSymbolTableRecord
100
AcDbLayerTableRecord
  2
59
 70
     0
 62
    59
  6
CONTINUOUS
  0
LAYER
  5
75
330
2
100
AcDbSymbolTableRecord
100
AcDbLayerTableRecord
  2
60
 70
     0
 62
    60
  6
CONTINUOUS
  0
LAYER
  5
76
330
2
100
AcDbSymbolTableRecord
100
AcDbLayerTableRecord
  2
61
 70
     0
 62
    61
  6
CONTINUOUS
  0
LAYER
  5
77
330
2
100
AcDbSymbolTableRecord
100
AcDbLayerTableRecord
  2
62
 70
     0
 62
    62
  6
CONTINUOUS
  0
LAYER
  5
78
330
2
100
AcDbSymbolTableRecord
100
AcDbLayerTableRecord
  2
63
 70
     0
 62
    63
  6
CONTINUOUS
  0
LAYER
  5
79
330
2
100
AcDbSymbolTableRecord
100
AcDbLayerTableRecord
  2
64
 70
     0
 62
    64
  6
CONTINUOUS
  0
LAYER
  5
7A
330
2
100
AcDbSymbolTableRecord
100
AcDbLayerTableRecord
  2
65
 70
     0
 62
    65
  6
CONTINUOUS
  0
LAYER
  5
7B
330
2
100
AcDbSymbolTableRecord
100
AcDbLayerTableRecord
  2
66
 70
     0
 62
    66
  6
CONTINUOUS
  0
LAYER
  5
7C
330
2
100
AcDbSymbolTableRecord
100
AcDbLayerTableRecord
  2
67
 70
     0
 62
    67
  6
CONTINUOUS
  0
LAYER
  5
7D
330
2
100
AcDbSymbolTableRecord
100
AcDbLayerTableRecord
  2
68
 70
     0
 62
    68
  6
CONTINUOUS
  0
LAYER
  5
7E
330
2
100
AcDbSymbolTableRecord
100
AcDbLayerTableRecord
  2
69
 70
     0
 62
    69
  6
CONTINUOUS
  0
LAYER
  5
7F
330
2
100
AcDbSymbolTableRecord
100
AcDbLayerTableRecord
  2
70
 70
     0
 62
    70
  6
CONTINUOUS
  0
LAYER
  5
80
330
2
100
AcDbSymbolTableRecord
100
AcDbLayerTableRecord
  2
71
 70
     0
 62
    71
  6
CONTINUOUS
  0
LAYER
  5
81
330
2
100
AcDbSymbolTableRecord
100
AcDbLayerTableRecord
  2
72
 70
     0
 62
    72
  6
CONTINUOUS
  0
LAYER
  5
82
330
2
100
AcDbSymbolTableRecord
100
AcDbLayerTableRecord
  2
73
 70
     0
 62
    73
  6
CONTINUOUS
  0
LAYER
  5
83
330
2
100
AcDbSymbolTableRecord
100
AcDbLayerTableRecord
  2
74
 70
     0
 62
    74
  6
CONTINUOUS
  0
LAYER
  5
84
330
2
100
AcDbSymbolTableRecord
100
AcDbLayerTableRecord
  2
75
 70
     0
 62
    75
  6
CONTINUOUS
  0
LAYER
  5
85
330
2
100
AcDbSymbolTableRecord
100
AcDbLayerTableRecord
  2
76
 70
     0
 62
    76
  6
CONTINUOUS
  0
LAYER
  5
86
330
2
100
AcDbSymbolTableRecord
100
AcDbLayerTableRecord
  2
77
 70
     0
 62
    77
  6
CONTINUOUS
  0
LAYER
  5
87
330
2
100
AcDbSymbolTableRecord
100
AcDbLayerTableRecord
  2
78
 70
     0
 62
    78
  6
CONTINUOUS
  0
LAYER
  5
88
330
2
100
AcDbSymbolTableRecord
100
AcDbLayerTableRecord
  2
79
 70
     0
 62
    79
  6
CONTINUOUS
  0
LAYER
  5
89
330
2
100
AcDbSymbolTableRecord
100
AcDbLayerTableRecord
  2
80
 70
     0
 62
    80
  6
CONTINUOUS
  0
LAYER
  5
8A
330
2
100
AcDbSymbolTableRecord
100
AcDbLayerTableRecord
  2
81
 70
     0
 62
    81
  6
CONTINUOUS
  0
LAYER
  5
8B
330
2
100
AcDbSymbolTableRecord
100
AcDbLayerTableRecord
  2
82
 70
     0
 62
    82
  6
CONTINUOUS
  0
LAYER
  5
8C
330
2
100
AcDbSymbolTableRecord
100
AcDbLayerTableRecord
  2
83
 70
     0
 62
    83
  6
CONTINUOUS
  0
LAYER
  5
8D
330
2
100
AcDbSymbolTableRecord
100
AcDbLayerTableRecord
  2
84
 70
     0
 62
    84
  6
CONTINUOUS
  0
LAYER
  5
8E
330
2
100
AcDbSymbolTableRecord
100
AcDbLayerTableRecord
  2
85
 70
     0
 62
    85
  6
CONTINUOUS
  0
LAYER
  5
8F
330
2
100
AcDbSymbolTableRecord
100
AcDbLayerTableRecord
  2
86
 70
     0
 62
    86
  6
CONTINUOUS
  0
LAYER
  5
90
330
2
100
AcDbSymbolTableRecord
100
AcDbLayerTableRecord
  2
87
 70
     0
 62
    87
  6
CONTINUOUS
  0
LAYER
  5
91
330
2
100
AcDbSymbolTableRecord
100
AcDbLayerTableRecord
  2
88
 70
     0
 62
    88
  6
CONTINUOUS
  0
LAYER
  5
92
330
2
100
AcDbSymbolTableRecord
100
AcDbLayerTableRecord
  2
89
 70
     0
 62
    89
  6
CONTINUOUS
  0
LAYER
  5
93
330
2
100
AcDbSymbolTableRecord
100
AcDbLayerTableRecord
  2
90
 70
     0
 62
    90
  6
CONTINUOUS
  0
LAYER
  5
94
330
2
100
AcDbSymbolTableRecord
100
AcDbLayerTableRecord
  2
91
 70
     0
 62
    91
  6
CONTINUOUS
  0
LAYER
  5
95
330
2
100
AcDbSymbolTableRecord
100
AcDbLayerTableRecord
  2
92
 70
     0
 62
    92
  6
CONTINUOUS
  0
LAYER
  5
96
330
2
100
AcDbSymbolTableRecord
100
AcDbLayerTableRecord
  2
93
 70
     0
 62
    93
  6
CONTINUOUS
  0
LAYER
  5
97
330
2
100
AcDbSymbolTableRecord
100
AcDbLayerTableRecord
  2
94
 70
     0
 62
    94
  6
CONTINUOUS
  0
LAYER
  5
98
330
2
100
AcDbSymbolTableRecord
100
AcDbLayerTableRecord
  2
95
 70
     0
 62
    95
  6
CONTINUOUS
  0
LAYER
  5
99
330
2
100
AcDbSymbolTableRecord
100
AcDbLayerTableRecord
  2
96
 70
     0
 62
    96
  6
CONTINUOUS
  0
LAYER
  5
9A
330
2
100
AcDbSymbolTableRecord
100
AcDbLayerTableRecord
  2
97
 70
     0
 62
    97
  6
CONTINUOUS
  0
LAYER
  5
9B
330
2
100
AcDbSymbolTableRecord
100
AcDbLayerTableRecord
  2
98
 70
     0
 62
    98
  6
CONTINUOUS
  0
LAYER
  5
9C
330
2
100
AcDbSymbolTableRecord
100
AcDbLayerTableRecord
  2
99
 70
     0
 62
    99
  6
CONTINUOUS
  0
LAYER
  5
9D
330
2
100
AcDbSymbolTableRecord
100
AcDbLayerTableRecord
  2
100
 70
     0
 62
   100
  6
CONTINUOUS
  0
LAYER
  5
9E
330
2
100
AcDbSymbolTableRecord
100
AcDbLayerTableRecord
  2
101
 70
     0
 62
   101
  6
CONTINUOUS
  0
LAYER
  5
9F
330
2
100
AcDbSymbolTableRecord
100
AcDbLayerTableRecord
  2
102
 70
     0
 62
   102
  6
CONTINUOUS
  0
LAYER
  5
A0
330
2
100
AcDbSymbolTableRecord
100
AcDbLayerTableRecord
  2
103
 70
     0
 62
   103
  6
CONTINUOUS
  0
LAYER
  5
A1
330
2
100
AcDbSymbolTableRecord
100
AcDbLayerTableRecord
  2
104
 70
     0
 62
   104
  6
CONTINUOUS
  0
LAYER
  5
A2
330
2
100
AcDbSymbolTableRecord
100
AcDbLayerTableRecord
  2
105
 70
     0
 62
   105
  6
CONTINUOUS
  0
LAYER
  5
A3
330
2
100
AcDbSymbolTableRecord
100
AcDbLayerTableRecord
  2
106
 70
     0
 62
   106
  6
CONTINUOUS
  0
LAYER
  5
A4
330
2
100
AcDbSymbolTableRecord
100
AcDbLayerTableRecord
  2
107
 70
     0
 62
   107
  6
CONTINUOUS
  0
LAYER
  5
A5
330
2
100
AcDbSymbolTableRecord
100
AcDbLayerTableRecord
  2
108
 70
     0
 62
   108
  6
CONTINUOUS
  0
LAYER
  5
A6
330
2
100
AcDbSymbolTableRecord
100
AcDbLayerTableRecord
  2
109
 70
     0
 62
   109
  6
CONTINUOUS
  0
LAYER
  5
A7
330
2
100
AcDbSymbolTableRecord
100
AcDbLayerTableRecord
  2
110
 70
     0
 62
   110
  6
CONTINUOUS
  0
LAYER
  5
A8
330
2
100
AcDbSymbolTableRecord
100
AcDbLayerTableRecord
  2
111
 70
     0
 62
   111
  6
CONTINUOUS
  0
LAYER
  5
A9
330
2
100
AcDbSymbolTableRecord
100
AcDbLayerTableRecord
  2
112
 70
     0
 62
   112
  6
CONTINUOUS
  0
LAYER
  5
AA
330
2
100
AcDbSymbolTableRecord
100
AcDbLayerTableRecord
  2
113
 70
     0
 62
   113
  6
CONTINUOUS
  0
LAYER
  5
AB
330
2
100
AcDbSymbolTableRecord
100
AcDbLayerTableRecord
  2
114
 70
     0
 62
   114
  6
CONTINUOUS
  0
LAYER
  5
AC
330
2
100
AcDbSymbolTableRecord
100
AcDbLayerTableRecord
  2
115
 70
     0
 62
   115
  6
CONTINUOUS
  0
LAYER
  5
AD
330
2
100
AcDbSymbolTableRecord
100
AcDbLayerTableRecord
  2
116
 70
     0
 62
   116
  6
CONTINUOUS
  0
LAYER
  5
AE
330
2
100
AcDbSymbolTableRecord
100
AcDbLayerTableRecord
  2
117
 70
     0
 62
   117
  6
CONTINUOUS
  0
LAYER
  5
AF
330
2
100
AcDbSymbolTableRecord
100
AcDbLayerTableRecord
  2
118
 70
     0
 62
   118
  6
CONTINUOUS
  0
LAYER
  5
B0
330
2
100
AcDbSymbolTableRecord
100
AcDbLayerTableRecord
  2
119
 70
     0
 62
   119
  6
CONTINUOUS
  0
LAYER
  5
B1
330
2
100
AcDbSymbolTableRecord
100
AcDbLayerTableRecord
  2
120
 70
     0
 62
   120
  6
CONTINUOUS
  0
LAYER
  5
B2
330
2
100
AcDbSymbolTableRecord
100
AcDbLayerTableRecord
  2
121
 70
     0
 62
   121
  6
CONTINUOUS
  0
LAYER
  5
B3
330
2
100
AcDbSymbolTableRecord
100
AcDbLayerTableRecord
  2
122
 70
     0
 62
   122
  6
CONTINUOUS
  0
LAYER
  5
B4
330
2
100
AcDbSymbolTableRecord
100
AcDbLayerTableRecord
  2
123
 70
     0
 62
   123
  6
CONTINUOUS
  0
LAYER
  5
B5
330
2
100
AcDbSymbolTableRecord
100
AcDbLayerTableRecord
  2
124
 70
     0
 62
   124
  6
CONTINUOUS
  0
LAYER
  5
B6
330
2
100
AcDbSymbolTableRecord
100
AcDbLayerTableRecord
  2
125
 70
     0
 62
   125
  6
CONTINUOUS
  0
LAYER
  5
B7
330
2
100
AcDbSymbolTableRecord
100
AcDbLayerTableRecord
  2
126
 70
     0
 62
   126
  6
CONTINUOUS
  0
LAYER
  5
B8
330
2
100
AcDbSymbolTableRecord
100
AcDbLayerTableRecord
  2
127
 70
     0
 62
   127
  6
CONTINUOUS
  0
LAYER
  5
B9
330
2
100
AcDbSymbolTableRecord
100
AcDbLayerTableRecord
  2
128
 70
     0
 62
   128
  6
CONTINUOUS
  0
LAYER
  5
BA
330
2
100
AcDbSymbolTableRecord
100
AcDbLayerTableRecord
  2
129
 70
     0
 62
   129
  6
CONTINUOUS
  0
LAYER
  5
BB
330
2
100
AcDbSymbolTableRecord
100
AcDbLayerTableRecord
  2
130
 70
     0
 62
   130
  6
CONTINUOUS
  0
LAYER
  5
BC
330
2
100
AcDbSymbolTableRecord
100
AcDbLayerTableRecord
  2
131
 70
     0
 62
   131
  6
CONTINUOUS
  0
LAYER
  5
BD
330
2
100
AcDbSymbolTableRecord
100
AcDbLayerTableRecord
  2
132
 70
     0
 62
   132
  6
CONTINUOUS
  0
LAYER
  5
BE
330
2
100
AcDbSymbolTableRecord
100
AcDbLayerTableRecord
  2
133
 70
     0
 62
   133
  6
CONTINUOUS
  0
LAYER
  5
BF
330
2
100
AcDbSymbolTableRecord
100
AcDbLayerTableRecord
  2
134
 70
     0
 62
   134
  6
CONTINUOUS
  0
LAYER
  5
C0
330
2
100
AcDbSymbolTableRecord
100
AcDbLayerTableRecord
  2
135
 70
     0
 62
   135
  6
CONTINUOUS
  0
LAYER
  5
C1
330
2
100
AcDbSymbolTableRecord
100
AcDbLayerTableRecord
  2
136
 70
     0
 62
   136
  6
CONTINUOUS
  0
LAYER
  5
C2
330
2
100
AcDbSymbolTableRecord
100
AcDbLayerTableRecord
  2
137
 70
     0
 62
   137
  6
CONTINUOUS
  0
LAYER
  5
C3
330
2
100
AcDbSymbolTableRecord
100
AcDbLayerTableRecord
  2
138
 70
     0
 62
   138
  6
CONTINUOUS
  0
LAYER
  5
C4
330
2
100
AcDbSymbolTableRecord
100
AcDbLayerTableRecord
  2
139
 70
     0
 62
   139
  6
CONTINUOUS
  0
LAYER
  5
C5
330
2
100
AcDbSymbolTableRecord
100
AcDbLayerTableRecord
  2
140
 70
     0
 62
   140
  6
CONTINUOUS
  0
LAYER
  5
C6
330
2
100
AcDbSymbolTableRecord
100
AcDbLayerTableRecord
  2
141
 70
     0
 62
   141
  6
CONTINUOUS
  0
LAYER
  5
C7
330
2
100
AcDbSymbolTableRecord
100
AcDbLayerTableRecord
  2
142
 70
     0
 62
   142
  6
CONTINUOUS
  0
LAYER
  5
C8
330
2
100
AcDbSymbolTableRecord
100
AcDbLayerTableRecord
  2
143
 70
     0
 62
   143
  6
CONTINUOUS
  0
LAYER
  5
C9
330
2
100
AcDbSymbolTableRecord
100
AcDbLayerTableRecord
  2
144
 70
     0
 62
   144
  6
CONTINUOUS
  0
LAYER
  5
CA
330
2
100
AcDbSymbolTableRecord
100
AcDbLayerTableRecord
  2
145
 70
     0
 62
   145
  6
CONTINUOUS
  0
LAYER
  5
CB
330
2
100
AcDbSymbolTableRecord
100
AcDbLayerTableRecord
  2
146
 70
     0
 62
   146
  6
CONTINUOUS
  0
LAYER
  5
CC
330
2
100
AcDbSymbolTableRecord
100
AcDbLayerTableRecord
  2
147
 70
     0
 62
   147
  6
CONTINUOUS
  0
LAYER
  5
CD
330
2
100
AcDbSymbolTableRecord
100
AcDbLayerTableRecord
  2
148
 70
     0
 62
   148
  6
CONTINUOUS
  0
LAYER
  5
CE
330
2
100
AcDbSymbolTableRecord
100
AcDbLayerTableRecord
  2
149
 70
     0
 62
   149
  6
CONTINUOUS
  0
LAYER
  5
CF
330
2
100
AcDbSymbolTableRecord
100
AcDbLayerTableRecord
  2
150
 70
     0
 62
   150
  6
CONTINUOUS
  0
LAYER
  5
D0
330
2
100
AcDbSymbolTableRecord
100
AcDbLayerTableRecord
  2
151
 70
     0
 62
   151
  6
CONTINUOUS
  0
LAYER
  5
D1
330
2
100
AcDbSymbolTableRecord
100
AcDbLayerTableRecord
  2
152
 70
     0
 62
   152
  6
CONTINUOUS
  0
LAYER
  5
D2
330
2
100
AcDbSymbolTableRecord
100
AcDbLayerTableRecord
  2
153
 70
     0
 62
   153
  6
CONTINUOUS
  0
LAYER
  5
D3
330
2
100
AcDbSymbolTableRecord
100
AcDbLayerTableRecord
  2
154
 70
     0
 62
   154
  6
CONTINUOUS
  0
LAYER
  5
D4
330
2
100
AcDbSymbolTableRecord
100
AcDbLayerTableRecord
  2
155
 70
     0
 62
   155
  6
CONTINUOUS
  0
LAYER
  5
D5
330
2
100
AcDbSymbolTableRecord
100
AcDbLayerTableRecord
  2
156
 70
     0
 62
   156
  6
CONTINUOUS
  0
LAYER
  5
D6
330
2
100
AcDbSymbolTableRecord
100
AcDbLayerTableRecord
  2
157
 70
     0
 62
   157
  6
CONTINUOUS
  0
LAYER
  5
D7
330
2
100
AcDbSymbolTableRecord
100
AcDbLayerTableRecord
  2
158
 70
     0
 62
   158
  6
CONTINUOUS
  0
LAYER
  5
D8
330
2
100
AcDbSymbolTableRecord
100
AcDbLayerTableRecord
  2
159
 70
     0
 62
   159
  6
CONTINUOUS
  0
LAYER
  5
D9
330
2
100
AcDbSymbolTableRecord
100
AcDbLayerTableRecord
  2
160
 70
     0
 62
   160
  6
CONTINUOUS
  0
LAYER
  5
DA
330
2
100
AcDbSymbolTableRecord
100
AcDbLayerTableRecord
  2
161
 70
     0
 62
   161
  6
CONTINUOUS
  0
LAYER
  5
DB
330
2
100
AcDbSymbolTableRecord
100
AcDbLayerTableRecord
  2
162
 70
     0
 62
   162
  6
CONTINUOUS
  0
LAYER
  5
DC
330
2
100
AcDbSymbolTableRecord
100
AcDbLayerTableRecord
  2
163
 70
     0
 62
   163
  6
CONTINUOUS
  0
LAYER
  5
DD
330
2
100
AcDbSymbolTableRecord
100
AcDbLayerTableRecord
  2
164
 70
     0
 62
   164
  6
CONTINUOUS
  0
LAYER
  5
DE
330
2
100
AcDbSymbolTableRecord
100
AcDbLayerTableRecord
  2
165
 70
     0
 62
   165
  6
CONTINUOUS
  0
LAYER
  5
DF
330
2
100
AcDbSymbolTableRecord
100
AcDbLayerTableRecord
  2
166
 70
     0
 62
   166
  6
CONTINUOUS
  0
LAYER
  5
E0
330
2
100
AcDbSymbolTableRecord
100
AcDbLayerTableRecord
  2
167
 70
     0
 62
   167
  6
CONTINUOUS
  0
LAYER
  5
E1
330
2
100
AcDbSymbolTableRecord
100
AcDbLayerTableRecord
  2
168
 70
     0
 62
   168
  6
CONTINUOUS
  0
LAYER
  5
E2
330
2
100
AcDbSymbolTableRecord
100
AcDbLayerTableRecord
  2
169
 70
     0
 62
   169
  6
CONTINUOUS
  0
LAYER
  5
E3
330
2
100
AcDbSymbolTableRecord
100
AcDbLayerTableRecord
  2
170
 70
     0
 62
   170
  6
CONTINUOUS
  0
LAYER
  5
E4
330
2
100
AcDbSymbolTableRecord
100
AcDbLayerTableRecord
  2
171
 70
     0
 62
   171
  6
CONTINUOUS
  0
LAYER
  5
E5
330
2
100
AcDbSymbolTableRecord
100
AcDbLayerTableRecord
  2
172
 70
     0
 62
   172
  6
CONTINUOUS
  0
LAYER
  5
E6
330
2
100
AcDbSymbolTableRecord
100
AcDbLayerTableRecord
  2
173
 70
     0
 62
   173
  6
CONTINUOUS
  0
LAYER
  5
E7
330
2
100
AcDbSymbolTableRecord
100
AcDbLayerTableRecord
  2
174
 70
     0
 62
   174
  6
CONTINUOUS
  0
LAYER
  5
E8
330
2
100
AcDbSymbolTableRecord
100
AcDbLayerTableRecord
  2
175
 70
     0
 62
   175
  6
CONTINUOUS
  0
LAYER
  5
E9
330
2
100
AcDbSymbolTableRecord
100
AcDbLayerTableRecord
  2
176
 70
     0
 62
   176
  6
CONTINUOUS
  0
LAYER
  5
EA
330
2
100
AcDbSymbolTableRecord
100
AcDbLayerTableRecord
  2
177
 70
     0
 62
   177
  6
CONTINUOUS
  0
LAYER
  5
EB
330
2
100
AcDbSymbolTableRecord
100
AcDbLayerTableRecord
  2
178
 70
     0
 62
   178
  6
CONTINUOUS
  0
LAYER
  5
EC
330
2
100
AcDbSymbolTableRecord
100
AcDbLayerTableRecord
  2
179
 70
     0
 62
   179
  6
CONTINUOUS
  0
LAYER
  5
ED
330
2
100
AcDbSymbolTableRecord
100
AcDbLayerTableRecord
  2
180
 70
     0
 62
   180
  6
CONTINUOUS
  0
LAYER
  5
EE
330
2
100
AcDbSymbolTableRecord
100
AcDbLayerTableRecord
  2
181
 70
     0
 62
   181
  6
CONTINUOUS
  0
LAYER
  5
EF
330
2
100
AcDbSymbolTableRecord
100
AcDbLayerTableRecord
  2
182
 70
     0
 62
   182
  6
CONTINUOUS
  0
LAYER
  5
F0
330
2
100
AcDbSymbolTableRecord
100
AcDbLayerTableRecord
  2
183
 70
     0
 62
   183
  6
CONTINUOUS
  0
LAYER
  5
F1
330
2
100
AcDbSymbolTableRecord
100
AcDbLayerTableRecord
  2
184
 70
     0
 62
   184
  6
CONTINUOUS
  0
LAYER
  5
F2
330
2
100
AcDbSymbolTableRecord
100
AcDbLayerTableRecord
  2
185
 70
     0
 62
   185
  6
CONTINUOUS
  0
LAYER
  5
F3
330
2
100
AcDbSymbolTableRecord
100
AcDbLayerTableRecord
  2
186
 70
     0
 62
   186
  6
CONTINUOUS
  0
LAYER
  5
F4
330
2
100
AcDbSymbolTableRecord
100
AcDbLayerTableRecord
  2
187
 70
     0
 62
   187
  6
CONTINUOUS
  0
LAYER
  5
F5
330
2
100
AcDbSymbolTableRecord
100
AcDbLayerTableRecord
  2
188
 70
     0
 62
   188
  6
CONTINUOUS
  0
LAYER
  5
F6
330
2
100
AcDbSymbolTableRecord
100
AcDbLayerTableRecord
  2
189
 70
     0
 62
   189
  6
CONTINUOUS
  0
LAYER
  5
F7
330
2
100
AcDbSymbolTableRecord
100
AcDbLayerTableRecord
  2
190
 70
     0
 62
   190
  6
CONTINUOUS
  0
LAYER
  5
F8
330
2
100
AcDbSymbolTableRecord
100
AcDbLayerTableRecord
  2
191
 70
     0
 62
   191
  6
CONTINUOUS
  0
LAYER
  5
F9
330
2
100
AcDbSymbolTableRecord
100
AcDbLayerTableRecord
  2
192
 70
     0
 62
   192
  6
CONTINUOUS
  0
LAYER
  5
FA
330
2
100
AcDbSymbolTableRecord
100
AcDbLayerTableRecord
  2
193
 70
     0
 62
   193
  6
CONTINUOUS
  0
LAYER
  5
FB
330
2
100
AcDbSymbolTableRecord
100
AcDbLayerTableRecord
  2
194
 70
     0
 62
   194
  6
CONTINUOUS
  0
LAYER
  5
FC
330
2
100
AcDbSymbolTableRecord
100
AcDbLayerTableRecord
  2
195
 70
     0
 62
   195
  6
CONTINUOUS
  0
LAYER
  5
FD
330
2
100
AcDbSymbolTableRecord
100
AcDbLayerTableRecord
  2
196
 70
     0
 62
   196
  6
CONTINUOUS
  0
LAYER
  5
FE
330
2
100
AcDbSymbolTableRecord
100
AcDbLayerTableRecord
  2
197
 70
     0
 62
   197
  6
CONTINUOUS
  0
LAYER
  5
FF
330
2
100
AcDbSymbolTableRecord
100
AcDbLayerTableRecord
  2
198
 70
     0
 62
   198
  6
CONTINUOUS
  0
LAYER
  5
100
330
2
100
AcDbSymbolTableRecord
100
AcDbLayerTableRecord
  2
199
 70
     0
 62
   199
  6
CONTINUOUS
  0
LAYER
  5
101
330
2
100
AcDbSymbolTableRecord
100
AcDbLayerTableRecord
  2
200
 70
     0
 62
   200
  6
CONTINUOUS
  0
LAYER
  5
102
330
2
100
AcDbSymbolTableRecord
100
AcDbLayerTableRecord
  2
201
 70
     0
 62
   201
  6
CONTINUOUS
  0
LAYER
  5
103
330
2
100
AcDbSymbolTableRecord
100
AcDbLayerTableRecord
  2
202
 70
     0
 62
   202
  6
CONTINUOUS
  0
LAYER
  5
104
330
2
100
AcDbSymbolTableRecord
100
AcDbLayerTableRecord
  2
203
 70
     0
 62
   203
  6
CONTINUOUS
  0
LAYER
  5
105
330
2
100
AcDbSymbolTableRecord
100
AcDbLayerTableRecord
  2
204
 70
     0
 62
   204
  6
CONTINUOUS
  0
LAYER
  5
106
330
2
100
AcDbSymbolTableRecord
100
AcDbLayerTableRecord
  2
205
 70
     0
 62
   205
  6
CONTINUOUS
  0
LAYER
  5
107
330
2
100
AcDbSymbolTableRecord
100
AcDbLayerTableRecord
  2
206
 70
     0
 62
   206
  6
CONTINUOUS
  0
LAYER
  5
108
330
2
100
AcDbSymbolTableRecord
100
AcDbLayerTableRecord
  2
207
 70
     0
 62
   207
  6
CONTINUOUS
  0
LAYER
  5
109
330
2
100
AcDbSymbolTableRecord
100
AcDbLayerTableRecord
  2
208
 70
     0
 62
   208
  6
CONTINUOUS
  0
LAYER
  5
10A
330
2
100
AcDbSymbolTableRecord
100
AcDbLayerTableRecord
  2
209
 70
     0
 62
   209
  6
CONTINUOUS
  0
LAYER
  5
10B
330
2
100
AcDbSymbolTableRecord
100
AcDbLayerTableRecord
  2
210
 70
     0
 62
   210
  6
CONTINUOUS
  0
LAYER
  5
10C
330
2
100
AcDbSymbolTableRecord
100
AcDbLayerTableRecord
  2
211
 70
     0
 62
   211
  6
CONTINUOUS
  0
LAYER
  5
10D
330
2
100
AcDbSymbolTableRecord
100
AcDbLayerTableRecord
  2
212
 70
     0
 62
   212
  6
CONTINUOUS
  0
LAYER
  5
10E
330
2
100
AcDbSymbolTableRecord
100
AcDbLayerTableRecord
  2
213
 70
     0
 62
   213
  6
CONTINUOUS
  0
LAYER
  5
10F
330
2
100
AcDbSymbolTableRecord
100
AcDbLayerTableRecord
  2
214
 70
     0
 62
   214
  6
CONTINUOUS
  0
LAYER
  5
110
330
2
100
AcDbSymbolTableRecord
100
AcDbLayerTableRecord
  2
215
 70
     0
 62
   215
  6
CONTINUOUS
  0
LAYER
  5
111
330
2
100
AcDbSymbolTableRecord
100
AcDbLayerTableRecord
  2
216
 70
     0
 62
   216
  6
CONTINUOUS
  0
LAYER
  5
112
330
2
100
AcDbSymbolTableRecord
100
AcDbLayerTableRecord
  2
217
 70
     0
 62
   217
  6
CONTINUOUS
  0
LAYER
  5
113
330
2
100
AcDbSymbolTableRecord
100
AcDbLayerTableRecord
  2
218
 70
     0
 62
   218
  6
CONTINUOUS
  0
LAYER
  5
114
330
2
100
AcDbSymbolTableRecord
100
AcDbLayerTableRecord
  2
219
 70
     0
 62
   219
  6
CONTINUOUS
  0
LAYER
  5
115
330
2
100
AcDbSymbolTableRecord
100
AcDbLayerTableRecord
  2
220
 70
     0
 62
   220
  6
CONTINUOUS
  0
LAYER
  5
116
330
2
100
AcDbSymbolTableRecord
100
AcDbLayerTableRecord
  2
221
 70
     0
 62
   221
  6
CONTINUOUS
  0
LAYER
  5
117
330
2
100
AcDbSymbolTableRecord
100
AcDbLayerTableRecord
  2
222
 70
     0
 62
   222
  6
CONTINUOUS
  0
LAYER
  5
118
330
2
100
AcDbSymbolTableRecord
100
AcDbLayerTableRecord
  2
223
 70
     0
 62
   223
  6
CONTINUOUS
  0
LAYER
  5
119
330
2
100
AcDbSymbolTableRecord
100
AcDbLayerTableRecord
  2
224
 70
     0
 62
   224
  6
CONTINUOUS
  0
LAYER
  5
11A
330
2
100
AcDbSymbolTableRecord
100
AcDbLayerTableRecord
  2
225
 70
     0
 62
   225
  6
CONTINUOUS
  0
LAYER
  5
11B
330
2
100
AcDbSymbolTableRecord
100
AcDbLayerTableRecord
  2
226
 70
     0
 62
   226
  6
CONTINUOUS
  0
LAYER
  5
11C
330
2
100
AcDbSymbolTableRecord
100
AcDbLayerTableRecord
  2
227
 70
     0
 62
   227
  6
CONTINUOUS
  0
LAYER
  5
11D
330
2
100
AcDbSymbolTableRecord
100
AcDbLayerTableRecord
  2
228
 70
     0
 62
   228
  6
CONTINUOUS
  0
LAYER
  5
11E
330
2
100
AcDbSymbolTableRecord
100
AcDbLayerTableRecord
  2
229
 70
     0
 62
   229
  6
CONTINUOUS
  0
LAYER
  5
11F
330
2
100
AcDbSymbolTableRecord
100
AcDbLayerTableRecord
  2
230
 70
     0
 62
   230
  6
CONTINUOUS
  0
LAYER
  5
120
330
2
100
AcDbSymbolTableRecord
100
AcDbLayerTableRecord
  2
231
 70
     0
 62
   231
  6
CONTINUOUS
  0
LAYER
  5
121
330
2
100
AcDbSymbolTableRecord
100
AcDbLayerTableRecord
  2
232
 70
     0
 62
   232
  6
CONTINUOUS
  0
LAYER
  5
122
330
2
100
AcDbSymbolTableRecord
100
AcDbLayerTableRecord
  2
233
 70
     0
 62
   233
  6
CONTINUOUS
  0
LAYER
  5
123
330
2
100
AcDbSymbolTableRecord
100
AcDbLayerTableRecord
  2
234
 70
     0
 62
   234
  6
CONTINUOUS
  0
LAYER
  5
124
330
2
100
AcDbSymbolTableRecord
100
AcDbLayerTableRecord
  2
235
 70
     0
 62
   235
  6
CONTINUOUS
  0
LAYER
  5
125
330
2
100
AcDbSymbolTableRecord
100
AcDbLayerTableRecord
  2
236
 70
     0
 62
   236
  6
CONTINUOUS
  0
LAYER
  5
126
330
2
100
AcDbSymbolTableRecord
100
AcDbLayerTableRecord
  2
237
 70
     0
 62
   237
  6
CONTINUOUS
  0
LAYER
  5
127
330
2
100
AcDbSymbolTableRecord
100
AcDbLayerTableRecord
  2
238
 70
     0
 62
   238
  6
CONTINUOUS
  0
LAYER
  5
128
330
2
100
AcDbSymbolTableRecord
100
AcDbLayerTableRecord
  2
239
 70
     0
 62
   239
  6
CONTINUOUS
  0
LAYER
  5
129
330
2
100
AcDbSymbolTableRecord
100
AcDbLayerTableRecord
  2
240
 70
     0
 62
   240
  6
CONTINUOUS
  0
LAYER
  5
12A
330
2
100
AcDbSymbolTableRecord
100
AcDbLayerTableRecord
  2
241
 70
     0
 62
   241
  6
CONTINUOUS
  0
LAYER
  5
12B
330
2
100
AcDbSymbolTableRecord
100
AcDbLayerTableRecord
  2
242
 70
     0
 62
   242
  6
CONTINUOUS
  0
LAYER
  5
12C
330
2
100
AcDbSymbolTableRecord
100
AcDbLayerTableRecord
  2
243
 70
     0
 62
   243
  6
CONTINUOUS
  0
LAYER
  5
12D
330
2
100
AcDbSymbolTableRecord
100
AcDbLayerTableRecord
  2
244
 70
     0
 62
   244
  6
CONTINUOUS
  0
LAYER
  5
12E
330
2
100
AcDbSymbolTableRecord
100
AcDbLayerTableRecord
  2
245
 70
     0
 62
   245
  6
CONTINUOUS
  0
LAYER
  5
12F
330
2
100
AcDbSymbolTableRecord
100
AcDbLayerTableRecord
  2
246
 70
     0
 62
   246
  6
CONTINUOUS
  0
LAYER
  5
130
330
2
100
AcDbSymbolTableRecord
100
AcDbLayerTableRecord
  2
247
 70
     0
 62
   247
  6
CONTINUOUS
  0
LAYER
  5
131
330
2
100
AcDbSymbolTableRecord
100
AcDbLayerTableRecord
  2
248
 70
     0
 62
   248
  6
CONTINUOUS
  0
LAYER
  5
132
330
2
100
AcDbSymbolTableRecord
100
AcDbLayerTableRecord
  2
249
 70
     0
 62
   249
  6
CONTINUOUS
  0
LAYER
  5
133
330
2
100
AcDbSymbolTableRecord
100
AcDbLayerTableRecord
  2
250
 70
     0
 62
   250
  6
CONTINUOUS
  0
LAYER
  5
134
330
2
100
AcDbSymbolTableRecord
100
AcDbLayerTableRecord
  2
251
 70
     0
 62
   251
  6
CONTINUOUS
  0
LAYER
  5
135
330
2
100
AcDbSymbolTableRecord
100
AcDbLayerTableRecord
  2
252
 70
     0
 62
   252
  6
CONTINUOUS
  0
LAYER
  5
136
330
2
100
AcDbSymbolTableRecord
100
AcDbLayerTableRecord
  2
253
 70
     0
 62
   253
  6
CONTINUOUS
  0
LAYER
  5
137
330
2
100
AcDbSymbolTableRecord
100
AcDbLayerTableRecord
  2
254
 70
     0
 62
   254
  6
CONTINUOUS
  0
LAYER
  5
138
330
2
100
AcDbSymbolTableRecord
100
AcDbLayerTableRecord
  2
255
 70
     0
 62
   255
  6
CONTINUOUS
  0
ENDTAB
  0
TABLE
  2
STYLE
  5
3
330
0
100
AcDbSymbolTable
 70
     1
  0
STYLE
  5
11
330
3
100
AcDbSymbolTableRecord
100
AcDbTextStyleTableRecord
  2
STANDARD
 70
     0
 40
0.0
 41
1.0
 50
0.0
 71
     0
 42
0.2
  3
monotxt
  4

  0
ENDTAB
  0
TABLE
  2
VIEW
  5
6
330
0
100
AcDbSymbolTable
 70
     0
  0
ENDTAB
  0
TABLE
  2
UCS
  5
7
330
0
100
AcDbSymbolTable
 70
     0
  0
ENDTAB
  0
TABLE
  2
APPID
  5
9
330
0
100
AcDbSymbolTable
 70
     1
  0
APPID
  5
12
330
9
100
AcDbSymbolTableRecord
100
AcDbRegAppTableRecord
  2
ACAD
 70
     0
  0
ENDTAB
  0
TABLE
  2
DIMSTYLE
  5
A
330
0
100
AcDbSymbolTable
 70
     1
  0
DIMSTYLE
105
24ED
330
A
100
AcDbSymbolTableRecord
100
AcDbDimStyleTableRecord
  2
STANDARD
 70
     0
  3

  4

  5

  6

  7

 40
1.0
 41
0.18
 42
0.0625
 43
0.38
 44
0.18
 45
0.0
 46
0.0
 47
0.0
 48
0.0
140
0.18
141
0.09
142
0.0
143
25.4
144
1.0
145
0.0
146
1.0
147
0.09
 71
     0
 72
     0
 73
     1
 74
     1
 75
     0
 76
     0
 77
     0
 78
     0
170
     0
171
     2
172
     0
173
     0
174
     0
175
     0
176
     0
177
     0
178
     0
270
     2
271
     4
272
     4
273
     2
274
     2
340
11
275
     0
280
     0
281
     0
282
     0
283
     1
284
     0
285
     0
286
     0
287
     3
288
     0
  0
ENDTAB
  0
TABLE
  2
BLOCK_RECORD
  5
1
330
0
100
AcDbSymbolTable
 70
     0
  0
BLOCK_RECORD
  5
1E
102
{ACAD_XDICTIONARY
360
2B26
102
}
330
1
100
AcDbSymbolTableRecord
100
AcDbBlockTableRecord
  2
*MODEL_SPACE
  0
BLOCK_RECORD
  5
1A
102
{ACAD_XDICTIONARY
360
2B24
102
}
330
1
100
AcDbSymbolTableRecord
100
AcDbBlockTableRecord
  2
*PAPER_SPACE
  0
ENDTAB
  0
ENDSEC
  0
SECTION
  2
BLOCKS
  0
BLOCK
  5
13B
330
1E
100
AcDbEntity
  8
0
100
AcDbBlockBegin
  2
*MODEL_SPACE
 70
     0
 10
0.0
 20
0.0
 30
0.0
  3
*MODEL_SPACE
  1

  0
ENDBLK
  5
13C
330
1E
100
AcDbEntity
  8
0
100
AcDbBlockEnd
  0
BLOCK
  5
139
330
1A
100
AcDbEntity
 67
     1
  8
0
100
AcDbBlockBegin
  2
*PAPER_SPACE
 70
     0
 10
0.0
 20
0.0
 30
0.0
  3
*PAPER_SPACE
  1

  0
ENDBLK
  5
13A
330
1A
100
AcDbEntity
 67
     1
  8
0
100
AcDbBlockEnd
  0
ENDSEC
  0
SECTION
  2
ENTITIES
  0
LINE
  5
2075
330
1E
100
AcDbEntity
  8
3
100
AcDbLine
 10
8.548228346456692
 20
6.569881889763778
 30
0.0
 11
8.548228346456692
 21
6.293307086614173
 31
0.0
  0
LINE
  5
2076
330
1E
100
AcDbEntity
  8
3
100
AcDbLine
 10
8.875
 20
6.293307086614173
 30
0.0
 11
8.875
 21
6.569881889763778
 31
0.0
  0
LINE
  5
2077
330
1E
100
AcDbEntity
  8
3
100
AcDbLine
 10
8.875
 20
5.4753937007874
 30
0.0
 11
8.875
 21
5.720472440944881
 31
0.0
  0
LINE
  5
2078
330
1E
100
AcDbEntity
  8
3
100
AcDbLine
 10
8.548228346456692
 20
5.720472440944881
 30
0.0
 11
8.548228346456692
 21
5.4753937007874
 31
0.0
  0
LINE
  5
2088
330
1E
100
AcDbEntity
  8
3
100
AcDbLine
 10
8.548228346456692
 20
5.4753937007874
 30
0.0
 11
8.554133858267716
 21
5.461614173228346
 31
0.0
  0
LINE
  5
2089
330
1E
100
AcDbEntity
  8
3
100
AcDbLine
 10
8.554133858267716
 20
5.461614173228346
 30
0.0
 11
8.56791338582677
 21
5.455708661417322
 31
0.0
  0
LINE
  5
2099
330
1E
100
AcDbEntity
  8
3
100
AcDbLine
 10
8.851377952755905
 20
6.589566929133857
 30
0.0
 11
8.85531496062992
 21
6.589566929133857
 31
0.0
  0
LINE
  5
20B1
330
1E
100
AcDbEntity
  8
3
100
AcDbLine
 10
8.460629921259842
 20
5.720472440944881
 30
0.0
 11
8.460629921259842
 21
5.764763779527558
 31
0.0
  0
LINE
  5
20B2
330
1E
100
AcDbEntity
  8
3
100
AcDbLine
 10
8.96259842519685
 20
5.720472440944881
 30
0.0
 11
8.96259842519685
 21
5.764763779527558
 31
0.0
  0
LINE
  5
20B3
330
1E
100
AcDbEntity
  8
3
100
AcDbLine
 10
8.83759842519685
 20
5.720472440944881
 30
0.0
 11
8.83759842519685
 21
5.764763779527558
 31
0.0
  0
LINE
  5
20B4
330
1E
100
AcDbEntity
  8
3
100
AcDbLine
 10
8.96259842519685
 20
5.720472440944881
 30
0.0
 11
8.83759842519685
 21
5.720472440944881
 31
0.0
  0
LINE
  5
20B5
330
1E
100
AcDbEntity
  8
3
100
AcDbLine
 10
8.586614173228346
 20
5.720472440944881
 30
0.0
 11
8.586614173228346
 21
5.764763779527558
 31
0.0
  0
LINE
  5
20E1
330
1E
100
AcDbEntity
  8
3
100
AcDbLine
 10
8.841535433070866
 20
7.136811023622047
 30
0.0
 11
8.831692913385825
 21
6.589566929133857
 31
0.0
  0
LINE
  5
20E7
330
1E
100
AcDbEntity
  8
3
100
AcDbLine
 10
8.841535433070866
 20
7.136811023622047
 30
0.0
 11
8.982283464566929
 21
7.136811023622047
 31
0.0
  0
LINE
  5
20E8
330
1E
100
AcDbEntity
  8
3
100
AcDbLine
 10
8.440944881889762
 20
6.293307086614173
 30
0.0
 11
8.983267716535433
 21
6.293307086614173
 31
0.0
  0
LINE
  5
20F3
330
1E
100
AcDbEntity
  8
3
100
AcDbLine
 10
8.472440944881888
 20
5.862204724409448
 30
0.0
 11
8.413385826771653
 21
5.862204724409448
 31
0.0
  0
LINE
  5
20F9
330
1E
100
AcDbEntity
  8
3
100
AcDbLine
 10
9.002952755905511
 20
6.283464566929133
 30
0.0
 11
9.009842519685038
 21
5.862204724409448
 31
0.0
  0
LINE
  5
20FF
330
1E
100
AcDbEntity
  8
3
100
AcDbLine
 10
8.421259842519685
 20
6.283464566929133
 30
0.0
 11
8.413385826771653
 21
5.862204724409448
 31
0.0
  0
LINE
  5
2100
330
1E
100
AcDbEntity
  8
3
100
AcDbLine
 10
8.408464566929133
 20
5.769685039370078
 30
0.0
 11
8.408464566929133
 21
5.862204724409448
 31
0.0
  0
LINE
  5
210B
330
1E
100
AcDbEntity
  8
3
100
AcDbLine
 10
8.807086614173227
 20
7.136811023622047
 30
0.0
 11
8.617125984251968
 21
7.136811023622047
 31
0.0
  0
LINE
  5
2117
330
1E
100
AcDbEntity
  8
3
100
AcDbLine
 10
8.582677165354329
 20
7.136811023622047
 30
0.0
 11
8.591535433070866
 21
6.589566929133857
 31
0.0
  0
LINE
  5
2118
330
1E
100
AcDbEntity
  8
3
100
AcDbLine
 10
8.43011811023622
 20
7.126968503937007
 30
0.0
 11
8.440944881889762
 21
7.136811023622047
 31
0.0
  0
LINE
  5
2119
330
1E
100
AcDbEntity
  8
3
100
AcDbLine
 10
8.415354330708661
 20
6.268700787401574
 30
0.0
 11
8.43011811023622
 21
7.126968503937007
 31
0.0
  0
LINE
  5
211A
330
1E
100
AcDbEntity
  8
3
100
AcDbLine
 10
8.821850393700787
 20
7.136811023622047
 30
0.0
 11
8.821850393700787
 21
7.096456692913385
 31
0.0
  0
LINE
  5
2120
330
1E
100
AcDbEntity
  8
3
100
AcDbLine
 10
8.617125984251968
 20
7.136811023622047
 30
0.0
 11
8.617125984251968
 21
7.096456692913385
 31
0.0
  0
LINE
  5
2121
330
1E
100
AcDbEntity
  8
3
100
AcDbLine
 10
8.807086614173227
 20
7.096456692913385
 30
0.0
 11
8.807086614173227
 21
7.136811023622047
 31
0.0
  0
LINE
  5
212D
330
1E
100
AcDbEntity
  8
3
100
AcDbLine
 10
8.473425196850392
 20
5.769685039370078
 30
0.0
 11
8.949803149606299
 21
5.769685039370078
 31
0.0
  0
LINE
  5
2133
330
1E
100
AcDbEntity
  8
3
100
AcDbLine
 10
8.413385826771653
 20
5.862204724409448
 30
0.0
 11
8.408464566929133
 21
5.862204724409448
 31
0.0
  0
LINE
  5
2134
330
1E
100
AcDbEntity
  8
3
100
AcDbLine
 10
9.014763779527559
 20
5.862204724409448
 30
0.0
 11
9.009842519685038
 21
5.862204724409448
 31
0.0
  0
LINE
  5
2135
330
1E
100
AcDbEntity
  8
3
100
AcDbLine
 10
8.415354330708661
 20
6.268700787401574
 30
0.0
 11
8.408464566929133
 21
5.862204724409448
 31
0.0
  0
LINE
  5
2136
330
1E
100
AcDbEntity
  8
3
100
AcDbLine
 10
9.007874015748031
 20
6.268700787401574
 30
0.0
 11
9.014763779527559
 21
5.862204724409448
 31
0.0
  0
LINE
  5
213D
330
1E
100
AcDbEntity
  8
3
100
AcDbLine
 10
8.473425196850392
 20
5.764763779527558
 30
0.0
 11
8.949803149606299
 21
5.764763779527558
 31
0.0
  0
LINE
  5
215A
330
1E
100
AcDbEntity
  8
3
100
AcDbLine
 10
8.460629921259842
 20
4.154527559055117
 30
0.0
 11
8.586614173228346
 21
3.937007874015748
 31
0.0
  0
LINE
  5
21C7
330
1E
100
AcDbEntity
  8
3
100
AcDbLine
 10
8.413385826771653
 20
3.783464566929133
 30
0.0
 11
9.009842519685038
 21
3.783464566929133
 31
0.0
  0
LINE
  5
21CD
330
1E
100
AcDbEntity
  8
3
100
AcDbLine
 10
8.472440944881888
 20
4.503937007874015
 30
0.0
 11
8.413385826771653
 21
4.503937007874015
 31
0.0
  0
LINE
  5
21D3
330
1E
100
AcDbEntity
  8
3
100
AcDbLine
 10
8.408464566929133
 20
4.434055118110236
 30
0.0
 11
8.472440944881888
 21
4.434055118110236
 31
0.0
  0
LINE
  5
21D4
330
1E
100
AcDbEntity
  8
3
100
AcDbLine
 10
8.408464566929133
 20
4.433070866141731
 30
0.0
 11
8.408464566929133
 21
4.434055118110236
 31
0.0
  0
LINE
  5
21DB
330
1E
100
AcDbEntity
  8
3
100
AcDbLine
 10
8.408464566929133
 20
4.433070866141731
 30
0.0
 11
8.408464566929133
 21
3.783464566929133
 31
0.0
  0
LINE
  5
21E6
330
1E
100
AcDbEntity
  8
3
100
AcDbLine
 10
8.951771653543307
 20
4.434055118110236
 30
0.0
 11
9.014763779527559
 21
4.434055118110236
 31
0.0
  0
LINE
  5
21E7
330
1E
100
AcDbEntity
  8
3
100
AcDbLine
 10
9.014763779527559
 20
4.433070866141731
 30
0.0
 11
9.014763779527559
 21
3.783464566929133
 31
0.0
  0
LINE
  5
21E8
330
1E
100
AcDbEntity
  8
3
100
AcDbLine
 10
8.472440944881888
 20
4.503937007874015
 30
0.0
 11
8.472440944881888
 21
4.434055118110236
 31
0.0
  0
LINE
  5
21E9
330
1E
100
AcDbEntity
  8
3
100
AcDbLine
 10
8.473425196850392
 20
4.489173228346456
 30
0.0
 11
8.473425196850392
 21
4.433070866141731
 31
0.0
  0
LINE
  5
21EF
330
1E
100
AcDbEntity
  8
3
100
AcDbLine
 10
8.473425196850392
 20
4.494094488188975
 30
0.0
 11
8.949803149606299
 21
4.494094488188975
 31
0.0
  0
LINE
  5
21F5
330
1E
100
AcDbEntity
  8
3
100
AcDbLine
 10
8.949803149606299
 20
4.433070866141731
 30
0.0
 11
8.949803149606299
 21
4.489173228346456
 31
0.0
  0
LINE
  5
21F6
330
1E
100
AcDbEntity
  8
3
100
AcDbLine
 10
8.951771653543307
 20
4.434055118110236
 30
0.0
 11
8.951771653543307
 21
4.503937007874015
 31
0.0
  0
LINE
  5
21FC
330
1E
100
AcDbEntity
  8
3
100
AcDbLine
 10
9.014763779527559
 20
4.499015748031495
 30
0.0
 11
9.014763779527559
 21
4.434055118110236
 31
0.0
  0
LINE
  5
21FD
330
1E
100
AcDbEntity
  8
3
100
AcDbLine
 10
9.014763779527559
 20
4.499015748031495
 30
0.0
 11
9.009842519685038
 21
4.503937007874015
 31
0.0
  0
LINE
  5
220C
330
1E
100
AcDbEntity
  8
3
100
AcDbLine
 10
8.841535433070866
 20
4.378937007874015
 30
0.0
 11
8.84251968503937
 21
4.380905511811023
 31
0.0
  0
LINE
  5
2219
330
1E
100
AcDbEntity
  8
3
100
AcDbLine
 10
8.450787401574803
 20
4.154527559055117
 30
0.0
 11
8.451771653543307
 21
4.154527559055117
 31
0.0
  0
LINE
  5
221A
330
1E
100
AcDbEntity
  8
3
100
AcDbLine
 10
8.450787401574803
 20
4.154527559055117
 30
0.0
 11
8.580708661417322
 21
3.928149606299212
 31
0.0
  0
LINE
  5
2220
330
1E
100
AcDbEntity
  8
3
100
AcDbLine
 10
8.84251968503937
 20
4.380905511811023
 30
0.0
 11
8.580708661417322
 21
4.380905511811023
 31
0.0
  0
LINE
  5
2226
330
1E
100
AcDbEntity
  8
3
100
AcDbLine
 10
8.807086614173227
 20
3.848425196850393
 30
0.0
 11
8.617125984251968
 21
3.848425196850393
 31
0.0
  0
LINE
  5
222C
330
1E
100
AcDbEntity
  8
3
100
AcDbLine
 10
8.413385826771653
 20
4.433070866141731
 30
0.0
 11
8.413385826771653
 21
3.783464566929133
 31
0.0
  0
LINE
  5
222D
330
1E
100
AcDbEntity
  8
3
100
AcDbLine
 10
9.009842519685038
 20
4.433070866141731
 30
0.0
 11
9.009842519685038
 21
3.783464566929133
 31
0.0
  0
LINE
  5
222E
330
1E
100
AcDbEntity
  8
3
100
AcDbLine
 10
8.473425196850392
 20
4.489173228346456
 30
0.0
 11
8.949803149606299
 21
4.489173228346456
 31
0.0
  0
LINE
  5
222F
330
1E
100
AcDbEntity
  8
3
100
AcDbLine
 10
8.601377952755905
 20
3.864173228346457
 30
0.0
 11
8.601377952755905
 21
3.928149606299212
 31
0.0
  0
LINE
  5
2230
330
1E
100
AcDbEntity
  8
3
100
AcDbLine
 10
8.821850393700787
 20
3.864173228346457
 30
0.0
 11
8.821850393700787
 21
3.928149606299212
 31
0.0
  0
LINE
  5
2231
330
1E
100
AcDbEntity
  8
3
100
AcDbLine
 10
10.62007874015747
 20
4.404527559055117
 30
0.0
 11
11.03346456692913
 21
4.412401574803149
 31
0.0
  0
LINE
  5
2232
330
1E
100
AcDbEntity
  8
3
100
AcDbLine
 10
10.87401574803149
 20
3.970472440944881
 30
0.0
 11
10.97933070866141
 21
3.970472440944881
 31
0.0
  0
LINE
  5
2233
330
1E
100
AcDbEntity
  8
3
100
AcDbLine
 10
10.97933070866141
 20
4.33759842519685
 30
0.0
 11
10.87401574803149
 21
4.33759842519685
 31
0.0
  0
LINE
  5
2234
330
1E
100
AcDbEntity
  8
3
100
AcDbLine
 10
10.21555118110236
 20
3.991141732283464
 30
0.0
 11
10.45964566929133
 21
3.991141732283464
 31
0.0
  0
LINE
  5
2235
330
1E
100
AcDbEntity
  8
3
100
AcDbLine
 10
10.45964566929133
 20
4.317913385826771
 30
0.0
 11
10.21555118110236
 21
4.317913385826771
 31
0.0
  0
LINE
  5
2236
330
1E
100
AcDbEntity
  8
3
100
AcDbLine
 10
11.30905511811023
 20
4.317913385826771
 30
0.0
 11
10.97933070866141
 21
4.317913385826771
 31
0.0
  0
LINE
  5
2237
330
1E
100
AcDbEntity
  8
3
100
AcDbLine
 10
10.97933070866141
 20
3.991141732283464
 30
0.0
 11
11.30905511811023
 21
3.991141732283464
 31
0.0
  0
LINE
  5
2238
330
1E
100
AcDbEntity
  8
3
100
AcDbLine
 10
10.76377952755905
 20
3.917322834645669
 30
0.0
 11
10.78051181102362
 21
3.917322834645669
 31
0.0
  0
LINE
  5
2239
330
1E
100
AcDbEntity
  8
3
100
AcDbLine
 10
10.78051181102362
 20
4.390748031496062
 30
0.0
 11
10.76377952755905
 21
4.390748031496062
 31
0.0
  0
LINE
  5
224E
330
1E
100
AcDbEntity
  8
3
100
AcDbLine
 10
10.87401574803149
 20
4.372047244094487
 30
0.0
 11
10.78051181102362
 21
4.372047244094487
 31
0.0
  0
LINE
  5
224F
330
1E
100
AcDbEntity
  8
3
100
AcDbLine
 10
10.87401574803149
 20
3.937007874015748
 30
0.0
 11
10.78051181102362
 21
3.937007874015748
 31
0.0
  0
LINE
  5
2250
330
1E
100
AcDbEntity
  8
3
100
AcDbLine
 10
10.87401574803149
 20
4.154527559055117
 30
0.0
 11
10.78051181102362
 21
4.154527559055117
 31
0.0
  0
LINE
  5
2251
330
1E
100
AcDbEntity
  8
3
100
AcDbLine
 10
10.78051181102362
 20
3.937007874015748
 30
0.0
 11
10.78051181102362
 21
3.964566929133858
 31
0.0
  0
LINE
  5
2252
330
1E
100
AcDbEntity
  8
3
100
AcDbLine
 10
10.78051181102362
 20
4.125984251968503
 30
0.0
 11
10.78051181102362
 21
4.154527559055117
 31
0.0
  0
LINE
  5
2258
330
1E
100
AcDbEntity
  8
3
100
AcDbLine
 10
10.78051181102362
 20
4.154527559055117
 30
0.0
 11
10.78051181102362
 21
4.182086614173227
 31
0.0
  0
LINE
  5
2259
330
1E
100
AcDbEntity
  8
3
100
AcDbLine
 10
10.78051181102362
 20
4.343503937007873
 30
0.0
 11
10.78051181102362
 21
4.372047244094487
 31
0.0
  0
LINE
  5
2296
330
1E
100
AcDbEntity
  8
3
100
AcDbLine
 10
10.45964566929133
 20
3.937007874015748
 30
0.0
 11
10.50393700787401
 21
3.937007874015748
 31
0.0
  0
LINE
  5
2297
330
1E
100
AcDbEntity
  8
3
100
AcDbLine
 10
10.45964566929133
 20
4.154527559055117
 30
0.0
 11
10.50393700787401
 21
4.154527559055117
 31
0.0
  0
LINE
  5
2298
330
1E
100
AcDbEntity
  8
3
100
AcDbLine
 10
10.45964566929133
 20
3.937007874015748
 30
0.0
 11
10.45964566929133
 21
4.154527559055117
 31
0.0
  0
LINE
  5
2299
330
1E
100
AcDbEntity
  8
3
100
AcDbLine
 10
10.45964566929133
 20
4.372047244094487
 30
0.0
 11
10.50393700787401
 21
4.372047244094487
 31
0.0
  0
LINE
  5
229A
330
1E
100
AcDbEntity
  8
3
100
AcDbLine
 10
10.45964566929133
 20
4.154527559055117
 30
0.0
 11
10.45964566929133
 21
4.372047244094487
 31
0.0
  0
LINE
  5
22BE
330
1E
100
AcDbEntity
  8
3
100
AcDbLine
 10
10.21555118110236
 20
3.99507874015748
 30
0.0
 11
10.21555118110236
 21
3.991141732283464
 31
0.0
  0
LINE
  5
22D7
330
1E
100
AcDbEntity
  8
3
100
AcDbLine
 10
10.6023622047244
 20
3.783464566929133
 30
0.0
 11
10.50885826771653
 21
3.783464566929133
 31
0.0
  0
LINE
  5
22DD
330
1E
100
AcDbEntity
  8
3
100
AcDbLine
 10
11.8513779527559
 20
3.783464566929133
 30
0.0
 11
10.6023622047244
 21
3.783464566929133
 31
0.0
  0
LINE
  5
22EA
330
1E
100
AcDbEntity
  8
3
100
AcDbLine
 10
11.00885826771653
 20
4.433070866141731
 30
0.0
 11
10.64173228346456
 21
4.427165354330708
 31
0.0
  0
LINE
  5
22EB
330
1E
100
AcDbEntity
  8
3
100
AcDbLine
 10
10.6023622047244
 20
4.385826771653542
 30
0.0
 11
10.64173228346456
 21
4.427165354330708
 31
0.0
  0
LINE
  5
22EC
330
1E
100
AcDbEntity
  8
3
100
AcDbLine
 10
11.03346456692913
 20
4.503937007874015
 30
0.0
 11
11.03346456692913
 21
4.434055118110236
 31
0.0
  0
LINE
  5
22ED
330
1E
100
AcDbEntity
  8
3
100
AcDbLine
 10
11.03346456692913
 20
4.412401574803149
 30
0.0
 11
11.03346456692913
 21
4.417322834645668
 31
0.0
  0
LINE
  5
22EE
330
1E
100
AcDbEntity
  8
3
100
AcDbLine
 10
11.03346456692913
 20
4.417322834645668
 30
0.0
 11
11.03346456692913
 21
4.434055118110236
 31
0.0
  0
LINE
  5
22FB
330
1E
100
AcDbEntity
  8
3
100
AcDbLine
 10
11.8759842519685
 20
3.859251968503937
 30
0.0
 11
11.8759842519685
 21
3.809055118110236
 31
0.0
  0
LINE
  5
22FC
330
1E
100
AcDbEntity
  8
3
100
AcDbLine
 10
11.8759842519685
 20
3.799212598425196
 30
0.0
 11
11.8759842519685
 21
3.809055118110236
 31
0.0
  0
LINE
  5
22FD
330
1E
100
AcDbEntity
  8
3
100
AcDbLine
 10
11.8759842519685
 20
3.809055118110236
 30
0.0
 11
11.86614173228346
 21
3.798228346456693
 31
0.0
  0
LINE
  5
22FE
330
1E
100
AcDbEntity
  8
3
100
AcDbLine
 10
11.8513779527559
 20
3.783464566929133
 30
0.0
 11
11.86614173228346
 21
3.798228346456693
 31
0.0
  0
LINE
  5
22FF
330
1E
100
AcDbEntity
  8
3
100
AcDbLine
 10
10.6023622047244
 20
3.783464566929133
 30
0.0
 11
10.6023622047244
 21
3.881889763779527
 31
0.0
  0
LINE
  5
2300
330
1E
100
AcDbEntity
  8
3
100
AcDbLine
 10
11.86614173228346
 20
3.798228346456693
 30
0.0
 11
11.86614173228346
 21
3.859251968503937
 31
0.0
  0
LINE
  5
2301
330
1E
100
AcDbEntity
  8
3
100
AcDbLine
 10
10.76377952755905
 20
4.407480314960629
 30
0.0
 11
10.76377952755905
 21
4.389763779527558
 31
0.0
  0
LINE
  5
2311
330
1E
100
AcDbEntity
  8
3
100
AcDbLine
 10
10.76377952755905
 20
3.918307086614173
 30
0.0
 11
10.76377952755905
 21
3.878937007874015
 31
0.0
  0
LINE
  5
2312
330
1E
100
AcDbEntity
  8
3
100
AcDbLine
 10
11.86712598425196
 20
3.799212598425196
 30
0.0
 11
11.8759842519685
 21
3.799212598425196
 31
0.0
  0
LINE
  5
2319
330
1E
100
AcDbEntity
  8
3
100
AcDbLine
 10
10.50885826771653
 20
4.433070866141731
 30
0.0
 11
10.50885826771653
 21
3.783464566929133
 31
0.0
  0
LINE
  5
231F
330
1E
100
AcDbEntity
  8
3
100
AcDbLine
 10
10.50393700787401
 20
4.433070866141731
 30
0.0
 11
10.50393700787401
 21
4.489173228346456
 31
0.0
  0
LINE
  5
2320
330
1E
100
AcDbEntity
  8
3
100
AcDbLine
 10
10.6023622047244
 20
4.499015748031495
 30
0.0
 11
10.6023622047244
 21
4.434055118110236
 31
0.0
  0
LINE
  5
2321
330
1E
100
AcDbEntity
  8
3
100
AcDbLine
 10
10.6023622047244
 20
4.499015748031495
 30
0.0
 11
10.6023622047244
 21
4.503937007874015
 31
0.0
  0
LINE
  5
2322
330
1E
100
AcDbEntity
  8
3
100
AcDbLine
 10
11.00885826771653
 20
4.499015748031495
 30
0.0
 11
10.6023622047244
 21
4.499015748031495
 31
0.0
  0
LINE
  5
2323
330
1E
100
AcDbEntity
  8
3
100
AcDbLine
 10
10.6023622047244
 20
3.916338582677165
 30
0.0
 11
10.76377952755905
 21
3.918307086614173
 31
0.0
  0
LINE
  5
2324
330
1E
100
AcDbEntity
  8
3
100
AcDbLine
 10
10.60728346456693
 20
4.391732283464566
 30
0.0
 11
10.76377952755905
 21
4.389763779527558
 31
0.0
  0
LINE
  5
2325
330
1E
100
AcDbEntity
  8
3
100
AcDbLine
 10
10.50393700787401
 20
4.433070866141731
 30
0.0
 11
10.50393700787401
 21
3.783464566929133
 31
0.0
  0
LINE
  5
25E7
330
1E
100
AcDbEntity
  8
3
100
AcDbLine
 10
10.6023622047244
 20
4.503937007874015
 30
0.0
 11
10.50885826771653
 21
4.494094488188975
 31
0.0
  0
LINE
  5
25E8
330
1E
100
AcDbEntity
  8
3
100
AcDbLine
 10
10.50885826771653
 20
4.494094488188975
 30
0.0
 11
10.50393700787401
 21
4.489173228346456
 31
0.0
  0
LINE
  5
25E9
330
1E
100
AcDbEntity
  8
3
100
AcDbLine
 10
10.50393700787401
 20
4.433070866141731
 30
0.0
 11
10.50885826771653
 21
4.433070866141731
 31
0.0
  0
LINE
  5
25EA
330
1E
100
AcDbEntity
  8
3
100
AcDbLine
 10
10.50885826771653
 20
4.433070866141731
 30
0.0
 11
10.6023622047244
 21
4.434055118110236
 31
0.0
  0
LINE
  5
25EB
330
1E
100
AcDbEntity
  8
3
100
AcDbLine
 10
10.6023622047244
 20
4.434055118110236
 30
0.0
 11
10.6023622047244
 21
4.385826771653542
 31
0.0
  0
LINE
  5
25EC
330
1E
100
AcDbEntity
  8
3
100
AcDbLine
 10
10.76377952755905
 20
3.918307086614173
 30
0.0
 11
10.76377952755905
 21
3.943897637795275
 31
0.0
  0
LINE
  5
25ED
330
1E
100
AcDbEntity
  8
3
100
AcDbLine
 10
10.76377952755905
 20
3.943897637795275
 30
0.0
 11
10.76377952755905
 21
3.975393700787401
 31
0.0
  0
LINE
  5
25EE
330
1E
100
AcDbEntity
  8
3
100
AcDbLine
 10
10.76377952755905
 20
3.975393700787401
 30
0.0
 11
10.76377952755905
 21
4.014763779527559
 31
0.0
  0
LINE
  5
25EF
330
1E
100
AcDbEntity
  8
3
100
AcDbLine
 10
10.76377952755905
 20
4.014763779527559
 30
0.0
 11
10.76377952755905
 21
4.058070866141732
 31
0.0
  0
LINE
  5
25F0
330
1E
100
AcDbEntity
  8
3
100
AcDbLine
 10
10.76377952755905
 20
4.058070866141732
 30
0.0
 11
10.76377952755905
 21
4.105314960629921
 31
0.0
  0
LINE
  5
25F1
330
1E
100
AcDbEntity
  8
3
100
AcDbLine
 10
10.76377952755905
 20
4.105314960629921
 30
0.0
 11
10.76377952755905
 21
4.154527559055117
 31
0.0
  0
LINE
  5
25F2
330
1E
100
AcDbEntity
  8
3
100
AcDbLine
 10
10.76377952755905
 20
4.154527559055117
 30
0.0
 11
10.76377952755905
 21
4.20275590551181
 31
0.0
  0
LINE
  5
25F3
330
1E
100
AcDbEntity
  8
3
100
AcDbLine
 10
10.76377952755905
 20
4.20275590551181
 30
0.0
 11
10.76377952755905
 21
4.25
 31
0.0
  0
LINE
  5
25F4
330
1E
100
AcDbEntity
  8
3
100
AcDbLine
 10
10.76377952755905
 20
4.25
 30
0.0
 11
10.76377952755905
 21
4.294291338582676
 31
0.0
  0
LINE
  5
25F5
330
1E
100
AcDbEntity
  8
3
100
AcDbLine
 10
10.76377952755905
 20
4.294291338582676
 30
0.0
 11
10.76377952755905
 21
4.33267716535433
 31
0.0
  0
LINE
  5
25F6
330
1E
100
AcDbEntity
  8
3
100
AcDbLine
 10
10.76377952755905
 20
4.33267716535433
 30
0.0
 11
10.76377952755905
 21
4.36515748031496
 31
0.0
  0
LINE
  5
25F7
330
1E
100
AcDbEntity
  8
3
100
AcDbLine
 10
10.76377952755905
 20
4.36515748031496
 30
0.0
 11
10.76377952755905
 21
4.389763779527558
 31
0.0
  0
LINE
  5
25F8
330
1E
100
AcDbEntity
  8
3
100
AcDbLine
 10
11.03346456692913
 20
4.503937007874015
 30
0.0
 11
11.03051181102362
 21
4.503937007874015
 31
0.0
  0
LINE
  5
25F9
330
1E
100
AcDbEntity
  8
3
100
AcDbLine
 10
11.03051181102362
 20
4.503937007874015
 30
0.0
 11
11.02362204724409
 21
4.503937007874015
 31
0.0
  0
LINE
  5
25FA
330
1E
100
AcDbEntity
  8
3
100
AcDbLine
 10
11.02362204724409
 20
4.503937007874015
 30
0.0
 11
10.6023622047244
 21
4.503937007874015
 31
0.0
  0
LINE
  5
25FB
330
1E
100
AcDbEntity
  8
3
100
AcDbLine
 10
11.02362204724409
 20
4.503937007874015
 30
0.0
 11
11.01574803149606
 21
4.501968503937007
 31
0.0
  0
LINE
  5
25FC
330
1E
100
AcDbEntity
  8
3
100
AcDbLine
 10
11.01574803149606
 20
4.501968503937007
 30
0.0
 11
11.00885826771653
 21
4.499015748031495
 31
0.0
  0
LINE
  5
25FD
330
1E
100
AcDbEntity
  8
3
100
AcDbLine
 10
11.00885826771653
 20
4.499015748031495
 30
0.0
 11
11.00885826771653
 21
4.433070866141731
 31
0.0
  0
LINE
  5
25FE
330
1E
100
AcDbEntity
  8
3
100
AcDbLine
 10
11.00885826771653
 20
4.433070866141731
 30
0.0
 11
11.02066929133858
 21
4.433070866141731
 31
0.0
  0
LINE
  5
25FF
330
1E
100
AcDbEntity
  8
3
100
AcDbLine
 10
11.02066929133858
 20
4.433070866141731
 30
0.0
 11
11.02952755905511
 21
4.434055118110236
 31
0.0
  0
LINE
  5
2600
330
1E
100
AcDbEntity
  8
3
100
AcDbLine
 10
11.02952755905511
 20
4.434055118110236
 30
0.0
 11
11.03346456692913
 21
4.434055118110236
 31
0.0
  0
LINE
  5
2601
330
1E
100
AcDbEntity
  8
3
100
AcDbLine
 10
10.6023622047244
 20
4.385826771653542
 30
0.0
 11
10.6023622047244
 21
3.881889763779527
 31
0.0
  0
LINE
  5
2602
330
1E
100
AcDbEntity
  8
3
100
AcDbLine
 10
10.6023622047244
 20
3.881889763779527
 30
0.0
 11
11.86614173228346
 21
3.859251968503937
 31
0.0
  0
LINE
  5
2603
330
1E
100
AcDbEntity
  8
3
100
AcDbLine
 10
11.86614173228346
 20
3.859251968503937
 30
0.0
 11
11.8759842519685
 21
3.859251968503937
 31
0.0
  0
LINE
  5
2604
330
1E
100
AcDbEntity
  8
3
100
AcDbLine
 10
10.50393700787401
 20
3.783464566929133
 30
0.0
 11
10.50590551181102
 21
3.783464566929133
 31
0.0
  0
LINE
  5
2605
330
1E
100
AcDbEntity
  8
3
100
AcDbLine
 10
10.50590551181102
 20
3.783464566929133
 30
0.0
 11
10.50885826771653
 21
3.783464566929133
 31
0.0
  0
LINE
  5
2606
330
1E
100
AcDbEntity
  8
3
100
AcDbLine
 10
10.78051181102362
 20
4.372047244094487
 30
0.0
 11
10.78051181102362
 21
4.385826771653542
 31
0.0
  0
LINE
  5
2607
330
1E
100
AcDbEntity
  8
3
100
AcDbLine
 10
10.78051181102362
 20
4.385826771653542
 30
0.0
 11
10.78051181102362
 21
4.390748031496062
 31
0.0
  0
LINE
  5
2608
330
1E
100
AcDbEntity
  8
3
100
AcDbLine
 10
10.78051181102362
 20
4.182086614173227
 30
0.0
 11
10.78051181102362
 21
4.228346456692912
 31
0.0
  0
LINE
  5
2609
330
1E
100
AcDbEntity
  8
3
100
AcDbLine
 10
10.78051181102362
 20
4.228346456692912
 30
0.0
 11
10.78051181102362
 21
4.272637795275589
 31
0.0
  0
LINE
  5
260A
330
1E
100
AcDbEntity
  8
3
100
AcDbLine
 10
10.78051181102362
 20
4.272637795275589
 30
0.0
 11
10.78051181102362
 21
4.311023622047243
 31
0.0
  0
LINE
  5
260B
330
1E
100
AcDbEntity
  8
3
100
AcDbLine
 10
10.78051181102362
 20
4.311023622047243
 30
0.0
 11
10.78051181102362
 21
4.343503937007873
 31
0.0
  0
LINE
  5
260C
330
1E
100
AcDbEntity
  8
3
100
AcDbLine
 10
10.78051181102362
 20
3.964566929133858
 30
0.0
 11
10.78051181102362
 21
3.997047244094488
 31
0.0
  0
LINE
  5
260D
330
1E
100
AcDbEntity
  8
3
100
AcDbLine
 10
10.78051181102362
 20
3.997047244094488
 30
0.0
 11
10.78051181102362
 21
4.036417322834645
 31
0.0
  0
LINE
  5
260E
330
1E
100
AcDbEntity
  8
3
100
AcDbLine
 10
10.78051181102362
 20
4.036417322834645
 30
0.0
 11
10.78051181102362
 21
4.079724409448818
 31
0.0
  0
LINE
  5
260F
330
1E
100
AcDbEntity
  8
3
100
AcDbLine
 10
10.78051181102362
 20
4.079724409448818
 30
0.0
 11
10.78051181102362
 21
4.125984251968503
 31
0.0
  0
LINE
  5
2610
330
1E
100
AcDbEntity
  8
3
100
AcDbLine
 10
10.78051181102362
 20
3.917322834645669
 30
0.0
 11
10.78051181102362
 21
3.922244094488188
 31
0.0
  0
LINE
  5
2611
330
1E
100
AcDbEntity
  8
3
100
AcDbLine
 10
10.78051181102362
 20
3.922244094488188
 30
0.0
 11
10.78051181102362
 21
3.937007874015748
 31
0.0
  0
LINE
  5
2612
330
1E
100
AcDbEntity
  8
3
100
AcDbLine
 10
10.21555118110236
 20
4.317913385826771
 30
0.0
 11
10.21555118110236
 21
4.313976377952755
 31
0.0
  0
LINE
  5
2613
330
1E
100
AcDbEntity
  8
3
100
AcDbLine
 10
10.21555118110236
 20
4.313976377952755
 30
0.0
 11
10.21555118110236
 21
4.301181102362204
 31
0.0
  0
LINE
  5
2614
330
1E
100
AcDbEntity
  8
3
100
AcDbLine
 10
10.21555118110236
 20
4.301181102362204
 30
0.0
 11
10.21555118110236
 21
4.282480314960629
 31
0.0
  0
LINE
  5
2615
330
1E
100
AcDbEntity
  8
3
100
AcDbLine
 10
10.21555118110236
 20
4.282480314960629
 30
0.0
 11
10.21555118110236
 21
4.255905511811023
 31
0.0
  0
LINE
  5
2616
330
1E
100
AcDbEntity
  8
3
100
AcDbLine
 10
10.21555118110236
 20
4.255905511811023
 30
0.0
 11
10.21555118110236
 21
4.2253937007874
 31
0.0
  0
LINE
  5
2617
330
1E
100
AcDbEntity
  8
3
100
AcDbLine
 10
10.21555118110236
 20
4.2253937007874
 30
0.0
 11
10.21555118110236
 21
4.190944881889762
 31
0.0
  0
LINE
  5
2618
330
1E
100
AcDbEntity
  8
3
100
AcDbLine
 10
10.21555118110236
 20
4.190944881889762
 30
0.0
 11
10.21555118110236
 21
4.154527559055117
 31
0.0
  0
LINE
  5
2619
330
1E
100
AcDbEntity
  8
3
100
AcDbLine
 10
10.21555118110236
 20
4.154527559055117
 30
0.0
 11
10.21555118110236
 21
4.118110236220472
 31
0.0
  0
LINE
  5
261A
330
1E
100
AcDbEntity
  8
3
100
AcDbLine
 10
10.21555118110236
 20
4.118110236220472
 30
0.0
 11
10.21555118110236
 21
4.083661417322834
 31
0.0
  0
LINE
  5
261B
330
1E
100
AcDbEntity
  8
3
100
AcDbLine
 10
10.21555118110236
 20
4.083661417322834
 30
0.0
 11
10.21555118110236
 21
4.052165354330708
 31
0.0
  0
LINE
  5
261C
330
1E
100
AcDbEntity
  8
3
100
AcDbLine
 10
10.21555118110236
 20
4.052165354330708
 30
0.0
 11
10.21555118110236
 21
4.026574803149606
 31
0.0
  0
LINE
  5
261D
330
1E
100
AcDbEntity
  8
3
100
AcDbLine
 10
10.21555118110236
 20
4.026574803149606
 30
0.0
 11
10.21555118110236
 21
4.006889763779527
 31
0.0
  0
LINE
  5
261E
330
1E
100
AcDbEntity
  8
3
100
AcDbLine
 10
10.21555118110236
 20
4.006889763779527
 30
0.0
 11
10.21555118110236
 21
3.99507874015748
 31
0.0
  0
LINE
  5
261F
330
1E
100
AcDbEntity
  8
3
100
AcDbLine
 10
10.19488188976378
 20
4.281496062992125
 30
0.0
 11
10.19488188976378
 21
4.293307086614173
 31
0.0
  0
LINE
  5
2620
330
1E
100
AcDbEntity
  8
3
100
AcDbLine
 10
10.19488188976378
 20
4.293307086614173
 30
0.0
 11
10.19488188976378
 21
4.297244094488188
 31
0.0
  0
LINE
  5
2621
330
1E
100
AcDbEntity
  8
3
100
AcDbLine
 10
10.19488188976378
 20
4.010826771653543
 30
0.0
 11
10.19488188976378
 21
4.014763779527559
 31
0.0
  0
LINE
  5
2622
330
1E
100
AcDbEntity
  8
3
100
AcDbLine
 10
10.19488188976378
 20
4.014763779527559
 30
0.0
 11
10.19488188976378
 21
4.02755905511811
 31
0.0
  0
LINE
  5
2623
330
1E
100
AcDbEntity
  8
3
100
AcDbLine
 10
10.19488188976378
 20
4.02755905511811
 30
0.0
 11
10.19488188976378
 21
4.047244094488188
 31
0.0
  0
LINE
  5
2624
330
1E
100
AcDbEntity
  8
3
100
AcDbLine
 10
10.19488188976378
 20
4.047244094488188
 30
0.0
 11
10.19488188976378
 21
4.07283464566929
 31
0.0
  0
LINE
  5
2625
330
1E
100
AcDbEntity
  8
3
100
AcDbLine
 10
10.19488188976378
 20
4.07283464566929
 30
0.0
 11
10.19488188976378
 21
4.103346456692912
 31
0.0
  0
LINE
  5
2626
330
1E
100
AcDbEntity
  8
3
100
AcDbLine
 10
10.19488188976378
 20
4.103346456692912
 30
0.0
 11
10.19488188976378
 21
4.136811023622047
 31
0.0
  0
LINE
  5
2627
330
1E
100
AcDbEntity
  8
3
100
AcDbLine
 10
10.19488188976378
 20
4.136811023622047
 30
0.0
 11
10.19488188976378
 21
4.171259842519684
 31
0.0
  0
LINE
  5
2628
330
1E
100
AcDbEntity
  8
3
100
AcDbLine
 10
10.19488188976378
 20
4.171259842519684
 30
0.0
 11
10.19488188976378
 21
4.204724409448818
 31
0.0
  0
LINE
  5
2629
330
1E
100
AcDbEntity
  8
3
100
AcDbLine
 10
10.19488188976378
 20
4.204724409448818
 30
0.0
 11
10.19488188976378
 21
4.23523622047244
 31
0.0
  0
LINE
  5
262A
330
1E
100
AcDbEntity
  8
3
100
AcDbLine
 10
10.19488188976378
 20
4.23523622047244
 30
0.0
 11
10.19488188976378
 21
4.261811023622047
 31
0.0
  0
LINE
  5
262B
330
1E
100
AcDbEntity
  8
3
100
AcDbLine
 10
10.19488188976378
 20
4.261811023622047
 30
0.0
 11
10.19488188976378
 21
4.281496062992125
 31
0.0
  0
LINE
  5
262C
330
1E
100
AcDbEntity
  8
3
100
AcDbLine
 10
10.97933070866141
 20
4.210629921259841
 30
0.0
 11
10.97933070866141
 21
4.246062992125984
 31
0.0
  0
LINE
  5
262D
330
1E
100
AcDbEntity
  8
3
100
AcDbLine
 10
10.97933070866141
 20
4.246062992125984
 30
0.0
 11
10.97933070866141
 21
4.27755905511811
 31
0.0
  0
LINE
  5
262E
330
1E
100
AcDbEntity
  8
3
100
AcDbLine
 10
10.97933070866141
 20
4.27755905511811
 30
0.0
 11
10.97933070866141
 21
4.303149606299212
 31
0.0
  0
LINE
  5
262F
330
1E
100
AcDbEntity
  8
3
100
AcDbLine
 10
10.97933070866141
 20
4.303149606299212
 30
0.0
 11
10.97933070866141
 21
4.321850393700787
 31
0.0
  0
LINE
  5
2630
330
1E
100
AcDbEntity
  8
3
100
AcDbLine
 10
10.97933070866141
 20
4.321850393700787
 30
0.0
 11
10.97933070866141
 21
4.333661417322834
 31
0.0
  0
LINE
  5
2631
330
1E
100
AcDbEntity
  8
3
100
AcDbLine
 10
10.97933070866141
 20
4.333661417322834
 30
0.0
 11
10.97933070866141
 21
4.33759842519685
 31
0.0
  0
LINE
  5
2632
330
1E
100
AcDbEntity
  8
3
100
AcDbLine
 10
10.97933070866141
 20
3.970472440944881
 30
0.0
 11
10.97933070866141
 21
3.974409448818897
 31
0.0
  0
LINE
  5
2633
330
1E
100
AcDbEntity
  8
3
100
AcDbLine
 10
10.97933070866141
 20
3.974409448818897
 30
0.0
 11
10.97933070866141
 21
3.986220472440944
 31
0.0
  0
LINE
  5
2634
330
1E
100
AcDbEntity
  8
3
100
AcDbLine
 10
10.97933070866141
 20
3.986220472440944
 30
0.0
 11
10.97933070866141
 21
4.005905511811023
 31
0.0
  0
LINE
  5
2635
330
1E
100
AcDbEntity
  8
3
100
AcDbLine
 10
10.97933070866141
 20
4.005905511811023
 30
0.0
 11
10.97933070866141
 21
4.031496062992125
 31
0.0
  0
LINE
  5
2636
330
1E
100
AcDbEntity
  8
3
100
AcDbLine
 10
10.97933070866141
 20
4.031496062992125
 30
0.0
 11
10.97933070866141
 21
4.062007874015748
 31
0.0
  0
LINE
  5
2637
330
1E
100
AcDbEntity
  8
3
100
AcDbLine
 10
10.97933070866141
 20
4.062007874015748
 30
0.0
 11
10.97933070866141
 21
4.097440944881888
 31
0.0
  0
LINE
  5
2638
330
1E
100
AcDbEntity
  8
3
100
AcDbLine
 10
10.97933070866141
 20
4.097440944881888
 30
0.0
 11
10.97933070866141
 21
4.134842519685038
 31
0.0
  0
LINE
  5
2639
330
1E
100
AcDbEntity
  8
3
100
AcDbLine
 10
10.97933070866141
 20
4.134842519685038
 30
0.0
 11
10.97933070866141
 21
4.173228346456692
 31
0.0
  0
LINE
  5
263A
330
1E
100
AcDbEntity
  8
3
100
AcDbLine
 10
10.97933070866141
 20
4.173228346456692
 30
0.0
 11
10.97933070866141
 21
4.210629921259841
 31
0.0
  0
LINE
  5
263B
330
1E
100
AcDbEntity
  8
3
100
AcDbLine
 10
11.30905511811023
 20
4.154527559055117
 30
0.0
 11
11.30905511811023
 21
4.190944881889762
 31
0.0
  0
LINE
  5
263C
330
1E
100
AcDbEntity
  8
3
100
AcDbLine
 10
11.30905511811023
 20
4.190944881889762
 30
0.0
 11
11.30905511811023
 21
4.2253937007874
 31
0.0
  0
LINE
  5
263D
330
1E
100
AcDbEntity
  8
3
100
AcDbLine
 10
11.30905511811023
 20
4.2253937007874
 30
0.0
 11
11.30905511811023
 21
4.255905511811023
 31
0.0
  0
LINE
  5
263E
330
1E
100
AcDbEntity
  8
3
100
AcDbLine
 10
11.30905511811023
 20
4.255905511811023
 30
0.0
 11
11.30905511811023
 21
4.282480314960629
 31
0.0
  0
LINE
  5
263F
330
1E
100
AcDbEntity
  8
3
100
AcDbLine
 10
11.30905511811023
 20
4.282480314960629
 30
0.0
 11
11.30905511811023
 21
4.301181102362204
 31
0.0
  0
LINE
  5
2640
330
1E
100
AcDbEntity
  8
3
100
AcDbLine
 10
11.30905511811023
 20
4.301181102362204
 30
0.0
 11
11.30905511811023
 21
4.313976377952755
 31
0.0
  0
LINE
  5
2641
330
1E
100
AcDbEntity
  8
3
100
AcDbLine
 10
11.30905511811023
 20
4.313976377952755
 30
0.0
 11
11.30905511811023
 21
4.317913385826771
 31
0.0
  0
LINE
  5
2642
330
1E
100
AcDbEntity
  8
3
100
AcDbLine
 10
11.30905511811023
 20
3.991141732283464
 30
0.0
 11
11.30905511811023
 21
3.99507874015748
 31
0.0
  0
LINE
  5
2643
330
1E
100
AcDbEntity
  8
3
100
AcDbLine
 10
11.30905511811023
 20
3.99507874015748
 30
0.0
 11
11.30905511811023
 21
4.006889763779527
 31
0.0
  0
LINE
  5
2644
330
1E
100
AcDbEntity
  8
3
100
AcDbLine
 10
11.30905511811023
 20
4.006889763779527
 30
0.0
 11
11.30905511811023
 21
4.026574803149606
 31
0.0
  0
LINE
  5
2645
330
1E
100
AcDbEntity
  8
3
100
AcDbLine
 10
11.30905511811023
 20
4.026574803149606
 30
0.0
 11
11.30905511811023
 21
4.052165354330708
 31
0.0
  0
LINE
  5
2646
330
1E
100
AcDbEntity
  8
3
100
AcDbLine
 10
11.30905511811023
 20
4.052165354330708
 30
0.0
 11
11.30905511811023
 21
4.083661417322834
 31
0.0
  0
LINE
  5
2647
330
1E
100
AcDbEntity
  8
3
100
AcDbLine
 10
11.30905511811023
 20
4.083661417322834
 30
0.0
 11
11.30905511811023
 21
4.118110236220472
 31
0.0
  0
LINE
  5
2648
330
1E
100
AcDbEntity
  8
3
100
AcDbLine
 10
11.30905511811023
 20
4.118110236220472
 30
0.0
 11
11.30905511811023
 21
4.154527559055117
 31
0.0
  0
LINE
  5
2649
330
1E
100
AcDbEntity
  8
3
100
AcDbLine
 10
11.32874015748031
 20
4.204724409448818
 30
0.0
 11
11.32874015748031
 21
4.171259842519684
 31
0.0
  0
LINE
  5
264A
330
1E
100
AcDbEntity
  8
3
100
AcDbLine
 10
11.32874015748031
 20
4.171259842519684
 30
0.0
 11
11.32874015748031
 21
4.136811023622047
 31
0.0
  0
LINE
  5
264B
330
1E
100
AcDbEntity
  8
3
100
AcDbLine
 10
11.32874015748031
 20
4.136811023622047
 30
0.0
 11
11.32874015748031
 21
4.103346456692912
 31
0.0
  0
LINE
  5
264C
330
1E
100
AcDbEntity
  8
3
100
AcDbLine
 10
11.32874015748031
 20
4.103346456692912
 30
0.0
 11
11.32874015748031
 21
4.07283464566929
 31
0.0
  0
LINE
  5
264D
330
1E
100
AcDbEntity
  8
3
100
AcDbLine
 10
11.32874015748031
 20
4.07283464566929
 30
0.0
 11
11.32874015748031
 21
4.047244094488188
 31
0.0
  0
LINE
  5
264E
330
1E
100
AcDbEntity
  8
3
100
AcDbLine
 10
11.32874015748031
 20
4.047244094488188
 30
0.0
 11
11.32874015748031
 21
4.02755905511811
 31
0.0
  0
LINE
  5
264F
330
1E
100
AcDbEntity
  8
3
100
AcDbLine
 10
11.32874015748031
 20
4.02755905511811
 30
0.0
 11
11.32874015748031
 21
4.014763779527559
 31
0.0
  0
LINE
  5
2650
330
1E
100
AcDbEntity
  8
3
100
AcDbLine
 10
11.32874015748031
 20
4.014763779527559
 30
0.0
 11
11.32874015748031
 21
4.010826771653543
 31
0.0
  0
LINE
  5
2651
330
1E
100
AcDbEntity
  8
3
100
AcDbLine
 10
11.32874015748031
 20
4.297244094488188
 30
0.0
 11
11.32874015748031
 21
4.293307086614173
 31
0.0
  0
LINE
  5
2652
330
1E
100
AcDbEntity
  8
3
100
AcDbLine
 10
11.32874015748031
 20
4.293307086614173
 30
0.0
 11
11.32874015748031
 21
4.281496062992125
 31
0.0
  0
LINE
  5
2653
330
1E
100
AcDbEntity
  8
3
100
AcDbLine
 10
11.32874015748031
 20
4.281496062992125
 30
0.0
 11
11.32874015748031
 21
4.261811023622047
 31
0.0
  0
LINE
  5
2654
330
1E
100
AcDbEntity
  8
3
100
AcDbLine
 10
11.32874015748031
 20
4.261811023622047
 30
0.0
 11
11.32874015748031
 21
4.23523622047244
 31
0.0
  0
LINE
  5
2655
330
1E
100
AcDbEntity
  8
3
100
AcDbLine
 10
11.32874015748031
 20
4.23523622047244
 30
0.0
 11
11.32874015748031
 21
4.204724409448818
 31
0.0
  0
LINE
  5
2656
330
1E
100
AcDbEntity
  8
3
100
AcDbLine
 10
10.87401574803149
 20
3.937007874015748
 30
0.0
 11
10.87401574803149
 21
4.154527559055117
 31
0.0
  0
LINE
  5
2657
330
1E
100
AcDbEntity
  8
3
100
AcDbLine
 10
10.87401574803149
 20
4.154527559055117
 30
0.0
 11
10.87401574803149
 21
4.372047244094487
 31
0.0
  0
LINE
  5
2658
330
1E
100
AcDbEntity
  8
3
100
AcDbLine
 10
10.21555118110236
 20
4.316929133858267
 30
0.0
 11
10.2017716535433
 21
4.311023622047243
 31
0.0
  0
LINE
  5
2659
330
1E
100
AcDbEntity
  8
3
100
AcDbLine
 10
10.2017716535433
 20
4.311023622047243
 30
0.0
 11
10.19586614173228
 21
4.297244094488188
 31
0.0
  0
LINE
  5
265A
330
1E
100
AcDbEntity
  8
3
100
AcDbLine
 10
10.19586614173228
 20
4.010826771653543
 30
0.0
 11
10.2017716535433
 21
3.997047244094488
 31
0.0
  0
LINE
  5
265B
330
1E
100
AcDbEntity
  8
3
100
AcDbLine
 10
10.2017716535433
 20
3.997047244094488
 30
0.0
 11
10.21555118110236
 21
3.991141732283464
 31
0.0
  0
LINE
  5
265C
330
1E
100
AcDbEntity
  8
3
100
AcDbLine
 10
11.30905511811023
 20
3.991141732283464
 30
0.0
 11
11.32283464566929
 21
3.997047244094488
 31
0.0
  0
LINE
  5
265D
330
1E
100
AcDbEntity
  8
3
100
AcDbLine
 10
11.32283464566929
 20
3.997047244094488
 30
0.0
 11
11.32874015748031
 21
4.010826771653543
 31
0.0
  0
LINE
  5
265E
330
1E
100
AcDbEntity
  8
3
100
AcDbLine
 10
11.32874015748031
 20
4.297244094488188
 30
0.0
 11
11.32283464566929
 21
4.311023622047243
 31
0.0
  0
LINE
  5
265F
330
1E
100
AcDbEntity
  8
3
100
AcDbLine
 10
11.32283464566929
 20
4.311023622047243
 30
0.0
 11
11.30905511811023
 21
4.316929133858267
 31
0.0
  0
LINE
  5
2660
330
1E
100
AcDbEntity
  8
3
100
AcDbLine
 10
8.807086614173227
 20
3.849409448818897
 30
0.0
 11
8.81791338582677
 21
3.853346456692913
 31
0.0
  0
LINE
  5
2661
330
1E
100
AcDbEntity
  8
3
100
AcDbLine
 10
8.81791338582677
 20
3.853346456692913
 30
0.0
 11
8.821850393700787
 21
3.864173228346457
 31
0.0
  0
LINE
  5
2662
330
1E
100
AcDbEntity
  8
3
100
AcDbLine
 10
8.602362204724409
 20
3.864173228346457
 30
0.0
 11
8.606299212598425
 21
3.853346456692913
 31
0.0
  0
LINE
  5
2663
330
1E
100
AcDbEntity
  8
3
100
AcDbLine
 10
8.606299212598425
 20
3.853346456692913
 30
0.0
 11
8.617125984251968
 21
3.849409448818897
 31
0.0
  0
LINE
  5
2664
330
1E
100
AcDbEntity
  8
3
100
AcDbLine
 10
8.581692913385825
 20
4.378937007874015
 30
0.0
 11
8.580708661417322
 21
4.380905511811023
 31
0.0
  0
LINE
  5
2665
330
1E
100
AcDbEntity
  8
3
100
AcDbLine
 10
8.580708661417322
 20
4.380905511811023
 30
0.0
 11
8.450787401574803
 21
4.154527559055117
 31
0.0
  0
LINE
  5
2666
330
1E
100
AcDbEntity
  8
3
100
AcDbLine
 10
8.581692913385825
 20
3.929133858267716
 30
0.0
 11
8.580708661417322
 21
3.928149606299212
 31
0.0
  0
LINE
  5
2667
330
1E
100
AcDbEntity
  8
3
100
AcDbLine
 10
8.580708661417322
 20
3.928149606299212
 30
0.0
 11
8.601377952755905
 21
3.928149606299212
 31
0.0
  0
LINE
  5
2668
330
1E
100
AcDbEntity
  8
3
100
AcDbLine
 10
8.601377952755905
 20
3.928149606299212
 30
0.0
 11
8.821850393700787
 21
3.928149606299212
 31
0.0
  0
LINE
  5
2669
330
1E
100
AcDbEntity
  8
3
100
AcDbLine
 10
8.821850393700787
 20
3.928149606299212
 30
0.0
 11
8.84251968503937
 21
3.928149606299212
 31
0.0
  0
LINE
  5
266A
330
1E
100
AcDbEntity
  8
3
100
AcDbLine
 10
8.841535433070866
 20
3.929133858267716
 30
0.0
 11
8.84251968503937
 21
3.928149606299212
 31
0.0
  0
LINE
  5
266B
330
1E
100
AcDbEntity
  8
3
100
AcDbLine
 10
8.84251968503937
 20
3.928149606299212
 30
0.0
 11
8.973425196850392
 21
4.154527559055117
 31
0.0
  0
LINE
  5
266C
330
1E
100
AcDbEntity
  8
3
100
AcDbLine
 10
8.971456692913385
 20
4.154527559055117
 30
0.0
 11
8.973425196850392
 21
4.154527559055117
 31
0.0
  0
LINE
  5
266D
330
1E
100
AcDbEntity
  8
3
100
AcDbLine
 10
8.973425196850392
 20
4.154527559055117
 30
0.0
 11
8.84251968503937
 21
4.380905511811023
 31
0.0
  0
LINE
  5
266E
330
1E
100
AcDbEntity
  8
3
100
AcDbLine
 10
8.841535433070866
 20
3.929133858267716
 30
0.0
 11
8.971456692913385
 21
4.154527559055117
 31
0.0
  0
LINE
  5
266F
330
1E
100
AcDbEntity
  8
3
100
AcDbLine
 10
8.971456692913385
 20
4.154527559055117
 30
0.0
 11
8.841535433070866
 21
4.378937007874015
 31
0.0
  0
LINE
  5
2670
330
1E
100
AcDbEntity
  8
3
100
AcDbLine
 10
8.841535433070866
 20
4.378937007874015
 30
0.0
 11
8.581692913385825
 21
4.378937007874015
 31
0.0
  0
LINE
  5
2671
330
1E
100
AcDbEntity
  8
3
100
AcDbLine
 10
8.581692913385825
 20
4.378937007874015
 30
0.0
 11
8.451771653543307
 21
4.154527559055117
 31
0.0
  0
LINE
  5
2672
330
1E
100
AcDbEntity
  8
3
100
AcDbLine
 10
8.451771653543307
 20
4.154527559055117
 30
0.0
 11
8.581692913385825
 21
3.929133858267716
 31
0.0
  0
LINE
  5
2673
330
1E
100
AcDbEntity
  8
3
100
AcDbLine
 10
8.581692913385825
 20
3.929133858267716
 30
0.0
 11
8.841535433070866
 21
3.929133858267716
 31
0.0
  0
LINE
  5
2674
330
1E
100
AcDbEntity
  8
3
100
AcDbLine
 10
8.413385826771653
 20
4.503937007874015
 30
0.0
 11
8.408464566929133
 21
4.499015748031495
 31
0.0
  0
LINE
  5
2675
330
1E
100
AcDbEntity
  8
3
100
AcDbLine
 10
8.408464566929133
 20
4.499015748031495
 30
0.0
 11
8.408464566929133
 21
4.434055118110236
 31
0.0
  0
LINE
  5
2676
330
1E
100
AcDbEntity
  8
3
100
AcDbLine
 10
8.951771653543307
 20
4.503937007874015
 30
0.0
 11
8.949803149606299
 21
4.494094488188975
 31
0.0
  0
LINE
  5
2677
330
1E
100
AcDbEntity
  8
3
100
AcDbLine
 10
8.949803149606299
 20
4.494094488188975
 30
0.0
 11
8.949803149606299
 21
4.489173228346456
 31
0.0
  0
LINE
  5
2678
330
1E
100
AcDbEntity
  8
3
100
AcDbLine
 10
8.473425196850392
 20
4.489173228346456
 30
0.0
 11
8.473425196850392
 21
4.494094488188975
 31
0.0
  0
LINE
  5
2679
330
1E
100
AcDbEntity
  8
3
100
AcDbLine
 10
8.473425196850392
 20
4.494094488188975
 30
0.0
 11
8.472440944881888
 21
4.503937007874015
 31
0.0
  0
LINE
  5
267A
330
1E
100
AcDbEntity
  8
3
100
AcDbLine
 10
9.009842519685038
 20
4.433070866141731
 30
0.0
 11
9.014763779527559
 21
4.433070866141731
 31
0.0
  0
LINE
  5
267B
330
1E
100
AcDbEntity
  8
3
100
AcDbLine
 10
9.014763779527559
 20
4.433070866141731
 30
0.0
 11
9.014763779527559
 21
4.434055118110236
 31
0.0
  0
LINE
  5
267C
330
1E
100
AcDbEntity
  8
3
100
AcDbLine
 10
8.951771653543307
 20
4.434055118110236
 30
0.0
 11
8.949803149606299
 21
4.433070866141731
 31
0.0
  0
LINE
  5
267D
330
1E
100
AcDbEntity
  8
3
100
AcDbLine
 10
8.949803149606299
 20
4.433070866141731
 30
0.0
 11
9.009842519685038
 21
4.433070866141731
 31
0.0
  0
LINE
  5
267E
330
1E
100
AcDbEntity
  8
3
100
AcDbLine
 10
8.408464566929133
 20
4.433070866141731
 30
0.0
 11
8.413385826771653
 21
4.433070866141731
 31
0.0
  0
LINE
  5
267F
330
1E
100
AcDbEntity
  8
3
100
AcDbLine
 10
8.413385826771653
 20
4.433070866141731
 30
0.0
 11
8.473425196850392
 21
4.433070866141731
 31
0.0
  0
LINE
  5
2680
330
1E
100
AcDbEntity
  8
3
100
AcDbLine
 10
8.473425196850392
 20
4.433070866141731
 30
0.0
 11
8.472440944881888
 21
4.434055118110236
 31
0.0
  0
LINE
  5
2681
330
1E
100
AcDbEntity
  8
3
100
AcDbLine
 10
8.472440944881888
 20
4.503937007874015
 30
0.0
 11
8.951771653543307
 21
4.503937007874015
 31
0.0
  0
LINE
  5
2682
330
1E
100
AcDbEntity
  8
3
100
AcDbLine
 10
8.951771653543307
 20
4.503937007874015
 30
0.0
 11
9.009842519685038
 21
4.503937007874015
 31
0.0
  0
LINE
  5
2683
330
1E
100
AcDbEntity
  8
3
100
AcDbLine
 10
8.408464566929133
 20
3.783464566929133
 30
0.0
 11
8.409448818897637
 21
3.783464566929133
 31
0.0
  0
LINE
  5
2684
330
1E
100
AcDbEntity
  8
3
100
AcDbLine
 10
8.409448818897637
 20
3.783464566929133
 30
0.0
 11
8.413385826771653
 21
3.783464566929133
 31
0.0
  0
LINE
  5
2685
330
1E
100
AcDbEntity
  8
3
100
AcDbLine
 10
9.009842519685038
 20
3.783464566929133
 30
0.0
 11
9.013779527559055
 21
3.783464566929133
 31
0.0
  0
LINE
  5
2686
330
1E
100
AcDbEntity
  8
3
100
AcDbLine
 10
9.013779527559055
 20
3.783464566929133
 30
0.0
 11
9.014763779527559
 21
3.783464566929133
 31
0.0
  0
LINE
  5
2687
330
1E
100
AcDbEntity
  8
3
100
AcDbLine
 10
8.764763779527559
 20
4.127952755905511
 30
0.0
 11
8.770669291338581
 21
4.148622047244094
 31
0.0
  0
LINE
  5
2688
330
1E
100
AcDbEntity
  8
3
100
AcDbLine
 10
8.770669291338581
 20
4.148622047244094
 30
0.0
 11
8.768700787401574
 21
4.17027559055118
 31
0.0
  0
LINE
  5
2689
330
1E
100
AcDbEntity
  8
3
100
AcDbLine
 10
8.768700787401574
 20
4.17027559055118
 30
0.0
 11
8.758858267716535
 21
4.189960629921259
 31
0.0
  0
LINE
  5
268A
330
1E
100
AcDbEntity
  8
3
100
AcDbLine
 10
8.758858267716535
 20
4.189960629921259
 30
0.0
 11
8.743110236220472
 21
4.204724409448818
 31
0.0
  0
LINE
  5
268B
330
1E
100
AcDbEntity
  8
3
100
AcDbLine
 10
8.743110236220472
 20
4.204724409448818
 30
0.0
 11
8.722440944881888
 21
4.21259842519685
 31
0.0
  0
LINE
  5
268C
330
1E
100
AcDbEntity
  8
3
100
AcDbLine
 10
8.722440944881888
 20
4.21259842519685
 30
0.0
 11
8.700787401574803
 21
4.21259842519685
 31
0.0
  0
LINE
  5
268D
330
1E
100
AcDbEntity
  8
3
100
AcDbLine
 10
8.700787401574803
 20
4.21259842519685
 30
0.0
 11
8.68011811023622
 21
4.204724409448818
 31
0.0
  0
LINE
  5
268E
330
1E
100
AcDbEntity
  8
3
100
AcDbLine
 10
8.68011811023622
 20
4.204724409448818
 30
0.0
 11
8.664370078740157
 21
4.189960629921259
 31
0.0
  0
LINE
  5
268F
330
1E
100
AcDbEntity
  8
3
100
AcDbLine
 10
8.664370078740157
 20
4.189960629921259
 30
0.0
 11
8.654527559055118
 21
4.17027559055118
 31
0.0
  0
LINE
  5
2690
330
1E
100
AcDbEntity
  8
3
100
AcDbLine
 10
8.654527559055118
 20
4.17027559055118
 30
0.0
 11
8.652559055118111
 21
4.148622047244094
 31
0.0
  0
LINE
  5
2691
330
1E
100
AcDbEntity
  8
3
100
AcDbLine
 10
8.652559055118111
 20
4.148622047244094
 30
0.0
 11
8.658464566929133
 21
4.127952755905511
 31
0.0
  0
LINE
  5
2692
330
1E
100
AcDbEntity
  8
3
100
AcDbLine
 10
8.658464566929133
 20
4.127952755905511
 30
0.0
 11
8.672244094488188
 21
4.111220472440944
 31
0.0
  0
LINE
  5
2693
330
1E
100
AcDbEntity
  8
3
100
AcDbLine
 10
8.672244094488188
 20
4.111220472440944
 30
0.0
 11
8.689960629921259
 21
4.099409448818897
 31
0.0
  0
LINE
  5
2694
330
1E
100
AcDbEntity
  8
3
100
AcDbLine
 10
8.689960629921259
 20
4.099409448818897
 30
0.0
 11
8.711614173228346
 21
4.095472440944881
 31
0.0
  0
LINE
  5
2695
330
1E
100
AcDbEntity
  8
3
100
AcDbLine
 10
8.711614173228346
 20
4.095472440944881
 30
0.0
 11
8.733267716535433
 21
4.099409448818897
 31
0.0
  0
LINE
  5
2696
330
1E
100
AcDbEntity
  8
3
100
AcDbLine
 10
8.733267716535433
 20
4.099409448818897
 30
0.0
 11
8.750984251968503
 21
4.111220472440944
 31
0.0
  0
LINE
  5
2697
330
1E
100
AcDbEntity
  8
3
100
AcDbLine
 10
8.750984251968503
 20
4.111220472440944
 30
0.0
 11
8.764763779527559
 21
4.127952755905511
 31
0.0
  0
LINE
  5
2698
330
1E
100
AcDbEntity
  8
3
100
AcDbLine
 10
8.563976377952755
 20
4.2253937007874
 30
0.0
 11
8.552165354330707
 21
4.190944881889762
 31
0.0
  0
LINE
  5
2699
330
1E
100
AcDbEntity
  8
3
100
AcDbLine
 10
8.552165354330707
 20
4.190944881889762
 30
0.0
 11
8.548228346456692
 21
4.154527559055117
 31
0.0
  0
LINE
  5
269A
330
1E
100
AcDbEntity
  8
3
100
AcDbLine
 10
8.548228346456692
 20
4.154527559055117
 30
0.0
 11
8.552165354330707
 21
4.118110236220472
 31
0.0
  0
LINE
  5
269B
330
1E
100
AcDbEntity
  8
3
100
AcDbLine
 10
8.552165354330707
 20
4.118110236220472
 30
0.0
 11
8.563976377952755
 21
4.083661417322834
 31
0.0
  0
LINE
  5
269C
330
1E
100
AcDbEntity
  8
3
100
AcDbLine
 10
8.563976377952755
 20
4.083661417322834
 30
0.0
 11
8.583661417322833
 21
4.053149606299212
 31
0.0
  0
LINE
  5
269D
330
1E
100
AcDbEntity
  8
3
100
AcDbLine
 10
8.583661417322833
 20
4.053149606299212
 30
0.0
 11
8.61023622047244
 21
4.026574803149606
 31
0.0
  0
LINE
  5
269E
330
1E
100
AcDbEntity
  8
3
100
AcDbLine
 10
8.61023622047244
 20
4.026574803149606
 30
0.0
 11
8.640748031496062
 21
4.006889763779527
 31
0.0
  0
LINE
  5
269F
330
1E
100
AcDbEntity
  8
3
100
AcDbLine
 10
8.640748031496062
 20
4.006889763779527
 30
0.0
 11
8.6751968503937
 21
3.99507874015748
 31
0.0
  0
LINE
  5
26A0
330
1E
100
AcDbEntity
  8
3
100
AcDbLine
 10
8.6751968503937
 20
3.99507874015748
 30
0.0
 11
8.711614173228346
 21
3.991141732283464
 31
0.0
  0
LINE
  5
26A1
330
1E
100
AcDbEntity
  8
3
100
AcDbLine
 10
8.871062992125983
 20
4.118110236220472
 30
0.0
 11
8.875
 21
4.154527559055117
 31
0.0
  0
LINE
  5
26A2
330
1E
100
AcDbEntity
  8
3
100
AcDbLine
 10
8.875
 20
4.154527559055117
 30
0.0
 11
8.871062992125983
 21
4.190944881889762
 31
0.0
  0
LINE
  5
26A3
330
1E
100
AcDbEntity
  8
3
100
AcDbLine
 10
8.871062992125983
 20
4.190944881889762
 30
0.0
 11
8.859251968503937
 21
4.2253937007874
 31
0.0
  0
LINE
  5
26A4
330
1E
100
AcDbEntity
  8
3
100
AcDbLine
 10
8.859251968503937
 20
4.2253937007874
 30
0.0
 11
8.839566929133857
 21
4.255905511811023
 31
0.0
  0
LINE
  5
26A5
330
1E
100
AcDbEntity
  8
3
100
AcDbLine
 10
8.839566929133857
 20
4.255905511811023
 30
0.0
 11
8.812992125984251
 21
4.282480314960629
 31
0.0
  0
LINE
  5
26A6
330
1E
100
AcDbEntity
  8
3
100
AcDbLine
 10
8.812992125984251
 20
4.282480314960629
 30
0.0
 11
8.782480314960629
 21
4.302165354330708
 31
0.0
  0
LINE
  5
26A7
330
1E
100
AcDbEntity
  8
3
100
AcDbLine
 10
8.782480314960629
 20
4.302165354330708
 30
0.0
 11
8.748031496062992
 21
4.313976377952755
 31
0.0
  0
LINE
  5
26A8
330
1E
100
AcDbEntity
  8
3
100
AcDbLine
 10
8.748031496062992
 20
4.313976377952755
 30
0.0
 11
8.711614173228346
 21
4.317913385826771
 31
0.0
  0
LINE
  5
26A9
330
1E
100
AcDbEntity
  8
3
100
AcDbLine
 10
8.711614173228346
 20
4.317913385826771
 30
0.0
 11
8.6751968503937
 21
4.313976377952755
 31
0.0
  0
LINE
  5
26AA
330
1E
100
AcDbEntity
  8
3
100
AcDbLine
 10
8.6751968503937
 20
4.313976377952755
 30
0.0
 11
8.640748031496062
 21
4.302165354330708
 31
0.0
  0
LINE
  5
26AB
330
1E
100
AcDbEntity
  8
3
100
AcDbLine
 10
8.640748031496062
 20
4.302165354330708
 30
0.0
 11
8.61023622047244
 21
4.282480314960629
 31
0.0
  0
LINE
  5
26AC
330
1E
100
AcDbEntity
  8
3
100
AcDbLine
 10
8.61023622047244
 20
4.282480314960629
 30
0.0
 11
8.583661417322833
 21
4.255905511811023
 31
0.0
  0
LINE
  5
26AD
330
1E
100
AcDbEntity
  8
3
100
AcDbLine
 10
8.583661417322833
 20
4.255905511811023
 30
0.0
 11
8.563976377952755
 21
4.2253937007874
 31
0.0
  0
LINE
  5
26AE
330
1E
100
AcDbEntity
  8
3
100
AcDbLine
 10
8.711614173228346
 20
3.991141732283464
 30
0.0
 11
8.748031496062992
 21
3.99507874015748
 31
0.0
  0
LINE
  5
26AF
330
1E
100
AcDbEntity
  8
3
100
AcDbLine
 10
8.748031496062992
 20
3.99507874015748
 30
0.0
 11
8.782480314960629
 21
4.006889763779527
 31
0.0
  0
LINE
  5
26B0
330
1E
100
AcDbEntity
  8
3
100
AcDbLine
 10
8.782480314960629
 20
4.006889763779527
 30
0.0
 11
8.812992125984251
 21
4.026574803149606
 31
0.0
  0
LINE
  5
26B1
330
1E
100
AcDbEntity
  8
3
100
AcDbLine
 10
8.812992125984251
 20
4.026574803149606
 30
0.0
 11
8.839566929133857
 21
4.053149606299212
 31
0.0
  0
LINE
  5
26B2
330
1E
100
AcDbEntity
  8
3
100
AcDbLine
 10
8.839566929133857
 20
4.053149606299212
 30
0.0
 11
8.859251968503937
 21
4.083661417322834
 31
0.0
  0
LINE
  5
26B3
330
1E
100
AcDbEntity
  8
3
100
AcDbLine
 10
8.859251968503937
 20
4.083661417322834
 30
0.0
 11
8.871062992125983
 21
4.118110236220472
 31
0.0
  0
LINE
  5
26B4
330
1E
100
AcDbEntity
  8
3
100
AcDbLine
 10
8.853346456692912
 20
4.171259842519684
 30
0.0
 11
8.845472440944881
 21
4.204724409448818
 31
0.0
  0
LINE
  5
26B5
330
1E
100
AcDbEntity
  8
3
100
AcDbLine
 10
8.845472440944881
 20
4.204724409448818
 30
0.0
 11
8.828740157480314
 21
4.23523622047244
 31
0.0
  0
LINE
  5
26B6
330
1E
100
AcDbEntity
  8
3
100
AcDbLine
 10
8.828740157480314
 20
4.23523622047244
 30
0.0
 11
8.806102362204724
 21
4.261811023622047
 31
0.0
  0
LINE
  5
26B7
330
1E
100
AcDbEntity
  8
3
100
AcDbLine
 10
8.806102362204724
 20
4.261811023622047
 30
0.0
 11
8.777559055118111
 21
4.280511811023621
 31
0.0
  0
LINE
  5
26B8
330
1E
100
AcDbEntity
  8
3
100
AcDbLine
 10
8.777559055118111
 20
4.280511811023621
 30
0.0
 11
8.746062992125983
 21
4.293307086614173
 31
0.0
  0
LINE
  5
26B9
330
1E
100
AcDbEntity
  8
3
100
AcDbLine
 10
8.746062992125983
 20
4.293307086614173
 30
0.0
 11
8.711614173228346
 21
4.297244094488188
 31
0.0
  0
LINE
  5
26BA
330
1E
100
AcDbEntity
  8
3
100
AcDbLine
 10
8.577755905511811
 20
4.204724409448818
 30
0.0
 11
8.569881889763779
 21
4.171259842519684
 31
0.0
  0
LINE
  5
26BB
330
1E
100
AcDbEntity
  8
3
100
AcDbLine
 10
8.569881889763779
 20
4.171259842519684
 30
0.0
 11
8.569881889763779
 21
4.13779527559055
 31
0.0
  0
LINE
  5
26BC
330
1E
100
AcDbEntity
  8
3
100
AcDbLine
 10
8.569881889763779
 20
4.13779527559055
 30
0.0
 11
8.577755905511811
 21
4.104330708661416
 31
0.0
  0
LINE
  5
26BD
330
1E
100
AcDbEntity
  8
3
100
AcDbLine
 10
8.577755905511811
 20
4.104330708661416
 30
0.0
 11
8.594488188976377
 21
4.073818897637794
 31
0.0
  0
LINE
  5
26BE
330
1E
100
AcDbEntity
  8
3
100
AcDbLine
 10
8.594488188976377
 20
4.073818897637794
 30
0.0
 11
8.617125984251968
 21
4.047244094488188
 31
0.0
  0
LINE
  5
26BF
330
1E
100
AcDbEntity
  8
3
100
AcDbLine
 10
8.617125984251968
 20
4.047244094488188
 30
0.0
 11
8.645669291338581
 21
4.028543307086613
 31
0.0
  0
LINE
  5
26C0
330
1E
100
AcDbEntity
  8
3
100
AcDbLine
 10
8.645669291338581
 20
4.028543307086613
 30
0.0
 11
8.677165354330707
 21
4.015748031496062
 31
0.0
  0
LINE
  5
26C1
330
1E
100
AcDbEntity
  8
3
100
AcDbLine
 10
8.677165354330707
 20
4.015748031496062
 30
0.0
 11
8.711614173228346
 21
4.011811023622047
 31
0.0
  0
LINE
  5
26C2
330
1E
100
AcDbEntity
  8
3
100
AcDbLine
 10
8.711614173228346
 20
4.011811023622047
 30
0.0
 11
8.746062992125983
 21
4.015748031496062
 31
0.0
  0
LINE
  5
26C3
330
1E
100
AcDbEntity
  8
3
100
AcDbLine
 10
8.746062992125983
 20
4.015748031496062
 30
0.0
 11
8.777559055118111
 21
4.028543307086613
 31
0.0
  0
LINE
  5
26C4
330
1E
100
AcDbEntity
  8
3
100
AcDbLine
 10
8.777559055118111
 20
4.028543307086613
 30
0.0
 11
8.806102362204724
 21
4.047244094488188
 31
0.0
  0
LINE
  5
26C5
330
1E
100
AcDbEntity
  8
3
100
AcDbLine
 10
8.806102362204724
 20
4.047244094488188
 30
0.0
 11
8.828740157480314
 21
4.073818897637794
 31
0.0
  0
LINE
  5
26C6
330
1E
100
AcDbEntity
  8
3
100
AcDbLine
 10
8.828740157480314
 20
4.073818897637794
 30
0.0
 11
8.845472440944881
 21
4.104330708661416
 31
0.0
  0
LINE
  5
26C7
330
1E
100
AcDbEntity
  8
3
100
AcDbLine
 10
8.845472440944881
 20
4.104330708661416
 30
0.0
 11
8.853346456692912
 21
4.13779527559055
 31
0.0
  0
LINE
  5
26C8
330
1E
100
AcDbEntity
  8
3
100
AcDbLine
 10
8.853346456692912
 20
4.13779527559055
 30
0.0
 11
8.853346456692912
 21
4.171259842519684
 31
0.0
  0
LINE
  5
26C9
330
1E
100
AcDbEntity
  8
3
100
AcDbLine
 10
8.711614173228346
 20
4.297244094488188
 30
0.0
 11
8.677165354330707
 21
4.293307086614173
 31
0.0
  0
LINE
  5
26CA
330
1E
100
AcDbEntity
  8
3
100
AcDbLine
 10
8.677165354330707
 20
4.293307086614173
 30
0.0
 11
8.645669291338581
 21
4.280511811023621
 31
0.0
  0
LINE
  5
26CB
330
1E
100
AcDbEntity
  8
3
100
AcDbLine
 10
8.645669291338581
 20
4.280511811023621
 30
0.0
 11
8.617125984251968
 21
4.261811023622047
 31
0.0
  0
LINE
  5
26CC
330
1E
100
AcDbEntity
  8
3
100
AcDbLine
 10
8.617125984251968
 20
4.261811023622047
 30
0.0
 11
8.594488188976377
 21
4.23523622047244
 31
0.0
  0
LINE
  5
26CD
330
1E
100
AcDbEntity
  8
3
100
AcDbLine
 10
8.594488188976377
 20
4.23523622047244
 30
0.0
 11
8.577755905511811
 21
4.204724409448818
 31
0.0
  0
LINE
  5
26CE
330
1E
100
AcDbEntity
  8
3
100
AcDbLine
 10
8.586614173228346
 20
3.937007874015748
 30
0.0
 11
8.83759842519685
 21
3.937007874015748
 31
0.0
  0
LINE
  5
26CF
330
1E
100
AcDbEntity
  8
3
100
AcDbLine
 10
8.83759842519685
 20
3.937007874015748
 30
0.0
 11
8.96259842519685
 21
4.154527559055117
 31
0.0
  0
LINE
  5
26D0
330
1E
100
AcDbEntity
  8
3
100
AcDbLine
 10
8.96259842519685
 20
4.154527559055117
 30
0.0
 11
8.83759842519685
 21
4.372047244094487
 31
0.0
  0
LINE
  5
26D1
330
1E
100
AcDbEntity
  8
3
100
AcDbLine
 10
8.83759842519685
 20
4.372047244094487
 30
0.0
 11
8.586614173228346
 21
4.372047244094487
 31
0.0
  0
LINE
  5
26D2
330
1E
100
AcDbEntity
  8
3
100
AcDbLine
 10
8.586614173228346
 20
4.372047244094487
 30
0.0
 11
8.460629921259842
 21
4.154527559055117
 31
0.0
  0
LINE
  5
26D3
330
1E
100
AcDbEntity
  8
3
100
AcDbLine
 10
8.684055118110237
 20
4.249015748031495
 30
0.0
 11
8.658464566929133
 21
4.237204724409448
 31
0.0
  0
LINE
  5
26D4
330
1E
100
AcDbEntity
  8
3
100
AcDbLine
 10
8.658464566929133
 20
4.237204724409448
 30
0.0
 11
8.636811023622048
 21
4.218503937007873
 31
0.0
  0
LINE
  5
26D5
330
1E
100
AcDbEntity
  8
3
100
AcDbLine
 10
8.636811023622048
 20
4.218503937007873
 30
0.0
 11
8.622047244094488
 21
4.195866141732283
 31
0.0
  0
LINE
  5
26D6
330
1E
100
AcDbEntity
  8
3
100
AcDbLine
 10
8.622047244094488
 20
4.195866141732283
 30
0.0
 11
8.614173228346455
 21
4.168307086614173
 31
0.0
  0
LINE
  5
26D7
330
1E
100
AcDbEntity
  8
3
100
AcDbLine
 10
8.614173228346455
 20
4.168307086614173
 30
0.0
 11
8.614173228346455
 21
4.140748031496062
 31
0.0
  0
LINE
  5
26D8
330
1E
100
AcDbEntity
  8
3
100
AcDbLine
 10
8.614173228346455
 20
4.140748031496062
 30
0.0
 11
8.622047244094488
 21
4.113188976377952
 31
0.0
  0
LINE
  5
26D9
330
1E
100
AcDbEntity
  8
3
100
AcDbLine
 10
8.622047244094488
 20
4.113188976377952
 30
0.0
 11
8.636811023622048
 21
4.090551181102362
 31
0.0
  0
LINE
  5
26DA
330
1E
100
AcDbEntity
  8
3
100
AcDbLine
 10
8.636811023622048
 20
4.090551181102362
 30
0.0
 11
8.658464566929133
 21
4.071850393700787
 31
0.0
  0
LINE
  5
26DB
330
1E
100
AcDbEntity
  8
3
100
AcDbLine
 10
8.658464566929133
 20
4.071850393700787
 30
0.0
 11
8.684055118110237
 21
4.060039370078739
 31
0.0
  0
LINE
  5
26DC
330
1E
100
AcDbEntity
  8
3
100
AcDbLine
 10
8.684055118110237
 20
4.060039370078739
 30
0.0
 11
8.711614173228346
 21
4.056102362204724
 31
0.0
  0
LINE
  5
26DD
330
1E
100
AcDbEntity
  8
3
100
AcDbLine
 10
8.711614173228346
 20
4.056102362204724
 30
0.0
 11
8.739173228346455
 21
4.060039370078739
 31
0.0
  0
LINE
  5
26DE
330
1E
100
AcDbEntity
  8
3
100
AcDbLine
 10
8.739173228346455
 20
4.060039370078739
 30
0.0
 11
8.764763779527559
 21
4.071850393700787
 31
0.0
  0
LINE
  5
26DF
330
1E
100
AcDbEntity
  8
3
100
AcDbLine
 10
8.764763779527559
 20
4.071850393700787
 30
0.0
 11
8.786417322834644
 21
4.090551181102362
 31
0.0
  0
LINE
  5
26E0
330
1E
100
AcDbEntity
  8
3
100
AcDbLine
 10
8.786417322834644
 20
4.090551181102362
 30
0.0
 11
8.801181102362203
 21
4.113188976377952
 31
0.0
  0
LINE
  5
26E1
330
1E
100
AcDbEntity
  8
3
100
AcDbLine
 10
8.801181102362203
 20
4.113188976377952
 30
0.0
 11
8.809055118110237
 21
4.140748031496062
 31
0.0
  0
LINE
  5
26E2
330
1E
100
AcDbEntity
  8
3
100
AcDbLine
 10
8.809055118110237
 20
4.140748031496062
 30
0.0
 11
8.809055118110237
 21
4.168307086614173
 31
0.0
  0
LINE
  5
26E3
330
1E
100
AcDbEntity
  8
3
100
AcDbLine
 10
8.809055118110237
 20
4.168307086614173
 30
0.0
 11
8.801181102362203
 21
4.195866141732283
 31
0.0
  0
LINE
  5
26E4
330
1E
100
AcDbEntity
  8
3
100
AcDbLine
 10
8.801181102362203
 20
4.195866141732283
 30
0.0
 11
8.786417322834644
 21
4.218503937007873
 31
0.0
  0
LINE
  5
26E5
330
1E
100
AcDbEntity
  8
3
100
AcDbLine
 10
8.786417322834644
 20
4.218503937007873
 30
0.0
 11
8.764763779527559
 21
4.237204724409448
 31
0.0
  0
LINE
  5
26E6
330
1E
100
AcDbEntity
  8
3
100
AcDbLine
 10
8.764763779527559
 20
4.237204724409448
 30
0.0
 11
8.739173228346455
 21
4.249015748031495
 31
0.0
  0
LINE
  5
26E7
330
1E
100
AcDbEntity
  8
3
100
AcDbLine
 10
8.739173228346455
 20
4.249015748031495
 30
0.0
 11
8.711614173228346
 21
4.252952755905511
 31
0.0
  0
LINE
  5
26E8
330
1E
100
AcDbEntity
  8
3
100
AcDbLine
 10
8.711614173228346
 20
4.252952755905511
 30
0.0
 11
8.684055118110237
 21
4.249015748031495
 31
0.0
  0
LINE
  5
26E9
330
1E
100
AcDbEntity
  8
3
100
AcDbLine
 10
8.421259842519685
 20
6.283464566929133
 30
0.0
 11
8.418307086614172
 21
6.279527559055117
 31
0.0
  0
LINE
  5
26EA
330
1E
100
AcDbEntity
  8
3
100
AcDbLine
 10
8.418307086614172
 20
6.279527559055117
 30
0.0
 11
8.416338582677164
 21
6.273622047244094
 31
0.0
  0
LINE
  5
26EB
330
1E
100
AcDbEntity
  8
3
100
AcDbLine
 10
8.416338582677164
 20
6.273622047244094
 30
0.0
 11
8.415354330708661
 21
6.268700787401574
 31
0.0
  0
LINE
  5
26EC
330
1E
100
AcDbEntity
  8
3
100
AcDbLine
 10
8.951771653543307
 20
5.862204724409448
 30
0.0
 11
8.949803149606299
 21
5.769685039370078
 31
0.0
  0
LINE
  5
26ED
330
1E
100
AcDbEntity
  8
3
100
AcDbLine
 10
8.949803149606299
 20
5.769685039370078
 30
0.0
 11
8.949803149606299
 21
5.764763779527558
 31
0.0
  0
LINE
  5
26EE
330
1E
100
AcDbEntity
  8
3
100
AcDbLine
 10
8.473425196850392
 20
5.764763779527558
 30
0.0
 11
8.473425196850392
 21
5.769685039370078
 31
0.0
  0
LINE
  5
26EF
330
1E
100
AcDbEntity
  8
3
100
AcDbLine
 10
8.473425196850392
 20
5.769685039370078
 30
0.0
 11
8.472440944881888
 21
5.862204724409448
 31
0.0
  0
LINE
  5
26F0
330
1E
100
AcDbEntity
  8
3
100
AcDbLine
 10
8.949803149606299
 20
5.764763779527558
 30
0.0
 11
9.009842519685038
 21
5.764763779527558
 31
0.0
  0
LINE
  5
26F1
330
1E
100
AcDbEntity
  8
3
100
AcDbLine
 10
9.009842519685038
 20
5.764763779527558
 30
0.0
 11
9.014763779527559
 21
5.769685039370078
 31
0.0
  0
LINE
  5
26F2
330
1E
100
AcDbEntity
  8
3
100
AcDbLine
 10
9.014763779527559
 20
5.769685039370078
 30
0.0
 11
9.014763779527559
 21
5.862204724409448
 31
0.0
  0
LINE
  5
26F3
330
1E
100
AcDbEntity
  8
3
100
AcDbLine
 10
8.601377952755905
 20
7.136811023622047
 30
0.0
 11
8.601377952755905
 21
7.096456692913385
 31
0.0
  0
LINE
  5
26F4
330
1E
100
AcDbEntity
  8
3
100
AcDbLine
 10
8.601377952755905
 20
7.096456692913385
 30
0.0
 11
8.821850393700787
 21
7.096456692913385
 31
0.0
  0
LINE
  5
26F5
330
1E
100
AcDbEntity
  8
3
100
AcDbLine
 10
8.440944881889762
 20
7.136811023622047
 30
0.0
 11
8.582677165354329
 21
7.136811023622047
 31
0.0
  0
LINE
  5
26F6
330
1E
100
AcDbEntity
  8
3
100
AcDbLine
 10
8.582677165354329
 20
7.136811023622047
 30
0.0
 11
8.601377952755905
 21
7.136811023622047
 31
0.0
  0
LINE
  5
26F7
330
1E
100
AcDbEntity
  8
3
100
AcDbLine
 10
8.807086614173227
 20
7.136811023622047
 30
0.0
 11
8.816929133858266
 21
7.136811023622047
 31
0.0
  0
LINE
  5
26F8
330
1E
100
AcDbEntity
  8
3
100
AcDbLine
 10
8.816929133858266
 20
7.136811023622047
 30
0.0
 11
8.821850393700787
 21
7.136811023622047
 31
0.0
  0
LINE
  5
26F9
330
1E
100
AcDbEntity
  8
3
100
AcDbLine
 10
8.821850393700787
 20
7.136811023622047
 30
0.0
 11
8.841535433070866
 21
7.136811023622047
 31
0.0
  0
LINE
  5
26FA
330
1E
100
AcDbEntity
  8
3
100
AcDbLine
 10
8.601377952755905
 20
7.136811023622047
 30
0.0
 11
8.606299212598425
 21
7.136811023622047
 31
0.0
  0
LINE
  5
26FB
330
1E
100
AcDbEntity
  8
3
100
AcDbLine
 10
8.606299212598425
 20
7.136811023622047
 30
0.0
 11
8.617125984251968
 21
7.136811023622047
 31
0.0
  0
LINE
  5
26FC
330
1E
100
AcDbEntity
  8
3
100
AcDbLine
 10
8.408464566929133
 20
5.769685039370078
 30
0.0
 11
8.413385826771653
 21
5.764763779527558
 31
0.0
  0
LINE
  5
26FD
330
1E
100
AcDbEntity
  8
3
100
AcDbLine
 10
8.413385826771653
 20
5.764763779527558
 30
0.0
 11
8.473425196850392
 21
5.764763779527558
 31
0.0
  0
LINE
  5
26FE
330
1E
100
AcDbEntity
  8
3
100
AcDbLine
 10
8.440944881889762
 20
6.293307086614173
 30
0.0
 11
8.43011811023622
 21
6.290354330708661
 31
0.0
  0
LINE
  5
26FF
330
1E
100
AcDbEntity
  8
3
100
AcDbLine
 10
8.43011811023622
 20
6.290354330708661
 30
0.0
 11
8.421259842519685
 21
6.283464566929133
 31
0.0
  0
LINE
  5
2700
330
1E
100
AcDbEntity
  8
3
100
AcDbLine
 10
8.472440944881888
 20
5.862204724409448
 30
0.0
 11
8.951771653543307
 21
5.862204724409448
 31
0.0
  0
LINE
  5
2701
330
1E
100
AcDbEntity
  8
3
100
AcDbLine
 10
8.951771653543307
 20
5.862204724409448
 30
0.0
 11
9.009842519685038
 21
5.862204724409448
 31
0.0
  0
LINE
  5
2702
330
1E
100
AcDbEntity
  8
3
100
AcDbLine
 10
9.002952755905511
 20
6.283464566929133
 30
0.0
 11
8.994094488188975
 21
6.290354330708661
 31
0.0
  0
LINE
  5
2703
330
1E
100
AcDbEntity
  8
3
100
AcDbLine
 10
8.994094488188975
 20
6.290354330708661
 30
0.0
 11
8.983267716535433
 21
6.293307086614173
 31
0.0
  0
LINE
  5
2704
330
1E
100
AcDbEntity
  8
3
100
AcDbLine
 10
9.002952755905511
 20
6.283464566929133
 30
0.0
 11
9.006889763779527
 21
6.275590551181101
 31
0.0
  0
LINE
  5
2705
330
1E
100
AcDbEntity
  8
3
100
AcDbLine
 10
9.006889763779527
 20
6.275590551181101
 30
0.0
 11
9.007874015748031
 21
6.268700787401574
 31
0.0
  0
LINE
  5
2706
330
1E
100
AcDbEntity
  8
3
100
AcDbLine
 10
9.007874015748031
 20
6.268700787401574
 30
0.0
 11
8.993110236220472
 21
7.126968503937007
 31
0.0
  0
LINE
  5
2707
330
1E
100
AcDbEntity
  8
3
100
AcDbLine
 10
8.993110236220472
 20
7.126968503937007
 30
0.0
 11
8.982283464566929
 21
7.136811023622047
 31
0.0
  0
LINE
  5
2708
330
1E
100
AcDbEntity
  8
3
100
AcDbLine
 10
8.813976377952755
 20
5.4753937007874
 30
0.0
 11
8.839566929133857
 21
5.4753937007874
 31
0.0
  0
LINE
  5
2709
330
1E
100
AcDbEntity
  8
3
100
AcDbLine
 10
8.839566929133857
 20
5.4753937007874
 30
0.0
 11
8.859251968503937
 21
5.4753937007874
 31
0.0
  0
LINE
  5
270A
330
1E
100
AcDbEntity
  8
3
100
AcDbLine
 10
8.859251968503937
 20
5.4753937007874
 30
0.0
 11
8.871062992125983
 21
5.4753937007874
 31
0.0
  0
LINE
  5
270B
330
1E
100
AcDbEntity
  8
3
100
AcDbLine
 10
8.871062992125983
 20
5.4753937007874
 30
0.0
 11
8.875
 21
5.4753937007874
 31
0.0
  0
LINE
  5
270C
330
1E
100
AcDbEntity
  8
3
100
AcDbLine
 10
8.548228346456692
 20
5.4753937007874
 30
0.0
 11
8.552165354330707
 21
5.4753937007874
 31
0.0
  0
LINE
  5
270D
330
1E
100
AcDbEntity
  8
3
100
AcDbLine
 10
8.552165354330707
 20
5.4753937007874
 30
0.0
 11
8.563976377952755
 21
5.4753937007874
 31
0.0
  0
LINE
  5
270E
330
1E
100
AcDbEntity
  8
3
100
AcDbLine
 10
8.563976377952755
 20
5.4753937007874
 30
0.0
 11
8.583661417322833
 21
5.4753937007874
 31
0.0
  0
LINE
  5
270F
330
1E
100
AcDbEntity
  8
3
100
AcDbLine
 10
8.583661417322833
 20
5.4753937007874
 30
0.0
 11
8.61023622047244
 21
5.4753937007874
 31
0.0
  0
LINE
  5
2710
330
1E
100
AcDbEntity
  8
3
100
AcDbLine
 10
8.61023622047244
 20
5.4753937007874
 30
0.0
 11
8.640748031496062
 21
5.4753937007874
 31
0.0
  0
LINE
  5
2711
330
1E
100
AcDbEntity
  8
3
100
AcDbLine
 10
8.640748031496062
 20
5.4753937007874
 30
0.0
 11
8.6751968503937
 21
5.4753937007874
 31
0.0
  0
LINE
  5
2712
330
1E
100
AcDbEntity
  8
3
100
AcDbLine
 10
8.6751968503937
 20
5.4753937007874
 30
0.0
 11
8.711614173228346
 21
5.4753937007874
 31
0.0
  0
LINE
  5
2713
330
1E
100
AcDbEntity
  8
3
100
AcDbLine
 10
8.711614173228346
 20
5.4753937007874
 30
0.0
 11
8.748031496062992
 21
5.4753937007874
 31
0.0
  0
LINE
  5
2714
330
1E
100
AcDbEntity
  8
3
100
AcDbLine
 10
8.748031496062992
 20
5.4753937007874
 30
0.0
 11
8.782480314960629
 21
5.4753937007874
 31
0.0
  0
LINE
  5
2715
330
1E
100
AcDbEntity
  8
3
100
AcDbLine
 10
8.782480314960629
 20
5.4753937007874
 30
0.0
 11
8.813976377952755
 21
5.4753937007874
 31
0.0
  0
LINE
  5
2716
330
1E
100
AcDbEntity
  8
3
100
AcDbLine
 10
8.85531496062992
 20
5.455708661417322
 30
0.0
 11
8.850393700787401
 21
5.455708661417322
 31
0.0
  0
LINE
  5
2717
330
1E
100
AcDbEntity
  8
3
100
AcDbLine
 10
8.850393700787401
 20
5.455708661417322
 30
0.0
 11
8.835629921259842
 21
5.455708661417322
 31
0.0
  0
LINE
  5
2718
330
1E
100
AcDbEntity
  8
3
100
AcDbLine
 10
8.835629921259842
 20
5.455708661417322
 30
0.0
 11
8.812992125984251
 21
5.455708661417322
 31
0.0
  0
LINE
  5
2719
330
1E
100
AcDbEntity
  8
3
100
AcDbLine
 10
8.812992125984251
 20
5.455708661417322
 30
0.0
 11
8.783464566929133
 21
5.455708661417322
 31
0.0
  0
LINE
  5
271A
330
1E
100
AcDbEntity
  8
3
100
AcDbLine
 10
8.783464566929133
 20
5.455708661417322
 30
0.0
 11
8.749015748031496
 21
5.455708661417322
 31
0.0
  0
LINE
  5
271B
330
1E
100
AcDbEntity
  8
3
100
AcDbLine
 10
8.749015748031496
 20
5.455708661417322
 30
0.0
 11
8.711614173228346
 21
5.455708661417322
 31
0.0
  0
LINE
  5
271C
330
1E
100
AcDbEntity
  8
3
100
AcDbLine
 10
8.711614173228346
 20
5.455708661417322
 30
0.0
 11
8.674212598425196
 21
5.455708661417322
 31
0.0
  0
LINE
  5
271D
330
1E
100
AcDbEntity
  8
3
100
AcDbLine
 10
8.674212598425196
 20
5.455708661417322
 30
0.0
 11
8.639763779527559
 21
5.455708661417322
 31
0.0
  0
LINE
  5
271E
330
1E
100
AcDbEntity
  8
3
100
AcDbLine
 10
8.639763779527559
 20
5.455708661417322
 30
0.0
 11
8.61023622047244
 21
5.455708661417322
 31
0.0
  0
LINE
  5
271F
330
1E
100
AcDbEntity
  8
3
100
AcDbLine
 10
8.61023622047244
 20
5.455708661417322
 30
0.0
 11
8.58759842519685
 21
5.455708661417322
 31
0.0
  0
LINE
  5
2720
330
1E
100
AcDbEntity
  8
3
100
AcDbLine
 10
8.58759842519685
 20
5.455708661417322
 30
0.0
 11
8.57283464566929
 21
5.455708661417322
 31
0.0
  0
LINE
  5
2721
330
1E
100
AcDbEntity
  8
3
100
AcDbLine
 10
8.57283464566929
 20
5.455708661417322
 30
0.0
 11
8.56791338582677
 21
5.455708661417322
 31
0.0
  0
LINE
  5
2722
330
1E
100
AcDbEntity
  8
3
100
AcDbLine
 10
8.83759842519685
 20
5.720472440944881
 30
0.0
 11
8.586614173228346
 21
5.720472440944881
 31
0.0
  0
LINE
  5
2723
330
1E
100
AcDbEntity
  8
3
100
AcDbLine
 10
8.586614173228346
 20
5.720472440944881
 30
0.0
 11
8.460629921259842
 21
5.720472440944881
 31
0.0
  0
LINE
  5
2724
330
1E
100
AcDbEntity
  8
3
100
AcDbLine
 10
8.813976377952755
 20
6.569881889763778
 30
0.0
 11
8.782480314960629
 21
6.569881889763778
 31
0.0
  0
LINE
  5
2725
330
1E
100
AcDbEntity
  8
3
100
AcDbLine
 10
8.782480314960629
 20
6.569881889763778
 30
0.0
 11
8.748031496062992
 21
6.569881889763778
 31
0.0
  0
LINE
  5
2726
330
1E
100
AcDbEntity
  8
3
100
AcDbLine
 10
8.748031496062992
 20
6.569881889763778
 30
0.0
 11
8.711614173228346
 21
6.569881889763778
 31
0.0
  0
LINE
  5
2727
330
1E
100
AcDbEntity
  8
3
100
AcDbLine
 10
8.875
 20
6.569881889763778
 30
0.0
 11
8.871062992125983
 21
6.569881889763778
 31
0.0
  0
LINE
  5
2728
330
1E
100
AcDbEntity
  8
3
100
AcDbLine
 10
8.871062992125983
 20
6.569881889763778
 30
0.0
 11
8.859251968503937
 21
6.569881889763778
 31
0.0
  0
LINE
  5
2729
330
1E
100
AcDbEntity
  8
3
100
AcDbLine
 10
8.859251968503937
 20
6.569881889763778
 30
0.0
 11
8.839566929133857
 21
6.569881889763778
 31
0.0
  0
LINE
  5
272A
330
1E
100
AcDbEntity
  8
3
100
AcDbLine
 10
8.839566929133857
 20
6.569881889763778
 30
0.0
 11
8.813976377952755
 21
6.569881889763778
 31
0.0
  0
LINE
  5
272B
330
1E
100
AcDbEntity
  8
3
100
AcDbLine
 10
8.711614173228346
 20
6.569881889763778
 30
0.0
 11
8.6751968503937
 21
6.569881889763778
 31
0.0
  0
LINE
  5
272C
330
1E
100
AcDbEntity
  8
3
100
AcDbLine
 10
8.6751968503937
 20
6.569881889763778
 30
0.0
 11
8.640748031496062
 21
6.569881889763778
 31
0.0
  0
LINE
  5
272D
330
1E
100
AcDbEntity
  8
3
100
AcDbLine
 10
8.640748031496062
 20
6.569881889763778
 30
0.0
 11
8.61023622047244
 21
6.569881889763778
 31
0.0
  0
LINE
  5
272E
330
1E
100
AcDbEntity
  8
3
100
AcDbLine
 10
8.61023622047244
 20
6.569881889763778
 30
0.0
 11
8.583661417322833
 21
6.569881889763778
 31
0.0
  0
LINE
  5
272F
330
1E
100
AcDbEntity
  8
3
100
AcDbLine
 10
8.583661417322833
 20
6.569881889763778
 30
0.0
 11
8.563976377952755
 21
6.569881889763778
 31
0.0
  0
LINE
  5
2730
330
1E
100
AcDbEntity
  8
3
100
AcDbLine
 10
8.563976377952755
 20
6.569881889763778
 30
0.0
 11
8.552165354330707
 21
6.569881889763778
 31
0.0
  0
LINE
  5
2731
330
1E
100
AcDbEntity
  8
3
100
AcDbLine
 10
8.552165354330707
 20
6.569881889763778
 30
0.0
 11
8.548228346456692
 21
6.569881889763778
 31
0.0
  0
LINE
  5
2732
330
1E
100
AcDbEntity
  8
3
100
AcDbLine
 10
8.56791338582677
 20
6.589566929133857
 30
0.0
 11
8.57283464566929
 21
6.589566929133857
 31
0.0
  0
LINE
  5
2733
330
1E
100
AcDbEntity
  8
3
100
AcDbLine
 10
8.57283464566929
 20
6.589566929133857
 30
0.0
 11
8.584645669291338
 21
6.589566929133857
 31
0.0
  0
LINE
  5
2734
330
1E
100
AcDbEntity
  8
3
100
AcDbLine
 10
8.584645669291338
 20
6.589566929133857
 30
0.0
 11
8.604330708661416
 21
6.589566929133857
 31
0.0
  0
LINE
  5
2735
330
1E
100
AcDbEntity
  8
3
100
AcDbLine
 10
8.604330708661416
 20
6.589566929133857
 30
0.0
 11
8.629921259842518
 21
6.589566929133857
 31
0.0
  0
LINE
  5
2736
330
1E
100
AcDbEntity
  8
3
100
AcDbLine
 10
8.629921259842518
 20
6.589566929133857
 30
0.0
 11
8.66043307086614
 21
6.589566929133857
 31
0.0
  0
LINE
  5
2737
330
1E
100
AcDbEntity
  8
3
100
AcDbLine
 10
8.66043307086614
 20
6.589566929133857
 30
0.0
 11
8.694881889763779
 21
6.589566929133857
 31
0.0
  0
LINE
  5
2738
330
1E
100
AcDbEntity
  8
3
100
AcDbLine
 10
8.694881889763779
 20
6.589566929133857
 30
0.0
 11
8.729330708661416
 21
6.589566929133857
 31
0.0
  0
LINE
  5
2739
330
1E
100
AcDbEntity
  8
3
100
AcDbLine
 10
8.729330708661416
 20
6.589566929133857
 30
0.0
 11
8.762795275590551
 21
6.589566929133857
 31
0.0
  0
LINE
  5
273A
330
1E
100
AcDbEntity
  8
3
100
AcDbLine
 10
8.762795275590551
 20
6.589566929133857
 30
0.0
 11
8.793307086614174
 21
6.589566929133857
 31
0.0
  0
LINE
  5
273B
330
1E
100
AcDbEntity
  8
3
100
AcDbLine
 10
8.793307086614174
 20
6.589566929133857
 30
0.0
 11
8.818897637795275
 21
6.589566929133857
 31
0.0
  0
LINE
  5
273C
330
1E
100
AcDbEntity
  8
3
100
AcDbLine
 10
8.818897637795275
 20
6.589566929133857
 30
0.0
 11
8.838582677165353
 21
6.589566929133857
 31
0.0
  0
LINE
  5
273D
330
1E
100
AcDbEntity
  8
3
100
AcDbLine
 10
8.838582677165353
 20
6.589566929133857
 30
0.0
 11
8.851377952755905
 21
6.589566929133857
 31
0.0
  0
LINE
  5
273E
330
1E
100
AcDbEntity
  8
3
100
AcDbLine
 10
8.85531496062992
 20
5.455708661417322
 30
0.0
 11
8.869094488188975
 21
5.461614173228346
 31
0.0
  0
LINE
  5
273F
330
1E
100
AcDbEntity
  8
3
100
AcDbLine
 10
8.869094488188975
 20
5.461614173228346
 30
0.0
 11
8.875
 21
5.4753937007874
 31
0.0
  0
LINE
  5
2740
330
1E
100
AcDbEntity
  8
3
100
AcDbLine
 10
8.875
 20
6.569881889763778
 30
0.0
 11
8.869094488188975
 21
6.583661417322834
 31
0.0
  0
LINE
  5
2741
330
1E
100
AcDbEntity
  8
3
100
AcDbLine
 10
8.869094488188975
 20
6.583661417322834
 30
0.0
 11
8.85531496062992
 21
6.589566929133857
 31
0.0
  0
LINE
  5
2742
330
1E
100
AcDbEntity
  8
3
100
AcDbLine
 10
8.56791338582677
 20
6.589566929133857
 30
0.0
 11
8.554133858267716
 21
6.583661417322834
 31
0.0
  0
LINE
  5
2743
330
1E
100
AcDbEntity
  8
3
100
AcDbLine
 10
8.554133858267716
 20
6.583661417322834
 30
0.0
 11
8.548228346456692
 21
6.569881889763778
 31
0.0
  0
ENDSEC
  0
SECTION
  2
OBJECTS
  0
DICTIONARY
  5
C
330
0
100
AcDbDictionary
  3
ACAD_GROUP
350
D
  3
ACAD_LAYOUT
350
19
  3
ACAD_MLINESTYLE
350
16
  3
ACAD_PLOTSETTINGS
350
18
1001
ACAD
1000
TREAT_AS_HARD
1070
     0
  0
DICTIONARY
  5
2B26
330
1E
100
AcDbDictionary
  3
ACAD_LAYOUTSELFREF
350
2B27
  0
DICTIONARY
  5
2B24
330
1A
100
AcDbDictionary
  3
ACAD_LAYOUTSELFREF
350
2B25
  0
DICTIONARY
  5
D
102
{ACAD_REACTORS
330
C
102
}
330
C
100
AcDbDictionary
1001
ACAD
1000
TREAT_AS_HARD
1070
     0
  0
DICTIONARY
  5
19
102
{ACAD_REACTORS
330
C
102
}
330
C
100
AcDbDictionary
1001
ACAD
1000
TREAT_AS_HARD
1070
     0
  0
DICTIONARY
  5
16
102
{ACAD_REACTORS
330
C
102
}
330
C
100
AcDbDictionary
  3
STANDARD
350
17
1001
ACAD
1000
TREAT_AS_HARD
1070
     0
  0
DICTIONARY
  5
18
102
{ACAD_REACTORS
330
C
102
}
330
C
100
AcDbDictionary
1001
ACAD
1000
TREAT_AS_HARD
1070
     0
  0
XRECORD
  5
2B27
102
{ACAD_REACTORS
330
2B26
102
}
330
2B26
100
AcDbXrecord
340
1E
  0
XRECORD
  5
2B25
102
{ACAD_REACTORS
330
2B24
102
}
330
2B24
100
AcDbXrecord
340
1A
  0
MLINESTYLE
  5
17
102
{ACAD_REACTORS
330
16
102
}
330
16
100
AcDbMlineStyle
  2
STANDARD
 70
     0
  3

 62
   256
 51
90.0
 52
90.0
 71
     2
 49
0.5
 62
   256
  6
BYLAYER
 49
-0.5
 62
   256
  6
BYLAYER
  0
ENDSEC
  0
EOF
