  0
SECTION
  2
HEADER
  9
$ACADVER
  1
AC1012
  9
$DWGCODEPAGE
  3
ANSI_1252
  9
$INSBASE
 10
0.0
 20
0.0
 30
0.0
  9
$EXTMIN
 10
2.361694366626551
 20
3.328582788501613
 30
-0.0015258207003583
  9
$EXTMAX
 10
5.904785177093913
 20
6.765243548626596
 30
0.0000000349246037
  9
$LIMMIN
 10
0.0
 20
0.0
  9
$LIMMAX
 10
12.0
 20
9.0
  9
$ORTHOMODE
 70
     0
  9
$REGENMODE
 70
     1
  9
$FILLMODE
 70
     1
  9
$QTEXTMODE
 70
     0
  9
$MIRRTEXT
 70
     1
  9
$DRAGMODE
 70
     2
  9
$LTSCALE
 40
1.0
  9
$OSMODE
 70
   547
  9
$ATTMODE
 70
     1
  9
$TEXTSIZE
 40
0.2
  9
$TRACEWID
 40
0.05
  9
$TEXTSTYLE
  7
STANDARD
  9
$CLAYER
  8
0
  9
$CELTYPE
  6
BYLAYER
  9
$CECOLOR
 62
   256
  9
$CELTSCALE
 40
1.0
  9
$DELOBJ
 70
     1
  9
$DISPSILH
 70
     0
  9
$DIMSCALE
 40
1.0
  9
$DIMASZ
 40
0.18
  9
$DIMEXO
 40
0.0625
  9
$DIMDLI
 40
0.38
  9
$DIMRND
 40
0.0
  9
$DIMDLE
 40
0.0
  9
$DIMEXE
 40
0.18
  9
$DIMTP
 40
0.0
  9
$DIMTM
 40
0.0
  9
$DIMTXT
 40
0.18
  9
$DIMCEN
 40
0.09
  9
$DIMTSZ
 40
0.0
  9
$DIMTOL
 70
     0
  9
$DIMLIM
 70
     0
  9
$DIMTIH
 70
     1
  9
$DIMTOH
 70
     1
  9
$DIMSE1
 70
     0
  9
$DIMSE2
 70
     0
  9
$DIMTAD
 70
     0
  9
$DIMZIN
 70
     0
  9
$DIMBLK
  1

  9
$DIMASO
 70
     1
  9
$DIMSHO
 70
     1
  9
$DIMPOST
  1

  9
$DIMAPOST
  1

  9
$DIMALT
 70
     0
  9
$DIMALTD
 70
     2
  9
$DIMALTF
 40
25.4
  9
$DIMLFAC
 40
1.0
  9
$DIMTOFL
 70
     0
  9
$DIMTVP
 40
0.0
  9
$DIMTIX
 70
     0
  9
$DIMSOXD
 70
     0
  9
$DIMSAH
 70
     0
  9
$DIMBLK1
  1

  9
$DIMBLK2
  1

  9
$DIMSTYLE
  2
STANDARD
  9
$DIMCLRD
 70
     0
  9
$DIMCLRE
 70
     0
  9
$DIMCLRT
 70
     0
  9
$DIMTFAC
 40
1.0
  9
$DIMGAP
 40
0.09
  9
$DIMJUST
 70
     0
  9
$DIMSD1
 70
     0
  9
$DIMSD2
 70
     0
  9
$DIMTOLJ
 70
     1
  9
$DIMTZIN
 70
     0
  9
$DIMALTZ
 70
     0
  9
$DIMALTTZ
 70
     0
  9
$DIMFIT
 70
     5
  9
$DIMUPT
 70
     0
  9
$DIMUNIT
 70
     2
  9
$DIMDEC
 70
     4
  9
$DIMTDEC
 70
     4
  9
$DIMALTU
 70
     2
  9
$DIMALTTD
 70
     2
  9
$DIMTXSTY
  7
STANDARD
  9
$DIMAUNIT
 70
     0
  9
$LUNITS
 70
     2
  9
$LUPREC
 70
     4
  9
$SKETCHINC
 40
0.1
  9
$FILLETRAD
 40
0.0
  9
$AUNITS
 70
     0
  9
$AUPREC
 70
     0
  9
$MENU
  1
acad
  9
$ELEVATION
 40
0.0
  9
$PELEVATION
 40
0.0
  9
$THICKNESS
 40
0.0
  9
$LIMCHECK
 70
     0
  9
$BLIPMODE
 70
     0
  9
$CHAMFERA
 40
0.0
  9
$CHAMFERB
 40
0.0
  9
$CHAMFERC
 40
0.0
  9
$CHAMFERD
 40
0.0
  9
$SKPOLY
 70
     0
  9
$TDCREATE
 40
2453955.593078703
  9
$TDUPDATE
 40
2453955.597940463
  9
$TDINDWG
 40
0.0008916435
  9
$TDUSRTIMER
 40
0.0008916435
  9
$USRTIMER
 70
     1
  9
$ANGBASE
 50
0.0
  9
$ANGDIR
 70
     0
  9
$PDMODE
 70
     0
  9
$PDSIZE
 40
0.0
  9
$PLINEWID
 40
0.0
  9
$COORDS
 70
     1
  9
$SPLFRAME
 70
     0
  9
$SPLINETYPE
 70
     6
  9
$SPLINESEGS
 70
     8
  9
$ATTDIA
 70
     0
  9
$ATTREQ
 70
     1
  9
$HANDLING
 70
  4097
  9
$HANDSEED
  5
46D3
  9
$SURFTAB1
 70
     6
  9
$SURFTAB2
 70
     6
  9
$SURFTYPE
 70
     6
  9
$SURFU
 70
     6
  9
$SURFV
 70
     6
  9
$UCSNAME
  2

  9
$UCSORG
 10
0.0
 20
0.0
 30
0.0
  9
$UCSXDIR
 10
1.0
 20
0.0
 30
0.0
  9
$UCSYDIR
 10
0.0
 20
1.0
 30
0.0
  9
$PUCSNAME
  2

  9
$PUCSORG
 10
0.0
 20
0.0
 30
0.0
  9
$PUCSXDIR
 10
1.0
 20
0.0
 30
0.0
  9
$PUCSYDIR
 10
0.0
 20
1.0
 30
0.0
  9
$USERI1
 70
     0
  9
$USERI2
 70
     0
  9
$USERI3
 70
     0
  9
$USERI4
 70
     0
  9
$USERI5
 70
     0
  9
$USERR1
 40
0.0
  9
$USERR2
 40
0.0
  9
$USERR3
 40
0.0
  9
$USERR4
 40
0.0
  9
$USERR5
 40
0.0
  9
$WORLDVIEW
 70
     1
  9
$SHADEDGE
 70
     3
  9
$SHADEDIF
 70
    70
  9
$TILEMODE
 70
     1
  9
$MAXACTVP
 70
    16
  9
$PINSBASE
 10
0.0
 20
0.0
 30
0.0
  9
$PLIMCHECK
 70
     0
  9
$PEXTMIN
 10
1.000000000000000E+20
 20
1.000000000000000E+20
 30
1.000000000000000E+20
  9
$PEXTMAX
 10
-1.000000000000000E+20
 20
-1.000000000000000E+20
 30
-1.000000000000000E+20
  9
$PLIMMIN
 10
0.0
 20
0.0
  9
$PLIMMAX
 10
12.0
 20
9.0
  9
$UNITMODE
 70
     0
  9
$VISRETAIN
 70
     0
  9
$PLINEGEN
 70
     0
  9
$PSLTSCALE
 70
     1
  9
$TREEDEPTH
 70
  3020
  9
$PICKSTYLE
 70
     1
  9
$CMLSTYLE
  2
STANDARD
  9
$CMLJUST
 70
     0
  9
$CMLSCALE
 40
1.0
  9
$SAVEIMAGES
 70
     1
  0
ENDSEC
  0
SECTION
  2
CLASSES
  0
CLASS
  1
ACDBDICTIONARYWDFLT
  2
AcDbDictionaryWithDefault
  3
AutoCAD 2000
 90
    32768
280
     0
281
     0
  0
CLASS
  1
ACDBPLACEHOLDER
  2
AcDbPlaceHolder
  3
AutoCAD 2000
 90
    32768
280
     0
281
     0
  0
CLASS
  1
LAYOUT
  2
AcDbLayout
  3
AutoCAD 2000
 90
    32768
280
     0
281
     0
  0
CLASS
  1
LONG_TRANSACTION
  2
AcDbLongTransaction
  3
AutoCAD 2000
 90
    32768
280
     0
281
     0
  0
CLASS
  1
LWPOLYLINE
  2
AcDbPolyline
  3
AutoCAD 2000
 90
    32768
280
     0
281
     1
  0
CLASS
  1
HATCH
  2
AcDbHatch
  3
AutoCAD 2000
 90
    32768
280
     0
281
     1
  0
CLASS
  1
XRECORD
  2
AcDbXrecord
  3
AutoCAD 2000
 90
    32768
280
     0
281
     0
  0
ENDSEC
  0
SECTION
  2
TABLES
  0
TABLE
  2
VPORT
  5
8
330
0
100
AcDbSymbolTable
 70
     3
  0
VPORT
  5
46CE
330
8
100
AcDbSymbolTableRecord
100
AcDbViewportTableRecord
  2
*ACTIVE
 70
     0
 10
0.0
 20
0.0
 11
1.0
 21
1.0
 12
4.133239771860232
 22
5.046913168564104
 13
0.0
 23
0.0
 14
1.0
 24
1.0
 15
0.0
 25
0.0
 16
0.0
 26
0.0
 36
1.0
 17
0.0
 27
0.0
 37
0.0
 40
3.472397267162678
 41
1.647569444444444
 42
50.0
 43
0.0
 44
0.0
 50
0.0
 51
0.0
 71
     0
 72
   100
 73
     1
 74
     1
 75
     0
 76
     0
 77
     0
 78
     0
  0
ENDTAB
  0
TABLE
  2
LTYPE
  5
5
330
0
100
AcDbSymbolTable
 70
    25
  0
LTYPE
  5
13
330
5
100
AcDbSymbolTableRecord
100
AcDbLinetypeTableRecord
  2
BYBLOCK
 70
     0
  3

 72
    65
 73
     0
 40
0.0
  0
LTYPE
  5
14
330
5
100
AcDbSymbolTableRecord
100
AcDbLinetypeTableRecord
  2
BYLAYER
 70
     0
  3

 72
    65
 73
     0
 40
0.0
  0
LTYPE
  5
15
330
5
100
AcDbSymbolTableRecord
100
AcDbLinetypeTableRecord
  2
CONTINUOUS
 70
     0
  3
Solid line
 72
    65
 73
     0
 40
0.0
  0
LTYPE
  5
22
330
5
100
AcDbSymbolTableRecord
100
AcDbLinetypeTableRecord
  2
BORDER
 70
     0
  3
__ __ . __ __ . __ __ . __ __ . __ __ . __ __ .
 72
    65
 73
     6
 40
1.75
 49
0.5
 74
     0
 49
-0.25
 74
     0
 49
0.5
 74
     0
 49
-0.25
 74
     0
 49
0.5
 74
     0
 49
-0.25
 74
     0
  0
LTYPE
  5
23
330
5
100
AcDbSymbolTableRecord
100
AcDbLinetypeTableRecord
  2
BORDER2
 70
     0
  3
__.__.__.__.__.__.__.__.
 72
    65
 73
     6
 40
0.875
 49
0.25
 74
     0
 49
-0.125
 74
     0
 49
0.25
 74
     0
 49
-0.125
 74
     0
 49
0.25
 74
     0
 49
-0.125
 74
     0
  0
LTYPE
  5
24
330
5
100
AcDbSymbolTableRecord
100
AcDbLinetypeTableRecord
  2
BORDERX2
 70
     0
  3
____  ____  .  
 72
    65
 73
     6
 40
3.5
 49
1.0
 74
     0
 49
-0.5
 74
     0
 49
1.0
 74
     0
 49
-0.5
 74
     0
 49
1.0
 74
     0
 49
-0.5
 74
     0
  0
LTYPE
  5
25
330
5
100
AcDbSymbolTableRecord
100
AcDbLinetypeTableRecord
  2
CENTER
 70
     0
  3
____ _ ____ _ ____ _ 
 72
    65
 73
     4
 40
2.0
 49
1.25
 74
     0
 49
-0.25
 74
     0
 49
0.25
 74
     0
 49
-0.25
 74
     0
  0
LTYPE
  5
26
330
5
100
AcDbSymbolTableRecord
100
AcDbLinetypeTableRecord
  2
CENTER2
 70
     0
  3
____ _ ____ _ ____ _ 
 72
    65
 73
     4
 40
1.125
 49
0.75
 74
     0
 49
-0.125
 74
     0
 49
0.125
 74
     0
 49
-0.125
 74
     0
  0
LTYPE
  5
27
330
5
100
AcDbSymbolTableRecord
100
AcDbLinetypeTableRecord
  2
CENTERX2
 70
     0
  3
________  __  
 72
    65
 73
     4
 40
4.0
 49
2.5
 74
     0
 49
-0.5
 74
     0
 49
0.5
 74
     0
 49
-0.5
 74
     0
  0
LTYPE
  5
28
330
5
100
AcDbSymbolTableRecord
100
AcDbLinetypeTableRecord
  2
DASHDOT
 70
     0
  3
__ . __ . __ . __ . 
 72
    65
 73
     4
 40
1.0
 49
0.5
 74
     0
 49
-0.25
 74
     0
 49
0.0
 74
     0
 49
-0.25
 74
     0
  0
LTYPE
  5
29
330
5
100
AcDbSymbolTableRecord
100
AcDbLinetypeTableRecord
  2
DASHDOT2
 70
     0
  3
_._._._._._._._._.
 72
    65
 73
     4
 40
0.5
 49
0.25
 74
     0
 49
-0.125
 74
     0
 49
0.0
 74
     0
 49
-0.125
 74
     0
  0
LTYPE
  5
2A
330
5
100
AcDbSymbolTableRecord
100
AcDbLinetypeTableRecord
  2
DASHDOTX2
 70
     0
  3
____  .  ____  .  
 72
    65
 73
     4
 40
2.0
 49
1.0
 74
     0
 49
-0.5
 74
     0
 49
0.0
 74
     0
 49
-0.5
 74
     0
  0
LTYPE
  5
2B
330
5
100
AcDbSymbolTableRecord
100
AcDbLinetypeTableRecord
  2
DASHED
 70
     0
  3
__ __ __ __ __ __ __ 
 72
    65
 73
     2
 40
0.75
 49
0.5
 74
     0
 49
-0.25
 74
     0
  0
LTYPE
  5
2C
330
5
100
AcDbSymbolTableRecord
100
AcDbLinetypeTableRecord
  2
DASHED2
 70
     0
  3
_ _ _ _ _ _ _ _ _ _ 
 72
    65
 73
     2
 40
0.375
 49
0.25
 74
     0
 49
-0.125
 74
     0
  0
LTYPE
  5
2D
330
5
100
AcDbSymbolTableRecord
100
AcDbLinetypeTableRecord
  2
DASHEDX2
 70
     0
  3
____  ____  ____  
 72
    65
 73
     2
 40
1.5
 49
1.0
 74
     0
 49
-0.5
 74
     0
  0
LTYPE
  5
2E
330
5
100
AcDbSymbolTableRecord
100
AcDbLinetypeTableRecord
  2
DIVIDE
 70
     0
  3
____ . . ____ . . 
 72
    65
 73
     6
 40
1.25
 49
0.5
 74
     0
 49
-0.25
 74
     0
 49
0.0
 74
     0
 49
-0.25
 74
     0
 49
0.0
 74
     0
 49
-0.25
 74
     0
  0
LTYPE
  5
2F
330
5
100
AcDbSymbolTableRecord
100
AcDbLinetypeTableRecord
  2
DIVIDE2
 70
     0
  3
__..__..__..__..__..
 72
    65
 73
     6
 40
0.625
 49
0.25
 74
     0
 49
-0.125
 74
     0
 49
0.0
 74
     0
 49
-0.125
 74
     0
 49
0.0
 74
     0
 49
-0.125
 74
     0
  0
LTYPE
  5
30
330
5
100
AcDbSymbolTableRecord
100
AcDbLinetypeTableRecord
  2
DIVIDEX2
 70
     0
  3
________  .  .  
 72
    65
 73
     6
 40
2.5
 49
1.0
 74
     0
 49
-0.5
 74
     0
 49
0.0
 74
     0
 49
-0.5
 74
     0
 49
0.0
 74
     0
 49
-0.5
 74
     0
  0
LTYPE
  5
31
330
5
100
AcDbSymbolTableRecord
100
AcDbLinetypeTableRecord
  2
DOT
 70
     0
  3
. . . . . . . . . 
 72
    65
 73
     2
 40
0.25
 49
0.0
 74
     0
 49
-0.25
 74
     0
  0
LTYPE
  5
32
330
5
100
AcDbSymbolTableRecord
100
AcDbLinetypeTableRecord
  2
DOT2
 70
     0
  3
..................
 72
    65
 73
     2
 40
0.125
 49
0.0
 74
     0
 49
-0.125
 74
     0
  0
LTYPE
  5
33
330
5
100
AcDbSymbolTableRecord
100
AcDbLinetypeTableRecord
  2
DOTX2
 70
     0
  3
.  .  .  .  .  .  
 72
    65
 73
     2
 40
0.5
 49
0.0
 74
     0
 49
-0.5
 74
     0
  0
LTYPE
  5
34
330
5
100
AcDbSymbolTableRecord
100
AcDbLinetypeTableRecord
  2
HIDDEN
 70
     0
  3
__ __ __ __ __ __ 
 72
    65
 73
     2
 40
0.375
 49
0.25
 74
     0
 49
-0.125
 74
     0
  0
LTYPE
  5
35
330
5
100
AcDbSymbolTableRecord
100
AcDbLinetypeTableRecord
  2
HIDDEN2
 70
     0
  3
_ _ _ _ _ _ _ _ _ 
 72
    65
 73
     2
 40
0.1875
 49
0.125
 74
     0
 49
-0.0625
 74
     0
  0
LTYPE
  5
36
330
5
100
AcDbSymbolTableRecord
100
AcDbLinetypeTableRecord
  2
HIDDENX2
 70
     0
  3
____ ____ ____ ____ 
 72
    65
 73
     2
 40
0.75
 49
0.5
 74
     0
 49
-0.25
 74
     0
  0
LTYPE
  5
37
330
5
100
AcDbSymbolTableRecord
100
AcDbLinetypeTableRecord
  2
PHANTOM
 70
     0
  3
______  __  __  
 72
    65
 73
     6
 40
2.5
 49
1.25
 74
     0
 49
-0.25
 74
     0
 49
0.25
 74
     0
 49
-0.25
 74
     0
 49
0.25
 74
     0
 49
-0.25
 74
     0
  0
LTYPE
  5
38
330
5
100
AcDbSymbolTableRecord
100
AcDbLinetypeTableRecord
  2
PHANTOM2
 70
     0
  3
___ _ _ ___ _ _ 
 72
    65
 73
     6
 40
1.25
 49
0.625
 74
     0
 49
-0.125
 74
     0
 49
0.125
 74
     0
 49
-0.125
 74
     0
 49
0.125
 74
     0
 49
-0.125
 74
     0
  0
LTYPE
  5
39
330
5
100
AcDbSymbolTableRecord
100
AcDbLinetypeTableRecord
  2
PHANTOMX2
 70
     0
  3
___ _ _ ___ _ _ 
 72
    65
 73
     6
 40
5.0
 49
2.5
 74
     0
 49
-0.5
 74
     0
 49
0.5
 74
     0
 49
-0.5
 74
     0
 49
0.5
 74
     0
 49
-0.5
 74
     0
  0
ENDTAB
  0
TABLE
  2
LAYER
  5
2
330
0
100
AcDbSymbolTable
 70
   256
  0
LAYER
  5
10
330
2
100
AcDbSymbolTableRecord
100
AcDbLayerTableRecord
  2
0
 70
     0
 62
     7
  6
CONTINUOUS
  0
LAYER
  5
3A
330
2
100
AcDbSymbolTableRecord
100
AcDbLayerTableRecord
  2
1
 70
     0
 62
     1
  6
CONTINUOUS
  0
LAYER
  5
3B
330
2
100
AcDbSymbolTableRecord
100
AcDbLayerTableRecord
  2
2
 70
     0
 62
     2
  6
CONTINUOUS
  0
LAYER
  5
3C
330
2
100
AcDbSymbolTableRecord
100
AcDbLayerTableRecord
  2
3
 70
     0
 62
     3
  6
CONTINUOUS
  0
LAYER
  5
3D
330
2
100
AcDbSymbolTableRecord
100
AcDbLayerTableRecord
  2
4
 70
     0
 62
     4
  6
CONTINUOUS
  0
LAYER
  5
3E
330
2
100
AcDbSymbolTableRecord
100
AcDbLayerTableRecord
  2
5
 70
     0
 62
     5
  6
CONTINUOUS
  0
LAYER
  5
3F
330
2
100
AcDbSymbolTableRecord
100
AcDbLayerTableRecord
  2
6
 70
     0
 62
     6
  6
CONTINUOUS
  0
LAYER
  5
40
330
2
100
AcDbSymbolTableRecord
100
AcDbLayerTableRecord
  2
7
 70
     0
 62
     7
  6
CONTINUOUS
  0
LAYER
  5
41
330
2
100
AcDbSymbolTableRecord
100
AcDbLayerTableRecord
  2
8
 70
     0
 62
     8
  6
CONTINUOUS
  0
LAYER
  5
42
330
2
100
AcDbSymbolTableRecord
100
AcDbLayerTableRecord
  2
9
 70
     0
 62
     9
  6
CONTINUOUS
  0
LAYER
  5
43
330
2
100
AcDbSymbolTableRecord
100
AcDbLayerTableRecord
  2
10
 70
     0
 62
    10
  6
CONTINUOUS
  0
LAYER
  5
44
330
2
100
AcDbSymbolTableRecord
100
AcDbLayerTableRecord
  2
11
 70
     0
 62
    11
  6
CONTINUOUS
  0
LAYER
  5
45
330
2
100
AcDbSymbolTableRecord
100
AcDbLayerTableRecord
  2
12
 70
     0
 62
    12
  6
CONTINUOUS
  0
LAYER
  5
46
330
2
100
AcDbSymbolTableRecord
100
AcDbLayerTableRecord
  2
13
 70
     0
 62
    13
  6
CONTINUOUS
  0
LAYER
  5
47
330
2
100
AcDbSymbolTableRecord
100
AcDbLayerTableRecord
  2
14
 70
     0
 62
    14
  6
CONTINUOUS
  0
LAYER
  5
48
330
2
100
AcDbSymbolTableRecord
100
AcDbLayerTableRecord
  2
15
 70
     0
 62
    15
  6
CONTINUOUS
  0
LAYER
  5
49
330
2
100
AcDbSymbolTableRecord
100
AcDbLayerTableRecord
  2
16
 70
     0
 62
    16
  6
CONTINUOUS
  0
LAYER
  5
4A
330
2
100
AcDbSymbolTableRecord
100
AcDbLayerTableRecord
  2
17
 70
     0
 62
    17
  6
CONTINUOUS
  0
LAYER
  5
4B
330
2
100
AcDbSymbolTableRecord
100
AcDbLayerTableRecord
  2
18
 70
     0
 62
    18
  6
CONTINUOUS
  0
LAYER
  5
4C
330
2
100
AcDbSymbolTableRecord
100
AcDbLayerTableRecord
  2
19
 70
     0
 62
    19
  6
CONTINUOUS
  0
LAYER
  5
4D
330
2
100
AcDbSymbolTableRecord
100
AcDbLayerTableRecord
  2
20
 70
     0
 62
    20
  6
CONTINUOUS
  0
LAYER
  5
4E
330
2
100
AcDbSymbolTableRecord
100
AcDbLayerTableRecord
  2
21
 70
     0
 62
    21
  6
CONTINUOUS
  0
LAYER
  5
4F
330
2
100
AcDbSymbolTableRecord
100
AcDbLayerTableRecord
  2
22
 70
     0
 62
    22
  6
CONTINUOUS
  0
LAYER
  5
50
330
2
100
AcDbSymbolTableRecord
100
AcDbLayerTableRecord
  2
23
 70
     0
 62
    23
  6
CONTINUOUS
  0
LAYER
  5
51
330
2
100
AcDbSymbolTableRecord
100
AcDbLayerTableRecord
  2
24
 70
     0
 62
    24
  6
CONTINUOUS
  0
LAYER
  5
52
330
2
100
AcDbSymbolTableRecord
100
AcDbLayerTableRecord
  2
25
 70
     0
 62
    25
  6
CONTINUOUS
  0
LAYER
  5
53
330
2
100
AcDbSymbolTableRecord
100
AcDbLayerTableRecord
  2
26
 70
     0
 62
    26
  6
CONTINUOUS
  0
LAYER
  5
54
330
2
100
AcDbSymbolTableRecord
100
AcDbLayerTableRecord
  2
27
 70
     0
 62
    27
  6
CONTINUOUS
  0
LAYER
  5
55
330
2
100
AcDbSymbolTableRecord
100
AcDbLayerTableRecord
  2
28
 70
     0
 62
    28
  6
CONTINUOUS
  0
LAYER
  5
56
330
2
100
AcDbSymbolTableRecord
100
AcDbLayerTableRecord
  2
29
 70
     0
 62
    29
  6
CONTINUOUS
  0
LAYER
  5
57
330
2
100
AcDbSymbolTableRecord
100
AcDbLayerTableRecord
  2
30
 70
     0
 62
    30
  6
CONTINUOUS
  0
LAYER
  5
58
330
2
100
AcDbSymbolTableRecord
100
AcDbLayerTableRecord
  2
31
 70
     0
 62
    31
  6
CONTINUOUS
  0
LAYER
  5
59
330
2
100
AcDbSymbolTableRecord
100
AcDbLayerTableRecord
  2
32
 70
     0
 62
    32
  6
CONTINUOUS
  0
LAYER
  5
5A
330
2
100
AcDbSymbolTableRecord
100
AcDbLayerTableRecord
  2
33
 70
     0
 62
    33
  6
CONTINUOUS
  0
LAYER
  5
5B
330
2
100
AcDbSymbolTableRecord
100
AcDbLayerTableRecord
  2
34
 70
     0
 62
    34
  6
CONTINUOUS
  0
LAYER
  5
5C
330
2
100
AcDbSymbolTableRecord
100
AcDbLayerTableRecord
  2
35
 70
     0
 62
    35
  6
CONTINUOUS
  0
LAYER
  5
5D
330
2
100
AcDbSymbolTableRecord
100
AcDbLayerTableRecord
  2
36
 70
     0
 62
    36
  6
CONTINUOUS
  0
LAYER
  5
5E
330
2
100
AcDbSymbolTableRecord
100
AcDbLayerTableRecord
  2
37
 70
     0
 62
    37
  6
CONTINUOUS
  0
LAYER
  5
5F
330
2
100
AcDbSymbolTableRecord
100
AcDbLayerTableRecord
  2
38
 70
     0
 62
    38
  6
CONTINUOUS
  0
LAYER
  5
60
330
2
100
AcDbSymbolTableRecord
100
AcDbLayerTableRecord
  2
39
 70
     0
 62
    39
  6
CONTINUOUS
  0
LAYER
  5
61
330
2
100
AcDbSymbolTableRecord
100
AcDbLayerTableRecord
  2
40
 70
     0
 62
    40
  6
CONTINUOUS
  0
LAYER
  5
62
330
2
100
AcDbSymbolTableRecord
100
AcDbLayerTableRecord
  2
41
 70
     0
 62
    41
  6
CONTINUOUS
  0
LAYER
  5
63
330
2
100
AcDbSymbolTableRecord
100
AcDbLayerTableRecord
  2
42
 70
     0
 62
    42
  6
CONTINUOUS
  0
LAYER
  5
64
330
2
100
AcDbSymbolTableRecord
100
AcDbLayerTableRecord
  2
43
 70
     0
 62
    43
  6
CONTINUOUS
  0
LAYER
  5
65
330
2
100
AcDbSymbolTableRecord
100
AcDbLayerTableRecord
  2
44
 70
     0
 62
    44
  6
CONTINUOUS
  0
LAYER
  5
66
330
2
100
AcDbSymbolTableRecord
100
AcDbLayerTableRecord
  2
45
 70
     0
 62
    45
  6
CONTINUOUS
  0
LAYER
  5
67
330
2
100
AcDbSymbolTableRecord
100
AcDbLayerTableRecord
  2
46
 70
     0
 62
    46
  6
CONTINUOUS
  0
LAYER
  5
68
330
2
100
AcDbSymbolTableRecord
100
AcDbLayerTableRecord
  2
47
 70
     0
 62
    47
  6
CONTINUOUS
  0
LAYER
  5
69
330
2
100
AcDbSymbolTableRecord
100
AcDbLayerTableRecord
  2
48
 70
     0
 62
    48
  6
CONTINUOUS
  0
LAYER
  5
6A
330
2
100
AcDbSymbolTableRecord
100
AcDbLayerTableRecord
  2
49
 70
     0
 62
    49
  6
CONTINUOUS
  0
LAYER
  5
6B
330
2
100
AcDbSymbolTableRecord
100
AcDbLayerTableRecord
  2
50
 70
     0
 62
    50
  6
CONTINUOUS
  0
LAYER
  5
6C
330
2
100
AcDbSymbolTableRecord
100
AcDbLayerTableRecord
  2
51
 70
     0
 62
    51
  6
CONTINUOUS
  0
LAYER
  5
6D
330
2
100
AcDbSymbolTableRecord
100
AcDbLayerTableRecord
  2
52
 70
     0
 62
    52
  6
CONTINUOUS
  0
LAYER
  5
6E
330
2
100
AcDbSymbolTableRecord
100
AcDbLayerTableRecord
  2
53
 70
     0
 62
    53
  6
CONTINUOUS
  0
LAYER
  5
6F
330
2
100
AcDbSymbolTableRecord
100
AcDbLayerTableRecord
  2
54
 70
     0
 62
    54
  6
CONTINUOUS
  0
LAYER
  5
70
330
2
100
AcDbSymbolTableRecord
100
AcDbLayerTableRecord
  2
55
 70
     0
 62
    55
  6
CONTINUOUS
  0
LAYER
  5
71
330
2
100
AcDbSymbolTableRecord
100
AcDbLayerTableRecord
  2
56
 70
     0
 62
    56
  6
CONTINUOUS
  0
LAYER
  5
72
330
2
100
AcDbSymbolTableRecord
100
AcDbLayerTableRecord
  2
57
 70
     0
 62
    57
  6
CONTINUOUS
  0
LAYER
  5
73
330
2
100
AcDbSymbolTableRecord
100
AcDbLayerTableRecord
  2
58
 70
     0
 62
    58
  6
CONTINUOUS
  0
LAYER
  5
74
330
2
100
AcDbSymbolTableRecord
100
AcDbLayerTableRecord
  2
59
 70
     0
 62
    59
  6
CONTINUOUS
  0
LAYER
  5
75
330
2
100
AcDbSymbolTableRecord
100
AcDbLayerTableRecord
  2
60
 70
     0
 62
    60
  6
CONTINUOUS
  0
LAYER
  5
76
330
2
100
AcDbSymbolTableRecord
100
AcDbLayerTableRecord
  2
61
 70
     0
 62
    61
  6
CONTINUOUS
  0
LAYER
  5
77
330
2
100
AcDbSymbolTableRecord
100
AcDbLayerTableRecord
  2
62
 70
     0
 62
    62
  6
CONTINUOUS
  0
LAYER
  5
78
330
2
100
AcDbSymbolTableRecord
100
AcDbLayerTableRecord
  2
63
 70
     0
 62
    63
  6
CONTINUOUS
  0
LAYER
  5
79
330
2
100
AcDbSymbolTableRecord
100
AcDbLayerTableRecord
  2
64
 70
     0
 62
    64
  6
CONTINUOUS
  0
LAYER
  5
7A
330
2
100
AcDbSymbolTableRecord
100
AcDbLayerTableRecord
  2
65
 70
     0
 62
    65
  6
CONTINUOUS
  0
LAYER
  5
7B
330
2
100
AcDbSymbolTableRecord
100
AcDbLayerTableRecord
  2
66
 70
     0
 62
    66
  6
CONTINUOUS
  0
LAYER
  5
7C
330
2
100
AcDbSymbolTableRecord
100
AcDbLayerTableRecord
  2
67
 70
     0
 62
    67
  6
CONTINUOUS
  0
LAYER
  5
7D
330
2
100
AcDbSymbolTableRecord
100
AcDbLayerTableRecord
  2
68
 70
     0
 62
    68
  6
CONTINUOUS
  0
LAYER
  5
7E
330
2
100
AcDbSymbolTableRecord
100
AcDbLayerTableRecord
  2
69
 70
     0
 62
    69
  6
CONTINUOUS
  0
LAYER
  5
7F
330
2
100
AcDbSymbolTableRecord
100
AcDbLayerTableRecord
  2
70
 70
     0
 62
    70
  6
CONTINUOUS
  0
LAYER
  5
80
330
2
100
AcDbSymbolTableRecord
100
AcDbLayerTableRecord
  2
71
 70
     0
 62
    71
  6
CONTINUOUS
  0
LAYER
  5
81
330
2
100
AcDbSymbolTableRecord
100
AcDbLayerTableRecord
  2
72
 70
     0
 62
    72
  6
CONTINUOUS
  0
LAYER
  5
82
330
2
100
AcDbSymbolTableRecord
100
AcDbLayerTableRecord
  2
73
 70
     0
 62
    73
  6
CONTINUOUS
  0
LAYER
  5
83
330
2
100
AcDbSymbolTableRecord
100
AcDbLayerTableRecord
  2
74
 70
     0
 62
    74
  6
CONTINUOUS
  0
LAYER
  5
84
330
2
100
AcDbSymbolTableRecord
100
AcDbLayerTableRecord
  2
75
 70
     0
 62
    75
  6
CONTINUOUS
  0
LAYER
  5
85
330
2
100
AcDbSymbolTableRecord
100
AcDbLayerTableRecord
  2
76
 70
     0
 62
    76
  6
CONTINUOUS
  0
LAYER
  5
86
330
2
100
AcDbSymbolTableRecord
100
AcDbLayerTableRecord
  2
77
 70
     0
 62
    77
  6
CONTINUOUS
  0
LAYER
  5
87
330
2
100
AcDbSymbolTableRecord
100
AcDbLayerTableRecord
  2
78
 70
     0
 62
    78
  6
CONTINUOUS
  0
LAYER
  5
88
330
2
100
AcDbSymbolTableRecord
100
AcDbLayerTableRecord
  2
79
 70
     0
 62
    79
  6
CONTINUOUS
  0
LAYER
  5
89
330
2
100
AcDbSymbolTableRecord
100
AcDbLayerTableRecord
  2
80
 70
     0
 62
    80
  6
CONTINUOUS
  0
LAYER
  5
8A
330
2
100
AcDbSymbolTableRecord
100
AcDbLayerTableRecord
  2
81
 70
     0
 62
    81
  6
CONTINUOUS
  0
LAYER
  5
8B
330
2
100
AcDbSymbolTableRecord
100
AcDbLayerTableRecord
  2
82
 70
     0
 62
    82
  6
CONTINUOUS
  0
LAYER
  5
8C
330
2
100
AcDbSymbolTableRecord
100
AcDbLayerTableRecord
  2
83
 70
     0
 62
    83
  6
CONTINUOUS
  0
LAYER
  5
8D
330
2
100
AcDbSymbolTableRecord
100
AcDbLayerTableRecord
  2
84
 70
     0
 62
    84
  6
CONTINUOUS
  0
LAYER
  5
8E
330
2
100
AcDbSymbolTableRecord
100
AcDbLayerTableRecord
  2
85
 70
     0
 62
    85
  6
CONTINUOUS
  0
LAYER
  5
8F
330
2
100
AcDbSymbolTableRecord
100
AcDbLayerTableRecord
  2
86
 70
     0
 62
    86
  6
CONTINUOUS
  0
LAYER
  5
90
330
2
100
AcDbSymbolTableRecord
100
AcDbLayerTableRecord
  2
87
 70
     0
 62
    87
  6
CONTINUOUS
  0
LAYER
  5
91
330
2
100
AcDbSymbolTableRecord
100
AcDbLayerTableRecord
  2
88
 70
     0
 62
    88
  6
CONTINUOUS
  0
LAYER
  5
92
330
2
100
AcDbSymbolTableRecord
100
AcDbLayerTableRecord
  2
89
 70
     0
 62
    89
  6
CONTINUOUS
  0
LAYER
  5
93
330
2
100
AcDbSymbolTableRecord
100
AcDbLayerTableRecord
  2
90
 70
     0
 62
    90
  6
CONTINUOUS
  0
LAYER
  5
94
330
2
100
AcDbSymbolTableRecord
100
AcDbLayerTableRecord
  2
91
 70
     0
 62
    91
  6
CONTINUOUS
  0
LAYER
  5
95
330
2
100
AcDbSymbolTableRecord
100
AcDbLayerTableRecord
  2
92
 70
     0
 62
    92
  6
CONTINUOUS
  0
LAYER
  5
96
330
2
100
AcDbSymbolTableRecord
100
AcDbLayerTableRecord
  2
93
 70
     0
 62
    93
  6
CONTINUOUS
  0
LAYER
  5
97
330
2
100
AcDbSymbolTableRecord
100
AcDbLayerTableRecord
  2
94
 70
     0
 62
    94
  6
CONTINUOUS
  0
LAYER
  5
98
330
2
100
AcDbSymbolTableRecord
100
AcDbLayerTableRecord
  2
95
 70
     0
 62
    95
  6
CONTINUOUS
  0
LAYER
  5
99
330
2
100
AcDbSymbolTableRecord
100
AcDbLayerTableRecord
  2
96
 70
     0
 62
    96
  6
CONTINUOUS
  0
LAYER
  5
9A
330
2
100
AcDbSymbolTableRecord
100
AcDbLayerTableRecord
  2
97
 70
     0
 62
    97
  6
CONTINUOUS
  0
LAYER
  5
9B
330
2
100
AcDbSymbolTableRecord
100
AcDbLayerTableRecord
  2
98
 70
     0
 62
    98
  6
CONTINUOUS
  0
LAYER
  5
9C
330
2
100
AcDbSymbolTableRecord
100
AcDbLayerTableRecord
  2
99
 70
     0
 62
    99
  6
CONTINUOUS
  0
LAYER
  5
9D
330
2
100
AcDbSymbolTableRecord
100
AcDbLayerTableRecord
  2
100
 70
     0
 62
   100
  6
CONTINUOUS
  0
LAYER
  5
9E
330
2
100
AcDbSymbolTableRecord
100
AcDbLayerTableRecord
  2
101
 70
     0
 62
   101
  6
CONTINUOUS
  0
LAYER
  5
9F
330
2
100
AcDbSymbolTableRecord
100
AcDbLayerTableRecord
  2
102
 70
     0
 62
   102
  6
CONTINUOUS
  0
LAYER
  5
A0
330
2
100
AcDbSymbolTableRecord
100
AcDbLayerTableRecord
  2
103
 70
     0
 62
   103
  6
CONTINUOUS
  0
LAYER
  5
A1
330
2
100
AcDbSymbolTableRecord
100
AcDbLayerTableRecord
  2
104
 70
     0
 62
   104
  6
CONTINUOUS
  0
LAYER
  5
A2
330
2
100
AcDbSymbolTableRecord
100
AcDbLayerTableRecord
  2
105
 70
     0
 62
   105
  6
CONTINUOUS
  0
LAYER
  5
A3
330
2
100
AcDbSymbolTableRecord
100
AcDbLayerTableRecord
  2
106
 70
     0
 62
   106
  6
CONTINUOUS
  0
LAYER
  5
A4
330
2
100
AcDbSymbolTableRecord
100
AcDbLayerTableRecord
  2
107
 70
     0
 62
   107
  6
CONTINUOUS
  0
LAYER
  5
A5
330
2
100
AcDbSymbolTableRecord
100
AcDbLayerTableRecord
  2
108
 70
     0
 62
   108
  6
CONTINUOUS
  0
LAYER
  5
A6
330
2
100
AcDbSymbolTableRecord
100
AcDbLayerTableRecord
  2
109
 70
     0
 62
   109
  6
CONTINUOUS
  0
LAYER
  5
A7
330
2
100
AcDbSymbolTableRecord
100
AcDbLayerTableRecord
  2
110
 70
     0
 62
   110
  6
CONTINUOUS
  0
LAYER
  5
A8
330
2
100
AcDbSymbolTableRecord
100
AcDbLayerTableRecord
  2
111
 70
     0
 62
   111
  6
CONTINUOUS
  0
LAYER
  5
A9
330
2
100
AcDbSymbolTableRecord
100
AcDbLayerTableRecord
  2
112
 70
     0
 62
   112
  6
CONTINUOUS
  0
LAYER
  5
AA
330
2
100
AcDbSymbolTableRecord
100
AcDbLayerTableRecord
  2
113
 70
     0
 62
   113
  6
CONTINUOUS
  0
LAYER
  5
AB
330
2
100
AcDbSymbolTableRecord
100
AcDbLayerTableRecord
  2
114
 70
     0
 62
   114
  6
CONTINUOUS
  0
LAYER
  5
AC
330
2
100
AcDbSymbolTableRecord
100
AcDbLayerTableRecord
  2
115
 70
     0
 62
   115
  6
CONTINUOUS
  0
LAYER
  5
AD
330
2
100
AcDbSymbolTableRecord
100
AcDbLayerTableRecord
  2
116
 70
     0
 62
   116
  6
CONTINUOUS
  0
LAYER
  5
AE
330
2
100
AcDbSymbolTableRecord
100
AcDbLayerTableRecord
  2
117
 70
     0
 62
   117
  6
CONTINUOUS
  0
LAYER
  5
AF
330
2
100
AcDbSymbolTableRecord
100
AcDbLayerTableRecord
  2
118
 70
     0
 62
   118
  6
CONTINUOUS
  0
LAYER
  5
B0
330
2
100
AcDbSymbolTableRecord
100
AcDbLayerTableRecord
  2
119
 70
     0
 62
   119
  6
CONTINUOUS
  0
LAYER
  5
B1
330
2
100
AcDbSymbolTableRecord
100
AcDbLayerTableRecord
  2
120
 70
     0
 62
   120
  6
CONTINUOUS
  0
LAYER
  5
B2
330
2
100
AcDbSymbolTableRecord
100
AcDbLayerTableRecord
  2
121
 70
     0
 62
   121
  6
CONTINUOUS
  0
LAYER
  5
B3
330
2
100
AcDbSymbolTableRecord
100
AcDbLayerTableRecord
  2
122
 70
     0
 62
   122
  6
CONTINUOUS
  0
LAYER
  5
B4
330
2
100
AcDbSymbolTableRecord
100
AcDbLayerTableRecord
  2
123
 70
     0
 62
   123
  6
CONTINUOUS
  0
LAYER
  5
B5
330
2
100
AcDbSymbolTableRecord
100
AcDbLayerTableRecord
  2
124
 70
     0
 62
   124
  6
CONTINUOUS
  0
LAYER
  5
B6
330
2
100
AcDbSymbolTableRecord
100
AcDbLayerTableRecord
  2
125
 70
     0
 62
   125
  6
CONTINUOUS
  0
LAYER
  5
B7
330
2
100
AcDbSymbolTableRecord
100
AcDbLayerTableRecord
  2
126
 70
     0
 62
   126
  6
CONTINUOUS
  0
LAYER
  5
B8
330
2
100
AcDbSymbolTableRecord
100
AcDbLayerTableRecord
  2
127
 70
     0
 62
   127
  6
CONTINUOUS
  0
LAYER
  5
B9
330
2
100
AcDbSymbolTableRecord
100
AcDbLayerTableRecord
  2
128
 70
     0
 62
   128
  6
CONTINUOUS
  0
LAYER
  5
BA
330
2
100
AcDbSymbolTableRecord
100
AcDbLayerTableRecord
  2
129
 70
     0
 62
   129
  6
CONTINUOUS
  0
LAYER
  5
BB
330
2
100
AcDbSymbolTableRecord
100
AcDbLayerTableRecord
  2
130
 70
     0
 62
   130
  6
CONTINUOUS
  0
LAYER
  5
BC
330
2
100
AcDbSymbolTableRecord
100
AcDbLayerTableRecord
  2
131
 70
     0
 62
   131
  6
CONTINUOUS
  0
LAYER
  5
BD
330
2
100
AcDbSymbolTableRecord
100
AcDbLayerTableRecord
  2
132
 70
     0
 62
   132
  6
CONTINUOUS
  0
LAYER
  5
BE
330
2
100
AcDbSymbolTableRecord
100
AcDbLayerTableRecord
  2
133
 70
     0
 62
   133
  6
CONTINUOUS
  0
LAYER
  5
BF
330
2
100
AcDbSymbolTableRecord
100
AcDbLayerTableRecord
  2
134
 70
     0
 62
   134
  6
CONTINUOUS
  0
LAYER
  5
C0
330
2
100
AcDbSymbolTableRecord
100
AcDbLayerTableRecord
  2
135
 70
     0
 62
   135
  6
CONTINUOUS
  0
LAYER
  5
C1
330
2
100
AcDbSymbolTableRecord
100
AcDbLayerTableRecord
  2
136
 70
     0
 62
   136
  6
CONTINUOUS
  0
LAYER
  5
C2
330
2
100
AcDbSymbolTableRecord
100
AcDbLayerTableRecord
  2
137
 70
     0
 62
   137
  6
CONTINUOUS
  0
LAYER
  5
C3
330
2
100
AcDbSymbolTableRecord
100
AcDbLayerTableRecord
  2
138
 70
     0
 62
   138
  6
CONTINUOUS
  0
LAYER
  5
C4
330
2
100
AcDbSymbolTableRecord
100
AcDbLayerTableRecord
  2
139
 70
     0
 62
   139
  6
CONTINUOUS
  0
LAYER
  5
C5
330
2
100
AcDbSymbolTableRecord
100
AcDbLayerTableRecord
  2
140
 70
     0
 62
   140
  6
CONTINUOUS
  0
LAYER
  5
C6
330
2
100
AcDbSymbolTableRecord
100
AcDbLayerTableRecord
  2
141
 70
     0
 62
   141
  6
CONTINUOUS
  0
LAYER
  5
C7
330
2
100
AcDbSymbolTableRecord
100
AcDbLayerTableRecord
  2
142
 70
     0
 62
   142
  6
CONTINUOUS
  0
LAYER
  5
C8
330
2
100
AcDbSymbolTableRecord
100
AcDbLayerTableRecord
  2
143
 70
     0
 62
   143
  6
CONTINUOUS
  0
LAYER
  5
C9
330
2
100
AcDbSymbolTableRecord
100
AcDbLayerTableRecord
  2
144
 70
     0
 62
   144
  6
CONTINUOUS
  0
LAYER
  5
CA
330
2
100
AcDbSymbolTableRecord
100
AcDbLayerTableRecord
  2
145
 70
     0
 62
   145
  6
CONTINUOUS
  0
LAYER
  5
CB
330
2
100
AcDbSymbolTableRecord
100
AcDbLayerTableRecord
  2
146
 70
     0
 62
   146
  6
CONTINUOUS
  0
LAYER
  5
CC
330
2
100
AcDbSymbolTableRecord
100
AcDbLayerTableRecord
  2
147
 70
     0
 62
   147
  6
CONTINUOUS
  0
LAYER
  5
CD
330
2
100
AcDbSymbolTableRecord
100
AcDbLayerTableRecord
  2
148
 70
     0
 62
   148
  6
CONTINUOUS
  0
LAYER
  5
CE
330
2
100
AcDbSymbolTableRecord
100
AcDbLayerTableRecord
  2
149
 70
     0
 62
   149
  6
CONTINUOUS
  0
LAYER
  5
CF
330
2
100
AcDbSymbolTableRecord
100
AcDbLayerTableRecord
  2
150
 70
     0
 62
   150
  6
CONTINUOUS
  0
LAYER
  5
D0
330
2
100
AcDbSymbolTableRecord
100
AcDbLayerTableRecord
  2
151
 70
     0
 62
   151
  6
CONTINUOUS
  0
LAYER
  5
D1
330
2
100
AcDbSymbolTableRecord
100
AcDbLayerTableRecord
  2
152
 70
     0
 62
   152
  6
CONTINUOUS
  0
LAYER
  5
D2
330
2
100
AcDbSymbolTableRecord
100
AcDbLayerTableRecord
  2
153
 70
     0
 62
   153
  6
CONTINUOUS
  0
LAYER
  5
D3
330
2
100
AcDbSymbolTableRecord
100
AcDbLayerTableRecord
  2
154
 70
     0
 62
   154
  6
CONTINUOUS
  0
LAYER
  5
D4
330
2
100
AcDbSymbolTableRecord
100
AcDbLayerTableRecord
  2
155
 70
     0
 62
   155
  6
CONTINUOUS
  0
LAYER
  5
D5
330
2
100
AcDbSymbolTableRecord
100
AcDbLayerTableRecord
  2
156
 70
     0
 62
   156
  6
CONTINUOUS
  0
LAYER
  5
D6
330
2
100
AcDbSymbolTableRecord
100
AcDbLayerTableRecord
  2
157
 70
     0
 62
   157
  6
CONTINUOUS
  0
LAYER
  5
D7
330
2
100
AcDbSymbolTableRecord
100
AcDbLayerTableRecord
  2
158
 70
     0
 62
   158
  6
CONTINUOUS
  0
LAYER
  5
D8
330
2
100
AcDbSymbolTableRecord
100
AcDbLayerTableRecord
  2
159
 70
     0
 62
   159
  6
CONTINUOUS
  0
LAYER
  5
D9
330
2
100
AcDbSymbolTableRecord
100
AcDbLayerTableRecord
  2
160
 70
     0
 62
   160
  6
CONTINUOUS
  0
LAYER
  5
DA
330
2
100
AcDbSymbolTableRecord
100
AcDbLayerTableRecord
  2
161
 70
     0
 62
   161
  6
CONTINUOUS
  0
LAYER
  5
DB
330
2
100
AcDbSymbolTableRecord
100
AcDbLayerTableRecord
  2
162
 70
     0
 62
   162
  6
CONTINUOUS
  0
LAYER
  5
DC
330
2
100
AcDbSymbolTableRecord
100
AcDbLayerTableRecord
  2
163
 70
     0
 62
   163
  6
CONTINUOUS
  0
LAYER
  5
DD
330
2
100
AcDbSymbolTableRecord
100
AcDbLayerTableRecord
  2
164
 70
     0
 62
   164
  6
CONTINUOUS
  0
LAYER
  5
DE
330
2
100
AcDbSymbolTableRecord
100
AcDbLayerTableRecord
  2
165
 70
     0
 62
   165
  6
CONTINUOUS
  0
LAYER
  5
DF
330
2
100
AcDbSymbolTableRecord
100
AcDbLayerTableRecord
  2
166
 70
     0
 62
   166
  6
CONTINUOUS
  0
LAYER
  5
E0
330
2
100
AcDbSymbolTableRecord
100
AcDbLayerTableRecord
  2
167
 70
     0
 62
   167
  6
CONTINUOUS
  0
LAYER
  5
E1
330
2
100
AcDbSymbolTableRecord
100
AcDbLayerTableRecord
  2
168
 70
     0
 62
   168
  6
CONTINUOUS
  0
LAYER
  5
E2
330
2
100
AcDbSymbolTableRecord
100
AcDbLayerTableRecord
  2
169
 70
     0
 62
   169
  6
CONTINUOUS
  0
LAYER
  5
E3
330
2
100
AcDbSymbolTableRecord
100
AcDbLayerTableRecord
  2
170
 70
     0
 62
   170
  6
CONTINUOUS
  0
LAYER
  5
E4
330
2
100
AcDbSymbolTableRecord
100
AcDbLayerTableRecord
  2
171
 70
     0
 62
   171
  6
CONTINUOUS
  0
LAYER
  5
E5
330
2
100
AcDbSymbolTableRecord
100
AcDbLayerTableRecord
  2
172
 70
     0
 62
   172
  6
CONTINUOUS
  0
LAYER
  5
E6
330
2
100
AcDbSymbolTableRecord
100
AcDbLayerTableRecord
  2
173
 70
     0
 62
   173
  6
CONTINUOUS
  0
LAYER
  5
E7
330
2
100
AcDbSymbolTableRecord
100
AcDbLayerTableRecord
  2
174
 70
     0
 62
   174
  6
CONTINUOUS
  0
LAYER
  5
E8
330
2
100
AcDbSymbolTableRecord
100
AcDbLayerTableRecord
  2
175
 70
     0
 62
   175
  6
CONTINUOUS
  0
LAYER
  5
E9
330
2
100
AcDbSymbolTableRecord
100
AcDbLayerTableRecord
  2
176
 70
     0
 62
   176
  6
CONTINUOUS
  0
LAYER
  5
EA
330
2
100
AcDbSymbolTableRecord
100
AcDbLayerTableRecord
  2
177
 70
     0
 62
   177
  6
CONTINUOUS
  0
LAYER
  5
EB
330
2
100
AcDbSymbolTableRecord
100
AcDbLayerTableRecord
  2
178
 70
     0
 62
   178
  6
CONTINUOUS
  0
LAYER
  5
EC
330
2
100
AcDbSymbolTableRecord
100
AcDbLayerTableRecord
  2
179
 70
     0
 62
   179
  6
CONTINUOUS
  0
LAYER
  5
ED
330
2
100
AcDbSymbolTableRecord
100
AcDbLayerTableRecord
  2
180
 70
     0
 62
   180
  6
CONTINUOUS
  0
LAYER
  5
EE
330
2
100
AcDbSymbolTableRecord
100
AcDbLayerTableRecord
  2
181
 70
     0
 62
   181
  6
CONTINUOUS
  0
LAYER
  5
EF
330
2
100
AcDbSymbolTableRecord
100
AcDbLayerTableRecord
  2
182
 70
     0
 62
   182
  6
CONTINUOUS
  0
LAYER
  5
F0
330
2
100
AcDbSymbolTableRecord
100
AcDbLayerTableRecord
  2
183
 70
     0
 62
   183
  6
CONTINUOUS
  0
LAYER
  5
F1
330
2
100
AcDbSymbolTableRecord
100
AcDbLayerTableRecord
  2
184
 70
     0
 62
   184
  6
CONTINUOUS
  0
LAYER
  5
F2
330
2
100
AcDbSymbolTableRecord
100
AcDbLayerTableRecord
  2
185
 70
     0
 62
   185
  6
CONTINUOUS
  0
LAYER
  5
F3
330
2
100
AcDbSymbolTableRecord
100
AcDbLayerTableRecord
  2
186
 70
     0
 62
   186
  6
CONTINUOUS
  0
LAYER
  5
F4
330
2
100
AcDbSymbolTableRecord
100
AcDbLayerTableRecord
  2
187
 70
     0
 62
   187
  6
CONTINUOUS
  0
LAYER
  5
F5
330
2
100
AcDbSymbolTableRecord
100
AcDbLayerTableRecord
  2
188
 70
     0
 62
   188
  6
CONTINUOUS
  0
LAYER
  5
F6
330
2
100
AcDbSymbolTableRecord
100
AcDbLayerTableRecord
  2
189
 70
     0
 62
   189
  6
CONTINUOUS
  0
LAYER
  5
F7
330
2
100
AcDbSymbolTableRecord
100
AcDbLayerTableRecord
  2
190
 70
     0
 62
   190
  6
CONTINUOUS
  0
LAYER
  5
F8
330
2
100
AcDbSymbolTableRecord
100
AcDbLayerTableRecord
  2
191
 70
     0
 62
   191
  6
CONTINUOUS
  0
LAYER
  5
F9
330
2
100
AcDbSymbolTableRecord
100
AcDbLayerTableRecord
  2
192
 70
     0
 62
   192
  6
CONTINUOUS
  0
LAYER
  5
FA
330
2
100
AcDbSymbolTableRecord
100
AcDbLayerTableRecord
  2
193
 70
     0
 62
   193
  6
CONTINUOUS
  0
LAYER
  5
FB
330
2
100
AcDbSymbolTableRecord
100
AcDbLayerTableRecord
  2
194
 70
     0
 62
   194
  6
CONTINUOUS
  0
LAYER
  5
FC
330
2
100
AcDbSymbolTableRecord
100
AcDbLayerTableRecord
  2
195
 70
     0
 62
   195
  6
CONTINUOUS
  0
LAYER
  5
FD
330
2
100
AcDbSymbolTableRecord
100
AcDbLayerTableRecord
  2
196
 70
     0
 62
   196
  6
CONTINUOUS
  0
LAYER
  5
FE
330
2
100
AcDbSymbolTableRecord
100
AcDbLayerTableRecord
  2
197
 70
     0
 62
   197
  6
CONTINUOUS
  0
LAYER
  5
FF
330
2
100
AcDbSymbolTableRecord
100
AcDbLayerTableRecord
  2
198
 70
     0
 62
   198
  6
CONTINUOUS
  0
LAYER
  5
100
330
2
100
AcDbSymbolTableRecord
100
AcDbLayerTableRecord
  2
199
 70
     0
 62
   199
  6
CONTINUOUS
  0
LAYER
  5
101
330
2
100
AcDbSymbolTableRecord
100
AcDbLayerTableRecord
  2
200
 70
     0
 62
   200
  6
CONTINUOUS
  0
LAYER
  5
102
330
2
100
AcDbSymbolTableRecord
100
AcDbLayerTableRecord
  2
201
 70
     0
 62
   201
  6
CONTINUOUS
  0
LAYER
  5
103
330
2
100
AcDbSymbolTableRecord
100
AcDbLayerTableRecord
  2
202
 70
     0
 62
   202
  6
CONTINUOUS
  0
LAYER
  5
104
330
2
100
AcDbSymbolTableRecord
100
AcDbLayerTableRecord
  2
203
 70
     0
 62
   203
  6
CONTINUOUS
  0
LAYER
  5
105
330
2
100
AcDbSymbolTableRecord
100
AcDbLayerTableRecord
  2
204
 70
     0
 62
   204
  6
CONTINUOUS
  0
LAYER
  5
106
330
2
100
AcDbSymbolTableRecord
100
AcDbLayerTableRecord
  2
205
 70
     0
 62
   205
  6
CONTINUOUS
  0
LAYER
  5
107
330
2
100
AcDbSymbolTableRecord
100
AcDbLayerTableRecord
  2
206
 70
     0
 62
   206
  6
CONTINUOUS
  0
LAYER
  5
108
330
2
100
AcDbSymbolTableRecord
100
AcDbLayerTableRecord
  2
207
 70
     0
 62
   207
  6
CONTINUOUS
  0
LAYER
  5
109
330
2
100
AcDbSymbolTableRecord
100
AcDbLayerTableRecord
  2
208
 70
     0
 62
   208
  6
CONTINUOUS
  0
LAYER
  5
10A
330
2
100
AcDbSymbolTableRecord
100
AcDbLayerTableRecord
  2
209
 70
     0
 62
   209
  6
CONTINUOUS
  0
LAYER
  5
10B
330
2
100
AcDbSymbolTableRecord
100
AcDbLayerTableRecord
  2
210
 70
     0
 62
   210
  6
CONTINUOUS
  0
LAYER
  5
10C
330
2
100
AcDbSymbolTableRecord
100
AcDbLayerTableRecord
  2
211
 70
     0
 62
   211
  6
CONTINUOUS
  0
LAYER
  5
10D
330
2
100
AcDbSymbolTableRecord
100
AcDbLayerTableRecord
  2
212
 70
     0
 62
   212
  6
CONTINUOUS
  0
LAYER
  5
10E
330
2
100
AcDbSymbolTableRecord
100
AcDbLayerTableRecord
  2
213
 70
     0
 62
   213
  6
CONTINUOUS
  0
LAYER
  5
10F
330
2
100
AcDbSymbolTableRecord
100
AcDbLayerTableRecord
  2
214
 70
     0
 62
   214
  6
CONTINUOUS
  0
LAYER
  5
110
330
2
100
AcDbSymbolTableRecord
100
AcDbLayerTableRecord
  2
215
 70
     0
 62
   215
  6
CONTINUOUS
  0
LAYER
  5
111
330
2
100
AcDbSymbolTableRecord
100
AcDbLayerTableRecord
  2
216
 70
     0
 62
   216
  6
CONTINUOUS
  0
LAYER
  5
112
330
2
100
AcDbSymbolTableRecord
100
AcDbLayerTableRecord
  2
217
 70
     0
 62
   217
  6
CONTINUOUS
  0
LAYER
  5
113
330
2
100
AcDbSymbolTableRecord
100
AcDbLayerTableRecord
  2
218
 70
     0
 62
   218
  6
CONTINUOUS
  0
LAYER
  5
114
330
2
100
AcDbSymbolTableRecord
100
AcDbLayerTableRecord
  2
219
 70
     0
 62
   219
  6
CONTINUOUS
  0
LAYER
  5
115
330
2
100
AcDbSymbolTableRecord
100
AcDbLayerTableRecord
  2
220
 70
     0
 62
   220
  6
CONTINUOUS
  0
LAYER
  5
116
330
2
100
AcDbSymbolTableRecord
100
AcDbLayerTableRecord
  2
221
 70
     0
 62
   221
  6
CONTINUOUS
  0
LAYER
  5
117
330
2
100
AcDbSymbolTableRecord
100
AcDbLayerTableRecord
  2
222
 70
     0
 62
   222
  6
CONTINUOUS
  0
LAYER
  5
118
330
2
100
AcDbSymbolTableRecord
100
AcDbLayerTableRecord
  2
223
 70
     0
 62
   223
  6
CONTINUOUS
  0
LAYER
  5
119
330
2
100
AcDbSymbolTableRecord
100
AcDbLayerTableRecord
  2
224
 70
     0
 62
   224
  6
CONTINUOUS
  0
LAYER
  5
11A
330
2
100
AcDbSymbolTableRecord
100
AcDbLayerTableRecord
  2
225
 70
     0
 62
   225
  6
CONTINUOUS
  0
LAYER
  5
11B
330
2
100
AcDbSymbolTableRecord
100
AcDbLayerTableRecord
  2
226
 70
     0
 62
   226
  6
CONTINUOUS
  0
LAYER
  5
11C
330
2
100
AcDbSymbolTableRecord
100
AcDbLayerTableRecord
  2
227
 70
     0
 62
   227
  6
CONTINUOUS
  0
LAYER
  5
11D
330
2
100
AcDbSymbolTableRecord
100
AcDbLayerTableRecord
  2
228
 70
     0
 62
   228
  6
CONTINUOUS
  0
LAYER
  5
11E
330
2
100
AcDbSymbolTableRecord
100
AcDbLayerTableRecord
  2
229
 70
     0
 62
   229
  6
CONTINUOUS
  0
LAYER
  5
11F
330
2
100
AcDbSymbolTableRecord
100
AcDbLayerTableRecord
  2
230
 70
     0
 62
   230
  6
CONTINUOUS
  0
LAYER
  5
120
330
2
100
AcDbSymbolTableRecord
100
AcDbLayerTableRecord
  2
231
 70
     0
 62
   231
  6
CONTINUOUS
  0
LAYER
  5
121
330
2
100
AcDbSymbolTableRecord
100
AcDbLayerTableRecord
  2
232
 70
     0
 62
   232
  6
CONTINUOUS
  0
LAYER
  5
122
330
2
100
AcDbSymbolTableRecord
100
AcDbLayerTableRecord
  2
233
 70
     0
 62
   233
  6
CONTINUOUS
  0
LAYER
  5
123
330
2
100
AcDbSymbolTableRecord
100
AcDbLayerTableRecord
  2
234
 70
     0
 62
   234
  6
CONTINUOUS
  0
LAYER
  5
124
330
2
100
AcDbSymbolTableRecord
100
AcDbLayerTableRecord
  2
235
 70
     0
 62
   235
  6
CONTINUOUS
  0
LAYER
  5
125
330
2
100
AcDbSymbolTableRecord
100
AcDbLayerTableRecord
  2
236
 70
     0
 62
   236
  6
CONTINUOUS
  0
LAYER
  5
126
330
2
100
AcDbSymbolTableRecord
100
AcDbLayerTableRecord
  2
237
 70
     0
 62
   237
  6
CONTINUOUS
  0
LAYER
  5
127
330
2
100
AcDbSymbolTableRecord
100
AcDbLayerTableRecord
  2
238
 70
     0
 62
   238
  6
CONTINUOUS
  0
LAYER
  5
128
330
2
100
AcDbSymbolTableRecord
100
AcDbLayerTableRecord
  2
239
 70
     0
 62
   239
  6
CONTINUOUS
  0
LAYER
  5
129
330
2
100
AcDbSymbolTableRecord
100
AcDbLayerTableRecord
  2
240
 70
     0
 62
   240
  6
CONTINUOUS
  0
LAYER
  5
12A
330
2
100
AcDbSymbolTableRecord
100
AcDbLayerTableRecord
  2
241
 70
     0
 62
   241
  6
CONTINUOUS
  0
LAYER
  5
12B
330
2
100
AcDbSymbolTableRecord
100
AcDbLayerTableRecord
  2
242
 70
     0
 62
   242
  6
CONTINUOUS
  0
LAYER
  5
12C
330
2
100
AcDbSymbolTableRecord
100
AcDbLayerTableRecord
  2
243
 70
     0
 62
   243
  6
CONTINUOUS
  0
LAYER
  5
12D
330
2
100
AcDbSymbolTableRecord
100
AcDbLayerTableRecord
  2
244
 70
     0
 62
   244
  6
CONTINUOUS
  0
LAYER
  5
12E
330
2
100
AcDbSymbolTableRecord
100
AcDbLayerTableRecord
  2
245
 70
     0
 62
   245
  6
CONTINUOUS
  0
LAYER
  5
12F
330
2
100
AcDbSymbolTableRecord
100
AcDbLayerTableRecord
  2
246
 70
     0
 62
   246
  6
CONTINUOUS
  0
LAYER
  5
130
330
2
100
AcDbSymbolTableRecord
100
AcDbLayerTableRecord
  2
247
 70
     0
 62
   247
  6
CONTINUOUS
  0
LAYER
  5
131
330
2
100
AcDbSymbolTableRecord
100
AcDbLayerTableRecord
  2
248
 70
     0
 62
   248
  6
CONTINUOUS
  0
LAYER
  5
132
330
2
100
AcDbSymbolTableRecord
100
AcDbLayerTableRecord
  2
249
 70
     0
 62
   249
  6
CONTINUOUS
  0
LAYER
  5
133
330
2
100
AcDbSymbolTableRecord
100
AcDbLayerTableRecord
  2
250
 70
     0
 62
   250
  6
CONTINUOUS
  0
LAYER
  5
134
330
2
100
AcDbSymbolTableRecord
100
AcDbLayerTableRecord
  2
251
 70
     0
 62
   251
  6
CONTINUOUS
  0
LAYER
  5
135
330
2
100
AcDbSymbolTableRecord
100
AcDbLayerTableRecord
  2
252
 70
     0
 62
   252
  6
CONTINUOUS
  0
LAYER
  5
136
330
2
100
AcDbSymbolTableRecord
100
AcDbLayerTableRecord
  2
253
 70
     0
 62
   253
  6
CONTINUOUS
  0
LAYER
  5
137
330
2
100
AcDbSymbolTableRecord
100
AcDbLayerTableRecord
  2
254
 70
     0
 62
   254
  6
CONTINUOUS
  0
LAYER
  5
138
330
2
100
AcDbSymbolTableRecord
100
AcDbLayerTableRecord
  2
255
 70
     0
 62
   255
  6
CONTINUOUS
  0
ENDTAB
  0
TABLE
  2
STYLE
  5
3
330
0
100
AcDbSymbolTable
 70
     1
  0
STYLE
  5
11
330
3
100
AcDbSymbolTableRecord
100
AcDbTextStyleTableRecord
  2
STANDARD
 70
     0
 40
0.0
 41
1.0
 50
0.0
 71
     0
 42
0.2
  3
txt
  4

  0
ENDTAB
  0
TABLE
  2
VIEW
  5
6
330
0
100
AcDbSymbolTable
 70
     0
  0
ENDTAB
  0
TABLE
  2
UCS
  5
7
330
0
100
AcDbSymbolTable
 70
     0
  0
ENDTAB
  0
TABLE
  2
APPID
  5
9
330
0
100
AcDbSymbolTable
 70
     1
  0
APPID
  5
12
330
9
100
AcDbSymbolTableRecord
100
AcDbRegAppTableRecord
  2
ACAD
 70
     0
  0
ENDTAB
  0
TABLE
  2
DIMSTYLE
  5
A
330
0
100
AcDbSymbolTable
 70
     1
  0
DIMSTYLE
105
3110
330
A
100
AcDbSymbolTableRecord
100
AcDbDimStyleTableRecord
  2
STANDARD
 70
     0
  3

  4

  5

  6

  7

 40
1.0
 41
0.18
 42
0.0625
 43
0.38
 44
0.18
 45
0.0
 46
0.0
 47
0.0
 48
0.0
140
0.18
141
0.09
142
0.0
143
25.4
144
1.0
145
0.0
146
1.0
147
0.09
 71
     0
 72
     0
 73
     1
 74
     1
 75
     0
 76
     0
 77
     0
 78
     0
170
     0
171
     2
172
     0
173
     0
174
     0
175
     0
176
     0
177
     0
178
     0
270
     2
271
     4
272
     4
273
     2
274
     2
340
11
275
     0
280
     0
281
     0
282
     0
283
     1
284
     0
285
     0
286
     0
287
     3
288
     0
  0
ENDTAB
  0
TABLE
  2
BLOCK_RECORD
  5
1
330
0
100
AcDbSymbolTable
 70
     0
  0
BLOCK_RECORD
  5
1E
102
{ACAD_XDICTIONARY
360
46D1
102
}
330
1
100
AcDbSymbolTableRecord
100
AcDbBlockTableRecord
  2
*MODEL_SPACE
  0
BLOCK_RECORD
  5
1A
102
{ACAD_XDICTIONARY
360
46CF
102
}
330
1
100
AcDbSymbolTableRecord
100
AcDbBlockTableRecord
  2
*PAPER_SPACE
  0
ENDTAB
  0
ENDSEC
  0
SECTION
  2
BLOCKS
  0
BLOCK
  5
13B
330
1E
100
AcDbEntity
  8
0
100
AcDbBlockBegin
  2
*MODEL_SPACE
 70
     0
 10
0.0
 20
0.0
 30
0.0
  3
*MODEL_SPACE
  1

  0
ENDBLK
  5
13C
330
1E
100
AcDbEntity
  8
0
100
AcDbBlockEnd
  0
BLOCK
  5
139
330
1A
100
AcDbEntity
 67
     1
  8
0
100
AcDbBlockBegin
  2
*PAPER_SPACE
 70
     0
 10
0.0
 20
0.0
 30
0.0
  3
*PAPER_SPACE
  1

  0
ENDBLK
  5
13A
330
1A
100
AcDbEntity
 67
     1
  8
0
100
AcDbBlockEnd
  0
ENDSEC
  0
SECTION
  2
ENTITIES
  0
LINE
  5
21EB
330
1E
100
AcDbEntity
  8
0
100
AcDbLine
 10
4.001968503937007
 20
5.935039370078739
 30
0.0
 11
4.001968503937007
 21
5.941929133858267
 31
0.0
  0
LINE
  5
21EC
330
1E
100
AcDbEntity
  8
0
100
AcDbLine
 10
3.926181102362204
 20
6.000984251968503
 30
0.0
 11
3.206692913385826
 21
6.000984251968503
 31
0.0
  0
LINE
  5
21ED
330
1E
100
AcDbEntity
  8
0
100
AcDbLine
 10
3.875
 20
5.875984251968503
 30
0.0
 11
3.926181102362204
 21
5.875984251968503
 31
0.0
  0
LINE
  5
21EE
330
1E
100
AcDbEntity
  8
0
100
AcDbLine
 10
3.269685039370078
 20
5.554133858267716
 30
0.0
 11
3.319881889763779
 21
5.554133858267716
 31
0.0
  0
LINE
  5
21EF
330
1E
100
AcDbEntity
  8
0
100
AcDbLine
 10
3.795275590551181
 20
5.554133858267716
 30
0.0
 11
3.824803149606299
 21
5.554133858267716
 31
0.0
  0
LINE
  5
21F0
330
1E
100
AcDbEntity
  8
0
100
AcDbLine
 10
3.856299212598425
 20
5.638779527559054
 30
0.0
 11
3.845472440944881
 21
5.638779527559054
 31
0.0
  0
LINE
  5
21F1
330
1E
100
AcDbEntity
  8
0
100
AcDbLine
 10
3.838582677165354
 20
5.559055118110236
 30
0.0
 11
3.859251968503937
 21
5.559055118110236
 31
0.0
  0
LINE
  5
21F2
330
1E
100
AcDbEntity
  8
0
100
AcDbLine
 10
3.319881889763779
 20
5.560039370078739
 30
0.0
 11
3.795275590551181
 21
5.560039370078739
 31
0.0
  0
LINE
  5
21F3
330
1E
100
AcDbEntity
  8
0
100
AcDbLine
 10
2.362204724409448
 20
5.941929133858267
 30
0.0
 11
2.362204724409448
 21
5.935039370078739
 31
0.0
  0
LINE
  5
21F4
330
1E
100
AcDbEntity
  8
0
100
AcDbLine
 10
3.15748031496063
 20
6.000984251968503
 30
0.0
 11
2.437992125984251
 21
6.000984251968503
 31
0.0
  0
LINE
  5
21F5
330
1E
100
AcDbEntity
  8
0
100
AcDbLine
 10
2.437992125984251
 20
5.875984251968503
 30
0.0
 11
2.489173228346456
 21
5.875984251968503
 31
0.0
  0
LINE
  5
21F6
330
1E
100
AcDbEntity
  8
0
100
AcDbLine
 10
3.044291338582677
 20
5.554133858267716
 30
0.0
 11
3.094488188976377
 21
5.554133858267716
 31
0.0
  0
LINE
  5
21F7
330
1E
100
AcDbEntity
  8
0
100
AcDbLine
 10
2.539370078740157
 20
5.554133858267716
 30
0.0
 11
2.568897637795275
 21
5.554133858267716
 31
0.0
  0
LINE
  5
21F8
330
1E
100
AcDbEntity
  8
0
100
AcDbLine
 10
2.518700787401574
 20
5.638779527559054
 30
0.0
 11
2.507874015748031
 21
5.638779527559054
 31
0.0
  0
LINE
  5
21F9
330
1E
100
AcDbEntity
  8
0
100
AcDbLine
 10
2.504921259842519
 20
5.559055118110236
 30
0.0
 11
2.525590551181102
 21
5.559055118110236
 31
0.0
  0
LINE
  5
21FA
330
1E
100
AcDbEntity
  8
0
100
AcDbLine
 10
2.568897637795275
 20
5.560039370078739
 30
0.0
 11
3.044291338582677
 21
5.560039370078739
 31
0.0
  0
LINE
  5
21FB
330
1E
100
AcDbEntity
  8
0
100
AcDbLine
 10
3.853346456692913
 20
5.655511811023622
 30
0.0
 11
3.855314960629921
 21
5.655511811023622
 31
0.0
  0
LINE
  5
21FC
330
1E
100
AcDbEntity
  8
0
100
AcDbLine
 10
3.845472440944881
 20
5.659448818897637
 30
0.0
 11
3.854330708661417
 21
5.659448818897637
 31
0.0
  0
LINE
  5
21FD
330
1E
100
AcDbEntity
  8
0
100
AcDbLine
 10
2.509842519685039
 20
5.659448818897637
 30
0.0
 11
2.518700787401574
 21
5.659448818897637
 31
0.0
  0
LINE
  5
2259
330
1E
100
AcDbEntity
  8
0
100
AcDbLine
 10
2.504921259842519
 20
5.554133858267716
 30
0.0
 11
2.505905511811023
 21
5.559055118110236
 31
0.0
  0
LINE
  5
229D
330
1E
100
AcDbEntity
  8
0
100
AcDbLine
 10
2.504921259842519
 20
5.551181102362204
 30
0.0
 11
2.504921259842519
 21
5.552165354330708
 31
0.0
  0
LINE
  5
229E
330
1E
100
AcDbEntity
  8
0
100
AcDbLine
 10
2.504921259842519
 20
5.5501968503937
 30
0.0
 11
2.504921259842519
 21
5.551181102362204
 31
0.0
  0
LINE
  5
22B7
330
1E
100
AcDbEntity
  8
0
100
AcDbLine
 10
3.269685039370078
 20
5.614173228346456
 30
0.0
 11
3.269685039370078
 21
5.614173228346456
 31
0.0
  0
LINE
  5
22C2
330
1E
100
AcDbEntity
  8
0
100
AcDbLine
 10
3.845472440944881
 20
5.786417322834645
 30
0.0
 11
3.845472440944881
 21
5.779527559055117
 31
0.0
  0
LINE
  5
22C3
330
1E
100
AcDbEntity
  8
0
100
AcDbLine
 10
3.834645669291338
 20
5.834645669291338
 30
0.0
 11
3.834645669291338
 21
5.773622047244094
 31
0.0
  0
LINE
  5
22C9
330
1E
100
AcDbEntity
  8
0
100
AcDbLine
 10
3.845472440944881
 20
5.86023622047244
 30
0.0
 11
3.845472440944881
 21
5.853346456692912
 31
0.0
  0
LINE
  5
22DA
330
1E
100
AcDbEntity
  8
0
100
AcDbLine
 10
3.843503937007874
 20
5.566929133858267
 30
0.0
 11
3.841535433070866
 21
5.562007874015748
 31
0.0
  0
LINE
  5
2304
330
1E
100
AcDbEntity
  8
0
100
AcDbLine
 10
3.795275590551181
 20
5.599409448818897
 30
0.0
 11
3.824803149606299
 21
5.599409448818897
 31
0.0
  0
LINE
  5
2305
330
1E
100
AcDbEntity
  8
0
100
AcDbLine
 10
3.795275590551181
 20
5.614173228346456
 30
0.0
 11
3.824803149606299
 21
5.614173228346456
 31
0.0
  0
LINE
  5
2306
330
1E
100
AcDbEntity
  8
0
100
AcDbLine
 10
3.845472440944881
 20
5.779527559055117
 30
0.0
 11
3.845472440944881
 21
5.628937007874015
 31
0.0
  0
LINE
  5
2307
330
1E
100
AcDbEntity
  8
0
100
AcDbLine
 10
3.843503937007874
 20
5.591535433070865
 30
0.0
 11
3.858267716535432
 21
5.591535433070865
 31
0.0
  0
LINE
  5
2308
330
1E
100
AcDbEntity
  8
0
100
AcDbLine
 10
3.843503937007874
 20
5.566929133858267
 30
0.0
 11
3.859251968503937
 21
5.566929133858267
 31
0.0
  0
LINE
  5
2314
330
1E
100
AcDbEntity
  8
0
100
AcDbLine
 10
3.319881889763779
 20
5.599409448818897
 30
0.0
 11
3.269685039370078
 21
5.599409448818897
 31
0.0
  0
LINE
  5
231A
330
1E
100
AcDbEntity
  8
0
100
AcDbLine
 10
3.319881889763779
 20
5.614173228346456
 30
0.0
 11
3.269685039370078
 21
5.614173228346456
 31
0.0
  0
LINE
  5
231B
330
1E
100
AcDbEntity
  8
0
100
AcDbLine
 10
3.795275590551181
 20
5.566929133858267
 30
0.0
 11
3.319881889763779
 21
5.566929133858267
 31
0.0
  0
LINE
  5
231C
330
1E
100
AcDbEntity
  8
0
100
AcDbLine
 10
3.824803149606299
 20
5.614173228346456
 30
0.0
 11
3.824803149606299
 21
5.846456692913386
 31
0.0
  0
LINE
  5
2323
330
1E
100
AcDbEntity
  8
0
100
AcDbLine
 10
3.875
 20
5.881889763779527
 30
0.0
 11
3.926181102362204
 21
5.881889763779527
 31
0.0
  0
LINE
  5
232F
330
1E
100
AcDbEntity
  8
0
100
AcDbLine
 10
3.926181102362204
 20
5.959645669291338
 30
0.0
 11
3.206692913385826
 21
5.959645669291338
 31
0.0
  0
LINE
  5
2330
330
1E
100
AcDbEntity
  8
0
100
AcDbLine
 10
3.206692913385826
 20
5.959645669291338
 30
0.0
 11
3.206692913385826
 21
5.62007874015748
 31
0.0
  0
LINE
  5
2331
330
1E
100
AcDbEntity
  8
0
100
AcDbLine
 10
3.206692913385826
 20
5.62007874015748
 30
0.0
 11
3.261811023622047
 21
5.62007874015748
 31
0.0
  0
LINE
  5
2348
330
1E
100
AcDbEntity
  8
0
100
AcDbLine
 10
3.926181102362204
 20
5.99507874015748
 30
0.0
 11
3.206692913385826
 21
5.99507874015748
 31
0.0
  0
LINE
  5
2353
330
1E
100
AcDbEntity
  8
0
100
AcDbLine
 10
3.187007874015748
 20
5.633858267716535
 30
0.0
 11
3.187007874015748
 21
5.973425196850393
 31
0.0
  0
LINE
  5
2368
330
1E
100
AcDbEntity
  8
0
100
AcDbLine
 10
3.206692913385826
 20
5.988188976377952
 30
0.0
 11
3.926181102362204
 21
5.988188976377952
 31
0.0
  0
LINE
  5
237F
330
1E
100
AcDbEntity
  8
0
100
AcDbLine
 10
3.187007874015748
 20
5.973425196850393
 30
0.0
 11
3.187007874015748
 21
5.980314960629921
 31
0.0
  0
LINE
  5
2380
330
1E
100
AcDbEntity
  8
0
100
AcDbLine
 10
3.206692913385826
 20
5.99507874015748
 30
0.0
 11
3.206692913385826
 21
5.988188976377952
 31
0.0
  0
LINE
  5
2381
330
1E
100
AcDbEntity
  8
0
100
AcDbLine
 10
3.926181102362204
 20
5.988188976377952
 30
0.0
 11
3.926181102362204
 21
5.99507874015748
 31
0.0
  0
LINE
  5
2382
330
1E
100
AcDbEntity
  8
0
100
AcDbLine
 10
3.094488188976377
 20
5.614173228346456
 30
0.0
 11
3.094488188976377
 21
5.614173228346456
 31
0.0
  0
LINE
  5
2392
330
1E
100
AcDbEntity
  8
0
100
AcDbLine
 10
2.518700787401574
 20
5.779527559055117
 30
0.0
 11
2.518700787401574
 21
5.786417322834645
 31
0.0
  0
LINE
  5
2393
330
1E
100
AcDbEntity
  8
0
100
AcDbLine
 10
2.529527559055118
 20
5.774606299212598
 30
0.0
 11
2.529527559055118
 21
5.834645669291338
 31
0.0
  0
LINE
  5
2399
330
1E
100
AcDbEntity
  8
0
100
AcDbLine
 10
2.518700787401574
 20
5.853346456692912
 30
0.0
 11
2.518700787401574
 21
5.86023622047244
 31
0.0
  0
LINE
  5
23D9
330
1E
100
AcDbEntity
  8
0
100
AcDbLine
 10
2.568897637795275
 20
5.614173228346456
 30
0.0
 11
2.539370078740157
 21
5.614173228346456
 31
0.0
  0
LINE
  5
23DA
330
1E
100
AcDbEntity
  8
0
100
AcDbLine
 10
2.568897637795275
 20
5.600393700787401
 30
0.0
 11
2.539370078740157
 21
5.600393700787401
 31
0.0
  0
LINE
  5
23DB
330
1E
100
AcDbEntity
  8
0
100
AcDbLine
 10
2.518700787401574
 20
5.628937007874015
 30
0.0
 11
2.518700787401574
 21
5.779527559055117
 31
0.0
  0
LINE
  5
23DC
330
1E
100
AcDbEntity
  8
0
100
AcDbLine
 10
2.505905511811023
 20
5.591535433070865
 30
0.0
 11
2.520669291338582
 21
5.591535433070865
 31
0.0
  0
LINE
  5
23DD
330
1E
100
AcDbEntity
  8
0
100
AcDbLine
 10
2.504921259842519
 20
5.566929133858267
 30
0.0
 11
2.520669291338582
 21
5.566929133858267
 31
0.0
  0
LINE
  5
23E4
330
1E
100
AcDbEntity
  8
0
100
AcDbLine
 10
3.044291338582677
 20
5.600393700787401
 30
0.0
 11
3.094488188976377
 21
5.600393700787401
 31
0.0
  0
LINE
  5
23EA
330
1E
100
AcDbEntity
  8
0
100
AcDbLine
 10
3.044291338582677
 20
5.614173228346456
 30
0.0
 11
3.094488188976377
 21
5.614173228346456
 31
0.0
  0
LINE
  5
23F0
330
1E
100
AcDbEntity
  8
0
100
AcDbLine
 10
3.15748031496063
 20
5.62007874015748
 30
0.0
 11
3.102362204724409
 21
5.62007874015748
 31
0.0
  0
LINE
  5
23F1
330
1E
100
AcDbEntity
  8
0
100
AcDbLine
 10
3.15748031496063
 20
5.62007874015748
 30
0.0
 11
3.15748031496063
 21
5.959645669291338
 31
0.0
  0
LINE
  5
23F2
330
1E
100
AcDbEntity
  8
0
100
AcDbLine
 10
3.15748031496063
 20
5.959645669291338
 30
0.0
 11
2.437992125984251
 21
5.959645669291338
 31
0.0
  0
LINE
  5
23FE
330
1E
100
AcDbEntity
  8
0
100
AcDbLine
 10
2.437992125984251
 20
5.881889763779527
 30
0.0
 11
2.489173228346456
 21
5.881889763779527
 31
0.0
  0
LINE
  5
2405
330
1E
100
AcDbEntity
  8
0
100
AcDbLine
 10
2.539370078740157
 20
5.846456692913386
 30
0.0
 11
2.539370078740157
 21
5.614173228346456
 31
0.0
  0
LINE
  5
2406
330
1E
100
AcDbEntity
  8
0
100
AcDbLine
 10
2.568897637795275
 20
5.566929133858267
 30
0.0
 11
3.044291338582677
 21
5.566929133858267
 31
0.0
  0
LINE
  5
2427
330
1E
100
AcDbEntity
  8
0
100
AcDbLine
 10
2.437992125984251
 20
5.988188976377952
 30
0.0
 11
3.15748031496063
 21
5.988188976377952
 31
0.0
  0
LINE
  5
2437
330
1E
100
AcDbEntity
  8
0
100
AcDbLine
 10
3.177165354330708
 20
5.973425196850393
 30
0.0
 11
3.177165354330708
 21
5.633858267716535
 31
0.0
  0
LINE
  5
2447
330
1E
100
AcDbEntity
  8
0
100
AcDbLine
 10
3.15748031496063
 20
5.99507874015748
 30
0.0
 11
2.437992125984251
 21
5.99507874015748
 31
0.0
  0
LINE
  5
244F
330
1E
100
AcDbEntity
  8
0
100
AcDbLine
 10
3.177165354330708
 20
5.981299212598425
 30
0.0
 11
3.177165354330708
 21
5.973425196850393
 31
0.0
  0
LINE
  5
2450
330
1E
100
AcDbEntity
  8
0
100
AcDbLine
 10
3.15748031496063
 20
5.988188976377952
 30
0.0
 11
3.15748031496063
 21
5.99507874015748
 31
0.0
  0
LINE
  5
2451
330
1E
100
AcDbEntity
  8
0
100
AcDbLine
 10
2.437992125984251
 20
5.99507874015748
 30
0.0
 11
2.437992125984251
 21
5.988188976377952
 31
0.0
  0
LINE
  5
2452
330
1E
100
AcDbEntity
  8
0
100
AcDbLine
 10
3.956692913385826
 20
6.764763779527559
 30
0.0
 11
3.956692913385826
 21
6.602362204724409
 31
0.0
  0
LINE
  5
2453
330
1E
100
AcDbEntity
  8
0
100
AcDbLine
 10
3.956692913385826
 20
6.602362204724409
 30
0.0
 11
3.956692913385826
 21
6.380905511811023
 31
0.0
  0
LINE
  5
2454
330
1E
100
AcDbEntity
  8
0
100
AcDbLine
 10
2.40748031496063
 20
6.318897637795275
 30
0.0
 11
2.40748031496063
 21
6.263779527559054
 31
0.0
  0
LINE
  5
2455
330
1E
100
AcDbEntity
  8
0
100
AcDbLine
 10
2.40748031496063
 20
5.836614173228346
 30
0.0
 11
2.40748031496063
 21
5.43011811023622
 31
0.0
  0
LINE
  5
2456
330
1E
100
AcDbEntity
  8
0
100
AcDbLine
 10
3.869094488188976
 20
5.43011811023622
 30
0.0
 11
3.956692913385826
 21
5.43011811023622
 31
0.0
  0
LINE
  5
2457
330
1E
100
AcDbEntity
  8
0
100
AcDbLine
 10
3.869094488188976
 20
5.43011811023622
 30
0.0
 11
2.49507874015748
 21
5.43011811023622
 31
0.0
  0
LINE
  5
2458
330
1E
100
AcDbEntity
  8
0
100
AcDbLine
 10
2.40748031496063
 20
5.43011811023622
 30
0.0
 11
2.49507874015748
 21
5.43011811023622
 31
0.0
  0
LINE
  5
2459
330
1E
100
AcDbEntity
  8
0
100
AcDbLine
 10
2.561023622047243
 20
5.554133858267716
 30
0.0
 11
2.561023622047243
 21
5.5501968503937
 31
0.0
  0
LINE
  5
245A
330
1E
100
AcDbEntity
  8
0
100
AcDbLine
 10
2.561023622047243
 20
5.542322834645669
 30
0.0
 11
2.561023622047243
 21
5.5501968503937
 31
0.0
  0
LINE
  5
245B
330
1E
100
AcDbEntity
  8
0
100
AcDbLine
 10
2.561023622047243
 20
5.554133858267716
 30
0.0
 11
2.561023622047243
 21
5.542322834645669
 31
0.0
  0
LINE
  5
245C
330
1E
100
AcDbEntity
  8
0
100
AcDbLine
 10
3.803149606299212
 20
5.554133858267716
 30
0.0
 11
3.803149606299212
 21
5.542322834645669
 31
0.0
  0
LINE
  5
245D
330
1E
100
AcDbEntity
  8
0
100
AcDbLine
 10
3.803149606299212
 20
5.5501968503937
 30
0.0
 11
3.803149606299212
 21
5.542322834645669
 31
0.0
  0
LINE
  5
245E
330
1E
100
AcDbEntity
  8
0
100
AcDbLine
 10
3.803149606299212
 20
5.554133858267716
 30
0.0
 11
3.803149606299212
 21
5.5501968503937
 31
0.0
  0
LINE
  5
245F
330
1E
100
AcDbEntity
  8
0
100
AcDbLine
 10
3.963582677165354
 20
6.257874015748031
 30
0.0
 11
3.956692913385826
 21
6.263779527559054
 31
0.0
  0
LINE
  5
2460
330
1E
100
AcDbEntity
  8
0
100
AcDbLine
 10
3.963582677165354
 20
6.257874015748031
 30
0.0
 11
3.964566929133858
 21
6.250984251968503
 31
0.0
  0
LINE
  5
2461
330
1E
100
AcDbEntity
  8
0
100
AcDbLine
 10
3.964566929133858
 20
6.250984251968503
 30
0.0
 11
4.0
 21
6.250984251968503
 31
0.0
  0
LINE
  5
2462
330
1E
100
AcDbEntity
  8
0
100
AcDbLine
 10
2.399606299212598
 20
6.250984251968503
 30
0.0
 11
2.364173228346456
 21
6.250984251968503
 31
0.0
  0
LINE
  5
2463
330
1E
100
AcDbEntity
  8
0
100
AcDbLine
 10
2.400590551181102
 20
6.257874015748031
 30
0.0
 11
2.399606299212598
 21
6.250984251968503
 31
0.0
  0
LINE
  5
2464
330
1E
100
AcDbEntity
  8
0
100
AcDbLine
 10
2.40748031496063
 20
6.263779527559054
 30
0.0
 11
2.400590551181102
 21
6.257874015748031
 31
0.0
  0
LINE
  5
2465
330
1E
100
AcDbEntity
  8
0
100
AcDbLine
 10
2.40748031496063
 20
6.764763779527559
 30
0.0
 11
3.956692913385826
 21
6.764763779527559
 31
0.0
  0
LINE
  5
2466
330
1E
100
AcDbEntity
  8
0
100
AcDbLine
 10
2.40748031496063
 20
6.764763779527559
 30
0.0
 11
2.40748031496063
 21
6.602362204724409
 31
0.0
  0
LINE
  5
246E
330
1E
100
AcDbEntity
  8
0
100
AcDbLine
 10
3.912401574803149
 20
6.664370078740157
 30
0.0
 11
2.451771653543306
 21
6.664370078740157
 31
0.0
  0
LINE
  5
2476
330
1E
100
AcDbEntity
  8
0
100
AcDbLine
 10
2.40748031496063
 20
5.43011811023622
 30
0.0
 11
2.40748031496063
 21
5.431102362204724
 31
0.0
  0
LINE
  5
2477
330
1E
100
AcDbEntity
  8
0
100
AcDbLine
 10
2.40748031496063
 20
5.431102362204724
 30
0.0
 11
2.411417322834645
 21
5.544291338582676
 31
0.0
  0
LINE
  5
247D
330
1E
100
AcDbEntity
  8
0
100
AcDbLine
 10
2.412401574803149
 20
5.598425196850393
 30
0.0
 11
2.412401574803149
 21
5.699803149606299
 31
0.0
  0
LINE
  5
247E
330
1E
100
AcDbEntity
  8
0
100
AcDbLine
 10
2.412401574803149
 20
5.699803149606299
 30
0.0
 11
2.418307086614173
 21
5.877952755905512
 31
0.0
  0
LINE
  5
247F
330
1E
100
AcDbEntity
  8
0
100
AcDbLine
 10
2.422244094488188
 20
6.003937007874015
 30
0.0
 11
2.422244094488188
 21
5.999015748031496
 31
0.0
  0
LINE
  5
2480
330
1E
100
AcDbEntity
  8
0
100
AcDbLine
 10
2.423228346456693
 20
6.004921259842519
 30
0.0
 11
2.422244094488188
 21
6.003937007874015
 31
0.0
  0
LINE
  5
2481
330
1E
100
AcDbEntity
  8
0
100
AcDbLine
 10
2.423228346456693
 20
6.004921259842519
 30
0.0
 11
2.424212598425196
 21
6.044291338582676
 31
0.0
  0
LINE
  5
2489
330
1E
100
AcDbEntity
  8
0
100
AcDbLine
 10
2.424212598425196
 20
6.111220472440944
 30
0.0
 11
2.40748031496063
 21
6.602362204724409
 31
0.0
  0
LINE
  5
248A
330
1E
100
AcDbEntity
  8
0
100
AcDbLine
 10
2.40748031496063
 20
6.602362204724409
 30
0.0
 11
2.40748031496063
 21
6.380905511811023
 31
0.0
  0
LINE
  5
248B
330
1E
100
AcDbEntity
  8
0
100
AcDbLine
 10
2.40748031496063
 20
6.380905511811023
 30
0.0
 11
2.40748031496063
 21
6.318897637795275
 31
0.0
  0
LINE
  5
248C
330
1E
100
AcDbEntity
  8
0
100
AcDbLine
 10
2.400590551181102
 20
5.993110236220472
 30
0.0
 11
2.400590551181102
 21
6.257874015748031
 31
0.0
  0
LINE
  5
248D
330
1E
100
AcDbEntity
  8
0
100
AcDbLine
 10
2.40748031496063
 20
5.880905511811023
 30
0.0
 11
2.40748031496063
 21
5.836614173228346
 31
0.0
  0
LINE
  5
248E
330
1E
100
AcDbEntity
  8
0
100
AcDbLine
 10
3.857283464566929
 20
5.530511811023622
 30
0.0
 11
3.858267716535432
 21
5.531496062992125
 31
0.0
  0
LINE
  5
248F
330
1E
100
AcDbEntity
  8
0
100
AcDbLine
 10
2.506889763779527
 20
5.530511811023622
 30
0.0
 11
2.505905511811023
 21
5.531496062992125
 31
0.0
  0
LINE
  5
24A5
330
1E
100
AcDbEntity
  8
0
100
AcDbLine
 10
3.854330708661417
 20
5.661417322834645
 30
0.0
 11
3.854330708661417
 21
5.661417322834645
 31
0.0
  0
LINE
  5
24A6
330
1E
100
AcDbEntity
  8
0
100
AcDbLine
 10
3.854330708661417
 20
5.661417322834645
 30
0.0
 11
3.854330708661417
 21
5.659448818897637
 31
0.0
  0
LINE
  5
24A7
330
1E
100
AcDbEntity
  8
0
100
AcDbLine
 10
3.856299212598425
 20
5.559055118110236
 30
0.0
 11
3.856299212598425
 21
5.5501968503937
 31
0.0
  0
LINE
  5
24A8
330
1E
100
AcDbEntity
  8
0
100
AcDbLine
 10
3.857283464566929
 20
5.530511811023622
 30
0.0
 11
3.856299212598425
 21
5.5501968503937
 31
0.0
  0
LINE
  5
24B9
330
1E
100
AcDbEntity
  8
0
100
AcDbLine
 10
3.952755905511811
 20
5.544291338582676
 30
0.0
 11
3.956692913385826
 21
5.431102362204724
 31
0.0
  0
LINE
  5
24BA
330
1E
100
AcDbEntity
  8
0
100
AcDbLine
 10
3.956692913385826
 20
5.43011811023622
 30
0.0
 11
3.956692913385826
 21
5.431102362204724
 31
0.0
  0
LINE
  5
24BB
330
1E
100
AcDbEntity
  8
0
100
AcDbLine
 10
3.956692913385826
 20
5.836614173228346
 30
0.0
 11
3.956692913385826
 21
5.43011811023622
 31
0.0
  0
LINE
  5
24BC
330
1E
100
AcDbEntity
  8
0
100
AcDbLine
 10
3.956692913385826
 20
5.880905511811023
 30
0.0
 11
3.956692913385826
 21
5.836614173228346
 31
0.0
  0
LINE
  5
24BD
330
1E
100
AcDbEntity
  8
0
100
AcDbLine
 10
3.963582677165354
 20
5.993110236220472
 30
0.0
 11
3.963582677165354
 21
6.257874015748031
 31
0.0
  0
LINE
  5
24BE
330
1E
100
AcDbEntity
  8
0
100
AcDbLine
 10
3.956692913385826
 20
6.318897637795275
 30
0.0
 11
3.956692913385826
 21
6.263779527559054
 31
0.0
  0
LINE
  5
24BF
330
1E
100
AcDbEntity
  8
0
100
AcDbLine
 10
3.956692913385826
 20
6.380905511811023
 30
0.0
 11
3.956692913385826
 21
6.318897637795275
 31
0.0
  0
LINE
  5
24C0
330
1E
100
AcDbEntity
  8
0
100
AcDbLine
 10
3.956692913385826
 20
6.602362204724409
 30
0.0
 11
3.939960629921259
 21
6.111220472440944
 31
0.0
  0
LINE
  5
24C8
330
1E
100
AcDbEntity
  8
0
100
AcDbLine
 10
3.939960629921259
 20
6.044291338582676
 30
0.0
 11
3.940944881889763
 21
6.004921259842519
 31
0.0
  0
LINE
  5
24C9
330
1E
100
AcDbEntity
  8
0
100
AcDbLine
 10
3.941929133858267
 20
6.003937007874015
 30
0.0
 11
3.940944881889763
 21
6.004921259842519
 31
0.0
  0
LINE
  5
24CA
330
1E
100
AcDbEntity
  8
0
100
AcDbLine
 10
3.941929133858267
 20
6.003937007874015
 30
0.0
 11
3.941929133858267
 21
5.999015748031496
 31
0.0
  0
LINE
  5
24CB
330
1E
100
AcDbEntity
  8
0
100
AcDbLine
 10
3.945866141732283
 20
5.877952755905512
 30
0.0
 11
3.951771653543307
 21
5.699803149606299
 31
0.0
  0
LINE
  5
24CC
330
1E
100
AcDbEntity
  8
0
100
AcDbLine
 10
3.951771653543307
 20
5.699803149606299
 30
0.0
 11
3.951771653543307
 21
5.598425196850393
 31
0.0
  0
LINE
  5
24CD
330
1E
100
AcDbEntity
  8
0
100
AcDbLine
 10
2.506889763779527
 20
5.530511811023622
 30
0.0
 11
2.507874015748031
 21
5.5501968503937
 31
0.0
  0
LINE
  5
24CE
330
1E
100
AcDbEntity
  8
0
100
AcDbLine
 10
2.507874015748031
 20
5.559055118110236
 30
0.0
 11
2.507874015748031
 21
5.5501968503937
 31
0.0
  0
LINE
  5
24CF
330
1E
100
AcDbEntity
  8
0
100
AcDbLine
 10
2.509842519685039
 20
5.661417322834645
 30
0.0
 11
2.509842519685039
 21
5.659448818897637
 31
0.0
  0
LINE
  5
24D0
330
1E
100
AcDbEntity
  8
0
100
AcDbLine
 10
2.509842519685039
 20
5.661417322834645
 30
0.0
 11
2.509842519685039
 21
5.661417322834645
 31
0.0
  0
LINE
  5
24D1
330
1E
100
AcDbEntity
  8
0
100
AcDbLine
 10
2.451771653543306
 20
6.664370078740157
 30
0.0
 11
2.469488188976377
 21
6.143700787401574
 31
0.0
  0
LINE
  5
24D2
330
1E
100
AcDbEntity
  8
0
100
AcDbLine
 10
2.469488188976377
 20
6.143700787401574
 30
0.0
 11
3.894685039370078
 21
6.143700787401574
 31
0.0
  0
LINE
  5
24D3
330
1E
100
AcDbEntity
  8
0
100
AcDbLine
 10
3.894685039370078
 20
6.143700787401574
 30
0.0
 11
3.912401574803149
 21
6.664370078740157
 31
0.0
  0
LINE
  5
24DE
330
1E
100
AcDbEntity
  8
0
100
AcDbLine
 10
3.269685039370078
 20
5.551181102362204
 30
0.0
 11
3.269685039370078
 21
5.553149606299212
 31
0.0
  0
LINE
  5
24DF
330
1E
100
AcDbEntity
  8
0
100
AcDbLine
 10
3.269685039370078
 20
5.551181102362204
 30
0.0
 11
3.269685039370078
 21
5.542322834645669
 31
0.0
  0
LINE
  5
24E0
330
1E
100
AcDbEntity
  8
0
100
AcDbLine
 10
3.330708661417322
 20
5.542322834645669
 30
0.0
 11
3.269685039370078
 21
5.542322834645669
 31
0.0
  0
LINE
  5
24E1
330
1E
100
AcDbEntity
  8
0
100
AcDbLine
 10
3.330708661417322
 20
5.560039370078739
 30
0.0
 11
3.330708661417322
 21
5.556102362204724
 31
0.0
  0
LINE
  5
24E2
330
1E
100
AcDbEntity
  8
0
100
AcDbLine
 10
3.795275590551181
 20
5.556102362204724
 30
0.0
 11
3.330708661417322
 21
5.556102362204724
 31
0.0
  0
LINE
  5
24E8
330
1E
100
AcDbEntity
  8
0
100
AcDbLine
 10
2.568897637795275
 20
5.556102362204724
 30
0.0
 11
3.033464566929133
 21
5.556102362204724
 31
0.0
  0
LINE
  5
24E9
330
1E
100
AcDbEntity
  8
0
100
AcDbLine
 10
3.033464566929133
 20
5.556102362204724
 30
0.0
 11
3.033464566929133
 21
5.560039370078739
 31
0.0
  0
LINE
  5
24EF
330
1E
100
AcDbEntity
  8
0
100
AcDbLine
 10
3.033464566929133
 20
5.542322834645669
 30
0.0
 11
3.094488188976377
 21
5.542322834645669
 31
0.0
  0
LINE
  5
24F0
330
1E
100
AcDbEntity
  8
0
100
AcDbLine
 10
3.094488188976377
 20
5.551181102362204
 30
0.0
 11
3.094488188976377
 21
5.542322834645669
 31
0.0
  0
LINE
  5
24F1
330
1E
100
AcDbEntity
  8
0
100
AcDbLine
 10
3.094488188976377
 20
5.551181102362204
 30
0.0
 11
3.094488188976377
 21
5.553149606299212
 31
0.0
  0
LINE
  5
24FC
330
1E
100
AcDbEntity
  8
0
100
AcDbLine
 10
3.269685039370078
 20
5.566929133858267
 30
0.0
 11
3.094488188976377
 21
5.566929133858267
 31
0.0
  0
LINE
  5
24FD
330
1E
100
AcDbEntity
  8
0
100
AcDbLine
 10
3.094488188976377
 20
5.553149606299212
 30
0.0
 11
3.269685039370078
 21
5.553149606299212
 31
0.0
  0
LINE
  5
24FE
330
1E
100
AcDbEntity
  8
0
100
AcDbLine
 10
3.094488188976377
 20
5.551181102362204
 30
0.0
 11
3.269685039370078
 21
5.551181102362204
 31
0.0
  0
LINE
  5
24FF
330
1E
100
AcDbEntity
  8
0
100
AcDbLine
 10
2.469488188976377
 20
6.008858267716535
 30
0.0
 11
3.894685039370078
 21
6.008858267716535
 31
0.0
  0
LINE
  5
2507
330
1E
100
AcDbEntity
  8
0
100
AcDbLine
 10
2.422244094488188
 20
6.003937007874015
 30
0.0
 11
3.941929133858267
 21
6.003937007874015
 31
0.0
  0
LINE
  5
250F
330
1E
100
AcDbEntity
  8
0
100
AcDbLine
 10
3.857283464566929
 20
5.508858267716535
 30
0.0
 11
2.506889763779527
 21
5.508858267716535
 31
0.0
  0
LINE
  5
2510
330
1E
100
AcDbEntity
  8
0
100
AcDbLine
 10
2.506889763779527
 20
5.508858267716535
 30
0.0
 11
2.504921259842519
 21
5.43996062992126
 31
0.0
  0
LINE
  5
251B
330
1E
100
AcDbEntity
  8
0
100
AcDbLine
 10
3.857283464566929
 20
5.508858267716535
 30
0.0
 11
3.859251968503937
 21
5.43996062992126
 31
0.0
  0
LINE
  5
251C
330
1E
100
AcDbEntity
  8
0
100
AcDbLine
 10
3.187992125984251
 20
5.630905511811023
 30
0.0
 11
3.176181102362204
 21
5.630905511811023
 31
0.0
  0
LINE
  5
251D
330
1E
100
AcDbEntity
  8
0
100
AcDbLine
 10
3.803149606299212
 20
5.542322834645669
 30
0.0
 11
3.330708661417322
 21
5.542322834645669
 31
0.0
  0
LINE
  5
251E
330
1E
100
AcDbEntity
  8
0
100
AcDbLine
 10
2.561023622047243
 20
5.542322834645669
 30
0.0
 11
3.033464566929133
 21
5.542322834645669
 31
0.0
  0
LINE
  5
251F
330
1E
100
AcDbEntity
  8
0
100
AcDbLine
 10
2.507874015748031
 20
5.5501968503937
 30
0.0
 11
2.561023622047243
 21
5.5501968503937
 31
0.0
  0
LINE
  5
2520
330
1E
100
AcDbEntity
  8
0
100
AcDbLine
 10
2.506889763779527
 20
5.508858267716535
 30
0.0
 11
2.506889763779527
 21
5.530511811023622
 31
0.0
  0
LINE
  5
2521
330
1E
100
AcDbEntity
  8
0
100
AcDbLine
 10
3.857283464566929
 20
5.508858267716535
 30
0.0
 11
3.857283464566929
 21
5.530511811023622
 31
0.0
  0
LINE
  5
2522
330
1E
100
AcDbEntity
  8
0
100
AcDbLine
 10
3.856299212598425
 20
5.5501968503937
 30
0.0
 11
3.803149606299212
 21
5.5501968503937
 31
0.0
  0
LINE
  5
2523
330
1E
100
AcDbEntity
  8
0
100
AcDbLine
 10
3.894685039370078
 20
6.011811023622047
 30
0.0
 11
2.469488188976377
 21
6.011811023622047
 31
0.0
  0
LINE
  5
2524
330
1E
100
AcDbEntity
  8
0
100
AcDbLine
 10
2.469488188976377
 20
6.011811023622047
 30
0.0
 11
2.469488188976377
 21
6.008858267716535
 31
0.0
  0
LINE
  5
2525
330
1E
100
AcDbEntity
  8
0
100
AcDbLine
 10
3.894685039370078
 20
6.008858267716535
 30
0.0
 11
3.894685039370078
 21
6.011811023622047
 31
0.0
  0
LINE
  5
2526
330
1E
100
AcDbEntity
  8
0
100
AcDbLine
 10
3.854330708661417
 20
5.661417322834645
 30
0.0
 11
3.845472440944881
 21
5.661417322834645
 31
0.0
  0
LINE
  5
2527
330
1E
100
AcDbEntity
  8
0
100
AcDbLine
 10
3.854330708661417
 20
5.661417322834645
 30
0.0
 11
3.854330708661417
 21
5.871062992125984
 31
0.0
  0
LINE
  5
2528
330
1E
100
AcDbEntity
  8
0
100
AcDbLine
 10
2.509842519685039
 20
5.661417322834645
 30
0.0
 11
2.509842519685039
 21
5.871062992125984
 31
0.0
  0
LINE
  5
2529
330
1E
100
AcDbEntity
  8
0
100
AcDbLine
 10
2.509842519685039
 20
5.661417322834645
 30
0.0
 11
2.518700787401574
 21
5.661417322834645
 31
0.0
  0
LINE
  5
252A
330
1E
100
AcDbEntity
  8
0
100
AcDbLine
 10
3.187007874015748
 20
5.650590551181101
 30
0.0
 11
3.177165354330708
 21
5.650590551181101
 31
0.0
  0
LINE
  5
252B
330
1E
100
AcDbEntity
  8
0
100
AcDbLine
 10
3.871062992125984
 20
5.432086614173228
 30
0.0
 11
3.936023622047244
 21
5.432086614173228
 31
0.0
  0
LINE
  5
252C
330
1E
100
AcDbEntity
  8
0
100
AcDbLine
 10
3.936023622047244
 20
5.432086614173228
 30
0.0
 11
3.932086614173228
 21
5.529527559055117
 31
0.0
  0
LINE
  5
252D
330
1E
100
AcDbEntity
  8
0
100
AcDbLine
 10
3.932086614173228
 20
5.529527559055117
 30
0.0
 11
3.87007874015748
 21
5.529527559055117
 31
0.0
  0
LINE
  5
252E
330
1E
100
AcDbEntity
  8
0
100
AcDbLine
 10
3.87007874015748
 20
5.529527559055117
 30
0.0
 11
3.871062992125984
 21
5.432086614173228
 31
0.0
  0
LINE
  5
252F
330
1E
100
AcDbEntity
  8
0
100
AcDbLine
 10
3.871062992125984
 20
5.432086614173228
 30
0.0
 11
3.871062992125984
 21
5.432086614173228
 31
0.0
  0
LINE
  5
2536
330
1E
100
AcDbEntity
  8
0
100
AcDbLine
 10
3.932086614173228
 20
5.598425196850393
 30
0.0
 11
3.869094488188976
 21
5.598425196850393
 31
0.0
  0
LINE
  5
253D
330
1E
100
AcDbEntity
  8
0
100
AcDbLine
 10
3.932086614173228
 20
5.598425196850393
 30
0.0
 11
3.932086614173228
 21
5.668307086614173
 31
0.0
  0
LINE
  5
2543
330
1E
100
AcDbEntity
  8
0
100
AcDbLine
 10
3.867125984251968
 20
5.657480314960629
 30
0.0
 11
3.907480314960629
 21
5.657480314960629
 31
0.0
  0
LINE
  5
2544
330
1E
100
AcDbEntity
  8
0
100
AcDbLine
 10
3.867125984251968
 20
5.657480314960629
 30
0.0
 11
3.869094488188976
 21
5.598425196850393
 31
0.0
  0
LINE
  5
2545
330
1E
100
AcDbEntity
  8
0
100
AcDbLine
 10
3.907480314960629
 20
5.657480314960629
 30
0.0
 11
3.900590551181102
 21
5.854330708661417
 31
0.0
  0
LINE
  5
2546
330
1E
100
AcDbEntity
  8
0
100
AcDbLine
 10
3.900590551181102
 20
5.854330708661417
 30
0.0
 11
3.866141732283464
 21
5.854330708661417
 31
0.0
  0
LINE
  5
2547
330
1E
100
AcDbEntity
  8
0
100
AcDbLine
 10
3.866141732283464
 20
5.854330708661417
 30
0.0
 11
3.867125984251968
 21
5.657480314960629
 31
0.0
  0
LINE
  5
2548
330
1E
100
AcDbEntity
  8
0
100
AcDbLine
 10
3.867125984251968
 20
5.657480314960629
 30
0.0
 11
3.867125984251968
 21
5.657480314960629
 31
0.0
  0
LINE
  5
254F
330
1E
100
AcDbEntity
  8
0
100
AcDbLine
 10
3.871062992125984
 20
5.432086614173228
 30
0.0
 11
3.869094488188976
 21
5.43011811023622
 31
0.0
  0
LINE
  5
2550
330
1E
100
AcDbEntity
  8
0
100
AcDbLine
 10
3.859251968503937
 20
5.598425196850393
 30
0.0
 11
3.856299212598425
 21
5.661417322834645
 31
0.0
  0
LINE
  5
2551
330
1E
100
AcDbEntity
  8
0
100
AcDbLine
 10
3.856299212598425
 20
5.661417322834645
 30
0.0
 11
3.856299212598425
 21
5.861220472440944
 31
0.0
  0
LINE
  5
2552
330
1E
100
AcDbEntity
  8
0
100
AcDbLine
 10
3.855314960629921
 20
5.872047244094487
 30
0.0
 11
3.856299212598425
 21
5.861220472440944
 31
0.0
  0
LINE
  5
2553
330
1E
100
AcDbEntity
  8
0
100
AcDbLine
 10
3.859251968503937
 20
5.43996062992126
 30
0.0
 11
3.86023622047244
 21
5.440944881889763
 31
0.0
  0
LINE
  5
2554
330
1E
100
AcDbEntity
  8
0
100
AcDbLine
 10
3.86023622047244
 20
5.440944881889763
 30
0.0
 11
3.86023622047244
 21
5.536417322834645
 31
0.0
  0
LINE
  5
2566
330
1E
100
AcDbEntity
  8
0
100
AcDbLine
 10
2.432086614173228
 20
5.529527559055117
 30
0.0
 11
2.494094488188976
 21
5.529527559055117
 31
0.0
  0
LINE
  5
2567
330
1E
100
AcDbEntity
  8
0
100
AcDbLine
 10
2.432086614173228
 20
5.529527559055117
 30
0.0
 11
2.428149606299212
 21
5.432086614173228
 31
0.0
  0
LINE
  5
2568
330
1E
100
AcDbEntity
  8
0
100
AcDbLine
 10
2.493110236220472
 20
5.432086614173228
 30
0.0
 11
2.428149606299212
 21
5.432086614173228
 31
0.0
  0
LINE
  5
2569
330
1E
100
AcDbEntity
  8
0
100
AcDbLine
 10
2.493110236220472
 20
5.432086614173228
 30
0.0
 11
2.493110236220472
 21
5.432086614173228
 31
0.0
  0
LINE
  5
256A
330
1E
100
AcDbEntity
  8
0
100
AcDbLine
 10
2.493110236220472
 20
5.432086614173228
 30
0.0
 11
2.494094488188976
 21
5.529527559055117
 31
0.0
  0
LINE
  5
256B
330
1E
100
AcDbEntity
  8
0
100
AcDbLine
 10
2.432086614173228
 20
5.598425196850393
 30
0.0
 11
2.49507874015748
 21
5.598425196850393
 31
0.0
  0
LINE
  5
257D
330
1E
100
AcDbEntity
  8
0
100
AcDbLine
 10
2.432086614173228
 20
5.668307086614173
 30
0.0
 11
2.432086614173228
 21
5.598425196850393
 31
0.0
  0
LINE
  5
257E
330
1E
100
AcDbEntity
  8
0
100
AcDbLine
 10
2.49507874015748
 20
5.598425196850393
 30
0.0
 11
2.497047244094487
 21
5.657480314960629
 31
0.0
  0
LINE
  5
257F
330
1E
100
AcDbEntity
  8
0
100
AcDbLine
 10
2.497047244094487
 20
5.657480314960629
 30
0.0
 11
2.456692913385826
 21
5.657480314960629
 31
0.0
  0
LINE
  5
2580
330
1E
100
AcDbEntity
  8
0
100
AcDbLine
 10
2.463582677165354
 20
5.854330708661417
 30
0.0
 11
2.498031496062992
 21
5.854330708661417
 31
0.0
  0
LINE
  5
2581
330
1E
100
AcDbEntity
  8
0
100
AcDbLine
 10
2.463582677165354
 20
5.854330708661417
 30
0.0
 11
2.456692913385826
 21
5.657480314960629
 31
0.0
  0
LINE
  5
2582
330
1E
100
AcDbEntity
  8
0
100
AcDbLine
 10
2.497047244094487
 20
5.657480314960629
 30
0.0
 11
2.497047244094487
 21
5.657480314960629
 31
0.0
  0
LINE
  5
2583
330
1E
100
AcDbEntity
  8
0
100
AcDbLine
 10
2.497047244094487
 20
5.657480314960629
 30
0.0
 11
2.498031496062992
 21
5.854330708661417
 31
0.0
  0
LINE
  5
258A
330
1E
100
AcDbEntity
  8
0
100
AcDbLine
 10
2.49507874015748
 20
5.43011811023622
 30
0.0
 11
2.493110236220472
 21
5.432086614173228
 31
0.0
  0
LINE
  5
258B
330
1E
100
AcDbEntity
  8
0
100
AcDbLine
 10
2.508858267716535
 20
5.872047244094487
 30
0.0
 11
2.507874015748031
 21
5.861220472440944
 31
0.0
  0
LINE
  5
258C
330
1E
100
AcDbEntity
  8
0
100
AcDbLine
 10
2.507874015748031
 20
5.861220472440944
 30
0.0
 11
2.507874015748031
 21
5.661417322834645
 31
0.0
  0
LINE
  5
258D
330
1E
100
AcDbEntity
  8
0
100
AcDbLine
 10
2.507874015748031
 20
5.661417322834645
 30
0.0
 11
2.504921259842519
 21
5.598425196850393
 31
0.0
  0
LINE
  5
2594
330
1E
100
AcDbEntity
  8
0
100
AcDbLine
 10
2.503937007874015
 20
5.536417322834645
 30
0.0
 11
2.503937007874015
 21
5.440944881889763
 31
0.0
  0
LINE
  5
2595
330
1E
100
AcDbEntity
  8
0
100
AcDbLine
 10
2.503937007874015
 20
5.440944881889763
 30
0.0
 11
2.504921259842519
 21
5.43996062992126
 31
0.0
  0
LINE
  5
25D9
330
1E
100
AcDbEntity
  8
0
100
AcDbLine
 10
4.0
 20
6.250984251968503
 30
0.0
 11
4.0
 21
5.953740157480314
 31
0.0
  0
LINE
  5
25DA
330
1E
100
AcDbEntity
  8
0
100
AcDbLine
 10
3.964566929133858
 20
5.992125984251968
 30
0.0
 11
3.964566929133858
 21
6.250984251968503
 31
0.0
  0
LINE
  5
25DB
330
1E
100
AcDbEntity
  8
0
100
AcDbLine
 10
2.364173228346456
 20
6.250984251968503
 30
0.0
 11
2.364173228346456
 21
5.953740157480314
 31
0.0
  0
LINE
  5
25DC
330
1E
100
AcDbEntity
  8
0
100
AcDbLine
 10
2.399606299212598
 20
5.992125984251968
 30
0.0
 11
2.399606299212598
 21
6.250984251968503
 31
0.0
  0
LINE
  5
266F
330
1E
100
AcDbEntity
  8
0
100
AcDbLine
 10
4.922244094488188
 20
5.988188976377952
 30
0.0
 11
4.929133858267716
 21
5.99507874015748
 31
0.0
  0
LINE
  5
2670
330
1E
100
AcDbEntity
  8
0
100
AcDbLine
 10
5.02755905511811
 20
5.881889763779527
 30
0.0
 11
5.035433070866141
 21
5.888779527559054
 31
0.0
  0
LINE
  5
2671
330
1E
100
AcDbEntity
  8
0
100
AcDbLine
 10
4.95767716535433
 20
5.99507874015748
 30
0.0
 11
5.060039370078739
 21
5.89271653543307
 31
0.0
  0
LINE
  5
2677
330
1E
100
AcDbEntity
  8
0
100
AcDbLine
 10
4.929133858267716
 20
5.99507874015748
 30
0.0
 11
4.929133858267716
 21
5.99507874015748
 31
0.0
  0
LINE
  5
2678
330
1E
100
AcDbEntity
  8
0
100
AcDbLine
 10
5.574803149606299
 20
6.380905511811023
 30
0.0
 11
5.386811023622047
 21
6.380905511811023
 31
0.0
  0
LINE
  5
2679
330
1E
100
AcDbEntity
  8
0
100
AcDbLine
 10
5.574803149606299
 20
6.739173228346456
 30
0.0
 11
5.574803149606299
 21
6.380905511811023
 31
0.0
  0
LINE
  5
267F
330
1E
100
AcDbEntity
  8
0
100
AcDbLine
 10
5.386811023622047
 20
6.764763779527559
 30
0.0
 11
5.55511811023622
 21
6.759842519685038
 31
0.0
  0
LINE
  5
2680
330
1E
100
AcDbEntity
  8
0
100
AcDbLine
 10
5.386811023622047
 20
6.764763779527559
 30
0.0
 11
5.386811023622047
 21
6.602362204724409
 31
0.0
  0
LINE
  5
2681
330
1E
100
AcDbEntity
  8
0
100
AcDbLine
 10
5.386811023622047
 20
6.602362204724409
 30
0.0
 11
5.386811023622047
 21
6.380905511811023
 31
0.0
  0
LINE
  5
2682
330
1E
100
AcDbEntity
  8
0
100
AcDbLine
 10
5.574803149606299
 20
5.898622047244094
 30
0.0
 11
5.386811023622047
 21
5.898622047244094
 31
0.0
  0
LINE
  5
2683
330
1E
100
AcDbEntity
  8
0
100
AcDbLine
 10
5.574803149606299
 20
5.937992125984251
 30
0.0
 11
5.574803149606299
 21
5.898622047244094
 31
0.0
  0
LINE
  5
2684
330
1E
100
AcDbEntity
  8
0
100
AcDbLine
 10
5.386811023622047
 20
5.931102362204724
 30
0.0
 11
5.386811023622047
 21
5.898622047244094
 31
0.0
  0
LINE
  5
2685
330
1E
100
AcDbEntity
  8
0
100
AcDbLine
 10
5.694881889763779
 20
5.813976377952755
 30
0.0
 11
5.574803149606299
 21
5.934055118110236
 31
0.0
  0
LINE
  5
2686
330
1E
100
AcDbEntity
  8
0
100
AcDbLine
 10
5.702755905511811
 20
5.80511811023622
 30
0.0
 11
5.694881889763779
 21
5.813976377952755
 31
0.0
  0
LINE
  5
2687
330
1E
100
AcDbEntity
  8
0
100
AcDbLine
 10
5.574803149606299
 20
6.380905511811023
 30
0.0
 11
5.574803149606299
 21
6.371062992125984
 31
0.0
  0
LINE
  5
2688
330
1E
100
AcDbEntity
  8
0
100
AcDbLine
 10
5.574803149606299
 20
6.371062992125984
 30
0.0
 11
5.574803149606299
 21
6.328740157480314
 31
0.0
  0
LINE
  5
2689
330
1E
100
AcDbEntity
  8
0
100
AcDbLine
 10
5.574803149606299
 20
6.328740157480314
 30
0.0
 11
5.574803149606299
 21
6.318897637795275
 31
0.0
  0
LINE
  5
268A
330
1E
100
AcDbEntity
  8
0
100
AcDbLine
 10
5.574803149606299
 20
6.318897637795275
 30
0.0
 11
5.574803149606299
 21
6.257874015748031
 31
0.0
  0
LINE
  5
268B
330
1E
100
AcDbEntity
  8
0
100
AcDbLine
 10
5.574803149606299
 20
5.898622047244094
 30
0.0
 11
5.574803149606299
 21
5.888779527559054
 31
0.0
  0
LINE
  5
268C
330
1E
100
AcDbEntity
  8
0
100
AcDbLine
 10
5.574803149606299
 20
5.888779527559054
 30
0.0
 11
5.574803149606299
 21
5.846456692913386
 31
0.0
  0
LINE
  5
268D
330
1E
100
AcDbEntity
  8
0
100
AcDbLine
 10
5.574803149606299
 20
5.846456692913386
 30
0.0
 11
5.574803149606299
 21
5.836614173228346
 31
0.0
  0
LINE
  5
268E
330
1E
100
AcDbEntity
  8
0
100
AcDbLine
 10
5.574803149606299
 20
5.836614173228346
 30
0.0
 11
5.574803149606299
 21
5.437007874015748
 31
0.0
  0
LINE
  5
268F
330
1E
100
AcDbEntity
  8
0
100
AcDbLine
 10
5.859251968503937
 20
5.698818897637795
 30
0.0
 11
5.859251968503937
 21
5.49507874015748
 31
0.0
  0
LINE
  5
2690
330
1E
100
AcDbEntity
  8
0
100
AcDbLine
 10
5.859251968503937
 20
5.446850393700787
 30
0.0
 11
5.574803149606299
 21
5.437007874015748
 31
0.0
  0
LINE
  5
2691
330
1E
100
AcDbEntity
  8
0
100
AcDbLine
 10
5.386811023622047
 20
5.43011811023622
 30
0.0
 11
5.574803149606299
 21
5.437007874015748
 31
0.0
  0
LINE
  5
2692
330
1E
100
AcDbEntity
  8
0
100
AcDbLine
 10
5.574803149606299
 20
5.817913385826771
 30
0.0
 11
5.683070866141732
 21
5.813976377952755
 31
0.0
  0
LINE
  5
2693
330
1E
100
AcDbEntity
  8
0
100
AcDbLine
 10
5.683070866141732
 20
5.813976377952755
 30
0.0
 11
5.694881889763779
 21
5.813976377952755
 31
0.0
  0
LINE
  5
2694
330
1E
100
AcDbEntity
  8
0
100
AcDbLine
 10
5.574803149606299
 20
6.257874015748031
 30
0.0
 11
5.386811023622047
 21
6.263779527559054
 31
0.0
  0
LINE
  5
2695
330
1E
100
AcDbEntity
  8
0
100
AcDbLine
 10
5.574803149606299
 20
6.257874015748031
 30
0.0
 11
5.755905511811023
 21
6.250984251968503
 31
0.0
  0
LINE
  5
2696
330
1E
100
AcDbEntity
  8
0
100
AcDbLine
 10
5.755905511811023
 20
6.250984251968503
 30
0.0
 11
5.775590551181101
 21
6.250984251968503
 31
0.0
  0
LINE
  5
2697
330
1E
100
AcDbEntity
  8
0
100
AcDbLine
 10
5.904527559055117
 20
6.246062992125984
 30
0.0
 11
5.775590551181101
 21
6.250984251968503
 31
0.0
  0
LINE
  5
2698
330
1E
100
AcDbEntity
  8
0
100
AcDbLine
 10
5.904527559055117
 20
5.949803149606299
 30
0.0
 11
5.775590551181101
 21
5.944881889763779
 31
0.0
  0
LINE
  5
2699
330
1E
100
AcDbEntity
  8
0
100
AcDbLine
 10
5.755905511811023
 20
5.943897637795275
 30
0.0
 11
5.775590551181101
 21
5.944881889763779
 31
0.0
  0
LINE
  5
269A
330
1E
100
AcDbEntity
  8
0
100
AcDbLine
 10
5.574803149606299
 20
5.937992125984251
 30
0.0
 11
5.755905511811023
 21
5.943897637795275
 31
0.0
  0
LINE
  5
269B
330
1E
100
AcDbEntity
  8
0
100
AcDbLine
 10
5.574803149606299
 20
5.937992125984251
 30
0.0
 11
5.386811023622047
 21
5.931102362204724
 31
0.0
  0
LINE
  5
26A1
330
1E
100
AcDbEntity
  8
0
100
AcDbLine
 10
5.26279527559055
 20
5.544291338582676
 30
0.0
 11
5.375984251968503
 21
5.431102362204724
 31
0.0
  0
LINE
  5
26A2
330
1E
100
AcDbEntity
  8
0
100
AcDbLine
 10
5.386811023622047
 20
5.43011811023622
 30
0.0
 11
5.375984251968503
 21
5.431102362204724
 31
0.0
  0
LINE
  5
26A3
330
1E
100
AcDbEntity
  8
0
100
AcDbLine
 10
5.386811023622047
 20
5.836614173228346
 30
0.0
 11
5.386811023622047
 21
5.43011811023622
 31
0.0
  0
LINE
  5
26A4
330
1E
100
AcDbEntity
  8
0
100
AcDbLine
 10
5.386811023622047
 20
5.898622047244094
 30
0.0
 11
5.386811023622047
 21
5.836614173228346
 31
0.0
  0
LINE
  5
26A5
330
1E
100
AcDbEntity
  8
0
100
AcDbLine
 10
5.574803149606299
 20
5.937992125984251
 30
0.0
 11
5.574803149606299
 21
6.257874015748031
 31
0.0
  0
LINE
  5
26A6
330
1E
100
AcDbEntity
  8
0
100
AcDbLine
 10
5.386811023622047
 20
6.318897637795275
 30
0.0
 11
5.386811023622047
 21
6.263779527559054
 31
0.0
  0
LINE
  5
26A7
330
1E
100
AcDbEntity
  8
0
100
AcDbLine
 10
5.386811023622047
 20
6.380905511811023
 30
0.0
 11
5.386811023622047
 21
6.318897637795275
 31
0.0
  0
LINE
  5
26A8
330
1E
100
AcDbEntity
  8
0
100
AcDbLine
 10
5.386811023622047
 20
6.602362204724409
 30
0.0
 11
4.896653543307086
 21
6.111220472440944
 31
0.0
  0
LINE
  5
26B0
330
1E
100
AcDbEntity
  8
0
100
AcDbLine
 10
4.896653543307086
 20
6.044291338582676
 30
0.0
 11
4.935039370078739
 21
6.004921259842519
 31
0.0
  0
LINE
  5
26B1
330
1E
100
AcDbEntity
  8
0
100
AcDbLine
 10
4.951771653543307
 20
6.003937007874015
 30
0.0
 11
4.935039370078739
 21
6.004921259842519
 31
0.0
  0
LINE
  5
26B2
330
1E
100
AcDbEntity
  8
0
100
AcDbLine
 10
4.951771653543307
 20
6.003937007874015
 30
0.0
 11
5.062007874015748
 21
5.893700787401574
 31
0.0
  0
LINE
  5
26B3
330
1E
100
AcDbEntity
  8
0
100
AcDbLine
 10
5.062007874015748
 20
5.893700787401574
 30
0.0
 11
5.054133858267716
 21
5.885826771653543
 31
0.0
  0
LINE
  5
26B4
330
1E
100
AcDbEntity
  8
0
100
AcDbLine
 10
5.054133858267716
 20
5.885826771653543
 30
0.0
 11
5.24015748031496
 21
5.699803149606299
 31
0.0
  0
LINE
  5
26B5
330
1E
100
AcDbEntity
  8
0
100
AcDbLine
 10
5.24015748031496
 20
5.699803149606299
 30
0.0
 11
5.24015748031496
 21
5.598425196850393
 31
0.0
  0
LINE
  5
26B6
330
1E
100
AcDbEntity
  8
0
100
AcDbLine
 10
4.866141732283464
 20
6.143700787401574
 30
0.0
 11
5.386811023622047
 21
6.664370078740157
 31
0.0
  0
LINE
  5
26BE
330
1E
100
AcDbEntity
  8
0
100
AcDbLine
 10
4.869094488188975
 20
6.008858267716535
 30
0.0
 11
4.866141732283464
 21
6.011811023622047
 31
0.0
  0
LINE
  5
26BF
330
1E
100
AcDbEntity
  8
0
100
AcDbLine
 10
5.347440944881889
 20
5.432086614173228
 30
0.0
 11
5.249015748031496
 21
5.529527559055117
 31
0.0
  0
LINE
  5
26C6
330
1E
100
AcDbEntity
  8
0
100
AcDbLine
 10
5.220472440944881
 20
5.598425196850393
 30
0.0
 11
5.220472440944881
 21
5.668307086614173
 31
0.0
  0
LINE
  5
26C7
330
1E
100
AcDbEntity
  8
0
100
AcDbLine
 10
5.220472440944881
 20
5.657480314960629
 30
0.0
 11
5.023622047244094
 21
5.854330708661417
 31
0.0
  0
LINE
  5
26DD
330
1E
100
AcDbEntity
  8
0
100
AcDbLine
 10
5.574803149606299
 20
6.318897637795275
 30
0.0
 11
5.386811023622047
 21
6.318897637795275
 31
0.0
  0
LINE
  5
26DE
330
1E
100
AcDbEntity
  8
0
100
AcDbLine
 10
5.574803149606299
 20
5.836614173228346
 30
0.0
 11
5.386811023622047
 21
5.836614173228346
 31
0.0
  0
LINE
  5
26DF
330
1E
100
AcDbEntity
  8
0
100
AcDbLine
 10
5.779527559055117
 20
5.729330708661417
 30
0.0
 11
5.702755905511811
 21
5.80511811023622
 31
0.0
  0
LINE
  5
26E0
330
1E
100
AcDbEntity
  8
0
100
AcDbLine
 10
5.829724409448818
 20
5.729330708661417
 30
0.0
 11
5.779527559055117
 21
5.729330708661417
 31
0.0
  0
LINE
  5
26E1
330
1E
100
AcDbEntity
  8
0
100
AcDbLine
 10
5.702755905511811
 20
5.80511811023622
 30
0.0
 11
5.683070866141732
 21
5.813976377952755
 31
0.0
  0
LINE
  5
26E8
330
1E
100
AcDbEntity
  8
0
100
AcDbLine
 10
5.859251968503937
 20
5.48523622047244
 30
0.0
 11
5.859251968503937
 21
5.456692913385826
 31
0.0
  0
LINE
  5
26F3
330
1E
100
AcDbEntity
  8
0
100
AcDbLine
 10
5.574803149606299
 20
5.688976377952755
 30
0.0
 11
5.859251968503937
 21
5.698818897637795
 31
0.0
  0
LINE
  5
26F4
330
1E
100
AcDbEntity
  8
0
100
AcDbLine
 10
5.859251968503937
 20
5.48523622047244
 30
0.0
 11
5.574803149606299
 21
5.49015748031496
 31
0.0
  0
LINE
  5
26F5
330
1E
100
AcDbEntity
  8
0
100
AcDbLine
 10
5.574803149606299
 20
5.5
 30
0.0
 11
5.859251968503937
 21
5.49507874015748
 31
0.0
  0
LINE
  5
26F6
330
1E
100
AcDbEntity
  8
0
100
AcDbLine
 10
5.574803149606299
 20
5.446850393700787
 30
0.0
 11
5.859251968503937
 21
5.456692913385826
 31
0.0
  0
LINE
  5
26F7
330
1E
100
AcDbEntity
  8
0
100
AcDbLine
 10
5.755905511811023
 20
6.250984251968503
 30
0.0
 11
5.755905511811023
 21
5.943897637795275
 31
0.0
  0
LINE
  5
26F8
330
1E
100
AcDbEntity
  8
0
100
AcDbLine
 10
5.775590551181101
 20
5.944881889763779
 30
0.0
 11
5.775590551181101
 21
6.250984251968503
 31
0.0
  0
LINE
  5
26F9
330
1E
100
AcDbEntity
  8
0
100
AcDbLine
 10
5.904527559055117
 20
6.246062992125984
 30
0.0
 11
5.904527559055117
 21
5.949803149606299
 31
0.0
  0
LINE
  5
2718
330
1E
100
AcDbEntity
  8
0
100
AcDbLine
 10
5.395669291338582
 20
5.846456692913386
 30
0.0
 11
5.565944881889763
 21
5.846456692913386
 31
0.0
  0
LINE
  5
2719
330
1E
100
AcDbEntity
  8
0
100
AcDbLine
 10
5.565944881889763
 20
5.846456692913386
 30
0.0
 11
5.565944881889763
 21
5.888779527559054
 31
0.0
  0
LINE
  5
271A
330
1E
100
AcDbEntity
  8
0
100
AcDbLine
 10
5.565944881889763
 20
5.888779527559054
 30
0.0
 11
5.395669291338582
 21
5.888779527559054
 31
0.0
  0
LINE
  5
271B
330
1E
100
AcDbEntity
  8
0
100
AcDbLine
 10
5.395669291338582
 20
5.888779527559054
 30
0.0
 11
5.395669291338582
 21
5.846456692913386
 31
0.0
  0
LINE
  5
273A
330
1E
100
AcDbEntity
  8
0
100
AcDbLine
 10
5.395669291338582
 20
6.328740157480314
 30
0.0
 11
5.565944881889763
 21
6.328740157480314
 31
0.0
  0
LINE
  5
273B
330
1E
100
AcDbEntity
  8
0
100
AcDbLine
 10
5.565944881889763
 20
6.328740157480314
 30
0.0
 11
5.565944881889763
 21
6.371062992125984
 31
0.0
  0
LINE
  5
273C
330
1E
100
AcDbEntity
  8
0
100
AcDbLine
 10
5.565944881889763
 20
6.371062992125984
 30
0.0
 11
5.395669291338582
 21
6.371062992125984
 31
0.0
  0
LINE
  5
273D
330
1E
100
AcDbEntity
  8
0
100
AcDbLine
 10
5.395669291338582
 20
6.371062992125984
 30
0.0
 11
5.395669291338582
 21
6.328740157480314
 31
0.0
  0
LINE
  5
275C
330
1E
100
AcDbEntity
  8
0
100
AcDbLine
 10
2.509842519685039
 20
3.89271653543307
 30
0.0
 11
2.515748031496062
 21
3.966535433070866
 31
0.0
  0
LINE
  5
275D
330
1E
100
AcDbEntity
  8
0
100
AcDbLine
 10
2.504921259842519
 20
3.96751968503937
 30
0.0
 11
2.504921259842519
 21
3.964566929133858
 31
0.0
  0
LINE
  5
275E
330
1E
100
AcDbEntity
  8
0
100
AcDbLine
 10
3.319881889763779
 20
3.960629921259842
 30
0.0
 11
3.269685039370078
 21
3.960629921259842
 31
0.0
  0
LINE
  5
275F
330
1E
100
AcDbEntity
  8
0
100
AcDbLine
 10
3.824803149606299
 20
3.960629921259842
 30
0.0
 11
3.795275590551181
 21
3.960629921259842
 31
0.0
  0
LINE
  5
2760
330
1E
100
AcDbEntity
  8
0
100
AcDbLine
 10
3.856299212598425
 20
3.875984251968503
 30
0.0
 11
3.857283464566929
 21
3.875984251968503
 31
0.0
  0
LINE
  5
2761
330
1E
100
AcDbEntity
  8
0
100
AcDbLine
 10
3.859251968503937
 20
3.955708661417322
 30
0.0
 11
3.840551181102362
 21
3.955708661417322
 31
0.0
  0
LINE
  5
2762
330
1E
100
AcDbEntity
  8
0
100
AcDbLine
 10
4.001968503937007
 20
4.250984251968503
 30
0.0
 11
4.001968503937007
 21
4.258858267716535
 31
0.0
  0
LINE
  5
2763
330
1E
100
AcDbEntity
  8
0
100
AcDbLine
 10
3.926181102362204
 20
4.316929133858267
 30
0.0
 11
3.206692913385826
 21
4.316929133858267
 31
0.0
  0
LINE
  5
2764
330
1E
100
AcDbEntity
  8
0
100
AcDbLine
 10
3.094488188976377
 20
3.960629921259842
 30
0.0
 11
3.044291338582677
 21
3.960629921259842
 31
0.0
  0
LINE
  5
2765
330
1E
100
AcDbEntity
  8
0
100
AcDbLine
 10
2.568897637795275
 20
3.960629921259842
 30
0.0
 11
2.539370078740157
 21
3.960629921259842
 31
0.0
  0
LINE
  5
2766
330
1E
100
AcDbEntity
  8
0
100
AcDbLine
 10
2.506889763779527
 20
3.875
 30
0.0
 11
2.506889763779527
 21
3.875
 31
0.0
  0
LINE
  5
2767
330
1E
100
AcDbEntity
  8
0
100
AcDbLine
 10
2.523622047244094
 20
3.955708661417322
 30
0.0
 11
2.514763779527558
 21
3.955708661417322
 31
0.0
  0
LINE
  5
2768
330
1E
100
AcDbEntity
  8
0
100
AcDbLine
 10
2.362204724409448
 20
4.257874015748031
 30
0.0
 11
2.362204724409448
 21
4.250984251968503
 31
0.0
  0
LINE
  5
2769
330
1E
100
AcDbEntity
  8
0
100
AcDbLine
 10
3.15748031496063
 20
4.316929133858267
 30
0.0
 11
2.437992125984251
 21
4.316929133858267
 31
0.0
  0
LINE
  5
276A
330
1E
100
AcDbEntity
  8
0
100
AcDbLine
 10
2.409448818897637
 20
3.724409448818897
 30
0.0
 11
2.409448818897637
 21
3.708661417322834
 31
0.0
  0
LINE
  5
276B
330
1E
100
AcDbEntity
  8
0
100
AcDbLine
 10
3.803149606299212
 20
3.882874015748031
 30
0.0
 11
3.330708661417322
 21
3.882874015748031
 31
0.0
  0
LINE
  5
276C
330
1E
100
AcDbEntity
  8
0
100
AcDbLine
 10
3.033464566929133
 20
3.882874015748031
 30
0.0
 11
2.561023622047243
 21
3.882874015748031
 31
0.0
  0
LINE
  5
276D
330
1E
100
AcDbEntity
  8
0
100
AcDbLine
 10
3.856299212598425
 20
3.890748031496062
 30
0.0
 11
3.803149606299212
 21
3.890748031496062
 31
0.0
  0
LINE
  5
276E
330
1E
100
AcDbEntity
  8
0
100
AcDbLine
 10
2.561023622047243
 20
3.890748031496062
 30
0.0
 11
2.507874015748031
 21
3.890748031496062
 31
0.0
  0
LINE
  5
276F
330
1E
100
AcDbEntity
  8
0
100
AcDbLine
 10
3.269685039370078
 20
3.960629921259842
 30
0.0
 11
3.094488188976377
 21
3.960629921259842
 31
0.0
  0
LINE
  5
2770
330
1E
100
AcDbEntity
  8
0
100
AcDbLine
 10
3.893700787401574
 20
4.394685039370078
 30
0.0
 11
2.470472440944881
 21
4.394685039370078
 31
0.0
  0
LINE
  5
2819
330
1E
100
AcDbEntity
  8
0
100
AcDbLine
 10
3.269685039370078
 20
3.966535433070866
 30
0.0
 11
3.269685039370078
 21
3.966535433070866
 31
0.0
  0
LINE
  5
281F
330
1E
100
AcDbEntity
  8
0
100
AcDbLine
 10
3.834645669291338
 20
4.182086614173228
 30
0.0
 11
3.834645669291338
 21
4.122047244094487
 31
0.0
  0
LINE
  5
2820
330
1E
100
AcDbEntity
  8
0
100
AcDbLine
 10
3.845472440944881
 20
4.170275590551181
 30
0.0
 11
3.845472440944881
 21
4.177165354330708
 31
0.0
  0
LINE
  5
282B
330
1E
100
AcDbEntity
  8
0
100
AcDbLine
 10
3.845472440944881
 20
4.184055118110236
 30
0.0
 11
3.845472440944881
 21
4.177165354330708
 31
0.0
  0
LINE
  5
2863
330
1E
100
AcDbEntity
  8
0
100
AcDbLine
 10
3.795275590551181
 20
3.966535433070866
 30
0.0
 11
3.824803149606299
 21
3.966535433070866
 31
0.0
  0
LINE
  5
2864
330
1E
100
AcDbEntity
  8
0
100
AcDbLine
 10
3.845472440944881
 20
4.103346456692912
 30
0.0
 11
3.845472440944881
 21
3.955708661417322
 31
0.0
  0
LINE
  5
2865
330
1E
100
AcDbEntity
  8
0
100
AcDbLine
 10
3.843503937007874
 20
3.946850393700787
 30
0.0
 11
3.859251968503937
 21
3.946850393700787
 31
0.0
  0
LINE
  5
2866
330
1E
100
AcDbEntity
  8
0
100
AcDbLine
 10
3.843503937007874
 20
3.922244094488188
 30
0.0
 11
3.858267716535432
 21
3.922244094488188
 31
0.0
  0
LINE
  5
286D
330
1E
100
AcDbEntity
  8
0
100
AcDbLine
 10
3.859251968503937
 20
3.939960629921259
 30
0.0
 11
3.859251968503937
 21
3.939960629921259
 31
0.0
  0
LINE
  5
286E
330
1E
100
AcDbEntity
  8
0
100
AcDbLine
 10
3.859251968503937
 20
3.939960629921259
 30
0.0
 11
3.859251968503937
 21
3.938976377952755
 31
0.0
  0
LINE
  5
2881
330
1E
100
AcDbEntity
  8
0
100
AcDbLine
 10
3.319881889763779
 20
3.966535433070866
 30
0.0
 11
3.269685039370078
 21
3.966535433070866
 31
0.0
  0
LINE
  5
2882
330
1E
100
AcDbEntity
  8
0
100
AcDbLine
 10
3.795275590551181
 20
3.919291338582677
 30
0.0
 11
3.319881889763779
 21
3.919291338582677
 31
0.0
  0
LINE
  5
2883
330
1E
100
AcDbEntity
  8
0
100
AcDbLine
 10
3.824803149606299
 20
3.966535433070866
 30
0.0
 11
3.824803149606299
 21
4.197834645669291
 31
0.0
  0
LINE
  5
288A
330
1E
100
AcDbEntity
  8
0
100
AcDbLine
 10
3.875
 20
4.233267716535433
 30
0.0
 11
3.926181102362204
 21
4.233267716535433
 31
0.0
  0
LINE
  5
2896
330
1E
100
AcDbEntity
  8
0
100
AcDbLine
 10
3.926181102362204
 20
4.311023622047244
 30
0.0
 11
3.206692913385826
 21
4.311023622047244
 31
0.0
  0
LINE
  5
2897
330
1E
100
AcDbEntity
  8
0
100
AcDbLine
 10
3.206692913385826
 20
4.311023622047244
 30
0.0
 11
3.206692913385826
 21
3.972440944881889
 31
0.0
  0
LINE
  5
2898
330
1E
100
AcDbEntity
  8
0
100
AcDbLine
 10
3.206692913385826
 20
3.972440944881889
 30
0.0
 11
3.261811023622047
 21
3.972440944881889
 31
0.0
  0
LINE
  5
28AF
330
1E
100
AcDbEntity
  8
0
100
AcDbLine
 10
3.187007874015748
 20
3.960629921259842
 30
0.0
 11
3.187007874015748
 21
4.297244094488188
 31
0.0
  0
LINE
  5
28D0
330
1E
100
AcDbEntity
  8
0
100
AcDbLine
 10
3.926181102362204
 20
4.205708661417323
 30
0.0
 11
3.923228346456692
 21
4.205708661417323
 31
0.0
  0
LINE
  5
28DB
330
1E
100
AcDbEntity
  8
0
100
AcDbLine
 10
3.261811023622047
 20
3.972440944881889
 30
0.0
 11
3.261811023622047
 21
3.960629921259842
 31
0.0
  0
LINE
  5
28DC
330
1E
100
AcDbEntity
  8
0
100
AcDbLine
 10
3.926181102362204
 20
4.205708661417323
 30
0.0
 11
3.926181102362204
 21
4.203740157480314
 31
0.0
  0
LINE
  5
28DD
330
1E
100
AcDbEntity
  8
0
100
AcDbLine
 10
3.094488188976377
 20
3.966535433070866
 30
0.0
 11
3.094488188976377
 21
3.966535433070866
 31
0.0
  0
LINE
  5
28E8
330
1E
100
AcDbEntity
  8
0
100
AcDbLine
 10
2.529527559055118
 20
4.122047244094487
 30
0.0
 11
2.529527559055118
 21
4.182086614173228
 31
0.0
  0
LINE
  5
28E9
330
1E
100
AcDbEntity
  8
0
100
AcDbLine
 10
2.518700787401574
 20
4.177165354330708
 30
0.0
 11
2.518700787401574
 21
4.170275590551181
 31
0.0
  0
LINE
  5
28F4
330
1E
100
AcDbEntity
  8
0
100
AcDbLine
 10
2.518700787401574
 20
4.177165354330708
 30
0.0
 11
2.518700787401574
 21
4.184055118110236
 31
0.0
  0
LINE
  5
292C
330
1E
100
AcDbEntity
  8
0
100
AcDbLine
 10
2.568897637795275
 20
3.966535433070866
 30
0.0
 11
2.539370078740157
 21
3.966535433070866
 31
0.0
  0
LINE
  5
292D
330
1E
100
AcDbEntity
  8
0
100
AcDbLine
 10
2.518700787401574
 20
3.955708661417322
 30
0.0
 11
2.518700787401574
 21
4.102362204724409
 31
0.0
  0
LINE
  5
292E
330
1E
100
AcDbEntity
  8
0
100
AcDbLine
 10
2.514763779527558
 20
3.946850393700787
 30
0.0
 11
2.520669291338582
 21
3.946850393700787
 31
0.0
  0
LINE
  5
292F
330
1E
100
AcDbEntity
  8
0
100
AcDbLine
 10
2.505905511811023
 20
3.922244094488188
 30
0.0
 11
2.520669291338582
 21
3.922244094488188
 31
0.0
  0
LINE
  5
2930
330
1E
100
AcDbEntity
  8
0
100
AcDbLine
 10
2.504921259842519
 20
3.939960629921259
 30
0.0
 11
2.504921259842519
 21
3.939960629921259
 31
0.0
  0
LINE
  5
2937
330
1E
100
AcDbEntity
  8
0
100
AcDbLine
 10
2.504921259842519
 20
3.938976377952755
 30
0.0
 11
2.504921259842519
 21
3.939960629921259
 31
0.0
  0
LINE
  5
294A
330
1E
100
AcDbEntity
  8
0
100
AcDbLine
 10
3.044291338582677
 20
3.966535433070866
 30
0.0
 11
3.094488188976377
 21
3.966535433070866
 31
0.0
  0
LINE
  5
2950
330
1E
100
AcDbEntity
  8
0
100
AcDbLine
 10
3.15748031496063
 20
3.971456692913385
 30
0.0
 11
3.102362204724409
 21
3.971456692913385
 31
0.0
  0
LINE
  5
2951
330
1E
100
AcDbEntity
  8
0
100
AcDbLine
 10
3.15748031496063
 20
3.971456692913385
 30
0.0
 11
3.15748031496063
 21
4.311023622047244
 31
0.0
  0
LINE
  5
2952
330
1E
100
AcDbEntity
  8
0
100
AcDbLine
 10
3.15748031496063
 20
4.311023622047244
 30
0.0
 11
2.437992125984251
 21
4.311023622047244
 31
0.0
  0
LINE
  5
295E
330
1E
100
AcDbEntity
  8
0
100
AcDbLine
 10
2.437992125984251
 20
4.233267716535433
 30
0.0
 11
2.489173228346456
 21
4.233267716535433
 31
0.0
  0
LINE
  5
2965
330
1E
100
AcDbEntity
  8
0
100
AcDbLine
 10
2.539370078740157
 20
4.197834645669291
 30
0.0
 11
2.539370078740157
 21
3.966535433070866
 31
0.0
  0
LINE
  5
2966
330
1E
100
AcDbEntity
  8
0
100
AcDbLine
 10
2.568897637795275
 20
3.919291338582677
 30
0.0
 11
3.044291338582677
 21
3.919291338582677
 31
0.0
  0
LINE
  5
297B
330
1E
100
AcDbEntity
  8
0
100
AcDbLine
 10
2.439960629921259
 20
4.205708661417323
 30
0.0
 11
2.437992125984251
 21
4.205708661417323
 31
0.0
  0
LINE
  5
2997
330
1E
100
AcDbEntity
  8
0
100
AcDbLine
 10
3.177165354330708
 20
4.297244094488188
 30
0.0
 11
3.177165354330708
 21
3.960629921259842
 31
0.0
  0
LINE
  5
29A4
330
1E
100
AcDbEntity
  8
0
100
AcDbLine
 10
3.102362204724409
 20
3.960629921259842
 30
0.0
 11
3.102362204724409
 21
3.971456692913385
 31
0.0
  0
LINE
  5
29A5
330
1E
100
AcDbEntity
  8
0
100
AcDbLine
 10
2.437992125984251
 20
4.203740157480314
 30
0.0
 11
2.437992125984251
 21
4.205708661417323
 31
0.0
  0
LINE
  5
29A6
330
1E
100
AcDbEntity
  8
0
100
AcDbLine
 10
2.410433070866141
 20
3.658464566929133
 30
0.0
 11
2.40748031496063
 21
3.846456692913385
 31
0.0
  0
LINE
  5
29A7
330
1E
100
AcDbEntity
  8
0
100
AcDbLine
 10
2.410433070866141
 20
3.658464566929133
 30
0.0
 11
2.489173228346456
 21
3.658464566929133
 31
0.0
  0
LINE
  5
29A8
330
1E
100
AcDbEntity
  8
0
100
AcDbLine
 10
3.875
 20
3.658464566929133
 30
0.0
 11
3.953740157480314
 21
3.658464566929133
 31
0.0
  0
LINE
  5
29A9
330
1E
100
AcDbEntity
  8
0
100
AcDbLine
 10
2.920275590551181
 20
3.507874015748031
 30
0.0
 11
2.99507874015748
 21
3.507874015748031
 31
0.0
  0
LINE
  5
29AA
330
1E
100
AcDbEntity
  8
0
100
AcDbLine
 10
2.922244094488188
 20
3.752952755905511
 30
0.0
 11
2.920275590551181
 21
3.507874015748031
 31
0.0
  0
LINE
  5
29AB
330
1E
100
AcDbEntity
  8
0
100
AcDbLine
 10
2.993110236220472
 20
3.752952755905511
 30
0.0
 11
2.922244094488188
 21
3.752952755905511
 31
0.0
  0
LINE
  5
29AC
330
1E
100
AcDbEntity
  8
0
100
AcDbLine
 10
2.99507874015748
 20
3.507874015748031
 30
0.0
 11
2.993110236220472
 21
3.752952755905511
 31
0.0
  0
LINE
  5
29AD
330
1E
100
AcDbEntity
  8
0
100
AcDbLine
 10
2.489173228346456
 20
3.658464566929133
 30
0.0
 11
2.499015748031495
 21
3.374015748031495
 31
0.0
  0
LINE
  5
29AE
330
1E
100
AcDbEntity
  8
0
100
AcDbLine
 10
3.86515748031496
 20
3.374015748031495
 30
0.0
 11
2.499015748031495
 21
3.374015748031495
 31
0.0
  0
LINE
  5
29AF
330
1E
100
AcDbEntity
  8
0
100
AcDbLine
 10
3.86515748031496
 20
3.374015748031495
 30
0.0
 11
3.875
 21
3.658464566929133
 31
0.0
  0
LINE
  5
29B0
330
1E
100
AcDbEntity
  8
0
100
AcDbLine
 10
3.956692913385826
 20
3.846456692913385
 30
0.0
 11
3.953740157480314
 21
3.658464566929133
 31
0.0
  0
LINE
  5
29B1
330
1E
100
AcDbEntity
  8
0
100
AcDbLine
 10
3.869094488188976
 20
3.846456692913385
 30
0.0
 11
3.956692913385826
 21
3.846456692913385
 31
0.0
  0
LINE
  5
29B2
330
1E
100
AcDbEntity
  8
0
100
AcDbLine
 10
3.869094488188976
 20
3.846456692913385
 30
0.0
 11
2.49507874015748
 21
3.846456692913385
 31
0.0
  0
LINE
  5
29B3
330
1E
100
AcDbEntity
  8
0
100
AcDbLine
 10
2.40748031496063
 20
3.846456692913385
 30
0.0
 11
2.49507874015748
 21
3.846456692913385
 31
0.0
  0
LINE
  5
29B4
330
1E
100
AcDbEntity
  8
0
100
AcDbLine
 10
2.561023622047243
 20
3.890748031496062
 30
0.0
 11
2.561023622047243
 21
3.88779527559055
 31
0.0
  0
LINE
  5
29B5
330
1E
100
AcDbEntity
  8
0
100
AcDbLine
 10
2.561023622047243
 20
3.879921259842519
 30
0.0
 11
2.561023622047243
 21
3.88779527559055
 31
0.0
  0
LINE
  5
29B6
330
1E
100
AcDbEntity
  8
0
100
AcDbLine
 10
3.803149606299212
 20
3.88779527559055
 30
0.0
 11
3.803149606299212
 21
3.879921259842519
 31
0.0
  0
LINE
  5
29B7
330
1E
100
AcDbEntity
  8
0
100
AcDbLine
 10
3.803149606299212
 20
3.890748031496062
 30
0.0
 11
3.803149606299212
 21
3.88779527559055
 31
0.0
  0
LINE
  5
29B8
330
1E
100
AcDbEntity
  8
0
100
AcDbLine
 10
2.40748031496063
 20
3.846456692913385
 30
0.0
 11
2.400590551181102
 21
3.658464566929133
 31
0.0
  0
LINE
  5
29B9
330
1E
100
AcDbEntity
  8
0
100
AcDbLine
 10
2.400590551181102
 20
3.658464566929133
 30
0.0
 11
2.399606299212598
 21
3.477362204724409
 31
0.0
  0
LINE
  5
29BA
330
1E
100
AcDbEntity
  8
0
100
AcDbLine
 10
2.399606299212598
 20
3.477362204724409
 30
0.0
 11
2.364173228346456
 21
3.477362204724409
 31
0.0
  0
LINE
  5
29BB
330
1E
100
AcDbEntity
  8
0
100
AcDbLine
 10
2.364173228346456
 20
3.477362204724409
 30
0.0
 11
2.364173228346456
 21
3.458661417322834
 31
0.0
  0
LINE
  5
29BC
330
1E
100
AcDbEntity
  8
0
100
AcDbLine
 10
2.438976377952756
 20
3.328740157480314
 30
0.0
 11
2.364173228346456
 21
3.458661417322834
 31
0.0
  0
LINE
  5
29BD
330
1E
100
AcDbEntity
  8
0
100
AcDbLine
 10
2.451771653543306
 20
3.328740157480314
 30
0.0
 11
2.438976377952756
 21
3.328740157480314
 31
0.0
  0
LINE
  5
29BE
330
1E
100
AcDbEntity
  8
0
100
AcDbLine
 10
2.451771653543306
 20
3.328740157480314
 30
0.0
 11
2.469488188976377
 21
3.658464566929133
 31
0.0
  0
LINE
  5
29BF
330
1E
100
AcDbEntity
  8
0
100
AcDbLine
 10
3.894685039370078
 20
3.658464566929133
 30
0.0
 11
3.912401574803149
 21
3.328740157480314
 31
0.0
  0
LINE
  5
29C0
330
1E
100
AcDbEntity
  8
0
100
AcDbLine
 10
3.9251968503937
 20
3.328740157480314
 30
0.0
 11
3.912401574803149
 21
3.328740157480314
 31
0.0
  0
LINE
  5
29C1
330
1E
100
AcDbEntity
  8
0
100
AcDbLine
 10
3.9251968503937
 20
3.328740157480314
 30
0.0
 11
4.0
 21
3.458661417322834
 31
0.0
  0
LINE
  5
29C2
330
1E
100
AcDbEntity
  8
0
100
AcDbLine
 10
4.0
 20
3.477362204724409
 30
0.0
 11
4.0
 21
3.458661417322834
 31
0.0
  0
LINE
  5
29C3
330
1E
100
AcDbEntity
  8
0
100
AcDbLine
 10
3.964566929133858
 20
3.477362204724409
 30
0.0
 11
4.0
 21
3.477362204724409
 31
0.0
  0
LINE
  5
29C4
330
1E
100
AcDbEntity
  8
0
100
AcDbLine
 10
3.963582677165354
 20
3.658464566929133
 30
0.0
 11
3.964566929133858
 21
3.477362204724409
 31
0.0
  0
LINE
  5
29C5
330
1E
100
AcDbEntity
  8
0
100
AcDbLine
 10
3.963582677165354
 20
3.658464566929133
 30
0.0
 11
3.956692913385826
 21
3.846456692913385
 31
0.0
  0
LINE
  5
29C6
330
1E
100
AcDbEntity
  8
0
100
AcDbLine
 10
2.922244094488188
 20
3.747047244094487
 30
0.0
 11
2.993110236220472
 21
3.747047244094487
 31
0.0
  0
LINE
  5
29C7
330
1E
100
AcDbEntity
  8
0
100
AcDbLine
 10
2.40748031496063
 20
3.846456692913385
 30
0.0
 11
2.40748031496063
 21
3.857283464566929
 31
0.0
  0
LINE
  5
29C8
330
1E
100
AcDbEntity
  8
0
100
AcDbLine
 10
2.40748031496063
 20
3.857283464566929
 30
0.0
 11
2.411417322834645
 21
3.970472440944881
 31
0.0
  0
LINE
  5
29CE
330
1E
100
AcDbEntity
  8
0
100
AcDbLine
 10
2.412401574803149
 20
3.994094488188976
 30
0.0
 11
2.419291338582677
 21
4.179133858267716
 31
0.0
  0
LINE
  5
29CF
330
1E
100
AcDbEntity
  8
0
100
AcDbLine
 10
2.419291338582677
 20
4.193897637795275
 30
0.0
 11
2.419291338582677
 21
4.179133858267716
 31
0.0
  0
LINE
  5
29D0
330
1E
100
AcDbEntity
  8
0
100
AcDbLine
 10
2.424212598425196
 20
4.315944881889763
 30
0.0
 11
2.424212598425196
 21
4.33759842519685
 31
0.0
  0
LINE
  5
29D6
330
1E
100
AcDbEntity
  8
0
100
AcDbLine
 10
3.857283464566929
 20
3.868110236220472
 30
0.0
 11
3.858267716535432
 21
3.916338582677165
 31
0.0
  0
LINE
  5
29D7
330
1E
100
AcDbEntity
  8
0
100
AcDbLine
 10
2.506889763779527
 20
3.868110236220472
 30
0.0
 11
2.505905511811023
 21
3.916338582677165
 31
0.0
  0
LINE
  5
29E1
330
1E
100
AcDbEntity
  8
0
100
AcDbLine
 10
3.856299212598425
 20
3.890748031496062
 30
0.0
 11
3.856299212598425
 21
3.88779527559055
 31
0.0
  0
LINE
  5
29E2
330
1E
100
AcDbEntity
  8
0
100
AcDbLine
 10
3.857283464566929
 20
3.868110236220472
 30
0.0
 11
3.856299212598425
 21
3.88779527559055
 31
0.0
  0
LINE
  5
29F2
330
1E
100
AcDbEntity
  8
0
100
AcDbLine
 10
3.952755905511811
 20
3.970472440944881
 30
0.0
 11
3.956692913385826
 21
3.857283464566929
 31
0.0
  0
LINE
  5
29F3
330
1E
100
AcDbEntity
  8
0
100
AcDbLine
 10
3.956692913385826
 20
3.846456692913385
 30
0.0
 11
3.956692913385826
 21
3.857283464566929
 31
0.0
  0
LINE
  5
29F9
330
1E
100
AcDbEntity
  8
0
100
AcDbLine
 10
3.939960629921259
 20
4.33759842519685
 30
0.0
 11
3.939960629921259
 21
4.315944881889763
 31
0.0
  0
LINE
  5
29FA
330
1E
100
AcDbEntity
  8
0
100
AcDbLine
 10
3.944881889763779
 20
4.193897637795275
 30
0.0
 11
3.944881889763779
 21
4.179133858267716
 31
0.0
  0
LINE
  5
29FB
330
1E
100
AcDbEntity
  8
0
100
AcDbLine
 10
3.944881889763779
 20
4.179133858267716
 30
0.0
 11
3.951771653543307
 21
3.994094488188976
 31
0.0
  0
LINE
  5
29FC
330
1E
100
AcDbEntity
  8
0
100
AcDbLine
 10
2.506889763779527
 20
3.868110236220472
 30
0.0
 11
2.507874015748031
 21
3.88779527559055
 31
0.0
  0
LINE
  5
29FD
330
1E
100
AcDbEntity
  8
0
100
AcDbLine
 10
2.507874015748031
 20
3.890748031496062
 30
0.0
 11
2.507874015748031
 21
3.88779527559055
 31
0.0
  0
LINE
  5
2A08
330
1E
100
AcDbEntity
  8
0
100
AcDbLine
 10
3.269685039370078
 20
3.888779527559055
 30
0.0
 11
3.269685039370078
 21
3.915354330708661
 31
0.0
  0
LINE
  5
2A09
330
1E
100
AcDbEntity
  8
0
100
AcDbLine
 10
3.269685039370078
 20
3.888779527559055
 30
0.0
 11
3.269685039370078
 21
3.879921259842519
 31
0.0
  0
LINE
  5
2A0A
330
1E
100
AcDbEntity
  8
0
100
AcDbLine
 10
3.330708661417322
 20
3.879921259842519
 30
0.0
 11
3.269685039370078
 21
3.879921259842519
 31
0.0
  0
LINE
  5
2A0B
330
1E
100
AcDbEntity
  8
0
100
AcDbLine
 10
3.330708661417322
 20
3.879921259842519
 30
0.0
 11
3.330708661417322
 21
3.882874015748031
 31
0.0
  0
LINE
  5
2A0C
330
1E
100
AcDbEntity
  8
0
100
AcDbLine
 10
3.033464566929133
 20
3.882874015748031
 30
0.0
 11
3.033464566929133
 21
3.879921259842519
 31
0.0
  0
LINE
  5
2A0D
330
1E
100
AcDbEntity
  8
0
100
AcDbLine
 10
3.033464566929133
 20
3.879921259842519
 30
0.0
 11
3.094488188976377
 21
3.879921259842519
 31
0.0
  0
LINE
  5
2A0E
330
1E
100
AcDbEntity
  8
0
100
AcDbLine
 10
3.094488188976377
 20
3.888779527559055
 30
0.0
 11
3.094488188976377
 21
3.879921259842519
 31
0.0
  0
LINE
  5
2A0F
330
1E
100
AcDbEntity
  8
0
100
AcDbLine
 10
3.094488188976377
 20
3.888779527559055
 30
0.0
 11
3.094488188976377
 21
3.915354330708661
 31
0.0
  0
LINE
  5
2A1A
330
1E
100
AcDbEntity
  8
0
100
AcDbLine
 10
3.269685039370078
 20
3.946850393700787
 30
0.0
 11
3.094488188976377
 21
3.946850393700787
 31
0.0
  0
LINE
  5
2A1B
330
1E
100
AcDbEntity
  8
0
100
AcDbLine
 10
3.094488188976377
 20
3.915354330708661
 30
0.0
 11
3.269685039370078
 21
3.915354330708661
 31
0.0
  0
LINE
  5
2A1C
330
1E
100
AcDbEntity
  8
0
100
AcDbLine
 10
3.094488188976377
 20
3.888779527559055
 30
0.0
 11
3.269685039370078
 21
3.888779527559055
 31
0.0
  0
LINE
  5
2A1D
330
1E
100
AcDbEntity
  8
0
100
AcDbLine
 10
2.469488188976377
 20
4.364173228346456
 30
0.0
 11
3.894685039370078
 21
4.364173228346456
 31
0.0
  0
LINE
  5
2A25
330
1E
100
AcDbEntity
  8
0
100
AcDbLine
 10
3.177165354330708
 20
4.282480314960629
 30
0.0
 11
3.187007874015748
 21
4.282480314960629
 31
0.0
  0
LINE
  5
2A2D
330
1E
100
AcDbEntity
  8
0
100
AcDbLine
 10
3.803149606299212
 20
3.879921259842519
 30
0.0
 11
3.330708661417322
 21
3.879921259842519
 31
0.0
  0
LINE
  5
2A2E
330
1E
100
AcDbEntity
  8
0
100
AcDbLine
 10
2.561023622047243
 20
3.879921259842519
 30
0.0
 11
3.033464566929133
 21
3.879921259842519
 31
0.0
  0
LINE
  5
2A2F
330
1E
100
AcDbEntity
  8
0
100
AcDbLine
 10
2.507874015748031
 20
3.88779527559055
 30
0.0
 11
2.561023622047243
 21
3.88779527559055
 31
0.0
  0
LINE
  5
2A30
330
1E
100
AcDbEntity
  8
0
100
AcDbLine
 10
2.506889763779527
 20
3.846456692913385
 30
0.0
 11
2.506889763779527
 21
3.868110236220472
 31
0.0
  0
LINE
  5
2A31
330
1E
100
AcDbEntity
  8
0
100
AcDbLine
 10
3.857283464566929
 20
3.846456692913385
 30
0.0
 11
3.857283464566929
 21
3.868110236220472
 31
0.0
  0
LINE
  5
2A32
330
1E
100
AcDbEntity
  8
0
100
AcDbLine
 10
3.856299212598425
 20
3.88779527559055
 30
0.0
 11
3.803149606299212
 21
3.88779527559055
 31
0.0
  0
LINE
  5
2A33
330
1E
100
AcDbEntity
  8
0
100
AcDbLine
 10
3.894685039370078
 20
4.367125984251968
 30
0.0
 11
2.469488188976377
 21
4.367125984251968
 31
0.0
  0
LINE
  5
2A34
330
1E
100
AcDbEntity
  8
0
100
AcDbLine
 10
2.469488188976377
 20
4.367125984251968
 30
0.0
 11
2.469488188976377
 21
4.364173228346456
 31
0.0
  0
LINE
  5
2A35
330
1E
100
AcDbEntity
  8
0
100
AcDbLine
 10
3.894685039370078
 20
4.364173228346456
 30
0.0
 11
3.894685039370078
 21
4.367125984251968
 31
0.0
  0
LINE
  5
2A36
330
1E
100
AcDbEntity
  8
0
100
AcDbLine
 10
3.854330708661417
 20
3.955708661417322
 30
0.0
 11
3.854330708661417
 21
4.172244094488188
 31
0.0
  0
LINE
  5
2A37
330
1E
100
AcDbEntity
  8
0
100
AcDbLine
 10
2.509842519685039
 20
3.970472440944881
 30
0.0
 11
2.509842519685039
 21
4.172244094488188
 31
0.0
  0
LINE
  5
2A38
330
1E
100
AcDbEntity
  8
0
100
AcDbLine
 10
3.871062992125984
 20
3.885826771653542
 30
0.0
 11
3.936023622047244
 21
3.885826771653542
 31
0.0
  0
LINE
  5
2A39
330
1E
100
AcDbEntity
  8
0
100
AcDbLine
 10
3.936023622047244
 20
3.885826771653542
 30
0.0
 11
3.932086614173228
 21
3.984251968503937
 31
0.0
  0
LINE
  5
2A3A
330
1E
100
AcDbEntity
  8
0
100
AcDbLine
 10
3.932086614173228
 20
3.984251968503937
 30
0.0
 11
3.87007874015748
 21
3.984251968503937
 31
0.0
  0
LINE
  5
2A3B
330
1E
100
AcDbEntity
  8
0
100
AcDbLine
 10
3.87007874015748
 20
3.984251968503937
 30
0.0
 11
3.871062992125984
 21
3.885826771653542
 31
0.0
  0
LINE
  5
2A3C
330
1E
100
AcDbEntity
  8
0
100
AcDbLine
 10
3.871062992125984
 20
3.885826771653542
 30
0.0
 11
3.871062992125984
 21
3.885826771653542
 31
0.0
  0
LINE
  5
2A43
330
1E
100
AcDbEntity
  8
0
100
AcDbLine
 10
3.932086614173228
 20
4.01279527559055
 30
0.0
 11
3.869094488188976
 21
4.01279527559055
 31
0.0
  0
LINE
  5
2A4A
330
1E
100
AcDbEntity
  8
0
100
AcDbLine
 10
3.867125984251968
 20
4.01279527559055
 30
0.0
 11
3.869094488188976
 21
4.01279527559055
 31
0.0
  0
LINE
  5
2A4B
330
1E
100
AcDbEntity
  8
0
100
AcDbLine
 10
3.907480314960629
 20
4.01279527559055
 30
0.0
 11
3.900590551181102
 21
4.209645669291338
 31
0.0
  0
LINE
  5
2A4C
330
1E
100
AcDbEntity
  8
0
100
AcDbLine
 10
3.900590551181102
 20
4.209645669291338
 30
0.0
 11
3.866141732283464
 21
4.209645669291338
 31
0.0
  0
LINE
  5
2A4D
330
1E
100
AcDbEntity
  8
0
100
AcDbLine
 10
3.866141732283464
 20
4.209645669291338
 30
0.0
 11
3.867125984251968
 21
4.01279527559055
 31
0.0
  0
LINE
  5
2A4E
330
1E
100
AcDbEntity
  8
0
100
AcDbLine
 10
3.867125984251968
 20
4.01279527559055
 30
0.0
 11
3.867125984251968
 21
4.01279527559055
 31
0.0
  0
LINE
  5
2A55
330
1E
100
AcDbEntity
  8
0
100
AcDbLine
 10
3.871062992125984
 20
3.885826771653542
 30
0.0
 11
3.869094488188976
 21
3.846456692913385
 31
0.0
  0
LINE
  5
2A56
330
1E
100
AcDbEntity
  8
0
100
AcDbLine
 10
3.859251968503937
 20
4.002952755905512
 30
0.0
 11
3.856299212598425
 21
4.002952755905512
 31
0.0
  0
LINE
  5
2A57
330
1E
100
AcDbEntity
  8
0
100
AcDbLine
 10
3.856299212598425
 20
4.002952755905512
 30
0.0
 11
3.856299212598425
 21
4.203740157480314
 31
0.0
  0
LINE
  5
2A58
330
1E
100
AcDbEntity
  8
0
100
AcDbLine
 10
3.854330708661417
 20
4.172244094488188
 30
0.0
 11
3.856299212598425
 21
4.203740157480314
 31
0.0
  0
LINE
  5
2A59
330
1E
100
AcDbEntity
  8
0
100
AcDbLine
 10
3.859251968503937
 20
3.846456692913385
 30
0.0
 11
3.86023622047244
 21
3.881889763779527
 31
0.0
  0
LINE
  5
2A5A
330
1E
100
AcDbEntity
  8
0
100
AcDbLine
 10
3.86023622047244
 20
3.881889763779527
 30
0.0
 11
3.86023622047244
 21
3.977362204724409
 31
0.0
  0
LINE
  5
2A6D
330
1E
100
AcDbEntity
  8
0
100
AcDbLine
 10
2.432086614173228
 20
3.984251968503937
 30
0.0
 11
2.494094488188976
 21
3.984251968503937
 31
0.0
  0
LINE
  5
2A6E
330
1E
100
AcDbEntity
  8
0
100
AcDbLine
 10
2.432086614173228
 20
3.984251968503937
 30
0.0
 11
2.428149606299212
 21
3.885826771653542
 31
0.0
  0
LINE
  5
2A6F
330
1E
100
AcDbEntity
  8
0
100
AcDbLine
 10
2.493110236220472
 20
3.885826771653542
 30
0.0
 11
2.428149606299212
 21
3.885826771653542
 31
0.0
  0
LINE
  5
2A70
330
1E
100
AcDbEntity
  8
0
100
AcDbLine
 10
2.493110236220472
 20
3.885826771653542
 30
0.0
 11
2.493110236220472
 21
3.885826771653542
 31
0.0
  0
LINE
  5
2A71
330
1E
100
AcDbEntity
  8
0
100
AcDbLine
 10
2.493110236220472
 20
3.885826771653542
 30
0.0
 11
2.494094488188976
 21
3.984251968503937
 31
0.0
  0
LINE
  5
2A72
330
1E
100
AcDbEntity
  8
0
100
AcDbLine
 10
2.432086614173228
 20
4.01279527559055
 30
0.0
 11
2.49507874015748
 21
4.01279527559055
 31
0.0
  0
LINE
  5
2A7F
330
1E
100
AcDbEntity
  8
0
100
AcDbLine
 10
2.49507874015748
 20
4.01279527559055
 30
0.0
 11
2.497047244094487
 21
4.01279527559055
 31
0.0
  0
LINE
  5
2A80
330
1E
100
AcDbEntity
  8
0
100
AcDbLine
 10
2.463582677165354
 20
4.209645669291338
 30
0.0
 11
2.498031496062992
 21
4.209645669291338
 31
0.0
  0
LINE
  5
2A81
330
1E
100
AcDbEntity
  8
0
100
AcDbLine
 10
2.463582677165354
 20
4.209645669291338
 30
0.0
 11
2.456692913385826
 21
4.01279527559055
 31
0.0
  0
LINE
  5
2A82
330
1E
100
AcDbEntity
  8
0
100
AcDbLine
 10
2.497047244094487
 20
4.01279527559055
 30
0.0
 11
2.497047244094487
 21
4.01279527559055
 31
0.0
  0
LINE
  5
2A83
330
1E
100
AcDbEntity
  8
0
100
AcDbLine
 10
2.497047244094487
 20
4.01279527559055
 30
0.0
 11
2.498031496062992
 21
4.209645669291338
 31
0.0
  0
LINE
  5
2A8A
330
1E
100
AcDbEntity
  8
0
100
AcDbLine
 10
2.49507874015748
 20
3.846456692913385
 30
0.0
 11
2.493110236220472
 21
3.885826771653542
 31
0.0
  0
LINE
  5
2A8B
330
1E
100
AcDbEntity
  8
0
100
AcDbLine
 10
2.509842519685039
 20
4.172244094488188
 30
0.0
 11
2.507874015748031
 21
4.203740157480314
 31
0.0
  0
LINE
  5
2A8C
330
1E
100
AcDbEntity
  8
0
100
AcDbLine
 10
2.507874015748031
 20
4.203740157480314
 30
0.0
 11
2.507874015748031
 21
4.002952755905512
 31
0.0
  0
LINE
  5
2A8D
330
1E
100
AcDbEntity
  8
0
100
AcDbLine
 10
2.507874015748031
 20
4.002952755905512
 30
0.0
 11
2.504921259842519
 21
4.002952755905512
 31
0.0
  0
LINE
  5
2A94
330
1E
100
AcDbEntity
  8
0
100
AcDbLine
 10
2.503937007874015
 20
3.977362204724409
 30
0.0
 11
2.503937007874015
 21
3.881889763779527
 31
0.0
  0
LINE
  5
2A95
330
1E
100
AcDbEntity
  8
0
100
AcDbLine
 10
2.503937007874015
 20
3.881889763779527
 30
0.0
 11
2.504921259842519
 21
3.846456692913385
 31
0.0
  0
LINE
  5
2AE0
330
1E
100
AcDbEntity
  8
0
100
AcDbLine
 10
3.884842519685039
 20
3.658464566929133
 30
0.0
 11
3.875
 21
3.374015748031495
 31
0.0
  0
LINE
  5
2AE1
330
1E
100
AcDbEntity
  8
0
100
AcDbLine
 10
2.489173228346456
 20
3.374015748031495
 30
0.0
 11
2.479330708661417
 21
3.658464566929133
 31
0.0
  0
LINE
  5
339D
330
1E
100
AcDbEntity
  8
0
100
AcDbLine
 10
3.952755905511811
 20
3.970472440944881
 30
0.0
 11
3.946850393700787
 21
3.980314960629921
 31
0.0
  0
LINE
  5
339E
330
1E
100
AcDbEntity
  8
0
100
AcDbLine
 10
3.946850393700787
 20
3.980314960629921
 30
0.0
 11
3.932086614173228
 21
3.984251968503937
 31
0.0
  0
LINE
  5
339F
330
1E
100
AcDbEntity
  8
0
100
AcDbLine
 10
3.951771653543307
 20
3.994094488188976
 30
0.0
 11
3.945866141732283
 21
4.006889763779527
 31
0.0
  0
LINE
  5
33A0
330
1E
100
AcDbEntity
  8
0
100
AcDbLine
 10
3.945866141732283
 20
4.006889763779527
 30
0.0
 11
3.932086614173228
 21
4.01279527559055
 31
0.0
  0
LINE
  5
33A1
330
1E
100
AcDbEntity
  8
0
100
AcDbLine
 10
2.432086614173228
 20
3.984251968503937
 30
0.0
 11
2.417322834645669
 21
3.980314960629921
 31
0.0
  0
LINE
  5
33A2
330
1E
100
AcDbEntity
  8
0
100
AcDbLine
 10
2.417322834645669
 20
3.980314960629921
 30
0.0
 11
2.411417322834645
 21
3.970472440944881
 31
0.0
  0
LINE
  5
33A3
330
1E
100
AcDbEntity
  8
0
100
AcDbLine
 10
2.432086614173228
 20
4.01279527559055
 30
0.0
 11
2.418307086614173
 21
4.006889763779527
 31
0.0
  0
LINE
  5
33A4
330
1E
100
AcDbEntity
  8
0
100
AcDbLine
 10
2.418307086614173
 20
4.006889763779527
 30
0.0
 11
2.412401574803149
 21
3.994094488188976
 31
0.0
  0
LINE
  5
33A5
330
1E
100
AcDbEntity
  8
0
100
AcDbLine
 10
3.894685039370078
 20
4.367125984251968
 30
0.0
 11
3.916338582677165
 21
4.364173228346456
 31
0.0
  0
LINE
  5
33A6
330
1E
100
AcDbEntity
  8
0
100
AcDbLine
 10
3.916338582677165
 20
4.364173228346456
 30
0.0
 11
3.933070866141732
 21
4.352362204724409
 31
0.0
  0
LINE
  5
33A7
330
1E
100
AcDbEntity
  8
0
100
AcDbLine
 10
3.933070866141732
 20
4.352362204724409
 30
0.0
 11
3.939960629921259
 21
4.33759842519685
 31
0.0
  0
LINE
  5
33A8
330
1E
100
AcDbEntity
  8
0
100
AcDbLine
 10
2.469488188976377
 20
4.367125984251968
 30
0.0
 11
2.446850393700787
 21
4.364173228346456
 31
0.0
  0
LINE
  5
33A9
330
1E
100
AcDbEntity
  8
0
100
AcDbLine
 10
2.446850393700787
 20
4.364173228346456
 30
0.0
 11
2.431102362204724
 21
4.352362204724409
 31
0.0
  0
LINE
  5
33AA
330
1E
100
AcDbEntity
  8
0
100
AcDbLine
 10
2.431102362204724
 20
4.352362204724409
 30
0.0
 11
2.424212598425196
 21
4.33759842519685
 31
0.0
  0
LINE
  5
33AB
330
1E
100
AcDbEntity
  8
0
100
AcDbLine
 10
2.499015748031495
 20
3.374015748031495
 30
0.0
 11
2.492125984251968
 21
3.374015748031495
 31
0.0
  0
LINE
  5
33AC
330
1E
100
AcDbEntity
  8
0
100
AcDbLine
 10
2.492125984251968
 20
3.374015748031495
 30
0.0
 11
2.489173228346456
 21
3.374015748031495
 31
0.0
  0
LINE
  5
33AD
330
1E
100
AcDbEntity
  8
0
100
AcDbLine
 10
3.875
 20
3.374015748031495
 30
0.0
 11
3.872047244094487
 21
3.374015748031495
 31
0.0
  0
LINE
  5
33AE
330
1E
100
AcDbEntity
  8
0
100
AcDbLine
 10
3.872047244094487
 20
3.374015748031495
 30
0.0
 11
3.86515748031496
 21
3.374015748031495
 31
0.0
  0
LINE
  5
33AF
330
1E
100
AcDbEntity
  8
0
100
AcDbLine
 10
3.856299212598425
 20
4.002952755905512
 30
0.0
 11
3.86023622047244
 21
4.009842519685038
 31
0.0
  0
LINE
  5
33B0
330
1E
100
AcDbEntity
  8
0
100
AcDbLine
 10
3.86023622047244
 20
4.009842519685038
 30
0.0
 11
3.867125984251968
 21
4.01279527559055
 31
0.0
  0
LINE
  5
33B1
330
1E
100
AcDbEntity
  8
0
100
AcDbLine
 10
3.859251968503937
 20
4.002952755905512
 30
0.0
 11
3.862204724409448
 21
4.009842519685038
 31
0.0
  0
LINE
  5
33B2
330
1E
100
AcDbEntity
  8
0
100
AcDbLine
 10
3.862204724409448
 20
4.009842519685038
 30
0.0
 11
3.869094488188976
 21
4.01279527559055
 31
0.0
  0
LINE
  5
33B3
330
1E
100
AcDbEntity
  8
0
100
AcDbLine
 10
3.86023622047244
 20
3.977362204724409
 30
0.0
 11
3.863188976377952
 21
3.982283464566929
 31
0.0
  0
LINE
  5
33B4
330
1E
100
AcDbEntity
  8
0
100
AcDbLine
 10
3.863188976377952
 20
3.982283464566929
 30
0.0
 11
3.87007874015748
 21
3.984251968503937
 31
0.0
  0
LINE
  5
33B5
330
1E
100
AcDbEntity
  8
0
100
AcDbLine
 10
3.86023622047244
 20
3.881889763779527
 30
0.0
 11
3.864173228346456
 21
3.884842519685039
 31
0.0
  0
LINE
  5
33B6
330
1E
100
AcDbEntity
  8
0
100
AcDbLine
 10
3.864173228346456
 20
3.884842519685039
 30
0.0
 11
3.871062992125984
 21
3.885826771653542
 31
0.0
  0
LINE
  5
33B7
330
1E
100
AcDbEntity
  8
0
100
AcDbLine
 10
2.497047244094487
 20
4.01279527559055
 30
0.0
 11
2.503937007874015
 21
4.009842519685038
 31
0.0
  0
LINE
  5
33B8
330
1E
100
AcDbEntity
  8
0
100
AcDbLine
 10
2.503937007874015
 20
4.009842519685038
 30
0.0
 11
2.507874015748031
 21
4.002952755905512
 31
0.0
  0
LINE
  5
33B9
330
1E
100
AcDbEntity
  8
0
100
AcDbLine
 10
2.49507874015748
 20
4.01279527559055
 30
0.0
 11
2.501968503937007
 21
4.009842519685038
 31
0.0
  0
LINE
  5
33BA
330
1E
100
AcDbEntity
  8
0
100
AcDbLine
 10
2.501968503937007
 20
4.009842519685038
 30
0.0
 11
2.504921259842519
 21
4.002952755905512
 31
0.0
  0
LINE
  5
33BB
330
1E
100
AcDbEntity
  8
0
100
AcDbLine
 10
2.494094488188976
 20
3.984251968503937
 30
0.0
 11
2.500984251968503
 21
3.982283464566929
 31
0.0
  0
LINE
  5
33BC
330
1E
100
AcDbEntity
  8
0
100
AcDbLine
 10
2.500984251968503
 20
3.982283464566929
 30
0.0
 11
2.503937007874015
 21
3.977362204724409
 31
0.0
  0
LINE
  5
33BD
330
1E
100
AcDbEntity
  8
0
100
AcDbLine
 10
2.493110236220472
 20
3.885826771653542
 30
0.0
 11
2.5
 21
3.884842519685039
 31
0.0
  0
LINE
  5
33BE
330
1E
100
AcDbEntity
  8
0
100
AcDbLine
 10
2.5
 20
3.884842519685039
 30
0.0
 11
2.503937007874015
 21
3.881889763779527
 31
0.0
  0
LINE
  5
33BF
330
1E
100
AcDbEntity
  8
0
100
AcDbLine
 10
3.894685039370078
 20
4.367125984251968
 30
0.0
 11
3.894685039370078
 21
4.381889763779527
 31
0.0
  0
LINE
  5
33C0
330
1E
100
AcDbEntity
  8
0
100
AcDbLine
 10
3.894685039370078
 20
4.381889763779527
 30
0.0
 11
3.894685039370078
 21
4.391732283464566
 31
0.0
  0
LINE
  5
33C1
330
1E
100
AcDbEntity
  8
0
100
AcDbLine
 10
3.894685039370078
 20
4.391732283464566
 30
0.0
 11
3.893700787401574
 21
4.394685039370078
 31
0.0
  0
LINE
  5
33C2
330
1E
100
AcDbEntity
  8
0
100
AcDbLine
 10
2.470472440944881
 20
4.394685039370078
 30
0.0
 11
2.469488188976377
 21
4.391732283464566
 31
0.0
  0
LINE
  5
33C3
330
1E
100
AcDbEntity
  8
0
100
AcDbLine
 10
2.469488188976377
 20
4.391732283464566
 30
0.0
 11
2.469488188976377
 21
4.381889763779527
 31
0.0
  0
LINE
  5
33C4
330
1E
100
AcDbEntity
  8
0
100
AcDbLine
 10
2.469488188976377
 20
4.381889763779527
 30
0.0
 11
2.469488188976377
 21
4.367125984251968
 31
0.0
  0
LINE
  5
33C5
330
1E
100
AcDbEntity
  8
0
100
AcDbLine
 10
2.498031496062992
 20
4.209645669291338
 30
0.0
 11
2.504921259842519
 21
4.20767716535433
 31
0.0
  0
LINE
  5
33C6
330
1E
100
AcDbEntity
  8
0
100
AcDbLine
 10
2.504921259842519
 20
4.20767716535433
 30
0.0
 11
2.507874015748031
 21
4.203740157480314
 31
0.0
  0
LINE
  5
33C7
330
1E
100
AcDbEntity
  8
0
100
AcDbLine
 10
2.419291338582677
 20
4.179133858267716
 30
0.0
 11
2.423228346456693
 21
4.190944881889763
 31
0.0
  0
LINE
  5
33C8
330
1E
100
AcDbEntity
  8
0
100
AcDbLine
 10
2.423228346456693
 20
4.190944881889763
 30
0.0
 11
2.432086614173228
 21
4.200787401574802
 31
0.0
  0
LINE
  5
33C9
330
1E
100
AcDbEntity
  8
0
100
AcDbLine
 10
2.432086614173228
 20
4.200787401574802
 30
0.0
 11
2.446850393700787
 21
4.20767716535433
 31
0.0
  0
LINE
  5
33CA
330
1E
100
AcDbEntity
  8
0
100
AcDbLine
 10
2.446850393700787
 20
4.20767716535433
 30
0.0
 11
2.463582677165354
 21
4.209645669291338
 31
0.0
  0
LINE
  5
33CB
330
1E
100
AcDbEntity
  8
0
100
AcDbLine
 10
2.504921259842519
 20
4.002952755905512
 30
0.0
 11
2.503937007874015
 21
4.0
 31
0.0
  0
LINE
  5
33CC
330
1E
100
AcDbEntity
  8
0
100
AcDbLine
 10
2.503937007874015
 20
4.0
 30
0.0
 11
2.503937007874015
 21
3.991141732283464
 31
0.0
  0
LINE
  5
33CD
330
1E
100
AcDbEntity
  8
0
100
AcDbLine
 10
2.503937007874015
 20
3.991141732283464
 30
0.0
 11
2.503937007874015
 21
3.977362204724409
 31
0.0
  0
LINE
  5
33CE
330
1E
100
AcDbEntity
  8
0
100
AcDbLine
 10
2.428149606299212
 20
3.885826771653542
 30
0.0
 11
2.418307086614173
 21
3.881889763779527
 31
0.0
  0
LINE
  5
33CF
330
1E
100
AcDbEntity
  8
0
100
AcDbLine
 10
2.418307086614173
 20
3.881889763779527
 30
0.0
 11
2.410433070866141
 21
3.872047244094487
 31
0.0
  0
LINE
  5
33D0
330
1E
100
AcDbEntity
  8
0
100
AcDbLine
 10
2.410433070866141
 20
3.872047244094487
 30
0.0
 11
2.40748031496063
 21
3.857283464566929
 31
0.0
  0
LINE
  5
33D1
330
1E
100
AcDbEntity
  8
0
100
AcDbLine
 10
2.494094488188976
 20
3.984251968503937
 30
0.0
 11
2.494094488188976
 21
4.0
 31
0.0
  0
LINE
  5
33D2
330
1E
100
AcDbEntity
  8
0
100
AcDbLine
 10
2.494094488188976
 20
4.0
 30
0.0
 11
2.494094488188976
 21
4.009842519685038
 31
0.0
  0
LINE
  5
33D3
330
1E
100
AcDbEntity
  8
0
100
AcDbLine
 10
2.494094488188976
 20
4.009842519685038
 30
0.0
 11
2.49507874015748
 21
4.01279527559055
 31
0.0
  0
LINE
  5
33D4
330
1E
100
AcDbEntity
  8
0
100
AcDbLine
 10
2.432086614173228
 20
4.01279527559055
 30
0.0
 11
2.432086614173228
 21
4.009842519685038
 31
0.0
  0
LINE
  5
33D5
330
1E
100
AcDbEntity
  8
0
100
AcDbLine
 10
2.432086614173228
 20
4.009842519685038
 30
0.0
 11
2.432086614173228
 21
4.0
 31
0.0
  0
LINE
  5
33D6
330
1E
100
AcDbEntity
  8
0
100
AcDbLine
 10
2.432086614173228
 20
4.0
 30
0.0
 11
2.432086614173228
 21
3.984251968503937
 31
0.0
  0
LINE
  5
33D7
330
1E
100
AcDbEntity
  8
0
100
AcDbLine
 10
3.856299212598425
 20
4.203740157480314
 30
0.0
 11
3.859251968503937
 21
4.20767716535433
 31
0.0
  0
LINE
  5
33D8
330
1E
100
AcDbEntity
  8
0
100
AcDbLine
 10
3.859251968503937
 20
4.20767716535433
 30
0.0
 11
3.866141732283464
 21
4.209645669291338
 31
0.0
  0
LINE
  5
33D9
330
1E
100
AcDbEntity
  8
0
100
AcDbLine
 10
3.900590551181102
 20
4.209645669291338
 30
0.0
 11
3.917322834645669
 21
4.20767716535433
 31
0.0
  0
LINE
  5
33DA
330
1E
100
AcDbEntity
  8
0
100
AcDbLine
 10
3.917322834645669
 20
4.20767716535433
 30
0.0
 11
3.931102362204724
 21
4.200787401574802
 31
0.0
  0
LINE
  5
33DB
330
1E
100
AcDbEntity
  8
0
100
AcDbLine
 10
3.931102362204724
 20
4.200787401574802
 30
0.0
 11
3.940944881889763
 21
4.190944881889763
 31
0.0
  0
LINE
  5
33DC
330
1E
100
AcDbEntity
  8
0
100
AcDbLine
 10
3.940944881889763
 20
4.190944881889763
 30
0.0
 11
3.944881889763779
 21
4.179133858267716
 31
0.0
  0
LINE
  5
33DD
330
1E
100
AcDbEntity
  8
0
100
AcDbLine
 10
3.86023622047244
 20
3.977362204724409
 30
0.0
 11
3.86023622047244
 21
3.991141732283464
 31
0.0
  0
LINE
  5
33DE
330
1E
100
AcDbEntity
  8
0
100
AcDbLine
 10
3.86023622047244
 20
3.991141732283464
 30
0.0
 11
3.859251968503937
 21
4.0
 31
0.0
  0
LINE
  5
33DF
330
1E
100
AcDbEntity
  8
0
100
AcDbLine
 10
3.859251968503937
 20
4.0
 30
0.0
 11
3.859251968503937
 21
4.002952755905512
 31
0.0
  0
LINE
  5
33E0
330
1E
100
AcDbEntity
  8
0
100
AcDbLine
 10
3.956692913385826
 20
3.857283464566929
 30
0.0
 11
3.953740157480314
 21
3.872047244094487
 31
0.0
  0
LINE
  5
33E1
330
1E
100
AcDbEntity
  8
0
100
AcDbLine
 10
3.953740157480314
 20
3.872047244094487
 30
0.0
 11
3.945866141732283
 21
3.881889763779527
 31
0.0
  0
LINE
  5
33E2
330
1E
100
AcDbEntity
  8
0
100
AcDbLine
 10
3.945866141732283
 20
3.881889763779527
 30
0.0
 11
3.936023622047244
 21
3.885826771653542
 31
0.0
  0
LINE
  5
33E3
330
1E
100
AcDbEntity
  8
0
100
AcDbLine
 10
3.869094488188976
 20
4.01279527559055
 30
0.0
 11
3.87007874015748
 21
4.009842519685038
 31
0.0
  0
LINE
  5
33E4
330
1E
100
AcDbEntity
  8
0
100
AcDbLine
 10
3.87007874015748
 20
4.009842519685038
 30
0.0
 11
3.87007874015748
 21
4.0
 31
0.0
  0
LINE
  5
33E5
330
1E
100
AcDbEntity
  8
0
100
AcDbLine
 10
3.87007874015748
 20
4.0
 30
0.0
 11
3.87007874015748
 21
3.984251968503937
 31
0.0
  0
LINE
  5
33E6
330
1E
100
AcDbEntity
  8
0
100
AcDbLine
 10
3.932086614173228
 20
3.984251968503937
 30
0.0
 11
3.932086614173228
 21
4.0
 31
0.0
  0
LINE
  5
33E7
330
1E
100
AcDbEntity
  8
0
100
AcDbLine
 10
3.932086614173228
 20
4.0
 30
0.0
 11
3.932086614173228
 21
4.009842519685038
 31
0.0
  0
LINE
  5
33E8
330
1E
100
AcDbEntity
  8
0
100
AcDbLine
 10
3.932086614173228
 20
4.009842519685038
 30
0.0
 11
3.932086614173228
 21
4.01279527559055
 31
0.0
  0
LINE
  5
33E9
330
1E
100
AcDbEntity
  8
0
100
AcDbLine
 10
3.938976377952755
 20
4.316929133858267
 30
0.0
 11
3.932086614173228
 21
4.335629921259842
 31
0.0
  0
LINE
  5
33EA
330
1E
100
AcDbEntity
  8
0
100
AcDbLine
 10
3.932086614173228
 20
4.335629921259842
 30
0.0
 11
3.922244094488188
 21
4.351377952755905
 31
0.0
  0
LINE
  5
33EB
330
1E
100
AcDbEntity
  8
0
100
AcDbLine
 10
3.922244094488188
 20
4.351377952755905
 30
0.0
 11
3.908464566929133
 21
4.361220472440944
 31
0.0
  0
LINE
  5
33EC
330
1E
100
AcDbEntity
  8
0
100
AcDbLine
 10
3.908464566929133
 20
4.361220472440944
 30
0.0
 11
3.894685039370078
 21
4.364173228346456
 31
0.0
  0
LINE
  5
33ED
330
1E
100
AcDbEntity
  8
0
100
AcDbLine
 10
2.469488188976377
 20
4.364173228346456
 30
0.0
 11
2.455708661417322
 21
4.361220472440944
 31
0.0
  0
LINE
  5
33EE
330
1E
100
AcDbEntity
  8
0
100
AcDbLine
 10
2.455708661417322
 20
4.361220472440944
 30
0.0
 11
2.441929133858267
 21
4.351377952755905
 31
0.0
  0
LINE
  5
33EF
330
1E
100
AcDbEntity
  8
0
100
AcDbLine
 10
2.441929133858267
 20
4.351377952755905
 30
0.0
 11
2.432086614173228
 21
4.335629921259842
 31
0.0
  0
LINE
  5
33F0
330
1E
100
AcDbEntity
  8
0
100
AcDbLine
 10
2.432086614173228
 20
4.335629921259842
 30
0.0
 11
2.4251968503937
 21
4.316929133858267
 31
0.0
  0
LINE
  5
33F1
330
1E
100
AcDbEntity
  8
0
100
AcDbLine
 10
3.094488188976377
 20
3.960629921259842
 30
0.0
 11
3.094488188976377
 21
3.956692913385826
 31
0.0
  0
LINE
  5
33F2
330
1E
100
AcDbEntity
  8
0
100
AcDbLine
 10
3.094488188976377
 20
3.956692913385826
 30
0.0
 11
3.094488188976377
 21
3.946850393700787
 31
0.0
  0
LINE
  5
33F3
330
1E
100
AcDbEntity
  8
0
100
AcDbLine
 10
3.094488188976377
 20
3.946850393700787
 30
0.0
 11
3.094488188976377
 21
3.932086614173228
 31
0.0
  0
LINE
  5
33F4
330
1E
100
AcDbEntity
  8
0
100
AcDbLine
 10
3.094488188976377
 20
3.932086614173228
 30
0.0
 11
3.094488188976377
 21
3.915354330708661
 31
0.0
  0
LINE
  5
33F5
330
1E
100
AcDbEntity
  8
0
100
AcDbLine
 10
3.269685039370078
 20
3.946850393700787
 30
0.0
 11
3.269685039370078
 21
3.932086614173228
 31
0.0
  0
LINE
  5
33F6
330
1E
100
AcDbEntity
  8
0
100
AcDbLine
 10
3.269685039370078
 20
3.932086614173228
 30
0.0
 11
3.269685039370078
 21
3.915354330708661
 31
0.0
  0
LINE
  5
33F7
330
1E
100
AcDbEntity
  8
0
100
AcDbLine
 10
3.269685039370078
 20
3.960629921259842
 30
0.0
 11
3.269685039370078
 21
3.956692913385826
 31
0.0
  0
LINE
  5
33F8
330
1E
100
AcDbEntity
  8
0
100
AcDbLine
 10
3.269685039370078
 20
3.956692913385826
 30
0.0
 11
3.269685039370078
 21
3.946850393700787
 31
0.0
  0
LINE
  5
33F9
330
1E
100
AcDbEntity
  8
0
100
AcDbLine
 10
3.938976377952755
 20
4.351377952755905
 30
0.0
 11
3.938976377952755
 21
4.347440944881889
 31
0.0
  0
LINE
  5
33FA
330
1E
100
AcDbEntity
  8
0
100
AcDbLine
 10
3.938976377952755
 20
4.347440944881889
 30
0.0
 11
3.939960629921259
 21
4.33759842519685
 31
0.0
  0
LINE
  5
33FB
330
1E
100
AcDbEntity
  8
0
100
AcDbLine
 10
3.951771653543307
 20
3.994094488188976
 30
0.0
 11
3.951771653543307
 21
3.988188976377952
 31
0.0
  0
LINE
  5
33FC
330
1E
100
AcDbEntity
  8
0
100
AcDbLine
 10
3.951771653543307
 20
3.988188976377952
 30
0.0
 11
3.952755905511811
 21
3.970472440944881
 31
0.0
  0
LINE
  5
33FD
330
1E
100
AcDbEntity
  8
0
100
AcDbLine
 10
3.858267716535432
 20
3.916338582677165
 30
0.0
 11
3.859251968503937
 21
3.939960629921259
 31
0.0
  0
LINE
  5
33FE
330
1E
100
AcDbEntity
  8
0
100
AcDbLine
 10
3.859251968503937
 20
3.939960629921259
 30
0.0
 11
3.859251968503937
 21
3.960629921259842
 31
0.0
  0
LINE
  5
33FF
330
1E
100
AcDbEntity
  8
0
100
AcDbLine
 10
3.859251968503937
 20
3.960629921259842
 30
0.0
 11
3.859251968503937
 21
3.975393700787401
 31
0.0
  0
LINE
  5
3400
330
1E
100
AcDbEntity
  8
0
100
AcDbLine
 10
3.859251968503937
 20
3.975393700787401
 30
0.0
 11
3.858267716535432
 21
3.982283464566929
 31
0.0
  0
LINE
  5
3401
330
1E
100
AcDbEntity
  8
0
100
AcDbLine
 10
3.858267716535432
 20
3.982283464566929
 30
0.0
 11
3.857283464566929
 21
3.981299212598425
 31
0.0
  0
LINE
  5
3402
330
1E
100
AcDbEntity
  8
0
100
AcDbLine
 10
3.857283464566929
 20
3.981299212598425
 30
0.0
 11
3.856299212598425
 21
3.971456692913385
 31
0.0
  0
LINE
  5
3403
330
1E
100
AcDbEntity
  8
0
100
AcDbLine
 10
3.856299212598425
 20
3.971456692913385
 30
0.0
 11
3.855314960629921
 21
3.955708661417322
 31
0.0
  0
LINE
  5
3404
330
1E
100
AcDbEntity
  8
0
100
AcDbLine
 10
2.505905511811023
 20
3.916338582677165
 30
0.0
 11
2.504921259842519
 21
3.940944881889763
 31
0.0
  0
LINE
  5
3405
330
1E
100
AcDbEntity
  8
0
100
AcDbLine
 10
2.504921259842519
 20
3.940944881889763
 30
0.0
 11
2.504921259842519
 21
3.961614173228346
 31
0.0
  0
LINE
  5
3406
330
1E
100
AcDbEntity
  8
0
100
AcDbLine
 10
2.504921259842519
 20
3.961614173228346
 30
0.0
 11
2.504921259842519
 21
3.975393700787401
 31
0.0
  0
LINE
  5
3407
330
1E
100
AcDbEntity
  8
0
100
AcDbLine
 10
2.504921259842519
 20
3.975393700787401
 30
0.0
 11
2.505905511811023
 21
3.982283464566929
 31
0.0
  0
LINE
  5
3408
330
1E
100
AcDbEntity
  8
0
100
AcDbLine
 10
2.505905511811023
 20
3.982283464566929
 30
0.0
 11
2.506889763779527
 21
3.980314960629921
 31
0.0
  0
LINE
  5
3409
330
1E
100
AcDbEntity
  8
0
100
AcDbLine
 10
2.506889763779527
 20
3.980314960629921
 30
0.0
 11
2.507874015748031
 21
3.970472440944881
 31
0.0
  0
LINE
  5
340A
330
1E
100
AcDbEntity
  8
0
100
AcDbLine
 10
2.424212598425196
 20
4.33759842519685
 30
0.0
 11
2.4251968503937
 21
4.347440944881889
 31
0.0
  0
LINE
  5
340B
330
1E
100
AcDbEntity
  8
0
100
AcDbLine
 10
2.4251968503937
 20
4.347440944881889
 30
0.0
 11
2.4251968503937
 21
4.351377952755905
 31
0.0
  0
LINE
  5
340C
330
1E
100
AcDbEntity
  8
0
100
AcDbLine
 10
2.411417322834645
 20
3.970472440944881
 30
0.0
 11
2.412401574803149
 21
3.988188976377952
 31
0.0
  0
LINE
  5
340D
330
1E
100
AcDbEntity
  8
0
100
AcDbLine
 10
2.412401574803149
 20
3.988188976377952
 30
0.0
 11
2.412401574803149
 21
3.994094488188976
 31
0.0
  0
LINE
  5
340E
330
1E
100
AcDbEntity
  8
0
100
AcDbLine
 10
2.508858267716535
 20
4.192913385826771
 30
0.0
 11
2.516732283464566
 21
4.186023622047244
 31
0.0
  0
LINE
  5
340F
330
1E
100
AcDbEntity
  8
0
100
AcDbLine
 10
2.516732283464566
 20
4.186023622047244
 30
0.0
 11
2.518700787401574
 21
4.177165354330708
 31
0.0
  0
LINE
  5
3410
330
1E
100
AcDbEntity
  8
0
100
AcDbLine
 10
2.362204724409448
 20
4.250984251968503
 30
0.0
 11
2.367125984251968
 21
4.232283464566928
 31
0.0
  0
LINE
  5
3411
330
1E
100
AcDbEntity
  8
0
100
AcDbLine
 10
2.367125984251968
 20
4.232283464566928
 30
0.0
 11
2.381889763779527
 21
4.215551181102362
 31
0.0
  0
LINE
  5
3412
330
1E
100
AcDbEntity
  8
0
100
AcDbLine
 10
2.381889763779527
 20
4.215551181102362
 30
0.0
 11
2.403543307086614
 21
4.203740157480314
 31
0.0
  0
LINE
  5
3413
330
1E
100
AcDbEntity
  8
0
100
AcDbLine
 10
2.403543307086614
 20
4.203740157480314
 30
0.0
 11
2.429133858267716
 21
4.198818897637795
 31
0.0
  0
LINE
  5
3414
330
1E
100
AcDbEntity
  8
0
100
AcDbLine
 10
3.177165354330708
 20
3.960629921259842
 30
0.0
 11
3.170275590551181
 21
3.968503937007874
 31
0.0
  0
LINE
  5
3415
330
1E
100
AcDbEntity
  8
0
100
AcDbLine
 10
3.170275590551181
 20
3.968503937007874
 30
0.0
 11
3.15748031496063
 21
3.971456692913385
 31
0.0
  0
LINE
  5
3416
330
1E
100
AcDbEntity
  8
0
100
AcDbLine
 10
3.177165354330708
 20
4.297244094488188
 30
0.0
 11
3.171259842519685
 21
4.307086614173228
 31
0.0
  0
LINE
  5
3417
330
1E
100
AcDbEntity
  8
0
100
AcDbLine
 10
3.171259842519685
 20
4.307086614173228
 30
0.0
 11
3.15748031496063
 21
4.311023622047244
 31
0.0
  0
LINE
  5
3418
330
1E
100
AcDbEntity
  8
0
100
AcDbLine
 10
3.15748031496063
 20
4.316929133858267
 30
0.0
 11
3.15748031496063
 21
4.315944881889763
 31
0.0
  0
LINE
  5
3419
330
1E
100
AcDbEntity
  8
0
100
AcDbLine
 10
3.15748031496063
 20
4.315944881889763
 30
0.0
 11
3.15748031496063
 21
4.311023622047244
 31
0.0
  0
LINE
  5
341A
330
1E
100
AcDbEntity
  8
0
100
AcDbLine
 10
2.437992125984251
 20
4.205708661417323
 30
0.0
 11
2.408464566929133
 21
4.209645669291338
 31
0.0
  0
LINE
  5
341B
330
1E
100
AcDbEntity
  8
0
100
AcDbLine
 10
2.408464566929133
 20
4.209645669291338
 30
0.0
 11
2.383858267716535
 21
4.221456692913386
 31
0.0
  0
LINE
  5
341C
330
1E
100
AcDbEntity
  8
0
100
AcDbLine
 10
2.383858267716535
 20
4.221456692913386
 30
0.0
 11
2.368110236220472
 21
4.238188976377952
 31
0.0
  0
LINE
  5
341D
330
1E
100
AcDbEntity
  8
0
100
AcDbLine
 10
2.368110236220472
 20
4.238188976377952
 30
0.0
 11
2.362204724409448
 21
4.258858267716535
 31
0.0
  0
LINE
  5
341E
330
1E
100
AcDbEntity
  8
0
100
AcDbLine
 10
2.437992125984251
 20
4.316929133858267
 30
0.0
 11
2.437992125984251
 21
4.315944881889763
 31
0.0
  0
LINE
  5
341F
330
1E
100
AcDbEntity
  8
0
100
AcDbLine
 10
2.437992125984251
 20
4.315944881889763
 30
0.0
 11
2.437992125984251
 21
4.311023622047244
 31
0.0
  0
LINE
  5
3420
330
1E
100
AcDbEntity
  8
0
100
AcDbLine
 10
2.437992125984251
 20
4.205708661417323
 30
0.0
 11
2.437992125984251
 21
4.219488188976377
 31
0.0
  0
LINE
  5
3421
330
1E
100
AcDbEntity
  8
0
100
AcDbLine
 10
2.437992125984251
 20
4.219488188976377
 30
0.0
 11
2.437992125984251
 21
4.233267716535433
 31
0.0
  0
LINE
  5
3422
330
1E
100
AcDbEntity
  8
0
100
AcDbLine
 10
2.518700787401574
 20
4.184055118110236
 30
0.0
 11
2.515748031496062
 21
4.192913385826771
 31
0.0
  0
LINE
  5
3423
330
1E
100
AcDbEntity
  8
0
100
AcDbLine
 10
2.515748031496062
 20
4.192913385826771
 30
0.0
 11
2.507874015748031
 21
4.200787401574802
 31
0.0
  0
LINE
  5
3424
330
1E
100
AcDbEntity
  8
0
100
AcDbLine
 10
2.489173228346456
 20
4.209645669291338
 30
0.0
 11
2.489173228346456
 21
4.222440944881889
 31
0.0
  0
LINE
  5
3425
330
1E
100
AcDbEntity
  8
0
100
AcDbLine
 10
2.489173228346456
 20
4.222440944881889
 30
0.0
 11
2.489173228346456
 21
4.233267716535433
 31
0.0
  0
LINE
  5
3426
330
1E
100
AcDbEntity
  8
0
100
AcDbLine
 10
2.518700787401574
 20
4.184055118110236
 30
0.0
 11
2.524606299212598
 21
4.193897637795275
 31
0.0
  0
LINE
  5
3427
330
1E
100
AcDbEntity
  8
0
100
AcDbLine
 10
2.524606299212598
 20
4.193897637795275
 30
0.0
 11
2.539370078740157
 21
4.197834645669291
 31
0.0
  0
LINE
  5
3428
330
1E
100
AcDbEntity
  8
0
100
AcDbLine
 10
2.489173228346456
 20
4.233267716535433
 30
0.0
 11
2.513779527559055
 21
4.228346456692912
 31
0.0
  0
LINE
  5
3429
330
1E
100
AcDbEntity
  8
0
100
AcDbLine
 10
2.513779527559055
 20
4.228346456692912
 30
0.0
 11
2.53248031496063
 21
4.215551181102362
 31
0.0
  0
LINE
  5
342A
330
1E
100
AcDbEntity
  8
0
100
AcDbLine
 10
2.53248031496063
 20
4.215551181102362
 30
0.0
 11
2.539370078740157
 21
4.197834645669291
 31
0.0
  0
LINE
  5
342B
330
1E
100
AcDbEntity
  8
0
100
AcDbLine
 10
2.437992125984251
 20
4.311023622047244
 30
0.0
 11
2.416338582677165
 21
4.308070866141732
 31
0.0
  0
LINE
  5
342C
330
1E
100
AcDbEntity
  8
0
100
AcDbLine
 10
2.416338582677165
 20
4.308070866141732
 30
0.0
 11
2.398622047244094
 21
4.3001968503937
 31
0.0
  0
LINE
  5
342D
330
1E
100
AcDbEntity
  8
0
100
AcDbLine
 10
2.398622047244094
 20
4.3001968503937
 30
0.0
 11
2.386811023622047
 21
4.287401574803149
 31
0.0
  0
LINE
  5
342E
330
1E
100
AcDbEntity
  8
0
100
AcDbLine
 10
2.386811023622047
 20
4.287401574803149
 30
0.0
 11
2.382874015748031
 21
4.27263779527559
 31
0.0
  0
LINE
  5
342F
330
1E
100
AcDbEntity
  8
0
100
AcDbLine
 10
2.382874015748031
 20
4.27263779527559
 30
0.0
 11
2.386811023622047
 21
4.257874015748031
 31
0.0
  0
LINE
  5
3430
330
1E
100
AcDbEntity
  8
0
100
AcDbLine
 10
2.386811023622047
 20
4.257874015748031
 30
0.0
 11
2.398622047244094
 21
4.24507874015748
 31
0.0
  0
LINE
  5
3431
330
1E
100
AcDbEntity
  8
0
100
AcDbLine
 10
2.398622047244094
 20
4.24507874015748
 30
0.0
 11
2.416338582677165
 21
4.236220472440944
 31
0.0
  0
LINE
  5
3432
330
1E
100
AcDbEntity
  8
0
100
AcDbLine
 10
2.416338582677165
 20
4.236220472440944
 30
0.0
 11
2.437992125984251
 21
4.233267716535433
 31
0.0
  0
LINE
  5
3433
330
1E
100
AcDbEntity
  8
0
100
AcDbLine
 10
3.102362204724409
 20
3.971456692913385
 30
0.0
 11
3.096456692913385
 21
3.970472440944881
 31
0.0
  0
LINE
  5
3434
330
1E
100
AcDbEntity
  8
0
100
AcDbLine
 10
3.096456692913385
 20
3.970472440944881
 30
0.0
 11
3.094488188976377
 21
3.966535433070866
 31
0.0
  0
LINE
  5
3435
330
1E
100
AcDbEntity
  8
0
100
AcDbLine
 10
3.044291338582677
 20
3.960629921259842
 30
0.0
 11
3.044291338582677
 21
3.961614173228346
 31
0.0
  0
LINE
  5
3436
330
1E
100
AcDbEntity
  8
0
100
AcDbLine
 10
3.044291338582677
 20
3.961614173228346
 30
0.0
 11
3.044291338582677
 21
3.966535433070866
 31
0.0
  0
LINE
  5
3437
330
1E
100
AcDbEntity
  8
0
100
AcDbLine
 10
3.044291338582677
 20
3.883858267716535
 30
0.0
 11
3.044291338582677
 21
3.881889763779527
 31
0.0
  0
LINE
  5
3438
330
1E
100
AcDbEntity
  8
0
100
AcDbLine
 10
3.044291338582677
 20
3.881889763779527
 30
0.0
 11
3.044291338582677
 21
3.879921259842519
 31
0.0
  0
LINE
  5
3439
330
1E
100
AcDbEntity
  8
0
100
AcDbLine
 10
3.044291338582677
 20
3.960629921259842
 30
0.0
 11
3.044291338582677
 21
3.955708661417322
 31
0.0
  0
LINE
  5
343A
330
1E
100
AcDbEntity
  8
0
100
AcDbLine
 10
3.044291338582677
 20
3.955708661417322
 30
0.0
 11
3.044291338582677
 21
3.941929133858267
 31
0.0
  0
LINE
  5
343B
330
1E
100
AcDbEntity
  8
0
100
AcDbLine
 10
3.044291338582677
 20
3.941929133858267
 30
0.0
 11
3.044291338582677
 21
3.922244094488188
 31
0.0
  0
LINE
  5
343C
330
1E
100
AcDbEntity
  8
0
100
AcDbLine
 10
3.044291338582677
 20
3.922244094488188
 30
0.0
 11
3.044291338582677
 21
3.901574803149605
 31
0.0
  0
LINE
  5
343D
330
1E
100
AcDbEntity
  8
0
100
AcDbLine
 10
3.044291338582677
 20
3.901574803149605
 30
0.0
 11
3.044291338582677
 21
3.883858267716535
 31
0.0
  0
LINE
  5
343E
330
1E
100
AcDbEntity
  8
0
100
AcDbLine
 10
2.504921259842519
 20
3.929133858267716
 30
0.0
 11
2.511811023622047
 21
3.932086614173228
 31
0.0
  0
LINE
  5
343F
330
1E
100
AcDbEntity
  8
0
100
AcDbLine
 10
2.511811023622047
 20
3.932086614173228
 30
0.0
 11
2.511811023622047
 21
3.937007874015748
 31
0.0
  0
LINE
  5
3440
330
1E
100
AcDbEntity
  8
0
100
AcDbLine
 10
2.511811023622047
 20
3.937007874015748
 30
0.0
 11
2.504921259842519
 21
3.939960629921259
 31
0.0
  0
LINE
  5
3441
330
1E
100
AcDbEntity
  8
0
100
AcDbLine
 10
2.539370078740157
 20
3.966535433070866
 30
0.0
 11
2.526574803149606
 21
3.963582677165354
 31
0.0
  0
LINE
  5
3442
330
1E
100
AcDbEntity
  8
0
100
AcDbLine
 10
2.526574803149606
 20
3.963582677165354
 30
0.0
 11
2.519685039370078
 21
3.955708661417322
 31
0.0
  0
LINE
  5
3443
330
1E
100
AcDbEntity
  8
0
100
AcDbLine
 10
2.539370078740157
 20
3.966535433070866
 30
0.0
 11
2.539370078740157
 21
3.961614173228346
 31
0.0
  0
LINE
  5
3444
330
1E
100
AcDbEntity
  8
0
100
AcDbLine
 10
2.539370078740157
 20
3.961614173228346
 30
0.0
 11
2.539370078740157
 21
3.960629921259842
 31
0.0
  0
LINE
  5
3445
330
1E
100
AcDbEntity
  8
0
100
AcDbLine
 10
2.523622047244094
 20
3.952755905511811
 30
0.0
 11
2.524606299212598
 21
3.954724409448818
 31
0.0
  0
LINE
  5
3446
330
1E
100
AcDbEntity
  8
0
100
AcDbLine
 10
2.524606299212598
 20
3.954724409448818
 30
0.0
 11
2.523622047244094
 21
3.954724409448818
 31
0.0
  0
LINE
  5
3447
330
1E
100
AcDbEntity
  8
0
100
AcDbLine
 10
2.539370078740157
 20
3.960629921259842
 30
0.0
 11
2.539370078740157
 21
3.956692913385826
 31
0.0
  0
LINE
  5
3448
330
1E
100
AcDbEntity
  8
0
100
AcDbLine
 10
2.539370078740157
 20
3.956692913385826
 30
0.0
 11
2.539370078740157
 21
3.944881889763779
 31
0.0
  0
LINE
  5
3449
330
1E
100
AcDbEntity
  8
0
100
AcDbLine
 10
2.539370078740157
 20
3.944881889763779
 30
0.0
 11
2.539370078740157
 21
3.928149606299212
 31
0.0
  0
LINE
  5
344A
330
1E
100
AcDbEntity
  8
0
100
AcDbLine
 10
2.539370078740157
 20
3.928149606299212
 30
0.0
 11
2.539370078740157
 21
3.908464566929133
 31
0.0
  0
LINE
  5
344B
330
1E
100
AcDbEntity
  8
0
100
AcDbLine
 10
2.539370078740157
 20
3.908464566929133
 30
0.0
 11
2.539370078740157
 21
3.890748031496062
 31
0.0
  0
LINE
  5
344C
330
1E
100
AcDbEntity
  8
0
100
AcDbLine
 10
2.534448818897637
 20
3.890748031496062
 30
0.0
 11
2.528543307086614
 21
3.901574803149605
 31
0.0
  0
LINE
  5
344D
330
1E
100
AcDbEntity
  8
0
100
AcDbLine
 10
2.528543307086614
 20
3.901574803149605
 30
0.0
 11
2.524606299212598
 21
3.911417322834645
 31
0.0
  0
LINE
  5
344E
330
1E
100
AcDbEntity
  8
0
100
AcDbLine
 10
2.524606299212598
 20
3.911417322834645
 30
0.0
 11
2.521653543307086
 21
3.920275590551181
 31
0.0
  0
LINE
  5
344F
330
1E
100
AcDbEntity
  8
0
100
AcDbLine
 10
2.521653543307086
 20
3.920275590551181
 30
0.0
 11
2.520669291338582
 21
3.922244094488188
 31
0.0
  0
LINE
  5
3450
330
1E
100
AcDbEntity
  8
0
100
AcDbLine
 10
2.520669291338582
 20
3.922244094488188
 30
0.0
 11
2.519685039370078
 21
3.932086614173228
 31
0.0
  0
LINE
  5
3451
330
1E
100
AcDbEntity
  8
0
100
AcDbLine
 10
2.519685039370078
 20
3.932086614173228
 30
0.0
 11
2.519685039370078
 21
3.93503937007874
 31
0.0
  0
LINE
  5
3452
330
1E
100
AcDbEntity
  8
0
100
AcDbLine
 10
2.519685039370078
 20
3.93503937007874
 30
0.0
 11
2.520669291338582
 21
3.945866141732283
 31
0.0
  0
LINE
  5
3453
330
1E
100
AcDbEntity
  8
0
100
AcDbLine
 10
2.520669291338582
 20
3.945866141732283
 30
0.0
 11
2.520669291338582
 21
3.946850393700787
 31
0.0
  0
LINE
  5
3454
330
1E
100
AcDbEntity
  8
0
100
AcDbLine
 10
2.520669291338582
 20
3.946850393700787
 30
0.0
 11
2.52263779527559
 21
3.951771653543307
 31
0.0
  0
LINE
  5
3455
330
1E
100
AcDbEntity
  8
0
100
AcDbLine
 10
2.52263779527559
 20
3.951771653543307
 30
0.0
 11
2.523622047244094
 21
3.952755905511811
 31
0.0
  0
LINE
  5
3456
330
1E
100
AcDbEntity
  8
0
100
AcDbLine
 10
2.568897637795275
 20
3.960629921259842
 30
0.0
 11
2.568897637795275
 21
3.955708661417322
 31
0.0
  0
LINE
  5
3457
330
1E
100
AcDbEntity
  8
0
100
AcDbLine
 10
2.568897637795275
 20
3.955708661417322
 30
0.0
 11
2.568897637795275
 21
3.941929133858267
 31
0.0
  0
LINE
  5
3458
330
1E
100
AcDbEntity
  8
0
100
AcDbLine
 10
2.568897637795275
 20
3.941929133858267
 30
0.0
 11
2.568897637795275
 21
3.922244094488188
 31
0.0
  0
LINE
  5
3459
330
1E
100
AcDbEntity
  8
0
100
AcDbLine
 10
2.568897637795275
 20
3.922244094488188
 30
0.0
 11
2.568897637795275
 21
3.901574803149605
 31
0.0
  0
LINE
  5
345A
330
1E
100
AcDbEntity
  8
0
100
AcDbLine
 10
2.568897637795275
 20
3.901574803149605
 30
0.0
 11
2.568897637795275
 21
3.883858267716535
 31
0.0
  0
LINE
  5
345B
330
1E
100
AcDbEntity
  8
0
100
AcDbLine
 10
2.568897637795275
 20
3.960629921259842
 30
0.0
 11
2.568897637795275
 21
3.961614173228346
 31
0.0
  0
LINE
  5
345C
330
1E
100
AcDbEntity
  8
0
100
AcDbLine
 10
2.568897637795275
 20
3.961614173228346
 30
0.0
 11
2.568897637795275
 21
3.966535433070866
 31
0.0
  0
LINE
  5
345D
330
1E
100
AcDbEntity
  8
0
100
AcDbLine
 10
2.518700787401574
 20
4.177165354330708
 30
0.0
 11
2.521653543307086
 21
4.182086614173228
 31
0.0
  0
LINE
  5
345E
330
1E
100
AcDbEntity
  8
0
100
AcDbLine
 10
2.521653543307086
 20
4.182086614173228
 30
0.0
 11
2.529527559055118
 21
4.182086614173228
 31
0.0
  0
LINE
  5
345F
330
1E
100
AcDbEntity
  8
0
100
AcDbLine
 10
2.529527559055118
 20
4.150590551181101
 30
0.0
 11
2.521653543307086
 21
4.161417322834645
 31
0.0
  0
LINE
  5
3460
330
1E
100
AcDbEntity
  8
0
100
AcDbLine
 10
2.521653543307086
 20
4.161417322834645
 30
0.0
 11
2.518700787401574
 21
4.170275590551181
 31
0.0
  0
LINE
  5
3461
330
1E
100
AcDbEntity
  8
0
100
AcDbLine
 10
2.518700787401574
 20
4.102362204724409
 30
0.0
 11
2.521653543307086
 21
4.112204724409449
 31
0.0
  0
LINE
  5
3462
330
1E
100
AcDbEntity
  8
0
100
AcDbLine
 10
2.521653543307086
 20
4.112204724409449
 30
0.0
 11
2.529527559055118
 21
4.122047244094487
 31
0.0
  0
LINE
  5
3463
330
1E
100
AcDbEntity
  8
0
100
AcDbLine
 10
3.094488188976377
 20
3.960629921259842
 30
0.0
 11
3.094488188976377
 21
3.96259842519685
 31
0.0
  0
LINE
  5
3464
330
1E
100
AcDbEntity
  8
0
100
AcDbLine
 10
3.094488188976377
 20
3.96259842519685
 30
0.0
 11
3.094488188976377
 21
3.966535433070866
 31
0.0
  0
LINE
  5
3465
330
1E
100
AcDbEntity
  8
0
100
AcDbLine
 10
3.856299212598425
 20
4.200787401574802
 30
0.0
 11
3.847440944881889
 21
4.192913385826771
 31
0.0
  0
LINE
  5
3466
330
1E
100
AcDbEntity
  8
0
100
AcDbLine
 10
3.847440944881889
 20
4.192913385826771
 30
0.0
 11
3.845472440944881
 21
4.184055118110236
 31
0.0
  0
LINE
  5
3467
330
1E
100
AcDbEntity
  8
0
100
AcDbLine
 10
3.845472440944881
 20
4.184055118110236
 30
0.0
 11
3.839566929133858
 21
4.193897637795275
 31
0.0
  0
LINE
  5
3468
330
1E
100
AcDbEntity
  8
0
100
AcDbLine
 10
3.839566929133858
 20
4.193897637795275
 30
0.0
 11
3.824803149606299
 21
4.197834645669291
 31
0.0
  0
LINE
  5
3469
330
1E
100
AcDbEntity
  8
0
100
AcDbLine
 10
3.875
 20
4.209645669291338
 30
0.0
 11
3.875
 21
4.222440944881889
 31
0.0
  0
LINE
  5
346A
330
1E
100
AcDbEntity
  8
0
100
AcDbLine
 10
3.875
 20
4.222440944881889
 30
0.0
 11
3.875
 21
4.233267716535433
 31
0.0
  0
LINE
  5
346B
330
1E
100
AcDbEntity
  8
0
100
AcDbLine
 10
4.001968503937007
 20
4.257874015748031
 30
0.0
 11
3.996062992125984
 21
4.237204724409449
 31
0.0
  0
LINE
  5
346C
330
1E
100
AcDbEntity
  8
0
100
AcDbLine
 10
3.996062992125984
 20
4.237204724409449
 30
0.0
 11
3.979330708661417
 21
4.220472440944881
 31
0.0
  0
LINE
  5
346D
330
1E
100
AcDbEntity
  8
0
100
AcDbLine
 10
3.979330708661417
 20
4.220472440944881
 30
0.0
 11
3.954724409448818
 21
4.209645669291338
 31
0.0
  0
LINE
  5
346E
330
1E
100
AcDbEntity
  8
0
100
AcDbLine
 10
3.954724409448818
 20
4.209645669291338
 30
0.0
 11
3.926181102362204
 21
4.205708661417323
 31
0.0
  0
LINE
  5
346F
330
1E
100
AcDbEntity
  8
0
100
AcDbLine
 10
3.926181102362204
 20
4.205708661417323
 30
0.0
 11
3.926181102362204
 21
4.219488188976377
 31
0.0
  0
LINE
  5
3470
330
1E
100
AcDbEntity
  8
0
100
AcDbLine
 10
3.926181102362204
 20
4.219488188976377
 30
0.0
 11
3.926181102362204
 21
4.233267716535433
 31
0.0
  0
LINE
  5
3471
330
1E
100
AcDbEntity
  8
0
100
AcDbLine
 10
3.926181102362204
 20
4.316929133858267
 30
0.0
 11
3.926181102362204
 21
4.315944881889763
 31
0.0
  0
LINE
  5
3472
330
1E
100
AcDbEntity
  8
0
100
AcDbLine
 10
3.926181102362204
 20
4.315944881889763
 30
0.0
 11
3.926181102362204
 21
4.311023622047244
 31
0.0
  0
LINE
  5
3473
330
1E
100
AcDbEntity
  8
0
100
AcDbLine
 10
3.206692913385826
 20
4.316929133858267
 30
0.0
 11
3.206692913385826
 21
4.315944881889763
 31
0.0
  0
LINE
  5
3474
330
1E
100
AcDbEntity
  8
0
100
AcDbLine
 10
3.206692913385826
 20
4.315944881889763
 30
0.0
 11
3.206692913385826
 21
4.311023622047244
 31
0.0
  0
LINE
  5
3475
330
1E
100
AcDbEntity
  8
0
100
AcDbLine
 10
3.206692913385826
 20
3.972440944881889
 30
0.0
 11
3.193897637795275
 21
3.968503937007874
 31
0.0
  0
LINE
  5
3476
330
1E
100
AcDbEntity
  8
0
100
AcDbLine
 10
3.193897637795275
 20
3.968503937007874
 30
0.0
 11
3.187007874015748
 21
3.960629921259842
 31
0.0
  0
LINE
  5
3477
330
1E
100
AcDbEntity
  8
0
100
AcDbLine
 10
3.187007874015748
 20
4.297244094488188
 30
0.0
 11
3.192913385826771
 21
4.307086614173228
 31
0.0
  0
LINE
  5
3478
330
1E
100
AcDbEntity
  8
0
100
AcDbLine
 10
3.192913385826771
 20
4.307086614173228
 30
0.0
 11
3.206692913385826
 21
4.311023622047244
 31
0.0
  0
LINE
  5
3479
330
1E
100
AcDbEntity
  8
0
100
AcDbLine
 10
3.93503937007874
 20
4.198818897637795
 30
0.0
 11
3.960629921259842
 21
4.203740157480314
 31
0.0
  0
LINE
  5
347A
330
1E
100
AcDbEntity
  8
0
100
AcDbLine
 10
3.960629921259842
 20
4.203740157480314
 30
0.0
 11
3.982283464566929
 21
4.215551181102362
 31
0.0
  0
LINE
  5
347B
330
1E
100
AcDbEntity
  8
0
100
AcDbLine
 10
3.982283464566929
 20
4.215551181102362
 30
0.0
 11
3.997047244094487
 21
4.232283464566928
 31
0.0
  0
LINE
  5
347C
330
1E
100
AcDbEntity
  8
0
100
AcDbLine
 10
3.997047244094487
 20
4.232283464566928
 30
0.0
 11
4.001968503937007
 21
4.250984251968503
 31
0.0
  0
LINE
  5
347D
330
1E
100
AcDbEntity
  8
0
100
AcDbLine
 10
3.845472440944881
 20
4.177165354330708
 30
0.0
 11
3.847440944881889
 21
4.186023622047244
 31
0.0
  0
LINE
  5
347E
330
1E
100
AcDbEntity
  8
0
100
AcDbLine
 10
3.847440944881889
 20
4.186023622047244
 30
0.0
 11
3.855314960629921
 21
4.192913385826771
 31
0.0
  0
LINE
  5
347F
330
1E
100
AcDbEntity
  8
0
100
AcDbLine
 10
3.261811023622047
 20
3.972440944881889
 30
0.0
 11
3.26771653543307
 21
3.970472440944881
 31
0.0
  0
LINE
  5
3480
330
1E
100
AcDbEntity
  8
0
100
AcDbLine
 10
3.26771653543307
 20
3.970472440944881
 30
0.0
 11
3.269685039370078
 21
3.966535433070866
 31
0.0
  0
LINE
  5
3481
330
1E
100
AcDbEntity
  8
0
100
AcDbLine
 10
3.926181102362204
 20
4.233267716535433
 30
0.0
 11
3.947834645669291
 21
4.236220472440944
 31
0.0
  0
LINE
  5
3482
330
1E
100
AcDbEntity
  8
0
100
AcDbLine
 10
3.947834645669291
 20
4.236220472440944
 30
0.0
 11
3.965551181102362
 21
4.24507874015748
 31
0.0
  0
LINE
  5
3483
330
1E
100
AcDbEntity
  8
0
100
AcDbLine
 10
3.965551181102362
 20
4.24507874015748
 30
0.0
 11
3.977362204724409
 21
4.257874015748031
 31
0.0
  0
LINE
  5
3484
330
1E
100
AcDbEntity
  8
0
100
AcDbLine
 10
3.977362204724409
 20
4.257874015748031
 30
0.0
 11
3.981299212598425
 21
4.27263779527559
 31
0.0
  0
LINE
  5
3485
330
1E
100
AcDbEntity
  8
0
100
AcDbLine
 10
3.981299212598425
 20
4.27263779527559
 30
0.0
 11
3.977362204724409
 21
4.287401574803149
 31
0.0
  0
LINE
  5
3486
330
1E
100
AcDbEntity
  8
0
100
AcDbLine
 10
3.977362204724409
 20
4.287401574803149
 30
0.0
 11
3.965551181102362
 21
4.3001968503937
 31
0.0
  0
LINE
  5
3487
330
1E
100
AcDbEntity
  8
0
100
AcDbLine
 10
3.965551181102362
 20
4.3001968503937
 30
0.0
 11
3.947834645669291
 21
4.308070866141732
 31
0.0
  0
LINE
  5
3488
330
1E
100
AcDbEntity
  8
0
100
AcDbLine
 10
3.947834645669291
 20
4.308070866141732
 30
0.0
 11
3.926181102362204
 21
4.311023622047244
 31
0.0
  0
LINE
  5
3489
330
1E
100
AcDbEntity
  8
0
100
AcDbLine
 10
3.824803149606299
 20
4.197834645669291
 30
0.0
 11
3.831692913385826
 21
4.215551181102362
 31
0.0
  0
LINE
  5
348A
330
1E
100
AcDbEntity
  8
0
100
AcDbLine
 10
3.831692913385826
 20
4.215551181102362
 30
0.0
 11
3.850393700787401
 21
4.229330708661417
 31
0.0
  0
LINE
  5
348B
330
1E
100
AcDbEntity
  8
0
100
AcDbLine
 10
3.850393700787401
 20
4.229330708661417
 30
0.0
 11
3.875
 21
4.233267716535433
 31
0.0
  0
LINE
  5
348C
330
1E
100
AcDbEntity
  8
0
100
AcDbLine
 10
3.319881889763779
 20
3.966535433070866
 30
0.0
 11
3.319881889763779
 21
3.96259842519685
 31
0.0
  0
LINE
  5
348D
330
1E
100
AcDbEntity
  8
0
100
AcDbLine
 10
3.319881889763779
 20
3.96259842519685
 30
0.0
 11
3.319881889763779
 21
3.960629921259842
 31
0.0
  0
LINE
  5
348E
330
1E
100
AcDbEntity
  8
0
100
AcDbLine
 10
3.319881889763779
 20
3.883858267716535
 30
0.0
 11
3.319881889763779
 21
3.901574803149605
 31
0.0
  0
LINE
  5
348F
330
1E
100
AcDbEntity
  8
0
100
AcDbLine
 10
3.319881889763779
 20
3.901574803149605
 30
0.0
 11
3.319881889763779
 21
3.922244094488188
 31
0.0
  0
LINE
  5
3490
330
1E
100
AcDbEntity
  8
0
100
AcDbLine
 10
3.319881889763779
 20
3.922244094488188
 30
0.0
 11
3.319881889763779
 21
3.941929133858267
 31
0.0
  0
LINE
  5
3491
330
1E
100
AcDbEntity
  8
0
100
AcDbLine
 10
3.319881889763779
 20
3.941929133858267
 30
0.0
 11
3.319881889763779
 21
3.955708661417322
 31
0.0
  0
LINE
  5
3492
330
1E
100
AcDbEntity
  8
0
100
AcDbLine
 10
3.319881889763779
 20
3.955708661417322
 30
0.0
 11
3.319881889763779
 21
3.960629921259842
 31
0.0
  0
LINE
  5
3493
330
1E
100
AcDbEntity
  8
0
100
AcDbLine
 10
3.319881889763779
 20
3.879921259842519
 30
0.0
 11
3.319881889763779
 21
3.881889763779527
 31
0.0
  0
LINE
  5
3494
330
1E
100
AcDbEntity
  8
0
100
AcDbLine
 10
3.319881889763779
 20
3.881889763779527
 30
0.0
 11
3.319881889763779
 21
3.883858267716535
 31
0.0
  0
LINE
  5
3495
330
1E
100
AcDbEntity
  8
0
100
AcDbLine
 10
3.859251968503937
 20
3.939960629921259
 30
0.0
 11
3.852362204724409
 21
3.937992125984251
 31
0.0
  0
LINE
  5
3496
330
1E
100
AcDbEntity
  8
0
100
AcDbLine
 10
3.852362204724409
 20
3.937992125984251
 30
0.0
 11
3.852362204724409
 21
3.932086614173228
 31
0.0
  0
LINE
  5
3497
330
1E
100
AcDbEntity
  8
0
100
AcDbLine
 10
3.852362204724409
 20
3.932086614173228
 30
0.0
 11
3.859251968503937
 21
3.929133858267716
 31
0.0
  0
LINE
  5
3498
330
1E
100
AcDbEntity
  8
0
100
AcDbLine
 10
3.824803149606299
 20
3.960629921259842
 30
0.0
 11
3.824803149606299
 21
3.96259842519685
 31
0.0
  0
LINE
  5
3499
330
1E
100
AcDbEntity
  8
0
100
AcDbLine
 10
3.824803149606299
 20
3.96259842519685
 30
0.0
 11
3.824803149606299
 21
3.966535433070866
 31
0.0
  0
LINE
  5
349A
330
1E
100
AcDbEntity
  8
0
100
AcDbLine
 10
3.824803149606299
 20
3.966535433070866
 30
0.0
 11
3.83759842519685
 21
3.963582677165354
 31
0.0
  0
LINE
  5
349B
330
1E
100
AcDbEntity
  8
0
100
AcDbLine
 10
3.83759842519685
 20
3.963582677165354
 30
0.0
 11
3.844488188976377
 21
3.955708661417322
 31
0.0
  0
LINE
  5
349C
330
1E
100
AcDbEntity
  8
0
100
AcDbLine
 10
3.840551181102362
 20
3.955708661417322
 30
0.0
 11
3.839566929133858
 21
3.954724409448818
 31
0.0
  0
LINE
  5
349D
330
1E
100
AcDbEntity
  8
0
100
AcDbLine
 10
3.839566929133858
 20
3.954724409448818
 30
0.0
 11
3.839566929133858
 21
3.953740157480314
 31
0.0
  0
LINE
  5
349E
330
1E
100
AcDbEntity
  8
0
100
AcDbLine
 10
3.839566929133858
 20
3.953740157480314
 30
0.0
 11
3.840551181102362
 21
3.952755905511811
 31
0.0
  0
LINE
  5
349F
330
1E
100
AcDbEntity
  8
0
100
AcDbLine
 10
3.795275590551181
 20
3.966535433070866
 30
0.0
 11
3.795275590551181
 21
3.96259842519685
 31
0.0
  0
LINE
  5
34A0
330
1E
100
AcDbEntity
  8
0
100
AcDbLine
 10
3.795275590551181
 20
3.96259842519685
 30
0.0
 11
3.795275590551181
 21
3.960629921259842
 31
0.0
  0
LINE
  5
34A1
330
1E
100
AcDbEntity
  8
0
100
AcDbLine
 10
3.795275590551181
 20
3.883858267716535
 30
0.0
 11
3.795275590551181
 21
3.901574803149605
 31
0.0
  0
LINE
  5
34A2
330
1E
100
AcDbEntity
  8
0
100
AcDbLine
 10
3.795275590551181
 20
3.901574803149605
 30
0.0
 11
3.795275590551181
 21
3.922244094488188
 31
0.0
  0
LINE
  5
34A3
330
1E
100
AcDbEntity
  8
0
100
AcDbLine
 10
3.795275590551181
 20
3.922244094488188
 30
0.0
 11
3.795275590551181
 21
3.941929133858267
 31
0.0
  0
LINE
  5
34A4
330
1E
100
AcDbEntity
  8
0
100
AcDbLine
 10
3.795275590551181
 20
3.941929133858267
 30
0.0
 11
3.795275590551181
 21
3.955708661417322
 31
0.0
  0
LINE
  5
34A5
330
1E
100
AcDbEntity
  8
0
100
AcDbLine
 10
3.795275590551181
 20
3.955708661417322
 30
0.0
 11
3.795275590551181
 21
3.960629921259842
 31
0.0
  0
LINE
  5
34A6
330
1E
100
AcDbEntity
  8
0
100
AcDbLine
 10
3.843503937007874
 20
3.946850393700787
 30
0.0
 11
3.844488188976377
 21
3.937992125984251
 31
0.0
  0
LINE
  5
34A7
330
1E
100
AcDbEntity
  8
0
100
AcDbLine
 10
3.844488188976377
 20
3.937992125984251
 30
0.0
 11
3.844488188976377
 21
3.93503937007874
 31
0.0
  0
LINE
  5
34A8
330
1E
100
AcDbEntity
  8
0
100
AcDbLine
 10
3.844488188976377
 20
3.93503937007874
 30
0.0
 11
3.843503937007874
 21
3.923228346456692
 31
0.0
  0
LINE
  5
34A9
330
1E
100
AcDbEntity
  8
0
100
AcDbLine
 10
3.843503937007874
 20
3.923228346456692
 30
0.0
 11
3.843503937007874
 21
3.922244094488188
 31
0.0
  0
LINE
  5
34AA
330
1E
100
AcDbEntity
  8
0
100
AcDbLine
 10
3.843503937007874
 20
3.922244094488188
 30
0.0
 11
3.841535433070866
 21
3.916338582677165
 31
0.0
  0
LINE
  5
34AB
330
1E
100
AcDbEntity
  8
0
100
AcDbLine
 10
3.841535433070866
 20
3.916338582677165
 30
0.0
 11
3.83759842519685
 21
3.907480314960629
 31
0.0
  0
LINE
  5
34AC
330
1E
100
AcDbEntity
  8
0
100
AcDbLine
 10
3.83759842519685
 20
3.907480314960629
 30
0.0
 11
3.829724409448818
 21
3.890748031496062
 31
0.0
  0
LINE
  5
34AD
330
1E
100
AcDbEntity
  8
0
100
AcDbLine
 10
3.824803149606299
 20
3.890748031496062
 30
0.0
 11
3.824803149606299
 21
3.908464566929133
 31
0.0
  0
LINE
  5
34AE
330
1E
100
AcDbEntity
  8
0
100
AcDbLine
 10
3.824803149606299
 20
3.908464566929133
 30
0.0
 11
3.824803149606299
 21
3.928149606299212
 31
0.0
  0
LINE
  5
34AF
330
1E
100
AcDbEntity
  8
0
100
AcDbLine
 10
3.824803149606299
 20
3.928149606299212
 30
0.0
 11
3.824803149606299
 21
3.944881889763779
 31
0.0
  0
LINE
  5
34B0
330
1E
100
AcDbEntity
  8
0
100
AcDbLine
 10
3.824803149606299
 20
3.944881889763779
 30
0.0
 11
3.824803149606299
 21
3.956692913385826
 31
0.0
  0
LINE
  5
34B1
330
1E
100
AcDbEntity
  8
0
100
AcDbLine
 10
3.824803149606299
 20
3.956692913385826
 30
0.0
 11
3.824803149606299
 21
3.960629921259842
 31
0.0
  0
LINE
  5
34B2
330
1E
100
AcDbEntity
  8
0
100
AcDbLine
 10
3.840551181102362
 20
3.952755905511811
 30
0.0
 11
3.841535433070866
 21
3.950787401574803
 31
0.0
  0
LINE
  5
34B3
330
1E
100
AcDbEntity
  8
0
100
AcDbLine
 10
3.841535433070866
 20
3.950787401574803
 30
0.0
 11
3.843503937007874
 21
3.946850393700787
 31
0.0
  0
LINE
  5
34B4
330
1E
100
AcDbEntity
  8
0
100
AcDbLine
 10
3.845472440944881
 20
4.170275590551181
 30
0.0
 11
3.84251968503937
 21
4.161417322834645
 31
0.0
  0
LINE
  5
34B5
330
1E
100
AcDbEntity
  8
0
100
AcDbLine
 10
3.84251968503937
 20
4.161417322834645
 30
0.0
 11
3.834645669291338
 21
4.150590551181101
 31
0.0
  0
LINE
  5
34B6
330
1E
100
AcDbEntity
  8
0
100
AcDbLine
 10
3.834645669291338
 20
4.182086614173228
 30
0.0
 11
3.84251968503937
 21
4.182086614173228
 31
0.0
  0
LINE
  5
34B7
330
1E
100
AcDbEntity
  8
0
100
AcDbLine
 10
3.84251968503937
 20
4.182086614173228
 30
0.0
 11
3.845472440944881
 21
4.177165354330708
 31
0.0
  0
LINE
  5
34B8
330
1E
100
AcDbEntity
  8
0
100
AcDbLine
 10
3.834645669291338
 20
4.122047244094487
 30
0.0
 11
3.84251968503937
 21
4.112204724409449
 31
0.0
  0
LINE
  5
34B9
330
1E
100
AcDbEntity
  8
0
100
AcDbLine
 10
3.84251968503937
 20
4.112204724409449
 30
0.0
 11
3.845472440944881
 21
4.103346456692912
 31
0.0
  0
LINE
  5
34BA
330
1E
100
AcDbEntity
  8
0
100
AcDbLine
 10
3.269685039370078
 20
3.966535433070866
 30
0.0
 11
3.269685039370078
 21
3.96259842519685
 31
0.0
  0
LINE
  5
34BB
330
1E
100
AcDbEntity
  8
0
100
AcDbLine
 10
3.269685039370078
 20
3.96259842519685
 30
0.0
 11
3.269685039370078
 21
3.960629921259842
 31
0.0
  0
LINE
  5
34BC
330
1E
100
AcDbEntity
  8
0
100
AcDbLine
 10
3.269685039370078
 20
3.915354330708661
 30
0.0
 11
3.269685039370078
 21
3.937992125984251
 31
0.0
  0
LINE
  5
34BD
330
1E
100
AcDbEntity
  8
0
100
AcDbLine
 10
3.269685039370078
 20
3.937992125984251
 30
0.0
 11
3.269685039370078
 21
3.954724409448818
 31
0.0
  0
LINE
  5
34BE
330
1E
100
AcDbEntity
  8
0
100
AcDbLine
 10
3.269685039370078
 20
3.954724409448818
 30
0.0
 11
3.269685039370078
 21
3.960629921259842
 31
0.0
  0
LINE
  5
34BF
330
1E
100
AcDbEntity
  8
0
100
AcDbLine
 10
2.504921259842519
 20
3.96751968503937
 30
0.0
 11
2.508858267716535
 21
3.970472440944881
 31
0.0
  0
LINE
  5
34C0
330
1E
100
AcDbEntity
  8
0
100
AcDbLine
 10
2.508858267716535
 20
3.970472440944881
 30
0.0
 11
2.514763779527558
 21
3.968503937007874
 31
0.0
  0
LINE
  5
34C1
330
1E
100
AcDbEntity
  8
0
100
AcDbLine
 10
2.514763779527558
 20
3.968503937007874
 30
0.0
 11
2.514763779527558
 21
3.964566929133858
 31
0.0
  0
LINE
  5
34C2
330
1E
100
AcDbEntity
  8
0
100
AcDbLine
 10
2.514763779527558
 20
3.964566929133858
 30
0.0
 11
2.508858267716535
 21
3.964566929133858
 31
0.0
  0
LINE
  5
34C3
330
1E
100
AcDbEntity
  8
0
100
AcDbLine
 10
2.508858267716535
 20
3.964566929133858
 30
0.0
 11
2.504921259842519
 21
3.96751968503937
 31
0.0
  0
LINE
  5
34C4
330
1E
100
AcDbEntity
  8
0
100
AcDbLine
 10
2.363188976377952
 20
4.250984251968503
 30
0.0
 11
2.362204724409448
 21
4.25
 31
0.0
  0
LINE
  5
34C5
330
1E
100
AcDbEntity
  8
0
100
AcDbLine
 10
2.362204724409448
 20
4.25
 30
0.0
 11
2.362204724409448
 21
4.249015748031496
 31
0.0
  0
LINE
  5
34C6
330
1E
100
AcDbEntity
  8
0
100
AcDbLine
 10
2.362204724409448
 20
4.249015748031496
 30
0.0
 11
2.363188976377952
 21
4.244094488188975
 31
0.0
  0
LINE
  5
34C7
330
1E
100
AcDbEntity
  8
0
100
AcDbLine
 10
2.363188976377952
 20
4.244094488188975
 30
0.0
 11
2.364173228346456
 21
4.239173228346456
 31
0.0
  0
LINE
  5
34C8
330
1E
100
AcDbEntity
  8
0
100
AcDbLine
 10
2.364173228346456
 20
4.239173228346456
 30
0.0
 11
2.36515748031496
 21
4.234251968503937
 31
0.0
  0
LINE
  5
34C9
330
1E
100
AcDbEntity
  8
0
100
AcDbLine
 10
2.36515748031496
 20
4.234251968503937
 30
0.0
 11
2.367125984251968
 21
4.230314960629921
 31
0.0
  0
LINE
  5
34CA
330
1E
100
AcDbEntity
  8
0
100
AcDbLine
 10
2.367125984251968
 20
4.230314960629921
 30
0.0
 11
2.37007874015748
 21
4.225393700787401
 31
0.0
  0
LINE
  5
34CB
330
1E
100
AcDbEntity
  8
0
100
AcDbLine
 10
2.37007874015748
 20
4.225393700787401
 30
0.0
 11
2.372047244094487
 21
4.221456692913386
 31
0.0
  0
LINE
  5
34CC
330
1E
100
AcDbEntity
  8
0
100
AcDbLine
 10
2.372047244094487
 20
4.221456692913386
 30
0.0
 11
2.375984251968503
 21
4.21751968503937
 31
0.0
  0
LINE
  5
34CD
330
1E
100
AcDbEntity
  8
0
100
AcDbLine
 10
2.375984251968503
 20
4.21751968503937
 30
0.0
 11
2.378937007874015
 21
4.213582677165354
 31
0.0
  0
LINE
  5
34CE
330
1E
100
AcDbEntity
  8
0
100
AcDbLine
 10
2.378937007874015
 20
4.213582677165354
 30
0.0
 11
2.382874015748031
 21
4.210629921259842
 31
0.0
  0
LINE
  5
34CF
330
1E
100
AcDbEntity
  8
0
100
AcDbLine
 10
2.382874015748031
 20
4.210629921259842
 30
0.0
 11
2.38779527559055
 21
4.20767716535433
 31
0.0
  0
LINE
  5
34D0
330
1E
100
AcDbEntity
  8
0
100
AcDbLine
 10
2.38779527559055
 20
4.20767716535433
 30
0.0
 11
2.391732283464566
 21
4.203740157480314
 31
0.0
  0
LINE
  5
34D1
330
1E
100
AcDbEntity
  8
0
100
AcDbLine
 10
2.391732283464566
 20
4.203740157480314
 30
0.0
 11
2.396653543307086
 21
4.201771653543307
 31
0.0
  0
LINE
  5
34D2
330
1E
100
AcDbEntity
  8
0
100
AcDbLine
 10
2.396653543307086
 20
4.201771653543307
 30
0.0
 11
2.40255905511811
 21
4.198818897637795
 31
0.0
  0
LINE
  5
34D3
330
1E
100
AcDbEntity
  8
0
100
AcDbLine
 10
2.40255905511811
 20
4.198818897637795
 30
0.0
 11
2.40748031496063
 21
4.196850393700787
 31
0.0
  0
LINE
  5
34D4
330
1E
100
AcDbEntity
  8
0
100
AcDbLine
 10
2.40748031496063
 20
4.196850393700787
 30
0.0
 11
2.413385826771653
 21
4.194881889763779
 31
0.0
  0
LINE
  5
34D5
330
1E
100
AcDbEntity
  8
0
100
AcDbLine
 10
2.413385826771653
 20
4.194881889763779
 30
0.0
 11
2.419291338582677
 21
4.193897637795275
 31
0.0
  0
LINE
  5
34D6
330
1E
100
AcDbEntity
  8
0
100
AcDbLine
 10
2.419291338582677
 20
4.193897637795275
 30
0.0
 11
2.424212598425196
 21
4.192913385826771
 31
0.0
  0
LINE
  5
34D7
330
1E
100
AcDbEntity
  8
0
100
AcDbLine
 10
2.508858267716535
 20
4.187992125984251
 30
0.0
 11
2.511811023622047
 21
4.186023622047244
 31
0.0
  0
LINE
  5
34D8
330
1E
100
AcDbEntity
  8
0
100
AcDbLine
 10
2.511811023622047
 20
4.186023622047244
 30
0.0
 11
2.513779527559055
 21
4.185039370078739
 31
0.0
  0
LINE
  5
34D9
330
1E
100
AcDbEntity
  8
0
100
AcDbLine
 10
2.513779527559055
 20
4.185039370078739
 30
0.0
 11
2.515748031496062
 21
4.183070866141732
 31
0.0
  0
LINE
  5
34DA
330
1E
100
AcDbEntity
  8
0
100
AcDbLine
 10
2.515748031496062
 20
4.183070866141732
 30
0.0
 11
2.516732283464566
 21
4.182086614173228
 31
0.0
  0
LINE
  5
34DB
330
1E
100
AcDbEntity
  8
0
100
AcDbLine
 10
2.516732283464566
 20
4.182086614173228
 30
0.0
 11
2.51771653543307
 21
4.18011811023622
 31
0.0
  0
LINE
  5
34DC
330
1E
100
AcDbEntity
  8
0
100
AcDbLine
 10
2.51771653543307
 20
4.18011811023622
 30
0.0
 11
2.518700787401574
 21
4.179133858267716
 31
0.0
  0
LINE
  5
34DD
330
1E
100
AcDbEntity
  8
0
100
AcDbLine
 10
2.518700787401574
 20
4.179133858267716
 30
0.0
 11
2.518700787401574
 21
4.178149606299212
 31
0.0
  0
LINE
  5
34DE
330
1E
100
AcDbEntity
  8
0
100
AcDbLine
 10
2.518700787401574
 20
4.178149606299212
 30
0.0
 11
2.518700787401574
 21
4.177165354330708
 31
0.0
  0
LINE
  5
34DF
330
1E
100
AcDbEntity
  8
0
100
AcDbLine
 10
2.437992125984251
 20
4.316929133858267
 30
0.0
 11
2.434055118110236
 21
4.316929133858267
 31
0.0
  0
LINE
  5
34E0
330
1E
100
AcDbEntity
  8
0
100
AcDbLine
 10
2.434055118110236
 20
4.316929133858267
 30
0.0
 11
2.431102362204724
 21
4.316929133858267
 31
0.0
  0
LINE
  5
34E1
330
1E
100
AcDbEntity
  8
0
100
AcDbLine
 10
2.431102362204724
 20
4.316929133858267
 30
0.0
 11
2.424212598425196
 21
4.315944881889763
 31
0.0
  0
LINE
  5
34E2
330
1E
100
AcDbEntity
  8
0
100
AcDbLine
 10
2.424212598425196
 20
4.315944881889763
 30
0.0
 11
2.418307086614173
 21
4.31496062992126
 31
0.0
  0
LINE
  5
34E3
330
1E
100
AcDbEntity
  8
0
100
AcDbLine
 10
2.418307086614173
 20
4.31496062992126
 30
0.0
 11
2.412401574803149
 21
4.313976377952755
 31
0.0
  0
LINE
  5
34E4
330
1E
100
AcDbEntity
  8
0
100
AcDbLine
 10
2.412401574803149
 20
4.313976377952755
 30
0.0
 11
2.406496062992125
 21
4.312007874015748
 31
0.0
  0
LINE
  5
34E5
330
1E
100
AcDbEntity
  8
0
100
AcDbLine
 10
2.406496062992125
 20
4.312007874015748
 30
0.0
 11
2.401574803149606
 21
4.310039370078739
 31
0.0
  0
LINE
  5
34E6
330
1E
100
AcDbEntity
  8
0
100
AcDbLine
 10
2.401574803149606
 20
4.310039370078739
 30
0.0
 11
2.395669291338582
 21
4.307086614173228
 31
0.0
  0
LINE
  5
34E7
330
1E
100
AcDbEntity
  8
0
100
AcDbLine
 10
2.395669291338582
 20
4.307086614173228
 30
0.0
 11
2.390748031496062
 21
4.304133858267716
 31
0.0
  0
LINE
  5
34E8
330
1E
100
AcDbEntity
  8
0
100
AcDbLine
 10
2.390748031496062
 20
4.304133858267716
 30
0.0
 11
2.385826771653543
 21
4.301181102362204
 31
0.0
  0
LINE
  5
34E9
330
1E
100
AcDbEntity
  8
0
100
AcDbLine
 10
2.385826771653543
 20
4.301181102362204
 30
0.0
 11
2.381889763779527
 21
4.297244094488188
 31
0.0
  0
LINE
  5
34EA
330
1E
100
AcDbEntity
  8
0
100
AcDbLine
 10
2.381889763779527
 20
4.297244094488188
 30
0.0
 11
2.376968503937007
 21
4.293307086614173
 31
0.0
  0
LINE
  5
34EB
330
1E
100
AcDbEntity
  8
0
100
AcDbLine
 10
2.376968503937007
 20
4.293307086614173
 30
0.0
 11
2.374015748031495
 21
4.289370078740157
 31
0.0
  0
LINE
  5
34EC
330
1E
100
AcDbEntity
  8
0
100
AcDbLine
 10
2.374015748031495
 20
4.289370078740157
 30
0.0
 11
2.371062992125984
 21
4.285433070866141
 31
0.0
  0
LINE
  5
34ED
330
1E
100
AcDbEntity
  8
0
100
AcDbLine
 10
2.371062992125984
 20
4.285433070866141
 30
0.0
 11
2.368110236220472
 21
4.280511811023622
 31
0.0
  0
LINE
  5
34EE
330
1E
100
AcDbEntity
  8
0
100
AcDbLine
 10
2.368110236220472
 20
4.280511811023622
 30
0.0
 11
2.366141732283464
 21
4.275590551181101
 31
0.0
  0
LINE
  5
34EF
330
1E
100
AcDbEntity
  8
0
100
AcDbLine
 10
2.366141732283464
 20
4.275590551181101
 30
0.0
 11
2.364173228346456
 21
4.270669291338582
 31
0.0
  0
LINE
  5
34F0
330
1E
100
AcDbEntity
  8
0
100
AcDbLine
 10
2.364173228346456
 20
4.270669291338582
 30
0.0
 11
2.363188976377952
 21
4.265748031496062
 31
0.0
  0
LINE
  5
34F1
330
1E
100
AcDbEntity
  8
0
100
AcDbLine
 10
2.363188976377952
 20
4.265748031496062
 30
0.0
 11
2.363188976377952
 21
4.26279527559055
 31
0.0
  0
LINE
  5
34F2
330
1E
100
AcDbEntity
  8
0
100
AcDbLine
 10
2.363188976377952
 20
4.26279527559055
 30
0.0
 11
2.363188976377952
 21
4.258858267716535
 31
0.0
  0
LINE
  5
34F3
330
1E
100
AcDbEntity
  8
0
100
AcDbLine
 10
3.938976377952755
 20
4.192913385826771
 30
0.0
 11
3.945866141732283
 21
4.193897637795275
 31
0.0
  0
LINE
  5
34F4
330
1E
100
AcDbEntity
  8
0
100
AcDbLine
 10
3.945866141732283
 20
4.193897637795275
 30
0.0
 11
3.951771653543307
 21
4.195866141732283
 31
0.0
  0
LINE
  5
34F5
330
1E
100
AcDbEntity
  8
0
100
AcDbLine
 10
3.951771653543307
 20
4.195866141732283
 30
0.0
 11
3.95767716535433
 21
4.197834645669291
 31
0.0
  0
LINE
  5
34F6
330
1E
100
AcDbEntity
  8
0
100
AcDbLine
 10
3.95767716535433
 20
4.197834645669291
 30
0.0
 11
3.96259842519685
 21
4.199803149606299
 31
0.0
  0
LINE
  5
34F7
330
1E
100
AcDbEntity
  8
0
100
AcDbLine
 10
3.96259842519685
 20
4.199803149606299
 30
0.0
 11
3.968503937007874
 21
4.201771653543307
 31
0.0
  0
LINE
  5
34F8
330
1E
100
AcDbEntity
  8
0
100
AcDbLine
 10
3.968503937007874
 20
4.201771653543307
 30
0.0
 11
3.973425196850393
 21
4.204724409448818
 31
0.0
  0
LINE
  5
34F9
330
1E
100
AcDbEntity
  8
0
100
AcDbLine
 10
3.973425196850393
 20
4.204724409448818
 30
0.0
 11
3.978346456692913
 21
4.208661417322834
 31
0.0
  0
LINE
  5
34FA
330
1E
100
AcDbEntity
  8
0
100
AcDbLine
 10
3.978346456692913
 20
4.208661417322834
 30
0.0
 11
3.982283464566929
 21
4.211614173228346
 31
0.0
  0
LINE
  5
34FB
330
1E
100
AcDbEntity
  8
0
100
AcDbLine
 10
3.982283464566929
 20
4.211614173228346
 30
0.0
 11
3.987204724409448
 21
4.215551181102362
 31
0.0
  0
LINE
  5
34FC
330
1E
100
AcDbEntity
  8
0
100
AcDbLine
 10
3.987204724409448
 20
4.215551181102362
 30
0.0
 11
3.99015748031496
 21
4.220472440944881
 31
0.0
  0
LINE
  5
34FD
330
1E
100
AcDbEntity
  8
0
100
AcDbLine
 10
3.99015748031496
 20
4.220472440944881
 30
0.0
 11
3.993110236220472
 21
4.224409448818897
 31
0.0
  0
LINE
  5
34FE
330
1E
100
AcDbEntity
  8
0
100
AcDbLine
 10
3.993110236220472
 20
4.224409448818897
 30
0.0
 11
3.996062992125984
 21
4.229330708661417
 31
0.0
  0
LINE
  5
34FF
330
1E
100
AcDbEntity
  8
0
100
AcDbLine
 10
3.996062992125984
 20
4.229330708661417
 30
0.0
 11
3.998031496062992
 21
4.234251968503937
 31
0.0
  0
LINE
  5
3500
330
1E
100
AcDbEntity
  8
0
100
AcDbLine
 10
3.998031496062992
 20
4.234251968503937
 30
0.0
 11
4.0
 21
4.239173228346456
 31
0.0
  0
LINE
  5
3501
330
1E
100
AcDbEntity
  8
0
100
AcDbLine
 10
4.0
 20
4.239173228346456
 30
0.0
 11
4.000984251968503
 21
4.244094488188975
 31
0.0
  0
LINE
  5
3502
330
1E
100
AcDbEntity
  8
0
100
AcDbLine
 10
4.000984251968503
 20
4.244094488188975
 30
0.0
 11
4.000984251968503
 21
4.247047244094487
 31
0.0
  0
LINE
  5
3503
330
1E
100
AcDbEntity
  8
0
100
AcDbLine
 10
4.000984251968503
 20
4.247047244094487
 30
0.0
 11
4.000984251968503
 21
4.250984251968503
 31
0.0
  0
LINE
  5
3504
330
1E
100
AcDbEntity
  8
0
100
AcDbLine
 10
3.845472440944881
 20
4.177165354330708
 30
0.0
 11
3.845472440944881
 21
4.178149606299212
 31
0.0
  0
LINE
  5
3505
330
1E
100
AcDbEntity
  8
0
100
AcDbLine
 10
3.845472440944881
 20
4.178149606299212
 30
0.0
 11
3.845472440944881
 21
4.179133858267716
 31
0.0
  0
LINE
  5
3506
330
1E
100
AcDbEntity
  8
0
100
AcDbLine
 10
3.845472440944881
 20
4.179133858267716
 30
0.0
 11
3.845472440944881
 21
4.18011811023622
 31
0.0
  0
LINE
  5
3507
330
1E
100
AcDbEntity
  8
0
100
AcDbLine
 10
3.845472440944881
 20
4.18011811023622
 30
0.0
 11
3.846456692913385
 21
4.181102362204724
 31
0.0
  0
LINE
  5
3508
330
1E
100
AcDbEntity
  8
0
100
AcDbLine
 10
3.846456692913385
 20
4.181102362204724
 30
0.0
 11
3.847440944881889
 21
4.182086614173228
 31
0.0
  0
LINE
  5
3509
330
1E
100
AcDbEntity
  8
0
100
AcDbLine
 10
3.847440944881889
 20
4.182086614173228
 30
0.0
 11
3.849409448818897
 21
4.184055118110236
 31
0.0
  0
LINE
  5
350A
330
1E
100
AcDbEntity
  8
0
100
AcDbLine
 10
3.849409448818897
 20
4.184055118110236
 30
0.0
 11
3.850393700787401
 21
4.185039370078739
 31
0.0
  0
LINE
  5
350B
330
1E
100
AcDbEntity
  8
0
100
AcDbLine
 10
3.850393700787401
 20
4.185039370078739
 30
0.0
 11
3.855314960629921
 21
4.187992125984251
 31
0.0
  0
LINE
  5
350C
330
1E
100
AcDbEntity
  8
0
100
AcDbLine
 10
4.000984251968503
 20
4.257874015748031
 30
0.0
 11
4.000984251968503
 21
4.258858267716535
 31
0.0
  0
LINE
  5
350D
330
1E
100
AcDbEntity
  8
0
100
AcDbLine
 10
4.000984251968503
 20
4.258858267716535
 30
0.0
 11
4.001968503937007
 21
4.260826771653543
 31
0.0
  0
LINE
  5
350E
330
1E
100
AcDbEntity
  8
0
100
AcDbLine
 10
4.001968503937007
 20
4.260826771653543
 30
0.0
 11
4.000984251968503
 21
4.265748031496062
 31
0.0
  0
LINE
  5
350F
330
1E
100
AcDbEntity
  8
0
100
AcDbLine
 10
4.000984251968503
 20
4.265748031496062
 30
0.0
 11
4.0
 21
4.270669291338582
 31
0.0
  0
LINE
  5
3510
330
1E
100
AcDbEntity
  8
0
100
AcDbLine
 10
4.0
 20
4.270669291338582
 30
0.0
 11
3.999015748031495
 21
4.274606299212598
 31
0.0
  0
LINE
  5
3511
330
1E
100
AcDbEntity
  8
0
100
AcDbLine
 10
3.999015748031495
 20
4.274606299212598
 30
0.0
 11
3.997047244094487
 21
4.279527559055117
 31
0.0
  0
LINE
  5
3512
330
1E
100
AcDbEntity
  8
0
100
AcDbLine
 10
3.997047244094487
 20
4.279527559055117
 30
0.0
 11
3.994094488188976
 21
4.283464566929133
 31
0.0
  0
LINE
  5
3513
330
1E
100
AcDbEntity
  8
0
100
AcDbLine
 10
3.994094488188976
 20
4.283464566929133
 30
0.0
 11
3.992125984251968
 21
4.288385826771653
 31
0.0
  0
LINE
  5
3514
330
1E
100
AcDbEntity
  8
0
100
AcDbLine
 10
3.992125984251968
 20
4.288385826771653
 30
0.0
 11
3.988188976377952
 21
4.292322834645669
 31
0.0
  0
LINE
  5
3515
330
1E
100
AcDbEntity
  8
0
100
AcDbLine
 10
3.988188976377952
 20
4.292322834645669
 30
0.0
 11
3.98523622047244
 21
4.295275590551181
 31
0.0
  0
LINE
  5
3516
330
1E
100
AcDbEntity
  8
0
100
AcDbLine
 10
3.98523622047244
 20
4.295275590551181
 30
0.0
 11
3.981299212598425
 21
4.299212598425197
 31
0.0
  0
LINE
  5
3517
330
1E
100
AcDbEntity
  8
0
100
AcDbLine
 10
3.981299212598425
 20
4.299212598425197
 30
0.0
 11
3.976377952755905
 21
4.302165354330708
 31
0.0
  0
LINE
  5
3518
330
1E
100
AcDbEntity
  8
0
100
AcDbLine
 10
3.976377952755905
 20
4.302165354330708
 30
0.0
 11
3.972440944881889
 21
4.30511811023622
 31
0.0
  0
LINE
  5
3519
330
1E
100
AcDbEntity
  8
0
100
AcDbLine
 10
3.972440944881889
 20
4.30511811023622
 30
0.0
 11
3.96751968503937
 21
4.308070866141732
 31
0.0
  0
LINE
  5
351A
330
1E
100
AcDbEntity
  8
0
100
AcDbLine
 10
3.96751968503937
 20
4.308070866141732
 30
0.0
 11
3.961614173228346
 21
4.310039370078739
 31
0.0
  0
LINE
  5
351B
330
1E
100
AcDbEntity
  8
0
100
AcDbLine
 10
3.961614173228346
 20
4.310039370078739
 30
0.0
 11
3.956692913385826
 21
4.312992125984251
 31
0.0
  0
LINE
  5
351C
330
1E
100
AcDbEntity
  8
0
100
AcDbLine
 10
3.956692913385826
 20
4.312992125984251
 30
0.0
 11
3.950787401574803
 21
4.313976377952755
 31
0.0
  0
LINE
  5
351D
330
1E
100
AcDbEntity
  8
0
100
AcDbLine
 10
3.950787401574803
 20
4.313976377952755
 30
0.0
 11
3.944881889763779
 21
4.315944881889763
 31
0.0
  0
LINE
  5
351E
330
1E
100
AcDbEntity
  8
0
100
AcDbLine
 10
3.944881889763779
 20
4.315944881889763
 30
0.0
 11
3.938976377952755
 21
4.316929133858267
 31
0.0
  0
LINE
  5
351F
330
1E
100
AcDbEntity
  8
0
100
AcDbLine
 10
3.938976377952755
 20
4.316929133858267
 30
0.0
 11
3.932086614173228
 21
4.316929133858267
 31
0.0
  0
LINE
  5
3520
330
1E
100
AcDbEntity
  8
0
100
AcDbLine
 10
3.932086614173228
 20
4.316929133858267
 30
0.0
 11
3.929133858267716
 21
4.316929133858267
 31
0.0
  0
LINE
  5
3521
330
1E
100
AcDbEntity
  8
0
100
AcDbLine
 10
3.929133858267716
 20
4.316929133858267
 30
0.0
 11
3.926181102362204
 21
4.316929133858267
 31
0.0
  0
LINE
  5
3522
330
1E
100
AcDbEntity
  8
0
100
AcDbLine
 10
2.4251968503937
 20
4.351377952755905
 30
0.0
 11
2.431102362204724
 21
4.373031496062991
 31
0.0
  0
LINE
  5
3523
330
1E
100
AcDbEntity
  8
0
100
AcDbLine
 10
2.431102362204724
 20
4.373031496062991
 30
0.0
 11
2.447834645669291
 21
4.388779527559054
 31
0.0
  0
LINE
  5
3524
330
1E
100
AcDbEntity
  8
0
100
AcDbLine
 10
2.447834645669291
 20
4.388779527559054
 30
0.0
 11
2.469488188976377
 21
4.394685039370078
 31
0.0
  0
LINE
  5
3525
330
1E
100
AcDbEntity
  8
0
100
AcDbLine
 10
3.894685039370078
 20
4.394685039370078
 30
0.0
 11
3.916338582677165
 21
4.388779527559054
 31
0.0
  0
LINE
  5
3526
330
1E
100
AcDbEntity
  8
0
100
AcDbLine
 10
3.916338582677165
 20
4.388779527559054
 30
0.0
 11
3.933070866141732
 21
4.373031496062991
 31
0.0
  0
LINE
  5
3527
330
1E
100
AcDbEntity
  8
0
100
AcDbLine
 10
3.933070866141732
 20
4.373031496062991
 30
0.0
 11
3.938976377952755
 21
4.351377952755905
 31
0.0
  0
LINE
  5
3528
330
1E
100
AcDbEntity
  8
0
100
AcDbLine
 10
2.409448818897637
 20
3.708661417322834
 30
0.0
 11
2.409448818897637
 21
3.706692913385826
 31
0.0
  0
LINE
  5
3529
330
1E
100
AcDbEntity
  8
0
100
AcDbLine
 10
2.409448818897637
 20
3.706692913385826
 30
0.0
 11
2.409448818897637
 21
3.704724409448818
 31
0.0
  0
LINE
  5
352A
330
1E
100
AcDbEntity
  8
0
100
AcDbLine
 10
3.177165354330708
 20
4.297244094488188
 30
0.0
 11
3.171259842519685
 21
4.311023622047244
 31
0.0
  0
LINE
  5
352B
330
1E
100
AcDbEntity
  8
0
100
AcDbLine
 10
3.171259842519685
 20
4.311023622047244
 30
0.0
 11
3.15748031496063
 21
4.316929133858267
 31
0.0
  0
LINE
  5
352C
330
1E
100
AcDbEntity
  8
0
100
AcDbLine
 10
2.539370078740157
 20
3.960629921259842
 30
0.0
 11
2.530511811023622
 21
3.958661417322834
 31
0.0
  0
LINE
  5
352D
330
1E
100
AcDbEntity
  8
0
100
AcDbLine
 10
2.530511811023622
 20
3.958661417322834
 30
0.0
 11
2.52263779527559
 21
3.952755905511811
 31
0.0
  0
LINE
  5
352E
330
1E
100
AcDbEntity
  8
0
100
AcDbLine
 10
3.206692913385826
 20
4.316929133858267
 30
0.0
 11
3.192913385826771
 21
4.311023622047244
 31
0.0
  0
LINE
  5
352F
330
1E
100
AcDbEntity
  8
0
100
AcDbLine
 10
3.192913385826771
 20
4.311023622047244
 30
0.0
 11
3.187007874015748
 21
4.297244094488188
 31
0.0
  0
LINE
  5
3530
330
1E
100
AcDbEntity
  8
0
100
AcDbLine
 10
3.841535433070866
 20
3.952755905511811
 30
0.0
 11
3.833661417322834
 21
3.958661417322834
 31
0.0
  0
LINE
  5
3531
330
1E
100
AcDbEntity
  8
0
100
AcDbLine
 10
3.833661417322834
 20
3.958661417322834
 30
0.0
 11
3.824803149606299
 21
3.960629921259842
 31
0.0
  0
LINE
  5
3532
330
1E
100
AcDbEntity
  8
0
100
AcDbLine
 10
5.565944881889763
 20
6.371062992125984
 30
0.0
 11
5.565944881889763
 21
6.377952755905512
 31
0.0
  0
LINE
  5
3533
330
1E
100
AcDbEntity
  8
0
100
AcDbLine
 10
5.565944881889763
 20
6.377952755905512
 30
0.0
 11
5.56496062992126
 21
6.380905511811023
 31
0.0
  0
LINE
  5
3534
330
1E
100
AcDbEntity
  8
0
100
AcDbLine
 10
5.56496062992126
 20
6.318897637795275
 30
0.0
 11
5.565944881889763
 21
6.321850393700787
 31
0.0
  0
LINE
  5
3535
330
1E
100
AcDbEntity
  8
0
100
AcDbLine
 10
5.565944881889763
 20
6.321850393700787
 30
0.0
 11
5.565944881889763
 21
6.328740157480314
 31
0.0
  0
LINE
  5
3536
330
1E
100
AcDbEntity
  8
0
100
AcDbLine
 10
5.565944881889763
 20
6.371062992125984
 30
0.0
 11
5.571850393700787
 21
6.371062992125984
 31
0.0
  0
LINE
  5
3537
330
1E
100
AcDbEntity
  8
0
100
AcDbLine
 10
5.571850393700787
 20
6.371062992125984
 30
0.0
 11
5.574803149606299
 21
6.371062992125984
 31
0.0
  0
LINE
  5
3538
330
1E
100
AcDbEntity
  8
0
100
AcDbLine
 10
5.565944881889763
 20
6.328740157480314
 30
0.0
 11
5.571850393700787
 21
6.328740157480314
 31
0.0
  0
LINE
  5
3539
330
1E
100
AcDbEntity
  8
0
100
AcDbLine
 10
5.571850393700787
 20
6.328740157480314
 30
0.0
 11
5.574803149606299
 21
6.328740157480314
 31
0.0
  0
LINE
  5
353A
330
1E
100
AcDbEntity
  8
0
100
AcDbLine
 10
5.386811023622047
 20
6.380905511811023
 30
0.0
 11
5.389763779527559
 21
6.377952755905512
 31
0.0
  0
LINE
  5
353B
330
1E
100
AcDbEntity
  8
0
100
AcDbLine
 10
5.389763779527559
 20
6.377952755905512
 30
0.0
 11
5.395669291338582
 21
6.371062992125984
 31
0.0
  0
LINE
  5
353C
330
1E
100
AcDbEntity
  8
0
100
AcDbLine
 10
5.386811023622047
 20
6.318897637795275
 30
0.0
 11
5.389763779527559
 21
6.322834645669291
 31
0.0
  0
LINE
  5
353D
330
1E
100
AcDbEntity
  8
0
100
AcDbLine
 10
5.389763779527559
 20
6.322834645669291
 30
0.0
 11
5.395669291338582
 21
6.328740157480314
 31
0.0
  0
LINE
  5
353E
330
1E
100
AcDbEntity
  8
0
100
AcDbLine
 10
5.565944881889763
 20
5.888779527559054
 30
0.0
 11
5.565944881889763
 21
5.895669291338582
 31
0.0
  0
LINE
  5
353F
330
1E
100
AcDbEntity
  8
0
100
AcDbLine
 10
5.565944881889763
 20
5.895669291338582
 30
0.0
 11
5.56496062992126
 21
5.898622047244094
 31
0.0
  0
LINE
  5
3540
330
1E
100
AcDbEntity
  8
0
100
AcDbLine
 10
5.56496062992126
 20
5.836614173228346
 30
0.0
 11
5.565944881889763
 21
5.839566929133858
 31
0.0
  0
LINE
  5
3541
330
1E
100
AcDbEntity
  8
0
100
AcDbLine
 10
5.565944881889763
 20
5.839566929133858
 30
0.0
 11
5.565944881889763
 21
5.846456692913386
 31
0.0
  0
LINE
  5
3542
330
1E
100
AcDbEntity
  8
0
100
AcDbLine
 10
5.565944881889763
 20
5.888779527559054
 30
0.0
 11
5.571850393700787
 21
5.888779527559054
 31
0.0
  0
LINE
  5
3543
330
1E
100
AcDbEntity
  8
0
100
AcDbLine
 10
5.571850393700787
 20
5.888779527559054
 30
0.0
 11
5.574803149606299
 21
5.888779527559054
 31
0.0
  0
LINE
  5
3544
330
1E
100
AcDbEntity
  8
0
100
AcDbLine
 10
5.565944881889763
 20
5.846456692913386
 30
0.0
 11
5.571850393700787
 21
5.846456692913386
 31
0.0
  0
LINE
  5
3545
330
1E
100
AcDbEntity
  8
0
100
AcDbLine
 10
5.571850393700787
 20
5.846456692913386
 30
0.0
 11
5.574803149606299
 21
5.846456692913386
 31
0.0
  0
LINE
  5
3546
330
1E
100
AcDbEntity
  8
0
100
AcDbLine
 10
5.386811023622047
 20
5.898622047244094
 30
0.0
 11
5.389763779527559
 21
5.894685039370078
 31
0.0
  0
LINE
  5
3547
330
1E
100
AcDbEntity
  8
0
100
AcDbLine
 10
5.389763779527559
 20
5.894685039370078
 30
0.0
 11
5.395669291338582
 21
5.888779527559054
 31
0.0
  0
LINE
  5
3548
330
1E
100
AcDbEntity
  8
0
100
AcDbLine
 10
5.386811023622047
 20
5.836614173228346
 30
0.0
 11
5.389763779527559
 21
5.839566929133858
 31
0.0
  0
LINE
  5
3549
330
1E
100
AcDbEntity
  8
0
100
AcDbLine
 10
5.389763779527559
 20
5.839566929133858
 30
0.0
 11
5.395669291338582
 21
5.846456692913386
 31
0.0
  0
LINE
  5
354A
330
1E
100
AcDbEntity
  8
0
100
AcDbLine
 10
5.26279527559055
 20
5.544291338582676
 30
0.0
 11
5.252952755905512
 21
5.534448818897637
 31
0.0
  0
LINE
  5
354B
330
1E
100
AcDbEntity
  8
0
100
AcDbLine
 10
5.252952755905512
 20
5.534448818897637
 30
0.0
 11
5.249015748031496
 21
5.529527559055117
 31
0.0
  0
LINE
  5
354C
330
1E
100
AcDbEntity
  8
0
100
AcDbLine
 10
5.24015748031496
 20
5.598425196850393
 30
0.0
 11
5.226377952755905
 21
5.598425196850393
 31
0.0
  0
LINE
  5
354D
330
1E
100
AcDbEntity
  8
0
100
AcDbLine
 10
5.226377952755905
 20
5.598425196850393
 30
0.0
 11
5.220472440944881
 21
5.598425196850393
 31
0.0
  0
LINE
  5
354E
330
1E
100
AcDbEntity
  8
0
100
AcDbLine
 10
5.220472440944881
 20
5.668307086614173
 30
0.0
 11
5.222440944881889
 21
5.677165354330708
 31
0.0
  0
LINE
  5
354F
330
1E
100
AcDbEntity
  8
0
100
AcDbLine
 10
5.222440944881889
 20
5.677165354330708
 30
0.0
 11
5.228346456692912
 21
5.687007874015748
 31
0.0
  0
LINE
  5
3550
330
1E
100
AcDbEntity
  8
0
100
AcDbLine
 10
5.228346456692912
 20
5.687007874015748
 30
0.0
 11
5.237204724409449
 21
5.696850393700787
 31
0.0
  0
LINE
  5
3551
330
1E
100
AcDbEntity
  8
0
100
AcDbLine
 10
5.237204724409449
 20
5.696850393700787
 30
0.0
 11
5.239173228346456
 21
5.699803149606299
 31
0.0
  0
LINE
  5
3552
330
1E
100
AcDbEntity
  8
0
100
AcDbLine
 10
5.239173228346456
 20
5.699803149606299
 30
0.0
 11
5.24015748031496
 21
5.699803149606299
 31
0.0
  0
LINE
  5
3553
330
1E
100
AcDbEntity
  8
0
100
AcDbLine
 10
4.866141732283464
 20
6.143700787401574
 30
0.0
 11
4.87007874015748
 21
6.138779527559054
 31
0.0
  0
LINE
  5
3554
330
1E
100
AcDbEntity
  8
0
100
AcDbLine
 10
4.87007874015748
 20
6.138779527559054
 30
0.0
 11
4.880905511811023
 21
6.126968503937007
 31
0.0
  0
LINE
  5
3555
330
1E
100
AcDbEntity
  8
0
100
AcDbLine
 10
4.880905511811023
 20
6.126968503937007
 30
0.0
 11
4.896653543307086
 21
6.111220472440944
 31
0.0
  0
LINE
  5
3556
330
1E
100
AcDbEntity
  8
0
100
AcDbLine
 10
4.866141732283464
 20
6.011811023622047
 30
0.0
 11
4.87007874015748
 21
6.016732283464566
 31
0.0
  0
LINE
  5
3557
330
1E
100
AcDbEntity
  8
0
100
AcDbLine
 10
4.87007874015748
 20
6.016732283464566
 30
0.0
 11
4.880905511811023
 21
6.028543307086613
 31
0.0
  0
LINE
  5
3558
330
1E
100
AcDbEntity
  8
0
100
AcDbLine
 10
4.880905511811023
 20
6.028543307086613
 30
0.0
 11
4.896653543307086
 21
6.044291338582676
 31
0.0
  0
LINE
  5
3559
330
1E
100
AcDbEntity
  8
0
100
AcDbLine
 10
5.859251968503937
 20
5.49507874015748
 30
0.0
 11
5.859251968503937
 21
5.492125984251968
 31
0.0
  0
LINE
  5
355A
330
1E
100
AcDbEntity
  8
0
100
AcDbLine
 10
5.859251968503937
 20
5.492125984251968
 30
0.0
 11
5.859251968503937
 21
5.48523622047244
 31
0.0
  0
LINE
  5
355B
330
1E
100
AcDbEntity
  8
0
100
AcDbLine
 10
5.859251968503937
 20
5.456692913385826
 30
0.0
 11
5.859251968503937
 21
5.449803149606299
 31
0.0
  0
LINE
  5
355C
330
1E
100
AcDbEntity
  8
0
100
AcDbLine
 10
5.859251968503937
 20
5.449803149606299
 30
0.0
 11
5.859251968503937
 21
5.446850393700787
 31
0.0
  0
LINE
  5
355D
330
1E
100
AcDbEntity
  8
0
100
AcDbLine
 10
5.829724409448818
 20
5.729330708661417
 30
0.0
 11
5.844488188976377
 21
5.725393700787401
 31
0.0
  0
LINE
  5
355E
330
1E
100
AcDbEntity
  8
0
100
AcDbLine
 10
5.844488188976377
 20
5.725393700787401
 30
0.0
 11
5.855314960629921
 21
5.713582677165354
 31
0.0
  0
LINE
  5
355F
330
1E
100
AcDbEntity
  8
0
100
AcDbLine
 10
5.855314960629921
 20
5.713582677165354
 30
0.0
 11
5.859251968503937
 21
5.698818897637795
 31
0.0
  0
LINE
  5
3560
330
1E
100
AcDbEntity
  8
0
100
AcDbLine
 10
4.866141732283464
 20
6.011811023622047
 30
0.0
 11
4.848425196850393
 21
6.035433070866141
 31
0.0
  0
LINE
  5
3561
330
1E
100
AcDbEntity
  8
0
100
AcDbLine
 10
4.848425196850393
 20
6.035433070866141
 30
0.0
 11
4.839566929133858
 21
6.062992125984251
 31
0.0
  0
LINE
  5
3562
330
1E
100
AcDbEntity
  8
0
100
AcDbLine
 10
4.839566929133858
 20
6.062992125984251
 30
0.0
 11
4.839566929133858
 21
6.09251968503937
 31
0.0
  0
LINE
  5
3563
330
1E
100
AcDbEntity
  8
0
100
AcDbLine
 10
4.839566929133858
 20
6.09251968503937
 30
0.0
 11
4.848425196850393
 21
6.12007874015748
 31
0.0
  0
LINE
  5
3564
330
1E
100
AcDbEntity
  8
0
100
AcDbLine
 10
4.848425196850393
 20
6.12007874015748
 30
0.0
 11
4.866141732283464
 21
6.143700787401574
 31
0.0
  0
LINE
  5
3565
330
1E
100
AcDbEntity
  8
0
100
AcDbLine
 10
5.023622047244094
 20
5.854330708661417
 30
0.0
 11
5.025590551181101
 21
5.857283464566928
 31
0.0
  0
LINE
  5
3566
330
1E
100
AcDbEntity
  8
0
100
AcDbLine
 10
5.025590551181101
 20
5.857283464566928
 30
0.0
 11
5.032480314960629
 21
5.864173228346456
 31
0.0
  0
LINE
  5
3567
330
1E
100
AcDbEntity
  8
0
100
AcDbLine
 10
5.032480314960629
 20
5.864173228346456
 30
0.0
 11
5.042322834645669
 21
5.874015748031496
 31
0.0
  0
LINE
  5
3568
330
1E
100
AcDbEntity
  8
0
100
AcDbLine
 10
5.042322834645669
 20
5.874015748031496
 30
0.0
 11
5.054133858267716
 21
5.885826771653543
 31
0.0
  0
LINE
  5
3569
330
1E
100
AcDbEntity
  8
0
100
AcDbLine
 10
5.375984251968503
 20
5.431102362204724
 30
0.0
 11
5.361220472440944
 21
5.431102362204724
 31
0.0
  0
LINE
  5
356A
330
1E
100
AcDbEntity
  8
0
100
AcDbLine
 10
5.361220472440944
 20
5.431102362204724
 30
0.0
 11
5.351377952755905
 21
5.431102362204724
 31
0.0
  0
LINE
  5
356B
330
1E
100
AcDbEntity
  8
0
100
AcDbLine
 10
5.351377952755905
 20
5.431102362204724
 30
0.0
 11
5.347440944881889
 21
5.432086614173228
 31
0.0
  0
LINE
  5
356C
330
1E
100
AcDbEntity
  8
0
100
AcDbLine
 10
5.249015748031496
 20
5.529527559055117
 30
0.0
 11
5.233267716535433
 21
5.5501968503937
 31
0.0
  0
LINE
  5
356D
330
1E
100
AcDbEntity
  8
0
100
AcDbLine
 10
5.233267716535433
 20
5.5501968503937
 30
0.0
 11
5.223425196850393
 21
5.573818897637795
 31
0.0
  0
LINE
  5
356E
330
1E
100
AcDbEntity
  8
0
100
AcDbLine
 10
5.223425196850393
 20
5.573818897637795
 30
0.0
 11
5.220472440944881
 21
5.598425196850393
 31
0.0
  0
LINE
  5
356F
330
1E
100
AcDbEntity
  8
0
100
AcDbLine
 10
4.935039370078739
 20
6.004921259842519
 30
0.0
 11
4.909448818897637
 21
6.006889763779527
 31
0.0
  0
LINE
  5
3570
330
1E
100
AcDbEntity
  8
0
100
AcDbLine
 10
4.909448818897637
 20
6.006889763779527
 30
0.0
 11
4.888779527559054
 21
6.007874015748031
 31
0.0
  0
LINE
  5
3571
330
1E
100
AcDbEntity
  8
0
100
AcDbLine
 10
4.888779527559054
 20
6.007874015748031
 30
0.0
 11
4.874015748031496
 21
6.008858267716535
 31
0.0
  0
LINE
  5
3572
330
1E
100
AcDbEntity
  8
0
100
AcDbLine
 10
4.874015748031496
 20
6.008858267716535
 30
0.0
 11
4.869094488188975
 21
6.008858267716535
 31
0.0
  0
LINE
  5
3573
330
1E
100
AcDbEntity
  8
0
100
AcDbLine
 10
4.896653543307086
 20
6.111220472440944
 30
0.0
 11
4.885826771653543
 21
6.096456692913386
 31
0.0
  0
LINE
  5
3574
330
1E
100
AcDbEntity
  8
0
100
AcDbLine
 10
4.885826771653543
 20
6.096456692913386
 30
0.0
 11
4.881889763779527
 21
6.077755905511811
 31
0.0
  0
LINE
  5
3575
330
1E
100
AcDbEntity
  8
0
100
AcDbLine
 10
4.881889763779527
 20
6.077755905511811
 30
0.0
 11
4.885826771653543
 21
6.059055118110236
 31
0.0
  0
LINE
  5
3576
330
1E
100
AcDbEntity
  8
0
100
AcDbLine
 10
4.885826771653543
 20
6.059055118110236
 30
0.0
 11
4.896653543307086
 21
6.044291338582676
 31
0.0
  0
LINE
  5
3577
330
1E
100
AcDbEntity
  8
0
100
AcDbLine
 10
5.24015748031496
 20
5.598425196850393
 30
0.0
 11
5.246062992125984
 21
5.568897637795275
 31
0.0
  0
LINE
  5
3578
330
1E
100
AcDbEntity
  8
0
100
AcDbLine
 10
5.246062992125984
 20
5.568897637795275
 30
0.0
 11
5.26279527559055
 21
5.544291338582676
 31
0.0
  0
LINE
  5
3579
330
1E
100
AcDbEntity
  8
0
100
AcDbLine
 10
5.574803149606299
 20
6.739173228346456
 30
0.0
 11
5.568897637795275
 21
6.752952755905512
 31
0.0
  0
LINE
  5
357A
330
1E
100
AcDbEntity
  8
0
100
AcDbLine
 10
5.568897637795275
 20
6.752952755905512
 30
0.0
 11
5.55511811023622
 21
6.759842519685038
 31
0.0
  0
LINE
  5
357B
330
1E
100
AcDbEntity
  8
0
100
AcDbLine
 10
4.929133858267716
 20
5.99507874015748
 30
0.0
 11
4.942913385826771
 21
6.000984251968503
 31
0.0
  0
LINE
  5
357C
330
1E
100
AcDbEntity
  8
0
100
AcDbLine
 10
4.942913385826771
 20
6.000984251968503
 30
0.0
 11
4.95767716535433
 21
5.99507874015748
 31
0.0
  0
LINE
  5
357D
330
1E
100
AcDbEntity
  8
0
100
AcDbLine
 10
5.02755905511811
 20
5.881889763779527
 30
0.0
 11
5.030511811023622
 21
5.878937007874015
 31
0.0
  0
LINE
  5
357E
330
1E
100
AcDbEntity
  8
0
100
AcDbLine
 10
5.030511811023622
 20
5.878937007874015
 30
0.0
 11
5.039370078740157
 21
5.871062992125984
 31
0.0
  0
LINE
  5
357F
330
1E
100
AcDbEntity
  8
0
100
AcDbLine
 10
4.922244094488188
 20
5.988188976377952
 30
0.0
 11
4.9251968503937
 21
5.984251968503937
 31
0.0
  0
LINE
  5
3580
330
1E
100
AcDbEntity
  8
0
100
AcDbLine
 10
4.9251968503937
 20
5.984251968503937
 30
0.0
 11
4.934055118110236
 21
5.975393700787401
 31
0.0
  0
LINE
  5
3581
330
1E
100
AcDbEntity
  8
0
100
AcDbLine
 10
4.934055118110236
 20
5.975393700787401
 30
0.0
 11
4.948818897637795
 21
5.961614173228346
 31
0.0
  0
LINE
  5
3582
330
1E
100
AcDbEntity
  8
0
100
AcDbLine
 10
4.948818897637795
 20
5.961614173228346
 30
0.0
 11
4.965551181102362
 21
5.943897637795275
 31
0.0
  0
LINE
  5
3583
330
1E
100
AcDbEntity
  8
0
100
AcDbLine
 10
4.965551181102362
 20
5.943897637795275
 30
0.0
 11
4.984251968503937
 21
5.9251968503937
 31
0.0
  0
LINE
  5
3584
330
1E
100
AcDbEntity
  8
0
100
AcDbLine
 10
4.984251968503937
 20
5.9251968503937
 30
0.0
 11
5.001968503937007
 21
5.908464566929133
 31
0.0
  0
LINE
  5
3585
330
1E
100
AcDbEntity
  8
0
100
AcDbLine
 10
5.001968503937007
 20
5.908464566929133
 30
0.0
 11
5.015748031496062
 21
5.893700787401574
 31
0.0
  0
LINE
  5
3586
330
1E
100
AcDbEntity
  8
0
100
AcDbLine
 10
5.015748031496062
 20
5.893700787401574
 30
0.0
 11
5.024606299212598
 21
5.884842519685038
 31
0.0
  0
LINE
  5
3587
330
1E
100
AcDbEntity
  8
0
100
AcDbLine
 10
5.024606299212598
 20
5.884842519685038
 30
0.0
 11
5.02755905511811
 21
5.881889763779527
 31
0.0
  0
LINE
  5
3588
330
1E
100
AcDbEntity
  8
0
100
AcDbLine
 10
5.02755905511811
 20
5.881889763779527
 30
0.0
 11
5.013779527559054
 21
5.875984251968503
 31
0.0
  0
LINE
  5
3589
330
1E
100
AcDbEntity
  8
0
100
AcDbLine
 10
5.013779527559054
 20
5.875984251968503
 30
0.0
 11
5.0
 21
5.881889763779527
 31
0.0
  0
LINE
  5
358A
330
1E
100
AcDbEntity
  8
0
100
AcDbLine
 10
4.922244094488188
 20
5.988188976377952
 30
0.0
 11
4.916338582677165
 21
5.973425196850393
 31
0.0
  0
LINE
  5
358B
330
1E
100
AcDbEntity
  8
0
100
AcDbLine
 10
4.916338582677165
 20
5.973425196850393
 30
0.0
 11
4.922244094488188
 21
5.959645669291338
 31
0.0
  0
LINE
  5
358C
330
1E
100
AcDbEntity
  8
0
100
AcDbLine
 10
5.035433070866141
 20
5.888779527559054
 30
0.0
 11
5.031496062992125
 21
5.891732283464566
 31
0.0
  0
LINE
  5
358D
330
1E
100
AcDbEntity
  8
0
100
AcDbLine
 10
5.031496062992125
 20
5.891732283464566
 30
0.0
 11
5.02263779527559
 21
5.901574803149606
 31
0.0
  0
LINE
  5
358E
330
1E
100
AcDbEntity
  8
0
100
AcDbLine
 10
5.02263779527559
 20
5.901574803149606
 30
0.0
 11
5.008858267716535
 21
5.915354330708661
 31
0.0
  0
LINE
  5
358F
330
1E
100
AcDbEntity
  8
0
100
AcDbLine
 10
5.008858267716535
 20
5.915354330708661
 30
0.0
 11
4.991141732283464
 21
5.933070866141732
 31
0.0
  0
LINE
  5
3590
330
1E
100
AcDbEntity
  8
0
100
AcDbLine
 10
4.991141732283464
 20
5.933070866141732
 30
0.0
 11
4.972440944881889
 21
5.950787401574802
 31
0.0
  0
LINE
  5
3591
330
1E
100
AcDbEntity
  8
0
100
AcDbLine
 10
4.972440944881889
 20
5.950787401574802
 30
0.0
 11
4.955708661417323
 21
5.968503937007874
 31
0.0
  0
LINE
  5
3592
330
1E
100
AcDbEntity
  8
0
100
AcDbLine
 10
4.955708661417323
 20
5.968503937007874
 30
0.0
 11
4.941929133858267
 21
5.982283464566928
 31
0.0
  0
LINE
  5
3593
330
1E
100
AcDbEntity
  8
0
100
AcDbLine
 10
4.941929133858267
 20
5.982283464566928
 30
0.0
 11
4.932086614173228
 21
5.992125984251968
 31
0.0
  0
LINE
  5
3594
330
1E
100
AcDbEntity
  8
0
100
AcDbLine
 10
4.932086614173228
 20
5.992125984251968
 30
0.0
 11
4.929133858267716
 21
5.99507874015748
 31
0.0
  0
LINE
  5
3595
330
1E
100
AcDbEntity
  8
0
100
AcDbLine
 10
4.929133858267716
 20
5.99507874015748
 30
0.0
 11
4.942913385826771
 21
6.000984251968503
 31
0.0
  0
LINE
  5
3596
330
1E
100
AcDbEntity
  8
0
100
AcDbLine
 10
4.942913385826771
 20
6.000984251968503
 30
0.0
 11
4.95767716535433
 21
5.99507874015748
 31
0.0
  0
LINE
  5
3597
330
1E
100
AcDbEntity
  8
0
100
AcDbLine
 10
5.035433070866141
 20
5.888779527559054
 30
0.0
 11
5.041338582677165
 21
5.90255905511811
 31
0.0
  0
LINE
  5
3598
330
1E
100
AcDbEntity
  8
0
100
AcDbLine
 10
5.041338582677165
 20
5.90255905511811
 30
0.0
 11
5.035433070866141
 21
5.917322834645669
 31
0.0
  0
LINE
  5
3599
330
1E
100
AcDbEntity
  8
0
100
AcDbLine
 10
5.046259842519685
 20
5.877952755905512
 30
0.0
 11
5.038385826771653
 21
5.885826771653543
 31
0.0
  0
LINE
  5
359A
330
1E
100
AcDbEntity
  8
0
100
AcDbLine
 10
5.038385826771653
 20
5.885826771653543
 30
0.0
 11
5.035433070866141
 21
5.888779527559054
 31
0.0
  0
LINE
  5
359B
330
1E
100
AcDbEntity
  8
0
100
AcDbLine
 10
5.0
 20
5.881889763779527
 30
0.0
 11
4.997047244094487
 21
5.884842519685038
 31
0.0
  0
LINE
  5
359C
330
1E
100
AcDbEntity
  8
0
100
AcDbLine
 10
4.997047244094487
 20
5.884842519685038
 30
0.0
 11
4.988188976377952
 21
5.89271653543307
 31
0.0
  0
LINE
  5
359D
330
1E
100
AcDbEntity
  8
0
100
AcDbLine
 10
4.988188976377952
 20
5.89271653543307
 30
0.0
 11
4.975393700787401
 21
5.905511811023622
 31
0.0
  0
LINE
  5
359E
330
1E
100
AcDbEntity
  8
0
100
AcDbLine
 10
4.975393700787401
 20
5.905511811023622
 30
0.0
 11
4.960629921259842
 21
5.92027559055118
 31
0.0
  0
LINE
  5
359F
330
1E
100
AcDbEntity
  8
0
100
AcDbLine
 10
4.960629921259842
 20
5.92027559055118
 30
0.0
 11
4.945866141732283
 21
5.935039370078739
 31
0.0
  0
LINE
  5
35A0
330
1E
100
AcDbEntity
  8
0
100
AcDbLine
 10
4.945866141732283
 20
5.935039370078739
 30
0.0
 11
4.933070866141732
 21
5.947834645669291
 31
0.0
  0
LINE
  5
35A1
330
1E
100
AcDbEntity
  8
0
100
AcDbLine
 10
4.933070866141732
 20
5.947834645669291
 30
0.0
 11
4.9251968503937
 21
5.956692913385826
 31
0.0
  0
LINE
  5
35A2
330
1E
100
AcDbEntity
  8
0
100
AcDbLine
 10
4.9251968503937
 20
5.956692913385826
 30
0.0
 11
4.922244094488188
 21
5.959645669291338
 31
0.0
  0
LINE
  5
35A3
330
1E
100
AcDbEntity
  8
0
100
AcDbLine
 10
5.025590551181101
 20
5.856299212598425
 30
0.0
 11
5.011811023622047
 21
5.869094488188975
 31
0.0
  0
LINE
  5
35A4
330
1E
100
AcDbEntity
  8
0
100
AcDbLine
 10
5.011811023622047
 20
5.869094488188975
 30
0.0
 11
5.002952755905512
 21
5.878937007874015
 31
0.0
  0
LINE
  5
35A5
330
1E
100
AcDbEntity
  8
0
100
AcDbLine
 10
5.002952755905512
 20
5.878937007874015
 30
0.0
 11
5.0
 21
5.881889763779527
 31
0.0
  0
LINE
  5
35A6
330
1E
100
AcDbEntity
  8
0
100
AcDbLine
 10
5.035433070866141
 20
5.917322834645669
 30
0.0
 11
5.038385826771653
 21
5.914370078740157
 31
0.0
  0
LINE
  5
35A7
330
1E
100
AcDbEntity
  8
0
100
AcDbLine
 10
5.038385826771653
 20
5.914370078740157
 30
0.0
 11
5.047244094488188
 21
5.905511811023622
 31
0.0
  0
LINE
  5
35A8
330
1E
100
AcDbEntity
  8
0
100
AcDbLine
 10
5.047244094488188
 20
5.905511811023622
 30
0.0
 11
5.060039370078739
 21
5.89271653543307
 31
0.0
  0
LINE
  5
35A9
330
1E
100
AcDbEntity
  8
0
100
AcDbLine
 10
4.95767716535433
 20
5.99507874015748
 30
0.0
 11
4.960629921259842
 21
5.992125984251968
 31
0.0
  0
LINE
  5
35AA
330
1E
100
AcDbEntity
  8
0
100
AcDbLine
 10
4.960629921259842
 20
5.992125984251968
 30
0.0
 11
4.968503937007874
 21
5.983267716535433
 31
0.0
  0
LINE
  5
35AB
330
1E
100
AcDbEntity
  8
0
100
AcDbLine
 10
4.968503937007874
 20
5.983267716535433
 30
0.0
 11
4.981299212598425
 21
5.970472440944881
 31
0.0
  0
LINE
  5
35AC
330
1E
100
AcDbEntity
  8
0
100
AcDbLine
 10
4.981299212598425
 20
5.970472440944881
 30
0.0
 11
4.996062992125984
 21
5.955708661417323
 31
0.0
  0
LINE
  5
35AD
330
1E
100
AcDbEntity
  8
0
100
AcDbLine
 10
4.996062992125984
 20
5.955708661417323
 30
0.0
 11
5.010826771653543
 21
5.940944881889763
 31
0.0
  0
LINE
  5
35AE
330
1E
100
AcDbEntity
  8
0
100
AcDbLine
 10
5.010826771653543
 20
5.940944881889763
 30
0.0
 11
5.023622047244094
 21
5.928149606299212
 31
0.0
  0
LINE
  5
35AF
330
1E
100
AcDbEntity
  8
0
100
AcDbLine
 10
5.023622047244094
 20
5.928149606299212
 30
0.0
 11
5.032480314960629
 21
5.92027559055118
 31
0.0
  0
LINE
  5
35B0
330
1E
100
AcDbEntity
  8
0
100
AcDbLine
 10
5.032480314960629
 20
5.92027559055118
 30
0.0
 11
5.035433070866141
 21
5.917322834645669
 31
0.0
  0
LINE
  5
35B1
330
1E
100
AcDbEntity
  8
0
100
AcDbLine
 10
3.952755905511811
 20
5.544291338582676
 30
0.0
 11
3.946850393700787
 21
5.534448818897637
 31
0.0
  0
LINE
  5
35B2
330
1E
100
AcDbEntity
  8
0
100
AcDbLine
 10
3.946850393700787
 20
5.534448818897637
 30
0.0
 11
3.932086614173228
 21
5.529527559055117
 31
0.0
  0
LINE
  5
35B3
330
1E
100
AcDbEntity
  8
0
100
AcDbLine
 10
3.951771653543307
 20
5.598425196850393
 30
0.0
 11
3.945866141732283
 21
5.598425196850393
 31
0.0
  0
LINE
  5
35B4
330
1E
100
AcDbEntity
  8
0
100
AcDbLine
 10
3.945866141732283
 20
5.598425196850393
 30
0.0
 11
3.932086614173228
 21
5.598425196850393
 31
0.0
  0
LINE
  5
35B5
330
1E
100
AcDbEntity
  8
0
100
AcDbLine
 10
2.432086614173228
 20
5.529527559055117
 30
0.0
 11
2.417322834645669
 21
5.534448818897637
 31
0.0
  0
LINE
  5
35B6
330
1E
100
AcDbEntity
  8
0
100
AcDbLine
 10
2.417322834645669
 20
5.534448818897637
 30
0.0
 11
2.411417322834645
 21
5.544291338582676
 31
0.0
  0
LINE
  5
35B7
330
1E
100
AcDbEntity
  8
0
100
AcDbLine
 10
2.432086614173228
 20
5.598425196850393
 30
0.0
 11
2.418307086614173
 21
5.598425196850393
 31
0.0
  0
LINE
  5
35B8
330
1E
100
AcDbEntity
  8
0
100
AcDbLine
 10
2.418307086614173
 20
5.598425196850393
 30
0.0
 11
2.412401574803149
 21
5.598425196850393
 31
0.0
  0
LINE
  5
35B9
330
1E
100
AcDbEntity
  8
0
100
AcDbLine
 10
3.932086614173228
 20
5.668307086614173
 30
0.0
 11
3.940944881889763
 21
5.677165354330708
 31
0.0
  0
LINE
  5
35BA
330
1E
100
AcDbEntity
  8
0
100
AcDbLine
 10
3.940944881889763
 20
5.677165354330708
 30
0.0
 11
3.947834645669291
 21
5.687007874015748
 31
0.0
  0
LINE
  5
35BB
330
1E
100
AcDbEntity
  8
0
100
AcDbLine
 10
3.947834645669291
 20
5.687007874015748
 30
0.0
 11
3.951771653543307
 21
5.696850393700787
 31
0.0
  0
LINE
  5
35BC
330
1E
100
AcDbEntity
  8
0
100
AcDbLine
 10
3.951771653543307
 20
5.696850393700787
 30
0.0
 11
3.951771653543307
 21
5.699803149606299
 31
0.0
  0
LINE
  5
35BD
330
1E
100
AcDbEntity
  8
0
100
AcDbLine
 10
2.412401574803149
 20
5.699803149606299
 30
0.0
 11
2.412401574803149
 21
5.696850393700787
 31
0.0
  0
LINE
  5
35BE
330
1E
100
AcDbEntity
  8
0
100
AcDbLine
 10
2.412401574803149
 20
5.696850393700787
 30
0.0
 11
2.416338582677165
 21
5.687007874015748
 31
0.0
  0
LINE
  5
35BF
330
1E
100
AcDbEntity
  8
0
100
AcDbLine
 10
2.416338582677165
 20
5.687007874015748
 30
0.0
 11
2.423228346456693
 21
5.677165354330708
 31
0.0
  0
LINE
  5
35C0
330
1E
100
AcDbEntity
  8
0
100
AcDbLine
 10
2.423228346456693
 20
5.677165354330708
 30
0.0
 11
2.432086614173228
 21
5.668307086614173
 31
0.0
  0
LINE
  5
35C1
330
1E
100
AcDbEntity
  8
0
100
AcDbLine
 10
3.894685039370078
 20
6.143700787401574
 30
0.0
 11
3.916338582677165
 21
6.138779527559054
 31
0.0
  0
LINE
  5
35C2
330
1E
100
AcDbEntity
  8
0
100
AcDbLine
 10
3.916338582677165
 20
6.138779527559054
 30
0.0
 11
3.933070866141732
 21
6.126968503937007
 31
0.0
  0
LINE
  5
35C3
330
1E
100
AcDbEntity
  8
0
100
AcDbLine
 10
3.933070866141732
 20
6.126968503937007
 30
0.0
 11
3.939960629921259
 21
6.111220472440944
 31
0.0
  0
LINE
  5
35C4
330
1E
100
AcDbEntity
  8
0
100
AcDbLine
 10
3.894685039370078
 20
6.011811023622047
 30
0.0
 11
3.916338582677165
 21
6.016732283464566
 31
0.0
  0
LINE
  5
35C5
330
1E
100
AcDbEntity
  8
0
100
AcDbLine
 10
3.916338582677165
 20
6.016732283464566
 30
0.0
 11
3.933070866141732
 21
6.028543307086613
 31
0.0
  0
LINE
  5
35C6
330
1E
100
AcDbEntity
  8
0
100
AcDbLine
 10
3.933070866141732
 20
6.028543307086613
 30
0.0
 11
3.939960629921259
 21
6.044291338582676
 31
0.0
  0
LINE
  5
35C7
330
1E
100
AcDbEntity
  8
0
100
AcDbLine
 10
2.469488188976377
 20
6.011811023622047
 30
0.0
 11
2.446850393700787
 21
6.016732283464566
 31
0.0
  0
LINE
  5
35C8
330
1E
100
AcDbEntity
  8
0
100
AcDbLine
 10
2.446850393700787
 20
6.016732283464566
 30
0.0
 11
2.431102362204724
 21
6.028543307086613
 31
0.0
  0
LINE
  5
35C9
330
1E
100
AcDbEntity
  8
0
100
AcDbLine
 10
2.431102362204724
 20
6.028543307086613
 30
0.0
 11
2.424212598425196
 21
6.044291338582676
 31
0.0
  0
LINE
  5
35CA
330
1E
100
AcDbEntity
  8
0
100
AcDbLine
 10
2.469488188976377
 20
6.143700787401574
 30
0.0
 11
2.446850393700787
 21
6.138779527559054
 31
0.0
  0
LINE
  5
35CB
330
1E
100
AcDbEntity
  8
0
100
AcDbLine
 10
2.446850393700787
 20
6.138779527559054
 30
0.0
 11
2.431102362204724
 21
6.126968503937007
 31
0.0
  0
LINE
  5
35CC
330
1E
100
AcDbEntity
  8
0
100
AcDbLine
 10
2.431102362204724
 20
6.126968503937007
 30
0.0
 11
2.424212598425196
 21
6.111220472440944
 31
0.0
  0
LINE
  5
35CD
330
1E
100
AcDbEntity
  8
0
100
AcDbLine
 10
3.856299212598425
 20
5.661417322834645
 30
0.0
 11
3.86023622047244
 21
5.658464566929133
 31
0.0
  0
LINE
  5
35CE
330
1E
100
AcDbEntity
  8
0
100
AcDbLine
 10
3.86023622047244
 20
5.658464566929133
 30
0.0
 11
3.867125984251968
 21
5.657480314960629
 31
0.0
  0
LINE
  5
35CF
330
1E
100
AcDbEntity
  8
0
100
AcDbLine
 10
3.859251968503937
 20
5.598425196850393
 30
0.0
 11
3.862204724409448
 21
5.598425196850393
 31
0.0
  0
LINE
  5
35D0
330
1E
100
AcDbEntity
  8
0
100
AcDbLine
 10
3.862204724409448
 20
5.598425196850393
 30
0.0
 11
3.869094488188976
 21
5.598425196850393
 31
0.0
  0
LINE
  5
35D1
330
1E
100
AcDbEntity
  8
0
100
AcDbLine
 10
3.86023622047244
 20
5.536417322834645
 30
0.0
 11
3.863188976377952
 21
5.531496062992125
 31
0.0
  0
LINE
  5
35D2
330
1E
100
AcDbEntity
  8
0
100
AcDbLine
 10
3.863188976377952
 20
5.531496062992125
 30
0.0
 11
3.87007874015748
 21
5.529527559055117
 31
0.0
  0
LINE
  5
35D3
330
1E
100
AcDbEntity
  8
0
100
AcDbLine
 10
3.86023622047244
 20
5.440944881889763
 30
0.0
 11
3.864173228346456
 21
5.434055118110236
 31
0.0
  0
LINE
  5
35D4
330
1E
100
AcDbEntity
  8
0
100
AcDbLine
 10
3.864173228346456
 20
5.434055118110236
 30
0.0
 11
3.871062992125984
 21
5.432086614173228
 31
0.0
  0
LINE
  5
35D5
330
1E
100
AcDbEntity
  8
0
100
AcDbLine
 10
2.497047244094487
 20
5.657480314960629
 30
0.0
 11
2.503937007874015
 21
5.658464566929133
 31
0.0
  0
LINE
  5
35D6
330
1E
100
AcDbEntity
  8
0
100
AcDbLine
 10
2.503937007874015
 20
5.658464566929133
 30
0.0
 11
2.507874015748031
 21
5.661417322834645
 31
0.0
  0
LINE
  5
35D7
330
1E
100
AcDbEntity
  8
0
100
AcDbLine
 10
2.49507874015748
 20
5.598425196850393
 30
0.0
 11
2.501968503937007
 21
5.598425196850393
 31
0.0
  0
LINE
  5
35D8
330
1E
100
AcDbEntity
  8
0
100
AcDbLine
 10
2.501968503937007
 20
5.598425196850393
 30
0.0
 11
2.504921259842519
 21
5.598425196850393
 31
0.0
  0
LINE
  5
35D9
330
1E
100
AcDbEntity
  8
0
100
AcDbLine
 10
2.494094488188976
 20
5.529527559055117
 30
0.0
 11
2.500984251968503
 21
5.531496062992125
 31
0.0
  0
LINE
  5
35DA
330
1E
100
AcDbEntity
  8
0
100
AcDbLine
 10
2.500984251968503
 20
5.531496062992125
 30
0.0
 11
2.503937007874015
 21
5.536417322834645
 31
0.0
  0
LINE
  5
35DB
330
1E
100
AcDbEntity
  8
0
100
AcDbLine
 10
2.493110236220472
 20
5.432086614173228
 30
0.0
 11
2.5
 21
5.434055118110236
 31
0.0
  0
LINE
  5
35DC
330
1E
100
AcDbEntity
  8
0
100
AcDbLine
 10
2.5
 20
5.434055118110236
 30
0.0
 11
2.503937007874015
 21
5.440944881889763
 31
0.0
  0
LINE
  5
35DD
330
1E
100
AcDbEntity
  8
0
100
AcDbLine
 10
3.894685039370078
 20
6.011811023622047
 30
0.0
 11
3.894685039370078
 21
6.035433070866141
 31
0.0
  0
LINE
  5
35DE
330
1E
100
AcDbEntity
  8
0
100
AcDbLine
 10
3.894685039370078
 20
6.035433070866141
 30
0.0
 11
3.893700787401574
 21
6.062992125984251
 31
0.0
  0
LINE
  5
35DF
330
1E
100
AcDbEntity
  8
0
100
AcDbLine
 10
3.893700787401574
 20
6.062992125984251
 30
0.0
 11
3.893700787401574
 21
6.09251968503937
 31
0.0
  0
LINE
  5
35E0
330
1E
100
AcDbEntity
  8
0
100
AcDbLine
 10
3.893700787401574
 20
6.09251968503937
 30
0.0
 11
3.894685039370078
 21
6.12007874015748
 31
0.0
  0
LINE
  5
35E1
330
1E
100
AcDbEntity
  8
0
100
AcDbLine
 10
3.894685039370078
 20
6.12007874015748
 30
0.0
 11
3.894685039370078
 21
6.143700787401574
 31
0.0
  0
LINE
  5
35E2
330
1E
100
AcDbEntity
  8
0
100
AcDbLine
 10
2.469488188976377
 20
6.143700787401574
 30
0.0
 11
2.469488188976377
 21
6.12007874015748
 31
0.0
  0
LINE
  5
35E3
330
1E
100
AcDbEntity
  8
0
100
AcDbLine
 10
2.469488188976377
 20
6.12007874015748
 30
0.0
 11
2.469488188976377
 21
6.09251968503937
 31
0.0
  0
LINE
  5
35E4
330
1E
100
AcDbEntity
  8
0
100
AcDbLine
 10
2.469488188976377
 20
6.09251968503937
 30
0.0
 11
2.469488188976377
 21
6.062992125984251
 31
0.0
  0
LINE
  5
35E5
330
1E
100
AcDbEntity
  8
0
100
AcDbLine
 10
2.469488188976377
 20
6.062992125984251
 30
0.0
 11
2.469488188976377
 21
6.035433070866141
 31
0.0
  0
LINE
  5
35E6
330
1E
100
AcDbEntity
  8
0
100
AcDbLine
 10
2.469488188976377
 20
6.035433070866141
 30
0.0
 11
2.469488188976377
 21
6.011811023622047
 31
0.0
  0
LINE
  5
35E7
330
1E
100
AcDbEntity
  8
0
100
AcDbLine
 10
2.498031496062992
 20
5.854330708661417
 30
0.0
 11
2.504921259842519
 21
5.856299212598425
 31
0.0
  0
LINE
  5
35E8
330
1E
100
AcDbEntity
  8
0
100
AcDbLine
 10
2.504921259842519
 20
5.856299212598425
 30
0.0
 11
2.507874015748031
 21
5.861220472440944
 31
0.0
  0
LINE
  5
35E9
330
1E
100
AcDbEntity
  8
0
100
AcDbLine
 10
2.421259842519685
 20
5.876968503937007
 30
0.0
 11
2.43011811023622
 21
5.86515748031496
 31
0.0
  0
LINE
  5
35EA
330
1E
100
AcDbEntity
  8
0
100
AcDbLine
 10
2.43011811023622
 20
5.86515748031496
 30
0.0
 11
2.445866141732283
 21
5.857283464566928
 31
0.0
  0
LINE
  5
35EB
330
1E
100
AcDbEntity
  8
0
100
AcDbLine
 10
2.445866141732283
 20
5.857283464566928
 30
0.0
 11
2.463582677165354
 21
5.854330708661417
 31
0.0
  0
LINE
  5
35EC
330
1E
100
AcDbEntity
  8
0
100
AcDbLine
 10
2.504921259842519
 20
5.598425196850393
 30
0.0
 11
2.503937007874015
 21
5.575787401574802
 31
0.0
  0
LINE
  5
35ED
330
1E
100
AcDbEntity
  8
0
100
AcDbLine
 10
2.503937007874015
 20
5.575787401574802
 30
0.0
 11
2.503937007874015
 21
5.55511811023622
 31
0.0
  0
LINE
  5
35EE
330
1E
100
AcDbEntity
  8
0
100
AcDbLine
 10
2.503937007874015
 20
5.55511811023622
 30
0.0
 11
2.503937007874015
 21
5.536417322834645
 31
0.0
  0
LINE
  5
35EF
330
1E
100
AcDbEntity
  8
0
100
AcDbLine
 10
2.428149606299212
 20
5.432086614173228
 30
0.0
 11
2.418307086614173
 21
5.431102362204724
 31
0.0
  0
LINE
  5
35F0
330
1E
100
AcDbEntity
  8
0
100
AcDbLine
 10
2.418307086614173
 20
5.431102362204724
 30
0.0
 11
2.410433070866141
 21
5.431102362204724
 31
0.0
  0
LINE
  5
35F1
330
1E
100
AcDbEntity
  8
0
100
AcDbLine
 10
2.410433070866141
 20
5.431102362204724
 30
0.0
 11
2.40748031496063
 21
5.431102362204724
 31
0.0
  0
LINE
  5
35F2
330
1E
100
AcDbEntity
  8
0
100
AcDbLine
 10
2.456692913385826
 20
5.657480314960629
 30
0.0
 11
2.443897637795275
 21
5.660433070866141
 31
0.0
  0
LINE
  5
35F3
330
1E
100
AcDbEntity
  8
0
100
AcDbLine
 10
2.443897637795275
 20
5.660433070866141
 30
0.0
 11
2.432086614173228
 21
5.668307086614173
 31
0.0
  0
LINE
  5
35F4
330
1E
100
AcDbEntity
  8
0
100
AcDbLine
 10
2.494094488188976
 20
5.529527559055117
 30
0.0
 11
2.494094488188976
 21
5.5501968503937
 31
0.0
  0
LINE
  5
35F5
330
1E
100
AcDbEntity
  8
0
100
AcDbLine
 10
2.494094488188976
 20
5.5501968503937
 30
0.0
 11
2.494094488188976
 21
5.573818897637795
 31
0.0
  0
LINE
  5
35F6
330
1E
100
AcDbEntity
  8
0
100
AcDbLine
 10
2.494094488188976
 20
5.573818897637795
 30
0.0
 11
2.49507874015748
 21
5.598425196850393
 31
0.0
  0
LINE
  5
35F7
330
1E
100
AcDbEntity
  8
0
100
AcDbLine
 10
2.432086614173228
 20
5.598425196850393
 30
0.0
 11
2.432086614173228
 21
5.573818897637795
 31
0.0
  0
LINE
  5
35F8
330
1E
100
AcDbEntity
  8
0
100
AcDbLine
 10
2.432086614173228
 20
5.573818897637795
 30
0.0
 11
2.432086614173228
 21
5.5501968503937
 31
0.0
  0
LINE
  5
35F9
330
1E
100
AcDbEntity
  8
0
100
AcDbLine
 10
2.432086614173228
 20
5.5501968503937
 30
0.0
 11
2.432086614173228
 21
5.529527559055117
 31
0.0
  0
LINE
  5
35FA
330
1E
100
AcDbEntity
  8
0
100
AcDbLine
 10
3.856299212598425
 20
5.861220472440944
 30
0.0
 11
3.859251968503937
 21
5.856299212598425
 31
0.0
  0
LINE
  5
35FB
330
1E
100
AcDbEntity
  8
0
100
AcDbLine
 10
3.859251968503937
 20
5.856299212598425
 30
0.0
 11
3.866141732283464
 21
5.854330708661417
 31
0.0
  0
LINE
  5
35FC
330
1E
100
AcDbEntity
  8
0
100
AcDbLine
 10
3.900590551181102
 20
5.854330708661417
 30
0.0
 11
3.918307086614173
 21
5.857283464566928
 31
0.0
  0
LINE
  5
35FD
330
1E
100
AcDbEntity
  8
0
100
AcDbLine
 10
3.918307086614173
 20
5.857283464566928
 30
0.0
 11
3.934055118110236
 21
5.86515748031496
 31
0.0
  0
LINE
  5
35FE
330
1E
100
AcDbEntity
  8
0
100
AcDbLine
 10
3.934055118110236
 20
5.86515748031496
 30
0.0
 11
3.942913385826771
 21
5.876968503937007
 31
0.0
  0
LINE
  5
35FF
330
1E
100
AcDbEntity
  8
0
100
AcDbLine
 10
3.86023622047244
 20
5.536417322834645
 30
0.0
 11
3.86023622047244
 21
5.55511811023622
 31
0.0
  0
LINE
  5
3600
330
1E
100
AcDbEntity
  8
0
100
AcDbLine
 10
3.86023622047244
 20
5.55511811023622
 30
0.0
 11
3.859251968503937
 21
5.575787401574802
 31
0.0
  0
LINE
  5
3601
330
1E
100
AcDbEntity
  8
0
100
AcDbLine
 10
3.859251968503937
 20
5.575787401574802
 30
0.0
 11
3.859251968503937
 21
5.598425196850393
 31
0.0
  0
LINE
  5
3602
330
1E
100
AcDbEntity
  8
0
100
AcDbLine
 10
3.956692913385826
 20
5.431102362204724
 30
0.0
 11
3.953740157480314
 21
5.431102362204724
 31
0.0
  0
LINE
  5
3603
330
1E
100
AcDbEntity
  8
0
100
AcDbLine
 10
3.953740157480314
 20
5.431102362204724
 30
0.0
 11
3.945866141732283
 21
5.431102362204724
 31
0.0
  0
LINE
  5
3604
330
1E
100
AcDbEntity
  8
0
100
AcDbLine
 10
3.945866141732283
 20
5.431102362204724
 30
0.0
 11
3.936023622047244
 21
5.432086614173228
 31
0.0
  0
LINE
  5
3605
330
1E
100
AcDbEntity
  8
0
100
AcDbLine
 10
3.932086614173228
 20
5.668307086614173
 30
0.0
 11
3.920275590551181
 21
5.660433070866141
 31
0.0
  0
LINE
  5
3606
330
1E
100
AcDbEntity
  8
0
100
AcDbLine
 10
3.920275590551181
 20
5.660433070866141
 30
0.0
 11
3.907480314960629
 21
5.657480314960629
 31
0.0
  0
LINE
  5
3607
330
1E
100
AcDbEntity
  8
0
100
AcDbLine
 10
3.869094488188976
 20
5.598425196850393
 30
0.0
 11
3.87007874015748
 21
5.573818897637795
 31
0.0
  0
LINE
  5
3608
330
1E
100
AcDbEntity
  8
0
100
AcDbLine
 10
3.87007874015748
 20
5.573818897637795
 30
0.0
 11
3.87007874015748
 21
5.5501968503937
 31
0.0
  0
LINE
  5
3609
330
1E
100
AcDbEntity
  8
0
100
AcDbLine
 10
3.87007874015748
 20
5.5501968503937
 30
0.0
 11
3.87007874015748
 21
5.529527559055117
 31
0.0
  0
LINE
  5
360A
330
1E
100
AcDbEntity
  8
0
100
AcDbLine
 10
3.932086614173228
 20
5.529527559055117
 30
0.0
 11
3.932086614173228
 21
5.5501968503937
 31
0.0
  0
LINE
  5
360B
330
1E
100
AcDbEntity
  8
0
100
AcDbLine
 10
3.932086614173228
 20
5.5501968503937
 30
0.0
 11
3.932086614173228
 21
5.573818897637795
 31
0.0
  0
LINE
  5
360C
330
1E
100
AcDbEntity
  8
0
100
AcDbLine
 10
3.932086614173228
 20
5.573818897637795
 30
0.0
 11
3.932086614173228
 21
5.598425196850393
 31
0.0
  0
LINE
  5
360D
330
1E
100
AcDbEntity
  8
0
100
AcDbLine
 10
3.869094488188976
 20
5.43011811023622
 30
0.0
 11
3.862204724409448
 21
5.433070866141732
 31
0.0
  0
LINE
  5
360E
330
1E
100
AcDbEntity
  8
0
100
AcDbLine
 10
3.862204724409448
 20
5.433070866141732
 30
0.0
 11
3.859251968503937
 21
5.43996062992126
 31
0.0
  0
LINE
  5
360F
330
1E
100
AcDbEntity
  8
0
100
AcDbLine
 10
2.504921259842519
 20
5.43996062992126
 30
0.0
 11
2.501968503937007
 21
5.433070866141732
 31
0.0
  0
LINE
  5
3610
330
1E
100
AcDbEntity
  8
0
100
AcDbLine
 10
2.501968503937007
 20
5.433070866141732
 30
0.0
 11
2.49507874015748
 21
5.43011811023622
 31
0.0
  0
LINE
  5
3611
330
1E
100
AcDbEntity
  8
0
100
AcDbLine
 10
3.940944881889763
 20
6.004921259842519
 30
0.0
 11
3.937007874015748
 21
6.006889763779527
 31
0.0
  0
LINE
  5
3612
330
1E
100
AcDbEntity
  8
0
100
AcDbLine
 10
3.937007874015748
 20
6.006889763779527
 30
0.0
 11
3.926181102362204
 21
6.007874015748031
 31
0.0
  0
LINE
  5
3613
330
1E
100
AcDbEntity
  8
0
100
AcDbLine
 10
3.926181102362204
 20
6.007874015748031
 30
0.0
 11
3.911417322834645
 21
6.008858267716535
 31
0.0
  0
LINE
  5
3614
330
1E
100
AcDbEntity
  8
0
100
AcDbLine
 10
3.911417322834645
 20
6.008858267716535
 30
0.0
 11
3.894685039370078
 21
6.008858267716535
 31
0.0
  0
LINE
  5
3615
330
1E
100
AcDbEntity
  8
0
100
AcDbLine
 10
2.469488188976377
 20
6.008858267716535
 30
0.0
 11
2.452755905511811
 21
6.008858267716535
 31
0.0
  0
LINE
  5
3616
330
1E
100
AcDbEntity
  8
0
100
AcDbLine
 10
2.452755905511811
 20
6.008858267716535
 30
0.0
 11
2.437992125984251
 21
6.007874015748031
 31
0.0
  0
LINE
  5
3617
330
1E
100
AcDbEntity
  8
0
100
AcDbLine
 10
2.437992125984251
 20
6.007874015748031
 30
0.0
 11
2.427165354330708
 21
6.006889763779527
 31
0.0
  0
LINE
  5
3618
330
1E
100
AcDbEntity
  8
0
100
AcDbLine
 10
2.427165354330708
 20
6.006889763779527
 30
0.0
 11
2.423228346456693
 21
6.004921259842519
 31
0.0
  0
LINE
  5
3619
330
1E
100
AcDbEntity
  8
0
100
AcDbLine
 10
3.094488188976377
 20
5.614173228346456
 30
0.0
 11
3.094488188976377
 21
5.589566929133858
 31
0.0
  0
LINE
  5
361A
330
1E
100
AcDbEntity
  8
0
100
AcDbLine
 10
3.094488188976377
 20
5.589566929133858
 30
0.0
 11
3.094488188976377
 21
5.566929133858267
 31
0.0
  0
LINE
  5
361B
330
1E
100
AcDbEntity
  8
0
100
AcDbLine
 10
3.094488188976377
 20
5.566929133858267
 30
0.0
 11
3.094488188976377
 21
5.557086614173228
 31
0.0
  0
LINE
  5
361C
330
1E
100
AcDbEntity
  8
0
100
AcDbLine
 10
3.094488188976377
 20
5.557086614173228
 30
0.0
 11
3.094488188976377
 21
5.553149606299212
 31
0.0
  0
LINE
  5
361D
330
1E
100
AcDbEntity
  8
0
100
AcDbLine
 10
3.033464566929133
 20
5.556102362204724
 30
0.0
 11
3.033464566929133
 21
5.549212598425197
 31
0.0
  0
LINE
  5
361E
330
1E
100
AcDbEntity
  8
0
100
AcDbLine
 10
3.033464566929133
 20
5.549212598425197
 30
0.0
 11
3.033464566929133
 21
5.542322834645669
 31
0.0
  0
LINE
  5
361F
330
1E
100
AcDbEntity
  8
0
100
AcDbLine
 10
3.330708661417322
 20
5.542322834645669
 30
0.0
 11
3.330708661417322
 21
5.549212598425197
 31
0.0
  0
LINE
  5
3620
330
1E
100
AcDbEntity
  8
0
100
AcDbLine
 10
3.330708661417322
 20
5.549212598425197
 30
0.0
 11
3.330708661417322
 21
5.556102362204724
 31
0.0
  0
LINE
  5
3621
330
1E
100
AcDbEntity
  8
0
100
AcDbLine
 10
3.269685039370078
 20
5.566929133858267
 30
0.0
 11
3.269685039370078
 21
5.557086614173228
 31
0.0
  0
LINE
  5
3622
330
1E
100
AcDbEntity
  8
0
100
AcDbLine
 10
3.269685039370078
 20
5.557086614173228
 30
0.0
 11
3.269685039370078
 21
5.553149606299212
 31
0.0
  0
LINE
  5
3623
330
1E
100
AcDbEntity
  8
0
100
AcDbLine
 10
3.269685039370078
 20
5.614173228346456
 30
0.0
 11
3.269685039370078
 21
5.588582677165354
 31
0.0
  0
LINE
  5
3624
330
1E
100
AcDbEntity
  8
0
100
AcDbLine
 10
3.269685039370078
 20
5.588582677165354
 30
0.0
 11
3.269685039370078
 21
5.566929133858267
 31
0.0
  0
LINE
  5
3625
330
1E
100
AcDbEntity
  8
0
100
AcDbLine
 10
3.939960629921259
 20
6.111220472440944
 30
0.0
 11
3.938976377952755
 21
6.096456692913386
 31
0.0
  0
LINE
  5
3626
330
1E
100
AcDbEntity
  8
0
100
AcDbLine
 10
3.938976377952755
 20
6.096456692913386
 30
0.0
 11
3.938976377952755
 21
6.077755905511811
 31
0.0
  0
LINE
  5
3627
330
1E
100
AcDbEntity
  8
0
100
AcDbLine
 10
3.938976377952755
 20
6.077755905511811
 30
0.0
 11
3.938976377952755
 21
6.059055118110236
 31
0.0
  0
LINE
  5
3628
330
1E
100
AcDbEntity
  8
0
100
AcDbLine
 10
3.938976377952755
 20
6.059055118110236
 30
0.0
 11
3.939960629921259
 21
6.044291338582676
 31
0.0
  0
LINE
  5
3629
330
1E
100
AcDbEntity
  8
0
100
AcDbLine
 10
3.951771653543307
 20
5.598425196850393
 30
0.0
 11
3.951771653543307
 21
5.568897637795275
 31
0.0
  0
LINE
  5
362A
330
1E
100
AcDbEntity
  8
0
100
AcDbLine
 10
3.951771653543307
 20
5.568897637795275
 30
0.0
 11
3.952755905511811
 21
5.544291338582676
 31
0.0
  0
LINE
  5
362B
330
1E
100
AcDbEntity
  8
0
100
AcDbLine
 10
3.858267716535432
 20
5.531496062992125
 30
0.0
 11
3.859251968503937
 21
5.535433070866141
 31
0.0
  0
LINE
  5
362C
330
1E
100
AcDbEntity
  8
0
100
AcDbLine
 10
3.859251968503937
 20
5.535433070866141
 30
0.0
 11
3.859251968503937
 21
5.547244094488188
 31
0.0
  0
LINE
  5
362D
330
1E
100
AcDbEntity
  8
0
100
AcDbLine
 10
3.859251968503937
 20
5.547244094488188
 30
0.0
 11
3.859251968503937
 21
5.56496062992126
 31
0.0
  0
LINE
  5
362E
330
1E
100
AcDbEntity
  8
0
100
AcDbLine
 10
3.859251968503937
 20
5.56496062992126
 30
0.0
 11
3.858267716535432
 21
5.58759842519685
 31
0.0
  0
LINE
  5
362F
330
1E
100
AcDbEntity
  8
0
100
AcDbLine
 10
3.858267716535432
 20
5.58759842519685
 30
0.0
 11
3.858267716535432
 21
5.61023622047244
 31
0.0
  0
LINE
  5
3630
330
1E
100
AcDbEntity
  8
0
100
AcDbLine
 10
3.858267716535432
 20
5.61023622047244
 30
0.0
 11
3.856299212598425
 21
5.631889763779527
 31
0.0
  0
LINE
  5
3631
330
1E
100
AcDbEntity
  8
0
100
AcDbLine
 10
3.856299212598425
 20
5.631889763779527
 30
0.0
 11
3.855314960629921
 21
5.649606299212598
 31
0.0
  0
LINE
  5
3632
330
1E
100
AcDbEntity
  8
0
100
AcDbLine
 10
3.855314960629921
 20
5.649606299212598
 30
0.0
 11
3.854330708661417
 21
5.661417322834645
 31
0.0
  0
LINE
  5
3633
330
1E
100
AcDbEntity
  8
0
100
AcDbLine
 10
3.853346456692913
 20
5.638779527559054
 30
0.0
 11
3.853346456692913
 21
5.65255905511811
 31
0.0
  0
LINE
  5
3634
330
1E
100
AcDbEntity
  8
0
100
AcDbLine
 10
3.853346456692913
 20
5.65255905511811
 30
0.0
 11
3.853346456692913
 21
5.659448818897637
 31
0.0
  0
LINE
  5
3635
330
1E
100
AcDbEntity
  8
0
100
AcDbLine
 10
2.505905511811023
 20
5.531496062992125
 30
0.0
 11
2.504921259842519
 21
5.535433070866141
 31
0.0
  0
LINE
  5
3636
330
1E
100
AcDbEntity
  8
0
100
AcDbLine
 10
2.504921259842519
 20
5.535433070866141
 30
0.0
 11
2.504921259842519
 21
5.547244094488188
 31
0.0
  0
LINE
  5
3637
330
1E
100
AcDbEntity
  8
0
100
AcDbLine
 10
2.504921259842519
 20
5.547244094488188
 30
0.0
 11
2.504921259842519
 21
5.56496062992126
 31
0.0
  0
LINE
  5
3638
330
1E
100
AcDbEntity
  8
0
100
AcDbLine
 10
2.504921259842519
 20
5.56496062992126
 30
0.0
 11
2.505905511811023
 21
5.58759842519685
 31
0.0
  0
LINE
  5
3639
330
1E
100
AcDbEntity
  8
0
100
AcDbLine
 10
2.505905511811023
 20
5.58759842519685
 30
0.0
 11
2.505905511811023
 21
5.61023622047244
 31
0.0
  0
LINE
  5
363A
330
1E
100
AcDbEntity
  8
0
100
AcDbLine
 10
2.505905511811023
 20
5.61023622047244
 30
0.0
 11
2.507874015748031
 21
5.631889763779527
 31
0.0
  0
LINE
  5
363B
330
1E
100
AcDbEntity
  8
0
100
AcDbLine
 10
2.507874015748031
 20
5.631889763779527
 30
0.0
 11
2.508858267716535
 21
5.649606299212598
 31
0.0
  0
LINE
  5
363C
330
1E
100
AcDbEntity
  8
0
100
AcDbLine
 10
2.508858267716535
 20
5.649606299212598
 30
0.0
 11
2.509842519685039
 21
5.661417322834645
 31
0.0
  0
LINE
  5
363D
330
1E
100
AcDbEntity
  8
0
100
AcDbLine
 10
2.510826771653543
 20
5.638779527559054
 30
0.0
 11
2.510826771653543
 21
5.65255905511811
 31
0.0
  0
LINE
  5
363E
330
1E
100
AcDbEntity
  8
0
100
AcDbLine
 10
2.510826771653543
 20
5.65255905511811
 30
0.0
 11
2.510826771653543
 21
5.659448818897637
 31
0.0
  0
LINE
  5
363F
330
1E
100
AcDbEntity
  8
0
100
AcDbLine
 10
2.424212598425196
 20
6.044291338582676
 30
0.0
 11
2.4251968503937
 21
6.059055118110236
 31
0.0
  0
LINE
  5
3640
330
1E
100
AcDbEntity
  8
0
100
AcDbLine
 10
2.4251968503937
 20
6.059055118110236
 30
0.0
 11
2.4251968503937
 21
6.077755905511811
 31
0.0
  0
LINE
  5
3641
330
1E
100
AcDbEntity
  8
0
100
AcDbLine
 10
2.4251968503937
 20
6.077755905511811
 30
0.0
 11
2.4251968503937
 21
6.096456692913386
 31
0.0
  0
LINE
  5
3642
330
1E
100
AcDbEntity
  8
0
100
AcDbLine
 10
2.4251968503937
 20
6.096456692913386
 30
0.0
 11
2.424212598425196
 21
6.111220472440944
 31
0.0
  0
LINE
  5
3643
330
1E
100
AcDbEntity
  8
0
100
AcDbLine
 10
2.411417322834645
 20
5.544291338582676
 30
0.0
 11
2.412401574803149
 21
5.568897637795275
 31
0.0
  0
LINE
  5
3644
330
1E
100
AcDbEntity
  8
0
100
AcDbLine
 10
2.412401574803149
 20
5.568897637795275
 30
0.0
 11
2.412401574803149
 21
5.598425196850393
 31
0.0
  0
LINE
  5
3645
330
1E
100
AcDbEntity
  8
0
100
AcDbLine
 10
3.912401574803149
 20
6.664370078740157
 30
0.0
 11
3.93011811023622
 21
6.659448818897637
 31
0.0
  0
LINE
  5
3646
330
1E
100
AcDbEntity
  8
0
100
AcDbLine
 10
3.93011811023622
 20
6.659448818897637
 30
0.0
 11
3.943897637795275
 21
6.646653543307086
 31
0.0
  0
LINE
  5
3647
330
1E
100
AcDbEntity
  8
0
100
AcDbLine
 10
3.943897637795275
 20
6.646653543307086
 30
0.0
 11
3.953740157480314
 21
6.625984251968503
 31
0.0
  0
LINE
  5
3648
330
1E
100
AcDbEntity
  8
0
100
AcDbLine
 10
3.953740157480314
 20
6.625984251968503
 30
0.0
 11
3.956692913385826
 21
6.602362204724409
 31
0.0
  0
LINE
  5
3649
330
1E
100
AcDbEntity
  8
0
100
AcDbLine
 10
2.40748031496063
 20
6.602362204724409
 30
0.0
 11
2.410433070866141
 21
6.625984251968503
 31
0.0
  0
LINE
  5
364A
330
1E
100
AcDbEntity
  8
0
100
AcDbLine
 10
2.410433070866141
 20
6.625984251968503
 30
0.0
 11
2.420275590551181
 21
6.646653543307086
 31
0.0
  0
LINE
  5
364B
330
1E
100
AcDbEntity
  8
0
100
AcDbLine
 10
2.420275590551181
 20
6.646653543307086
 30
0.0
 11
2.434055118110236
 21
6.659448818897637
 31
0.0
  0
LINE
  5
364C
330
1E
100
AcDbEntity
  8
0
100
AcDbLine
 10
2.434055118110236
 20
6.659448818897637
 30
0.0
 11
2.451771653543306
 21
6.664370078740157
 31
0.0
  0
LINE
  5
364D
330
1E
100
AcDbEntity
  8
0
100
AcDbLine
 10
2.437992125984251
 20
5.99507874015748
 30
0.0
 11
2.408464566929133
 21
5.991141732283464
 31
0.0
  0
LINE
  5
364E
330
1E
100
AcDbEntity
  8
0
100
AcDbLine
 10
2.408464566929133
 20
5.991141732283464
 30
0.0
 11
2.384842519685039
 21
5.979330708661417
 31
0.0
  0
LINE
  5
364F
330
1E
100
AcDbEntity
  8
0
100
AcDbLine
 10
2.384842519685039
 20
5.979330708661417
 30
0.0
 11
2.368110236220472
 21
5.96259842519685
 31
0.0
  0
LINE
  5
3650
330
1E
100
AcDbEntity
  8
0
100
AcDbLine
 10
2.368110236220472
 20
5.96259842519685
 30
0.0
 11
2.362204724409448
 21
5.941929133858267
 31
0.0
  0
LINE
  5
3651
330
1E
100
AcDbEntity
  8
0
100
AcDbLine
 10
2.437992125984251
 20
5.99507874015748
 30
0.0
 11
2.437992125984251
 21
5.999015748031496
 31
0.0
  0
LINE
  5
3652
330
1E
100
AcDbEntity
  8
0
100
AcDbLine
 10
2.437992125984251
 20
5.999015748031496
 30
0.0
 11
2.437992125984251
 21
6.000984251968503
 31
0.0
  0
LINE
  5
3653
330
1E
100
AcDbEntity
  8
0
100
AcDbLine
 10
3.15748031496063
 20
5.99507874015748
 30
0.0
 11
3.15748031496063
 21
5.999015748031496
 31
0.0
  0
LINE
  5
3654
330
1E
100
AcDbEntity
  8
0
100
AcDbLine
 10
3.15748031496063
 20
5.999015748031496
 30
0.0
 11
3.15748031496063
 21
6.000984251968503
 31
0.0
  0
LINE
  5
3655
330
1E
100
AcDbEntity
  8
0
100
AcDbLine
 10
3.177165354330708
 20
5.981299212598425
 30
0.0
 11
3.171259842519685
 21
5.991141732283464
 31
0.0
  0
LINE
  5
3656
330
1E
100
AcDbEntity
  8
0
100
AcDbLine
 10
3.171259842519685
 20
5.991141732283464
 30
0.0
 11
3.15748031496063
 21
5.99507874015748
 31
0.0
  0
LINE
  5
3657
330
1E
100
AcDbEntity
  8
0
100
AcDbLine
 10
3.177165354330708
 20
5.633858267716535
 30
0.0
 11
3.171259842519685
 21
5.624015748031496
 31
0.0
  0
LINE
  5
3658
330
1E
100
AcDbEntity
  8
0
100
AcDbLine
 10
3.171259842519685
 20
5.624015748031496
 30
0.0
 11
3.15748031496063
 21
5.62007874015748
 31
0.0
  0
LINE
  5
3659
330
1E
100
AcDbEntity
  8
0
100
AcDbLine
 10
3.177165354330708
 20
5.973425196850393
 30
0.0
 11
3.171259842519685
 21
5.963582677165354
 31
0.0
  0
LINE
  5
365A
330
1E
100
AcDbEntity
  8
0
100
AcDbLine
 10
3.171259842519685
 20
5.963582677165354
 30
0.0
 11
3.15748031496063
 21
5.959645669291338
 31
0.0
  0
LINE
  5
365B
330
1E
100
AcDbEntity
  8
0
100
AcDbLine
 10
3.15748031496063
 20
5.988188976377952
 30
0.0
 11
3.171259842519685
 21
5.983267716535433
 31
0.0
  0
LINE
  5
365C
330
1E
100
AcDbEntity
  8
0
100
AcDbLine
 10
3.171259842519685
 20
5.983267716535433
 30
0.0
 11
3.177165354330708
 21
5.973425196850393
 31
0.0
  0
LINE
  5
365D
330
1E
100
AcDbEntity
  8
0
100
AcDbLine
 10
3.15748031496063
 20
5.988188976377952
 30
0.0
 11
3.15748031496063
 21
5.973425196850393
 31
0.0
  0
LINE
  5
365E
330
1E
100
AcDbEntity
  8
0
100
AcDbLine
 10
3.15748031496063
 20
5.973425196850393
 30
0.0
 11
3.15748031496063
 21
5.959645669291338
 31
0.0
  0
LINE
  5
365F
330
1E
100
AcDbEntity
  8
0
100
AcDbLine
 10
2.362204724409448
 20
5.935039370078739
 30
0.0
 11
2.368110236220472
 21
5.955708661417323
 31
0.0
  0
LINE
  5
3660
330
1E
100
AcDbEntity
  8
0
100
AcDbLine
 10
2.368110236220472
 20
5.955708661417323
 30
0.0
 11
2.384842519685039
 21
5.972440944881889
 31
0.0
  0
LINE
  5
3661
330
1E
100
AcDbEntity
  8
0
100
AcDbLine
 10
2.384842519685039
 20
5.972440944881889
 30
0.0
 11
2.409448818897637
 21
5.984251968503937
 31
0.0
  0
LINE
  5
3662
330
1E
100
AcDbEntity
  8
0
100
AcDbLine
 10
2.409448818897637
 20
5.984251968503937
 30
0.0
 11
2.437992125984251
 21
5.988188976377952
 31
0.0
  0
LINE
  5
3663
330
1E
100
AcDbEntity
  8
0
100
AcDbLine
 10
2.437992125984251
 20
5.988188976377952
 30
0.0
 11
2.437992125984251
 21
5.973425196850393
 31
0.0
  0
LINE
  5
3664
330
1E
100
AcDbEntity
  8
0
100
AcDbLine
 10
2.437992125984251
 20
5.973425196850393
 30
0.0
 11
2.437992125984251
 21
5.959645669291338
 31
0.0
  0
LINE
  5
3665
330
1E
100
AcDbEntity
  8
0
100
AcDbLine
 10
2.437992125984251
 20
5.875984251968503
 30
0.0
 11
2.437992125984251
 21
5.877952755905512
 31
0.0
  0
LINE
  5
3666
330
1E
100
AcDbEntity
  8
0
100
AcDbLine
 10
2.437992125984251
 20
5.877952755905512
 30
0.0
 11
2.437992125984251
 21
5.881889763779527
 31
0.0
  0
LINE
  5
3667
330
1E
100
AcDbEntity
  8
0
100
AcDbLine
 10
2.489173228346456
 20
5.875984251968503
 30
0.0
 11
2.489173228346456
 21
5.877952755905512
 31
0.0
  0
LINE
  5
3668
330
1E
100
AcDbEntity
  8
0
100
AcDbLine
 10
2.489173228346456
 20
5.877952755905512
 30
0.0
 11
2.489173228346456
 21
5.881889763779527
 31
0.0
  0
LINE
  5
3669
330
1E
100
AcDbEntity
  8
0
100
AcDbLine
 10
2.518700787401574
 20
5.86023622047244
 30
0.0
 11
2.524606299212598
 21
5.850393700787401
 31
0.0
  0
LINE
  5
366A
330
1E
100
AcDbEntity
  8
0
100
AcDbLine
 10
2.524606299212598
 20
5.850393700787401
 30
0.0
 11
2.539370078740157
 21
5.846456692913386
 31
0.0
  0
LINE
  5
366B
330
1E
100
AcDbEntity
  8
0
100
AcDbLine
 10
2.489173228346456
 20
5.881889763779527
 30
0.0
 11
2.513779527559055
 21
5.876968503937007
 31
0.0
  0
LINE
  5
366C
330
1E
100
AcDbEntity
  8
0
100
AcDbLine
 10
2.513779527559055
 20
5.876968503937007
 30
0.0
 11
2.53248031496063
 21
5.864173228346456
 31
0.0
  0
LINE
  5
366D
330
1E
100
AcDbEntity
  8
0
100
AcDbLine
 10
2.53248031496063
 20
5.864173228346456
 30
0.0
 11
2.539370078740157
 21
5.846456692913386
 31
0.0
  0
LINE
  5
366E
330
1E
100
AcDbEntity
  8
0
100
AcDbLine
 10
2.437992125984251
 20
5.959645669291338
 30
0.0
 11
2.416338582677165
 21
5.956692913385826
 31
0.0
  0
LINE
  5
366F
330
1E
100
AcDbEntity
  8
0
100
AcDbLine
 10
2.416338582677165
 20
5.956692913385826
 30
0.0
 11
2.398622047244094
 21
5.947834645669291
 31
0.0
  0
LINE
  5
3670
330
1E
100
AcDbEntity
  8
0
100
AcDbLine
 10
2.398622047244094
 20
5.947834645669291
 30
0.0
 11
2.386811023622047
 21
5.936023622047244
 31
0.0
  0
LINE
  5
3671
330
1E
100
AcDbEntity
  8
0
100
AcDbLine
 10
2.386811023622047
 20
5.936023622047244
 30
0.0
 11
2.382874015748031
 21
5.92027559055118
 31
0.0
  0
LINE
  5
3672
330
1E
100
AcDbEntity
  8
0
100
AcDbLine
 10
2.382874015748031
 20
5.92027559055118
 30
0.0
 11
2.386811023622047
 21
5.905511811023622
 31
0.0
  0
LINE
  5
3673
330
1E
100
AcDbEntity
  8
0
100
AcDbLine
 10
2.386811023622047
 20
5.905511811023622
 30
0.0
 11
2.398622047244094
 21
5.89271653543307
 31
0.0
  0
LINE
  5
3674
330
1E
100
AcDbEntity
  8
0
100
AcDbLine
 10
2.398622047244094
 20
5.89271653543307
 30
0.0
 11
2.416338582677165
 21
5.884842519685038
 31
0.0
  0
LINE
  5
3675
330
1E
100
AcDbEntity
  8
0
100
AcDbLine
 10
2.416338582677165
 20
5.884842519685038
 30
0.0
 11
2.437992125984251
 21
5.881889763779527
 31
0.0
  0
LINE
  5
3676
330
1E
100
AcDbEntity
  8
0
100
AcDbLine
 10
3.102362204724409
 20
5.62007874015748
 30
0.0
 11
3.096456692913385
 21
5.618110236220472
 31
0.0
  0
LINE
  5
3677
330
1E
100
AcDbEntity
  8
0
100
AcDbLine
 10
3.096456692913385
 20
5.618110236220472
 30
0.0
 11
3.094488188976377
 21
5.614173228346456
 31
0.0
  0
LINE
  5
3678
330
1E
100
AcDbEntity
  8
0
100
AcDbLine
 10
3.044291338582677
 20
5.600393700787401
 30
0.0
 11
3.044291338582677
 21
5.608267716535433
 31
0.0
  0
LINE
  5
3679
330
1E
100
AcDbEntity
  8
0
100
AcDbLine
 10
3.044291338582677
 20
5.608267716535433
 30
0.0
 11
3.044291338582677
 21
5.614173228346456
 31
0.0
  0
LINE
  5
367A
330
1E
100
AcDbEntity
  8
0
100
AcDbLine
 10
3.044291338582677
 20
5.600393700787401
 30
0.0
 11
3.044291338582677
 21
5.576771653543307
 31
0.0
  0
LINE
  5
367B
330
1E
100
AcDbEntity
  8
0
100
AcDbLine
 10
3.044291338582677
 20
5.576771653543307
 30
0.0
 11
3.044291338582677
 21
5.560039370078739
 31
0.0
  0
LINE
  5
367C
330
1E
100
AcDbEntity
  8
0
100
AcDbLine
 10
3.044291338582677
 20
5.560039370078739
 30
0.0
 11
3.044291338582677
 21
5.554133858267716
 31
0.0
  0
LINE
  5
367D
330
1E
100
AcDbEntity
  8
0
100
AcDbLine
 10
2.518700787401574
 20
5.626968503937007
 30
0.0
 11
2.518700787401574
 21
5.627952755905512
 31
0.0
  0
LINE
  5
367E
330
1E
100
AcDbEntity
  8
0
100
AcDbLine
 10
2.518700787401574
 20
5.627952755905512
 30
0.0
 11
2.518700787401574
 21
5.628937007874015
 31
0.0
  0
LINE
  5
367F
330
1E
100
AcDbEntity
  8
0
100
AcDbLine
 10
2.539370078740157
 20
5.614173228346456
 30
0.0
 11
2.524606299212598
 21
5.618110236220472
 31
0.0
  0
LINE
  5
3680
330
1E
100
AcDbEntity
  8
0
100
AcDbLine
 10
2.524606299212598
 20
5.618110236220472
 30
0.0
 11
2.518700787401574
 21
5.628937007874015
 31
0.0
  0
LINE
  5
3681
330
1E
100
AcDbEntity
  8
0
100
AcDbLine
 10
2.539370078740157
 20
5.614173228346456
 30
0.0
 11
2.539370078740157
 21
5.608267716535433
 31
0.0
  0
LINE
  5
3682
330
1E
100
AcDbEntity
  8
0
100
AcDbLine
 10
2.539370078740157
 20
5.608267716535433
 30
0.0
 11
2.539370078740157
 21
5.600393700787401
 31
0.0
  0
LINE
  5
3683
330
1E
100
AcDbEntity
  8
0
100
AcDbLine
 10
2.523622047244094
 20
5.599409448818897
 30
0.0
 11
2.523622047244094
 21
5.600393700787401
 31
0.0
  0
LINE
  5
3684
330
1E
100
AcDbEntity
  8
0
100
AcDbLine
 10
2.523622047244094
 20
5.600393700787401
 30
0.0
 11
2.524606299212598
 21
5.605314960629921
 31
0.0
  0
LINE
  5
3685
330
1E
100
AcDbEntity
  8
0
100
AcDbLine
 10
2.524606299212598
 20
5.605314960629921
 30
0.0
 11
2.523622047244094
 21
5.61023622047244
 31
0.0
  0
LINE
  5
3686
330
1E
100
AcDbEntity
  8
0
100
AcDbLine
 10
2.523622047244094
 20
5.61023622047244
 30
0.0
 11
2.520669291338582
 21
5.618110236220472
 31
0.0
  0
LINE
  5
3687
330
1E
100
AcDbEntity
  8
0
100
AcDbLine
 10
2.520669291338582
 20
5.618110236220472
 30
0.0
 11
2.519685039370078
 21
5.624015748031496
 31
0.0
  0
LINE
  5
3688
330
1E
100
AcDbEntity
  8
0
100
AcDbLine
 10
2.519685039370078
 20
5.624015748031496
 30
0.0
 11
2.518700787401574
 21
5.626968503937007
 31
0.0
  0
LINE
  5
3689
330
1E
100
AcDbEntity
  8
0
100
AcDbLine
 10
2.523622047244094
 20
5.599409448818897
 30
0.0
 11
2.530511811023622
 21
5.599409448818897
 31
0.0
  0
LINE
  5
368A
330
1E
100
AcDbEntity
  8
0
100
AcDbLine
 10
2.530511811023622
 20
5.599409448818897
 30
0.0
 11
2.539370078740157
 21
5.600393700787401
 31
0.0
  0
LINE
  5
368B
330
1E
100
AcDbEntity
  8
0
100
AcDbLine
 10
2.539370078740157
 20
5.600393700787401
 30
0.0
 11
2.539370078740157
 21
5.576771653543307
 31
0.0
  0
LINE
  5
368C
330
1E
100
AcDbEntity
  8
0
100
AcDbLine
 10
2.539370078740157
 20
5.576771653543307
 30
0.0
 11
2.539370078740157
 21
5.560039370078739
 31
0.0
  0
LINE
  5
368D
330
1E
100
AcDbEntity
  8
0
100
AcDbLine
 10
2.539370078740157
 20
5.560039370078739
 30
0.0
 11
2.539370078740157
 21
5.554133858267716
 31
0.0
  0
LINE
  5
368E
330
1E
100
AcDbEntity
  8
0
100
AcDbLine
 10
2.52263779527559
 20
5.562992125984251
 30
0.0
 11
2.521653543307086
 21
5.565944881889763
 31
0.0
  0
LINE
  5
368F
330
1E
100
AcDbEntity
  8
0
100
AcDbLine
 10
2.521653543307086
 20
5.565944881889763
 30
0.0
 11
2.520669291338582
 21
5.566929133858267
 31
0.0
  0
LINE
  5
3690
330
1E
100
AcDbEntity
  8
0
100
AcDbLine
 10
2.520669291338582
 20
5.566929133858267
 30
0.0
 11
2.519685039370078
 21
5.576771653543307
 31
0.0
  0
LINE
  5
3691
330
1E
100
AcDbEntity
  8
0
100
AcDbLine
 10
2.519685039370078
 20
5.576771653543307
 30
0.0
 11
2.519685039370078
 21
5.579724409448818
 31
0.0
  0
LINE
  5
3692
330
1E
100
AcDbEntity
  8
0
100
AcDbLine
 10
2.519685039370078
 20
5.579724409448818
 30
0.0
 11
2.520669291338582
 21
5.590551181102362
 31
0.0
  0
LINE
  5
3693
330
1E
100
AcDbEntity
  8
0
100
AcDbLine
 10
2.520669291338582
 20
5.590551181102362
 30
0.0
 11
2.520669291338582
 21
5.591535433070865
 31
0.0
  0
LINE
  5
3694
330
1E
100
AcDbEntity
  8
0
100
AcDbLine
 10
2.520669291338582
 20
5.591535433070865
 30
0.0
 11
2.52263779527559
 21
5.598425196850393
 31
0.0
  0
LINE
  5
3695
330
1E
100
AcDbEntity
  8
0
100
AcDbLine
 10
2.52263779527559
 20
5.598425196850393
 30
0.0
 11
2.523622047244094
 21
5.599409448818897
 31
0.0
  0
LINE
  5
3696
330
1E
100
AcDbEntity
  8
0
100
AcDbLine
 10
2.568897637795275
 20
5.600393700787401
 30
0.0
 11
2.568897637795275
 21
5.576771653543307
 31
0.0
  0
LINE
  5
3697
330
1E
100
AcDbEntity
  8
0
100
AcDbLine
 10
2.568897637795275
 20
5.576771653543307
 30
0.0
 11
2.568897637795275
 21
5.560039370078739
 31
0.0
  0
LINE
  5
3698
330
1E
100
AcDbEntity
  8
0
100
AcDbLine
 10
2.568897637795275
 20
5.560039370078739
 30
0.0
 11
2.568897637795275
 21
5.554133858267716
 31
0.0
  0
LINE
  5
3699
330
1E
100
AcDbEntity
  8
0
100
AcDbLine
 10
2.568897637795275
 20
5.600393700787401
 30
0.0
 11
2.568897637795275
 21
5.608267716535433
 31
0.0
  0
LINE
  5
369A
330
1E
100
AcDbEntity
  8
0
100
AcDbLine
 10
2.568897637795275
 20
5.608267716535433
 30
0.0
 11
2.568897637795275
 21
5.614173228346456
 31
0.0
  0
LINE
  5
369B
330
1E
100
AcDbEntity
  8
0
100
AcDbLine
 10
2.518700787401574
 20
5.853346456692912
 30
0.0
 11
2.521653543307086
 21
5.844488188976377
 31
0.0
  0
LINE
  5
369C
330
1E
100
AcDbEntity
  8
0
100
AcDbLine
 10
2.521653543307086
 20
5.844488188976377
 30
0.0
 11
2.529527559055118
 21
5.834645669291338
 31
0.0
  0
LINE
  5
369D
330
1E
100
AcDbEntity
  8
0
100
AcDbLine
 10
2.529527559055118
 20
5.806102362204724
 30
0.0
 11
2.521653543307086
 21
5.795275590551181
 31
0.0
  0
LINE
  5
369E
330
1E
100
AcDbEntity
  8
0
100
AcDbLine
 10
2.521653543307086
 20
5.795275590551181
 30
0.0
 11
2.518700787401574
 21
5.786417322834645
 31
0.0
  0
LINE
  5
369F
330
1E
100
AcDbEntity
  8
0
100
AcDbLine
 10
2.518700787401574
 20
5.779527559055117
 30
0.0
 11
2.521653543307086
 21
5.774606299212598
 31
0.0
  0
LINE
  5
36A0
330
1E
100
AcDbEntity
  8
0
100
AcDbLine
 10
2.521653543307086
 20
5.774606299212598
 30
0.0
 11
2.529527559055118
 21
5.774606299212598
 31
0.0
  0
LINE
  5
36A1
330
1E
100
AcDbEntity
  8
0
100
AcDbLine
 10
3.094488188976377
 20
5.600393700787401
 30
0.0
 11
3.094488188976377
 21
5.608267716535433
 31
0.0
  0
LINE
  5
36A2
330
1E
100
AcDbEntity
  8
0
100
AcDbLine
 10
3.094488188976377
 20
5.608267716535433
 30
0.0
 11
3.094488188976377
 21
5.614173228346456
 31
0.0
  0
LINE
  5
36A3
330
1E
100
AcDbEntity
  8
0
100
AcDbLine
 10
3.845472440944881
 20
5.86023622047244
 30
0.0
 11
3.839566929133858
 21
5.850393700787401
 31
0.0
  0
LINE
  5
36A4
330
1E
100
AcDbEntity
  8
0
100
AcDbLine
 10
3.839566929133858
 20
5.850393700787401
 30
0.0
 11
3.824803149606299
 21
5.846456692913386
 31
0.0
  0
LINE
  5
36A5
330
1E
100
AcDbEntity
  8
0
100
AcDbLine
 10
3.875
 20
5.875984251968503
 30
0.0
 11
3.875
 21
5.876968503937007
 31
0.0
  0
LINE
  5
36A6
330
1E
100
AcDbEntity
  8
0
100
AcDbLine
 10
3.875
 20
5.876968503937007
 30
0.0
 11
3.875
 21
5.881889763779527
 31
0.0
  0
LINE
  5
36A7
330
1E
100
AcDbEntity
  8
0
100
AcDbLine
 10
3.926181102362204
 20
5.988188976377952
 30
0.0
 11
3.955708661417322
 21
5.983267716535433
 31
0.0
  0
LINE
  5
36A8
330
1E
100
AcDbEntity
  8
0
100
AcDbLine
 10
3.955708661417322
 20
5.983267716535433
 30
0.0
 11
3.980314960629921
 21
5.972440944881889
 31
0.0
  0
LINE
  5
36A9
330
1E
100
AcDbEntity
  8
0
100
AcDbLine
 10
3.980314960629921
 20
5.972440944881889
 30
0.0
 11
3.996062992125984
 21
5.954724409448818
 31
0.0
  0
LINE
  5
36AA
330
1E
100
AcDbEntity
  8
0
100
AcDbLine
 10
3.996062992125984
 20
5.954724409448818
 30
0.0
 11
4.001968503937007
 21
5.934055118110236
 31
0.0
  0
LINE
  5
36AB
330
1E
100
AcDbEntity
  8
0
100
AcDbLine
 10
3.926181102362204
 20
5.875984251968503
 30
0.0
 11
3.926181102362204
 21
5.876968503937007
 31
0.0
  0
LINE
  5
36AC
330
1E
100
AcDbEntity
  8
0
100
AcDbLine
 10
3.926181102362204
 20
5.876968503937007
 30
0.0
 11
3.926181102362204
 21
5.881889763779527
 31
0.0
  0
LINE
  5
36AD
330
1E
100
AcDbEntity
  8
0
100
AcDbLine
 10
3.926181102362204
 20
5.988188976377952
 30
0.0
 11
3.926181102362204
 21
5.973425196850393
 31
0.0
  0
LINE
  5
36AE
330
1E
100
AcDbEntity
  8
0
100
AcDbLine
 10
3.926181102362204
 20
5.973425196850393
 30
0.0
 11
3.926181102362204
 21
5.959645669291338
 31
0.0
  0
LINE
  5
36AF
330
1E
100
AcDbEntity
  8
0
100
AcDbLine
 10
3.206692913385826
 20
5.988188976377952
 30
0.0
 11
3.206692913385826
 21
5.973425196850393
 31
0.0
  0
LINE
  5
36B0
330
1E
100
AcDbEntity
  8
0
100
AcDbLine
 10
3.206692913385826
 20
5.973425196850393
 30
0.0
 11
3.206692913385826
 21
5.959645669291338
 31
0.0
  0
LINE
  5
36B1
330
1E
100
AcDbEntity
  8
0
100
AcDbLine
 10
3.187007874015748
 20
5.973425196850393
 30
0.0
 11
3.192913385826771
 21
5.983267716535433
 31
0.0
  0
LINE
  5
36B2
330
1E
100
AcDbEntity
  8
0
100
AcDbLine
 10
3.192913385826771
 20
5.983267716535433
 30
0.0
 11
3.206692913385826
 21
5.988188976377952
 31
0.0
  0
LINE
  5
36B3
330
1E
100
AcDbEntity
  8
0
100
AcDbLine
 10
3.206692913385826
 20
5.62007874015748
 30
0.0
 11
3.192913385826771
 21
5.624015748031496
 31
0.0
  0
LINE
  5
36B4
330
1E
100
AcDbEntity
  8
0
100
AcDbLine
 10
3.192913385826771
 20
5.624015748031496
 30
0.0
 11
3.187007874015748
 21
5.633858267716535
 31
0.0
  0
LINE
  5
36B5
330
1E
100
AcDbEntity
  8
0
100
AcDbLine
 10
3.187007874015748
 20
5.973425196850393
 30
0.0
 11
3.192913385826771
 21
5.963582677165354
 31
0.0
  0
LINE
  5
36B6
330
1E
100
AcDbEntity
  8
0
100
AcDbLine
 10
3.192913385826771
 20
5.963582677165354
 30
0.0
 11
3.206692913385826
 21
5.959645669291338
 31
0.0
  0
LINE
  5
36B7
330
1E
100
AcDbEntity
  8
0
100
AcDbLine
 10
3.206692913385826
 20
5.99507874015748
 30
0.0
 11
3.192913385826771
 21
5.991141732283464
 31
0.0
  0
LINE
  5
36B8
330
1E
100
AcDbEntity
  8
0
100
AcDbLine
 10
3.192913385826771
 20
5.991141732283464
 30
0.0
 11
3.187007874015748
 21
5.980314960629921
 31
0.0
  0
LINE
  5
36B9
330
1E
100
AcDbEntity
  8
0
100
AcDbLine
 10
3.206692913385826
 20
5.99507874015748
 30
0.0
 11
3.206692913385826
 21
5.999015748031496
 31
0.0
  0
LINE
  5
36BA
330
1E
100
AcDbEntity
  8
0
100
AcDbLine
 10
3.206692913385826
 20
5.999015748031496
 30
0.0
 11
3.206692913385826
 21
6.000984251968503
 31
0.0
  0
LINE
  5
36BB
330
1E
100
AcDbEntity
  8
0
100
AcDbLine
 10
4.001968503937007
 20
5.941929133858267
 30
0.0
 11
3.996062992125984
 21
5.961614173228346
 31
0.0
  0
LINE
  5
36BC
330
1E
100
AcDbEntity
  8
0
100
AcDbLine
 10
3.996062992125984
 20
5.961614173228346
 30
0.0
 11
3.979330708661417
 21
5.979330708661417
 31
0.0
  0
LINE
  5
36BD
330
1E
100
AcDbEntity
  8
0
100
AcDbLine
 10
3.979330708661417
 20
5.979330708661417
 30
0.0
 11
3.955708661417322
 21
5.991141732283464
 31
0.0
  0
LINE
  5
36BE
330
1E
100
AcDbEntity
  8
0
100
AcDbLine
 10
3.955708661417322
 20
5.991141732283464
 30
0.0
 11
3.926181102362204
 21
5.99507874015748
 31
0.0
  0
LINE
  5
36BF
330
1E
100
AcDbEntity
  8
0
100
AcDbLine
 10
3.926181102362204
 20
5.99507874015748
 30
0.0
 11
3.926181102362204
 21
5.999015748031496
 31
0.0
  0
LINE
  5
36C0
330
1E
100
AcDbEntity
  8
0
100
AcDbLine
 10
3.926181102362204
 20
5.999015748031496
 30
0.0
 11
3.926181102362204
 21
6.000984251968503
 31
0.0
  0
LINE
  5
36C1
330
1E
100
AcDbEntity
  8
0
100
AcDbLine
 10
3.261811023622047
 20
5.62007874015748
 30
0.0
 11
3.26771653543307
 21
5.618110236220472
 31
0.0
  0
LINE
  5
36C2
330
1E
100
AcDbEntity
  8
0
100
AcDbLine
 10
3.26771653543307
 20
5.618110236220472
 30
0.0
 11
3.269685039370078
 21
5.614173228346456
 31
0.0
  0
LINE
  5
36C3
330
1E
100
AcDbEntity
  8
0
100
AcDbLine
 10
3.926181102362204
 20
5.881889763779527
 30
0.0
 11
3.947834645669291
 21
5.884842519685038
 31
0.0
  0
LINE
  5
36C4
330
1E
100
AcDbEntity
  8
0
100
AcDbLine
 10
3.947834645669291
 20
5.884842519685038
 30
0.0
 11
3.965551181102362
 21
5.89271653543307
 31
0.0
  0
LINE
  5
36C5
330
1E
100
AcDbEntity
  8
0
100
AcDbLine
 10
3.965551181102362
 20
5.89271653543307
 30
0.0
 11
3.977362204724409
 21
5.905511811023622
 31
0.0
  0
LINE
  5
36C6
330
1E
100
AcDbEntity
  8
0
100
AcDbLine
 10
3.977362204724409
 20
5.905511811023622
 30
0.0
 11
3.981299212598425
 21
5.92027559055118
 31
0.0
  0
LINE
  5
36C7
330
1E
100
AcDbEntity
  8
0
100
AcDbLine
 10
3.981299212598425
 20
5.92027559055118
 30
0.0
 11
3.977362204724409
 21
5.935039370078739
 31
0.0
  0
LINE
  5
36C8
330
1E
100
AcDbEntity
  8
0
100
AcDbLine
 10
3.977362204724409
 20
5.935039370078739
 30
0.0
 11
3.965551181102362
 21
5.947834645669291
 31
0.0
  0
LINE
  5
36C9
330
1E
100
AcDbEntity
  8
0
100
AcDbLine
 10
3.965551181102362
 20
5.947834645669291
 30
0.0
 11
3.947834645669291
 21
5.956692913385826
 31
0.0
  0
LINE
  5
36CA
330
1E
100
AcDbEntity
  8
0
100
AcDbLine
 10
3.947834645669291
 20
5.956692913385826
 30
0.0
 11
3.926181102362204
 21
5.959645669291338
 31
0.0
  0
LINE
  5
36CB
330
1E
100
AcDbEntity
  8
0
100
AcDbLine
 10
3.824803149606299
 20
5.846456692913386
 30
0.0
 11
3.831692913385826
 21
5.864173228346456
 31
0.0
  0
LINE
  5
36CC
330
1E
100
AcDbEntity
  8
0
100
AcDbLine
 10
3.831692913385826
 20
5.864173228346456
 30
0.0
 11
3.850393700787401
 21
5.876968503937007
 31
0.0
  0
LINE
  5
36CD
330
1E
100
AcDbEntity
  8
0
100
AcDbLine
 10
3.850393700787401
 20
5.876968503937007
 30
0.0
 11
3.875
 21
5.881889763779527
 31
0.0
  0
LINE
  5
36CE
330
1E
100
AcDbEntity
  8
0
100
AcDbLine
 10
3.319881889763779
 20
5.614173228346456
 30
0.0
 11
3.319881889763779
 21
5.607283464566928
 31
0.0
  0
LINE
  5
36CF
330
1E
100
AcDbEntity
  8
0
100
AcDbLine
 10
3.319881889763779
 20
5.607283464566928
 30
0.0
 11
3.319881889763779
 21
5.599409448818897
 31
0.0
  0
LINE
  5
36D0
330
1E
100
AcDbEntity
  8
0
100
AcDbLine
 10
3.319881889763779
 20
5.554133858267716
 30
0.0
 11
3.319881889763779
 21
5.560039370078739
 31
0.0
  0
LINE
  5
36D1
330
1E
100
AcDbEntity
  8
0
100
AcDbLine
 10
3.319881889763779
 20
5.560039370078739
 30
0.0
 11
3.319881889763779
 21
5.576771653543307
 31
0.0
  0
LINE
  5
36D2
330
1E
100
AcDbEntity
  8
0
100
AcDbLine
 10
3.319881889763779
 20
5.576771653543307
 30
0.0
 11
3.319881889763779
 21
5.599409448818897
 31
0.0
  0
LINE
  5
36D3
330
1E
100
AcDbEntity
  8
0
100
AcDbLine
 10
3.858267716535432
 20
5.584645669291338
 30
0.0
 11
3.851377952755905
 21
5.579724409448818
 31
0.0
  0
LINE
  5
36D4
330
1E
100
AcDbEntity
  8
0
100
AcDbLine
 10
3.851377952755905
 20
5.579724409448818
 30
0.0
 11
3.859251968503937
 21
5.573818897637795
 31
0.0
  0
LINE
  5
36D5
330
1E
100
AcDbEntity
  8
0
100
AcDbLine
 10
3.824803149606299
 20
5.599409448818897
 30
0.0
 11
3.824803149606299
 21
5.607283464566928
 31
0.0
  0
LINE
  5
36D6
330
1E
100
AcDbEntity
  8
0
100
AcDbLine
 10
3.824803149606299
 20
5.607283464566928
 30
0.0
 11
3.824803149606299
 21
5.614173228346456
 31
0.0
  0
LINE
  5
36D7
330
1E
100
AcDbEntity
  8
0
100
AcDbLine
 10
3.824803149606299
 20
5.614173228346456
 30
0.0
 11
3.839566929133858
 21
5.618110236220472
 31
0.0
  0
LINE
  5
36D8
330
1E
100
AcDbEntity
  8
0
100
AcDbLine
 10
3.839566929133858
 20
5.618110236220472
 30
0.0
 11
3.845472440944881
 21
5.628937007874015
 31
0.0
  0
LINE
  5
36D9
330
1E
100
AcDbEntity
  8
0
100
AcDbLine
 10
3.845472440944881
 20
5.628937007874015
 30
0.0
 11
3.845472440944881
 21
5.627952755905512
 31
0.0
  0
LINE
  5
36DA
330
1E
100
AcDbEntity
  8
0
100
AcDbLine
 10
3.845472440944881
 20
5.627952755905512
 30
0.0
 11
3.845472440944881
 21
5.626968503937007
 31
0.0
  0
LINE
  5
36DB
330
1E
100
AcDbEntity
  8
0
100
AcDbLine
 10
3.845472440944881
 20
5.626968503937007
 30
0.0
 11
3.844488188976377
 21
5.621062992125984
 31
0.0
  0
LINE
  5
36DC
330
1E
100
AcDbEntity
  8
0
100
AcDbLine
 10
3.844488188976377
 20
5.621062992125984
 30
0.0
 11
3.840551181102362
 21
5.612204724409449
 31
0.0
  0
LINE
  5
36DD
330
1E
100
AcDbEntity
  8
0
100
AcDbLine
 10
3.840551181102362
 20
5.612204724409449
 30
0.0
 11
3.839566929133858
 21
5.607283464566928
 31
0.0
  0
LINE
  5
36DE
330
1E
100
AcDbEntity
  8
0
100
AcDbLine
 10
3.839566929133858
 20
5.607283464566928
 30
0.0
 11
3.839566929133858
 21
5.602362204724409
 31
0.0
  0
LINE
  5
36DF
330
1E
100
AcDbEntity
  8
0
100
AcDbLine
 10
3.839566929133858
 20
5.602362204724409
 30
0.0
 11
3.840551181102362
 21
5.599409448818897
 31
0.0
  0
LINE
  5
36E0
330
1E
100
AcDbEntity
  8
0
100
AcDbLine
 10
3.795275590551181
 20
5.614173228346456
 30
0.0
 11
3.795275590551181
 21
5.607283464566928
 31
0.0
  0
LINE
  5
36E1
330
1E
100
AcDbEntity
  8
0
100
AcDbLine
 10
3.795275590551181
 20
5.607283464566928
 30
0.0
 11
3.795275590551181
 21
5.599409448818897
 31
0.0
  0
LINE
  5
36E2
330
1E
100
AcDbEntity
  8
0
100
AcDbLine
 10
3.795275590551181
 20
5.554133858267716
 30
0.0
 11
3.795275590551181
 21
5.560039370078739
 31
0.0
  0
LINE
  5
36E3
330
1E
100
AcDbEntity
  8
0
100
AcDbLine
 10
3.795275590551181
 20
5.560039370078739
 30
0.0
 11
3.795275590551181
 21
5.576771653543307
 31
0.0
  0
LINE
  5
36E4
330
1E
100
AcDbEntity
  8
0
100
AcDbLine
 10
3.795275590551181
 20
5.576771653543307
 30
0.0
 11
3.795275590551181
 21
5.599409448818897
 31
0.0
  0
LINE
  5
36E5
330
1E
100
AcDbEntity
  8
0
100
AcDbLine
 10
3.843503937007874
 20
5.591535433070865
 30
0.0
 11
3.844488188976377
 21
5.58267716535433
 31
0.0
  0
LINE
  5
36E6
330
1E
100
AcDbEntity
  8
0
100
AcDbLine
 10
3.844488188976377
 20
5.58267716535433
 30
0.0
 11
3.844488188976377
 21
5.579724409448818
 31
0.0
  0
LINE
  5
36E7
330
1E
100
AcDbEntity
  8
0
100
AcDbLine
 10
3.844488188976377
 20
5.579724409448818
 30
0.0
 11
3.843503937007874
 21
5.567913385826771
 31
0.0
  0
LINE
  5
36E8
330
1E
100
AcDbEntity
  8
0
100
AcDbLine
 10
3.843503937007874
 20
5.567913385826771
 30
0.0
 11
3.843503937007874
 21
5.566929133858267
 31
0.0
  0
LINE
  5
36E9
330
1E
100
AcDbEntity
  8
0
100
AcDbLine
 10
3.824803149606299
 20
5.554133858267716
 30
0.0
 11
3.824803149606299
 21
5.560039370078739
 31
0.0
  0
LINE
  5
36EA
330
1E
100
AcDbEntity
  8
0
100
AcDbLine
 10
3.824803149606299
 20
5.560039370078739
 30
0.0
 11
3.824803149606299
 21
5.576771653543307
 31
0.0
  0
LINE
  5
36EB
330
1E
100
AcDbEntity
  8
0
100
AcDbLine
 10
3.824803149606299
 20
5.576771653543307
 30
0.0
 11
3.824803149606299
 21
5.599409448818897
 31
0.0
  0
LINE
  5
36EC
330
1E
100
AcDbEntity
  8
0
100
AcDbLine
 10
3.840551181102362
 20
5.599409448818897
 30
0.0
 11
3.833661417322834
 21
5.599409448818897
 31
0.0
  0
LINE
  5
36ED
330
1E
100
AcDbEntity
  8
0
100
AcDbLine
 10
3.833661417322834
 20
5.599409448818897
 30
0.0
 11
3.824803149606299
 21
5.599409448818897
 31
0.0
  0
LINE
  5
36EE
330
1E
100
AcDbEntity
  8
0
100
AcDbLine
 10
3.840551181102362
 20
5.599409448818897
 30
0.0
 11
3.841535433070866
 21
5.596456692913386
 31
0.0
  0
LINE
  5
36EF
330
1E
100
AcDbEntity
  8
0
100
AcDbLine
 10
3.841535433070866
 20
5.596456692913386
 30
0.0
 11
3.843503937007874
 21
5.591535433070865
 31
0.0
  0
LINE
  5
36F0
330
1E
100
AcDbEntity
  8
0
100
AcDbLine
 10
3.834645669291338
 20
5.834645669291338
 30
0.0
 11
3.84251968503937
 21
5.844488188976377
 31
0.0
  0
LINE
  5
36F1
330
1E
100
AcDbEntity
  8
0
100
AcDbLine
 10
3.84251968503937
 20
5.844488188976377
 30
0.0
 11
3.845472440944881
 21
5.853346456692912
 31
0.0
  0
LINE
  5
36F2
330
1E
100
AcDbEntity
  8
0
100
AcDbLine
 10
3.834645669291338
 20
5.773622047244094
 30
0.0
 11
3.84251968503937
 21
5.773622047244094
 31
0.0
  0
LINE
  5
36F3
330
1E
100
AcDbEntity
  8
0
100
AcDbLine
 10
3.84251968503937
 20
5.773622047244094
 30
0.0
 11
3.845472440944881
 21
5.779527559055117
 31
0.0
  0
LINE
  5
36F4
330
1E
100
AcDbEntity
  8
0
100
AcDbLine
 10
3.845472440944881
 20
5.786417322834645
 30
0.0
 11
3.84251968503937
 21
5.795275590551181
 31
0.0
  0
LINE
  5
36F5
330
1E
100
AcDbEntity
  8
0
100
AcDbLine
 10
3.84251968503937
 20
5.795275590551181
 30
0.0
 11
3.834645669291338
 21
5.80511811023622
 31
0.0
  0
LINE
  5
36F6
330
1E
100
AcDbEntity
  8
0
100
AcDbLine
 10
3.269685039370078
 20
5.614173228346456
 30
0.0
 11
3.269685039370078
 21
5.607283464566928
 31
0.0
  0
LINE
  5
36F7
330
1E
100
AcDbEntity
  8
0
100
AcDbLine
 10
3.269685039370078
 20
5.607283464566928
 30
0.0
 11
3.269685039370078
 21
5.599409448818897
 31
0.0
  0
LINE
  5
36F8
330
1E
100
AcDbEntity
  8
0
100
AcDbLine
 10
3.269685039370078
 20
5.554133858267716
 30
0.0
 11
3.269685039370078
 21
5.560039370078739
 31
0.0
  0
LINE
  5
36F9
330
1E
100
AcDbEntity
  8
0
100
AcDbLine
 10
3.269685039370078
 20
5.560039370078739
 30
0.0
 11
3.269685039370078
 21
5.576771653543307
 31
0.0
  0
LINE
  5
36FA
330
1E
100
AcDbEntity
  8
0
100
AcDbLine
 10
3.269685039370078
 20
5.576771653543307
 30
0.0
 11
3.269685039370078
 21
5.599409448818897
 31
0.0
  0
LINE
  5
36FB
330
1E
100
AcDbEntity
  8
0
100
AcDbLine
 10
2.504921259842519
 20
5.571850393700787
 30
0.0
 11
2.508858267716535
 21
5.575787401574802
 31
0.0
  0
LINE
  5
36FC
330
1E
100
AcDbEntity
  8
0
100
AcDbLine
 10
2.508858267716535
 20
5.575787401574802
 30
0.0
 11
2.514763779527558
 21
5.574803149606299
 31
0.0
  0
LINE
  5
36FD
330
1E
100
AcDbEntity
  8
0
100
AcDbLine
 10
2.514763779527558
 20
5.574803149606299
 30
0.0
 11
2.514763779527558
 21
5.568897637795275
 31
0.0
  0
LINE
  5
36FE
330
1E
100
AcDbEntity
  8
0
100
AcDbLine
 10
2.514763779527558
 20
5.568897637795275
 30
0.0
 11
2.508858267716535
 21
5.566929133858267
 31
0.0
  0
LINE
  5
36FF
330
1E
100
AcDbEntity
  8
0
100
AcDbLine
 10
2.508858267716535
 20
5.566929133858267
 30
0.0
 11
2.504921259842519
 21
5.570866141732283
 31
0.0
  0
LINE
  5
3700
330
1E
100
AcDbEntity
  8
0
100
AcDbLine
 10
2.504921259842519
 20
5.554133858267716
 30
0.0
 11
2.504921259842519
 21
5.55511811023622
 31
0.0
  0
LINE
  5
3701
330
1E
100
AcDbEntity
  8
0
100
AcDbLine
 10
2.504921259842519
 20
5.55511811023622
 30
0.0
 11
2.504921259842519
 21
5.556102362204724
 31
0.0
  0
LINE
  5
3702
330
1E
100
AcDbEntity
  8
0
100
AcDbLine
 10
2.489173228346456
 20
5.875984251968503
 30
0.0
 11
2.491141732283464
 21
5.875984251968503
 31
0.0
  0
LINE
  5
3703
330
1E
100
AcDbEntity
  8
0
100
AcDbLine
 10
2.491141732283464
 20
5.875984251968503
 30
0.0
 11
2.493110236220472
 21
5.875984251968503
 31
0.0
  0
LINE
  5
3704
330
1E
100
AcDbEntity
  8
0
100
AcDbLine
 10
2.493110236220472
 20
5.875984251968503
 30
0.0
 11
2.497047244094487
 21
5.875
 31
0.0
  0
LINE
  5
3705
330
1E
100
AcDbEntity
  8
0
100
AcDbLine
 10
2.497047244094487
 20
5.875
 30
0.0
 11
2.5
 21
5.875
 31
0.0
  0
LINE
  5
3706
330
1E
100
AcDbEntity
  8
0
100
AcDbLine
 10
2.5
 20
5.875
 30
0.0
 11
2.503937007874015
 21
5.874015748031496
 31
0.0
  0
LINE
  5
3707
330
1E
100
AcDbEntity
  8
0
100
AcDbLine
 10
2.503937007874015
 20
5.874015748031496
 30
0.0
 11
2.506889763779527
 21
5.873031496062991
 31
0.0
  0
LINE
  5
3708
330
1E
100
AcDbEntity
  8
0
100
AcDbLine
 10
2.506889763779527
 20
5.873031496062991
 30
0.0
 11
2.509842519685039
 21
5.871062992125984
 31
0.0
  0
LINE
  5
3709
330
1E
100
AcDbEntity
  8
0
100
AcDbLine
 10
2.509842519685039
 20
5.871062992125984
 30
0.0
 11
2.511811023622047
 21
5.87007874015748
 31
0.0
  0
LINE
  5
370A
330
1E
100
AcDbEntity
  8
0
100
AcDbLine
 10
2.511811023622047
 20
5.87007874015748
 30
0.0
 11
2.513779527559055
 21
5.868110236220472
 31
0.0
  0
LINE
  5
370B
330
1E
100
AcDbEntity
  8
0
100
AcDbLine
 10
2.513779527559055
 20
5.868110236220472
 30
0.0
 11
2.515748031496062
 21
5.867125984251968
 31
0.0
  0
LINE
  5
370C
330
1E
100
AcDbEntity
  8
0
100
AcDbLine
 10
2.515748031496062
 20
5.867125984251968
 30
0.0
 11
2.516732283464566
 21
5.86515748031496
 31
0.0
  0
LINE
  5
370D
330
1E
100
AcDbEntity
  8
0
100
AcDbLine
 10
2.516732283464566
 20
5.86515748031496
 30
0.0
 11
2.51771653543307
 21
5.864173228346456
 31
0.0
  0
LINE
  5
370E
330
1E
100
AcDbEntity
  8
0
100
AcDbLine
 10
2.51771653543307
 20
5.864173228346456
 30
0.0
 11
2.518700787401574
 21
5.863188976377952
 31
0.0
  0
LINE
  5
370F
330
1E
100
AcDbEntity
  8
0
100
AcDbLine
 10
2.518700787401574
 20
5.863188976377952
 30
0.0
 11
2.518700787401574
 21
5.862204724409449
 31
0.0
  0
LINE
  5
3710
330
1E
100
AcDbEntity
  8
0
100
AcDbLine
 10
2.518700787401574
 20
5.862204724409449
 30
0.0
 11
2.518700787401574
 21
5.861220472440944
 31
0.0
  0
LINE
  5
3711
330
1E
100
AcDbEntity
  8
0
100
AcDbLine
 10
2.518700787401574
 20
5.861220472440944
 30
0.0
 11
2.518700787401574
 21
5.86023622047244
 31
0.0
  0
LINE
  5
3712
330
1E
100
AcDbEntity
  8
0
100
AcDbLine
 10
2.437992125984251
 20
6.000984251968503
 30
0.0
 11
2.434055118110236
 21
6.000984251968503
 31
0.0
  0
LINE
  5
3713
330
1E
100
AcDbEntity
  8
0
100
AcDbLine
 10
2.434055118110236
 20
6.000984251968503
 30
0.0
 11
2.431102362204724
 21
6.000984251968503
 31
0.0
  0
LINE
  5
3714
330
1E
100
AcDbEntity
  8
0
100
AcDbLine
 10
2.431102362204724
 20
6.000984251968503
 30
0.0
 11
2.424212598425196
 21
6.0
 31
0.0
  0
LINE
  5
3715
330
1E
100
AcDbEntity
  8
0
100
AcDbLine
 10
2.424212598425196
 20
6.0
 30
0.0
 11
2.418307086614173
 21
5.999015748031496
 31
0.0
  0
LINE
  5
3716
330
1E
100
AcDbEntity
  8
0
100
AcDbLine
 10
2.418307086614173
 20
5.999015748031496
 30
0.0
 11
2.412401574803149
 21
5.997047244094487
 31
0.0
  0
LINE
  5
3717
330
1E
100
AcDbEntity
  8
0
100
AcDbLine
 10
2.412401574803149
 20
5.997047244094487
 30
0.0
 11
2.406496062992125
 21
5.996062992125984
 31
0.0
  0
LINE
  5
3718
330
1E
100
AcDbEntity
  8
0
100
AcDbLine
 10
2.406496062992125
 20
5.996062992125984
 30
0.0
 11
2.401574803149606
 21
5.993110236220472
 31
0.0
  0
LINE
  5
3719
330
1E
100
AcDbEntity
  8
0
100
AcDbLine
 10
2.401574803149606
 20
5.993110236220472
 30
0.0
 11
2.395669291338582
 21
5.991141732283464
 31
0.0
  0
LINE
  5
371A
330
1E
100
AcDbEntity
  8
0
100
AcDbLine
 10
2.395669291338582
 20
5.991141732283464
 30
0.0
 11
2.390748031496062
 21
5.988188976377952
 31
0.0
  0
LINE
  5
371B
330
1E
100
AcDbEntity
  8
0
100
AcDbLine
 10
2.390748031496062
 20
5.988188976377952
 30
0.0
 11
2.385826771653543
 21
5.98523622047244
 31
0.0
  0
LINE
  5
371C
330
1E
100
AcDbEntity
  8
0
100
AcDbLine
 10
2.385826771653543
 20
5.98523622047244
 30
0.0
 11
2.381889763779527
 21
5.981299212598425
 31
0.0
  0
LINE
  5
371D
330
1E
100
AcDbEntity
  8
0
100
AcDbLine
 10
2.381889763779527
 20
5.981299212598425
 30
0.0
 11
2.376968503937007
 21
5.977362204724409
 31
0.0
  0
LINE
  5
371E
330
1E
100
AcDbEntity
  8
0
100
AcDbLine
 10
2.376968503937007
 20
5.977362204724409
 30
0.0
 11
2.374015748031495
 21
5.973425196850393
 31
0.0
  0
LINE
  5
371F
330
1E
100
AcDbEntity
  8
0
100
AcDbLine
 10
2.374015748031495
 20
5.973425196850393
 30
0.0
 11
2.371062992125984
 21
5.968503937007874
 31
0.0
  0
LINE
  5
3720
330
1E
100
AcDbEntity
  8
0
100
AcDbLine
 10
2.371062992125984
 20
5.968503937007874
 30
0.0
 11
2.368110236220472
 21
5.963582677165354
 31
0.0
  0
LINE
  5
3721
330
1E
100
AcDbEntity
  8
0
100
AcDbLine
 10
2.368110236220472
 20
5.963582677165354
 30
0.0
 11
2.366141732283464
 21
5.959645669291338
 31
0.0
  0
LINE
  5
3722
330
1E
100
AcDbEntity
  8
0
100
AcDbLine
 10
2.366141732283464
 20
5.959645669291338
 30
0.0
 11
2.364173228346456
 21
5.954724409448818
 31
0.0
  0
LINE
  5
3723
330
1E
100
AcDbEntity
  8
0
100
AcDbLine
 10
2.364173228346456
 20
5.954724409448818
 30
0.0
 11
2.363188976377952
 21
5.949803149606299
 31
0.0
  0
LINE
  5
3724
330
1E
100
AcDbEntity
  8
0
100
AcDbLine
 10
2.363188976377952
 20
5.949803149606299
 30
0.0
 11
2.363188976377952
 21
5.945866141732283
 31
0.0
  0
LINE
  5
3725
330
1E
100
AcDbEntity
  8
0
100
AcDbLine
 10
2.363188976377952
 20
5.945866141732283
 30
0.0
 11
2.363188976377952
 21
5.941929133858267
 31
0.0
  0
LINE
  5
3726
330
1E
100
AcDbEntity
  8
0
100
AcDbLine
 10
2.363188976377952
 20
5.936023622047244
 30
0.0
 11
2.362204724409448
 21
5.934055118110236
 31
0.0
  0
LINE
  5
3727
330
1E
100
AcDbEntity
  8
0
100
AcDbLine
 10
2.362204724409448
 20
5.934055118110236
 30
0.0
 11
2.362204724409448
 21
5.932086614173228
 31
0.0
  0
LINE
  5
3728
330
1E
100
AcDbEntity
  8
0
100
AcDbLine
 10
2.362204724409448
 20
5.932086614173228
 30
0.0
 11
2.363188976377952
 21
5.928149606299212
 31
0.0
  0
LINE
  5
3729
330
1E
100
AcDbEntity
  8
0
100
AcDbLine
 10
2.363188976377952
 20
5.928149606299212
 30
0.0
 11
2.364173228346456
 21
5.923228346456692
 31
0.0
  0
LINE
  5
372A
330
1E
100
AcDbEntity
  8
0
100
AcDbLine
 10
2.364173228346456
 20
5.923228346456692
 30
0.0
 11
2.36515748031496
 21
5.918307086614173
 31
0.0
  0
LINE
  5
372B
330
1E
100
AcDbEntity
  8
0
100
AcDbLine
 10
2.36515748031496
 20
5.918307086614173
 30
0.0
 11
2.367125984251968
 21
5.913385826771653
 31
0.0
  0
LINE
  5
372C
330
1E
100
AcDbEntity
  8
0
100
AcDbLine
 10
2.367125984251968
 20
5.913385826771653
 30
0.0
 11
2.37007874015748
 21
5.909448818897637
 31
0.0
  0
LINE
  5
372D
330
1E
100
AcDbEntity
  8
0
100
AcDbLine
 10
2.37007874015748
 20
5.909448818897637
 30
0.0
 11
2.372047244094487
 21
5.905511811023622
 31
0.0
  0
LINE
  5
372E
330
1E
100
AcDbEntity
  8
0
100
AcDbLine
 10
2.372047244094487
 20
5.905511811023622
 30
0.0
 11
2.375984251968503
 21
5.901574803149606
 31
0.0
  0
LINE
  5
372F
330
1E
100
AcDbEntity
  8
0
100
AcDbLine
 10
2.375984251968503
 20
5.901574803149606
 30
0.0
 11
2.378937007874015
 21
5.89763779527559
 31
0.0
  0
LINE
  5
3730
330
1E
100
AcDbEntity
  8
0
100
AcDbLine
 10
2.378937007874015
 20
5.89763779527559
 30
0.0
 11
2.382874015748031
 21
5.893700787401574
 31
0.0
  0
LINE
  5
3731
330
1E
100
AcDbEntity
  8
0
100
AcDbLine
 10
2.382874015748031
 20
5.893700787401574
 30
0.0
 11
2.38779527559055
 21
5.890748031496062
 31
0.0
  0
LINE
  5
3732
330
1E
100
AcDbEntity
  8
0
100
AcDbLine
 10
2.38779527559055
 20
5.890748031496062
 30
0.0
 11
2.391732283464566
 21
5.88779527559055
 31
0.0
  0
LINE
  5
3733
330
1E
100
AcDbEntity
  8
0
100
AcDbLine
 10
2.391732283464566
 20
5.88779527559055
 30
0.0
 11
2.396653543307086
 21
5.884842519685038
 31
0.0
  0
LINE
  5
3734
330
1E
100
AcDbEntity
  8
0
100
AcDbLine
 10
2.396653543307086
 20
5.884842519685038
 30
0.0
 11
2.40255905511811
 21
5.882874015748031
 31
0.0
  0
LINE
  5
3735
330
1E
100
AcDbEntity
  8
0
100
AcDbLine
 10
2.40255905511811
 20
5.882874015748031
 30
0.0
 11
2.40748031496063
 21
5.880905511811023
 31
0.0
  0
LINE
  5
3736
330
1E
100
AcDbEntity
  8
0
100
AcDbLine
 10
2.40748031496063
 20
5.880905511811023
 30
0.0
 11
2.413385826771653
 21
5.878937007874015
 31
0.0
  0
LINE
  5
3737
330
1E
100
AcDbEntity
  8
0
100
AcDbLine
 10
2.413385826771653
 20
5.878937007874015
 30
0.0
 11
2.419291338582677
 21
5.877952755905512
 31
0.0
  0
LINE
  5
3738
330
1E
100
AcDbEntity
  8
0
100
AcDbLine
 10
2.419291338582677
 20
5.877952755905512
 30
0.0
 11
2.4251968503937
 21
5.876968503937007
 31
0.0
  0
LINE
  5
3739
330
1E
100
AcDbEntity
  8
0
100
AcDbLine
 10
2.4251968503937
 20
5.876968503937007
 30
0.0
 11
2.431102362204724
 21
5.875984251968503
 31
0.0
  0
LINE
  5
373A
330
1E
100
AcDbEntity
  8
0
100
AcDbLine
 10
2.431102362204724
 20
5.875984251968503
 30
0.0
 11
2.43503937007874
 21
5.875984251968503
 31
0.0
  0
LINE
  5
373B
330
1E
100
AcDbEntity
  8
0
100
AcDbLine
 10
2.43503937007874
 20
5.875984251968503
 30
0.0
 11
2.437992125984251
 21
5.875984251968503
 31
0.0
  0
LINE
  5
373C
330
1E
100
AcDbEntity
  8
0
100
AcDbLine
 10
2.504921259842519
 20
5.5501968503937
 30
0.0
 11
2.504921259842519
 21
5.552165354330708
 31
0.0
  0
LINE
  5
373D
330
1E
100
AcDbEntity
  8
0
100
AcDbLine
 10
2.504921259842519
 20
5.552165354330708
 30
0.0
 11
2.504921259842519
 21
5.554133858267716
 31
0.0
  0
LINE
  5
373E
330
1E
100
AcDbEntity
  8
0
100
AcDbLine
 10
3.845472440944881
 20
5.86023622047244
 30
0.0
 11
3.845472440944881
 21
5.861220472440944
 31
0.0
  0
LINE
  5
373F
330
1E
100
AcDbEntity
  8
0
100
AcDbLine
 10
3.845472440944881
 20
5.861220472440944
 30
0.0
 11
3.845472440944881
 21
5.862204724409449
 31
0.0
  0
LINE
  5
3740
330
1E
100
AcDbEntity
  8
0
100
AcDbLine
 10
3.845472440944881
 20
5.862204724409449
 30
0.0
 11
3.845472440944881
 21
5.863188976377952
 31
0.0
  0
LINE
  5
3741
330
1E
100
AcDbEntity
  8
0
100
AcDbLine
 10
3.845472440944881
 20
5.863188976377952
 30
0.0
 11
3.846456692913385
 21
5.864173228346456
 31
0.0
  0
LINE
  5
3742
330
1E
100
AcDbEntity
  8
0
100
AcDbLine
 10
3.846456692913385
 20
5.864173228346456
 30
0.0
 11
3.847440944881889
 21
5.866141732283464
 31
0.0
  0
LINE
  5
3743
330
1E
100
AcDbEntity
  8
0
100
AcDbLine
 10
3.847440944881889
 20
5.866141732283464
 30
0.0
 11
3.849409448818897
 21
5.867125984251968
 31
0.0
  0
LINE
  5
3744
330
1E
100
AcDbEntity
  8
0
100
AcDbLine
 10
3.849409448818897
 20
5.867125984251968
 30
0.0
 11
3.850393700787401
 21
5.869094488188975
 31
0.0
  0
LINE
  5
3745
330
1E
100
AcDbEntity
  8
0
100
AcDbLine
 10
3.850393700787401
 20
5.869094488188975
 30
0.0
 11
3.853346456692913
 21
5.87007874015748
 31
0.0
  0
LINE
  5
3746
330
1E
100
AcDbEntity
  8
0
100
AcDbLine
 10
3.853346456692913
 20
5.87007874015748
 30
0.0
 11
3.855314960629921
 21
5.872047244094487
 31
0.0
  0
LINE
  5
3747
330
1E
100
AcDbEntity
  8
0
100
AcDbLine
 10
3.855314960629921
 20
5.872047244094487
 30
0.0
 11
3.858267716535432
 21
5.873031496062991
 31
0.0
  0
LINE
  5
3748
330
1E
100
AcDbEntity
  8
0
100
AcDbLine
 10
3.858267716535432
 20
5.873031496062991
 30
0.0
 11
3.862204724409448
 21
5.874015748031496
 31
0.0
  0
LINE
  5
3749
330
1E
100
AcDbEntity
  8
0
100
AcDbLine
 10
3.862204724409448
 20
5.874015748031496
 30
0.0
 11
3.86515748031496
 21
5.875
 31
0.0
  0
LINE
  5
374A
330
1E
100
AcDbEntity
  8
0
100
AcDbLine
 10
3.86515748031496
 20
5.875
 30
0.0
 11
3.869094488188976
 21
5.875
 31
0.0
  0
LINE
  5
374B
330
1E
100
AcDbEntity
  8
0
100
AcDbLine
 10
3.869094488188976
 20
5.875
 30
0.0
 11
3.872047244094487
 21
5.875984251968503
 31
0.0
  0
LINE
  5
374C
330
1E
100
AcDbEntity
  8
0
100
AcDbLine
 10
3.872047244094487
 20
5.875984251968503
 30
0.0
 11
3.875
 21
5.875984251968503
 31
0.0
  0
LINE
  5
374D
330
1E
100
AcDbEntity
  8
0
100
AcDbLine
 10
4.000984251968503
 20
5.941929133858267
 30
0.0
 11
4.000984251968503
 21
5.942913385826771
 31
0.0
  0
LINE
  5
374E
330
1E
100
AcDbEntity
  8
0
100
AcDbLine
 10
4.000984251968503
 20
5.942913385826771
 30
0.0
 11
4.001968503937007
 21
5.943897637795275
 31
0.0
  0
LINE
  5
374F
330
1E
100
AcDbEntity
  8
0
100
AcDbLine
 10
4.001968503937007
 20
5.943897637795275
 30
0.0
 11
4.000984251968503
 21
5.948818897637795
 31
0.0
  0
LINE
  5
3750
330
1E
100
AcDbEntity
  8
0
100
AcDbLine
 10
4.000984251968503
 20
5.948818897637795
 30
0.0
 11
4.0
 21
5.953740157480314
 31
0.0
  0
LINE
  5
3751
330
1E
100
AcDbEntity
  8
0
100
AcDbLine
 10
4.0
 20
5.953740157480314
 30
0.0
 11
3.999015748031495
 21
5.958661417322834
 31
0.0
  0
LINE
  5
3752
330
1E
100
AcDbEntity
  8
0
100
AcDbLine
 10
3.999015748031495
 20
5.958661417322834
 30
0.0
 11
3.997047244094487
 21
5.96259842519685
 31
0.0
  0
LINE
  5
3753
330
1E
100
AcDbEntity
  8
0
100
AcDbLine
 10
3.997047244094487
 20
5.96259842519685
 30
0.0
 11
3.994094488188976
 21
5.96751968503937
 31
0.0
  0
LINE
  5
3754
330
1E
100
AcDbEntity
  8
0
100
AcDbLine
 10
3.994094488188976
 20
5.96751968503937
 30
0.0
 11
3.992125984251968
 21
5.971456692913386
 31
0.0
  0
LINE
  5
3755
330
1E
100
AcDbEntity
  8
0
100
AcDbLine
 10
3.992125984251968
 20
5.971456692913386
 30
0.0
 11
3.988188976377952
 21
5.975393700787401
 31
0.0
  0
LINE
  5
3756
330
1E
100
AcDbEntity
  8
0
100
AcDbLine
 10
3.988188976377952
 20
5.975393700787401
 30
0.0
 11
3.98523622047244
 21
5.979330708661417
 31
0.0
  0
LINE
  5
3757
330
1E
100
AcDbEntity
  8
0
100
AcDbLine
 10
3.98523622047244
 20
5.979330708661417
 30
0.0
 11
3.981299212598425
 21
5.982283464566928
 31
0.0
  0
LINE
  5
3758
330
1E
100
AcDbEntity
  8
0
100
AcDbLine
 10
3.981299212598425
 20
5.982283464566928
 30
0.0
 11
3.976377952755905
 21
5.986220472440944
 31
0.0
  0
LINE
  5
3759
330
1E
100
AcDbEntity
  8
0
100
AcDbLine
 10
3.976377952755905
 20
5.986220472440944
 30
0.0
 11
3.972440944881889
 21
5.989173228346456
 31
0.0
  0
LINE
  5
375A
330
1E
100
AcDbEntity
  8
0
100
AcDbLine
 10
3.972440944881889
 20
5.989173228346456
 30
0.0
 11
3.96751968503937
 21
5.991141732283464
 31
0.0
  0
LINE
  5
375B
330
1E
100
AcDbEntity
  8
0
100
AcDbLine
 10
3.96751968503937
 20
5.991141732283464
 30
0.0
 11
3.961614173228346
 21
5.994094488188975
 31
0.0
  0
LINE
  5
375C
330
1E
100
AcDbEntity
  8
0
100
AcDbLine
 10
3.961614173228346
 20
5.994094488188975
 30
0.0
 11
3.956692913385826
 21
5.996062992125984
 31
0.0
  0
LINE
  5
375D
330
1E
100
AcDbEntity
  8
0
100
AcDbLine
 10
3.956692913385826
 20
5.996062992125984
 30
0.0
 11
3.950787401574803
 21
5.998031496062991
 31
0.0
  0
LINE
  5
375E
330
1E
100
AcDbEntity
  8
0
100
AcDbLine
 10
3.950787401574803
 20
5.998031496062991
 30
0.0
 11
3.944881889763779
 21
5.999015748031496
 31
0.0
  0
LINE
  5
375F
330
1E
100
AcDbEntity
  8
0
100
AcDbLine
 10
3.944881889763779
 20
5.999015748031496
 30
0.0
 11
3.938976377952755
 21
6.0
 31
0.0
  0
LINE
  5
3760
330
1E
100
AcDbEntity
  8
0
100
AcDbLine
 10
3.938976377952755
 20
6.0
 30
0.0
 11
3.932086614173228
 21
6.000984251968503
 31
0.0
  0
LINE
  5
3761
330
1E
100
AcDbEntity
  8
0
100
AcDbLine
 10
3.932086614173228
 20
6.000984251968503
 30
0.0
 11
3.929133858267716
 21
6.000984251968503
 31
0.0
  0
LINE
  5
3762
330
1E
100
AcDbEntity
  8
0
100
AcDbLine
 10
3.929133858267716
 20
6.000984251968503
 30
0.0
 11
3.926181102362204
 21
6.000984251968503
 31
0.0
  0
LINE
  5
3763
330
1E
100
AcDbEntity
  8
0
100
AcDbLine
 10
3.926181102362204
 20
5.875984251968503
 30
0.0
 11
3.93011811023622
 21
5.875984251968503
 31
0.0
  0
LINE
  5
3764
330
1E
100
AcDbEntity
  8
0
100
AcDbLine
 10
3.93011811023622
 20
5.875984251968503
 30
0.0
 11
3.933070866141732
 21
5.875984251968503
 31
0.0
  0
LINE
  5
3765
330
1E
100
AcDbEntity
  8
0
100
AcDbLine
 10
3.933070866141732
 20
5.875984251968503
 30
0.0
 11
3.939960629921259
 21
5.876968503937007
 31
0.0
  0
LINE
  5
3766
330
1E
100
AcDbEntity
  8
0
100
AcDbLine
 10
3.939960629921259
 20
5.876968503937007
 30
0.0
 11
3.945866141732283
 21
5.877952755905512
 31
0.0
  0
LINE
  5
3767
330
1E
100
AcDbEntity
  8
0
100
AcDbLine
 10
3.945866141732283
 20
5.877952755905512
 30
0.0
 11
3.951771653543307
 21
5.878937007874015
 31
0.0
  0
LINE
  5
3768
330
1E
100
AcDbEntity
  8
0
100
AcDbLine
 10
3.951771653543307
 20
5.878937007874015
 30
0.0
 11
3.95767716535433
 21
5.880905511811023
 31
0.0
  0
LINE
  5
3769
330
1E
100
AcDbEntity
  8
0
100
AcDbLine
 10
3.95767716535433
 20
5.880905511811023
 30
0.0
 11
3.96259842519685
 21
5.882874015748031
 31
0.0
  0
LINE
  5
376A
330
1E
100
AcDbEntity
  8
0
100
AcDbLine
 10
3.96259842519685
 20
5.882874015748031
 30
0.0
 11
3.968503937007874
 21
5.885826771653543
 31
0.0
  0
LINE
  5
376B
330
1E
100
AcDbEntity
  8
0
100
AcDbLine
 10
3.968503937007874
 20
5.885826771653543
 30
0.0
 11
3.973425196850393
 21
5.888779527559054
 31
0.0
  0
LINE
  5
376C
330
1E
100
AcDbEntity
  8
0
100
AcDbLine
 10
3.973425196850393
 20
5.888779527559054
 30
0.0
 11
3.978346456692913
 21
5.891732283464566
 31
0.0
  0
LINE
  5
376D
330
1E
100
AcDbEntity
  8
0
100
AcDbLine
 10
3.978346456692913
 20
5.891732283464566
 30
0.0
 11
3.982283464566929
 21
5.895669291338582
 31
0.0
  0
LINE
  5
376E
330
1E
100
AcDbEntity
  8
0
100
AcDbLine
 10
3.982283464566929
 20
5.895669291338582
 30
0.0
 11
3.987204724409448
 21
5.899606299212598
 31
0.0
  0
LINE
  5
376F
330
1E
100
AcDbEntity
  8
0
100
AcDbLine
 10
3.987204724409448
 20
5.899606299212598
 30
0.0
 11
3.99015748031496
 21
5.903543307086613
 31
0.0
  0
LINE
  5
3770
330
1E
100
AcDbEntity
  8
0
100
AcDbLine
 10
3.99015748031496
 20
5.903543307086613
 30
0.0
 11
3.993110236220472
 21
5.908464566929133
 31
0.0
  0
LINE
  5
3771
330
1E
100
AcDbEntity
  8
0
100
AcDbLine
 10
3.993110236220472
 20
5.908464566929133
 30
0.0
 11
3.996062992125984
 21
5.912401574803149
 31
0.0
  0
LINE
  5
3772
330
1E
100
AcDbEntity
  8
0
100
AcDbLine
 10
3.996062992125984
 20
5.912401574803149
 30
0.0
 11
3.998031496062992
 21
5.917322834645669
 31
0.0
  0
LINE
  5
3773
330
1E
100
AcDbEntity
  8
0
100
AcDbLine
 10
3.998031496062992
 20
5.917322834645669
 30
0.0
 11
4.0
 21
5.922244094488188
 31
0.0
  0
LINE
  5
3774
330
1E
100
AcDbEntity
  8
0
100
AcDbLine
 10
4.0
 20
5.922244094488188
 30
0.0
 11
4.000984251968503
 21
5.927165354330708
 31
0.0
  0
LINE
  5
3775
330
1E
100
AcDbEntity
  8
0
100
AcDbLine
 10
4.000984251968503
 20
5.927165354330708
 30
0.0
 11
4.000984251968503
 21
5.93011811023622
 31
0.0
  0
LINE
  5
3776
330
1E
100
AcDbEntity
  8
0
100
AcDbLine
 10
4.000984251968503
 20
5.93011811023622
 30
0.0
 11
4.000984251968503
 21
5.934055118110236
 31
0.0
  0
LINE
  5
3777
330
1E
100
AcDbEntity
  8
0
100
AcDbLine
 10
2.52263779527559
 20
5.562007874015748
 30
0.0
 11
2.529527559055118
 21
5.556102362204724
 31
0.0
  0
LINE
  5
3778
330
1E
100
AcDbEntity
  8
0
100
AcDbLine
 10
2.529527559055118
 20
5.556102362204724
 30
0.0
 11
2.539370078740157
 21
5.554133858267716
 31
0.0
  0
LINE
  5
3779
330
1E
100
AcDbEntity
  8
0
100
AcDbLine
 10
3.177165354330708
 20
5.981299212598425
 30
0.0
 11
3.171259842519685
 21
5.99507874015748
 31
0.0
  0
LINE
  5
377A
330
1E
100
AcDbEntity
  8
0
100
AcDbLine
 10
3.171259842519685
 20
5.99507874015748
 30
0.0
 11
3.15748031496063
 21
6.000984251968503
 31
0.0
  0
LINE
  5
377B
330
1E
100
AcDbEntity
  8
0
100
AcDbLine
 10
3.824803149606299
 20
5.554133858267716
 30
0.0
 11
3.833661417322834
 21
5.556102362204724
 31
0.0
  0
LINE
  5
377C
330
1E
100
AcDbEntity
  8
0
100
AcDbLine
 10
3.833661417322834
 20
5.556102362204724
 30
0.0
 11
3.841535433070866
 21
5.562007874015748
 31
0.0
  0
LINE
  5
377D
330
1E
100
AcDbEntity
  8
0
100
AcDbLine
 10
3.206692913385826
 20
6.000984251968503
 30
0.0
 11
3.192913385826771
 21
5.99507874015748
 31
0.0
  0
LINE
  5
377E
330
1E
100
AcDbEntity
  8
0
100
AcDbLine
 10
3.192913385826771
 20
5.99507874015748
 30
0.0
 11
3.187007874015748
 21
5.980314960629921
 31
0.0
  0
ENDSEC
  0
SECTION
  2
OBJECTS
  0
DICTIONARY
  5
C
330
0
100
AcDbDictionary
  3
ACAD_GROUP
350
D
  3
ACAD_MLINESTYLE
350
16
  3
ACAD_PLOTSETTINGS
350
18
  3
ACAD_LAYOUT
350
19
1001
ACAD
1000
TREAT_AS_HARD
1070
     0
  0
DICTIONARY
  5
46D1
330
1E
100
AcDbDictionary
  3
ACAD_LAYOUTSELFREF
350
46D2
  0
DICTIONARY
  5
46CF
330
1A
100
AcDbDictionary
  3
ACAD_LAYOUTSELFREF
350
46D0
  0
DICTIONARY
  5
D
102
{ACAD_REACTORS
330
C
102
}
330
C
100
AcDbDictionary
1001
ACAD
1000
TREAT_AS_HARD
1070
     0
  0
DICTIONARY
  5
16
102
{ACAD_REACTORS
330
C
102
}
330
C
100
AcDbDictionary
  3
STANDARD
350
17
1001
ACAD
1000
TREAT_AS_HARD
1070
     0
  0
DICTIONARY
  5
18
102
{ACAD_REACTORS
330
C
102
}
330
C
100
AcDbDictionary
1001
ACAD
1000
TREAT_AS_HARD
1070
     0
  0
DICTIONARY
  5
19
102
{ACAD_REACTORS
330
C
102
}
330
C
100
AcDbDictionary
1001
ACAD
1000
TREAT_AS_HARD
1070
     0
  0
XRECORD
  5
46D2
102
{ACAD_REACTORS
330
46D1
102
}
330
46D1
100
AcDbXrecord
340
1E
  0
XRECORD
  5
46D0
102
{ACAD_REACTORS
330
46CF
102
}
330
46CF
100
AcDbXrecord
340
1A
  0
MLINESTYLE
  5
17
102
{ACAD_REACTORS
330
16
102
}
330
16
100
AcDbMlineStyle
  2
STANDARD
 70
     0
  3

 62
   256
 51
90.0
 52
90.0
 71
     2
 49
0.5
 62
   256
  6
BYLAYER
 49
-0.5
 62
   256
  6
BYLAYER
  0
ENDSEC
  0
EOF
