  0
SECTION
  2
HEADER
  9
$ACADVER
  1
AC1024
  9
$ACADMAINTVER
 70
    63
  9
$DWGCODEPAGE
  3
ANSI_1252
  9
$LASTSAVEDBY
  1
bjn
  9
$INSBASE
 10
0.0
 20
0.0
 30
0.0
  9
$EXTMIN
 10
-0.5
 20
-0.5
 30
-0.5
  9
$EXTMAX
 10
5.0
 20
5.0
 30
5.0
  9
$LIMMIN
 10
-0.5
 20
-0.5
  9
$LIMMAX
 10
5.0
 20
5.0
  9
$ORTHOMODE
 70
     0
  9
$REGENMODE
 70
     1
  9
$FILLMODE
 70
     1
  9
$QTEXTMODE
 70
     0
  9
$MIRRTEXT
 70
     1
  9
$LTSCALE
 40
1.0
  9
$ATTMODE
 70
     1
  9
$TEXTSIZE
 40
0.2
  9
$TRACEWID
 40
0.05
  9
$TEXTSTYLE
  7
Standard
  9
$CLAYER
  8
0
  9
$CELTYPE
  6
BYLAYER
  9
$CECOLOR
 62
   256
  9
$CELTSCALE
 40
1.0
  9
$DISPSILH
 70
     0
  9
$DIMSCALE
 40
1.0
  9
$DIMASZ
 40
0.18
  9
$DIMEXO
 40
0.0625
  9
$DIMDLI
 40
0.38
  9
$DIMRND
 40
0.0
  9
$DIMDLE
 40
0.0
  9
$DIMEXE
 40
0.18
  9
$DIMTP
 40
0.0
  9
$DIMTM
 40
0.0
  9
$DIMTXT
 40
0.18
  9
$DIMCEN
 40
0.09
  9
$DIMTSZ
 40
0.0
  9
$DIMTOL
 70
     0
  9
$DIMLIM
 70
     0
  9
$DIMTIH
 70
     1
  9
$DIMTOH
 70
     1
  9
$DIMSE1
 70
     0
  9
$DIMSE2
 70
     0
  9
$DIMTAD
 70
     0
  9
$DIMZIN
 70
     0
  9
$DIMBLK
  1

  9
$DIMASO
 70
     1
  9
$DIMSHO
 70
     1
  9
$DIMPOST
  1

  9
$DIMAPOST
  1

  9
$DIMALT
 70
     0
  9
$DIMALTD
 70
     2
  9
$DIMALTF
 40
25.4
  9
$DIMLFAC
 40
1.0
  9
$DIMTOFL
 70
     0
  9
$DIMTVP
 40
0.0
  9
$DIMTIX
 70
     0
  9
$DIMSOXD
 70
     0
  9
$DIMSAH
 70
     0
  9
$DIMBLK1
  1

  9
$DIMBLK2
  1

  9
$DIMSTYLE
  2
Standard
  9
$DIMCLRD
 70
     0
  9
$DIMCLRE
 70
     0
  9
$DIMCLRT
 70
     0
  9
$DIMTFAC
 40
1.0
  9
$DIMGAP
 40
0.09
  9
$DIMJUST
 70
     0
  9
$DIMSD1
 70
     0
  9
$DIMSD2
 70
     0
  9
$DIMTOLJ
 70
     1
  9
$DIMTZIN
 70
     0
  9
$DIMALTZ
 70
     0
  9
$DIMALTTZ
 70
     0
  9
$DIMUPT
 70
     0
  9
$DIMDEC
 70
     4
  9
$DIMTDEC
 70
     4
  9
$DIMALTU
 70
     2
  9
$DIMALTTD
 70
     2
  9
$DIMTXSTY
  7
Standard
  9
$DIMAUNIT
 70
     0
  9
$DIMADEC
 70
     0
  9
$DIMALTRND
 40
0.0
  9
$DIMAZIN
 70
     0
  9
$DIMDSEP
 70
    46
  9
$DIMATFIT
 70
     3
  9
$DIMFRAC
 70
     0
  9
$DIMLDRBLK
  1

  9
$DIMLUNIT
 70
     2
  9
$DIMLWD
 70
    -2
  9
$DIMLWE
 70
    -2
  9
$DIMTMOVE
 70
     0
  9
$DIMFXL
 40
1.0
  9
$DIMFXLON
 70
     0
  9
$DIMJOGANG
 40
0.7853981633974483
  9
$DIMTFILL
 70
     0
  9
$DIMTFILLCLR
 70
     0
  9
$DIMARCSYM
 70
     0
  9
$DIMLTYPE
  6

  9
$DIMLTEX1
  6

  9
$DIMLTEX2
  6

  9
$DIMTXTDIRECTION
 70
     0
  9
$LUNITS
 70
     2
  9
$LUPREC
 70
     4
  9
$SKETCHINC
 40
0.1
  9
$FILLETRAD
 40
0.5
  9
$AUNITS
 70
     0
  9
$AUPREC
 70
     0
  9
$MENU
  1
.
  9
$ELEVATION
 40
0.0
  9
$PELEVATION
 40
0.0
  9
$THICKNESS
 40
0.0
  9
$LIMCHECK
 70
     0
  9
$CHAMFERA
 40
0.0
  9
$CHAMFERB
 40
0.0
  9
$CHAMFERC
 40
0.0
  9
$CHAMFERD
 40
0.0
  9
$SKPOLY
 70
     0
  9
$TDCREATE
 40
2457157.634334676
  9
$TDUCREATE
 40
2457157.842668010
  9
$TDUPDATE
 40
2457157.637620926
  9
$TDUUPDATE
 40
2457157.845954260
  9
$TDINDWG
 40
0.0015483449
  9
$TDUSRTIMER
 40
0.0015483449
  9
$USRTIMER
 70
     1
  9
$ANGBASE
 50
0.0
  9
$ANGDIR
 70
     0
  9
$PDMODE
 70
     0
  9
$PDSIZE
 40
0.0
  9
$PLINEWID
 40
0.0
  9
$SPLFRAME
 70
     0
  9
$SPLINETYPE
 70
     6
  9
$SPLINESEGS
 70
     8
  9
$HANDSEED
  5
A04
  9
$SURFTAB1
 70
     6
  9
$SURFTAB2
 70
     6
  9
$SURFTYPE
 70
     6
  9
$SURFU
 70
     6
  9
$SURFV
 70
     6
  9
$UCSBASE
  2

  9
$UCSNAME
  2

  9
$UCSORG
 10
0.0
 20
0.0
 30
0.0
  9
$UCSXDIR
 10
1.0
 20
0.0
 30
0.0
  9
$UCSYDIR
 10
0.0
 20
1.0
 30
0.0
  9
$UCSORTHOREF
  2

  9
$UCSORTHOVIEW
 70
     0
  9
$UCSORGTOP
 10
0.0
 20
0.0
 30
0.0
  9
$UCSORGBOTTOM
 10
0.0
 20
0.0
 30
0.0
  9
$UCSORGLEFT
 10
0.0
 20
0.0
 30
0.0
  9
$UCSORGRIGHT
 10
0.0
 20
0.0
 30
0.0
  9
$UCSORGFRONT
 10
0.0
 20
0.0
 30
0.0
  9
$UCSORGBACK
 10
0.0
 20
0.0
 30
0.0
  9
$PUCSBASE
  2

  9
$PUCSNAME
  2

  9
$PUCSORG
 10
0.0
 20
0.0
 30
0.0
  9
$PUCSXDIR
 10
1.0
 20
0.0
 30
0.0
  9
$PUCSYDIR
 10
0.0
 20
1.0
 30
0.0
  9
$PUCSORTHOREF
  2

  9
$PUCSORTHOVIEW
 70
     0
  9
$PUCSORGTOP
 10
0.0
 20
0.0
 30
0.0
  9
$PUCSORGBOTTOM
 10
0.0
 20
0.0
 30
0.0
  9
$PUCSORGLEFT
 10
0.0
 20
0.0
 30
0.0
  9
$PUCSORGRIGHT
 10
0.0
 20
0.0
 30
0.0
  9
$PUCSORGFRONT
 10
0.0
 20
0.0
 30
0.0
  9
$PUCSORGBACK
 10
0.0
 20
0.0
 30
0.0
  9
$USERI1
 70
     0
  9
$USERI2
 70
     0
  9
$USERI3
 70
     0
  9
$USERI4
 70
     0
  9
$USERI5
 70
     0
  9
$USERR1
 40
0.0
  9
$USERR2
 40
0.0
  9
$USERR3
 40
0.0
  9
$USERR4
 40
0.0
  9
$USERR5
 40
0.0
  9
$WORLDVIEW
 70
     1
  9
$SHADEDGE
 70
     3
  9
$SHADEDIF
 70
    70
  9
$TILEMODE
 70
     0
  9
$MAXACTVP
 70
    64
  9
$PINSBASE
 10
0.0
 20
0.0
 30
0.0
  9
$PLIMCHECK
 70
     0
  9
$PEXTMIN
 10
1.284530666755202
 20
4.081390405401343
 30
-0.0015258207003583
  9
$PEXTMAX
 10
6.205795308116123
 20
7.467201251498423
 30
0.0000000349246037
  9
$PLIMMIN
 10
0.0
 20
0.0
  9
$PLIMMAX
 10
11.0
 20
8.5
  9
$UNITMODE
 70
     0
  9
$VISRETAIN
 70
     1
  9
$PLINEGEN
 70
     0
  9
$PSLTSCALE
 70
     1
  9
$TREEDEPTH
 70
  3020
  9
$CMLSTYLE
  2
Standard
  9
$CMLJUST
 70
     0
  9
$CMLSCALE
 40
1.0
  9
$PROXYGRAPHICS
 70
     1
  9
$MEASUREMENT
 70
     0
  9
$CELWEIGHT
370
    18
  9
$ENDCAPS
280
     0
  9
$JOINSTYLE
280
     0
  9
$LWDISPLAY
290
     0
  9
$INSUNITS
 70
     1
  9
$HYPERLINKBASE
  1

  9
$STYLESHEET
  1

  9
$XEDIT
290
     1
  9
$CEPSNTYPE
380
     0
  9
$PSTYLEMODE
290
     1
  9
$FINGERPRINTGUID
  2
{79064F94-8B02-445A-BA45-09E8DA616461}
  9
$VERSIONGUID
  2
{9429816A-8415-43AF-8573-B27E452CABD4}
  9
$EXTNAMES
290
     1
  9
$PSVPSCALE
 40
0.0
  9
$OLESTARTUP
290
     0
  9
$SORTENTS
280
   127
  9
$INDEXCTL
280
     0
  9
$HIDETEXT
280
     1
  9
$XCLIPFRAME
280
     0
  9
$HALOGAP
280
     0
  9
$OBSCOLOR
 70
   257
  9
$OBSLTYPE
280
     0
  9
$INTERSECTIONDISPLAY
280
     0
  9
$INTERSECTIONCOLOR
 70
   257
  9
$DIMASSOC
280
     2
  9
$PROJECTNAME
  1

  9
$CAMERADISPLAY
290
     0
  9
$LENSLENGTH
 40
50.0
  9
$CAMERAHEIGHT
 40
0.0
  9
$STEPSPERSEC
 40
2.0
  9
$STEPSIZE
 40
6.0
  9
$3DDWFPREC
 40
2.0
  9
$PSOLWIDTH
 40
0.25
  9
$PSOLHEIGHT
 40
4.0
  9
$LOFTANG1
 40
1.570796326794896
  9
$LOFTANG2
 40
1.570796326794896
  9
$LOFTMAG1
 40
0.0
  9
$LOFTMAG2
 40
0.0
  9
$LOFTPARAM
 70
     7
  9
$LOFTNORMALS
280
     1
  9
$LATITUDE
 40
37.795
  9
$LONGITUDE
 40
-122.394
  9
$NORTHDIRECTION
 40
0.0
  9
$TIMEZONE
 70
 -8000
  9
$LIGHTGLYPHDISPLAY
280
     1
  9
$TILEMODELIGHTSYNCH
280
     1
  9
$CMATERIAL
347
44
  9
$SOLIDHIST
280
     0
  9
$SHOWHIST
280
     1
  9
$DWFFRAME
280
     2
  9
$DGNFRAME
280
     0
  9
$REALWORLDSCALE
290
     1
  9
$INTERFERECOLOR
 62
     1
  9
$INTERFEREOBJVS
345
33
  9
$INTERFEREVPVS
346
30
  9
$CSHADOW
280
     0
  9
$SHADOWPLANELOCATION
 40
0.0
  0
ENDSEC
  0
SECTION
  2
CLASSES
  0
CLASS
  1
ACDBDICTIONARYWDFLT
  2
AcDbDictionaryWithDefault
  3
ObjectDBX Classes
 90
        0
 91
        1
280
     0
281
     0
  0
CLASS
  1
VISUALSTYLE
  2
AcDbVisualStyle
  3
ObjectDBX Classes
 90
     4095
 91
       24
280
     0
281
     0
  0
CLASS
  1
MATERIAL
  2
AcDbMaterial
  3
ObjectDBX Classes
 90
     1153
 91
        3
280
     0
281
     0
  0
CLASS
  1
SCALE
  2
AcDbScale
  3
ObjectDBX Classes
 90
     1153
 91
       33
280
     0
281
     0
  0
CLASS
  1
SUN
  2
AcDbSun
  3
SCENEOE
 90
     1153
 91
        1
280
     0
281
     0
  0
CLASS
  1
DICTIONARYVAR
  2
AcDbDictionaryVar
  3
ObjectDBX Classes
 90
        0
 91
       13
280
     0
281
     0
  0
CLASS
  1
TABLESTYLE
  2
AcDbTableStyle
  3
ObjectDBX Classes
 90
     4095
 91
        1
280
     0
281
     0
  0
CLASS
  1
MLEADERSTYLE
  2
AcDbMLeaderStyle
  3
ACDB_MLEADERSTYLE_CLASS
 90
     4095
 91
        1
280
     0
281
     0
  0
CLASS
  1
EXACXREFPANELOBJECT
  2
ExAcXREFPanelObject
  3
EXAC_ESW
 90
     1025
 91
        1
280
     0
281
     0
  0
CLASS
  1
NPOCOLLECTION
  2
AcDbImpNonPersistentObjectsCollection
  3
ObjectDBX Classes
 90
     1153
 91
        1
280
     0
281
     0
  0
CLASS
  1
CELLSTYLEMAP
  2
AcDbCellStyleMap
  3
ObjectDBX Classes
 90
     1152
 91
        1
280
     0
281
     0
  0
ENDSEC
  0
SECTION
  2
TABLES
  0
TABLE
  2
VPORT
  5
8
102
{ACAD_XDICTIONARY
360
9AB
102
}
330
0
100
AcDbSymbolTable
 70
    17
  0
VPORT
  5
29
330
8
100
AcDbSymbolTableRecord
100
AcDbViewportTableRecord
  2
DUMMY
 70
     0
 10
0.0
 20
0.0
 11
1.0
 21
1.0
 12
10.42990654205607
 22
4.5
 13
0.0
 23
0.0
 14
0.5
 24
0.5
 15
0.5
 25
0.5
 16
0.0
 26
0.0
 36
1.0
 17
0.0
 27
0.0
 37
0.0
 40
9.0
 41
1.972972972850328
 42
50.0
 43
0.0
 44
0.0
 50
0.0
 51
0.0
 71
     0
 72
   100
 73
     1
 74
     3
 75
     0
 76
     0
 77
     0
 78
     0
281
     0
 65
     1
110
0.0
120
0.0
130
0.0
111
1.0
121
0.0
131
0.0
112
0.0
122
1.0
132
0.0
 79
     0
146
0.0
348
2F
 60
     3
 61
     5
292
     1
282
     1
141
0.0
142
0.0
 63
   250
421
  3355443
361
69
  0
VPORT
  5
933
330
8
100
AcDbSymbolTableRecord
100
AcDbViewportTableRecord
  2
*ACTIVE
 70
     0
 10
0.0
 20
0.0
 11
1.0
 21
1.0
 12
-0.0459321233481146
 22
-0.1348047049912146
 13
0.0
 23
0.0
 14
0.5
 24
0.5
 15
0.5
 25
0.5
 16
0.7188730927569435
 26
-0.5850486126764432
 36
0.3754192287502549
 17
0.0
 27
0.0
 37
0.0
 40
63.29340208617734
 41
0.2805467263629815
 42
50.0
 43
9.946207698039657
 44
-9.946207698039657
 50
0.0
 51
0.0
 71
     0
 72
   100
 73
     1
 74
     3
 75
     0
 76
     0
 77
     0
 78
     0
281
     0
 65
     1
110
0.0
120
0.0
130
0.0
111
1.0
121
0.0
131
0.0
112
0.0
122
1.0
132
0.0
 79
     0
146
0.0
348
2F
 60
     3
 61
     5
292
     1
282
     1
141
0.0
142
0.0
 63
   250
421
  3355443
  0
VPORT
  5
934
330
8
100
AcDbSymbolTableRecord
100
AcDbViewportTableRecord
  2
L1
 70
     0
 10
0.0
 20
0.0
 11
1.0
 21
1.0
 12
-0.0459321233481146
 22
-0.1348047049912146
 13
0.0
 23
0.0
 14
0.5
 24
0.5
 15
0.5
 25
0.5
 16
0.7188730927569435
 26
-0.5850486126764432
 36
0.3754192287502549
 17
0.0
 27
0.0
 37
0.0
 40
63.29340208617734
 41
0.2805467263629815
 42
50.0
 43
9.946207698039657
 44
-9.946207698039657
 50
0.0
 51
0.0
 71
     0
 72
   100
 73
     1
 74
     3
 75
     0
 76
     0
 77
     0
 78
     0
281
     0
 65
     1
110
0.0
120
0.0
130
0.0
111
1.0
121
0.0
131
0.0
112
0.0
122
1.0
132
0.0
 79
     0
146
0.0
348
2F
 60
     3
 61
     5
292
     1
282
     1
141
0.0
142
0.0
 63
   250
421
  3355443
  0
VPORT
  5
935
330
8
100
AcDbSymbolTableRecord
100
AcDbViewportTableRecord
  2
L2
 70
     0
 10
0.0
 20
0.0
 11
0.5
 21
1.0
 12
0.0
 22
0.0
 13
0.0
 23
0.0
 14
0.5
 24
0.5
 15
0.5
 25
0.5
 16
0.0
 26
-1.0
 36
0.0
 17
0.0
 27
0.0
 37
0.0
 40
61.08217576807053
 41
0.2907027546476978
 42
50.0
 43
31.45334583460261
 44
-31.45334583460261
 50
0.0
 51
0.0
 71
     0
 72
   100
 73
     1
 74
     3
 75
     0
 76
     0
 77
     0
 78
     0
281
     0
 65
     1
110
0.0
120
0.0
130
0.0
111
1.0
121
0.0
131
0.0
112
0.0
122
1.0
132
0.0
 79
     0
146
0.0
348
2F
 60
     3
 61
     5
292
     1
282
     1
141
0.0
142
0.0
 63
   250
421
  3355443
  0
VPORT
  5
936
330
8
100
AcDbSymbolTableRecord
100
AcDbViewportTableRecord
  2
L2
 70
     0
 10
0.5
 20
0.0
 11
1.0
 21
1.0
 12
0.0
 22
0.0
 13
0.0
 23
0.0
 14
0.5
 24
0.5
 15
0.5
 25
0.5
 16
1.0
 26
0.0
 36
0.0
 17
0.0
 27
0.0
 37
0.0
 40
61.08217576807053
 41
0.2907027546476978
 42
50.0
 43
30.92410844687201
 44
-30.92410844687201
 50
0.0
 51
0.0
 71
     0
 72
   100
 73
     1
 74
     3
 75
     0
 76
     0
 77
     0
 78
     0
281
     0
 65
     1
110
0.0
120
0.0
130
0.0
111
1.0
121
0.0
131
0.0
112
0.0
122
1.0
132
0.0
 79
     0
146
0.0
348
2F
 60
     3
 61
     5
292
     1
282
     1
141
0.0
142
0.0
 63
   250
421
  3355443
  0
VPORT
  5
937
330
8
100
AcDbSymbolTableRecord
100
AcDbViewportTableRecord
  2
L3
 70
     0
 10
0.0
 20
0.5
 11
1.0
 21
1.0
 12
0.0
 22
0.0
 13
0.0
 23
0.0
 14
0.5
 24
0.5
 15
0.5
 25
0.5
 16
0.0
 26
0.0
 36
1.0
 17
0.0
 27
0.0
 37
0.0
 40
9.704109251968503
 41
1.829818306306779
 42
50.0
 43
30.54108788403527
 44
-30.54108788403527
 50
0.0
 51
0.0
 71
     0
 72
   100
 73
     1
 74
     3
 75
     0
 76
     0
 77
     0
 78
     0
281
     0
 65
     1
110
0.0
120
0.0
130
0.0
111
1.0
121
0.0
131
0.0
112
0.0
122
1.0
132
0.0
 79
     0
146
0.0
348
2F
 60
     3
 61
     5
292
     1
282
     1
141
0.0
142
0.0
 63
   250
421
  3355443
  0
VPORT
  5
938
330
8
100
AcDbSymbolTableRecord
100
AcDbViewportTableRecord
  2
L3
 70
     0
 10
0.0
 20
0.0
 11
1.0
 21
0.5
 12
0.0
 22
0.0
 13
0.0
 23
0.0
 14
0.5
 24
0.5
 15
0.5
 25
0.5
 16
0.0
 26
-1.0
 36
0.0
 17
0.0
 27
0.0
 37
0.0
 40
61.08217576807053
 41
0.2907027546476978
 42
50.0
 43
31.45334583460261
 44
-31.45334583460261
 50
0.0
 51
0.0
 71
     0
 72
   100
 73
     1
 74
     3
 75
     0
 76
     0
 77
     0
 78
     0
281
     0
 65
     1
110
0.0
120
0.0
130
0.0
111
1.0
121
0.0
131
0.0
112
0.0
122
1.0
132
0.0
 79
     0
146
0.0
348
2F
 60
     3
 61
     5
292
     1
282
     1
141
0.0
142
0.0
 63
   250
421
  3355443
  0
VPORT
  5
939
330
8
100
AcDbSymbolTableRecord
100
AcDbViewportTableRecord
  2
L4
 70
     0
 10
0.0
 20
0.5
 11
0.5
 21
1.0
 12
0.0
 22
0.0
 13
0.0
 23
0.0
 14
0.5
 24
0.5
 15
0.5
 25
0.5
 16
0.0
 26
0.0
 36
1.0
 17
0.0
 27
0.0
 37
0.0
 40
9.704109251968503
 41
1.829818306306779
 42
50.0
 43
30.54108788403527
 44
-30.54108788403527
 50
0.0
 51
0.0
 71
     0
 72
   100
 73
     1
 74
     3
 75
     0
 76
     0
 77
     0
 78
     0
281
     0
 65
     1
110
0.0
120
0.0
130
0.0
111
1.0
121
0.0
131
0.0
112
0.0
122
1.0
132
0.0
 79
     0
146
0.0
348
2F
 60
     3
 61
     5
292
     1
282
     1
141
0.0
142
0.0
 63
   250
421
  3355443
  0
VPORT
  5
93A
330
8
100
AcDbSymbolTableRecord
100
AcDbViewportTableRecord
  2
L4
 70
     0
 10
0.0
 20
0.0
 11
0.5
 21
0.5
 12
0.0
 22
0.0
 13
0.0
 23
0.0
 14
0.5
 24
0.5
 15
0.5
 25
0.5
 16
0.0
 26
-1.0
 36
0.0
 17
0.0
 27
0.0
 37
0.0
 40
61.08217576807053
 41
0.2907027546476978
 42
50.0
 43
31.45334583460261
 44
-31.45334583460261
 50
0.0
 51
0.0
 71
     0
 72
   100
 73
     1
 74
     3
 75
     0
 76
     0
 77
     0
 78
     0
281
     0
 65
     1
110
0.0
120
0.0
130
0.0
111
1.0
121
0.0
131
0.0
112
0.0
122
1.0
132
0.0
 79
     0
146
0.0
348
2F
 60
     3
 61
     5
292
     1
282
     1
141
0.0
142
0.0
 63
   250
421
  3355443
  0
VPORT
  5
93B
330
8
100
AcDbSymbolTableRecord
100
AcDbViewportTableRecord
  2
L4
 70
     0
 10
0.5
 20
0.0
 11
1.0
 21
0.5
 12
0.0
 22
0.0
 13
0.0
 23
0.0
 14
0.5
 24
0.5
 15
0.5
 25
0.5
 16
1.0
 26
0.0
 36
0.0
 17
0.0
 27
0.0
 37
0.0
 40
61.08217576807053
 41
0.2907027546476978
 42
50.0
 43
30.92410844687201
 44
-30.92410844687201
 50
0.0
 51
0.0
 71
     0
 72
   100
 73
     1
 74
     3
 75
     0
 76
     0
 77
     0
 78
     0
281
     0
 65
     1
110
0.0
120
0.0
130
0.0
111
1.0
121
0.0
131
0.0
112
0.0
122
1.0
132
0.0
 79
     0
146
0.0
348
2F
 60
     3
 61
     5
292
     1
282
     1
141
0.0
142
0.0
 63
   250
421
  3355443
  0
VPORT
  5
93C
330
8
100
AcDbSymbolTableRecord
100
AcDbViewportTableRecord
  2
L4
 70
     0
 10
0.5
 20
0.5
 11
1.0
 21
1.0
 12
0.0
 22
0.0
 13
0.0
 23
0.0
 14
0.5
 24
0.5
 15
0.5
 25
0.5
 16
0.5773502691896259
 26
-0.5773502691896259
 36
0.5773502691896259
 17
0.0
 27
0.0
 37
0.0
 40
59.97537308112513
 41
0.2960674664188323
 42
50.0
 43
31.23778042669
 44
-31.23778042669
 50
0.0
 51
0.0
 71
     0
 72
   100
 73
     1
 74
     3
 75
     0
 76
     0
 77
     0
 78
     0
281
     0
 65
     1
110
0.0
120
0.0
130
0.0
111
1.0
121
0.0
131
0.0
112
0.0
122
1.0
132
0.0
 79
     0
146
0.0
348
2F
 60
     3
 61
     5
292
     1
282
     1
141
0.0
142
0.0
 63
   250
421
  3355443
  0
VPORT
  5
93D
330
8
100
AcDbSymbolTableRecord
100
AcDbViewportTableRecord
  2
L6
 70
     0
 10
0.0
 20
0.5
 11
0.3333333333333334
 21
1.0
 12
-0.0459321233481146
 22
-0.1348047049912146
 13
0.0
 23
0.0
 14
0.5
 24
0.5
 15
0.5
 25
0.5
 16
0.7188730927569435
 26
-0.5850486126764432
 36
0.3754192287502549
 17
0.0
 27
0.0
 37
0.0
 40
63.29340208617734
 41
0.2805467263629815
 42
50.0
 43
9.946207698039657
 44
-9.946207698039657
 50
0.0
 51
0.0
 71
     0
 72
   100
 73
     1
 74
     3
 75
     0
 76
     0
 77
     0
 78
     0
281
     0
 65
     1
110
0.0
120
0.0
130
0.0
111
1.0
121
0.0
131
0.0
112
0.0
122
1.0
132
0.0
 79
     0
146
0.0
348
2F
 60
     3
 61
     5
292
     1
282
     1
141
0.0
142
0.0
 63
   250
421
  3355443
  0
VPORT
  5
93E
330
8
100
AcDbSymbolTableRecord
100
AcDbViewportTableRecord
  2
L6
 70
     0
 10
0.0
 20
0.0
 11
0.3333333333333334
 21
0.5
 12
0.0
 22
0.0
 13
0.0
 23
0.0
 14
0.5
 24
0.5
 15
0.5
 25
0.5
 16
-1.0
 26
0.0
 36
0.0
 17
0.0
 27
0.0
 37
0.0
 40
61.08217576807053
 41
0.2907027546476978
 42
50.0
 43
30.92410844687201
 44
-30.92410844687201
 50
0.0
 51
0.0
 71
     0
 72
   100
 73
     1
 74
     3
 75
     0
 76
     0
 77
     0
 78
     0
281
     0
 65
     1
110
0.0
120
0.0
130
0.0
111
1.0
121
0.0
131
0.0
112
0.0
122
1.0
132
0.0
 79
     0
146
0.0
348
2F
 60
     3
 61
     5
292
     1
282
     1
141
0.0
142
0.0
 63
   250
421
  3355443
  0
VPORT
  5
93F
330
8
100
AcDbSymbolTableRecord
100
AcDbViewportTableRecord
  2
L6
 70
     0
 10
0.3333333333333334
 20
0.5
 11
0.6666666666666666
 21
1.0
 12
0.0
 22
0.0
 13
0.0
 23
0.0
 14
0.5
 24
0.5
 15
0.5
 25
0.5
 16
0.0
 26
0.0
 36
1.0
 17
0.0
 27
0.0
 37
0.0
 40
9.704109251968503
 41
1.829818306306779
 42
50.0
 43
30.54108788403527
 44
-30.54108788403527
 50
0.0
 51
0.0
 71
     0
 72
   100
 73
     1
 74
     3
 75
     0
 76
     0
 77
     0
 78
     0
281
     0
 65
     1
110
0.0
120
0.0
130
0.0
111
1.0
121
0.0
131
0.0
112
0.0
122
1.0
132
0.0
 79
     0
146
0.0
348
2F
 60
     3
 61
     5
292
     1
282
     1
141
0.0
142
0.0
 63
   250
421
  3355443
  0
VPORT
  5
940
330
8
100
AcDbSymbolTableRecord
100
AcDbViewportTableRecord
  2
L6
 70
     0
 10
0.3333333333333334
 20
0.0
 11
0.6666666666666666
 21
0.5
 12
0.0
 22
0.0
 13
0.0
 23
0.0
 14
0.5
 24
0.5
 15
0.5
 25
0.5
 16
0.0
 26
-1.0
 36
0.0
 17
0.0
 27
0.0
 37
0.0
 40
61.08217576807053
 41
0.2907027546476978
 42
50.0
 43
31.45334583460261
 44
-31.45334583460261
 50
0.0
 51
0.0
 71
     0
 72
   100
 73
     1
 74
     3
 75
     0
 76
     0
 77
     0
 78
     0
281
     0
 65
     1
110
0.0
120
0.0
130
0.0
111
1.0
121
0.0
131
0.0
112
0.0
122
1.0
132
0.0
 79
     0
146
0.0
348
2F
 60
     3
 61
     5
292
     1
282
     1
141
0.0
142
0.0
 63
   250
421
  3355443
  0
VPORT
  5
941
330
8
100
AcDbSymbolTableRecord
100
AcDbViewportTableRecord
  2
L6
 70
     0
 10
0.6666666666666666
 20
0.5
 11
1.0
 21
1.0
 12
0.0
 22
0.0
 13
0.0
 23
0.0
 14
0.5
 24
0.5
 15
0.5
 25
0.5
 16
0.5773502691896259
 26
-0.5773502691896259
 36
0.5773502691896259
 17
0.0
 27
0.0
 37
0.0
 40
59.97537308112513
 41
0.2960674664188323
 42
50.0
 43
31.23778042669
 44
-31.23778042669
 50
0.0
 51
0.0
 71
     0
 72
   100
 73
     1
 74
     3
 75
     0
 76
     0
 77
     0
 78
     0
281
     0
 65
     1
110
0.0
120
0.0
130
0.0
111
1.0
121
0.0
131
0.0
112
0.0
122
1.0
132
0.0
 79
     0
146
0.0
348
2F
 60
     3
 61
     5
292
     1
282
     1
141
0.0
142
0.0
 63
   250
421
  3355443
  0
VPORT
  5
942
330
8
100
AcDbSymbolTableRecord
100
AcDbViewportTableRecord
  2
L6
 70
     0
 10
0.6666666666666666
 20
0.0
 11
1.0
 21
0.5
 12
0.0
 22
0.0
 13
0.0
 23
0.0
 14
0.5
 24
0.5
 15
0.5
 25
0.5
 16
1.0
 26
0.0
 36
0.0
 17
0.0
 27
0.0
 37
0.0
 40
61.08217576807053
 41
0.2907027546476978
 42
50.0
 43
30.92410844687201
 44
-30.92410844687201
 50
0.0
 51
0.0
 71
     0
 72
   100
 73
     1
 74
     3
 75
     0
 76
     0
 77
     0
 78
     0
281
     0
 65
     1
110
0.0
120
0.0
130
0.0
111
1.0
121
0.0
131
0.0
112
0.0
122
1.0
132
0.0
 79
     0
146
0.0
348
2F
 60
     3
 61
     5
292
     1
282
     1
141
0.0
142
0.0
 63
   250
421
  3355443
  0
ENDTAB
  0
TABLE
  2
LTYPE
  5
5
330
0
100
AcDbSymbolTable
 70
     6
  0
LTYPE
  5
14
330
5
100
AcDbSymbolTableRecord
100
AcDbLinetypeTableRecord
  2
BYBLOCK
 70
     0
  3

 72
    65
 73
     0
 40
0.0
  0
LTYPE
  5
15
330
5
100
AcDbSymbolTableRecord
100
AcDbLinetypeTableRecord
  2
BYLAYER
 70
     0
  3

 72
    65
 73
     0
 40
0.0
  0
LTYPE
  5
16
330
5
100
AcDbSymbolTableRecord
100
AcDbLinetypeTableRecord
  2
CONTINUOUS
 70
     0
  3
Solid line
 72
    65
 73
     0
 40
0.0
  0
LTYPE
  5
6C
330
5
100
AcDbSymbolTableRecord
100
AcDbLinetypeTableRecord
  2
CENTER
 70
     0
  3
____ _ ____ _ ____ _ ____
 72
    65
 73
     4
 40
47.4
 49
22.0
 74
     4
 75
     0
340
0
 46
0.0
 50
0.0
 44
0.0
 45
0.0
 49
-8.5
 74
     4
 75
     0
340
0
 46
0.0
 50
0.0
 44
0.0
 45
0.0
 49
8.5
 74
     4
 75
     0
340
0
 46
0.0
 50
0.0
 44
0.0
 45
0.0
 49
-8.5
 74
     4
 75
     0
340
0
 46
0.0
 50
0.0
 44
0.0
 45
0.0
  0
LTYPE
  5
6D
330
5
100
AcDbSymbolTableRecord
100
AcDbLinetypeTableRecord
  2
DASHDOT
 70
     0
  3
_._._._._._._._._._._._._._._._.
 72
    65
 73
     4
 40
70.0
 49
31.0
 74
     4
 75
     0
340
0
 46
0.0
 50
0.0
 44
0.0
 45
0.0
 49
-13.0
 74
     4
 75
     0
340
0
 46
0.0
 50
0.0
 44
0.0
 45
0.0
 49
13.0
 74
     4
 75
     0
340
0
 46
0.0
 50
0.0
 44
0.0
 45
0.0
 49
-13.0
 74
     4
 75
     0
340
0
 46
0.0
 50
0.0
 44
0.0
 45
0.0
  0
LTYPE
  5
6E
330
5
100
AcDbSymbolTableRecord
100
AcDbLinetypeTableRecord
  2
DASHED
 70
     0
  3
__ __ __ __ __ __ __ __ __
 72
    65
 73
     2
 40
25.72
 49
12.86
 74
     4
 75
     0
340
0
 46
0.0
 50
0.0
 44
0.0
 45
0.0
 49
-12.86
 74
     4
 75
     0
340
0
 46
0.0
 50
0.0
 44
0.0
 45
0.0
  0
LTYPE
  5
6F
330
5
100
AcDbSymbolTableRecord
100
AcDbLinetypeTableRecord
  2
DOT
 70
     0
  3
.........................
 72
    65
 73
     2
 40
10.0
 49
0.0
 74
     4
 75
     0
340
0
 46
0.0
 50
0.0
 44
0.0
 45
0.0
 49
-10.0
 74
     4
 75
     0
340
0
 46
0.0
 50
0.0
 44
0.0
 45
0.0
  0
LTYPE
  5
70
330
5
100
AcDbSymbolTableRecord
100
AcDbLinetypeTableRecord
  2
PHANTOM
 70
     0
  3
____ _ _ ____ _ _ _____ _ _ ____
 72
    65
 73
     6
 40
50.5
 49
18.0
 74
     4
 75
     0
340
0
 46
0.0
 50
0.0
 44
0.0
 45
0.0
 49
-6.5
 74
     4
 75
     0
340
0
 46
0.0
 50
0.0
 44
0.0
 45
0.0
 49
6.5
 74
     4
 75
     0
340
0
 46
0.0
 50
0.0
 44
0.0
 45
0.0
 49
-6.5
 74
     4
 75
     0
340
0
 46
0.0
 50
0.0
 44
0.0
 45
0.0
 49
6.5
 74
     4
 75
     0
340
0
 46
0.0
 50
0.0
 44
0.0
 45
0.0
 49
-6.5
 74
     4
 75
     0
340
0
 46
0.0
 50
0.0
 44
0.0
 45
0.0
  0
ENDTAB
  0
TABLE
  2
LAYER
  5
2
330
0
100
AcDbSymbolTable
 70
     6
  0
LAYER
  5
10
330
2
100
AcDbSymbolTableRecord
100
AcDbLayerTableRecord
  2
0
 70
     0
 62
     7
  6
CONTINUOUS
370
    -3
390
F
347
46
  0
LAYER
  5
71
330
2
100
AcDbSymbolTableRecord
100
AcDbLayerTableRecord
  2
FRONT$2
 70
     0
 62
     7
420
 16777215
  6
CONTINUOUS
370
    -3
390
F
347
46
  0
LAYER
  5
72
330
2
100
AcDbSymbolTableRecord
100
AcDbLayerTableRecord
  2
ORTHO$3
 70
     0
 62
     7
420
 16777215
  6
CONTINUOUS
370
    -3
390
F
347
46
  0
LAYER
  5
73
330
2
100
AcDbSymbolTableRecord
100
AcDbLayerTableRecord
  2
TFR-TRI$5
 70
     0
 62
     7
420
 16777215
  6
CONTINUOUS
370
    -3
390
F
347
46
  0
LAYER
  5
74
330
2
100
AcDbSymbolTableRecord
100
AcDbLayerTableRecord
  2
1
 70
     0
 62
     7
420
 16777215
  6
CONTINUOUS
370
    -3
390
F
347
46
  0
LAYER
  5
947
330
2
100
AcDbSymbolTableRecord
100
AcDbLayerTableRecord
  2
XREF001I$
 70
     0
 62
     7
420
 16777215
  6
CONTINUOUS
370
    -3
390
F
347
46
  0
ENDTAB
  0
TABLE
  2
STYLE
  5
3
330
0
100
AcDbSymbolTable
 70
     5
  0
STYLE
  5
11
330
3
100
AcDbSymbolTableRecord
100
AcDbTextStyleTableRecord
  2
Standard
 70
     0
 40
0.0
 41
1.0
 50
0.0
 71
     0
 42
0.2
  3
txt
  4

  0
STYLE
  5
8CE
330
3
100
AcDbSymbolTableRecord
100
AcDbTextStyleTableRecord
  2
blockfont
 70
     0
 40
0.0
 41
1.0
 50
0.0
 71
     0
 42
0.2
  3
simplex.shx
  4

  0
STYLE
  5
8CF
330
3
100
AcDbSymbolTableRecord
100
AcDbTextStyleTableRecord
  2
DWGDirectTextStyle
 70
     0
 40
0.0
 41
1.0
 50
0.0
 71
     0
 42
0.2
  3
simplex
  4

  0
STYLE
  5
8ED
330
3
100
AcDbSymbolTableRecord
100
AcDbTextStyleTableRecord
  2
blackfont
 70
     0
 40
0.0
 41
1.0
 50
0.0
 71
     0
 42
0.2
  3
simplex.shx
  4

  0
STYLE
  5
8F6
330
3
100
AcDbSymbolTableRecord
100
AcDbTextStyleTableRecord
  2
helios
 70
     0
 40
0.0
 41
1.0
 50
0.0
 71
     0
 42
0.2
  3
Monospac821 BT
  4

1001
ACAD
1000
Monospac821 BT
1071
        0
  0
ENDTAB
  0
TABLE
  2
VIEW
  5
6
330
0
100
AcDbSymbolTable
 70
     8
  0
VIEW
  5
75
330
6
100
AcDbSymbolTableRecord
100
AcDbViewTableRecord
  2
Top
 70
     0
 40
9.704109251968503
 10
0.0
 20
0.0
 41
15.04060039370078
 11
0.0
 21
0.0
 31
1.0
 12
0.0
 22
0.0
 32
0.0
 42
50.0
 43
30.54108788403527
 44
-30.54108788403527
 50
0.0
 71
     0
281
     0
 72
     0
 73
     0
348
2F
  0
VIEW
  5
76
330
6
100
AcDbSymbolTableRecord
100
AcDbViewTableRecord
  2
Front
 70
     0
 40
61.08217576807053
 10
0.0
 20
0.0
 41
15.04060039370078
 11
0.0
 21
-1.0
 31
0.0
 12
0.0
 22
0.0
 32
0.0
 42
50.0
 43
31.45334583460261
 44
-31.45334583460261
 50
0.0
 71
     0
281
     0
 72
     0
 73
     0
348
2F
  0
VIEW
  5
77
330
6
100
AcDbSymbolTableRecord
100
AcDbViewTableRecord
  2
Right
 70
     0
 40
61.08217576807053
 10
0.0
 20
0.0
 41
9.704109251968503
 11
1.0
 21
0.0
 31
0.0
 12
0.0
 22
0.0
 32
0.0
 42
50.0
 43
30.92410844687201
 44
-30.92410844687201
 50
0.0
 71
     0
281
     0
 72
     0
 73
     0
348
2F
  0
VIEW
  5
78
330
6
100
AcDbSymbolTableRecord
100
AcDbViewTableRecord
  2
Back
 70
     0
 40
61.08217576807053
 10
0.0
 20
0.0
 41
15.04060039370078
 11
0.0
 21
1.0
 31
0.0
 12
0.0
 22
0.0
 32
0.0
 42
50.0
 43
31.45334583460261
 44
-31.45334583460261
 50
0.0
 71
     0
281
     0
 72
     0
 73
     0
348
2F
  0
VIEW
  5
79
330
6
100
AcDbSymbolTableRecord
100
AcDbViewTableRecord
  2
Bottom
 70
     0
 40
9.704109251968503
 10
0.0
 20
0.0
 41
15.04060039370078
 11
0.0
 21
0.0
 31
-1.0
 12
0.0
 22
0.0
 32
0.0
 42
50.0
 43
30.54108788403527
 44
-30.54108788403527
 50
180.0
 71
     0
281
     0
 72
     0
 73
     0
348
2F
  0
VIEW
  5
7A
330
6
100
AcDbSymbolTableRecord
100
AcDbViewTableRecord
  2
Left
 70
     0
 40
61.08217576807053
 10
0.0
 20
0.0
 41
9.704109251968503
 11
-1.0
 21
0.0
 31
0.0
 12
0.0
 22
0.0
 32
0.0
 42
50.0
 43
30.92410844687201
 44
-30.92410844687201
 50
0.0
 71
     0
281
     0
 72
     0
 73
     0
348
2F
  0
VIEW
  5
7B
330
6
100
AcDbSymbolTableRecord
100
AcDbViewTableRecord
  2
Isometric
 70
     0
 40
59.97537308112513
 10
0.0
 20
0.0
 41
17.49715198894493
 11
0.5773502691896259
 21
-0.5773502691896259
 31
0.5773502691896259
 12
0.0
 22
0.0
 32
0.0
 42
50.0
 43
31.23778042669
 44
-31.23778042669
 50
0.0
 71
     0
281
     0
 72
     0
 73
     0
348
2F
  0
VIEW
  5
7C
330
6
100
AcDbSymbolTableRecord
100
AcDbViewTableRecord
  2
Trimetric
 70
     0
 40
63.29340208617734
 10
0.0
 20
0.0
 41
17.02046542463008
 11
0.7188730927569435
 21
-0.5850486126764432
 31
0.3754192287502549
 12
0.0
 22
0.0
 32
0.0
 42
50.0
 43
32.77098942248139
 44
-32.77098942248139
 50
0.0
 71
     0
281
     0
 72
     0
 73
     0
348
2F
  0
ENDTAB
  0
TABLE
  2
UCS
  5
7
330
0
100
AcDbSymbolTable
 70
     0
  0
ENDTAB
  0
TABLE
  2
APPID
  5
9
330
0
100
AcDbSymbolTable
 70
     1
  0
APPID
  5
12
330
9
100
AcDbSymbolTableRecord
100
AcDbRegAppTableRecord
  2
ACAD
 70
     0
  0
ENDTAB
  0
TABLE
  2
DIMSTYLE
  5
A
330
0
100
AcDbSymbolTable
 70
     1
100
AcDbDimStyleTable
 71
     0
  0
DIMSTYLE
105
27
330
A
100
AcDbSymbolTableRecord
100
AcDbDimStyleTableRecord
  2
Standard
 70
     0
340
11
  0
ENDTAB
  0
TABLE
  2
BLOCK_RECORD
  5
1
330
0
100
AcDbSymbolTable
 70
     1
  0
BLOCK_RECORD
  5
1F
330
1
100
AcDbSymbolTableRecord
100
AcDbBlockTableRecord
  2
*Model_Space
340
22
 70
     0
280
     1
281
     0
  0
BLOCK_RECORD
  5
7D
330
1
100
AcDbSymbolTableRecord
100
AcDbBlockTableRecord
  2
*PAPER_SPACE
340
931
 70
     0
280
     1
281
     0
  0
BLOCK_RECORD
  5
943
330
1
100
AcDbSymbolTableRecord
100
AcDbBlockTableRecord
  2
M02483OE_MODEL
340
0
102
{BLKREFS
331
946
102
}
 70
     0
280
     1
281
     0
  0
ENDTAB
  0
ENDSEC
  0
SECTION
  2
BLOCKS
  0
BLOCK
  5
20
330
1F
100
AcDbEntity
  8
0
100
AcDbBlockBegin
  2
*Model_Space
 70
     0
 10
0.0
 20
0.0
 30
0.0
  3
*Model_Space
  1

  0
ENDBLK
  5
21
330
1F
100
AcDbEntity
  8
0
100
AcDbBlockEnd
  0
BLOCK
  5
7E
330
7D
100
AcDbEntity
 67
     1
  8
0
100
AcDbBlockBegin
  2
*PAPER_SPACE
 70
     0
 10
0.0
 20
0.0
 30
0.0
  3
*PAPER_SPACE
  1

  0
ENDBLK
  5
7F
330
7D
100
AcDbEntity
 67
     1
  8
0
100
AcDbBlockEnd
  0
BLOCK
  5
944
330
943
100
AcDbEntity
  8
0
100
AcDbBlockBegin
  2
M02483OE_MODEL
 70
     4
 10
0.0
 20
0.0
 30
0.0
  3
M02483OE_MODEL
  1
M02483OE_MODEL.dwg
  0
ENDBLK
  5
945
330
943
100
AcDbEntity
  8
0
100
AcDbBlockEnd
  0
ENDSEC
  0
SECTION
  2
ENTITIES
  0
INSERT
  5
946
330
1F
100
AcDbEntity
  8
XREF001I$
  6
Continuous
 62
     3
370
    18
100
AcDbBlockReference
  2
M02483OE_MODEL
 10
0.0
 20
0.0
 30
0.0
  0
VIEWPORT
  5
80
330
7D
100
AcDbEntity
 67
     1
  8
0
370
    18
100
AcDbViewport
 10
3.745162987435663
 20
5.774295828449883
 30
0.0
 40
9.052550891591517
 41
3.419725478946132
 68
     1
 69
     1
 12
3.745162987435663
 22
5.774295828449883
 13
0.0
 23
0.0
 14
1.0
 24
1.0
 15
1.0
 25
1.0
 16
0.0
 26
0.0
 36
1.0
 17
0.0
 27
0.0
 37
0.0
 42
40.05260640841703
 43
0.0
 44
0.0
 45
3.419725478946132
 50
0.0
 51
0.0
 72
   100
 90
   557152
  1

281
     0
 71
     1
 74
     0
110
0.0
120
0.0
130
0.0
111
1.0
121
0.0
131
0.0
112
0.0
122
1.0
132
0.0
 79
     0
146
0.0
170
     0
 61
     5
348
2F
292
     1
282
     1
141
0.0
142
0.0
 63
   250
421
  3355443
  0
LINE
  5
29F
330
7D
100
AcDbEntity
 67
     1
  8
1
  6
Continuous
 62
     3
370
    13
100
AcDbLine
 10
2.761412858963012
 20
6.840755462646484
 30
0.0
 11
2.761205673217773
 21
6.840377807617187
 31
0.0
  0
LINE
  5
2A0
330
7D
100
AcDbEntity
 67
     1
  8
1
  6
Continuous
 62
     3
370
    13
100
AcDbLine
 10
2.761412858963012
 20
6.840755462646484
 30
0.0
 11
2.761205673217773
 21
6.840377807617187
 31
0.0
  0
LINE
  5
2BE
330
7D
100
AcDbEntity
 67
     1
  8
1
  6
Continuous
 62
    30
370
    18
100
AcDbLine
 10
2.414353370666503
 20
6.206800460815429
 30
0.0
 11
2.414353370666503
 21
6.141800880432128
 31
0.0
  0
LINE
  5
2BF
330
7D
100
AcDbEntity
 67
     1
  8
1
  6
Continuous
 62
    30
370
    18
100
AcDbLine
 10
2.514251470565795
 20
6.206800460815429
 30
0.0
 11
2.514251470565795
 21
6.141800880432128
 31
0.0
  0
LINE
  5
2C0
330
7D
100
AcDbEntity
 67
     1
  8
1
  6
Continuous
 62
    30
370
    18
100
AcDbLine
 10
2.635753393173217
 20
6.206800460815429
 30
0.0
 11
2.635753393173217
 21
6.141800880432128
 31
0.0
  0
LINE
  5
2C1
330
7D
100
AcDbEntity
 67
     1
  8
1
  6
Continuous
 62
    30
370
    18
100
AcDbLine
 10
2.635753393173217
 20
6.141800880432128
 30
0.0
 11
2.535855054855346
 21
6.141800880432128
 31
0.0
  0
LINE
  5
2C2
330
7D
100
AcDbEntity
 67
     1
  8
1
  6
Continuous
 62
    30
370
    18
100
AcDbLine
 10
2.414353370666503
 20
6.206800460815429
 30
0.0
 11
2.514251470565795
 21
6.206800460815429
 31
0.0
  0
LINE
  5
2C3
330
7D
100
AcDbEntity
 67
     1
  8
1
  6
Continuous
 62
    30
370
    18
100
AcDbLine
 10
2.779427766799926
 20
6.028675079345703
 30
0.0
 11
2.779427766799926
 21
5.386926651000976
 31
0.0
  0
LINE
  5
2C4
330
7D
100
AcDbEntity
 67
     1
  8
1
  6
Continuous
 62
    30
370
    18
100
AcDbLine
 10
2.779427766799926
 20
5.386926651000976
 30
0.0
 11
2.270678997039794
 21
5.386926651000976
 31
0.0
  0
LINE
  5
2C5
330
7D
100
AcDbEntity
 67
     1
  8
1
  6
Continuous
 62
    30
370
    18
100
AcDbLine
 10
2.414353370666503
 20
6.141800880432128
 30
0.0
 11
2.514251470565795
 21
6.141800880432128
 31
0.0
  0
LINE
  5
2C6
330
7D
100
AcDbEntity
 67
     1
  8
1
  6
Continuous
 62
    30
370
    18
100
AcDbLine
 10
2.270678997039794
 20
6.028675079345703
 30
0.0
 11
2.270678997039794
 21
5.386926651000976
 31
0.0
  0
LINE
  5
2C7
330
7D
100
AcDbEntity
 67
     1
  8
1
  6
Continuous
 62
    30
370
    18
100
AcDbLine
 10
2.270678997039794
 20
6.028675079345703
 30
0.0
 11
2.779427766799926
 21
6.028675079345703
 31
0.0
  0
LINE
  5
2C8
330
7D
100
AcDbEntity
 67
     1
  8
1
  6
Continuous
 62
    30
370
    18
100
AcDbLine
 10
3.540753364562988
 20
6.206800460815429
 30
0.0
 11
3.540753364562988
 21
6.141800880432128
 31
0.0
  0
LINE
  5
2C9
330
7D
100
AcDbEntity
 67
     1
  8
1
  6
Continuous
 62
    30
370
    18
100
AcDbLine
 10
3.540753364562988
 20
6.141800880432128
 30
0.0
 11
3.440855026245117
 21
6.141800880432128
 31
0.0
  0
LINE
  5
2CA
330
7D
100
AcDbEntity
 67
     1
  8
1
  6
Continuous
 62
    30
370
    18
100
AcDbLine
 10
3.440855026245117
 20
6.206800460815429
 30
0.0
 11
3.440855026245117
 21
6.141800880432128
 31
0.0
  0
LINE
  5
2CB
330
7D
100
AcDbEntity
 67
     1
  8
1
  6
Continuous
 62
    30
370
    18
100
AcDbLine
 10
3.540753364562988
 20
6.206800460815429
 30
0.0
 11
3.440855026245117
 21
6.206800460815429
 31
0.0
  0
LINE
  5
2CC
330
7D
100
AcDbEntity
 67
     1
  8
1
  6
Continuous
 62
    30
370
    18
100
AcDbLine
 10
3.319353342056274
 20
6.206800460815429
 30
0.0
 11
3.319353342056274
 21
6.141800880432128
 31
0.0
  0
LINE
  5
2CD
330
7D
100
AcDbEntity
 67
     1
  8
1
  6
Continuous
 62
    30
370
    18
100
AcDbLine
 10
2.535855054855346
 20
6.206800460815429
 30
0.0
 11
2.535855054855346
 21
6.141800880432128
 31
0.0
  0
LINE
  5
2CE
330
7D
100
AcDbEntity
 67
     1
  8
1
  6
Continuous
 62
    30
370
    18
100
AcDbLine
 10
3.419251441955566
 20
6.206800460815429
 30
0.0
 11
3.419251441955566
 21
6.141800880432128
 31
0.0
  0
LINE
  5
2CF
330
7D
100
AcDbEntity
 67
     1
  8
1
  6
Continuous
 62
    30
370
    18
100
AcDbLine
 10
2.635753393173217
 20
6.206800460815429
 30
0.0
 11
2.535855054855346
 21
6.206800460815429
 31
0.0
  0
LINE
  5
2D0
330
7D
100
AcDbEntity
 67
     1
  8
1
  6
Continuous
 62
    30
370
    18
100
AcDbLine
 10
3.175678968429565
 20
6.028675079345703
 30
0.0
 11
3.175678968429565
 21
5.386926651000976
 31
0.0
  0
LINE
  5
2D1
330
7D
100
AcDbEntity
 67
     1
  8
1
  6
Continuous
 62
    30
370
    18
100
AcDbLine
 10
3.319353342056274
 20
6.141800880432128
 30
0.0
 11
3.419251441955566
 21
6.141800880432128
 31
0.0
  0
LINE
  5
2D2
330
7D
100
AcDbEntity
 67
     1
  8
1
  6
Continuous
 62
    30
370
    18
100
AcDbLine
 10
3.684427976608276
 20
6.028675079345703
 30
0.0
 11
3.684427976608276
 21
5.386926651000976
 31
0.0
  0
LINE
  5
2D3
330
7D
100
AcDbEntity
 67
     1
  8
1
  6
Continuous
 62
    30
370
    18
100
AcDbLine
 10
3.684427976608276
 20
6.028675079345703
 30
0.0
 11
3.175678968429565
 21
6.028675079345703
 31
0.0
  0
LINE
  5
2D4
330
7D
100
AcDbEntity
 67
     1
  8
1
  6
Continuous
 62
    30
370
    18
100
AcDbLine
 10
3.319353342056274
 20
6.206800460815429
 30
0.0
 11
3.419251441955566
 21
6.206800460815429
 31
0.0
  0
LINE
  5
2D5
330
7D
100
AcDbEntity
 67
     1
  8
1
  6
Continuous
 62
    30
370
    18
100
AcDbLine
 10
2.267053365707397
 20
6.823766231536865
 30
0.0
 11
3.688053369522094
 21
6.823766231536865
 31
0.0
  0
LINE
  5
2D6
330
7D
100
AcDbEntity
 67
     1
  8
1
  6
Continuous
 62
    30
370
    18
100
AcDbLine
 10
2.255918741226196
 20
7.17490005493164
 30
0.0
 11
2.255918741226196
 21
6.83489990234375
 31
0.0
  0
LINE
  5
2D7
330
7D
100
AcDbEntity
 67
     1
  8
1
  6
Continuous
 62
    30
370
    18
100
AcDbLine
 10
2.267053365707397
 20
7.18603515625
 30
0.0
 11
3.688053369522094
 21
7.18603515625
 31
0.0
  0
LINE
  5
2D8
330
7D
100
AcDbEntity
 67
     1
  8
1
  6
Continuous
 62
    30
370
    18
100
AcDbLine
 10
3.699187994003295
 20
7.17490005493164
 30
0.0
 11
3.699187994003295
 21
6.83489990234375
 31
0.0
  0
LINE
  5
2D9
330
7D
100
AcDbEntity
 67
     1
  8
1
  6
Continuous
 62
    30
370
    18
100
AcDbLine
 10
2.099053382873535
 20
4.299286842346191
 30
0.0
 11
3.856053590774536
 21
4.299286842346191
 31
0.0
  0
LINE
  5
2DA
330
7D
100
AcDbEntity
 67
     1
  8
1
  6
Continuous
 62
    30
370
    18
100
AcDbLine
 10
3.872134208679199
 20
4.300178050994873
 30
0.0
 11
3.872134208679199
 21
7.248424053192138
 31
0.0
  0
LINE
  5
2DB
330
7D
100
AcDbEntity
 67
     1
  8
1
  6
Continuous
 62
    30
370
    18
100
AcDbLine
 10
3.175678968429565
 20
5.386926651000976
 30
0.0
 11
3.684427976608276
 21
5.386926651000976
 31
0.0
  0
LINE
  5
2DC
330
7D
100
AcDbEntity
 67
     1
  8
1
  6
Continuous
 62
    30
370
    18
100
AcDbLine
 10
2.099053382873535
 20
7.249314785003662
 30
0.0
 11
3.856053590774536
 21
7.249314785003662
 31
0.0
  0
LINE
  5
2DD
330
7D
100
AcDbEntity
 67
     1
  8
1
  6
Continuous
 62
    30
370
    18
100
AcDbLine
 10
2.082972526550292
 20
4.300178050994873
 30
0.0
 11
2.082972526550292
 21
7.248424053192138
 31
0.0
  0
LINE
  5
2DE
330
7D
100
AcDbEntity
 67
     1
  8
1
  6
Continuous
 62
    30
370
    18
100
AcDbLine
 10
4.006053447723388
 20
6.072673320770263
 30
0.0
 11
4.009647846221923
 21
6.072673320770263
 31
0.0
  0
LINE
  5
2DF
330
7D
100
AcDbEntity
 67
     1
  8
1
  6
Continuous
 62
    30
370
    18
100
AcDbLine
 10
1.949053406715393
 20
4.444800853729248
 30
0.0
 11
1.949053406715393
 21
6.072673320770263
 31
0.0
  0
LINE
  5
2E0
330
7D
100
AcDbEntity
 67
     1
  8
1
  6
Continuous
 62
    30
370
    18
100
AcDbLine
 10
1.945458769798278
 20
6.072673320770263
 30
0.0
 11
1.949053406715393
 21
6.072673320770263
 31
0.0
  0
LINE
  5
2E1
330
7D
100
AcDbEntity
 67
     1
  8
1
  6
Continuous
 62
    30
370
    18
100
AcDbLine
 10
4.006053447723388
 20
4.444800853729248
 30
0.0
 11
4.006053447723388
 21
6.072673320770263
 31
0.0
  0
LINE
  5
2E2
330
7D
100
AcDbEntity
 67
     1
  8
1
  6
Continuous
 62
    30
370
    18
100
AcDbLine
 10
2.099053382873535
 20
4.294800758361816
 30
0.0
 11
3.856053590774536
 21
4.294800758361816
 31
0.0
  0
LINE
  5
2E3
330
7D
100
AcDbEntity
 67
     1
  8
1
  6
Continuous
 62
    30
370
    18
100
AcDbLine
 10
1.949053406715393
 20
6.615927696228027
 30
0.0
 11
1.945458769798278
 21
6.615927696228027
 31
0.0
  0
LINE
  5
2E4
330
7D
100
AcDbEntity
 67
     1
  8
1
  6
Continuous
 62
    30
370
    18
100
AcDbLine
 10
1.949053406715393
 20
6.615927696228027
 30
0.0
 11
1.949053406715393
 21
7.103800773620605
 31
0.0
  0
LINE
  5
2E5
330
7D
100
AcDbEntity
 67
     1
  8
1
  6
Continuous
 62
    30
370
    18
100
AcDbLine
 10
2.099053382873535
 20
7.253800868988037
 30
0.0
 11
3.856053590774536
 21
7.253800868988037
 31
0.0
  0
LINE
  5
2E6
330
7D
100
AcDbEntity
 67
     1
  8
1
  6
Continuous
 62
    30
370
    18
100
AcDbLine
 10
4.006053447723388
 20
6.615927696228027
 30
0.0
 11
4.006053447723388
 21
7.103800773620605
 31
0.0
  0
LINE
  5
2E7
330
7D
100
AcDbEntity
 67
     1
  8
1
  6
Continuous
 62
    30
370
    18
100
AcDbLine
 10
4.009647846221923
 20
6.615927696228027
 30
0.0
 11
4.006053447723388
 21
6.615927696228027
 31
0.0
  0
LINE
  5
2E8
330
7D
100
AcDbEntity
 67
     1
  8
1
  6
Continuous
 62
    30
370
    18
100
AcDbLine
 10
4.006053447723388
 20
6.115927696228027
 30
0.0
 11
4.006053447723388
 21
6.572673320770263
 31
0.0
  0
LINE
  5
2E9
330
7D
100
AcDbEntity
 67
     1
  8
1
  6
Continuous
 62
    30
370
    18
100
AcDbLine
 10
4.009647846221923
 20
6.115927696228027
 30
0.0
 11
4.006053447723388
 21
6.115927696228027
 31
0.0
  0
LINE
  5
2EA
330
7D
100
AcDbEntity
 67
     1
  8
1
  6
Continuous
 62
    30
370
    18
100
AcDbLine
 10
1.945458769798278
 20
6.572673320770263
 30
0.0
 11
1.949053406715393
 21
6.572673320770263
 31
0.0
  0
LINE
  5
2EB
330
7D
100
AcDbEntity
 67
     1
  8
1
  6
Continuous
 62
    30
370
    18
100
AcDbLine
 10
1.949053406715393
 20
6.115927696228027
 30
0.0
 11
1.945458769798278
 21
6.115927696228027
 31
0.0
  0
LINE
  5
2EC
330
7D
100
AcDbEntity
 67
     1
  8
1
  6
Continuous
 62
    30
370
    18
100
AcDbLine
 10
4.006053447723388
 20
6.572673320770263
 30
0.0
 11
4.009647846221923
 21
6.572673320770263
 31
0.0
  0
LINE
  5
2ED
330
7D
100
AcDbEntity
 67
     1
  8
1
  6
Continuous
 62
    30
370
    18
100
AcDbLine
 10
1.949053406715393
 20
6.572673320770263
 30
0.0
 11
1.949053406715393
 21
6.115927696228027
 31
0.0
  0
LINE
  5
2EE
330
7D
100
AcDbEntity
 67
     1
  8
1
  6
Continuous
 62
    30
370
    18
100
AcDbLine
 10
4.003958702087402
 20
6.07476806640625
 30
0.0
 11
4.009648323059082
 21
6.07476806640625
 31
0.0
  0
LINE
  5
2EF
330
7D
100
AcDbEntity
 67
     1
  8
1
  6
Continuous
 62
    30
370
    18
100
AcDbLine
 10
4.003958702087402
 20
6.07476806640625
 30
0.0
 11
4.006053447723388
 21
6.072673320770263
 31
0.0
  0
LINE
  5
2F0
330
7D
100
AcDbEntity
 67
     1
  8
1
  6
Continuous
 62
    30
370
    18
100
AcDbLine
 10
4.006053447723388
 20
6.115927696228027
 30
0.0
 11
4.003958702087402
 21
6.113833427429199
 31
0.0
  0
LINE
  5
2F1
330
7D
100
AcDbEntity
 67
     1
  8
1
  6
Continuous
 62
    30
370
    18
100
AcDbLine
 10
4.003958702087402
 20
6.113833427429199
 30
0.0
 11
4.009648323059082
 21
6.113833427429199
 31
0.0
  0
LINE
  5
2F2
330
7D
100
AcDbEntity
 67
     1
  8
1
  6
Continuous
 62
    30
370
    18
100
AcDbLine
 10
4.003958702087402
 20
6.57476806640625
 30
0.0
 11
4.009648323059082
 21
6.57476806640625
 31
0.0
  0
LINE
  5
2F3
330
7D
100
AcDbEntity
 67
     1
  8
1
  6
Continuous
 62
    30
370
    18
100
AcDbLine
 10
4.003958702087402
 20
6.57476806640625
 30
0.0
 11
4.006053447723388
 21
6.572673320770263
 31
0.0
  0
LINE
  5
2F4
330
7D
100
AcDbEntity
 67
     1
  8
1
  6
Continuous
 62
    30
370
    18
100
AcDbLine
 10
4.003958702087402
 20
6.613833427429199
 30
0.0
 11
4.009648323059082
 21
6.613833427429199
 31
0.0
  0
LINE
  5
2F5
330
7D
100
AcDbEntity
 67
     1
  8
1
  6
Continuous
 62
    30
370
    18
100
AcDbLine
 10
4.006053447723388
 20
6.615927696228027
 30
0.0
 11
4.003958702087402
 21
6.613833427429199
 31
0.0
  0
LINE
  5
2F6
330
7D
100
AcDbEntity
 67
     1
  8
1
  6
Continuous
 62
    30
370
    18
100
AcDbLine
 10
1.949053406715393
 20
6.572673320770263
 30
0.0
 11
1.9511479139328
 21
6.57476806640625
 31
0.0
  0
LINE
  5
2F7
330
7D
100
AcDbEntity
 67
     1
  8
1
  6
Continuous
 62
    30
370
    18
100
AcDbLine
 10
1.9511479139328
 20
6.613833427429199
 30
0.0
 11
1.949053406715393
 21
6.615927696228027
 31
0.0
  0
LINE
  5
2F8
330
7D
100
AcDbEntity
 67
     1
  8
1
  6
Continuous
 62
    30
370
    18
100
AcDbLine
 10
1.9511479139328
 20
6.57476806640625
 30
0.0
 11
1.945458650588989
 21
6.57476806640625
 31
0.0
  0
LINE
  5
2F9
330
7D
100
AcDbEntity
 67
     1
  8
1
  6
Continuous
 62
    30
370
    18
100
AcDbLine
 10
1.949053406715393
 20
6.072673320770263
 30
0.0
 11
1.9511479139328
 21
6.07476806640625
 31
0.0
  0
LINE
  5
2FA
330
7D
100
AcDbEntity
 67
     1
  8
1
  6
Continuous
 62
    30
370
    18
100
AcDbLine
 10
1.9511479139328
 20
6.113833427429199
 30
0.0
 11
1.945458173751831
 21
6.113833427429199
 31
0.0
  0
LINE
  5
2FB
330
7D
100
AcDbEntity
 67
     1
  8
1
  6
Continuous
 62
    30
370
    18
100
AcDbLine
 10
1.9511479139328
 20
6.07476806640625
 30
0.0
 11
1.945458173751831
 21
6.07476806640625
 31
0.0
  0
LINE
  5
2FC
330
7D
100
AcDbEntity
 67
     1
  8
1
  6
Continuous
 62
    30
370
    18
100
AcDbLine
 10
1.9511479139328
 20
6.613833427429199
 30
0.0
 11
1.945458650588989
 21
6.613833427429199
 31
0.0
  0
LINE
  5
2FD
330
7D
100
AcDbEntity
 67
     1
  8
1
  6
Continuous
 62
    30
370
    18
100
AcDbLine
 10
2.296164274215698
 20
6.82490062713623
 30
0.0
 11
2.29555344581604
 21
6.824289798736572
 31
0.0
  0
LINE
  5
2FE
330
7D
100
AcDbEntity
 67
     1
  8
1
  6
Continuous
 62
    30
370
    18
100
AcDbLine
 10
2.296164274215698
 20
7.184900283813476
 30
0.0
 11
2.296164274215698
 21
6.82490062713623
 31
0.0
  0
LINE
  5
2FF
330
7D
100
AcDbEntity
 67
     1
  8
1
  6
Continuous
 62
    30
370
    18
100
AcDbLine
 10
1.9511479139328
 20
6.113833427429199
 30
0.0
 11
1.949053406715393
 21
6.115927696228027
 31
0.0
  0
LINE
  5
300
330
7D
100
AcDbEntity
 67
     1
  8
1
  6
Continuous
 62
    30
370
    18
100
AcDbLine
 10
2.296164274215698
 20
7.184900283813476
 30
0.0
 11
2.29555344581604
 21
7.185511112213134
 31
0.0
  0
LINE
  5
301
330
7D
100
AcDbEntity
 67
     1
  8
1
  6
Continuous
 62
    30
370
    18
100
AcDbLine
 10
3.658942461013793
 20
7.184900283813476
 30
0.0
 11
3.659553289413452
 21
7.185511112213134
 31
0.0
  0
LINE
  5
302
330
7D
100
AcDbEntity
 67
     1
  8
1
  6
Continuous
 62
    30
370
    18
100
AcDbLine
 10
3.658942461013793
 20
6.82490062713623
 30
0.0
 11
3.659553289413452
 21
6.824289798736572
 31
0.0
  0
LINE
  5
303
330
7D
100
AcDbEntity
 67
     1
  8
1
  6
Continuous
 62
    30
370
    18
100
AcDbLine
 10
3.658942461013793
 20
7.184900283813476
 30
0.0
 11
3.658942461013793
 21
6.82490062713623
 31
0.0
  0
LINE
  5
304
330
7D
100
AcDbEntity
 67
     1
  8
1
  6
Continuous
 62
    30
370
    18
100
AcDbLine
 10
1.9511479139328
 20
6.07476806640625
 30
0.0
 11
1.9511479139328
 21
6.113833427429199
 31
0.0
  0
LINE
  5
305
330
7D
100
AcDbEntity
 67
     1
  8
1
  6
Continuous
 62
    30
370
    18
100
AcDbLine
 10
4.003958702087402
 20
6.113833427429199
 30
0.0
 11
4.003958702087402
 21
6.07476806640625
 31
0.0
  0
LINE
  5
306
330
7D
100
AcDbEntity
 67
     1
  8
1
  6
Continuous
 62
    30
370
    18
100
AcDbLine
 10
3.175678968429565
 20
6.028675079345703
 30
0.0
 11
3.18005347251892
 21
6.024300575256347
 31
0.0
  0
LINE
  5
307
330
7D
100
AcDbEntity
 67
     1
  8
1
  6
Continuous
 62
    30
370
    18
100
AcDbLine
 10
3.18005347251892
 20
6.024300575256347
 30
0.0
 11
3.18005347251892
 21
5.524300575256347
 31
0.0
  0
LINE
  5
308
330
7D
100
AcDbEntity
 67
     1
  8
1
  6
Continuous
 62
    30
370
    18
100
AcDbLine
 10
3.68005347251892
 20
6.024300575256347
 30
0.0
 11
3.18005347251892
 21
6.024300575256347
 31
0.0
  0
LINE
  5
309
330
7D
100
AcDbEntity
 67
     1
  8
1
  6
Continuous
 62
    30
370
    18
100
AcDbLine
 10
3.68005347251892
 20
6.024300575256347
 30
0.0
 11
3.68005347251892
 21
5.524300575256347
 31
0.0
  0
LINE
  5
30A
330
7D
100
AcDbEntity
 67
     1
  8
1
  6
Continuous
 62
    30
370
    18
100
AcDbLine
 10
3.175678968429565
 20
5.386926651000976
 30
0.0
 11
3.18005347251892
 21
5.524300575256347
 31
0.0
  0
LINE
  5
30B
330
7D
100
AcDbEntity
 67
     1
  8
1
  6
Continuous
 62
    30
370
    18
100
AcDbLine
 10
3.684427976608276
 20
5.386926651000976
 30
0.0
 11
3.68005347251892
 21
5.524300575256347
 31
0.0
  0
LINE
  5
30C
330
7D
100
AcDbEntity
 67
     1
  8
1
  6
Continuous
 62
    30
370
    18
100
AcDbLine
 10
3.319353342056274
 20
6.141800880432128
 30
0.0
 11
3.320051670074462
 21
6.142498970031738
 31
0.0
  0
LINE
  5
30D
330
7D
100
AcDbEntity
 67
     1
  8
1
  6
Continuous
 62
    30
370
    18
100
AcDbLine
 10
3.68005347251892
 20
5.524300575256347
 30
0.0
 11
3.18005347251892
 21
5.524300575256347
 31
0.0
  0
LINE
  5
30E
330
7D
100
AcDbEntity
 67
     1
  8
1
  6
Continuous
 62
    30
370
    18
100
AcDbLine
 10
3.319353342056274
 20
6.206800460815429
 30
0.0
 11
3.320051670074462
 21
6.20610237121582
 31
0.0
  0
LINE
  5
30F
330
7D
100
AcDbEntity
 67
     1
  8
1
  6
Continuous
 62
    30
370
    18
100
AcDbLine
 10
3.320051670074462
 20
6.20610237121582
 30
0.0
 11
3.418553590774536
 21
6.20610237121582
 31
0.0
  0
LINE
  5
310
330
7D
100
AcDbEntity
 67
     1
  8
1
  6
Continuous
 62
    30
370
    18
100
AcDbLine
 10
3.419251441955566
 20
6.206800460815429
 30
0.0
 11
3.418553590774536
 21
6.20610237121582
 31
0.0
  0
LINE
  5
311
330
7D
100
AcDbEntity
 67
     1
  8
1
  6
Continuous
 62
    30
370
    18
100
AcDbLine
 10
3.684427976608276
 20
6.028675079345703
 30
0.0
 11
3.68005347251892
 21
6.024300575256347
 31
0.0
  0
LINE
  5
312
330
7D
100
AcDbEntity
 67
     1
  8
1
  6
Continuous
 62
    30
370
    18
100
AcDbLine
 10
3.419251441955566
 20
6.141800880432128
 30
0.0
 11
3.418553590774536
 21
6.142498970031738
 31
0.0
  0
LINE
  5
313
330
7D
100
AcDbEntity
 67
     1
  8
1
  6
Continuous
 62
    30
370
    18
100
AcDbLine
 10
3.320051670074462
 20
6.142498970031738
 30
0.0
 11
3.418553590774536
 21
6.142498970031738
 31
0.0
  0
LINE
  5
314
330
7D
100
AcDbEntity
 67
     1
  8
1
  6
Continuous
 62
    30
370
    18
100
AcDbLine
 10
3.540753364562988
 20
6.206800460815429
 30
0.0
 11
3.540055036544799
 21
6.20610237121582
 31
0.0
  0
LINE
  5
315
330
7D
100
AcDbEntity
 67
     1
  8
1
  6
Continuous
 62
    30
370
    18
100
AcDbLine
 10
3.540055036544799
 20
6.20610237121582
 30
0.0
 11
3.540055036544799
 21
6.142498970031738
 31
0.0
  0
LINE
  5
316
330
7D
100
AcDbEntity
 67
     1
  8
1
  6
Continuous
 62
    30
370
    18
100
AcDbLine
 10
3.320051670074462
 20
6.20610237121582
 30
0.0
 11
3.320051670074462
 21
6.142498970031738
 31
0.0
  0
LINE
  5
317
330
7D
100
AcDbEntity
 67
     1
  8
1
  6
Continuous
 62
    30
370
    18
100
AcDbLine
 10
3.540055036544799
 20
6.142498970031738
 30
0.0
 11
3.441553115844726
 21
6.142498970031738
 31
0.0
  0
LINE
  5
318
330
7D
100
AcDbEntity
 67
     1
  8
1
  6
Continuous
 62
    30
370
    18
100
AcDbLine
 10
3.440855026245117
 20
6.141800880432128
 30
0.0
 11
3.441553115844726
 21
6.142498970031738
 31
0.0
  0
LINE
  5
319
330
7D
100
AcDbEntity
 67
     1
  8
1
  6
Continuous
 62
    30
370
    18
100
AcDbLine
 10
3.441553115844726
 20
6.20610237121582
 30
0.0
 11
3.441553115844726
 21
6.142498970031738
 31
0.0
  0
LINE
  5
31A
330
7D
100
AcDbEntity
 67
     1
  8
1
  6
Continuous
 62
    30
370
    18
100
AcDbLine
 10
3.440855026245117
 20
6.206800460815429
 30
0.0
 11
3.441553115844726
 21
6.20610237121582
 31
0.0
  0
LINE
  5
31B
330
7D
100
AcDbEntity
 67
     1
  8
1
  6
Continuous
 62
    30
370
    18
100
AcDbLine
 10
3.540055036544799
 20
6.20610237121582
 30
0.0
 11
3.441553115844726
 21
6.20610237121582
 31
0.0
  0
LINE
  5
31C
330
7D
100
AcDbEntity
 67
     1
  8
1
  6
Continuous
 62
    30
370
    18
100
AcDbLine
 10
2.779427766799926
 20
5.386926651000976
 30
0.0
 11
2.775053262710571
 21
5.524300575256347
 31
0.0
  0
LINE
  5
31D
330
7D
100
AcDbEntity
 67
     1
  8
1
  6
Continuous
 62
    30
370
    18
100
AcDbLine
 10
3.540753364562988
 20
6.141800880432128
 30
0.0
 11
3.540055036544799
 21
6.142498970031738
 31
0.0
  0
LINE
  5
31E
330
7D
100
AcDbEntity
 67
     1
  8
1
  6
Continuous
 62
    30
370
    18
100
AcDbLine
 10
2.779427766799926
 20
6.028675079345703
 30
0.0
 11
2.775053262710571
 21
6.024300575256347
 31
0.0
  0
LINE
  5
31F
330
7D
100
AcDbEntity
 67
     1
  8
1
  6
Continuous
 62
    30
370
    18
100
AcDbLine
 10
2.775053262710571
 20
6.024300575256347
 30
0.0
 11
2.775053262710571
 21
5.524300575256347
 31
0.0
  0
LINE
  5
320
330
7D
100
AcDbEntity
 67
     1
  8
1
  6
Continuous
 62
    30
370
    18
100
AcDbLine
 10
2.270678997039794
 20
5.386926651000976
 30
0.0
 11
2.275053262710571
 21
5.524300575256347
 31
0.0
  0
LINE
  5
321
330
7D
100
AcDbEntity
 67
     1
  8
1
  6
Continuous
 62
    30
370
    18
100
AcDbLine
 10
2.275053262710571
 20
6.024300575256347
 30
0.0
 11
2.275053262710571
 21
5.524300575256347
 31
0.0
  0
LINE
  5
322
330
7D
100
AcDbEntity
 67
     1
  8
1
  6
Continuous
 62
    30
370
    18
100
AcDbLine
 10
2.275053262710571
 20
5.524300575256347
 30
0.0
 11
2.775053262710571
 21
5.524300575256347
 31
0.0
  0
LINE
  5
323
330
7D
100
AcDbEntity
 67
     1
  8
1
  6
Continuous
 62
    30
370
    18
100
AcDbLine
 10
2.270678997039794
 20
6.028675079345703
 30
0.0
 11
2.275053262710571
 21
6.024300575256347
 31
0.0
  0
LINE
  5
324
330
7D
100
AcDbEntity
 67
     1
  8
1
  6
Continuous
 62
    30
370
    18
100
AcDbLine
 10
2.275053262710571
 20
6.024300575256347
 30
0.0
 11
2.775053262710571
 21
6.024300575256347
 31
0.0
  0
LINE
  5
325
330
7D
100
AcDbEntity
 67
     1
  8
1
  6
Continuous
 62
    30
370
    18
100
AcDbLine
 10
2.635055303573608
 20
6.20610237121582
 30
0.0
 11
2.635055303573608
 21
6.142498970031738
 31
0.0
  0
LINE
  5
326
330
7D
100
AcDbEntity
 67
     1
  8
1
  6
Continuous
 62
    30
370
    18
100
AcDbLine
 10
2.635753393173217
 20
6.141800880432128
 30
0.0
 11
2.635055303573608
 21
6.142498970031738
 31
0.0
  0
LINE
  5
327
330
7D
100
AcDbEntity
 67
     1
  8
1
  6
Continuous
 62
    30
370
    18
100
AcDbLine
 10
2.635055303573608
 20
6.142498970031738
 30
0.0
 11
2.536553382873535
 21
6.142498970031738
 31
0.0
  0
LINE
  5
328
330
7D
100
AcDbEntity
 67
     1
  8
1
  6
Continuous
 62
    30
370
    18
100
AcDbLine
 10
3.418553590774536
 20
6.20610237121582
 30
0.0
 11
3.418553590774536
 21
6.142498970031738
 31
0.0
  0
LINE
  5
329
330
7D
100
AcDbEntity
 67
     1
  8
1
  6
Continuous
 62
    30
370
    18
100
AcDbLine
 10
2.536553382873535
 20
6.20610237121582
 30
0.0
 11
2.536553382873535
 21
6.142498970031738
 31
0.0
  0
LINE
  5
32A
330
7D
100
AcDbEntity
 67
     1
  8
1
  6
Continuous
 62
    30
370
    18
100
AcDbLine
 10
2.535855054855346
 20
6.141800880432128
 30
0.0
 11
2.536553382873535
 21
6.142498970031738
 31
0.0
  0
LINE
  5
32B
330
7D
100
AcDbEntity
 67
     1
  8
1
  6
Continuous
 62
    30
370
    18
100
AcDbLine
 10
2.635055303573608
 20
6.20610237121582
 30
0.0
 11
2.536553382873535
 21
6.20610237121582
 31
0.0
  0
LINE
  5
32C
330
7D
100
AcDbEntity
 67
     1
  8
1
  6
Continuous
 62
    30
370
    18
100
AcDbLine
 10
2.535855054855346
 20
6.206800460815429
 30
0.0
 11
2.536553382873535
 21
6.20610237121582
 31
0.0
  0
LINE
  5
32D
330
7D
100
AcDbEntity
 67
     1
  8
1
  6
Continuous
 62
    30
370
    18
100
AcDbLine
 10
2.414353370666503
 20
6.141800880432128
 30
0.0
 11
2.415051460266113
 21
6.142498970031738
 31
0.0
  0
LINE
  5
32E
330
7D
100
AcDbEntity
 67
     1
  8
1
  6
Continuous
 62
    30
370
    18
100
AcDbLine
 10
2.415051460266113
 20
6.20610237121582
 30
0.0
 11
2.415051460266113
 21
6.142498970031738
 31
0.0
  0
LINE
  5
32F
330
7D
100
AcDbEntity
 67
     1
  8
1
  6
Continuous
 62
    30
370
    18
100
AcDbLine
 10
2.635753393173217
 20
6.206800460815429
 30
0.0
 11
2.635055303573608
 21
6.20610237121582
 31
0.0
  0
LINE
  5
330
330
7D
100
AcDbEntity
 67
     1
  8
1
  6
Continuous
 62
    30
370
    18
100
AcDbLine
 10
2.415051460266113
 20
6.20610237121582
 30
0.0
 11
2.513553380966186
 21
6.20610237121582
 31
0.0
  0
LINE
  5
331
330
7D
100
AcDbEntity
 67
     1
  8
1
  6
Continuous
 62
    30
370
    18
100
AcDbLine
 10
2.414353370666503
 20
6.206800460815429
 30
0.0
 11
2.415051460266113
 21
6.20610237121582
 31
0.0
  0
LINE
  5
332
330
7D
100
AcDbEntity
 67
     1
  8
1
  6
Continuous
 62
    30
370
    18
100
AcDbLine
 10
2.513553380966186
 20
6.20610237121582
 30
0.0
 11
2.513553380966186
 21
6.142498970031738
 31
0.0
  0
LINE
  5
333
330
7D
100
AcDbEntity
 67
     1
  8
1
  6
Continuous
 62
    30
370
    18
100
AcDbLine
 10
2.415051460266113
 20
6.142498970031738
 30
0.0
 11
2.513553380966186
 21
6.142498970031738
 31
0.0
  0
LINE
  5
334
330
7D
100
AcDbEntity
 67
     1
  8
1
  6
Continuous
 62
    30
370
    18
100
AcDbLine
 10
3.180804014205932
 20
5.525051593780517
 30
0.0
 11
3.180804014205932
 21
6.023550510406494
 31
0.0
  0
LINE
  5
335
330
7D
100
AcDbEntity
 67
     1
  8
1
  6
Continuous
 62
    30
370
    18
100
AcDbLine
 10
3.180804014205932
 20
6.023550510406494
 30
0.0
 11
3.18005347251892
 21
6.024300575256347
 31
0.0
  0
LINE
  5
336
330
7D
100
AcDbEntity
 67
     1
  8
1
  6
Continuous
 62
    30
370
    18
100
AcDbLine
 10
3.180804014205932
 20
5.525051593780517
 30
0.0
 11
3.18005347251892
 21
5.524300575256347
 31
0.0
  0
LINE
  5
337
330
7D
100
AcDbEntity
 67
     1
  8
1
  6
Continuous
 62
    30
370
    18
100
AcDbLine
 10
3.67930269241333
 20
6.023550510406494
 30
0.0
 11
3.68005347251892
 21
6.024300575256347
 31
0.0
  0
LINE
  5
338
330
7D
100
AcDbEntity
 67
     1
  8
1
  6
Continuous
 62
    30
370
    18
100
AcDbLine
 10
3.67930269241333
 20
5.525051593780517
 30
0.0
 11
3.67930269241333
 21
6.023550510406494
 31
0.0
  0
LINE
  5
339
330
7D
100
AcDbEntity
 67
     1
  8
1
  6
Continuous
 62
    30
370
    18
100
AcDbLine
 10
3.67930269241333
 20
5.525051593780517
 30
0.0
 11
3.68005347251892
 21
5.524300575256347
 31
0.0
  0
LINE
  5
33A
330
7D
100
AcDbEntity
 67
     1
  8
1
  6
Continuous
 62
    30
370
    18
100
AcDbLine
 10
3.180804014205932
 20
5.525051593780517
 30
0.0
 11
3.67930269241333
 21
5.525051593780517
 31
0.0
  0
LINE
  5
33B
330
7D
100
AcDbEntity
 67
     1
  8
1
  6
Continuous
 62
    30
370
    18
100
AcDbLine
 10
2.774302959442138
 20
5.525051593780517
 30
0.0
 11
2.774302959442138
 21
6.023550510406494
 31
0.0
  0
LINE
  5
33C
330
7D
100
AcDbEntity
 67
     1
  8
1
  6
Continuous
 62
    30
370
    18
100
AcDbLine
 10
2.514251470565795
 20
6.141800880432128
 30
0.0
 11
2.513553380966186
 21
6.142498970031738
 31
0.0
  0
LINE
  5
33D
330
7D
100
AcDbEntity
 67
     1
  8
1
  6
Continuous
 62
    30
370
    18
100
AcDbLine
 10
2.774302959442138
 20
5.525051593780517
 30
0.0
 11
2.775053262710571
 21
5.524300575256347
 31
0.0
  0
LINE
  5
33E
330
7D
100
AcDbEntity
 67
     1
  8
1
  6
Continuous
 62
    30
370
    18
100
AcDbLine
 10
2.774302959442138
 20
6.023550510406494
 30
0.0
 11
2.775053262710571
 21
6.024300575256347
 31
0.0
  0
LINE
  5
33F
330
7D
100
AcDbEntity
 67
     1
  8
1
  6
Continuous
 62
    30
370
    18
100
AcDbLine
 10
2.275803804397583
 20
5.525051593780517
 30
0.0
 11
2.275053262710571
 21
5.524300575256347
 31
0.0
  0
LINE
  5
340
330
7D
100
AcDbEntity
 67
     1
  8
1
  6
Continuous
 62
    30
370
    18
100
AcDbLine
 10
2.774302959442138
 20
5.525051593780517
 30
0.0
 11
2.275803804397583
 21
5.525051593780517
 31
0.0
  0
LINE
  5
341
330
7D
100
AcDbEntity
 67
     1
  8
1
  6
Continuous
 62
    30
370
    18
100
AcDbLine
 10
2.514251470565795
 20
6.206800460815429
 30
0.0
 11
2.513553380966186
 21
6.20610237121582
 31
0.0
  0
LINE
  5
342
330
7D
100
AcDbEntity
 67
     1
  8
1
  6
Continuous
 62
    30
370
    18
100
AcDbLine
 10
2.275803804397583
 20
5.525051593780517
 30
0.0
 11
2.275803804397583
 21
6.023550510406494
 31
0.0
  0
LINE
  5
343
330
7D
100
AcDbEntity
 67
     1
  8
1
  6
Continuous
 62
    30
370
    18
100
AcDbLine
 10
2.275803804397583
 20
6.023550510406494
 30
0.0
 11
2.774302959442138
 21
6.023550510406494
 31
0.0
  0
LINE
  5
344
330
7D
100
AcDbEntity
 67
     1
  8
1
  6
Continuous
 62
    30
370
    18
100
AcDbLine
 10
3.67930269241333
 20
6.023550510406494
 30
0.0
 11
3.180804014205932
 21
6.023550510406494
 31
0.0
  0
LINE
  5
345
330
7D
100
AcDbEntity
 67
     1
  8
1
  6
Continuous
 62
    30
370
    18
100
AcDbLine
 10
2.275803804397583
 20
6.023550510406494
 30
0.0
 11
2.275053262710571
 21
6.024300575256347
 31
0.0
  0
LINE
  5
346
330
7D
100
AcDbEntity
 67
     1
  8
1
  6
Continuous
 62
    30
370
    18
100
AcDbLine
 10
1.9511479139328
 20
6.57476806640625
 30
0.0
 11
1.9511479139328
 21
6.613833427429199
 31
0.0
  0
LINE
  5
347
330
7D
100
AcDbEntity
 67
     1
  8
1
  6
Continuous
 62
    30
370
    18
100
AcDbLine
 10
4.003958702087402
 20
6.613833427429199
 30
0.0
 11
4.003958702087402
 21
6.57476806640625
 31
0.0
  0
LINE
  5
348
330
7D
100
AcDbEntity
 67
     1
  8
1
  6
Continuous
 62
    30
370
    18
100
AcDbLine
 10
4.001651287078857
 20
7.103800773620605
 30
0.0
 11
4.001651287078857
 21
4.444800853729248
 31
0.0
  0
LINE
  5
349
330
7D
100
AcDbEntity
 67
     1
  8
1
  6
Continuous
 62
    30
370
    18
100
AcDbLine
 10
1.953455448150634
 20
4.444800853729248
 30
0.0
 11
1.953455448150634
 21
7.103800773620605
 31
0.0
  0
LINE
  5
34A
330
7D
100
AcDbEntity
 67
     1
  8
1
  6
Continuous
 62
    30
370
    18
100
AcDbLine
 10
3.872134208679199
 20
7.248424053192138
 30
0.0
 11
3.896167516708374
 21
7.243663787841796
 31
0.0
  0
LINE
  5
34B
330
7D
100
AcDbEntity
 67
     1
  8
1
  6
Continuous
 62
    30
370
    18
100
AcDbLine
 10
3.896167516708374
 20
7.243663787841796
 30
0.0
 11
3.919070720672607
 21
7.234973907470703
 31
0.0
  0
LINE
  5
34C
330
7D
100
AcDbEntity
 67
     1
  8
1
  6
Continuous
 62
    30
370
    18
100
AcDbLine
 10
3.919070720672607
 20
7.234973907470703
 30
0.0
 11
3.940175771713256
 21
7.222545146942138
 31
0.0
  0
LINE
  5
34D
330
7D
100
AcDbEntity
 67
     1
  8
1
  6
Continuous
 62
    30
370
    18
100
AcDbLine
 10
3.940175771713256
 20
7.222545146942138
 30
0.0
 11
3.958914995193481
 21
7.206779956817626
 31
0.0
  0
LINE
  5
34E
330
7D
100
AcDbEntity
 67
     1
  8
1
  6
Continuous
 62
    30
370
    18
100
AcDbLine
 10
3.958914995193481
 20
7.206779956817626
 30
0.0
 11
3.974746942520141
 21
7.1880464553833
 31
0.0
  0
LINE
  5
34F
330
7D
100
AcDbEntity
 67
     1
  8
1
  6
Continuous
 62
    30
370
    18
100
AcDbLine
 10
3.974746942520141
 20
7.1880464553833
 30
0.0
 11
3.987233161926269
 21
7.16693115234375
 31
0.0
  0
LINE
  5
350
330
7D
100
AcDbEntity
 67
     1
  8
1
  6
Continuous
 62
    30
370
    18
100
AcDbLine
 10
3.987233161926269
 20
7.16693115234375
 30
0.0
 11
3.995967388153076
 21
7.14400577545166
 31
0.0
  0
LINE
  5
351
330
7D
100
AcDbEntity
 67
     1
  8
1
  6
Continuous
 62
    30
370
    18
100
AcDbLine
 10
3.995967388153076
 20
7.14400577545166
 30
0.0
 11
4.000752925872802
 21
7.119939804077148
 31
0.0
  0
LINE
  5
352
330
7D
100
AcDbEntity
 67
     1
  8
1
  6
Continuous
 62
    30
370
    18
100
AcDbLine
 10
4.000752925872802
 20
7.119939804077148
 30
0.0
 11
4.001651287078857
 21
7.103800773620605
 31
0.0
  0
LINE
  5
353
330
7D
100
AcDbEntity
 67
     1
  8
1
  6
Continuous
 62
    30
370
    18
100
AcDbLine
 10
1.953455448150634
 20
7.103800773620605
 30
0.0
 11
1.955527544021606
 21
7.128173828125
 31
0.0
  0
LINE
  5
354
330
7D
100
AcDbEntity
 67
     1
  8
1
  6
Continuous
 62
    30
370
    18
100
AcDbLine
 10
1.955527544021606
 20
7.128173828125
 30
0.0
 11
1.961626648902893
 21
7.151859760284423
 31
0.0
  0
LINE
  5
355
330
7D
100
AcDbEntity
 67
     1
  8
1
  6
Continuous
 62
    30
370
    18
100
AcDbLine
 10
1.961626648902893
 20
7.151859760284423
 30
0.0
 11
1.971632957458496
 21
7.174172401428222
 31
0.0
  0
LINE
  5
356
330
7D
100
AcDbEntity
 67
     1
  8
1
  6
Continuous
 62
    30
370
    18
100
AcDbLine
 10
1.971632957458496
 20
7.174172401428222
 30
0.0
 11
1.985208749771118
 21
7.194507122039794
 31
0.0
  0
LINE
  5
357
330
7D
100
AcDbEntity
 67
     1
  8
1
  6
Continuous
 62
    30
370
    18
100
AcDbLine
 10
1.985208749771118
 20
7.194507122039794
 30
0.0
 11
2.002055883407592
 21
7.21229600906372
 31
0.0
  0
LINE
  5
358
330
7D
100
AcDbEntity
 67
     1
  8
1
  6
Continuous
 62
    30
370
    18
100
AcDbLine
 10
2.002055883407592
 20
7.21229600906372
 30
0.0
 11
2.021631956100463
 21
7.227031230926513
 31
0.0
  0
LINE
  5
359
330
7D
100
AcDbEntity
 67
     1
  8
1
  6
Continuous
 62
    30
370
    18
100
AcDbLine
 10
2.021631956100463
 20
7.227031230926513
 30
0.0
 11
2.04345417022705
 21
7.238266944885253
 31
0.0
  0
LINE
  5
35A
330
7D
100
AcDbEntity
 67
     1
  8
1
  6
Continuous
 62
    30
370
    18
100
AcDbLine
 10
2.04345417022705
 20
7.238266944885253
 30
0.0
 11
2.066848754882812
 21
7.245707511901855
 31
0.0
  0
LINE
  5
35B
330
7D
100
AcDbEntity
 67
     1
  8
1
  6
Continuous
 62
    30
370
    18
100
AcDbLine
 10
2.066848754882812
 20
7.245707511901855
 30
0.0
 11
2.082972526550292
 21
7.248424053192138
 31
0.0
  0
LINE
  5
35C
330
7D
100
AcDbEntity
 67
     1
  8
1
  6
Continuous
 62
    30
370
    18
100
AcDbLine
 10
2.082972526550292
 20
4.300178050994873
 30
0.0
 11
2.058938980102539
 21
4.304937362670898
 31
0.0
  0
LINE
  5
35D
330
7D
100
AcDbEntity
 67
     1
  8
1
  6
Continuous
 62
    30
370
    18
100
AcDbLine
 10
2.058938980102539
 20
4.304937362670898
 30
0.0
 11
2.036035776138305
 21
4.31362771987915
 31
0.0
  0
LINE
  5
35E
330
7D
100
AcDbEntity
 67
     1
  8
1
  6
Continuous
 62
    30
370
    18
100
AcDbLine
 10
2.036035776138305
 20
4.31362771987915
 30
0.0
 11
2.014930963516235
 21
4.326056480407714
 31
0.0
  0
LINE
  5
35F
330
7D
100
AcDbEntity
 67
     1
  8
1
  6
Continuous
 62
    30
370
    18
100
AcDbLine
 10
2.014930963516235
 20
4.326056480407714
 30
0.0
 11
1.996191620826721
 21
4.341821193695068
 31
0.0
  0
LINE
  5
360
330
7D
100
AcDbEntity
 67
     1
  8
1
  6
Continuous
 62
    30
370
    18
100
AcDbLine
 10
1.996191620826721
 20
4.341821193695068
 30
0.0
 11
1.98035979270935
 21
4.36055564880371
 31
0.0
  0
LINE
  5
361
330
7D
100
AcDbEntity
 67
     1
  8
1
  6
Continuous
 62
    30
370
    18
100
AcDbLine
 10
1.98035979270935
 20
4.36055564880371
 30
0.0
 11
1.967873573303222
 21
4.381670475006103
 31
0.0
  0
LINE
  5
362
330
7D
100
AcDbEntity
 67
     1
  8
1
  6
Continuous
 62
    30
370
    18
100
AcDbLine
 10
1.967873573303222
 20
4.381670475006103
 30
0.0
 11
1.959139466285705
 21
4.404595851898193
 31
0.0
  0
LINE
  5
363
330
7D
100
AcDbEntity
 67
     1
  8
1
  6
Continuous
 62
    30
370
    18
100
AcDbLine
 10
1.959139466285705
 20
4.404595851898193
 30
0.0
 11
1.954353928565979
 21
4.428661823272705
 31
0.0
  0
LINE
  5
364
330
7D
100
AcDbEntity
 67
     1
  8
1
  6
Continuous
 62
    30
370
    18
100
AcDbLine
 10
1.954353928565979
 20
4.428661823272705
 30
0.0
 11
1.953455448150634
 21
4.444800853729248
 31
0.0
  0
LINE
  5
365
330
7D
100
AcDbEntity
 67
     1
  8
1
  6
Continuous
 62
    30
370
    18
100
AcDbLine
 10
3.688053369522094
 20
7.185511112213134
 30
0.0
 11
3.688053369522094
 21
7.18603515625
 31
0.0
  0
LINE
  5
366
330
7D
100
AcDbEntity
 67
     1
  8
1
  6
Continuous
 62
    30
370
    18
100
AcDbLine
 10
4.001651287078857
 20
4.444800853729248
 30
0.0
 11
3.999578952789306
 21
4.420427322387695
 31
0.0
  0
LINE
  5
367
330
7D
100
AcDbEntity
 67
     1
  8
1
  6
Continuous
 62
    30
370
    18
100
AcDbLine
 10
3.999578952789306
 20
4.420427322387695
 30
0.0
 11
3.993479967117309
 21
4.396741867065429
 31
0.0
  0
LINE
  5
368
330
7D
100
AcDbEntity
 67
     1
  8
1
  6
Continuous
 62
    30
370
    18
100
AcDbLine
 10
3.993479967117309
 20
4.396741867065429
 30
0.0
 11
3.983473777770996
 21
4.374428749084472
 31
0.0
  0
LINE
  5
369
330
7D
100
AcDbEntity
 67
     1
  8
1
  6
Continuous
 62
    30
370
    18
100
AcDbLine
 10
3.983473777770996
 20
4.374428749084472
 30
0.0
 11
3.969897985458374
 21
4.354094505310058
 31
0.0
  0
LINE
  5
36A
330
7D
100
AcDbEntity
 67
     1
  8
1
  6
Continuous
 62
    30
370
    18
100
AcDbLine
 10
3.969897985458374
 20
4.354094505310058
 30
0.0
 11
3.953051090240478
 21
4.336305618286132
 31
0.0
  0
LINE
  5
36B
330
7D
100
AcDbEntity
 67
     1
  8
1
  6
Continuous
 62
    30
370
    18
100
AcDbLine
 10
3.953051090240478
 20
4.336305618286132
 30
0.0
 11
3.933474540710449
 21
4.321570396423339
 31
0.0
  0
LINE
  5
36C
330
7D
100
AcDbEntity
 67
     1
  8
1
  6
Continuous
 62
    30
370
    18
100
AcDbLine
 10
3.933474540710449
 20
4.321570396423339
 30
0.0
 11
3.911652565002441
 21
4.310335159301757
 31
0.0
  0
LINE
  5
36D
330
7D
100
AcDbEntity
 67
     1
  8
1
  6
Continuous
 62
    30
370
    18
100
AcDbLine
 10
3.911652565002441
 20
4.310335159301757
 30
0.0
 11
3.8882577419281
 21
4.302893638610839
 31
0.0
  0
LINE
  5
36E
330
7D
100
AcDbEntity
 67
     1
  8
1
  6
Continuous
 62
    30
370
    18
100
AcDbLine
 10
3.8882577419281
 20
4.302893638610839
 30
0.0
 11
3.872134208679199
 21
4.300178050994873
 31
0.0
  0
LINE
  5
36F
330
7D
100
AcDbEntity
 67
     1
  8
1
  6
Continuous
 62
    30
370
    18
100
AcDbLine
 10
3.699187994003295
 20
6.83489990234375
 30
0.0
 11
3.698664188385009
 21
6.83489990234375
 31
0.0
  0
LINE
  5
370
330
7D
100
AcDbEntity
 67
     1
  8
1
  6
Continuous
 62
    30
370
    18
100
AcDbLine
 10
3.699187994003295
 20
7.17490005493164
 30
0.0
 11
3.698664188385009
 21
7.17490005493164
 31
0.0
  0
LINE
  5
371
330
7D
100
AcDbEntity
 67
     1
  8
1
  6
Continuous
 62
    30
370
    18
100
AcDbLine
 10
2.255918741226196
 20
7.17490005493164
 30
0.0
 11
2.256442308425903
 21
7.17490005493164
 31
0.0
  0
LINE
  5
372
330
7D
100
AcDbEntity
 67
     1
  8
1
  6
Continuous
 62
    30
370
    18
100
AcDbLine
 10
3.688053369522094
 20
6.824289798736572
 30
0.0
 11
3.688053369522094
 21
6.823766231536865
 31
0.0
  0
LINE
  5
373
330
7D
100
AcDbEntity
 67
     1
  8
1
  6
Continuous
 62
    30
370
    18
100
AcDbLine
 10
2.267053365707397
 20
6.824289798736572
 30
0.0
 11
2.267053365707397
 21
6.823766231536865
 31
0.0
  0
LINE
  5
374
330
7D
100
AcDbEntity
 67
     1
  8
1
  6
Continuous
 62
    30
370
    18
100
AcDbLine
 10
2.255918741226196
 20
6.83489990234375
 30
0.0
 11
2.256442308425903
 21
6.83489990234375
 31
0.0
  0
LINE
  5
375
330
7D
100
AcDbEntity
 67
     1
  8
1
  6
Continuous
 62
    30
370
    18
100
AcDbLine
 10
2.256442308425903
 20
6.83489990234375
 30
0.0
 11
2.256442308425903
 21
7.17490005493164
 31
0.0
  0
LINE
  5
376
330
7D
100
AcDbEntity
 67
     1
  8
1
  6
Continuous
 62
    30
370
    18
100
AcDbLine
 10
2.29555344581604
 20
7.185511112213134
 30
0.0
 11
2.267053365707397
 21
7.185511112213134
 31
0.0
  0
LINE
  5
377
330
7D
100
AcDbEntity
 67
     1
  8
1
  6
Continuous
 62
    30
370
    18
100
AcDbLine
 10
2.296164274215698
 20
7.184900283813476
 30
0.0
 11
3.658942461013793
 21
7.184900283813476
 31
0.0
  0
LINE
  5
378
330
7D
100
AcDbEntity
 67
     1
  8
1
  6
Continuous
 62
    30
370
    18
100
AcDbLine
 10
3.659553289413452
 20
7.185511112213134
 30
0.0
 11
3.688053369522094
 21
7.185511112213134
 31
0.0
  0
LINE
  5
379
330
7D
100
AcDbEntity
 67
     1
  8
1
  6
Continuous
 62
    30
370
    18
100
AcDbLine
 10
3.698664188385009
 20
6.83489990234375
 30
0.0
 11
3.698664188385009
 21
7.17490005493164
 31
0.0
  0
LINE
  5
37A
330
7D
100
AcDbEntity
 67
     1
  8
1
  6
Continuous
 62
    30
370
    18
100
AcDbLine
 10
2.296164274215698
 20
6.82490062713623
 30
0.0
 11
3.658942461013793
 21
6.82490062713623
 31
0.0
  0
LINE
  5
37B
330
7D
100
AcDbEntity
 67
     1
  8
1
  6
Continuous
 62
    30
370
    18
100
AcDbLine
 10
2.29555344581604
 20
6.824289798736572
 30
0.0
 11
2.267053365707397
 21
6.824289798736572
 31
0.0
  0
LINE
  5
37C
330
7D
100
AcDbEntity
 67
     1
  8
1
  6
Continuous
 62
    30
370
    18
100
AcDbLine
 10
2.267053365707397
 20
7.185511112213134
 30
0.0
 11
2.267053365707397
 21
7.18603515625
 31
0.0
  0
LINE
  5
37D
330
7D
100
AcDbEntity
 67
     1
  8
1
  6
Continuous
 62
    30
370
    18
100
AcDbLine
 10
3.659553289413452
 20
6.824289798736572
 30
0.0
 11
3.688053369522094
 21
6.824289798736572
 31
0.0
  0
LINE
  5
37E
330
7D
100
AcDbEntity
 67
     1
  8
1
  6
Continuous
 62
    30
370
    18
100
AcDbLine
 10
3.856053590774536
 20
4.294800758361816
 30
0.0
 11
3.856053590774536
 21
4.299286842346191
 31
0.0
  0
LINE
  5
37F
330
7D
100
AcDbEntity
 67
     1
  8
1
  6
Continuous
 62
    30
370
    18
100
AcDbLine
 10
2.099053382873535
 20
7.253800868988037
 30
0.0
 11
2.099053382873535
 21
7.249314785003662
 31
0.0
  0
LINE
  5
380
330
7D
100
AcDbEntity
 67
     1
  8
1
  6
Continuous
 62
    30
370
    18
100
AcDbLine
 10
2.099053382873535
 20
4.294800758361816
 30
0.0
 11
2.099053382873535
 21
4.299286842346191
 31
0.0
  0
LINE
  5
381
330
7D
100
AcDbEntity
 67
     1
  8
1
  6
Continuous
 62
    30
370
    18
100
AcDbLine
 10
3.856053590774536
 20
7.253800868988037
 30
0.0
 11
3.856053590774536
 21
7.249314785003662
 31
0.0
  0
LINE
  5
382
330
7D
100
AcDbEntity
 67
     1
  8
1
  6
Continuous
 62
    30
370
    18
100
AcDbLine
 10
1.949053406715393
 20
7.103800773620605
 30
0.0
 11
1.953455448150634
 21
7.103800773620605
 31
0.0
  0
LINE
  5
383
330
7D
100
AcDbEntity
 67
     1
  8
1
  6
Continuous
 62
    30
370
    18
100
AcDbLine
 10
4.006053447723388
 20
7.103800773620605
 30
0.0
 11
4.001651287078857
 21
7.103800773620605
 31
0.0
  0
LINE
  5
384
330
7D
100
AcDbEntity
 67
     1
  8
1
  6
Continuous
 62
    30
370
    18
100
AcDbLine
 10
4.006053447723388
 20
4.444800853729248
 30
0.0
 11
4.001651287078857
 21
4.444800853729248
 31
0.0
  0
LINE
  5
385
330
7D
100
AcDbEntity
 67
     1
  8
1
  6
Continuous
 62
    30
370
    18
100
AcDbLine
 10
1.949053406715393
 20
4.444800853729248
 30
0.0
 11
1.953455448150634
 21
4.444800853729248
 31
0.0
  0
LINE
  5
386
330
7D
100
AcDbEntity
 67
     1
  8
1
  6
Continuous
 62
    30
370
    18
100
AcDbLine
 10
2.712042808532714
 20
6.746203899383544
 30
0.0
 11
2.712042808532714
 21
6.691820621490478
 31
0.0
  0
LINE
  5
387
330
7D
100
AcDbEntity
 67
     1
  8
1
  6
Continuous
 62
    30
370
    18
100
AcDbLine
 10
2.712042808532714
 20
6.691820621490478
 30
0.0
 11
2.727149248123168
 21
6.691820621490478
 31
0.0
  0
LINE
  5
388
330
7D
100
AcDbEntity
 67
     1
  8
1
  6
Continuous
 62
    30
370
    18
100
AcDbLine
 10
2.734702587127685
 20
6.699373722076416
 30
0.0
 11
2.734702587127685
 21
6.738650321960449
 31
0.0
  0
LINE
  5
389
330
7D
100
AcDbEntity
 67
     1
  8
1
  6
Continuous
 62
    30
370
    18
100
AcDbLine
 10
2.800566434860229
 20
6.661456584930419
 30
0.0
 11
2.815431118011474
 21
6.694932460784912
 31
0.0
  0
LINE
  5
38A
330
7D
100
AcDbEntity
 67
     1
  8
1
  6
Continuous
 62
    30
370
    18
100
AcDbLine
 10
2.830537557601928
 20
6.661456584930419
 30
0.0
 11
2.800566434860229
 21
6.661456584930419
 31
0.0
  0
LINE
  5
38B
330
7D
100
AcDbEntity
 67
     1
  8
1
  6
Continuous
 62
    30
370
    18
100
AcDbLine
 10
2.642553329467773
 20
6.618765830993652
 30
0.0
 11
2.642553329467773
 21
6.773395538330078
 31
0.0
  0
LINE
  5
38C
330
7D
100
AcDbEntity
 67
     1
  8
1
  6
Continuous
 62
    30
370
    18
100
AcDbLine
 10
2.642553329467773
 20
6.773395538330078
 30
0.0
 11
2.749929904937744
 21
6.773395538330078
 31
0.0
  0
LINE
  5
38D
330
7D
100
AcDbEntity
 67
     1
  8
1
  6
Continuous
 62
    30
370
    18
100
AcDbLine
 10
2.831534624099731
 20
6.737139701843261
 30
0.0
 11
2.86612844467163
 21
6.660097122192382
 31
0.0
  0
LINE
  5
38E
330
7D
100
AcDbEntity
 67
     1
  8
1
  6
Continuous
 62
    30
370
    18
100
AcDbLine
 10
2.800340890884399
 20
6.737139701843261
 30
0.0
 11
2.831534624099731
 21
6.737139701843261
 31
0.0
  0
LINE
  5
38F
330
7D
100
AcDbEntity
 67
     1
  8
1
  6
Continuous
 62
    30
370
    18
100
AcDbLine
 10
2.86612844467163
 20
6.660097122192382
 30
0.0
 11
2.86612844467163
 21
6.737139701843261
 31
0.0
  0
LINE
  5
390
330
7D
100
AcDbEntity
 67
     1
  8
1
  6
Continuous
 62
    30
370
    18
100
AcDbLine
 10
2.86612844467163
 20
6.737139701843261
 30
0.0
 11
2.905707359313964
 21
6.737139701843261
 31
0.0
  0
LINE
  5
391
330
7D
100
AcDbEntity
 67
     1
  8
1
  6
Continuous
 62
    30
370
    18
100
AcDbLine
 10
2.926553964614868
 20
6.69423770904541
 30
0.0
 11
2.926553964614868
 21
6.737139701843261
 31
0.0
  0
LINE
  5
392
330
7D
100
AcDbEntity
 67
     1
  8
1
  6
Continuous
 62
    30
370
    18
100
AcDbLine
 10
2.905707359313964
 20
6.737139701843261
 30
0.0
 11
2.926553964614868
 21
6.69423770904541
 31
0.0
  0
LINE
  5
393
330
7D
100
AcDbEntity
 67
     1
  8
1
  6
Continuous
 62
    30
370
    18
100
AcDbLine
 10
2.926553964614868
 20
6.737139701843261
 30
0.0
 11
2.956766843795776
 21
6.737139701843261
 31
0.0
  0
LINE
  5
394
330
7D
100
AcDbEntity
 67
     1
  8
1
  6
Continuous
 62
    30
370
    18
100
AcDbLine
 10
2.956766843795776
 20
6.737139701843261
 30
0.0
 11
2.956766843795776
 21
6.618765830993652
 31
0.0
  0
LINE
  5
395
330
7D
100
AcDbEntity
 67
     1
  8
1
  6
Continuous
 62
    30
370
    18
100
AcDbLine
 10
2.956766843795776
 20
6.618765830993652
 30
0.0
 11
2.92111587524414
 21
6.618765830993652
 31
0.0
  0
LINE
  5
396
330
7D
100
AcDbEntity
 67
     1
  8
1
  6
Continuous
 62
    30
370
    18
100
AcDbLine
 10
2.92111587524414
 20
6.618765830993652
 30
0.0
 11
2.899362564086914
 21
6.669160842895507
 31
0.0
  0
LINE
  5
397
330
7D
100
AcDbEntity
 67
     1
  8
1
  6
Continuous
 62
    30
370
    18
100
AcDbLine
 10
2.899362564086914
 20
6.669160842895507
 30
0.0
 11
2.899362564086914
 21
6.618765830993652
 31
0.0
  0
LINE
  5
398
330
7D
100
AcDbEntity
 67
     1
  8
1
  6
Continuous
 62
    30
370
    18
100
AcDbLine
 10
2.899362564086914
 20
6.618765830993652
 30
0.0
 11
2.846429824829101
 21
6.618765830993652
 31
0.0
  0
LINE
  5
399
330
7D
100
AcDbEntity
 67
     1
  8
1
  6
Continuous
 62
    30
370
    18
100
AcDbLine
 10
2.846429824829101
 20
6.618765830993652
 30
0.0
 11
2.838090896606445
 21
6.635836124420166
 31
0.0
  0
LINE
  5
39A
330
7D
100
AcDbEntity
 67
     1
  8
1
  6
Continuous
 62
    30
370
    18
100
AcDbLine
 10
2.838090896606445
 20
6.635836124420166
 30
0.0
 11
2.79310393333435
 21
6.635836124420166
 31
0.0
  0
LINE
  5
39B
330
7D
100
AcDbEntity
 67
     1
  8
1
  6
Continuous
 62
    30
370
    18
100
AcDbLine
 10
2.79310393333435
 20
6.635836124420166
 30
0.0
 11
2.785882949829101
 21
6.618765830993652
 31
0.0
  0
LINE
  5
39C
330
7D
100
AcDbEntity
 67
     1
  8
1
  6
Continuous
 62
    30
370
    18
100
AcDbLine
 10
2.785882949829101
 20
6.618765830993652
 30
0.0
 11
2.750957012176513
 21
6.618765830993652
 31
0.0
  0
LINE
  5
39D
330
7D
100
AcDbEntity
 67
     1
  8
1
  6
Continuous
 62
    30
370
    18
100
AcDbLine
 10
2.750957012176513
 20
6.618765830993652
 30
0.0
 11
2.773228168487548
 21
6.6724214553833
 31
0.0
  0
LINE
  5
39E
330
7D
100
AcDbEntity
 67
     1
  8
1
  6
Continuous
 62
    30
370
    18
100
AcDbLine
 10
2.712042808532714
 20
6.667046070098876
 30
0.0
 11
2.712042808532714
 21
6.618765830993652
 31
0.0
  0
LINE
  5
39F
330
7D
100
AcDbEntity
 67
     1
  8
1
  6
Continuous
 62
    30
370
    18
100
AcDbLine
 10
2.749929904937744
 20
6.667046070098876
 30
0.0
 11
2.712042808532714
 21
6.667046070098876
 31
0.0
  0
LINE
  5
3A0
330
7D
100
AcDbEntity
 67
     1
  8
1
  6
Continuous
 62
    30
370
    18
100
AcDbLine
 10
2.712042808532714
 20
6.618765830993652
 30
0.0
 11
2.642553329467773
 21
6.618765830993652
 31
0.0
  0
LINE
  5
3A1
330
7D
100
AcDbEntity
 67
     1
  8
1
  6
Continuous
 62
    30
370
    18
100
AcDbLine
 10
2.727149248123168
 20
6.746203899383544
 30
0.0
 11
2.712042808532714
 21
6.746203899383544
 31
0.0
  0
LINE
  5
3A2
330
7D
100
AcDbEntity
 67
     1
  8
1
  6
Continuous
 62
    30
370
    18
100
AcDbLine
 10
2.815431118011474
 20
6.694932460784912
 30
0.0
 11
2.830537557601928
 21
6.661456584930419
 31
0.0
  0
LINE
  5
3A3
330
7D
100
AcDbEntity
 67
     1
  8
1
  6
Continuous
 62
    30
370
    18
100
AcDbLine
 10
3.009911298751831
 20
6.645957469940185
 30
0.0
 11
3.009911298751831
 21
6.712425708770751
 31
0.0
  0
LINE
  5
3A4
330
7D
100
AcDbEntity
 67
     1
  8
1
  6
Continuous
 62
    30
370
    18
100
AcDbLine
 10
3.02199649810791
 20
6.645957469940185
 30
0.0
 11
3.009911298751831
 21
6.645957469940185
 31
0.0
  0
LINE
  5
3A5
330
7D
100
AcDbEntity
 67
     1
  8
1
  6
Continuous
 62
    30
370
    18
100
AcDbLine
 10
3.02803897857666
 20
6.706383228302001
 30
0.0
 11
3.02803897857666
 21
6.651999950408935
 31
0.0
  0
LINE
  5
3A6
330
7D
100
AcDbEntity
 67
     1
  8
1
  6
Continuous
 62
    30
370
    18
100
AcDbLine
 10
2.974894762039184
 20
6.618765830993652
 30
0.0
 11
2.974894762039184
 21
6.737139701843261
 31
0.0
  0
LINE
  5
3A7
330
7D
100
AcDbEntity
 67
     1
  8
1
  6
Continuous
 62
    30
370
    18
100
AcDbLine
 10
2.974894762039184
 20
6.737139701843261
 30
0.0
 11
3.041362762451171
 21
6.737139701843261
 31
0.0
  0
LINE
  5
3A8
330
7D
100
AcDbEntity
 67
     1
  8
1
  6
Continuous
 62
    30
370
    18
100
AcDbLine
 10
3.062511920928955
 20
6.715991020202636
 30
0.0
 11
3.062511920928955
 21
6.639914512634277
 31
0.0
  0
LINE
  5
3A9
330
7D
100
AcDbEntity
 67
     1
  8
1
  6
Continuous
 62
    30
370
    18
100
AcDbLine
 10
3.041362762451171
 20
6.618765830993652
 30
0.0
 11
2.974894762039184
 21
6.618765830993652
 31
0.0
  0
LINE
  5
3AA
330
7D
100
AcDbEntity
 67
     1
  8
1
  6
Continuous
 62
    30
370
    18
100
AcDbLine
 10
3.009911298751831
 20
6.712425708770751
 30
0.0
 11
3.02199649810791
 21
6.712425708770751
 31
0.0
  0
LINE
  5
3AB
330
7D
100
AcDbEntity
 67
     1
  8
1
  6
Continuous
 62
    30
370
    18
100
AcDbLine
 10
3.080639600753784
 20
6.639914512634277
 30
0.0
 11
3.080639600753784
 21
6.737139701843261
 31
0.0
  0
LINE
  5
3AC
330
7D
100
AcDbEntity
 67
     1
  8
1
  6
Continuous
 62
    30
370
    18
100
AcDbLine
 10
3.080639600753784
 20
6.737139701843261
 30
0.0
 11
3.1197350025177
 21
6.737139701843261
 31
0.0
  0
LINE
  5
3AD
330
7D
100
AcDbEntity
 67
     1
  8
1
  6
Continuous
 62
    30
370
    18
100
AcDbLine
 10
3.1197350025177
 20
6.737139701843261
 30
0.0
 11
3.1197350025177
 21
6.651999950408935
 31
0.0
  0
LINE
  5
3AE
330
7D
100
AcDbEntity
 67
     1
  8
1
  6
Continuous
 62
    30
370
    18
100
AcDbLine
 10
3.125777721405029
 20
6.645957469940185
 30
0.0
 11
3.134297609329223
 21
6.645957469940185
 31
0.0
  0
LINE
  5
3AF
330
7D
100
AcDbEntity
 67
     1
  8
1
  6
Continuous
 62
    30
370
    18
100
AcDbLine
 10
3.140340328216552
 20
6.651999950408935
 30
0.0
 11
3.140340328216552
 21
6.737139701843261
 31
0.0
  0
LINE
  5
3B0
330
7D
100
AcDbEntity
 67
     1
  8
1
  6
Continuous
 62
    30
370
    18
100
AcDbLine
 10
3.140340328216552
 20
6.737139701843261
 30
0.0
 11
3.165054082870483
 21
6.737139701843261
 31
0.0
  0
LINE
  5
3B1
330
7D
100
AcDbEntity
 67
     1
  8
1
  6
Continuous
 62
    30
370
    18
100
AcDbLine
 10
3.165054082870483
 20
6.737139701843261
 30
0.0
 11
3.165054082870483
 21
6.639914512634277
 31
0.0
  0
LINE
  5
3B2
330
7D
100
AcDbEntity
 67
     1
  8
1
  6
Continuous
 62
    30
370
    18
100
AcDbLine
 10
3.143905401229858
 20
6.618765830993652
 30
0.0
 11
3.101788520812988
 21
6.618765830993652
 31
0.0
  0
LINE
  5
3B3
330
7D
100
AcDbEntity
 67
     1
  8
1
  6
Continuous
 62
    30
370
    18
100
AcDbLine
 10
3.184148788452148
 20
6.618765830993652
 30
0.0
 11
3.184148788452148
 21
6.737139701843261
 31
0.0
  0
LINE
  5
3B4
330
7D
100
AcDbEntity
 67
     1
  8
1
  6
Continuous
 62
    30
370
    18
100
AcDbLine
 10
3.184148788452148
 20
6.737139701843261
 30
0.0
 11
3.215872287750244
 21
6.737139701843261
 31
0.0
  0
LINE
  5
3B5
330
7D
100
AcDbEntity
 67
     1
  8
1
  6
Continuous
 62
    30
370
    18
100
AcDbLine
 10
3.215872287750244
 20
6.737139701843261
 30
0.0
 11
3.215872287750244
 21
6.618765830993652
 31
0.0
  0
LINE
  5
3B6
330
7D
100
AcDbEntity
 67
     1
  8
1
  6
Continuous
 62
    30
370
    18
100
AcDbLine
 10
3.215872287750244
 20
6.618765830993652
 30
0.0
 11
3.184148788452148
 21
6.618765830993652
 31
0.0
  0
LINE
  5
3B7
330
7D
100
AcDbEntity
 67
     1
  8
1
  6
Continuous
 62
    30
370
    18
100
AcDbLine
 10
3.224936246871948
 20
6.712969303131103
 30
0.0
 11
3.249106407165527
 21
6.712969303131103
 31
0.0
  0
LINE
  5
3B8
330
7D
100
AcDbEntity
 67
     1
  8
1
  6
Continuous
 62
    30
370
    18
100
AcDbLine
 10
3.224936246871948
 20
6.737139701843261
 30
0.0
 11
3.224936246871948
 21
6.712969303131103
 31
0.0
  0
LINE
  5
3B9
330
7D
100
AcDbEntity
 67
     1
  8
1
  6
Continuous
 62
    30
370
    18
100
AcDbLine
 10
3.249106407165527
 20
6.712969303131103
 30
0.0
 11
3.249106407165527
 21
6.618765830993652
 31
0.0
  0
LINE
  5
3BA
330
7D
100
AcDbEntity
 67
     1
  8
1
  6
Continuous
 62
    30
370
    18
100
AcDbLine
 10
3.249106407165527
 20
6.618765830993652
 30
0.0
 11
3.285361766815185
 21
6.618765830993652
 31
0.0
  0
LINE
  5
3BB
330
7D
100
AcDbEntity
 67
     1
  8
1
  6
Continuous
 62
    30
370
    18
100
AcDbLine
 10
3.285361766815185
 20
6.618765830993652
 30
0.0
 11
3.285361766815185
 21
6.712969303131103
 31
0.0
  0
LINE
  5
3BC
330
7D
100
AcDbEntity
 67
     1
  8
1
  6
Continuous
 62
    30
370
    18
100
AcDbLine
 10
3.285361766815185
 20
6.712969303131103
 30
0.0
 11
3.312553405761718
 21
6.712969303131103
 31
0.0
  0
LINE
  5
3BD
330
7D
100
AcDbEntity
 67
     1
  8
1
  6
Continuous
 62
    30
370
    18
100
AcDbLine
 10
3.312553405761718
 20
6.712969303131103
 30
0.0
 11
3.312553405761718
 21
6.737139701843261
 31
0.0
  0
LINE
  5
3BE
330
7D
100
AcDbEntity
 67
     1
  8
1
  6
Continuous
 62
    30
370
    18
100
AcDbLine
 10
3.312553405761718
 20
6.737139701843261
 30
0.0
 11
3.224936246871948
 21
6.737139701843261
 31
0.0
  0
LINE
  5
3BF
330
7D
100
AcDbEntity
 67
     1
  8
1
  6
Continuous
 62
   173
370
    18
100
AcDbLine
 10
3.872134208679199
 20
7.306512832641601
 30
0.0
 11
2.082972526550292
 21
7.306512832641601
 31
0.0
  0
LINE
  5
3C0
330
7D
100
AcDbEntity
 67
     1
  8
1
  6
Continuous
 62
   173
370
    18
100
AcDbLine
 10
3.872134208679199
 20
7.25595474243164
 30
0.0
 11
3.872134208679199
 21
7.306512832641601
 31
0.0
  0
LINE
  5
3C1
330
7D
100
AcDbEntity
 67
     1
  8
1
  6
Continuous
 62
   173
370
    18
100
AcDbLine
 10
2.082972526550292
 20
7.306512832641601
 30
0.0
 11
2.082972526550292
 21
7.25595474243164
 31
0.0
  0
LINE
  5
3C2
330
7D
100
AcDbEntity
 67
     1
  8
1
  6
Continuous
 62
   173
370
    18
100
AcDbLine
 10
2.877553462982177
 20
4.08417797088623
 30
0.0
 11
3.077553272247314
 21
4.08417797088623
 31
0.0
  0
LINE
  5
3C3
330
7D
100
AcDbEntity
 67
     1
  8
1
  6
Continuous
 62
   173
370
    18
100
AcDbLine
 10
3.077553272247314
 20
4.08417797088623
 30
0.0
 11
3.079124927520751
 21
4.081820011138916
 31
0.0
  0
LINE
  5
3C4
330
7D
100
AcDbEntity
 67
     1
  8
1
  6
Continuous
 62
   173
370
    18
100
AcDbLine
 10
4.370453357696533
 20
4.081820011138916
 30
0.0
 11
4.370453357696533
 21
4.088643550872802
 31
0.0
  0
LINE
  5
3C5
330
7D
100
AcDbEntity
 67
     1
  8
1
  6
Continuous
 62
   173
370
    18
100
AcDbLine
 10
3.079124927520751
 20
4.081820011138916
 30
0.0
 11
4.370453357696533
 21
4.081820011138916
 31
0.0
  0
LINE
  5
3C6
330
7D
100
AcDbEntity
 67
     1
  8
1
  6
Continuous
 62
   173
370
    18
100
AcDbLine
 10
4.370453357696533
 20
4.088643550872802
 30
0.0
 11
4.173466682434082
 21
4.090793132781982
 31
0.0
  0
LINE
  5
3C7
330
7D
100
AcDbEntity
 67
     1
  8
1
  6
Continuous
 62
   173
370
    18
100
AcDbLine
 10
3.851553201675415
 20
7.257300853729248
 30
0.0
 11
2.103553295135498
 21
7.257300853729248
 31
0.0
  0
LINE
  5
3C8
330
7D
100
AcDbEntity
 67
     1
  8
1
  6
Continuous
 62
   173
370
    18
100
AcDbLine
 10
2.082972526550292
 20
4.092293739318847
 30
0.0
 11
1.981992006301879
 21
4.092126369476318
 31
0.0
  0
LINE
  5
3C9
330
7D
100
AcDbEntity
 67
     1
  8
1
  6
Continuous
 62
   173
370
    18
100
AcDbLine
 10
1.981992006301879
 20
4.092126369476318
 30
0.0
 11
1.881414055824279
 21
4.091625690460205
 31
0.0
  0
LINE
  5
3CA
330
7D
100
AcDbEntity
 67
     1
  8
1
  6
Continuous
 62
   173
370
    18
100
AcDbLine
 10
1.881414055824279
 20
4.091625690460205
 30
0.0
 11
1.781639814376831
 21
4.090793132781982
 31
0.0
  0
LINE
  5
3CB
330
7D
100
AcDbEntity
 67
     1
  8
1
  6
Continuous
 62
   173
370
    18
100
AcDbLine
 10
4.173466682434082
 20
4.090793132781982
 30
0.0
 11
4.073692798614501
 21
4.091625690460205
 31
0.0
  0
LINE
  5
3CC
330
7D
100
AcDbEntity
 67
     1
  8
1
  6
Continuous
 62
   173
370
    18
100
AcDbLine
 10
4.073692798614501
 20
4.091625690460205
 30
0.0
 11
3.973114967346191
 21
4.092126369476318
 31
0.0
  0
LINE
  5
3CD
330
7D
100
AcDbEntity
 67
     1
  8
1
  6
Continuous
 62
   173
370
    18
100
AcDbLine
 10
3.973114967346191
 20
4.092126369476318
 30
0.0
 11
3.872134208679199
 21
4.092293739318847
 31
0.0
  0
LINE
  5
3CE
330
7D
100
AcDbEntity
 67
     1
  8
1
  6
Continuous
 62
   173
370
    18
100
AcDbLine
 10
1.584653377532958
 20
4.088643550872802
 30
0.0
 11
1.584653377532958
 21
4.081820011138916
 31
0.0
  0
LINE
  5
3CF
330
7D
100
AcDbEntity
 67
     1
  8
1
  6
Continuous
 62
   173
370
    18
100
AcDbLine
 10
1.584653377532958
 20
4.081820011138916
 30
0.0
 11
2.87598180770874
 21
4.081820011138916
 31
0.0
  0
LINE
  5
3D0
330
7D
100
AcDbEntity
 67
     1
  8
1
  6
Continuous
 62
   173
370
    18
100
AcDbLine
 10
2.87598180770874
 20
4.081820011138916
 30
0.0
 11
2.877553462982177
 21
4.08417797088623
 31
0.0
  0
LINE
  5
3D1
330
7D
100
AcDbEntity
 67
     1
  8
1
  6
Continuous
 62
   173
370
    18
100
AcDbLine
 10
3.872134208679199
 20
7.456307888031005
 30
0.0
 11
3.973114967346191
 21
7.456474781036376
 31
0.0
  0
LINE
  5
3D2
330
7D
100
AcDbEntity
 67
     1
  8
1
  6
Continuous
 62
   173
370
    18
100
AcDbLine
 10
3.973114967346191
 20
7.456474781036376
 30
0.0
 11
4.073692798614501
 21
7.456975936889648
 31
0.0
  0
LINE
  5
3D3
330
7D
100
AcDbEntity
 67
     1
  8
1
  6
Continuous
 62
   173
370
    18
100
AcDbLine
 10
4.073692798614501
 20
7.456975936889648
 30
0.0
 11
4.173466682434082
 21
7.457808494567871
 31
0.0
  0
LINE
  5
3D4
330
7D
100
AcDbEntity
 67
     1
  8
1
  6
Continuous
 62
   173
370
    18
100
AcDbLine
 10
4.173466682434082
 20
7.457808494567871
 30
0.0
 11
4.370453357696533
 21
7.45995807647705
 31
0.0
  0
LINE
  5
3D5
330
7D
100
AcDbEntity
 67
     1
  8
1
  6
Continuous
 62
   173
370
    18
100
AcDbLine
 10
4.370453357696533
 20
7.45995807647705
 30
0.0
 11
4.370453357696533
 21
7.466781616210937
 31
0.0
  0
LINE
  5
3D6
330
7D
100
AcDbEntity
 67
     1
  8
1
  6
Continuous
 62
   173
370
    18
100
AcDbLine
 10
4.370453357696533
 20
7.466781616210937
 30
0.0
 11
1.584653377532958
 21
7.466781616210937
 31
0.0
  0
LINE
  5
3D7
330
7D
100
AcDbEntity
 67
     1
  8
1
  6
Continuous
 62
   173
370
    18
100
AcDbLine
 10
1.584653377532958
 20
7.466781616210937
 30
0.0
 11
1.584653377532958
 21
7.45995807647705
 31
0.0
  0
LINE
  5
3D8
330
7D
100
AcDbEntity
 67
     1
  8
1
  6
Continuous
 62
   173
370
    18
100
AcDbLine
 10
1.781639814376831
 20
4.090793132781982
 30
0.0
 11
1.584653377532958
 21
4.088643550872802
 31
0.0
  0
LINE
  5
3D9
330
7D
100
AcDbEntity
 67
     1
  8
1
  6
Continuous
 62
   173
370
    18
100
AcDbLine
 10
1.781639814376831
 20
7.457808494567871
 30
0.0
 11
1.881414055824279
 21
7.456975936889648
 31
0.0
  0
LINE
  5
3DA
330
7D
100
AcDbEntity
 67
     1
  8
1
  6
Continuous
 62
   173
370
    18
100
AcDbLine
 10
1.881414055824279
 20
7.456975936889648
 30
0.0
 11
1.981992006301879
 21
7.456474781036376
 31
0.0
  0
LINE
  5
3DB
330
7D
100
AcDbEntity
 67
     1
  8
1
  6
Continuous
 62
   173
370
    18
100
AcDbLine
 10
1.981992006301879
 20
7.456474781036376
 30
0.0
 11
2.082972526550292
 21
7.456307888031005
 31
0.0
  0
LINE
  5
3DC
330
7D
100
AcDbEntity
 67
     1
  8
1
  6
Continuous
 62
   173
370
    18
100
AcDbLine
 10
2.082972526550292
 20
7.456307888031005
 30
0.0
 11
3.872134208679199
 21
7.456307888031005
 31
0.0
  0
LINE
  5
3DD
330
7D
100
AcDbEntity
 67
     1
  8
1
  6
Continuous
 62
   173
370
    18
100
AcDbLine
 10
1.403568387031555
 20
4.38140058517456
 30
0.0
 11
1.406609773635864
 21
4.352415084838867
 31
0.0
  0
LINE
  5
3DE
330
7D
100
AcDbEntity
 67
     1
  8
1
  6
Continuous
 62
   173
370
    18
100
AcDbLine
 10
1.406609773635864
 20
4.352415084838867
 30
0.0
 11
1.413745880126953
 21
4.329080581665039
 31
0.0
  0
LINE
  5
3DF
330
7D
100
AcDbEntity
 67
     1
  8
1
  6
Continuous
 62
   173
370
    18
100
AcDbLine
 10
1.413745880126953
 20
4.329080581665039
 30
0.0
 11
1.424724817276
 21
4.307379245758056
 31
0.0
  0
LINE
  5
3E0
330
7D
100
AcDbEntity
 67
     1
  8
1
  6
Continuous
 62
   173
370
    18
100
AcDbLine
 10
1.424724817276
 20
4.307379245758056
 30
0.0
 11
1.43974220752716
 21
4.287346839904785
 31
0.0
  0
LINE
  5
3E1
330
7D
100
AcDbEntity
 67
     1
  8
1
  6
Continuous
 62
   173
370
    18
100
AcDbLine
 10
1.43974220752716
 20
4.287346839904785
 30
0.0
 11
1.457893371582031
 21
4.27026081085205
 31
0.0
  0
LINE
  5
3E2
330
7D
100
AcDbEntity
 67
     1
  8
1
  6
Continuous
 62
   173
370
    18
100
AcDbLine
 10
1.457893371582031
 20
4.27026081085205
 30
0.0
 11
1.478998064994812
 21
4.256382465362548
 31
0.0
  0
LINE
  5
3E3
330
7D
100
AcDbEntity
 67
     1
  8
1
  6
Continuous
 62
   173
370
    18
100
AcDbLine
 10
1.478998064994812
 20
4.256382465362548
 30
0.0
 11
1.502078413963317
 21
4.246306419372558
 31
0.0
  0
LINE
  5
3E4
330
7D
100
AcDbEntity
 67
     1
  8
1
  6
Continuous
 62
   173
370
    18
100
AcDbLine
 10
1.502078413963317
 20
4.246306419372558
 30
0.0
 11
1.526588320732116
 21
4.240283489227294
 31
0.0
  0
LINE
  5
3E5
330
7D
100
AcDbEntity
 67
     1
  8
1
  6
Continuous
 62
   173
370
    18
100
AcDbLine
 10
1.526588320732116
 20
4.240283489227294
 30
0.0
 11
1.551750183105468
 21
4.23843765258789
 31
0.0
  0
LINE
  5
3E6
330
7D
100
AcDbEntity
 67
     1
  8
1
  6
Continuous
 62
   173
370
    18
100
AcDbLine
 10
1.551750183105468
 20
4.23843765258789
 30
0.0
 11
1.753389954566955
 21
4.240587711334228
 31
0.0
  0
LINE
  5
3E7
330
7D
100
AcDbEntity
 67
     1
  8
1
  6
Continuous
 62
   173
370
    18
100
AcDbLine
 10
1.753389954566955
 20
4.240587711334228
 30
0.0
 11
1.753389954566955
 21
7.308013916015625
 31
0.0
  0
LINE
  5
3E8
330
7D
100
AcDbEntity
 67
     1
  8
1
  6
Continuous
 62
   173
370
    18
100
AcDbLine
 10
1.753389954566955
 20
7.308013916015625
 30
0.0
 11
1.551750183105468
 21
7.310163974761962
 31
0.0
  0
LINE
  5
3E9
330
7D
100
AcDbEntity
 67
     1
  8
1
  6
Continuous
 62
   173
370
    18
100
AcDbLine
 10
1.551750183105468
 20
7.310163974761962
 30
0.0
 11
1.513928055763244
 21
7.305763721466064
 31
0.0
  0
LINE
  5
3EA
330
7D
100
AcDbEntity
 67
     1
  8
1
  6
Continuous
 62
   173
370
    18
100
AcDbLine
 10
1.513928055763244
 20
7.305763721466064
 30
0.0
 11
1.490762114524841
 21
7.297933101654052
 31
0.0
  0
LINE
  5
3EB
330
7D
100
AcDbEntity
 67
     1
  8
1
  6
Continuous
 62
   173
370
    18
100
AcDbLine
 10
1.490762114524841
 20
7.297933101654052
 30
0.0
 11
1.469139575958251
 21
7.286390781402587
 31
0.0
  0
LINE
  5
3EC
330
7D
100
AcDbEntity
 67
     1
  8
1
  6
Continuous
 62
   173
370
    18
100
AcDbLine
 10
1.469139575958251
 20
7.286390781402587
 30
0.0
 11
1.450309634208679
 21
7.271900177001953
 31
0.0
  0
LINE
  5
3ED
330
7D
100
AcDbEntity
 67
     1
  8
1
  6
Continuous
 62
   173
370
    18
100
AcDbLine
 10
1.450309634208679
 20
7.271900177001953
 30
0.0
 11
1.434019446372985
 21
7.254473686218261
 31
0.0
  0
LINE
  5
3EE
330
7D
100
AcDbEntity
 67
     1
  8
1
  6
Continuous
 62
   173
370
    18
100
AcDbLine
 10
1.434019446372985
 20
7.254473686218261
 30
0.0
 11
1.421060681343078
 21
7.234930038452148
 31
0.0
  0
LINE
  5
3EF
330
7D
100
AcDbEntity
 67
     1
  8
1
  6
Continuous
 62
   173
370
    18
100
AcDbLine
 10
1.421060681343078
 20
7.234930038452148
 30
0.0
 11
1.411441326141357
 21
7.213446617126464
 31
0.0
  0
LINE
  5
3F0
330
7D
100
AcDbEntity
 67
     1
  8
1
  6
Continuous
 62
   173
370
    18
100
AcDbLine
 10
1.411441326141357
 20
7.213446617126464
 30
0.0
 11
1.405571699142456
 21
7.190671443939208
 31
0.0
  0
LINE
  5
3F1
330
7D
100
AcDbEntity
 67
     1
  8
1
  6
Continuous
 62
   173
370
    18
100
AcDbLine
 10
1.405571699142456
 20
7.190671443939208
 30
0.0
 11
1.403568387031555
 21
7.167200565338134
 31
0.0
  0
LINE
  5
3F2
330
7D
100
AcDbEntity
 67
     1
  8
1
  6
Continuous
 62
   173
370
    18
100
AcDbLine
 10
1.403568387031555
 20
7.167200565338134
 30
0.0
 11
1.403568387031555
 21
4.38140058517456
 31
0.0
  0
LINE
  5
3F3
330
7D
100
AcDbEntity
 67
     1
  8
1
  6
Continuous
 62
   173
370
    18
100
AcDbLine
 10
1.584653377532958
 20
7.45995807647705
 30
0.0
 11
1.781639814376831
 21
7.457808494567871
 31
0.0
  0
LINE
  5
3F4
330
7D
100
AcDbEntity
 67
     1
  8
1
  6
Continuous
 62
   173
370
    18
100
AcDbLine
 10
4.201716899871826
 20
7.308013916015625
 30
0.0
 11
4.201716899871826
 21
4.240587711334228
 31
0.0
  0
LINE
  5
3F5
330
7D
100
AcDbEntity
 67
     1
  8
1
  6
Continuous
 62
   173
370
    18
100
AcDbLine
 10
3.872134208679199
 20
4.092293739318847
 30
0.0
 11
2.082972526550292
 21
4.092293739318847
 31
0.0
  0
LINE
  5
3F6
330
7D
100
AcDbEntity
 67
     1
  8
1
  6
Continuous
 62
   173
370
    18
100
AcDbLine
 10
4.201716899871826
 20
4.240587711334228
 30
0.0
 11
4.403356552124023
 21
4.23843765258789
 31
0.0
  0
LINE
  5
3F7
330
7D
100
AcDbEntity
 67
     1
  8
1
  6
Continuous
 62
   173
370
    18
100
AcDbLine
 10
4.551537990570068
 20
7.167200565338134
 30
0.0
 11
4.548497200012207
 21
7.196186542510986
 31
0.0
  0
LINE
  5
3F8
330
7D
100
AcDbEntity
 67
     1
  8
1
  6
Continuous
 62
   173
370
    18
100
AcDbLine
 10
4.548497200012207
 20
7.196186542510986
 30
0.0
 11
4.541360855102539
 21
7.219521045684814
 31
0.0
  0
LINE
  5
3F9
330
7D
100
AcDbEntity
 67
     1
  8
1
  6
Continuous
 62
   173
370
    18
100
AcDbLine
 10
4.541360855102539
 20
7.219521045684814
 30
0.0
 11
4.530381679534912
 21
7.241222381591796
 31
0.0
  0
LINE
  5
3FA
330
7D
100
AcDbEntity
 67
     1
  8
1
  6
Continuous
 62
   173
370
    18
100
AcDbLine
 10
4.530381679534912
 20
7.241222381591796
 30
0.0
 11
4.515364170074462
 21
7.261255264282226
 31
0.0
  0
LINE
  5
3FB
330
7D
100
AcDbEntity
 67
     1
  8
1
  6
Continuous
 62
   173
370
    18
100
AcDbLine
 10
4.515364170074462
 20
7.261255264282226
 30
0.0
 11
4.49721336364746
 21
7.278340816497802
 31
0.0
  0
LINE
  5
3FC
330
7D
100
AcDbEntity
 67
     1
  8
1
  6
Continuous
 62
   173
370
    18
100
AcDbLine
 10
4.49721336364746
 20
7.278340816497802
 30
0.0
 11
4.47610855102539
 21
7.292219638824462
 31
0.0
  0
LINE
  5
3FD
330
7D
100
AcDbEntity
 67
     1
  8
1
  6
Continuous
 62
   173
370
    18
100
AcDbLine
 10
4.47610855102539
 20
7.292219638824462
 30
0.0
 11
4.453028202056884
 21
7.302295207977294
 31
0.0
  0
LINE
  5
3FE
330
7D
100
AcDbEntity
 67
     1
  8
1
  6
Continuous
 62
   173
370
    18
100
AcDbLine
 10
4.453028202056884
 20
7.302295207977294
 30
0.0
 11
4.428518772125244
 21
7.308318138122558
 31
0.0
  0
LINE
  5
3FF
330
7D
100
AcDbEntity
 67
     1
  8
1
  6
Continuous
 62
   173
370
    18
100
AcDbLine
 10
4.428518772125244
 20
7.308318138122558
 30
0.0
 11
4.403356552124023
 21
7.310163974761962
 31
0.0
  0
LINE
  5
400
330
7D
100
AcDbEntity
 67
     1
  8
1
  6
Continuous
 62
   173
370
    18
100
AcDbLine
 10
4.403356552124023
 20
4.23843765258789
 30
0.0
 11
4.441178798675537
 21
4.242838382720947
 31
0.0
  0
LINE
  5
401
330
7D
100
AcDbEntity
 67
     1
  8
1
  6
Continuous
 62
   173
370
    18
100
AcDbLine
 10
4.441178798675537
 20
4.242838382720947
 30
0.0
 11
4.464344501495361
 21
4.2506685256958
 31
0.0
  0
LINE
  5
402
330
7D
100
AcDbEntity
 67
     1
  8
1
  6
Continuous
 62
   173
370
    18
100
AcDbLine
 10
4.464344501495361
 20
4.2506685256958
 30
0.0
 11
4.48596715927124
 21
4.262210369110107
 31
0.0
  0
LINE
  5
403
330
7D
100
AcDbEntity
 67
     1
  8
1
  6
Continuous
 62
   173
370
    18
100
AcDbLine
 10
4.48596715927124
 20
4.262210369110107
 30
0.0
 11
4.504796981811523
 21
4.2767014503479
 31
0.0
  0
LINE
  5
404
330
7D
100
AcDbEntity
 67
     1
  8
1
  6
Continuous
 62
   173
370
    18
100
AcDbLine
 10
4.504796981811523
 20
4.2767014503479
 30
0.0
 11
4.521087169647216
 21
4.294127941131591
 31
0.0
  0
LINE
  5
405
330
7D
100
AcDbEntity
 67
     1
  8
1
  6
Continuous
 62
   173
370
    18
100
AcDbLine
 10
4.521087169647216
 20
4.294127941131591
 30
0.0
 11
4.534045696258544
 21
4.313671112060546
 31
0.0
  0
LINE
  5
406
330
7D
100
AcDbEntity
 67
     1
  8
1
  6
Continuous
 62
   173
370
    18
100
AcDbLine
 10
4.534045696258544
 20
4.313671112060546
 30
0.0
 11
4.543665409088134
 21
4.335155010223388
 31
0.0
  0
LINE
  5
407
330
7D
100
AcDbEntity
 67
     1
  8
1
  6
Continuous
 62
   173
370
    18
100
AcDbLine
 10
4.543665409088134
 20
4.335155010223388
 30
0.0
 11
4.549534797668457
 21
4.357929706573486
 31
0.0
  0
LINE
  5
408
330
7D
100
AcDbEntity
 67
     1
  8
1
  6
Continuous
 62
   173
370
    18
100
AcDbLine
 10
4.549534797668457
 20
4.357929706573486
 30
0.0
 11
4.551537990570068
 21
4.38140058517456
 31
0.0
  0
LINE
  5
409
330
7D
100
AcDbEntity
 67
     1
  8
1
  6
Continuous
 62
   173
370
    18
100
AcDbLine
 10
1.285072565078735
 20
7.167200565338134
 30
0.0
 11
1.285072565078735
 21
4.38140058517456
 31
0.0
  0
LINE
  5
40A
330
7D
100
AcDbEntity
 67
     1
  8
1
  6
Continuous
 62
   173
370
    18
100
AcDbLine
 10
1.285072565078735
 20
4.38140058517456
 30
0.0
 11
1.290096640586853
 21
4.38140058517456
 31
0.0
  0
LINE
  5
40B
330
7D
100
AcDbEntity
 67
     1
  8
1
  6
Continuous
 62
   173
370
    18
100
AcDbLine
 10
1.290096640586853
 20
4.38140058517456
 30
0.0
 11
1.290096640586853
 21
7.167200565338134
 31
0.0
  0
LINE
  5
40C
330
7D
100
AcDbEntity
 67
     1
  8
1
  6
Continuous
 62
   173
370
    18
100
AcDbLine
 10
4.403356552124023
 20
7.310163974761962
 30
0.0
 11
4.201716899871826
 21
7.308013916015625
 31
0.0
  0
LINE
  5
40D
330
7D
100
AcDbEntity
 67
     1
  8
1
  6
Continuous
 62
   173
370
    18
100
AcDbLine
 10
4.670034408569335
 20
4.38140058517456
 30
0.0
 11
4.670034408569335
 21
7.167200565338134
 31
0.0
  0
LINE
  5
40E
330
7D
100
AcDbEntity
 67
     1
  8
1
  6
Continuous
 62
   173
370
    18
100
AcDbLine
 10
4.670034408569335
 20
7.167200565338134
 30
0.0
 11
4.665010452270507
 21
7.167200565338134
 31
0.0
  0
LINE
  5
40F
330
7D
100
AcDbEntity
 67
     1
  8
1
  6
Continuous
 62
   173
370
    18
100
AcDbLine
 10
4.665010452270507
 20
7.167200565338134
 30
0.0
 11
4.665010452270507
 21
4.38140058517456
 31
0.0
  0
LINE
  5
410
330
7D
100
AcDbEntity
 67
     1
  8
1
  6
Continuous
 62
   173
370
    18
100
AcDbLine
 10
4.665010452270507
 20
4.38140058517456
 30
0.0
 11
4.670034408569335
 21
4.38140058517456
 31
0.0
  0
LINE
  5
411
330
7D
100
AcDbEntity
 67
     1
  8
1
  6
Continuous
 62
   173
370
    18
100
AcDbLine
 10
2.082972526550292
 20
4.292646884918212
 30
0.0
 11
2.082972526550292
 21
4.242088317871093
 31
0.0
  0
LINE
  5
412
330
7D
100
AcDbEntity
 67
     1
  8
1
  6
Continuous
 62
   173
370
    18
100
AcDbLine
 10
4.551537990570068
 20
4.38140058517456
 30
0.0
 11
4.551537990570068
 21
7.167200565338134
 31
0.0
  0
LINE
  5
413
330
7D
100
AcDbEntity
 67
     1
  8
1
  6
Continuous
 62
   173
370
    18
100
AcDbLine
 10
3.872134208679199
 20
4.242088317871093
 30
0.0
 11
3.872134208679199
 21
4.292646884918212
 31
0.0
  0
LINE
  5
414
330
7D
100
AcDbEntity
 67
     1
  8
1
  6
Continuous
 62
   173
370
    18
100
AcDbLine
 10
2.103553295135498
 20
4.291300773620605
 30
0.0
 11
3.851553201675415
 21
4.291300773620605
 31
0.0
  0
LINE
  5
415
330
7D
100
AcDbEntity
 67
     1
  8
1
  6
Continuous
 62
   173
370
    18
100
AcDbLine
 10
1.290096640586853
 20
7.167200565338134
 30
0.0
 11
1.285072565078735
 21
7.167200565338134
 31
0.0
  0
LINE
  5
416
330
7D
100
AcDbEntity
 67
     1
  8
1
  6
Continuous
 62
   173
370
    18
100
AcDbLine
 10
2.082972526550292
 20
4.242088317871093
 30
0.0
 11
3.872134208679199
 21
4.242088317871093
 31
0.0
  0
LINE
  5
417
330
7D
100
AcDbEntity
 67
     1
  8
1
  6
Continuous
 62
   173
370
    18
100
AcDbLine
 10
1.584653377532958
 20
4.088643550872802
 30
0.0
 11
1.534358024597167
 21
4.092730998992919
 31
0.0
  0
LINE
  5
418
330
7D
100
AcDbEntity
 67
     1
  8
1
  6
Continuous
 62
   173
370
    18
100
AcDbLine
 10
1.534358024597167
 20
4.092730998992919
 30
0.0
 11
1.485489726066589
 21
4.105330467224121
 31
0.0
  0
LINE
  5
419
330
7D
100
AcDbEntity
 67
     1
  8
1
  6
Continuous
 62
   173
370
    18
100
AcDbLine
 10
1.485489726066589
 20
4.105330467224121
 30
0.0
 11
1.43945562839508
 21
4.126233577728271
 31
0.0
  0
LINE
  5
41A
330
7D
100
AcDbEntity
 67
     1
  8
1
  6
Continuous
 62
   173
370
    18
100
AcDbLine
 10
1.43945562839508
 20
4.126233577728271
 30
0.0
 11
1.397635579109191
 21
4.154713630676269
 31
0.0
  0
LINE
  5
41B
330
7D
100
AcDbEntity
 67
     1
  8
1
  6
Continuous
 62
   173
370
    18
100
AcDbLine
 10
1.397635579109191
 20
4.154713630676269
 30
0.0
 11
1.361537218093872
 21
4.189839839935302
 31
0.0
  0
LINE
  5
41C
330
7D
100
AcDbEntity
 67
     1
  8
1
  6
Continuous
 62
   173
370
    18
100
AcDbLine
 10
1.361537218093872
 20
4.189839839935302
 30
0.0
 11
1.331913232803344
 21
4.230642795562744
 31
0.0
  0
LINE
  5
41D
330
7D
100
AcDbEntity
 67
     1
  8
1
  6
Continuous
 62
   173
370
    18
100
AcDbLine
 10
1.331913232803344
 20
4.230642795562744
 30
0.0
 11
1.310154914855957
 21
4.275003433227539
 31
0.0
  0
LINE
  5
41E
330
7D
100
AcDbEntity
 67
     1
  8
1
  6
Continuous
 62
   173
370
    18
100
AcDbLine
 10
1.310154914855957
 20
4.275003433227539
 30
0.0
 11
1.296102881431579
 21
4.322413921356201
 31
0.0
  0
LINE
  5
41F
330
7D
100
AcDbEntity
 67
     1
  8
1
  6
Continuous
 62
   173
370
    18
100
AcDbLine
 10
1.296102881431579
 20
4.322413921356201
 30
0.0
 11
1.290096640586853
 21
4.38140058517456
 31
0.0
  0
LINE
  5
420
330
7D
100
AcDbEntity
 67
     1
  8
1
  6
Continuous
 62
   173
370
    18
100
AcDbLine
 10
4.665010452270507
 20
4.38140058517456
 30
0.0
 11
4.661067962646484
 21
4.333692550659179
 31
0.0
  0
LINE
  5
421
330
7D
100
AcDbEntity
 67
     1
  8
1
  6
Continuous
 62
   173
370
    18
100
AcDbLine
 10
4.661067962646484
 20
4.333692550659179
 30
0.0
 11
4.649457931518554
 21
4.287269115447998
 31
0.0
  0
LINE
  5
422
330
7D
100
AcDbEntity
 67
     1
  8
1
  6
Continuous
 62
   173
370
    18
100
AcDbLine
 10
4.649457931518554
 20
4.287269115447998
 30
0.0
 11
4.630506515502929
 21
4.243596076965332
 31
0.0
  0
LINE
  5
423
330
7D
100
AcDbEntity
 67
     1
  8
1
  6
Continuous
 62
   173
370
    18
100
AcDbLine
 10
4.630506515502929
 20
4.243596076965332
 30
0.0
 11
4.604796886444091
 21
4.203580379486083
 31
0.0
  0
LINE
  5
424
330
7D
100
AcDbEntity
 67
     1
  8
1
  6
Continuous
 62
   173
370
    18
100
AcDbLine
 10
4.604796886444091
 20
4.203580379486083
 30
0.0
 11
4.572619915008544
 21
4.168019771575927
 31
0.0
  0
LINE
  5
425
330
7D
100
AcDbEntity
 67
     1
  8
1
  6
Continuous
 62
   173
370
    18
100
AcDbLine
 10
4.572619915008544
 20
4.168019771575927
 30
0.0
 11
4.535142421722412
 21
4.138174533843994
 31
0.0
  0
LINE
  5
426
330
7D
100
AcDbEntity
 67
     1
  8
1
  6
Continuous
 62
   173
370
    18
100
AcDbLine
 10
4.535142421722412
 20
4.138174533843994
 30
0.0
 11
4.492228507995605
 21
4.114413261413574
 31
0.0
  0
LINE
  5
427
330
7D
100
AcDbEntity
 67
     1
  8
1
  6
Continuous
 62
   173
370
    18
100
AcDbLine
 10
4.492228507995605
 20
4.114413261413574
 30
0.0
 11
4.445998668670654
 21
4.098101615905761
 31
0.0
  0
LINE
  5
428
330
7D
100
AcDbEntity
 67
     1
  8
1
  6
Continuous
 62
   173
370
    18
100
AcDbLine
 10
4.445998668670654
 20
4.098101615905761
 30
0.0
 11
4.408532619476318
 21
4.090918064117431
 31
0.0
  0
LINE
  5
429
330
7D
100
AcDbEntity
 67
     1
  8
1
  6
Continuous
 62
   173
370
    18
100
AcDbLine
 10
4.408532619476318
 20
4.090918064117431
 30
0.0
 11
4.370453357696533
 21
4.088643550872802
 31
0.0
  0
LINE
  5
42A
330
7D
100
AcDbEntity
 67
     1
  8
1
  6
Continuous
 62
   173
370
    18
100
AcDbLine
 10
1.290096640586853
 20
7.167200565338134
 30
0.0
 11
1.294038772583007
 21
7.214909076690673
 31
0.0
  0
LINE
  5
42B
330
7D
100
AcDbEntity
 67
     1
  8
1
  6
Continuous
 62
   173
370
    18
100
AcDbLine
 10
1.294038772583007
 20
7.214909076690673
 30
0.0
 11
1.305648446083068
 21
7.261332511901855
 31
0.0
  0
LINE
  5
42C
330
7D
100
AcDbEntity
 67
     1
  8
1
  6
Continuous
 62
   173
370
    18
100
AcDbLine
 10
1.305648446083068
 20
7.261332511901855
 30
0.0
 11
1.324599981307983
 21
7.305006027221679
 31
0.0
  0
LINE
  5
42D
330
7D
100
AcDbEntity
 67
     1
  8
1
  6
Continuous
 62
   173
370
    18
100
AcDbLine
 10
1.324599981307983
 20
7.305006027221679
 30
0.0
 11
1.350309967994689
 21
7.345021247863769
 31
0.0
  0
LINE
  5
42E
330
7D
100
AcDbEntity
 67
     1
  8
1
  6
Continuous
 62
   173
370
    18
100
AcDbLine
 10
1.350309967994689
 20
7.345021247863769
 30
0.0
 11
1.382486820220947
 21
7.380581855773925
 31
0.0
  0
LINE
  5
42F
330
7D
100
AcDbEntity
 67
     1
  8
1
  6
Continuous
 62
   173
370
    18
100
AcDbLine
 10
1.382486820220947
 20
7.380581855773925
 30
0.0
 11
1.4199640750885
 21
7.410427570343017
 31
0.0
  0
LINE
  5
430
330
7D
100
AcDbEntity
 67
     1
  8
1
  6
Continuous
 62
   173
370
    18
100
AcDbLine
 10
1.4199640750885
 20
7.410427570343017
 30
0.0
 11
1.462877988815307
 21
7.434187889099121
 31
0.0
  0
LINE
  5
431
330
7D
100
AcDbEntity
 67
     1
  8
1
  6
Continuous
 62
   173
370
    18
100
AcDbLine
 10
1.462877988815307
 20
7.434187889099121
 30
0.0
 11
1.509108185768127
 21
7.450500011444091
 31
0.0
  0
LINE
  5
432
330
7D
100
AcDbEntity
 67
     1
  8
1
  6
Continuous
 62
   173
370
    18
100
AcDbLine
 10
1.509108185768127
 20
7.450500011444091
 30
0.0
 11
1.546573758125305
 21
7.457683086395263
 31
0.0
  0
LINE
  5
433
330
7D
100
AcDbEntity
 67
     1
  8
1
  6
Continuous
 62
   173
370
    18
100
AcDbLine
 10
1.546573758125305
 20
7.457683086395263
 30
0.0
 11
1.584653377532958
 21
7.45995807647705
 31
0.0
  0
LINE
  5
434
330
7D
100
AcDbEntity
 67
     1
  8
1
  6
Continuous
 62
   173
370
    18
100
AcDbLine
 10
4.009647846221923
 20
4.44930076599121
 30
0.0
 11
4.009647846221923
 21
7.0993013381958
 31
0.0
  0
LINE
  5
435
330
7D
100
AcDbEntity
 67
     1
  8
1
  6
Continuous
 62
   173
370
    18
100
AcDbLine
 10
4.009647846221923
 20
7.0993013381958
 30
0.0
 11
4.007398128509521
 21
7.125763416290283
 31
0.0
  0
LINE
  5
436
330
7D
100
AcDbEntity
 67
     1
  8
1
  6
Continuous
 62
   173
370
    18
100
AcDbLine
 10
4.007398128509521
 20
7.125763416290283
 30
0.0
 11
4.000776290893554
 21
7.151479721069335
 31
0.0
  0
LINE
  5
437
330
7D
100
AcDbEntity
 67
     1
  8
1
  6
Continuous
 62
   173
370
    18
100
AcDbLine
 10
4.000776290893554
 20
7.151479721069335
 30
0.0
 11
3.989915132522583
 21
7.175700664520263
 31
0.0
  0
LINE
  5
438
330
7D
100
AcDbEntity
 67
     1
  8
1
  6
Continuous
 62
   173
370
    18
100
AcDbLine
 10
3.989915132522583
 20
7.175700664520263
 30
0.0
 11
3.975180387496948
 21
7.197774410247802
 31
0.0
  0
LINE
  5
439
330
7D
100
AcDbEntity
 67
     1
  8
1
  6
Continuous
 62
   173
370
    18
100
AcDbLine
 10
3.975180387496948
 20
7.197774410247802
 30
0.0
 11
3.95689058303833
 21
7.217090606689453
 31
0.0
  0
LINE
  5
43A
330
7D
100
AcDbEntity
 67
     1
  8
1
  6
Continuous
 62
   173
370
    18
100
AcDbLine
 10
3.95689058303833
 20
7.217090606689453
 30
0.0
 11
3.9356369972229
 21
7.233092784881591
 31
0.0
  0
LINE
  5
43B
330
7D
100
AcDbEntity
 67
     1
  8
1
  6
Continuous
 62
   173
370
    18
100
AcDbLine
 10
3.9356369972229
 20
7.233092784881591
 30
0.0
 11
3.911941051483154
 21
7.245296478271484
 31
0.0
  0
LINE
  5
43C
330
7D
100
AcDbEntity
 67
     1
  8
1
  6
Continuous
 62
   173
370
    18
100
AcDbLine
 10
3.911941051483154
 20
7.245296478271484
 30
0.0
 11
3.886537075042724
 21
7.253379821777343
 31
0.0
  0
LINE
  5
43D
330
7D
100
AcDbEntity
 67
     1
  8
1
  6
Continuous
 62
   173
370
    18
100
AcDbLine
 10
3.886537075042724
 20
7.253379821777343
 30
0.0
 11
3.872134208679199
 21
7.25595474243164
 31
0.0
  0
LINE
  5
43E
330
7D
100
AcDbEntity
 67
     1
  8
1
  6
Continuous
 62
   173
370
    18
100
AcDbLine
 10
3.872134208679199
 20
4.292646884918212
 30
0.0
 11
3.904297351837158
 21
4.300358772277832
 31
0.0
  0
LINE
  5
43F
330
7D
100
AcDbEntity
 67
     1
  8
1
  6
Continuous
 62
   173
370
    18
100
AcDbLine
 10
3.904297351837158
 20
4.300358772277832
 30
0.0
 11
3.92849326133728
 21
4.311299800872802
 31
0.0
  0
LINE
  5
440
330
7D
100
AcDbEntity
 67
     1
  8
1
  6
Continuous
 62
   173
370
    18
100
AcDbLine
 10
3.92849326133728
 20
4.311299800872802
 30
0.0
 11
3.950530767440795
 21
4.326104640960693
 31
0.0
  0
LINE
  5
441
330
7D
100
AcDbEntity
 67
     1
  8
1
  6
Continuous
 62
   173
370
    18
100
AcDbLine
 10
3.950530767440795
 20
4.326104640960693
 30
0.0
 11
3.969799041748046
 21
4.344457626342773
 31
0.0
  0
LINE
  5
442
330
7D
100
AcDbEntity
 67
     1
  8
1
  6
Continuous
 62
   173
370
    18
100
AcDbLine
 10
3.969799041748046
 20
4.344457626342773
 30
0.0
 11
3.985739946365356
 21
4.365764141082763
 31
0.0
  0
LINE
  5
443
330
7D
100
AcDbEntity
 67
     1
  8
1
  6
Continuous
 62
   173
370
    18
100
AcDbLine
 10
3.985739946365356
 20
4.365764141082763
 30
0.0
 11
3.997865200042724
 21
4.389495372772216
 31
0.0
  0
LINE
  5
444
330
7D
100
AcDbEntity
 67
     1
  8
1
  6
Continuous
 62
   173
370
    18
100
AcDbLine
 10
3.997865200042724
 20
4.389495372772216
 30
0.0
 11
4.005859375
 21
4.414922714233398
 31
0.0
  0
LINE
  5
445
330
7D
100
AcDbEntity
 67
     1
  8
1
  6
Continuous
 62
   173
370
    18
100
AcDbLine
 10
4.005859375
 20
4.414922714233398
 30
0.0
 11
4.009647846221923
 21
4.44930076599121
 31
0.0
  0
LINE
  5
446
330
7D
100
AcDbEntity
 67
     1
  8
1
  6
Continuous
 62
   173
370
    18
100
AcDbLine
 10
3.872134208679199
 20
4.242088317871093
 30
0.0
 11
3.982581853866577
 21
4.241920948028564
 31
0.0
  0
LINE
  5
447
330
7D
100
AcDbEntity
 67
     1
  8
1
  6
Continuous
 62
   173
370
    18
100
AcDbLine
 10
3.982581853866577
 20
4.241920948028564
 30
0.0
 11
4.092588901519775
 21
4.241420269012451
 31
0.0
  0
LINE
  5
448
330
7D
100
AcDbEntity
 67
     1
  8
1
  6
Continuous
 62
   173
370
    18
100
AcDbLine
 10
4.092588901519775
 20
4.241420269012451
 30
0.0
 11
4.201716899871826
 21
4.240587711334228
 31
0.0
  0
LINE
  5
449
330
7D
100
AcDbEntity
 67
     1
  8
1
  6
Continuous
 62
   173
370
    18
100
AcDbLine
 10
4.201716899871826
 20
7.308013916015625
 30
0.0
 11
4.092588901519775
 21
7.307181358337402
 31
0.0
  0
LINE
  5
44A
330
7D
100
AcDbEntity
 67
     1
  8
1
  6
Continuous
 62
   173
370
    18
100
AcDbLine
 10
4.092588901519775
 20
7.307181358337402
 30
0.0
 11
3.982581853866577
 21
7.306680679321289
 31
0.0
  0
LINE
  5
44B
330
7D
100
AcDbEntity
 67
     1
  8
1
  6
Continuous
 62
   173
370
    18
100
AcDbLine
 10
3.982581853866577
 20
7.306680679321289
 30
0.0
 11
3.872134208679199
 21
7.306512832641601
 31
0.0
  0
LINE
  5
44C
330
7D
100
AcDbEntity
 67
     1
  8
1
  6
Continuous
 62
   173
370
    18
100
AcDbLine
 10
2.082972526550292
 20
7.306512832641601
 30
0.0
 11
1.972525119781494
 21
7.306680679321289
 31
0.0
  0
LINE
  5
44D
330
7D
100
AcDbEntity
 67
     1
  8
1
  6
Continuous
 62
   173
370
    18
100
AcDbLine
 10
1.972525119781494
 20
7.306680679321289
 30
0.0
 11
1.862517952919006
 21
7.307181358337402
 31
0.0
  0
LINE
  5
44E
330
7D
100
AcDbEntity
 67
     1
  8
1
  6
Continuous
 62
   173
370
    18
100
AcDbLine
 10
1.862517952919006
 20
7.307181358337402
 30
0.0
 11
1.753389954566955
 21
7.308013916015625
 31
0.0
  0
LINE
  5
44F
330
7D
100
AcDbEntity
 67
     1
  8
1
  6
Continuous
 62
   173
370
    18
100
AcDbLine
 10
1.753389954566955
 20
4.240587711334228
 30
0.0
 11
1.862517952919006
 21
4.241420269012451
 31
0.0
  0
LINE
  5
450
330
7D
100
AcDbEntity
 67
     1
  8
1
  6
Continuous
 62
   173
370
    18
100
AcDbLine
 10
1.862517952919006
 20
4.241420269012451
 30
0.0
 11
1.972525119781494
 21
4.241920948028564
 31
0.0
  0
LINE
  5
451
330
7D
100
AcDbEntity
 67
     1
  8
1
  6
Continuous
 62
   173
370
    18
100
AcDbLine
 10
1.972525119781494
 20
4.241920948028564
 30
0.0
 11
2.082972526550292
 21
4.242088317871093
 31
0.0
  0
LINE
  5
452
330
7D
100
AcDbEntity
 67
     1
  8
1
  6
Continuous
 62
   173
370
    18
100
AcDbLine
 10
1.945458769798278
 20
4.44930076599121
 30
0.0
 11
1.94770860671997
 21
4.422837734222412
 31
0.0
  0
LINE
  5
453
330
7D
100
AcDbEntity
 67
     1
  8
1
  6
Continuous
 62
   173
370
    18
100
AcDbLine
 10
1.94770860671997
 20
4.422837734222412
 30
0.0
 11
1.954330325126647
 21
4.397121906280517
 31
0.0
  0
LINE
  5
454
330
7D
100
AcDbEntity
 67
     1
  8
1
  6
Continuous
 62
   173
370
    18
100
AcDbLine
 10
1.954330325126647
 20
4.397121906280517
 30
0.0
 11
1.965191483497619
 21
4.372900962829589
 31
0.0
  0
LINE
  5
455
330
7D
100
AcDbEntity
 67
     1
  8
1
  6
Continuous
 62
   173
370
    18
100
AcDbLine
 10
1.965191483497619
 20
4.372900962829589
 30
0.0
 11
1.979926228523254
 21
4.350826740264892
 31
0.0
  0
LINE
  5
456
330
7D
100
AcDbEntity
 67
     1
  8
1
  6
Continuous
 62
   173
370
    18
100
AcDbLine
 10
1.979926228523254
 20
4.350826740264892
 30
0.0
 11
1.998216152191162
 21
4.3315110206604
 31
0.0
  0
LINE
  5
457
330
7D
100
AcDbEntity
 67
     1
  8
1
  6
Continuous
 62
   173
370
    18
100
AcDbLine
 10
1.998216152191162
 20
4.3315110206604
 30
0.0
 11
2.019469738006591
 21
4.315508842468261
 31
0.0
  0
LINE
  5
458
330
7D
100
AcDbEntity
 67
     1
  8
1
  6
Continuous
 62
   173
370
    18
100
AcDbLine
 10
2.019469738006591
 20
4.315508842468261
 30
0.0
 11
2.043165445327758
 21
4.303305149078369
 31
0.0
  0
LINE
  5
459
330
7D
100
AcDbEntity
 67
     1
  8
1
  6
Continuous
 62
   173
370
    18
100
AcDbLine
 10
2.043165445327758
 20
4.303305149078369
 30
0.0
 11
2.068569898605346
 21
4.295221328735351
 31
0.0
  0
LINE
  5
45A
330
7D
100
AcDbEntity
 67
     1
  8
1
  6
Continuous
 62
   173
370
    18
100
AcDbLine
 10
2.068569898605346
 20
4.295221328735351
 30
0.0
 11
2.082972526550292
 21
4.292646884918212
 31
0.0
  0
LINE
  5
45B
330
7D
100
AcDbEntity
 67
     1
  8
1
  6
Continuous
 62
   173
370
    18
100
AcDbLine
 10
4.370453357696533
 20
7.45995807647705
 30
0.0
 11
4.420748710632324
 21
7.455870151519775
 31
0.0
  0
LINE
  5
45C
330
7D
100
AcDbEntity
 67
     1
  8
1
  6
Continuous
 62
   173
370
    18
100
AcDbLine
 10
4.420748710632324
 20
7.455870151519775
 30
0.0
 11
4.469616889953613
 21
7.443270683288574
 31
0.0
  0
LINE
  5
45D
330
7D
100
AcDbEntity
 67
     1
  8
1
  6
Continuous
 62
   173
370
    18
100
AcDbLine
 10
4.469616889953613
 20
7.443270683288574
 30
0.0
 11
4.515651226043701
 21
7.42236852645874
 31
0.0
  0
LINE
  5
45E
330
7D
100
AcDbEntity
 67
     1
  8
1
  6
Continuous
 62
   173
370
    18
100
AcDbLine
 10
4.515651226043701
 20
7.42236852645874
 30
0.0
 11
4.557471275329589
 21
7.393887519836425
 31
0.0
  0
LINE
  5
45F
330
7D
100
AcDbEntity
 67
     1
  8
1
  6
Continuous
 62
   173
370
    18
100
AcDbLine
 10
4.557471275329589
 20
7.393887519836425
 30
0.0
 11
4.593569278717041
 21
7.35876178741455
 31
0.0
  0
LINE
  5
460
330
7D
100
AcDbEntity
 67
     1
  8
1
  6
Continuous
 62
   173
370
    18
100
AcDbLine
 10
4.593569278717041
 20
7.35876178741455
 30
0.0
 11
4.623193264007568
 21
7.317959308624267
 31
0.0
  0
LINE
  5
461
330
7D
100
AcDbEntity
 67
     1
  8
1
  6
Continuous
 62
   173
370
    18
100
AcDbLine
 10
4.623193264007568
 20
7.317959308624267
 30
0.0
 11
4.644951820373535
 21
7.273598194122314
 31
0.0
  0
LINE
  5
462
330
7D
100
AcDbEntity
 67
     1
  8
1
  6
Continuous
 62
   173
370
    18
100
AcDbLine
 10
4.644951820373535
 20
7.273598194122314
 30
0.0
 11
4.659004211425781
 21
7.226187705993652
 31
0.0
  0
LINE
  5
463
330
7D
100
AcDbEntity
 67
     1
  8
1
  6
Continuous
 62
   173
370
    18
100
AcDbLine
 10
4.659004211425781
 20
7.226187705993652
 30
0.0
 11
4.665010452270507
 21
7.167200565338134
 31
0.0
  0
LINE
  5
464
330
7D
100
AcDbEntity
 67
     1
  8
1
  6
Continuous
 62
   173
370
    18
100
AcDbLine
 10
2.082972526550292
 20
4.242088317871093
 30
0.0
 11
2.082972526550292
 21
4.204530715942382
 31
0.0
  0
LINE
  5
465
330
7D
100
AcDbEntity
 67
     1
  8
1
  6
Continuous
 62
   173
370
    18
100
AcDbLine
 10
2.082972526550292
 20
4.204530715942382
 30
0.0
 11
2.082972526550292
 21
4.169366359710693
 31
0.0
  0
LINE
  5
466
330
7D
100
AcDbEntity
 67
     1
  8
1
  6
Continuous
 62
   173
370
    18
100
AcDbLine
 10
2.082972526550292
 20
4.169366359710693
 30
0.0
 11
2.082972526550292
 21
4.138834953308105
 31
0.0
  0
LINE
  5
467
330
7D
100
AcDbEntity
 67
     1
  8
1
  6
Continuous
 62
   173
370
    18
100
AcDbLine
 10
2.082972526550292
 20
4.138834953308105
 30
0.0
 11
2.082972526550292
 21
4.114881038665771
 31
0.0
  0
LINE
  5
468
330
7D
100
AcDbEntity
 67
     1
  8
1
  6
Continuous
 62
   173
370
    18
100
AcDbLine
 10
2.082972526550292
 20
4.114881038665771
 30
0.0
 11
2.082972526550292
 21
4.099030494689941
 31
0.0
  0
LINE
  5
469
330
7D
100
AcDbEntity
 67
     1
  8
1
  6
Continuous
 62
   173
370
    18
100
AcDbLine
 10
2.082972526550292
 20
4.099030494689941
 30
0.0
 11
2.082972526550292
 21
4.092293739318847
 31
0.0
  0
LINE
  5
46A
330
7D
100
AcDbEntity
 67
     1
  8
1
  6
Continuous
 62
   173
370
    18
100
AcDbLine
 10
1.781639814376831
 20
4.090793132781982
 30
0.0
 11
1.774553060531616
 21
4.097501754760742
 31
0.0
  0
LINE
  5
46B
330
7D
100
AcDbEntity
 67
     1
  8
1
  6
Continuous
 62
   173
370
    18
100
AcDbLine
 10
1.774553060531616
 20
4.097501754760742
 30
0.0
 11
1.767918109893798
 21
4.113337039947509
 31
0.0
  0
LINE
  5
46C
330
7D
100
AcDbEntity
 67
     1
  8
1
  6
Continuous
 62
   173
370
    18
100
AcDbLine
 10
1.767918109893798
 20
4.113337039947509
 30
0.0
 11
1.762158632278442
 21
4.137288570404052
 31
0.0
  0
LINE
  5
46D
330
7D
100
AcDbEntity
 67
     1
  8
1
  6
Continuous
 62
   173
370
    18
100
AcDbLine
 10
1.762158632278442
 20
4.137288570404052
 30
0.0
 11
1.757641434669494
 21
4.167829036712646
 31
0.0
  0
LINE
  5
46E
330
7D
100
AcDbEntity
 67
     1
  8
1
  6
Continuous
 62
   173
370
    18
100
AcDbLine
 10
1.757641434669494
 20
4.167829036712646
 30
0.0
 11
1.754655241966247
 21
4.203010082244873
 31
0.0
  0
LINE
  5
46F
330
7D
100
AcDbEntity
 67
     1
  8
1
  6
Continuous
 62
   173
370
    18
100
AcDbLine
 10
1.754655241966247
 20
4.203010082244873
 30
0.0
 11
1.753389954566955
 21
4.240587711334228
 31
0.0
  0
LINE
  5
470
330
7D
100
AcDbEntity
 67
     1
  8
1
  6
Continuous
 62
   173
370
    18
100
AcDbLine
 10
1.584653377532958
 20
4.088643550872802
 30
0.0
 11
1.57639741897583
 21
4.095341682434082
 31
0.0
  0
LINE
  5
471
330
7D
100
AcDbEntity
 67
     1
  8
1
  6
Continuous
 62
   173
370
    18
100
AcDbLine
 10
1.57639741897583
 20
4.095341682434082
 30
0.0
 11
1.568668484687805
 21
4.111171722412109
 31
0.0
  0
LINE
  5
472
330
7D
100
AcDbEntity
 67
     1
  8
1
  6
Continuous
 62
   173
370
    18
100
AcDbLine
 10
1.568668484687805
 20
4.111171722412109
 30
0.0
 11
1.561959505081176
 21
4.135122299194335
 31
0.0
  0
LINE
  5
473
330
7D
100
AcDbEntity
 67
     1
  8
1
  6
Continuous
 62
   173
370
    18
100
AcDbLine
 10
1.561959505081176
 20
4.135122299194335
 30
0.0
 11
1.556698560714721
 21
4.16566514968872
 31
0.0
  0
LINE
  5
474
330
7D
100
AcDbEntity
 67
     1
  8
1
  6
Continuous
 62
   173
370
    18
100
AcDbLine
 10
1.556698560714721
 20
4.16566514968872
 30
0.0
 11
1.553221583366394
 21
4.200852394104003
 31
0.0
  0
LINE
  5
475
330
7D
100
AcDbEntity
 67
     1
  8
1
  6
Continuous
 62
   173
370
    18
100
AcDbLine
 10
1.553221583366394
 20
4.200852394104003
 30
0.0
 11
1.551750183105468
 21
4.23843765258789
 31
0.0
  0
LINE
  5
476
330
7D
100
AcDbEntity
 67
     1
  8
1
  6
Continuous
 62
   173
370
    18
100
AcDbLine
 10
2.082972526550292
 20
7.25595474243164
 30
0.0
 11
2.050809144973754
 21
7.248242378234863
 31
0.0
  0
LINE
  5
477
330
7D
100
AcDbEntity
 67
     1
  8
1
  6
Continuous
 62
   173
370
    18
100
AcDbLine
 10
2.050809144973754
 20
7.248242378234863
 30
0.0
 11
2.026613235473632
 21
7.23730182647705
 31
0.0
  0
LINE
  5
478
330
7D
100
AcDbEntity
 67
     1
  8
1
  6
Continuous
 62
   173
370
    18
100
AcDbLine
 10
2.026613235473632
 20
7.23730182647705
 30
0.0
 11
2.004575967788696
 21
7.22249698638916
 31
0.0
  0
LINE
  5
479
330
7D
100
AcDbEntity
 67
     1
  8
1
  6
Continuous
 62
   173
370
    18
100
AcDbLine
 10
2.004575967788696
 20
7.22249698638916
 30
0.0
 11
1.985307812690734
 21
7.20414400100708
 31
0.0
  0
LINE
  5
47A
330
7D
100
AcDbEntity
 67
     1
  8
1
  6
Continuous
 62
   173
370
    18
100
AcDbLine
 10
1.985307812690734
 20
7.20414400100708
 30
0.0
 11
1.969366669654846
 21
7.182837009429931
 31
0.0
  0
LINE
  5
47B
330
7D
100
AcDbEntity
 67
     1
  8
1
  6
Continuous
 62
   173
370
    18
100
AcDbLine
 10
1.969366669654846
 20
7.182837009429931
 30
0.0
 11
1.957241415977478
 21
7.159106731414794
 31
0.0
  0
LINE
  5
47C
330
7D
100
AcDbEntity
 67
     1
  8
1
  6
Continuous
 62
   173
370
    18
100
AcDbLine
 10
1.957241415977478
 20
7.159106731414794
 30
0.0
 11
1.949247121810913
 21
7.133678436279296
 31
0.0
  0
LINE
  5
47D
330
7D
100
AcDbEntity
 67
     1
  8
1
  6
Continuous
 62
   173
370
    18
100
AcDbLine
 10
1.949247121810913
 20
7.133678436279296
 30
0.0
 11
1.945458769798278
 21
7.0993013381958
 31
0.0
  0
LINE
  5
47E
330
7D
100
AcDbEntity
 67
     1
  8
1
  6
Continuous
 62
   173
370
    18
100
AcDbLine
 10
1.290096640586853
 20
4.38140058517456
 30
0.0
 11
1.296910285949707
 21
4.38140058517456
 31
0.0
  0
LINE
  5
47F
330
7D
100
AcDbEntity
 67
     1
  8
1
  6
Continuous
 62
   173
370
    18
100
AcDbLine
 10
1.296910285949707
 20
4.38140058517456
 30
0.0
 11
1.312954545021057
 21
4.38140058517456
 31
0.0
  0
LINE
  5
480
330
7D
100
AcDbEntity
 67
     1
  8
1
  6
Continuous
 62
   173
370
    18
100
AcDbLine
 10
1.312954545021057
 20
4.38140058517456
 30
0.0
 11
1.337193489074707
 21
4.38140058517456
 31
0.0
  0
LINE
  5
481
330
7D
100
AcDbEntity
 67
     1
  8
1
  6
Continuous
 62
   173
370
    18
100
AcDbLine
 10
1.337193489074707
 20
4.38140058517456
 30
0.0
 11
1.368062376976013
 21
4.38140058517456
 31
0.0
  0
LINE
  5
482
330
7D
100
AcDbEntity
 67
     1
  8
1
  6
Continuous
 62
   173
370
    18
100
AcDbLine
 10
1.368062376976013
 20
4.38140058517456
 30
0.0
 11
1.403568387031555
 21
4.38140058517456
 31
0.0
  0
LINE
  5
483
330
7D
100
AcDbEntity
 67
     1
  8
1
  6
Continuous
 62
   173
370
    18
100
AcDbLine
 10
4.201716899871826
 20
4.240587711334228
 30
0.0
 11
4.200451374053955
 21
4.203010082244873
 31
0.0
  0
LINE
  5
484
330
7D
100
AcDbEntity
 67
     1
  8
1
  6
Continuous
 62
   173
370
    18
100
AcDbLine
 10
4.200451374053955
 20
4.203010082244873
 30
0.0
 11
4.197464942932128
 21
4.167829036712646
 31
0.0
  0
LINE
  5
485
330
7D
100
AcDbEntity
 67
     1
  8
1
  6
Continuous
 62
   173
370
    18
100
AcDbLine
 10
4.197464942932128
 20
4.167829036712646
 30
0.0
 11
4.19294786453247
 21
4.137288570404052
 31
0.0
  0
LINE
  5
486
330
7D
100
AcDbEntity
 67
     1
  8
1
  6
Continuous
 62
   173
370
    18
100
AcDbLine
 10
4.19294786453247
 20
4.137288570404052
 30
0.0
 11
4.187188625335693
 21
4.113337039947509
 31
0.0
  0
LINE
  5
487
330
7D
100
AcDbEntity
 67
     1
  8
1
  6
Continuous
 62
   173
370
    18
100
AcDbLine
 10
4.187188625335693
 20
4.113337039947509
 30
0.0
 11
4.180553436279296
 21
4.097501754760742
 31
0.0
  0
LINE
  5
488
330
7D
100
AcDbEntity
 67
     1
  8
1
  6
Continuous
 62
   173
370
    18
100
AcDbLine
 10
4.180553436279296
 20
4.097501754760742
 30
0.0
 11
4.173466682434082
 21
4.090793132781982
 31
0.0
  0
LINE
  5
489
330
7D
100
AcDbEntity
 67
     1
  8
1
  6
Continuous
 62
   173
370
    18
100
AcDbLine
 10
1.945458769798278
 20
7.0993013381958
 30
0.0
 11
1.945458769798278
 21
4.44930076599121
 31
0.0
  0
LINE
  5
48A
330
7D
100
AcDbEntity
 67
     1
  8
1
  6
Continuous
 62
   173
370
    18
100
AcDbLine
 10
4.403356552124023
 20
4.23843765258789
 30
0.0
 11
4.401885509490966
 21
4.200852394104003
 31
0.0
  0
LINE
  5
48B
330
7D
100
AcDbEntity
 67
     1
  8
1
  6
Continuous
 62
   173
370
    18
100
AcDbLine
 10
4.401885509490966
 20
4.200852394104003
 30
0.0
 11
4.398408412933349
 21
4.16566514968872
 31
0.0
  0
LINE
  5
48C
330
7D
100
AcDbEntity
 67
     1
  8
1
  6
Continuous
 62
   173
370
    18
100
AcDbLine
 10
4.398408412933349
 20
4.16566514968872
 30
0.0
 11
4.393146991729736
 21
4.135122299194335
 31
0.0
  0
LINE
  5
48D
330
7D
100
AcDbEntity
 67
     1
  8
1
  6
Continuous
 62
   173
370
    18
100
AcDbLine
 10
4.393146991729736
 20
4.135122299194335
 30
0.0
 11
4.386437892913818
 21
4.111171722412109
 31
0.0
  0
LINE
  5
48E
330
7D
100
AcDbEntity
 67
     1
  8
1
  6
Continuous
 62
   173
370
    18
100
AcDbLine
 10
4.386437892913818
 20
4.111171722412109
 30
0.0
 11
4.378709316253662
 21
4.095341682434082
 31
0.0
  0
LINE
  5
48F
330
7D
100
AcDbEntity
 67
     1
  8
1
  6
Continuous
 62
   173
370
    18
100
AcDbLine
 10
4.378709316253662
 20
4.095341682434082
 30
0.0
 11
4.370453357696533
 21
4.088643550872802
 31
0.0
  0
LINE
  5
490
330
7D
100
AcDbEntity
 67
     1
  8
1
  6
Continuous
 62
   173
370
    18
100
AcDbLine
 10
1.584653377532958
 20
7.45995807647705
 30
0.0
 11
1.57639741897583
 21
7.453259468078613
 31
0.0
  0
LINE
  5
491
330
7D
100
AcDbEntity
 67
     1
  8
1
  6
Continuous
 62
   173
370
    18
100
AcDbLine
 10
1.57639741897583
 20
7.453259468078613
 30
0.0
 11
1.568668484687805
 21
7.437430381774902
 31
0.0
  0
LINE
  5
492
330
7D
100
AcDbEntity
 67
     1
  8
1
  6
Continuous
 62
   173
370
    18
100
AcDbLine
 10
1.568668484687805
 20
7.437430381774902
 30
0.0
 11
1.561959505081176
 21
7.413479328155517
 31
0.0
  0
LINE
  5
493
330
7D
100
AcDbEntity
 67
     1
  8
1
  6
Continuous
 62
   173
370
    18
100
AcDbLine
 10
1.561959505081176
 20
7.413479328155517
 30
0.0
 11
1.556698560714721
 21
7.382936477661132
 31
0.0
  0
LINE
  5
494
330
7D
100
AcDbEntity
 67
     1
  8
1
  6
Continuous
 62
   173
370
    18
100
AcDbLine
 10
1.556698560714721
 20
7.382936477661132
 30
0.0
 11
1.553221583366394
 21
7.347749233245849
 31
0.0
  0
LINE
  5
495
330
7D
100
AcDbEntity
 67
     1
  8
1
  6
Continuous
 62
   173
370
    18
100
AcDbLine
 10
1.553221583366394
 20
7.347749233245849
 30
0.0
 11
1.551750183105468
 21
7.310163974761962
 31
0.0
  0
LINE
  5
496
330
7D
100
AcDbEntity
 67
     1
  8
1
  6
Continuous
 62
   173
370
    18
100
AcDbLine
 10
4.551537990570068
 20
4.38140058517456
 30
0.0
 11
4.587044239044189
 21
4.38140058517456
 31
0.0
  0
LINE
  5
497
330
7D
100
AcDbEntity
 67
     1
  8
1
  6
Continuous
 62
   173
370
    18
100
AcDbLine
 10
4.587044239044189
 20
4.38140058517456
 30
0.0
 11
4.617913246154785
 21
4.38140058517456
 31
0.0
  0
LINE
  5
498
330
7D
100
AcDbEntity
 67
     1
  8
1
  6
Continuous
 62
   173
370
    18
100
AcDbLine
 10
4.617913246154785
 20
4.38140058517456
 30
0.0
 11
4.642152309417724
 21
4.38140058517456
 31
0.0
  0
LINE
  5
499
330
7D
100
AcDbEntity
 67
     1
  8
1
  6
Continuous
 62
   173
370
    18
100
AcDbLine
 10
4.642152309417724
 20
4.38140058517456
 30
0.0
 11
4.658196449279785
 21
4.38140058517456
 31
0.0
  0
LINE
  5
49A
330
7D
100
AcDbEntity
 67
     1
  8
1
  6
Continuous
 62
   173
370
    18
100
AcDbLine
 10
4.658196449279785
 20
4.38140058517456
 30
0.0
 11
4.665010452270507
 21
4.38140058517456
 31
0.0
  0
LINE
  5
49B
330
7D
100
AcDbEntity
 67
     1
  8
1
  6
Continuous
 62
   173
370
    18
100
AcDbLine
 10
1.781639814376831
 20
7.457808494567871
 30
0.0
 11
1.774553060531616
 21
7.451099395751953
 31
0.0
  0
LINE
  5
49C
330
7D
100
AcDbEntity
 67
     1
  8
1
  6
Continuous
 62
   173
370
    18
100
AcDbLine
 10
1.774553060531616
 20
7.451099395751953
 30
0.0
 11
1.767918109893798
 21
7.435264587402343
 31
0.0
  0
LINE
  5
49D
330
7D
100
AcDbEntity
 67
     1
  8
1
  6
Continuous
 62
   173
370
    18
100
AcDbLine
 10
1.767918109893798
 20
7.435264587402343
 30
0.0
 11
1.762158632278442
 21
7.4113130569458
 31
0.0
  0
LINE
  5
49E
330
7D
100
AcDbEntity
 67
     1
  8
1
  6
Continuous
 62
   173
370
    18
100
AcDbLine
 10
1.762158632278442
 20
7.4113130569458
 30
0.0
 11
1.757641434669494
 21
7.380772590637207
 31
0.0
  0
LINE
  5
49F
330
7D
100
AcDbEntity
 67
     1
  8
1
  6
Continuous
 62
   173
370
    18
100
AcDbLine
 10
1.757641434669494
 20
7.380772590637207
 30
0.0
 11
1.754655241966247
 21
7.345592021942138
 31
0.0
  0
LINE
  5
4A0
330
7D
100
AcDbEntity
 67
     1
  8
1
  6
Continuous
 62
   173
370
    18
100
AcDbLine
 10
1.754655241966247
 20
7.345592021942138
 30
0.0
 11
1.753389954566955
 21
7.308013916015625
 31
0.0
  0
LINE
  5
4A1
330
7D
100
AcDbEntity
 67
     1
  8
1
  6
Continuous
 62
   173
370
    18
100
AcDbLine
 10
4.551537990570068
 20
7.167200565338134
 30
0.0
 11
4.587044239044189
 21
7.167200565338134
 31
0.0
  0
LINE
  5
4A2
330
7D
100
AcDbEntity
 67
     1
  8
1
  6
Continuous
 62
   173
370
    18
100
AcDbLine
 10
4.587044239044189
 20
7.167200565338134
 30
0.0
 11
4.617913246154785
 21
7.167200565338134
 31
0.0
  0
LINE
  5
4A3
330
7D
100
AcDbEntity
 67
     1
  8
1
  6
Continuous
 62
   173
370
    18
100
AcDbLine
 10
4.617913246154785
 20
7.167200565338134
 30
0.0
 11
4.642152309417724
 21
7.167200565338134
 31
0.0
  0
LINE
  5
4A4
330
7D
100
AcDbEntity
 67
     1
  8
1
  6
Continuous
 62
   173
370
    18
100
AcDbLine
 10
4.642152309417724
 20
7.167200565338134
 30
0.0
 11
4.658196449279785
 21
7.167200565338134
 31
0.0
  0
LINE
  5
4A5
330
7D
100
AcDbEntity
 67
     1
  8
1
  6
Continuous
 62
   173
370
    18
100
AcDbLine
 10
4.658196449279785
 20
7.167200565338134
 30
0.0
 11
4.665010452270507
 21
7.167200565338134
 31
0.0
  0
LINE
  5
4A6
330
7D
100
AcDbEntity
 67
     1
  8
1
  6
Continuous
 62
   173
370
    18
100
AcDbLine
 10
1.290096640586853
 20
7.167200565338134
 30
0.0
 11
1.296910285949707
 21
7.167200565338134
 31
0.0
  0
LINE
  5
4A7
330
7D
100
AcDbEntity
 67
     1
  8
1
  6
Continuous
 62
   173
370
    18
100
AcDbLine
 10
1.296910285949707
 20
7.167200565338134
 30
0.0
 11
1.312954545021057
 21
7.167200565338134
 31
0.0
  0
LINE
  5
4A8
330
7D
100
AcDbEntity
 67
     1
  8
1
  6
Continuous
 62
   173
370
    18
100
AcDbLine
 10
1.312954545021057
 20
7.167200565338134
 30
0.0
 11
1.337193489074707
 21
7.167200565338134
 31
0.0
  0
LINE
  5
4A9
330
7D
100
AcDbEntity
 67
     1
  8
1
  6
Continuous
 62
   173
370
    18
100
AcDbLine
 10
1.337193489074707
 20
7.167200565338134
 30
0.0
 11
1.368062376976013
 21
7.167200565338134
 31
0.0
  0
LINE
  5
4AA
330
7D
100
AcDbEntity
 67
     1
  8
1
  6
Continuous
 62
   173
370
    18
100
AcDbLine
 10
1.368062376976013
 20
7.167200565338134
 30
0.0
 11
1.403568387031555
 21
7.167200565338134
 31
0.0
  0
LINE
  5
4AB
330
7D
100
AcDbEntity
 67
     1
  8
1
  6
Continuous
 62
   173
370
    18
100
AcDbLine
 10
4.403356552124023
 20
7.310163974761962
 30
0.0
 11
4.401885509490966
 21
7.347749233245849
 31
0.0
  0
LINE
  5
4AC
330
7D
100
AcDbEntity
 67
     1
  8
1
  6
Continuous
 62
   173
370
    18
100
AcDbLine
 10
4.401885509490966
 20
7.347749233245849
 30
0.0
 11
4.398408412933349
 21
7.382936477661132
 31
0.0
  0
LINE
  5
4AD
330
7D
100
AcDbEntity
 67
     1
  8
1
  6
Continuous
 62
   173
370
    18
100
AcDbLine
 10
4.398408412933349
 20
7.382936477661132
 30
0.0
 11
4.393146991729736
 21
7.413479328155517
 31
0.0
  0
LINE
  5
4AE
330
7D
100
AcDbEntity
 67
     1
  8
1
  6
Continuous
 62
   173
370
    18
100
AcDbLine
 10
4.393146991729736
 20
7.413479328155517
 30
0.0
 11
4.386437892913818
 21
7.437430381774902
 31
0.0
  0
LINE
  5
4AF
330
7D
100
AcDbEntity
 67
     1
  8
1
  6
Continuous
 62
   173
370
    18
100
AcDbLine
 10
4.386437892913818
 20
7.437430381774902
 30
0.0
 11
4.378709316253662
 21
7.453259468078613
 31
0.0
  0
LINE
  5
4B0
330
7D
100
AcDbEntity
 67
     1
  8
1
  6
Continuous
 62
   173
370
    18
100
AcDbLine
 10
4.378709316253662
 20
7.453259468078613
 30
0.0
 11
4.370453357696533
 21
7.45995807647705
 31
0.0
  0
LINE
  5
4B1
330
7D
100
AcDbEntity
 67
     1
  8
1
  6
Continuous
 62
   173
370
    18
100
AcDbLine
 10
2.082972526550292
 20
7.456307888031005
 30
0.0
 11
2.082972526550292
 21
7.449571132659912
 31
0.0
  0
LINE
  5
4B2
330
7D
100
AcDbEntity
 67
     1
  8
1
  6
Continuous
 62
   173
370
    18
100
AcDbLine
 10
2.082972526550292
 20
7.449571132659912
 30
0.0
 11
2.082972526550292
 21
7.43372106552124
 31
0.0
  0
LINE
  5
4B3
330
7D
100
AcDbEntity
 67
     1
  8
1
  6
Continuous
 62
   173
370
    18
100
AcDbLine
 10
2.082972526550292
 20
7.43372106552124
 30
0.0
 11
2.082972526550292
 21
7.409766674041748
 31
0.0
  0
LINE
  5
4B4
330
7D
100
AcDbEntity
 67
     1
  8
1
  6
Continuous
 62
   173
370
    18
100
AcDbLine
 10
2.082972526550292
 20
7.409766674041748
 30
0.0
 11
2.082972526550292
 21
7.37923526763916
 31
0.0
  0
LINE
  5
4B5
330
7D
100
AcDbEntity
 67
     1
  8
1
  6
Continuous
 62
   173
370
    18
100
AcDbLine
 10
2.082972526550292
 20
7.37923526763916
 30
0.0
 11
2.082972526550292
 21
7.344069957733154
 31
0.0
  0
LINE
  5
4B6
330
7D
100
AcDbEntity
 67
     1
  8
1
  6
Continuous
 62
   173
370
    18
100
AcDbLine
 10
2.082972526550292
 20
7.344069957733154
 30
0.0
 11
2.082972526550292
 21
7.306512832641601
 31
0.0
  0
LINE
  5
4B7
330
7D
100
AcDbEntity
 67
     1
  8
1
  6
Continuous
 62
   173
370
    18
100
AcDbLine
 10
4.201716899871826
 20
7.308013916015625
 30
0.0
 11
4.200451374053955
 21
7.345592021942138
 31
0.0
  0
LINE
  5
4B8
330
7D
100
AcDbEntity
 67
     1
  8
1
  6
Continuous
 62
   173
370
    18
100
AcDbLine
 10
4.200451374053955
 20
7.345592021942138
 30
0.0
 11
4.197464942932128
 21
7.380772590637207
 31
0.0
  0
LINE
  5
4B9
330
7D
100
AcDbEntity
 67
     1
  8
1
  6
Continuous
 62
   173
370
    18
100
AcDbLine
 10
4.197464942932128
 20
7.380772590637207
 30
0.0
 11
4.19294786453247
 21
7.4113130569458
 31
0.0
  0
LINE
  5
4BA
330
7D
100
AcDbEntity
 67
     1
  8
1
  6
Continuous
 62
   173
370
    18
100
AcDbLine
 10
4.19294786453247
 20
7.4113130569458
 30
0.0
 11
4.187188625335693
 21
7.435264587402343
 31
0.0
  0
LINE
  5
4BB
330
7D
100
AcDbEntity
 67
     1
  8
1
  6
Continuous
 62
   173
370
    18
100
AcDbLine
 10
4.187188625335693
 20
7.435264587402343
 30
0.0
 11
4.180553436279296
 21
7.451099395751953
 31
0.0
  0
LINE
  5
4BC
330
7D
100
AcDbEntity
 67
     1
  8
1
  6
Continuous
 62
   173
370
    18
100
AcDbLine
 10
4.180553436279296
 20
7.451099395751953
 30
0.0
 11
4.173466682434082
 21
7.457808494567871
 31
0.0
  0
LINE
  5
4BD
330
7D
100
AcDbEntity
 67
     1
  8
1
  6
Continuous
 62
   173
370
    18
100
AcDbLine
 10
3.872134208679199
 20
4.242088317871093
 30
0.0
 11
3.872134208679199
 21
4.204530715942382
 31
0.0
  0
LINE
  5
4BE
330
7D
100
AcDbEntity
 67
     1
  8
1
  6
Continuous
 62
   173
370
    18
100
AcDbLine
 10
3.872134208679199
 20
4.204530715942382
 30
0.0
 11
3.872134208679199
 21
4.169366359710693
 31
0.0
  0
LINE
  5
4BF
330
7D
100
AcDbEntity
 67
     1
  8
1
  6
Continuous
 62
   173
370
    18
100
AcDbLine
 10
3.872134208679199
 20
4.169366359710693
 30
0.0
 11
3.872134208679199
 21
4.138834953308105
 31
0.0
  0
LINE
  5
4C0
330
7D
100
AcDbEntity
 67
     1
  8
1
  6
Continuous
 62
   173
370
    18
100
AcDbLine
 10
3.872134208679199
 20
4.138834953308105
 30
0.0
 11
3.872134208679199
 21
4.114881038665771
 31
0.0
  0
LINE
  5
4C1
330
7D
100
AcDbEntity
 67
     1
  8
1
  6
Continuous
 62
   173
370
    18
100
AcDbLine
 10
3.872134208679199
 20
4.114881038665771
 30
0.0
 11
3.872134208679199
 21
4.099030494689941
 31
0.0
  0
LINE
  5
4C2
330
7D
100
AcDbEntity
 67
     1
  8
1
  6
Continuous
 62
   173
370
    18
100
AcDbLine
 10
3.872134208679199
 20
4.099030494689941
 30
0.0
 11
3.872134208679199
 21
4.092293739318847
 31
0.0
  0
LINE
  5
4C3
330
7D
100
AcDbEntity
 67
     1
  8
1
  6
Continuous
 62
   173
370
    18
100
AcDbLine
 10
3.872134208679199
 20
7.456307888031005
 30
0.0
 11
3.872134208679199
 21
7.449571132659912
 31
0.0
  0
LINE
  5
4C4
330
7D
100
AcDbEntity
 67
     1
  8
1
  6
Continuous
 62
   173
370
    18
100
AcDbLine
 10
3.872134208679199
 20
7.449571132659912
 30
0.0
 11
3.872134208679199
 21
7.43372106552124
 31
0.0
  0
LINE
  5
4C5
330
7D
100
AcDbEntity
 67
     1
  8
1
  6
Continuous
 62
   173
370
    18
100
AcDbLine
 10
3.872134208679199
 20
7.43372106552124
 30
0.0
 11
3.872134208679199
 21
7.409766674041748
 31
0.0
  0
LINE
  5
4C6
330
7D
100
AcDbEntity
 67
     1
  8
1
  6
Continuous
 62
   173
370
    18
100
AcDbLine
 10
3.872134208679199
 20
7.409766674041748
 30
0.0
 11
3.872134208679199
 21
7.37923526763916
 31
0.0
  0
LINE
  5
4C7
330
7D
100
AcDbEntity
 67
     1
  8
1
  6
Continuous
 62
   173
370
    18
100
AcDbLine
 10
3.872134208679199
 20
7.37923526763916
 30
0.0
 11
3.872134208679199
 21
7.344069957733154
 31
0.0
  0
LINE
  5
4C8
330
7D
100
AcDbEntity
 67
     1
  8
1
  6
Continuous
 62
   173
370
    18
100
AcDbLine
 10
3.872134208679199
 20
7.344069957733154
 30
0.0
 11
3.872134208679199
 21
7.306512832641601
 31
0.0
  0
LINE
  5
4C9
330
7D
100
AcDbEntity
 67
     1
  8
1
  6
Continuous
 62
     4
370
    18
100
AcDbLine
 10
2.63511037826538
 20
5.531404972076416
 30
0.0
 11
2.630184173583984
 21
5.536331176757812
 31
0.0
  0
LINE
  5
4CA
330
7D
100
AcDbEntity
 67
     1
  8
1
  6
Continuous
 62
     4
370
    18
100
AcDbLine
 10
2.630184173583984
 20
5.536331176757812
 30
0.0
 11
2.419922590255737
 21
5.536331176757812
 31
0.0
  0
LINE
  5
4CB
330
7D
100
AcDbEntity
 67
     1
  8
1
  6
Continuous
 62
     4
370
    18
100
AcDbLine
 10
2.275803804397583
 20
5.531404972076416
 30
0.0
 11
2.414996147155761
 21
5.531404972076416
 31
0.0
  0
LINE
  5
4CC
330
7D
100
AcDbEntity
 67
     1
  8
1
  6
Continuous
 62
     4
370
    18
100
AcDbLine
 10
2.275809526443481
 20
5.52787971496582
 30
0.0
 11
2.77429723739624
 21
5.52787971496582
 31
0.0
  0
LINE
  5
4CD
330
7D
100
AcDbEntity
 67
     1
  8
1
  6
Continuous
 62
     4
370
    18
100
AcDbLine
 10
2.63511037826538
 20
5.531404972076416
 30
0.0
 11
2.774302721023559
 21
5.531404972076416
 31
0.0
  0
LINE
  5
4CE
330
7D
100
AcDbEntity
 67
     1
  8
1
  6
Continuous
 62
     4
370
    18
100
AcDbLine
 10
2.400053262710571
 20
5.546347618103027
 30
0.0
 11
2.400053262710571
 21
5.572936534881591
 31
0.0
  0
LINE
  5
4CF
330
7D
100
AcDbEntity
 67
     1
  8
1
  6
Continuous
 62
     4
370
    18
100
AcDbLine
 10
2.400053262710571
 20
5.572936534881591
 30
0.0
 11
2.404422998428344
 21
5.583509922027587
 31
0.0
  0
LINE
  5
4D0
330
7D
100
AcDbEntity
 67
     1
  8
1
  6
Continuous
 62
     4
370
    18
100
AcDbLine
 10
2.404422998428344
 20
5.583509922027587
 30
0.0
 11
2.414996147155761
 21
5.587879657745361
 31
0.0
  0
LINE
  5
4D1
330
7D
100
AcDbEntity
 67
     1
  8
1
  6
Continuous
 62
     4
370
    18
100
AcDbLine
 10
2.419922590255737
 20
5.536331176757812
 30
0.0
 11
2.414996147155761
 21
5.531404972076416
 31
0.0
  0
LINE
  5
4D2
330
7D
100
AcDbEntity
 67
     1
  8
1
  6
Continuous
 62
     4
370
    18
100
AcDbLine
 10
2.63511037826538
 20
5.587879657745361
 30
0.0
 11
2.645683526992797
 21
5.583509922027587
 31
0.0
  0
LINE
  5
4D3
330
7D
100
AcDbEntity
 67
     1
  8
1
  6
Continuous
 62
     4
370
    18
100
AcDbLine
 10
2.645683526992797
 20
5.583509922027587
 30
0.0
 11
2.650053262710571
 21
5.572936534881591
 31
0.0
  0
LINE
  5
4D4
330
7D
100
AcDbEntity
 67
     1
  8
1
  6
Continuous
 62
     4
370
    18
100
AcDbLine
 10
2.650053262710571
 20
5.546347618103027
 30
0.0
 11
2.650053262710571
 21
5.572936534881591
 31
0.0
  0
LINE
  5
4D5
330
7D
100
AcDbEntity
 67
     1
  8
1
  6
Continuous
 62
     4
370
    18
100
AcDbLine
 10
2.414996147155761
 20
5.531404972076416
 30
0.0
 11
2.404422998428344
 21
5.535774230957031
 31
0.0
  0
LINE
  5
4D6
330
7D
100
AcDbEntity
 67
     1
  8
1
  6
Continuous
 62
     4
370
    18
100
AcDbLine
 10
2.404422998428344
 20
5.535774230957031
 30
0.0
 11
2.400053262710571
 21
5.546347618103027
 31
0.0
  0
LINE
  5
4D7
330
7D
100
AcDbEntity
 67
     1
  8
1
  6
Continuous
 62
     4
370
    18
100
AcDbLine
 10
2.414996147155761
 20
5.587879657745361
 30
0.0
 11
2.63511037826538
 21
5.587879657745361
 31
0.0
  0
LINE
  5
4D8
330
7D
100
AcDbEntity
 67
     1
  8
1
  6
Continuous
 62
     4
370
    18
100
AcDbLine
 10
2.404979467391967
 20
5.551273822784423
 30
0.0
 11
2.404979467391967
 21
5.568010807037353
 31
0.0
  0
LINE
  5
4D9
330
7D
100
AcDbEntity
 67
     1
  8
1
  6
Continuous
 62
     4
370
    18
100
AcDbLine
 10
2.404979467391967
 20
5.568010807037353
 30
0.0
 11
2.400053262710571
 21
5.572936534881591
 31
0.0
  0
LINE
  5
4DA
330
7D
100
AcDbEntity
 67
     1
  8
1
  6
Continuous
 62
     4
370
    18
100
AcDbLine
 10
2.414996147155761
 20
5.587879657745361
 30
0.0
 11
2.419922590255737
 21
5.582953453063964
 31
0.0
  0
LINE
  5
4DB
330
7D
100
AcDbEntity
 67
     1
  8
1
  6
Continuous
 62
     4
370
    18
100
AcDbLine
 10
2.419922590255737
 20
5.582953453063964
 30
0.0
 11
2.630184173583984
 21
5.582953453063964
 31
0.0
  0
LINE
  5
4DC
330
7D
100
AcDbEntity
 67
     1
  8
1
  6
Continuous
 62
     4
370
    18
100
AcDbLine
 10
2.400053262710571
 20
5.546347618103027
 30
0.0
 11
2.404979467391967
 21
5.551273822784423
 31
0.0
  0
LINE
  5
4DD
330
7D
100
AcDbEntity
 67
     1
  8
1
  6
Continuous
 62
     4
370
    18
100
AcDbLine
 10
2.650053262710571
 20
5.572936534881591
 30
0.0
 11
2.645127058029174
 21
5.568010807037353
 31
0.0
  0
LINE
  5
4DE
330
7D
100
AcDbEntity
 67
     1
  8
1
  6
Continuous
 62
     4
370
    18
100
AcDbLine
 10
2.630184173583984
 20
5.582953453063964
 30
0.0
 11
2.63511037826538
 21
5.587879657745361
 31
0.0
  0
LINE
  5
4DF
330
7D
100
AcDbEntity
 67
     1
  8
1
  6
Continuous
 62
     4
370
    18
100
AcDbLine
 10
2.645127058029174
 20
5.568010807037353
 30
0.0
 11
2.645127058029174
 21
5.551273822784423
 31
0.0
  0
LINE
  5
4E0
330
7D
100
AcDbEntity
 67
     1
  8
1
  6
Continuous
 62
     4
370
    18
100
AcDbLine
 10
2.645127058029174
 20
5.551273822784423
 30
0.0
 11
2.650053262710571
 21
5.546347618103027
 31
0.0
  0
LINE
  5
4E1
330
7D
100
AcDbEntity
 67
     1
  8
1
  6
Continuous
 62
     4
370
    18
100
AcDbLine
 10
2.630184173583984
 20
5.568010807037353
 30
0.0
 11
2.419922590255737
 21
5.568010807037353
 31
0.0
  0
LINE
  5
4E2
330
7D
100
AcDbEntity
 67
     1
  8
1
  6
Continuous
 62
     4
370
    18
100
AcDbLine
 10
2.650053262710571
 20
5.546347618103027
 30
0.0
 11
2.645683526992797
 21
5.535774230957031
 31
0.0
  0
LINE
  5
4E3
330
7D
100
AcDbEntity
 67
     1
  8
1
  6
Continuous
 62
     4
370
    18
100
AcDbLine
 10
2.645683526992797
 20
5.535774230957031
 30
0.0
 11
2.63511037826538
 21
5.531404972076416
 31
0.0
  0
LINE
  5
4E4
330
7D
100
AcDbEntity
 67
     1
  8
1
  6
Continuous
 62
     4
370
    18
100
AcDbLine
 10
2.419922590255737
 20
5.568010807037353
 30
0.0
 11
2.419922590255737
 21
5.551273822784423
 31
0.0
  0
LINE
  5
4E5
330
7D
100
AcDbEntity
 67
     1
  8
1
  6
Continuous
 62
     4
370
    18
100
AcDbLine
 10
2.419922590255737
 20
5.551273822784423
 30
0.0
 11
2.630184173583984
 21
5.551273822784423
 31
0.0
  0
LINE
  5
4E6
330
7D
100
AcDbEntity
 67
     1
  8
1
  6
Continuous
 62
     4
370
    18
100
AcDbLine
 10
2.630184173583984
 20
5.551273822784423
 30
0.0
 11
2.630184173583984
 21
5.568010807037353
 31
0.0
  0
LINE
  5
4E7
330
7D
100
AcDbEntity
 67
     1
  8
1
  6
Continuous
 62
     4
370
    18
100
AcDbLine
 10
2.645127058029174
 20
5.551273822784423
 30
0.0
 11
2.640710592269897
 21
5.540747642517089
 31
0.0
  0
LINE
  5
4E8
330
7D
100
AcDbEntity
 67
     1
  8
1
  6
Continuous
 62
     4
370
    18
100
AcDbLine
 10
2.640710592269897
 20
5.540747642517089
 30
0.0
 11
2.630184173583984
 21
5.536331176757812
 31
0.0
  0
LINE
  5
4E9
330
7D
100
AcDbEntity
 67
     1
  8
1
  6
Continuous
 62
     4
370
    18
100
AcDbLine
 10
2.404979467391967
 20
5.568010807037353
 30
0.0
 11
2.409396171569824
 21
5.578536987304687
 31
0.0
  0
LINE
  5
4EA
330
7D
100
AcDbEntity
 67
     1
  8
1
  6
Continuous
 62
     4
370
    18
100
AcDbLine
 10
2.409396171569824
 20
5.578536987304687
 30
0.0
 11
2.419922590255737
 21
5.582953453063964
 31
0.0
  0
LINE
  5
4EB
330
7D
100
AcDbEntity
 67
     1
  8
1
  6
Continuous
 62
     4
370
    18
100
AcDbLine
 10
2.630184173583984
 20
5.536331176757812
 30
0.0
 11
2.630184173583984
 21
5.541140079498291
 31
0.0
  0
LINE
  5
4EC
330
7D
100
AcDbEntity
 67
     1
  8
1
  6
Continuous
 62
     4
370
    18
100
AcDbLine
 10
2.630184173583984
 20
5.541140079498291
 30
0.0
 11
2.630184173583984
 21
5.551273822784423
 31
0.0
  0
LINE
  5
4ED
330
7D
100
AcDbEntity
 67
     1
  8
1
  6
Continuous
 62
     4
370
    18
100
AcDbLine
 10
2.630184173583984
 20
5.551273822784423
 30
0.0
 11
2.640318155288696
 21
5.551273822784423
 31
0.0
  0
LINE
  5
4EE
330
7D
100
AcDbEntity
 67
     1
  8
1
  6
Continuous
 62
     4
370
    18
100
AcDbLine
 10
2.640318155288696
 20
5.551273822784423
 30
0.0
 11
2.645127058029174
 21
5.551273822784423
 31
0.0
  0
LINE
  5
4EF
330
7D
100
AcDbEntity
 67
     1
  8
1
  6
Continuous
 62
     4
370
    18
100
AcDbLine
 10
2.630184173583984
 20
5.568010807037353
 30
0.0
 11
2.640318155288696
 21
5.568010807037353
 31
0.0
  0
LINE
  5
4F0
330
7D
100
AcDbEntity
 67
     1
  8
1
  6
Continuous
 62
     4
370
    18
100
AcDbLine
 10
2.640318155288696
 20
5.568010807037353
 30
0.0
 11
2.645127058029174
 21
5.568010807037353
 31
0.0
  0
LINE
  5
4F1
330
7D
100
AcDbEntity
 67
     1
  8
1
  6
Continuous
 62
     4
370
    18
100
AcDbLine
 10
2.419922590255737
 20
5.536331176757812
 30
0.0
 11
2.419922590255737
 21
5.541140079498291
 31
0.0
  0
LINE
  5
4F2
330
7D
100
AcDbEntity
 67
     1
  8
1
  6
Continuous
 62
     4
370
    18
100
AcDbLine
 10
2.419922590255737
 20
5.541140079498291
 30
0.0
 11
2.419922590255737
 21
5.551273822784423
 31
0.0
  0
LINE
  5
4F3
330
7D
100
AcDbEntity
 67
     1
  8
1
  6
Continuous
 62
     4
370
    18
100
AcDbLine
 10
2.630184173583984
 20
5.568010807037353
 30
0.0
 11
2.630184173583984
 21
5.578144550323486
 31
0.0
  0
LINE
  5
4F4
330
7D
100
AcDbEntity
 67
     1
  8
1
  6
Continuous
 62
     4
370
    18
100
AcDbLine
 10
2.630184173583984
 20
5.578144550323486
 30
0.0
 11
2.630184173583984
 21
5.582953453063964
 31
0.0
  0
LINE
  5
4F5
330
7D
100
AcDbEntity
 67
     1
  8
1
  6
Continuous
 62
     4
370
    18
100
AcDbLine
 10
2.404979467391967
 20
5.551273822784423
 30
0.0
 11
2.409788608551025
 21
5.551273822784423
 31
0.0
  0
LINE
  5
4F6
330
7D
100
AcDbEntity
 67
     1
  8
1
  6
Continuous
 62
     4
370
    18
100
AcDbLine
 10
2.409788608551025
 20
5.551273822784423
 30
0.0
 11
2.419922590255737
 21
5.551273822784423
 31
0.0
  0
LINE
  5
4F7
330
7D
100
AcDbEntity
 67
     1
  8
1
  6
Continuous
 62
     4
370
    18
100
AcDbLine
 10
2.419922590255737
 20
5.568010807037353
 30
0.0
 11
2.419922590255737
 21
5.578144550323486
 31
0.0
  0
LINE
  5
4F8
330
7D
100
AcDbEntity
 67
     1
  8
1
  6
Continuous
 62
     4
370
    18
100
AcDbLine
 10
2.419922590255737
 20
5.578144550323486
 30
0.0
 11
2.419922590255737
 21
5.582953453063964
 31
0.0
  0
LINE
  5
4F9
330
7D
100
AcDbEntity
 67
     1
  8
1
  6
Continuous
 62
     4
370
    18
100
AcDbLine
 10
2.404979467391967
 20
5.568010807037353
 30
0.0
 11
2.409788608551025
 21
5.568010807037353
 31
0.0
  0
LINE
  5
4FA
330
7D
100
AcDbEntity
 67
     1
  8
1
  6
Continuous
 62
     4
370
    18
100
AcDbLine
 10
2.409788608551025
 20
5.568010807037353
 30
0.0
 11
2.419922590255737
 21
5.568010807037353
 31
0.0
  0
LINE
  5
4FB
330
7D
100
AcDbEntity
 67
     1
  8
1
  6
Continuous
 62
     4
370
    18
100
AcDbLine
 10
2.630184173583984
 20
5.582953453063964
 30
0.0
 11
2.640710592269897
 21
5.578536987304687
 31
0.0
  0
LINE
  5
4FC
330
7D
100
AcDbEntity
 67
     1
  8
1
  6
Continuous
 62
     4
370
    18
100
AcDbLine
 10
2.640710592269897
 20
5.578536987304687
 30
0.0
 11
2.645127058029174
 21
5.568010807037353
 31
0.0
  0
LINE
  5
4FD
330
7D
100
AcDbEntity
 67
     1
  8
1
  6
Continuous
 62
     4
370
    18
100
AcDbLine
 10
2.419922590255737
 20
5.536331176757812
 30
0.0
 11
2.409396171569824
 21
5.540747642517089
 31
0.0
  0
LINE
  5
4FE
330
7D
100
AcDbEntity
 67
     1
  8
1
  6
Continuous
 62
     4
370
    18
100
AcDbLine
 10
2.409396171569824
 20
5.540747642517089
 30
0.0
 11
2.404979467391967
 21
5.551273822784423
 31
0.0
  0
LINE
  5
4FF
330
7D
100
AcDbEntity
 67
     1
  8
1
  6
Continuous
 62
     4
370
    18
100
AcDbLine
 10
3.540110349655151
 20
5.531404972076416
 30
0.0
 11
3.535183906555175
 21
5.536331176757812
 31
0.0
  0
LINE
  5
500
330
7D
100
AcDbEntity
 67
     1
  8
1
  6
Continuous
 62
     4
370
    18
100
AcDbLine
 10
3.324922561645507
 20
5.536331176757812
 30
0.0
 11
3.319996118545532
 21
5.531404972076416
 31
0.0
  0
LINE
  5
501
330
7D
100
AcDbEntity
 67
     1
  8
1
  6
Continuous
 62
     4
370
    18
100
AcDbLine
 10
3.180804014205932
 20
5.531404972076416
 30
0.0
 11
3.319996118545532
 21
5.531404972076416
 31
0.0
  0
LINE
  5
502
330
7D
100
AcDbEntity
 67
     1
  8
1
  6
Continuous
 62
     4
370
    18
100
AcDbLine
 10
3.180809497833251
 20
5.52787971496582
 30
0.0
 11
3.679296970367431
 21
5.52787971496582
 31
0.0
  0
LINE
  5
503
330
7D
100
AcDbEntity
 67
     1
  8
1
  6
Continuous
 62
     4
370
    18
100
AcDbLine
 10
3.540110349655151
 20
5.531404972076416
 30
0.0
 11
3.67930269241333
 21
5.531404972076416
 31
0.0
  0
LINE
  5
504
330
7D
100
AcDbEntity
 67
     1
  8
1
  6
Continuous
 62
     4
370
    18
100
AcDbLine
 10
3.535183906555175
 20
5.536331176757812
 30
0.0
 11
3.324922561645507
 21
5.536331176757812
 31
0.0
  0
LINE
  5
505
330
7D
100
AcDbEntity
 67
     1
  8
1
  6
Continuous
 62
     4
370
    18
100
AcDbLine
 10
3.319996118545532
 20
5.531404972076416
 30
0.0
 11
3.309423208236694
 21
5.535774230957031
 31
0.0
  0
LINE
  5
506
330
7D
100
AcDbEntity
 67
     1
  8
1
  6
Continuous
 62
     4
370
    18
100
AcDbLine
 10
3.309423208236694
 20
5.535774230957031
 30
0.0
 11
3.30505347251892
 21
5.546347618103027
 31
0.0
  0
LINE
  5
507
330
7D
100
AcDbEntity
 67
     1
  8
1
  6
Continuous
 62
     4
370
    18
100
AcDbLine
 10
3.30505347251892
 20
5.546347618103027
 30
0.0
 11
3.30505347251892
 21
5.572936534881591
 31
0.0
  0
LINE
  5
508
330
7D
100
AcDbEntity
 67
     1
  8
1
  6
Continuous
 62
     4
370
    18
100
AcDbLine
 10
3.319996118545532
 20
5.587879657745361
 30
0.0
 11
3.540110349655151
 21
5.587879657745361
 31
0.0
  0
LINE
  5
509
330
7D
100
AcDbEntity
 67
     1
  8
1
  6
Continuous
 62
     4
370
    18
100
AcDbLine
 10
3.540110349655151
 20
5.587879657745361
 30
0.0
 11
3.550683736801147
 21
5.583509922027587
 31
0.0
  0
LINE
  5
50A
330
7D
100
AcDbEntity
 67
     1
  8
1
  6
Continuous
 62
     4
370
    18
100
AcDbLine
 10
3.550683736801147
 20
5.583509922027587
 30
0.0
 11
3.55505347251892
 21
5.572936534881591
 31
0.0
  0
LINE
  5
50B
330
7D
100
AcDbEntity
 67
     1
  8
1
  6
Continuous
 62
     4
370
    18
100
AcDbLine
 10
3.55505347251892
 20
5.546347618103027
 30
0.0
 11
3.55505347251892
 21
5.572936534881591
 31
0.0
  0
LINE
  5
50C
330
7D
100
AcDbEntity
 67
     1
  8
1
  6
Continuous
 62
     4
370
    18
100
AcDbLine
 10
3.55505347251892
 20
5.546347618103027
 30
0.0
 11
3.550683736801147
 21
5.535774230957031
 31
0.0
  0
LINE
  5
50D
330
7D
100
AcDbEntity
 67
     1
  8
1
  6
Continuous
 62
     4
370
    18
100
AcDbLine
 10
3.550683736801147
 20
5.535774230957031
 30
0.0
 11
3.540110349655151
 21
5.531404972076416
 31
0.0
  0
LINE
  5
50E
330
7D
100
AcDbEntity
 67
     1
  8
1
  6
Continuous
 62
     4
370
    18
100
AcDbLine
 10
3.30505347251892
 20
5.546347618103027
 30
0.0
 11
3.309979438781738
 21
5.551273822784423
 31
0.0
  0
LINE
  5
50F
330
7D
100
AcDbEntity
 67
     1
  8
1
  6
Continuous
 62
     4
370
    18
100
AcDbLine
 10
3.309979438781738
 20
5.551273822784423
 30
0.0
 11
3.309979438781738
 21
5.568010807037353
 31
0.0
  0
LINE
  5
510
330
7D
100
AcDbEntity
 67
     1
  8
1
  6
Continuous
 62
     4
370
    18
100
AcDbLine
 10
3.309979438781738
 20
5.568010807037353
 30
0.0
 11
3.30505347251892
 21
5.572936534881591
 31
0.0
  0
LINE
  5
511
330
7D
100
AcDbEntity
 67
     1
  8
1
  6
Continuous
 62
     4
370
    18
100
AcDbLine
 10
3.319996118545532
 20
5.587879657745361
 30
0.0
 11
3.324922561645507
 21
5.582953453063964
 31
0.0
  0
LINE
  5
512
330
7D
100
AcDbEntity
 67
     1
  8
1
  6
Continuous
 62
     4
370
    18
100
AcDbLine
 10
3.324922561645507
 20
5.582953453063964
 30
0.0
 11
3.535183906555175
 21
5.582953453063964
 31
0.0
  0
LINE
  5
513
330
7D
100
AcDbEntity
 67
     1
  8
1
  6
Continuous
 62
     4
370
    18
100
AcDbLine
 10
3.535183906555175
 20
5.582953453063964
 30
0.0
 11
3.540110349655151
 21
5.587879657745361
 31
0.0
  0
LINE
  5
514
330
7D
100
AcDbEntity
 67
     1
  8
1
  6
Continuous
 62
     4
370
    18
100
AcDbLine
 10
3.550127029418945
 20
5.568010807037353
 30
0.0
 11
3.550127029418945
 21
5.551273822784423
 31
0.0
  0
LINE
  5
515
330
7D
100
AcDbEntity
 67
     1
  8
1
  6
Continuous
 62
     4
370
    18
100
AcDbLine
 10
3.550127029418945
 20
5.551273822784423
 30
0.0
 11
3.55505347251892
 21
5.546347618103027
 31
0.0
  0
LINE
  5
516
330
7D
100
AcDbEntity
 67
     1
  8
1
  6
Continuous
 62
     4
370
    18
100
AcDbLine
 10
3.535183906555175
 20
5.568010807037353
 30
0.0
 11
3.324922561645507
 21
5.568010807037353
 31
0.0
  0
LINE
  5
517
330
7D
100
AcDbEntity
 67
     1
  8
1
  6
Continuous
 62
     4
370
    18
100
AcDbLine
 10
3.324922561645507
 20
5.568010807037353
 30
0.0
 11
3.324922561645507
 21
5.551273822784423
 31
0.0
  0
LINE
  5
518
330
7D
100
AcDbEntity
 67
     1
  8
1
  6
Continuous
 62
     4
370
    18
100
AcDbLine
 10
3.324922561645507
 20
5.551273822784423
 30
0.0
 11
3.535183906555175
 21
5.551273822784423
 31
0.0
  0
LINE
  5
519
330
7D
100
AcDbEntity
 67
     1
  8
1
  6
Continuous
 62
     4
370
    18
100
AcDbLine
 10
3.30505347251892
 20
5.572936534881591
 30
0.0
 11
3.309423208236694
 21
5.583509922027587
 31
0.0
  0
LINE
  5
51A
330
7D
100
AcDbEntity
 67
     1
  8
1
  6
Continuous
 62
     4
370
    18
100
AcDbLine
 10
3.309423208236694
 20
5.583509922027587
 30
0.0
 11
3.319996118545532
 21
5.587879657745361
 31
0.0
  0
LINE
  5
51B
330
7D
100
AcDbEntity
 67
     1
  8
1
  6
Continuous
 62
     4
370
    18
100
AcDbLine
 10
3.55505347251892
 20
5.572936534881591
 30
0.0
 11
3.550127029418945
 21
5.568010807037353
 31
0.0
  0
LINE
  5
51C
330
7D
100
AcDbEntity
 67
     1
  8
1
  6
Continuous
 62
     4
370
    18
100
AcDbLine
 10
3.535183906555175
 20
5.551273822784423
 30
0.0
 11
3.535183906555175
 21
5.568010807037353
 31
0.0
  0
LINE
  5
51D
330
7D
100
AcDbEntity
 67
     1
  8
1
  6
Continuous
 62
     4
370
    18
100
AcDbLine
 10
3.550127029418945
 20
5.551273822784423
 30
0.0
 11
3.545710563659667
 21
5.540747642517089
 31
0.0
  0
LINE
  5
51E
330
7D
100
AcDbEntity
 67
     1
  8
1
  6
Continuous
 62
     4
370
    18
100
AcDbLine
 10
3.545710563659667
 20
5.540747642517089
 30
0.0
 11
3.535183906555175
 21
5.536331176757812
 31
0.0
  0
LINE
  5
51F
330
7D
100
AcDbEntity
 67
     1
  8
1
  6
Continuous
 62
     4
370
    18
100
AcDbLine
 10
3.324922561645507
 20
5.536331176757812
 30
0.0
 11
3.314396142959594
 21
5.540747642517089
 31
0.0
  0
LINE
  5
520
330
7D
100
AcDbEntity
 67
     1
  8
1
  6
Continuous
 62
     4
370
    18
100
AcDbLine
 10
3.314396142959594
 20
5.540747642517089
 30
0.0
 11
3.309979438781738
 21
5.551273822784423
 31
0.0
  0
LINE
  5
521
330
7D
100
AcDbEntity
 67
     1
  8
1
  6
Continuous
 62
     4
370
    18
100
AcDbLine
 10
3.535183906555175
 20
5.536331176757812
 30
0.0
 11
3.535183906555175
 21
5.541140079498291
 31
0.0
  0
LINE
  5
522
330
7D
100
AcDbEntity
 67
     1
  8
1
  6
Continuous
 62
     4
370
    18
100
AcDbLine
 10
3.535183906555175
 20
5.541140079498291
 30
0.0
 11
3.535183906555175
 21
5.551273822784423
 31
0.0
  0
LINE
  5
523
330
7D
100
AcDbEntity
 67
     1
  8
1
  6
Continuous
 62
     4
370
    18
100
AcDbLine
 10
3.309979438781738
 20
5.568010807037353
 30
0.0
 11
3.314396142959594
 21
5.578536987304687
 31
0.0
  0
LINE
  5
524
330
7D
100
AcDbEntity
 67
     1
  8
1
  6
Continuous
 62
     4
370
    18
100
AcDbLine
 10
3.314396142959594
 20
5.578536987304687
 30
0.0
 11
3.324922561645507
 21
5.582953453063964
 31
0.0
  0
LINE
  5
525
330
7D
100
AcDbEntity
 67
     1
  8
1
  6
Continuous
 62
     4
370
    18
100
AcDbLine
 10
3.535183906555175
 20
5.568010807037353
 30
0.0
 11
3.545317888259887
 21
5.568010807037353
 31
0.0
  0
LINE
  5
526
330
7D
100
AcDbEntity
 67
     1
  8
1
  6
Continuous
 62
     4
370
    18
100
AcDbLine
 10
3.545317888259887
 20
5.568010807037353
 30
0.0
 11
3.550127029418945
 21
5.568010807037353
 31
0.0
  0
LINE
  5
527
330
7D
100
AcDbEntity
 67
     1
  8
1
  6
Continuous
 62
     4
370
    18
100
AcDbLine
 10
3.324922561645507
 20
5.536331176757812
 30
0.0
 11
3.324922561645507
 21
5.541140079498291
 31
0.0
  0
LINE
  5
528
330
7D
100
AcDbEntity
 67
     1
  8
1
  6
Continuous
 62
     4
370
    18
100
AcDbLine
 10
3.324922561645507
 20
5.541140079498291
 30
0.0
 11
3.324922561645507
 21
5.551273822784423
 31
0.0
  0
LINE
  5
529
330
7D
100
AcDbEntity
 67
     1
  8
1
  6
Continuous
 62
     4
370
    18
100
AcDbLine
 10
3.535183906555175
 20
5.568010807037353
 30
0.0
 11
3.535183906555175
 21
5.578144550323486
 31
0.0
  0
LINE
  5
52A
330
7D
100
AcDbEntity
 67
     1
  8
1
  6
Continuous
 62
     4
370
    18
100
AcDbLine
 10
3.535183906555175
 20
5.578144550323486
 30
0.0
 11
3.535183906555175
 21
5.582953453063964
 31
0.0
  0
LINE
  5
52B
330
7D
100
AcDbEntity
 67
     1
  8
1
  6
Continuous
 62
     4
370
    18
100
AcDbLine
 10
3.309979438781738
 20
5.551273822784423
 30
0.0
 11
3.314788579940795
 21
5.551273822784423
 31
0.0
  0
LINE
  5
52C
330
7D
100
AcDbEntity
 67
     1
  8
1
  6
Continuous
 62
     4
370
    18
100
AcDbLine
 10
3.314788579940795
 20
5.551273822784423
 30
0.0
 11
3.324922561645507
 21
5.551273822784423
 31
0.0
  0
LINE
  5
52D
330
7D
100
AcDbEntity
 67
     1
  8
1
  6
Continuous
 62
     4
370
    18
100
AcDbLine
 10
3.324922561645507
 20
5.568010807037353
 30
0.0
 11
3.324922561645507
 21
5.578144550323486
 31
0.0
  0
LINE
  5
52E
330
7D
100
AcDbEntity
 67
     1
  8
1
  6
Continuous
 62
     4
370
    18
100
AcDbLine
 10
3.324922561645507
 20
5.578144550323486
 30
0.0
 11
3.324922561645507
 21
5.582953453063964
 31
0.0
  0
LINE
  5
52F
330
7D
100
AcDbEntity
 67
     1
  8
1
  6
Continuous
 62
     4
370
    18
100
AcDbLine
 10
3.535183906555175
 20
5.582953453063964
 30
0.0
 11
3.545710563659667
 21
5.578536987304687
 31
0.0
  0
LINE
  5
530
330
7D
100
AcDbEntity
 67
     1
  8
1
  6
Continuous
 62
     4
370
    18
100
AcDbLine
 10
3.545710563659667
 20
5.578536987304687
 30
0.0
 11
3.550127029418945
 21
5.568010807037353
 31
0.0
  0
LINE
  5
531
330
7D
100
AcDbEntity
 67
     1
  8
1
  6
Continuous
 62
     4
370
    18
100
AcDbLine
 10
3.309979438781738
 20
5.568010807037353
 30
0.0
 11
3.314788579940795
 21
5.568010807037353
 31
0.0
  0
LINE
  5
532
330
7D
100
AcDbEntity
 67
     1
  8
1
  6
Continuous
 62
     4
370
    18
100
AcDbLine
 10
3.314788579940795
 20
5.568010807037353
 30
0.0
 11
3.324922561645507
 21
5.568010807037353
 31
0.0
  0
LINE
  5
533
330
7D
100
AcDbEntity
 67
     1
  8
1
  6
Continuous
 62
     4
370
    18
100
AcDbLine
 10
3.535183906555175
 20
5.551273822784423
 30
0.0
 11
3.545317888259887
 21
5.551273822784423
 31
0.0
  0
LINE
  5
534
330
7D
100
AcDbEntity
 67
     1
  8
1
  6
Continuous
 62
     4
370
    18
100
AcDbLine
 10
3.545317888259887
 20
5.551273822784423
 30
0.0
 11
3.550127029418945
 21
5.551273822784423
 31
0.0
  0
LINE
  5
535
330
7D
100
AcDbEntity
 67
     1
  8
1
  6
Continuous
 62
    30
370
    18
100
AcDbLine
 10
5.571674346923828
 20
4.300178050994873
 30
0.0
 11
5.571674346923828
 21
7.248424053192138
 31
0.0
  0
LINE
  5
536
330
7D
100
AcDbEntity
 67
     1
  8
1
  6
Continuous
 62
    30
370
    18
100
AcDbLine
 10
5.571674346923828
 20
7.248424053192138
 30
0.0
 11
5.571674346923828
 21
7.249092102050781
 31
0.0
  0
LINE
  5
537
330
7D
100
AcDbEntity
 67
     1
  8
1
  6
Continuous
 62
    30
370
    18
100
AcDbLine
 10
5.571674346923828
 20
7.249092102050781
 30
0.0
 11
5.571674346923828
 21
7.249314785003662
 31
0.0
  0
LINE
  5
538
330
7D
100
AcDbEntity
 67
     1
  8
1
  6
Continuous
 62
    30
370
    18
100
AcDbLine
 10
5.571674346923828
 20
4.299286842346191
 30
0.0
 11
5.571674346923828
 21
4.29951000213623
 31
0.0
  0
LINE
  5
539
330
7D
100
AcDbEntity
 67
     1
  8
1
  6
Continuous
 62
    30
370
    18
100
AcDbLine
 10
5.571674346923828
 20
4.29951000213623
 30
0.0
 11
5.571674346923828
 21
4.300178050994873
 31
0.0
  0
LINE
  5
53A
330
7D
100
AcDbEntity
 67
     1
  8
1
  6
Continuous
 62
    30
370
    18
100
AcDbLine
 10
5.921674251556396
 20
7.389101028442382
 30
0.0
 11
5.921674251556396
 21
7.384837627410888
 31
0.0
  0
LINE
  5
53B
330
7D
100
AcDbEntity
 67
     1
  8
1
  6
Continuous
 62
    30
370
    18
100
AcDbLine
 10
5.921674251556396
 20
7.384837627410888
 30
0.0
 11
5.921674251556396
 21
7.372209548950195
 31
0.0
  0
LINE
  5
53C
330
7D
100
AcDbEntity
 67
     1
  8
1
  6
Continuous
 62
    30
370
    18
100
AcDbLine
 10
5.921674251556396
 20
7.372209548950195
 30
0.0
 11
5.921674251556396
 21
7.351704120635986
 31
0.0
  0
LINE
  5
53D
330
7D
100
AcDbEntity
 67
     1
  8
1
  6
Continuous
 62
    30
370
    18
100
AcDbLine
 10
5.921674251556396
 20
7.351704120635986
 30
0.0
 11
5.921674251556396
 21
7.324107646942138
 31
0.0
  0
LINE
  5
53E
330
7D
100
AcDbEntity
 67
     1
  8
1
  6
Continuous
 62
    30
370
    18
100
AcDbLine
 10
5.921674251556396
 20
7.324107646942138
 30
0.0
 11
5.921674251556396
 21
7.29048204421997
 31
0.0
  0
LINE
  5
53F
330
7D
100
AcDbEntity
 67
     1
  8
1
  6
Continuous
 62
    30
370
    18
100
AcDbLine
 10
5.921674251556396
 20
7.29048204421997
 30
0.0
 11
5.921674251556396
 21
7.252118587493896
 31
0.0
  0
LINE
  5
540
330
7D
100
AcDbEntity
 67
     1
  8
1
  6
Continuous
 62
    30
370
    18
100
AcDbLine
 10
5.921674251556396
 20
7.252118587493896
 30
0.0
 11
5.921674251556396
 21
7.21049165725708
 31
0.0
  0
LINE
  5
541
330
7D
100
AcDbEntity
 67
     1
  8
1
  6
Continuous
 62
    30
370
    18
100
AcDbLine
 10
5.921674251556396
 20
7.21049165725708
 30
0.0
 11
5.921674251556396
 21
7.167200565338134
 31
0.0
  0
LINE
  5
542
330
7D
100
AcDbEntity
 67
     1
  8
1
  6
Continuous
 62
    30
370
    18
100
AcDbLine
 10
5.921674251556396
 20
7.059300899505615
 30
0.0
 11
5.921674251556396
 21
7.055281639099121
 31
0.0
  0
LINE
  5
543
330
7D
100
AcDbEntity
 67
     1
  8
1
  6
Continuous
 62
    30
370
    18
100
AcDbLine
 10
5.921674251556396
 20
7.055281639099121
 30
0.0
 11
5.921674251556396
 21
7.044301033020019
 31
0.0
  0
LINE
  5
544
330
7D
100
AcDbEntity
 67
     1
  8
1
  6
Continuous
 62
    30
370
    18
100
AcDbLine
 10
5.921674251556396
 20
7.044301033020019
 30
0.0
 11
5.921674251556396
 21
7.029301166534423
 31
0.0
  0
LINE
  5
545
330
7D
100
AcDbEntity
 67
     1
  8
1
  6
Continuous
 62
    30
370
    18
100
AcDbLine
 10
5.921674251556396
 20
7.029301166534423
 30
0.0
 11
5.921674251556396
 21
7.019300937652587
 31
0.0
  0
LINE
  5
546
330
7D
100
AcDbEntity
 67
     1
  8
1
  6
Continuous
 62
    30
370
    18
100
AcDbLine
 10
5.921674251556396
 20
4.559300422668457
 30
0.0
 11
5.921674251556396
 21
6.989301204681396
 31
0.0
  0
LINE
  5
547
330
7D
100
AcDbEntity
 67
     1
  8
1
  6
Continuous
 62
    30
370
    18
100
AcDbLine
 10
5.921674251556396
 20
7.059300899505615
 30
0.0
 11
5.921674251556396
 21
7.167200565338134
 31
0.0
  0
LINE
  5
548
330
7D
100
AcDbEntity
 67
     1
  8
1
  6
Continuous
 62
    30
370
    18
100
AcDbLine
 10
5.921674251556396
 20
4.559300422668457
 30
0.0
 11
5.921674251556396
 21
4.555281639099121
 31
0.0
  0
LINE
  5
549
330
7D
100
AcDbEntity
 67
     1
  8
1
  6
Continuous
 62
    30
370
    18
100
AcDbLine
 10
5.921674251556396
 20
4.555281639099121
 30
0.0
 11
5.921674251556396
 21
4.544300556182861
 31
0.0
  0
LINE
  5
54A
330
7D
100
AcDbEntity
 67
     1
  8
1
  6
Continuous
 62
    30
370
    18
100
AcDbLine
 10
5.921674251556396
 20
4.544300556182861
 30
0.0
 11
5.921674251556396
 21
4.529300689697265
 31
0.0
  0
LINE
  5
54B
330
7D
100
AcDbEntity
 67
     1
  8
1
  6
Continuous
 62
    30
370
    18
100
AcDbLine
 10
5.921674251556396
 20
4.519300460815429
 30
0.0
 11
5.921674251556396
 21
4.529300689697265
 31
0.0
  0
LINE
  5
54C
330
7D
100
AcDbEntity
 67
     1
  8
1
  6
Continuous
 62
    30
370
    18
100
AcDbLine
 10
5.921674251556396
 20
4.519300460815429
 30
0.0
 11
5.921674251556396
 21
4.504300594329833
 31
0.0
  0
LINE
  5
54D
330
7D
100
AcDbEntity
 67
     1
  8
1
  6
Continuous
 62
    30
370
    18
100
AcDbLine
 10
5.921674251556396
 20
4.504300594329833
 30
0.0
 11
5.921674251556396
 21
4.493319988250732
 31
0.0
  0
LINE
  5
54E
330
7D
100
AcDbEntity
 67
     1
  8
1
  6
Continuous
 62
    30
370
    18
100
AcDbLine
 10
5.921674251556396
 20
4.493319988250732
 30
0.0
 11
5.921674251556396
 21
4.489300727844238
 31
0.0
  0
LINE
  5
54F
330
7D
100
AcDbEntity
 67
     1
  8
1
  6
Continuous
 62
    30
370
    18
100
AcDbLine
 10
5.921674251556396
 20
4.38140058517456
 30
0.0
 11
5.921674251556396
 21
4.338109970092773
 31
0.0
  0
LINE
  5
550
330
7D
100
AcDbEntity
 67
     1
  8
1
  6
Continuous
 62
    30
370
    18
100
AcDbLine
 10
5.921674251556396
 20
4.338109970092773
 30
0.0
 11
5.921674251556396
 21
4.296483039855957
 31
0.0
  0
LINE
  5
551
330
7D
100
AcDbEntity
 67
     1
  8
1
  6
Continuous
 62
    30
370
    18
100
AcDbLine
 10
5.921674251556396
 20
4.296483039855957
 30
0.0
 11
5.921674251556396
 21
4.258119583129882
 31
0.0
  0
LINE
  5
552
330
7D
100
AcDbEntity
 67
     1
  8
1
  6
Continuous
 62
    30
370
    18
100
AcDbLine
 10
5.921674251556396
 20
4.258119583129882
 30
0.0
 11
5.921674251556396
 21
4.224493980407714
 31
0.0
  0
LINE
  5
553
330
7D
100
AcDbEntity
 67
     1
  8
1
  6
Continuous
 62
    30
370
    18
100
AcDbLine
 10
5.921674251556396
 20
4.224493980407714
 30
0.0
 11
5.921674251556396
 21
4.196897506713867
 31
0.0
  0
LINE
  5
554
330
7D
100
AcDbEntity
 67
     1
  8
1
  6
Continuous
 62
    30
370
    18
100
AcDbLine
 10
5.921674251556396
 20
4.196897506713867
 30
0.0
 11
5.921674251556396
 21
4.1763916015625
 31
0.0
  0
LINE
  5
555
330
7D
100
AcDbEntity
 67
     1
  8
1
  6
Continuous
 62
    30
370
    18
100
AcDbLine
 10
5.921674251556396
 20
4.1763916015625
 30
0.0
 11
5.921674251556396
 21
4.163764476776123
 31
0.0
  0
LINE
  5
556
330
7D
100
AcDbEntity
 67
     1
  8
1
  6
Continuous
 62
    30
370
    18
100
AcDbLine
 10
5.921674251556396
 20
4.163764476776123
 30
0.0
 11
5.921674251556396
 21
4.15950059890747
 31
0.0
  0
LINE
  5
557
330
7D
100
AcDbEntity
 67
     1
  8
1
  6
Continuous
 62
    30
370
    18
100
AcDbLine
 10
5.921674251556396
 20
7.019300937652587
 30
0.0
 11
5.921674251556396
 21
7.004301071166992
 31
0.0
  0
LINE
  5
558
330
7D
100
AcDbEntity
 67
     1
  8
1
  6
Continuous
 62
    30
370
    18
100
AcDbLine
 10
5.921674251556396
 20
7.004301071166992
 30
0.0
 11
5.921674251556396
 21
6.993319511413574
 31
0.0
  0
LINE
  5
559
330
7D
100
AcDbEntity
 67
     1
  8
1
  6
Continuous
 62
    30
370
    18
100
AcDbLine
 10
5.921674251556396
 20
6.993319511413574
 30
0.0
 11
5.921674251556396
 21
6.989301204681396
 31
0.0
  0
LINE
  5
55A
330
7D
100
AcDbEntity
 67
     1
  8
1
  6
Continuous
 62
    30
370
    18
100
AcDbLine
 10
5.921674251556396
 20
4.38140058517456
 30
0.0
 11
5.921674251556396
 21
4.489300727844238
 31
0.0
  0
LINE
  5
55B
330
7D
100
AcDbEntity
 67
     1
  8
1
  6
Continuous
 62
    30
370
    18
100
AcDbLine
 10
5.913673400878906
 20
7.388681888580322
 30
0.0
 11
5.921674251556396
 21
7.389101028442382
 31
0.0
  0
LINE
  5
55C
330
7D
100
AcDbEntity
 67
     1
  8
1
  6
Continuous
 62
    30
370
    18
100
AcDbLine
 10
5.921674251556396
 20
7.167200565338134
 30
0.0
 11
5.913673400878906
 21
7.167200565338134
 31
0.0
  0
LINE
  5
55D
330
7D
100
AcDbEntity
 67
     1
  8
1
  6
Continuous
 62
    30
370
    18
100
AcDbLine
 10
5.913672924041748
 20
7.019300937652587
 30
0.0
 11
5.921674251556396
 21
7.019300937652587
 31
0.0
  0
LINE
  5
55E
330
7D
100
AcDbEntity
 67
     1
  8
1
  6
Continuous
 62
    30
370
    18
100
AcDbLine
 10
5.921674251556396
 20
7.029301166534423
 30
0.0
 11
5.913672924041748
 21
7.029301166534423
 31
0.0
  0
LINE
  5
55F
330
7D
100
AcDbEntity
 67
     1
  8
1
  6
Continuous
 62
    30
370
    18
100
AcDbLine
 10
5.921674251556396
 20
7.059300899505615
 30
0.0
 11
5.913673400878906
 21
7.05944013595581
 31
0.0
  0
LINE
  5
560
330
7D
100
AcDbEntity
 67
     1
  8
1
  6
Continuous
 62
    30
370
    18
100
AcDbLine
 10
5.913673400878906
 20
6.989161014556884
 30
0.0
 11
5.921674251556396
 21
6.989301204681396
 31
0.0
  0
LINE
  5
561
330
7D
100
AcDbEntity
 67
     1
  8
1
  6
Continuous
 62
    30
370
    18
100
AcDbLine
 10
5.913672924041748
 20
4.519300460815429
 30
0.0
 11
5.921674251556396
 21
4.519300460815429
 31
0.0
  0
LINE
  5
562
330
7D
100
AcDbEntity
 67
     1
  8
1
  6
Continuous
 62
    30
370
    18
100
AcDbLine
 10
5.921674251556396
 20
4.529300689697265
 30
0.0
 11
5.913672924041748
 21
4.529300689697265
 31
0.0
  0
LINE
  5
563
330
7D
100
AcDbEntity
 67
     1
  8
1
  6
Continuous
 62
    30
370
    18
100
AcDbLine
 10
5.913673400878906
 20
4.489161014556884
 30
0.0
 11
5.921674251556396
 21
4.489300727844238
 31
0.0
  0
LINE
  5
564
330
7D
100
AcDbEntity
 67
     1
  8
1
  6
Continuous
 62
    30
370
    18
100
AcDbLine
 10
5.913673400878906
 20
4.38140058517456
 30
0.0
 11
5.921674251556396
 21
4.38140058517456
 31
0.0
  0
LINE
  5
565
330
7D
100
AcDbEntity
 67
     1
  8
1
  6
Continuous
 62
    30
370
    18
100
AcDbLine
 10
5.921674251556396
 20
4.15950059890747
 30
0.0
 11
5.913673400878906
 21
4.159919738769531
 31
0.0
  0
LINE
  5
566
330
7D
100
AcDbEntity
 67
     1
  8
1
  6
Continuous
 62
    30
370
    18
100
AcDbLine
 10
5.921674251556396
 20
4.559300422668457
 30
0.0
 11
5.913673400878906
 21
4.55944013595581
 31
0.0
  0
LINE
  5
567
330
7D
100
AcDbEntity
 67
     1
  8
1
  6
Continuous
 62
    30
370
    18
100
AcDbLine
 10
5.576473712921142
 20
7.103800773620605
 30
0.0
 11
5.576473712921142
 21
4.444800853729248
 31
0.0
  0
LINE
  5
568
330
7D
100
AcDbEntity
 67
     1
  8
1
  6
Continuous
 62
    30
370
    18
100
AcDbLine
 10
5.571674346923828
 20
7.248424053192138
 30
0.0
 11
5.571841239929199
 21
7.243663787841796
 31
0.0
  0
LINE
  5
569
330
7D
100
AcDbEntity
 67
     1
  8
1
  6
Continuous
 62
    30
370
    18
100
AcDbLine
 10
5.571841239929199
 20
7.243663787841796
 30
0.0
 11
5.572303771972656
 21
7.234973907470703
 31
0.0
  0
LINE
  5
56A
330
7D
100
AcDbEntity
 67
     1
  8
1
  6
Continuous
 62
    30
370
    18
100
AcDbLine
 10
5.572303771972656
 20
7.234973907470703
 30
0.0
 11
5.572998523712158
 21
7.222545146942138
 31
0.0
  0
LINE
  5
56B
330
7D
100
AcDbEntity
 67
     1
  8
1
  6
Continuous
 62
    30
370
    18
100
AcDbLine
 10
5.572998523712158
 20
7.222545146942138
 30
0.0
 11
5.573827266693115
 21
7.206779956817626
 31
0.0
  0
LINE
  5
56C
330
7D
100
AcDbEntity
 67
     1
  8
1
  6
Continuous
 62
    30
370
    18
100
AcDbLine
 10
5.573827266693115
 20
7.206779956817626
 30
0.0
 11
5.574685096740722
 21
7.1880464553833
 31
0.0
  0
LINE
  5
56D
330
7D
100
AcDbEntity
 67
     1
  8
1
  6
Continuous
 62
    30
370
    18
100
AcDbLine
 10
5.574685096740722
 20
7.1880464553833
 30
0.0
 11
5.575463771820068
 21
7.16693115234375
 31
0.0
  0
LINE
  5
56E
330
7D
100
AcDbEntity
 67
     1
  8
1
  6
Continuous
 62
    30
370
    18
100
AcDbLine
 10
5.575463771820068
 20
7.16693115234375
 30
0.0
 11
5.57606029510498
 21
7.14400577545166
 31
0.0
  0
LINE
  5
56F
330
7D
100
AcDbEntity
 67
     1
  8
1
  6
Continuous
 62
    30
370
    18
100
AcDbLine
 10
5.57606029510498
 20
7.14400577545166
 30
0.0
 11
5.576407432556152
 21
7.119939804077148
 31
0.0
  0
LINE
  5
570
330
7D
100
AcDbEntity
 67
     1
  8
1
  6
Continuous
 62
    30
370
    18
100
AcDbLine
 10
5.576407432556152
 20
7.119939804077148
 30
0.0
 11
5.576473712921142
 21
7.103800773620605
 31
0.0
  0
LINE
  5
571
330
7D
100
AcDbEntity
 67
     1
  8
1
  6
Continuous
 62
    30
370
    18
100
AcDbLine
 10
5.576473712921142
 20
4.444800853729248
 30
0.0
 11
5.576320171356201
 21
4.420427322387695
 31
0.0
  0
LINE
  5
572
330
7D
100
AcDbEntity
 67
     1
  8
1
  6
Continuous
 62
    30
370
    18
100
AcDbLine
 10
5.576320171356201
 20
4.420427322387695
 30
0.0
 11
5.575886249542236
 21
4.396741867065429
 31
0.0
  0
LINE
  5
573
330
7D
100
AcDbEntity
 67
     1
  8
1
  6
Continuous
 62
    30
370
    18
100
AcDbLine
 10
5.575886249542236
 20
4.396741867065429
 30
0.0
 11
5.575219631195068
 21
4.374428749084472
 31
0.0
  0
LINE
  5
574
330
7D
100
AcDbEntity
 67
     1
  8
1
  6
Continuous
 62
    30
370
    18
100
AcDbLine
 10
5.575219631195068
 20
4.374428749084472
 30
0.0
 11
5.57440710067749
 21
4.354094505310058
 31
0.0
  0
LINE
  5
575
330
7D
100
AcDbEntity
 67
     1
  8
1
  6
Continuous
 62
    30
370
    18
100
AcDbLine
 10
5.57440710067749
 20
4.354094505310058
 30
0.0
 11
5.573546886444091
 21
4.336305618286132
 31
0.0
  0
LINE
  5
576
330
7D
100
AcDbEntity
 67
     1
  8
1
  6
Continuous
 62
    30
370
    18
100
AcDbLine
 10
5.573546886444091
 20
4.336305618286132
 30
0.0
 11
5.572749614715576
 21
4.321570396423339
 31
0.0
  0
LINE
  5
577
330
7D
100
AcDbEntity
 67
     1
  8
1
  6
Continuous
 62
    30
370
    18
100
AcDbLine
 10
5.572749614715576
 20
4.321570396423339
 30
0.0
 11
5.572122573852539
 21
4.310335159301757
 31
0.0
  0
LINE
  5
578
330
7D
100
AcDbEntity
 67
     1
  8
1
  6
Continuous
 62
    30
370
    18
100
AcDbLine
 10
5.572122573852539
 20
4.310335159301757
 30
0.0
 11
5.571748733520507
 21
4.302893638610839
 31
0.0
  0
LINE
  5
579
330
7D
100
AcDbEntity
 67
     1
  8
1
  6
Continuous
 62
    30
370
    18
100
AcDbLine
 10
5.571748733520507
 20
4.302893638610839
 30
0.0
 11
5.571674346923828
 21
4.300178050994873
 31
0.0
  0
LINE
  5
57A
330
7D
100
AcDbEntity
 67
     1
  8
1
  6
Continuous
 62
    30
370
    18
100
AcDbLine
 10
5.99604845046997
 20
6.572888374328613
 30
0.0
 11
5.92167043685913
 21
6.584458351135253
 31
0.0
  0
LINE
  5
57B
330
7D
100
AcDbEntity
 67
     1
  8
1
  6
Continuous
 62
    30
370
    18
100
AcDbLine
 10
5.92167329788208
 20
6.592532157897949
 30
0.0
 11
6.114674091339111
 21
6.562510013580322
 31
0.0
  0
LINE
  5
57C
330
7D
100
AcDbEntity
 67
     1
  8
1
  6
Continuous
 62
    30
370
    18
100
AcDbLine
 10
6.085721015930175
 20
6.519814014434814
 30
0.0
 11
6.022675991058349
 21
6.523118019104003
 31
0.0
  0
LINE
  5
57D
330
7D
100
AcDbEntity
 67
     1
  8
1
  6
Continuous
 62
    30
370
    18
100
AcDbLine
 10
5.921670913696289
 20
6.579395294189453
 30
0.0
 11
6.085721015930175
 21
6.565042972564697
 31
0.0
  0
LINE
  5
57E
330
7D
100
AcDbEntity
 67
     1
  8
1
  6
Continuous
 62
    30
370
    18
100
AcDbLine
 10
6.085721015930175
 20
6.519814014434814
 30
0.0
 11
6.085721015930175
 21
6.565042972564697
 31
0.0
  0
LINE
  5
57F
330
7D
100
AcDbEntity
 67
     1
  8
1
  6
Continuous
 62
    30
370
    18
100
AcDbLine
 10
6.114674091339111
 20
6.518296241760253
 30
0.0
 11
6.110827922821044
 21
6.518497943878173
 31
0.0
  0
LINE
  5
580
330
7D
100
AcDbEntity
 67
     1
  8
1
  6
Continuous
 62
    30
370
    18
100
AcDbLine
 10
6.110827922821044
 20
6.518497943878173
 30
0.0
 11
6.100275039672851
 21
6.519051074981689
 31
0.0
  0
LINE
  5
581
330
7D
100
AcDbEntity
 67
     1
  8
1
  6
Continuous
 62
    30
370
    18
100
AcDbLine
 10
6.100275039672851
 20
6.519051074981689
 30
0.0
 11
6.085721015930175
 21
6.519814014434814
 31
0.0
  0
LINE
  5
582
330
7D
100
AcDbEntity
 67
     1
  8
1
  6
Continuous
 62
    30
370
    18
100
AcDbLine
 10
6.085721015930175
 20
6.565042972564697
 30
0.0
 11
6.100275039672851
 21
6.563769817352294
 31
0.0
  0
LINE
  5
583
330
7D
100
AcDbEntity
 67
     1
  8
1
  6
Continuous
 62
    30
370
    18
100
AcDbLine
 10
6.100275039672851
 20
6.563769817352294
 30
0.0
 11
6.110827922821044
 21
6.562846660614013
 31
0.0
  0
LINE
  5
584
330
7D
100
AcDbEntity
 67
     1
  8
1
  6
Continuous
 62
    30
370
    18
100
AcDbLine
 10
6.110827922821044
 20
6.562846660614013
 30
0.0
 11
6.114674091339111
 21
6.562510013580322
 31
0.0
  0
LINE
  5
585
330
7D
100
AcDbEntity
 67
     1
  8
1
  6
Continuous
 62
    30
370
    18
100
AcDbLine
 10
6.065524578094482
 20
6.494324684143066
 30
0.0
 11
6.114674091339111
 21
6.518296241760253
 31
0.0
  0
LINE
  5
586
330
7D
100
AcDbEntity
 67
     1
  8
1
  6
Continuous
 62
    30
370
    18
100
AcDbLine
 10
6.114674091339111
 20
6.562510013580322
 30
0.0
 11
6.114674091339111
 21
6.518296241760253
 31
0.0
  0
LINE
  5
587
330
7D
100
AcDbEntity
 67
     1
  8
1
  6
Continuous
 62
    30
370
    18
100
AcDbLine
 10
5.571674346923828
 20
6.773395538330078
 30
0.0
 11
5.561674118041992
 21
6.773395538330078
 31
0.0
  0
LINE
  5
588
330
7D
100
AcDbEntity
 67
     1
  8
1
  6
Continuous
 62
    30
370
    18
100
AcDbLine
 10
5.561674118041992
 20
6.773395538330078
 30
0.0
 11
5.561674118041992
 21
6.768867492675781
 31
0.0
  0
LINE
  5
589
330
7D
100
AcDbEntity
 67
     1
  8
1
  6
Continuous
 62
    30
370
    18
100
AcDbLine
 10
5.561674118041992
 20
6.768867492675781
 30
0.0
 11
5.561674118041992
 21
6.756054878234863
 31
0.0
  0
LINE
  5
58A
330
7D
100
AcDbEntity
 67
     1
  8
1
  6
Continuous
 62
    30
370
    18
100
AcDbLine
 10
5.561674118041992
 20
6.756054878234863
 30
0.0
 11
5.561674118041992
 21
6.737139701843261
 31
0.0
  0
LINE
  5
58B
330
7D
100
AcDbEntity
 67
     1
  8
1
  6
Continuous
 62
    30
370
    18
100
AcDbLine
 10
5.571674346923828
 20
6.618765830993652
 30
0.0
 11
5.561674118041992
 21
6.618765830993652
 31
0.0
  0
LINE
  5
58C
330
7D
100
AcDbEntity
 67
     1
  8
1
  6
Continuous
 62
    30
370
    18
100
AcDbLine
 10
5.561674118041992
 20
6.618765830993652
 30
0.0
 11
5.561674118041992
 21
6.712969303131103
 31
0.0
  0
LINE
  5
58D
330
7D
100
AcDbEntity
 67
     1
  8
1
  6
Continuous
 62
    30
370
    18
100
AcDbLine
 10
5.571674346923828
 20
6.712969303131103
 30
0.0
 11
5.561674118041992
 21
6.712969303131103
 31
0.0
  0
LINE
  5
58E
330
7D
100
AcDbEntity
 67
     1
  8
1
  6
Continuous
 62
    30
370
    18
100
AcDbLine
 10
5.571674346923828
 20
6.737139701843261
 30
0.0
 11
5.561674118041992
 21
6.737139701843261
 31
0.0
  0
LINE
  5
58F
330
7D
100
AcDbEntity
 67
     1
  8
1
  6
Continuous
 62
    30
370
    18
100
AcDbLine
 10
5.561674118041992
 20
6.712969303131103
 30
0.0
 11
5.561674118041992
 21
6.737139701843261
 31
0.0
  0
LINE
  5
590
330
7D
100
AcDbEntity
 67
     1
  8
1
  6
Continuous
 62
   173
370
    18
100
AcDbLine
 10
5.571674346923828
 20
7.25595474243164
 30
0.0
 11
5.571674346923828
 21
7.306512832641601
 31
0.0
  0
LINE
  5
591
330
7D
100
AcDbEntity
 67
     1
  8
1
  6
Continuous
 62
   173
370
    18
100
AcDbLine
 10
5.913673877716064
 20
4.081820011138916
 30
0.0
 11
5.78347635269165
 21
4.088643550872802
 31
0.0
  0
LINE
  5
592
330
7D
100
AcDbEntity
 67
     1
  8
1
  6
Continuous
 62
   173
370
    18
100
AcDbLine
 10
5.74245548248291
 20
4.090793132781982
 30
0.0
 11
5.726570606231689
 21
4.091625690460205
 31
0.0
  0
LINE
  5
593
330
7D
100
AcDbEntity
 67
     1
  8
1
  6
Continuous
 62
   173
370
    18
100
AcDbLine
 10
5.726570606231689
 20
4.091625690460205
 30
0.0
 11
5.717013359069824
 21
4.092126369476318
 31
0.0
  0
LINE
  5
594
330
7D
100
AcDbEntity
 67
     1
  8
1
  6
Continuous
 62
   173
370
    18
100
AcDbLine
 10
5.717013359069824
 20
4.092126369476318
 30
0.0
 11
5.713823795318603
 21
4.092293739318847
 31
0.0
  0
LINE
  5
595
330
7D
100
AcDbEntity
 67
     1
  8
1
  6
Continuous
 62
   173
370
    18
100
AcDbLine
 10
5.713823795318603
 20
7.456307888031005
 30
0.0
 11
5.717013359069824
 21
7.456474781036376
 31
0.0
  0
LINE
  5
596
330
7D
100
AcDbEntity
 67
     1
  8
1
  6
Continuous
 62
   173
370
    18
100
AcDbLine
 10
5.717013359069824
 20
7.456474781036376
 30
0.0
 11
5.726570606231689
 21
7.456975936889648
 31
0.0
  0
LINE
  5
597
330
7D
100
AcDbEntity
 67
     1
  8
1
  6
Continuous
 62
   173
370
    18
100
AcDbLine
 10
5.726570606231689
 20
7.456975936889648
 30
0.0
 11
5.74245548248291
 21
7.457808494567871
 31
0.0
  0
LINE
  5
598
330
7D
100
AcDbEntity
 67
     1
  8
1
  6
Continuous
 62
   173
370
    18
100
AcDbLine
 10
5.78347635269165
 20
4.088643550872802
 30
0.0
 11
5.74245548248291
 21
4.090793132781982
 31
0.0
  0
LINE
  5
599
330
7D
100
AcDbEntity
 67
     1
  8
1
  6
Continuous
 62
   173
370
    18
100
AcDbLine
 10
5.78347635269165
 20
7.45995807647705
 30
0.0
 11
5.913673877716064
 21
7.466781616210937
 31
0.0
  0
LINE
  5
59A
330
7D
100
AcDbEntity
 67
     1
  8
1
  6
Continuous
 62
   173
370
    18
100
AcDbLine
 10
5.74245548248291
 20
7.457808494567871
 30
0.0
 11
5.78347635269165
 21
7.45995807647705
 31
0.0
  0
LINE
  5
59B
330
7D
100
AcDbEntity
 67
     1
  8
1
  6
Continuous
 62
   173
370
    18
100
AcDbLine
 10
5.60299015045166
 20
7.308013916015625
 30
0.0
 11
5.60299015045166
 21
4.240587711334228
 31
0.0
  0
LINE
  5
59C
330
7D
100
AcDbEntity
 67
     1
  8
1
  6
Continuous
 62
   173
370
    18
100
AcDbLine
 10
5.60299015045166
 20
4.240587711334228
 30
0.0
 11
5.644980430603027
 21
4.23843765258789
 31
0.0
  0
LINE
  5
59D
330
7D
100
AcDbEntity
 67
     1
  8
1
  6
Continuous
 62
   173
370
    18
100
AcDbLine
 10
5.644980430603027
 20
7.310163974761962
 30
0.0
 11
5.60299015045166
 21
7.308013916015625
 31
0.0
  0
LINE
  5
59E
330
7D
100
AcDbEntity
 67
     1
  8
1
  6
Continuous
 62
   173
370
    18
100
AcDbLine
 10
5.680124282836914
 20
4.38140058517456
 30
0.0
 11
5.680124282836914
 21
7.167200565338134
 31
0.0
  0
LINE
  5
59F
330
7D
100
AcDbEntity
 67
     1
  8
1
  6
Continuous
 62
   173
370
    18
100
AcDbLine
 10
5.913673877716064
 20
4.38140058517456
 30
0.0
 11
5.913673877716064
 21
7.167200565338134
 31
0.0
  0
LINE
  5
5A0
330
7D
100
AcDbEntity
 67
     1
  8
1
  6
Continuous
 62
   173
370
    18
100
AcDbLine
 10
5.913673877716064
 20
7.167200565338134
 30
0.0
 11
5.817809581756591
 21
7.167200565338134
 31
0.0
  0
LINE
  5
5A1
330
7D
100
AcDbEntity
 67
     1
  8
1
  6
Continuous
 62
   173
370
    18
100
AcDbLine
 10
5.680124282836914
 20
7.167200565338134
 30
0.0
 11
5.679366111755371
 21
7.196186542510986
 31
0.0
  0
LINE
  5
5A2
330
7D
100
AcDbEntity
 67
     1
  8
1
  6
Continuous
 62
   173
370
    18
100
AcDbLine
 10
5.679366111755371
 20
7.196186542510986
 30
0.0
 11
5.677592754364013
 21
7.219521045684814
 31
0.0
  0
LINE
  5
5A3
330
7D
100
AcDbEntity
 67
     1
  8
1
  6
Continuous
 62
   173
370
    18
100
AcDbLine
 10
5.677592754364013
 20
7.219521045684814
 30
0.0
 11
5.674881935119628
 21
7.241222381591796
 31
0.0
  0
LINE
  5
5A4
330
7D
100
AcDbEntity
 67
     1
  8
1
  6
Continuous
 62
   173
370
    18
100
AcDbLine
 10
5.674881935119628
 20
7.241222381591796
 30
0.0
 11
5.671205997467041
 21
7.261255264282226
 31
0.0
  0
LINE
  5
5A5
330
7D
100
AcDbEntity
 67
     1
  8
1
  6
Continuous
 62
   173
370
    18
100
AcDbLine
 10
5.671205997467041
 20
7.261255264282226
 30
0.0
 11
5.66681432723999
 21
7.278340816497802
 31
0.0
  0
LINE
  5
5A6
330
7D
100
AcDbEntity
 67
     1
  8
1
  6
Continuous
 62
   173
370
    18
100
AcDbLine
 10
5.66681432723999
 20
7.278340816497802
 30
0.0
 11
5.661777019500732
 21
7.292219638824462
 31
0.0
  0
LINE
  5
5A7
330
7D
100
AcDbEntity
 67
     1
  8
1
  6
Continuous
 62
   173
370
    18
100
AcDbLine
 10
5.661777019500732
 20
7.292219638824462
 30
0.0
 11
5.656352519989013
 21
7.302295207977294
 31
0.0
  0
LINE
  5
5A8
330
7D
100
AcDbEntity
 67
     1
  8
1
  6
Continuous
 62
   173
370
    18
100
AcDbLine
 10
5.656352519989013
 20
7.302295207977294
 30
0.0
 11
5.650690078735351
 21
7.308318138122558
 31
0.0
  0
LINE
  5
5A9
330
7D
100
AcDbEntity
 67
     1
  8
1
  6
Continuous
 62
   173
370
    18
100
AcDbLine
 10
5.650690078735351
 20
7.308318138122558
 30
0.0
 11
5.644980430603027
 21
7.310163974761962
 31
0.0
  0
LINE
  5
5AA
330
7D
100
AcDbEntity
 67
     1
  8
1
  6
Continuous
 62
   173
370
    18
100
AcDbLine
 10
5.817809581756591
 20
4.38140058517456
 30
0.0
 11
5.913673877716064
 21
4.38140058517456
 31
0.0
  0
LINE
  5
5AB
330
7D
100
AcDbEntity
 67
     1
  8
1
  6
Continuous
 62
   173
370
    18
100
AcDbLine
 10
5.644980430603027
 20
4.23843765258789
 30
0.0
 11
5.653602600097656
 21
4.242838382720947
 31
0.0
  0
LINE
  5
5AC
330
7D
100
AcDbEntity
 67
     1
  8
1
  6
Continuous
 62
   173
370
    18
100
AcDbLine
 10
5.653602600097656
 20
4.242838382720947
 30
0.0
 11
5.659001350402832
 21
4.2506685256958
 31
0.0
  0
LINE
  5
5AD
330
7D
100
AcDbEntity
 67
     1
  8
1
  6
Continuous
 62
   173
370
    18
100
AcDbLine
 10
5.659001350402832
 20
4.2506685256958
 30
0.0
 11
5.664120197296142
 21
4.262210369110107
 31
0.0
  0
LINE
  5
5AE
330
7D
100
AcDbEntity
 67
     1
  8
1
  6
Continuous
 62
   173
370
    18
100
AcDbLine
 10
5.664120197296142
 20
4.262210369110107
 30
0.0
 11
5.668642520904541
 21
4.2767014503479
 31
0.0
  0
LINE
  5
5AF
330
7D
100
AcDbEntity
 67
     1
  8
1
  6
Continuous
 62
   173
370
    18
100
AcDbLine
 10
5.668642520904541
 20
4.2767014503479
 30
0.0
 11
5.672602176666259
 21
4.294127941131591
 31
0.0
  0
LINE
  5
5B0
330
7D
100
AcDbEntity
 67
     1
  8
1
  6
Continuous
 62
   173
370
    18
100
AcDbLine
 10
5.672602176666259
 20
4.294127941131591
 30
0.0
 11
5.675784111022949
 21
4.313671112060546
 31
0.0
  0
LINE
  5
5B1
330
7D
100
AcDbEntity
 67
     1
  8
1
  6
Continuous
 62
   173
370
    18
100
AcDbLine
 10
5.675784111022949
 20
4.313671112060546
 30
0.0
 11
5.678164482116699
 21
4.335155010223388
 31
0.0
  0
LINE
  5
5B2
330
7D
100
AcDbEntity
 67
     1
  8
1
  6
Continuous
 62
   173
370
    18
100
AcDbLine
 10
5.678164482116699
 20
4.335155010223388
 30
0.0
 11
5.679624557495117
 21
4.357929706573486
 31
0.0
  0
LINE
  5
5B3
330
7D
100
AcDbEntity
 67
     1
  8
1
  6
Continuous
 62
   173
370
    18
100
AcDbLine
 10
5.679624557495117
 20
4.357929706573486
 30
0.0
 11
5.680124282836914
 21
4.38140058517456
 31
0.0
  0
LINE
  5
5B4
330
7D
100
AcDbEntity
 67
     1
  8
1
  6
Continuous
 62
   173
370
    18
100
AcDbLine
 10
5.571674346923828
 20
4.242088317871093
 30
0.0
 11
5.571674346923828
 21
4.292646884918212
 31
0.0
  0
LINE
  5
5B5
330
7D
100
AcDbEntity
 67
     1
  8
1
  6
Continuous
 62
   173
370
    18
100
AcDbLine
 10
5.913673877716064
 20
7.466781616210937
 30
0.0
 11
5.913673877716064
 21
7.462230205535888
 31
0.0
  0
LINE
  5
5B6
330
7D
100
AcDbEntity
 67
     1
  8
1
  6
Continuous
 62
   173
370
    18
100
AcDbLine
 10
5.913673877716064
 20
7.462230205535888
 30
0.0
 11
5.913673877716064
 21
7.448714256286621
 31
0.0
  0
LINE
  5
5B7
330
7D
100
AcDbEntity
 67
     1
  8
1
  6
Continuous
 62
   173
370
    18
100
AcDbLine
 10
5.913673877716064
 20
7.448714256286621
 30
0.0
 11
5.913673877716064
 21
7.426645755767822
 31
0.0
  0
LINE
  5
5B8
330
7D
100
AcDbEntity
 67
     1
  8
1
  6
Continuous
 62
   173
370
    18
100
AcDbLine
 10
5.913673877716064
 20
7.426645755767822
 30
0.0
 11
5.913673877716064
 21
7.396692752838134
 31
0.0
  0
LINE
  5
5B9
330
7D
100
AcDbEntity
 67
     1
  8
1
  6
Continuous
 62
   173
370
    18
100
AcDbLine
 10
5.913673877716064
 20
7.396692752838134
 30
0.0
 11
5.913673877716064
 21
7.359767436981201
 31
0.0
  0
LINE
  5
5BA
330
7D
100
AcDbEntity
 67
     1
  8
1
  6
Continuous
 62
   173
370
    18
100
AcDbLine
 10
5.913673877716064
 20
7.359767436981201
 30
0.0
 11
5.913673877716064
 21
7.316991329193115
 31
0.0
  0
LINE
  5
5BB
330
7D
100
AcDbEntity
 67
     1
  8
1
  6
Continuous
 62
   173
370
    18
100
AcDbLine
 10
5.913673877716064
 20
7.316991329193115
 30
0.0
 11
5.913673877716064
 21
7.269663333892822
 31
0.0
  0
LINE
  5
5BC
330
7D
100
AcDbEntity
 67
     1
  8
1
  6
Continuous
 62
   173
370
    18
100
AcDbLine
 10
5.913673877716064
 20
7.269663333892822
 30
0.0
 11
5.913673877716064
 21
7.219222068786621
 31
0.0
  0
LINE
  5
5BD
330
7D
100
AcDbEntity
 67
     1
  8
1
  6
Continuous
 62
   173
370
    18
100
AcDbLine
 10
5.913673877716064
 20
7.219222068786621
 30
0.0
 11
5.913673877716064
 21
7.167200565338134
 31
0.0
  0
LINE
  5
5BE
330
7D
100
AcDbEntity
 67
     1
  8
1
  6
Continuous
 62
   173
370
    18
100
AcDbLine
 10
5.913673877716064
 20
4.38140058517456
 30
0.0
 11
5.913673877716064
 21
4.329379081726074
 31
0.0
  0
LINE
  5
5BF
330
7D
100
AcDbEntity
 67
     1
  8
1
  6
Continuous
 62
   173
370
    18
100
AcDbLine
 10
5.913673877716064
 20
4.329379081726074
 30
0.0
 11
5.913673877716064
 21
4.278938293457031
 31
0.0
  0
LINE
  5
5C0
330
7D
100
AcDbEntity
 67
     1
  8
1
  6
Continuous
 62
   173
370
    18
100
AcDbLine
 10
5.913673877716064
 20
4.278938293457031
 30
0.0
 11
5.913673877716064
 21
4.231610298156738
 31
0.0
  0
LINE
  5
5C1
330
7D
100
AcDbEntity
 67
     1
  8
1
  6
Continuous
 62
   173
370
    18
100
AcDbLine
 10
5.913673877716064
 20
4.231610298156738
 30
0.0
 11
5.913673877716064
 21
4.188833713531494
 31
0.0
  0
LINE
  5
5C2
330
7D
100
AcDbEntity
 67
     1
  8
1
  6
Continuous
 62
   173
370
    18
100
AcDbLine
 10
5.913673877716064
 20
4.188833713531494
 30
0.0
 11
5.913673877716064
 21
4.15190839767456
 31
0.0
  0
LINE
  5
5C3
330
7D
100
AcDbEntity
 67
     1
  8
1
  6
Continuous
 62
   173
370
    18
100
AcDbLine
 10
5.913673877716064
 20
4.15190839767456
 30
0.0
 11
5.913673877716064
 21
4.121955871582031
 31
0.0
  0
LINE
  5
5C4
330
7D
100
AcDbEntity
 67
     1
  8
1
  6
Continuous
 62
   173
370
    18
100
AcDbLine
 10
5.913673877716064
 20
4.121955871582031
 30
0.0
 11
5.913673877716064
 21
4.099886894226074
 31
0.0
  0
LINE
  5
5C5
330
7D
100
AcDbEntity
 67
     1
  8
1
  6
Continuous
 62
   173
370
    18
100
AcDbLine
 10
5.913673877716064
 20
4.099886894226074
 30
0.0
 11
5.913673877716064
 21
4.086371421813964
 31
0.0
  0
LINE
  5
5C6
330
7D
100
AcDbEntity
 67
     1
  8
1
  6
Continuous
 62
   173
370
    18
100
AcDbLine
 10
5.913673877716064
 20
4.086371421813964
 30
0.0
 11
5.913673877716064
 21
4.081820011138916
 31
0.0
  0
LINE
  5
5C7
330
7D
100
AcDbEntity
 67
     1
  8
1
  6
Continuous
 62
   173
370
    18
100
AcDbLine
 10
5.817809581756591
 20
7.167200565338134
 30
0.0
 11
5.817809581756591
 21
4.38140058517456
 31
0.0
  0
LINE
  5
5C8
330
7D
100
AcDbEntity
 67
     1
  8
1
  6
Continuous
 62
   173
370
    18
100
AcDbLine
 10
5.78347635269165
 20
7.45995807647705
 30
0.0
 11
5.789056301116943
 21
7.455870151519775
 31
0.0
  0
LINE
  5
5C9
330
7D
100
AcDbEntity
 67
     1
  8
1
  6
Continuous
 62
   173
370
    18
100
AcDbLine
 10
5.789056301116943
 20
7.455870151519775
 30
0.0
 11
5.794586181640625
 21
7.443270683288574
 31
0.0
  0
LINE
  5
5CA
330
7D
100
AcDbEntity
 67
     1
  8
1
  6
Continuous
 62
   173
370
    18
100
AcDbLine
 10
5.794586181640625
 20
7.443270683288574
 30
0.0
 11
5.799897670745849
 21
7.42236852645874
 31
0.0
  0
LINE
  5
5CB
330
7D
100
AcDbEntity
 67
     1
  8
1
  6
Continuous
 62
   173
370
    18
100
AcDbLine
 10
5.799897670745849
 20
7.42236852645874
 30
0.0
 11
5.804806232452392
 21
7.393887519836425
 31
0.0
  0
LINE
  5
5CC
330
7D
100
AcDbEntity
 67
     1
  8
1
  6
Continuous
 62
   173
370
    18
100
AcDbLine
 10
5.804806232452392
 20
7.393887519836425
 30
0.0
 11
5.809110641479492
 21
7.35876178741455
 31
0.0
  0
LINE
  5
5CD
330
7D
100
AcDbEntity
 67
     1
  8
1
  6
Continuous
 62
   173
370
    18
100
AcDbLine
 10
5.809110641479492
 20
7.35876178741455
 30
0.0
 11
5.81268835067749
 21
7.317959308624267
 31
0.0
  0
LINE
  5
5CE
330
7D
100
AcDbEntity
 67
     1
  8
1
  6
Continuous
 62
   173
370
    18
100
AcDbLine
 10
5.81268835067749
 20
7.317959308624267
 30
0.0
 11
5.815342426300048
 21
7.273598194122314
 31
0.0
  0
LINE
  5
5CF
330
7D
100
AcDbEntity
 67
     1
  8
1
  6
Continuous
 62
   173
370
    18
100
AcDbLine
 10
5.815342426300048
 20
7.273598194122314
 30
0.0
 11
5.817069053649902
 21
7.226187705993652
 31
0.0
  0
LINE
  5
5D0
330
7D
100
AcDbEntity
 67
     1
  8
1
  6
Continuous
 62
   173
370
    18
100
AcDbLine
 10
5.817069053649902
 20
7.226187705993652
 30
0.0
 11
5.817809581756591
 21
7.167200565338134
 31
0.0
  0
LINE
  5
5D1
330
7D
100
AcDbEntity
 67
     1
  8
1
  6
Continuous
 62
   173
370
    18
100
AcDbLine
 10
5.817809581756591
 20
4.38140058517456
 30
0.0
 11
5.817323207855224
 21
4.333692550659179
 31
0.0
  0
LINE
  5
5D2
330
7D
100
AcDbEntity
 67
     1
  8
1
  6
Continuous
 62
   173
370
    18
100
AcDbLine
 10
5.817323207855224
 20
4.333692550659179
 30
0.0
 11
5.815895557403564
 21
4.287269115447998
 31
0.0
  0
LINE
  5
5D3
330
7D
100
AcDbEntity
 67
     1
  8
1
  6
Continuous
 62
   173
370
    18
100
AcDbLine
 10
5.815895557403564
 20
4.287269115447998
 30
0.0
 11
5.813577651977539
 21
4.243596076965332
 31
0.0
  0
LINE
  5
5D4
330
7D
100
AcDbEntity
 67
     1
  8
1
  6
Continuous
 62
   173
370
    18
100
AcDbLine
 10
5.813577651977539
 20
4.243596076965332
 30
0.0
 11
5.810461521148681
 21
4.203580379486083
 31
0.0
  0
LINE
  5
5D5
330
7D
100
AcDbEntity
 67
     1
  8
1
  6
Continuous
 62
   173
370
    18
100
AcDbLine
 10
5.810461521148681
 20
4.203580379486083
 30
0.0
 11
5.806605339050292
 21
4.168019771575927
 31
0.0
  0
LINE
  5
5D6
330
7D
100
AcDbEntity
 67
     1
  8
1
  6
Continuous
 62
   173
370
    18
100
AcDbLine
 10
5.806605339050292
 20
4.168019771575927
 30
0.0
 11
5.802175045013427
 21
4.138174533843994
 31
0.0
  0
LINE
  5
5D7
330
7D
100
AcDbEntity
 67
     1
  8
1
  6
Continuous
 62
   173
370
    18
100
AcDbLine
 10
5.802175045013427
 20
4.138174533843994
 30
0.0
 11
5.797183036804199
 21
4.114413261413574
 31
0.0
  0
LINE
  5
5D8
330
7D
100
AcDbEntity
 67
     1
  8
1
  6
Continuous
 62
   173
370
    18
100
AcDbLine
 10
5.797183036804199
 20
4.114413261413574
 30
0.0
 11
5.791899681091308
 21
4.098101615905761
 31
0.0
  0
LINE
  5
5D9
330
7D
100
AcDbEntity
 67
     1
  8
1
  6
Continuous
 62
   173
370
    18
100
AcDbLine
 10
5.791899681091308
 20
4.098101615905761
 30
0.0
 11
5.787690162658691
 21
4.090918064117431
 31
0.0
  0
LINE
  5
5DA
330
7D
100
AcDbEntity
 67
     1
  8
1
  6
Continuous
 62
   173
370
    18
100
AcDbLine
 10
5.787690162658691
 20
4.090918064117431
 30
0.0
 11
5.78347635269165
 21
4.088643550872802
 31
0.0
  0
LINE
  5
5DB
330
7D
100
AcDbEntity
 67
     1
  8
1
  6
Continuous
 62
   173
370
    18
100
AcDbLine
 10
5.577085494995117
 20
4.44930076599121
 30
0.0
 11
5.577085494995117
 21
7.0993013381958
 31
0.0
  0
LINE
  5
5DC
330
7D
100
AcDbEntity
 67
     1
  8
1
  6
Continuous
 62
   173
370
    18
100
AcDbLine
 10
5.577085494995117
 20
7.0993013381958
 30
0.0
 11
5.576908111572265
 21
7.125763416290283
 31
0.0
  0
LINE
  5
5DD
330
7D
100
AcDbEntity
 67
     1
  8
1
  6
Continuous
 62
   173
370
    18
100
AcDbLine
 10
5.576908111572265
 20
7.125763416290283
 30
0.0
 11
5.576408863067626
 21
7.151479721069335
 31
0.0
  0
LINE
  5
5DE
330
7D
100
AcDbEntity
 67
     1
  8
1
  6
Continuous
 62
   173
370
    18
100
AcDbLine
 10
5.576408863067626
 20
7.151479721069335
 30
0.0
 11
5.575641632080078
 21
7.175700664520263
 31
0.0
  0
LINE
  5
5DF
330
7D
100
AcDbEntity
 67
     1
  8
1
  6
Continuous
 62
   173
370
    18
100
AcDbLine
 10
5.575641632080078
 20
7.175700664520263
 30
0.0
 11
5.574710845947265
 21
7.197774410247802
 31
0.0
  0
LINE
  5
5E0
330
7D
100
AcDbEntity
 67
     1
  8
1
  6
Continuous
 62
   173
370
    18
100
AcDbLine
 10
5.574710845947265
 20
7.197774410247802
 30
0.0
 11
5.573729038238525
 21
7.217090606689453
 31
0.0
  0
LINE
  5
5E1
330
7D
100
AcDbEntity
 67
     1
  8
1
  6
Continuous
 62
   173
370
    18
100
AcDbLine
 10
5.573729038238525
 20
7.217090606689453
 30
0.0
 11
5.572826862335205
 21
7.233092784881591
 31
0.0
  0
LINE
  5
5E2
330
7D
100
AcDbEntity
 67
     1
  8
1
  6
Continuous
 62
   173
370
    18
100
AcDbLine
 10
5.572826862335205
 20
7.233092784881591
 30
0.0
 11
5.572129249572753
 21
7.245296478271484
 31
0.0
  0
LINE
  5
5E3
330
7D
100
AcDbEntity
 67
     1
  8
1
  6
Continuous
 62
   173
370
    18
100
AcDbLine
 10
5.572129249572753
 20
7.245296478271484
 30
0.0
 11
5.571733474731445
 21
7.253379821777343
 31
0.0
  0
LINE
  5
5E4
330
7D
100
AcDbEntity
 67
     1
  8
1
  6
Continuous
 62
   173
370
    18
100
AcDbLine
 10
5.571733474731445
 20
7.253379821777343
 30
0.0
 11
5.571674346923828
 21
7.25595474243164
 31
0.0
  0
LINE
  5
5E5
330
7D
100
AcDbEntity
 67
     1
  8
1
  6
Continuous
 62
   173
370
    18
100
AcDbLine
 10
5.571674346923828
 20
4.242088317871093
 30
0.0
 11
5.575162887573242
 21
4.241920948028564
 31
0.0
  0
LINE
  5
5E6
330
7D
100
AcDbEntity
 67
     1
  8
1
  6
Continuous
 62
   173
370
    18
100
AcDbLine
 10
5.575162887573242
 20
4.241920948028564
 30
0.0
 11
5.585615158081054
 21
4.241420269012451
 31
0.0
  0
LINE
  5
5E7
330
7D
100
AcDbEntity
 67
     1
  8
1
  6
Continuous
 62
   173
370
    18
100
AcDbLine
 10
5.585615158081054
 20
4.241420269012451
 30
0.0
 11
5.60299015045166
 21
4.240587711334228
 31
0.0
  0
LINE
  5
5E8
330
7D
100
AcDbEntity
 67
     1
  8
1
  6
Continuous
 62
   173
370
    18
100
AcDbLine
 10
5.571674346923828
 20
4.292646884918212
 30
0.0
 11
5.571969985961914
 21
4.300358772277832
 31
0.0
  0
LINE
  5
5E9
330
7D
100
AcDbEntity
 67
     1
  8
1
  6
Continuous
 62
   173
370
    18
100
AcDbLine
 10
5.571969985961914
 20
4.300358772277832
 30
0.0
 11
5.572584152221679
 21
4.311299800872802
 31
0.0
  0
LINE
  5
5EA
330
7D
100
AcDbEntity
 67
     1
  8
1
  6
Continuous
 62
   173
370
    18
100
AcDbLine
 10
5.572584152221679
 20
4.311299800872802
 30
0.0
 11
5.573431015014648
 21
4.326104640960693
 31
0.0
  0
LINE
  5
5EB
330
7D
100
AcDbEntity
 67
     1
  8
1
  6
Continuous
 62
   173
370
    18
100
AcDbLine
 10
5.573431015014648
 20
4.326104640960693
 30
0.0
 11
5.57440185546875
 21
4.344457626342773
 31
0.0
  0
LINE
  5
5EC
330
7D
100
AcDbEntity
 67
     1
  8
1
  6
Continuous
 62
   173
370
    18
100
AcDbLine
 10
5.57440185546875
 20
4.344457626342773
 30
0.0
 11
5.575365543365478
 21
4.365764141082763
 31
0.0
  0
LINE
  5
5ED
330
7D
100
AcDbEntity
 67
     1
  8
1
  6
Continuous
 62
   173
370
    18
100
AcDbLine
 10
5.575365543365478
 20
4.365764141082763
 30
0.0
 11
5.576196193695068
 21
4.389495372772216
 31
0.0
  0
LINE
  5
5EE
330
7D
100
AcDbEntity
 67
     1
  8
1
  6
Continuous
 62
   173
370
    18
100
AcDbLine
 10
5.576196193695068
 20
4.389495372772216
 30
0.0
 11
5.576790809631347
 21
4.414922714233398
 31
0.0
  0
LINE
  5
5EF
330
7D
100
AcDbEntity
 67
     1
  8
1
  6
Continuous
 62
   173
370
    18
100
AcDbLine
 10
5.576790809631347
 20
4.414922714233398
 30
0.0
 11
5.577085494995117
 21
4.44930076599121
 31
0.0
  0
LINE
  5
5F0
330
7D
100
AcDbEntity
 67
     1
  8
1
  6
Continuous
 62
   173
370
    18
100
AcDbLine
 10
5.60299015045166
 20
7.308013916015625
 30
0.0
 11
5.585615158081054
 21
7.307181358337402
 31
0.0
  0
LINE
  5
5F1
330
7D
100
AcDbEntity
 67
     1
  8
1
  6
Continuous
 62
   173
370
    18
100
AcDbLine
 10
5.585615158081054
 20
7.307181358337402
 30
0.0
 11
5.575162887573242
 21
7.306680679321289
 31
0.0
  0
LINE
  5
5F2
330
7D
100
AcDbEntity
 67
     1
  8
1
  6
Continuous
 62
   173
370
    18
100
AcDbLine
 10
5.575162887573242
 20
7.306680679321289
 30
0.0
 11
5.571674346923828
 21
7.306512832641601
 31
0.0
  0
LINE
  5
5F3
330
7D
100
AcDbEntity
 67
     1
  8
1
  6
Continuous
 62
   173
370
    18
100
AcDbLine
 10
5.60299015045166
 20
4.240587711334228
 30
0.0
 11
5.607618331909179
 21
4.203010082244873
 31
0.0
  0
LINE
  5
5F4
330
7D
100
AcDbEntity
 67
     1
  8
1
  6
Continuous
 62
   173
370
    18
100
AcDbLine
 10
5.607618331909179
 20
4.203010082244873
 30
0.0
 11
5.621347904205322
 21
4.167829036712646
 31
0.0
  0
LINE
  5
5F5
330
7D
100
AcDbEntity
 67
     1
  8
1
  6
Continuous
 62
   173
370
    18
100
AcDbLine
 10
5.621347904205322
 20
4.167829036712646
 30
0.0
 11
5.643301963806152
 21
4.137288570404052
 31
0.0
  0
LINE
  5
5F6
330
7D
100
AcDbEntity
 67
     1
  8
1
  6
Continuous
 62
   173
370
    18
100
AcDbLine
 10
5.643301963806152
 20
4.137288570404052
 30
0.0
 11
5.67208194732666
 21
4.113337039947509
 31
0.0
  0
LINE
  5
5F7
330
7D
100
AcDbEntity
 67
     1
  8
1
  6
Continuous
 62
   173
370
    18
100
AcDbLine
 10
5.67208194732666
 20
4.113337039947509
 30
0.0
 11
5.705851078033447
 21
4.097501754760742
 31
0.0
  0
LINE
  5
5F8
330
7D
100
AcDbEntity
 67
     1
  8
1
  6
Continuous
 62
   173
370
    18
100
AcDbLine
 10
5.705851078033447
 20
4.097501754760742
 30
0.0
 11
5.74245548248291
 21
4.090793132781982
 31
0.0
  0
LINE
  5
5F9
330
7D
100
AcDbEntity
 67
     1
  8
1
  6
Continuous
 62
   173
370
    18
100
AcDbLine
 10
5.644980430603027
 20
4.23843765258789
 30
0.0
 11
5.649554729461669
 21
4.200852394104003
 31
0.0
  0
LINE
  5
5FA
330
7D
100
AcDbEntity
 67
     1
  8
1
  6
Continuous
 62
   173
370
    18
100
AcDbLine
 10
5.649554729461669
 20
4.200852394104003
 30
0.0
 11
5.663175582885742
 21
4.16566514968872
 31
0.0
  0
LINE
  5
5FB
330
7D
100
AcDbEntity
 67
     1
  8
1
  6
Continuous
 62
   173
370
    18
100
AcDbLine
 10
5.663175582885742
 20
4.16566514968872
 30
0.0
 11
5.684974670410156
 21
4.135122299194335
 31
0.0
  0
LINE
  5
5FC
330
7D
100
AcDbEntity
 67
     1
  8
1
  6
Continuous
 62
   173
370
    18
100
AcDbLine
 10
5.684974670410156
 20
4.135122299194335
 30
0.0
 11
5.713559627532958
 21
4.111171722412109
 31
0.0
  0
LINE
  5
5FD
330
7D
100
AcDbEntity
 67
     1
  8
1
  6
Continuous
 62
   173
370
    18
100
AcDbLine
 10
5.713559627532958
 20
4.111171722412109
 30
0.0
 11
5.747107028961181
 21
4.095341682434082
 31
0.0
  0
LINE
  5
5FE
330
7D
100
AcDbEntity
 67
     1
  8
1
  6
Continuous
 62
   173
370
    18
100
AcDbLine
 10
5.747107028961181
 20
4.095341682434082
 30
0.0
 11
5.78347635269165
 21
4.088643550872802
 31
0.0
  0
LINE
  5
5FF
330
7D
100
AcDbEntity
 67
     1
  8
1
  6
Continuous
 62
   173
370
    18
100
AcDbLine
 10
5.680124282836914
 20
4.38140058517456
 30
0.0
 11
5.693976402282714
 21
4.38140058517456
 31
0.0
  0
LINE
  5
600
330
7D
100
AcDbEntity
 67
     1
  8
1
  6
Continuous
 62
   173
370
    18
100
AcDbLine
 10
5.693976402282714
 20
4.38140058517456
 30
0.0
 11
5.71632957458496
 21
4.38140058517456
 31
0.0
  0
LINE
  5
601
330
7D
100
AcDbEntity
 67
     1
  8
1
  6
Continuous
 62
   173
370
    18
100
AcDbLine
 10
5.71632957458496
 20
4.38140058517456
 30
0.0
 11
5.745740890502929
 21
4.38140058517456
 31
0.0
  0
LINE
  5
602
330
7D
100
AcDbEntity
 67
     1
  8
1
  6
Continuous
 62
   173
370
    18
100
AcDbLine
 10
5.745740890502929
 20
4.38140058517456
 30
0.0
 11
5.780311584472656
 21
4.38140058517456
 31
0.0
  0
LINE
  5
603
330
7D
100
AcDbEntity
 67
     1
  8
1
  6
Continuous
 62
   173
370
    18
100
AcDbLine
 10
5.780311584472656
 20
4.38140058517456
 30
0.0
 11
5.817809581756591
 21
4.38140058517456
 31
0.0
  0
LINE
  5
604
330
7D
100
AcDbEntity
 67
     1
  8
1
  6
Continuous
 62
   173
370
    18
100
AcDbLine
 10
5.644980430603027
 20
7.310163974761962
 30
0.0
 11
5.649554729461669
 21
7.347749233245849
 31
0.0
  0
LINE
  5
605
330
7D
100
AcDbEntity
 67
     1
  8
1
  6
Continuous
 62
   173
370
    18
100
AcDbLine
 10
5.649554729461669
 20
7.347749233245849
 30
0.0
 11
5.663175582885742
 21
7.382936477661132
 31
0.0
  0
LINE
  5
606
330
7D
100
AcDbEntity
 67
     1
  8
1
  6
Continuous
 62
   173
370
    18
100
AcDbLine
 10
5.663175582885742
 20
7.382936477661132
 30
0.0
 11
5.684974670410156
 21
7.413479328155517
 31
0.0
  0
LINE
  5
607
330
7D
100
AcDbEntity
 67
     1
  8
1
  6
Continuous
 62
   173
370
    18
100
AcDbLine
 10
5.684974670410156
 20
7.413479328155517
 30
0.0
 11
5.713559627532958
 21
7.437430381774902
 31
0.0
  0
LINE
  5
608
330
7D
100
AcDbEntity
 67
     1
  8
1
  6
Continuous
 62
   173
370
    18
100
AcDbLine
 10
5.713559627532958
 20
7.437430381774902
 30
0.0
 11
5.747107028961181
 21
7.453259468078613
 31
0.0
  0
LINE
  5
609
330
7D
100
AcDbEntity
 67
     1
  8
1
  6
Continuous
 62
   173
370
    18
100
AcDbLine
 10
5.747107028961181
 20
7.453259468078613
 30
0.0
 11
5.78347635269165
 21
7.45995807647705
 31
0.0
  0
LINE
  5
60A
330
7D
100
AcDbEntity
 67
     1
  8
1
  6
Continuous
 62
   173
370
    18
100
AcDbLine
 10
5.60299015045166
 20
7.308013916015625
 30
0.0
 11
5.607618331909179
 21
7.345592021942138
 31
0.0
  0
LINE
  5
60B
330
7D
100
AcDbEntity
 67
     1
  8
1
  6
Continuous
 62
   173
370
    18
100
AcDbLine
 10
5.607618331909179
 20
7.345592021942138
 30
0.0
 11
5.621347904205322
 21
7.380772590637207
 31
0.0
  0
LINE
  5
60C
330
7D
100
AcDbEntity
 67
     1
  8
1
  6
Continuous
 62
   173
370
    18
100
AcDbLine
 10
5.621347904205322
 20
7.380772590637207
 30
0.0
 11
5.643301963806152
 21
7.4113130569458
 31
0.0
  0
LINE
  5
60D
330
7D
100
AcDbEntity
 67
     1
  8
1
  6
Continuous
 62
   173
370
    18
100
AcDbLine
 10
5.643301963806152
 20
7.4113130569458
 30
0.0
 11
5.67208194732666
 21
7.435264587402343
 31
0.0
  0
LINE
  5
60E
330
7D
100
AcDbEntity
 67
     1
  8
1
  6
Continuous
 62
   173
370
    18
100
AcDbLine
 10
5.67208194732666
 20
7.435264587402343
 30
0.0
 11
5.705851078033447
 21
7.451099395751953
 31
0.0
  0
LINE
  5
60F
330
7D
100
AcDbEntity
 67
     1
  8
1
  6
Continuous
 62
   173
370
    18
100
AcDbLine
 10
5.705851078033447
 20
7.451099395751953
 30
0.0
 11
5.74245548248291
 21
7.457808494567871
 31
0.0
  0
LINE
  5
610
330
7D
100
AcDbEntity
 67
     1
  8
1
  6
Continuous
 62
   173
370
    18
100
AcDbLine
 10
5.680124282836914
 20
7.167200565338134
 30
0.0
 11
5.693976402282714
 21
7.167200565338134
 31
0.0
  0
LINE
  5
611
330
7D
100
AcDbEntity
 67
     1
  8
1
  6
Continuous
 62
   173
370
    18
100
AcDbLine
 10
5.693976402282714
 20
7.167200565338134
 30
0.0
 11
5.71632957458496
 21
7.167200565338134
 31
0.0
  0
LINE
  5
612
330
7D
100
AcDbEntity
 67
     1
  8
1
  6
Continuous
 62
   173
370
    18
100
AcDbLine
 10
5.71632957458496
 20
7.167200565338134
 30
0.0
 11
5.745740890502929
 21
7.167200565338134
 31
0.0
  0
LINE
  5
613
330
7D
100
AcDbEntity
 67
     1
  8
1
  6
Continuous
 62
   173
370
    18
100
AcDbLine
 10
5.745740890502929
 20
7.167200565338134
 30
0.0
 11
5.780311584472656
 21
7.167200565338134
 31
0.0
  0
LINE
  5
614
330
7D
100
AcDbEntity
 67
     1
  8
1
  6
Continuous
 62
   173
370
    18
100
AcDbLine
 10
5.780311584472656
 20
7.167200565338134
 30
0.0
 11
5.817809581756591
 21
7.167200565338134
 31
0.0
  0
LINE
  5
615
330
7D
100
AcDbEntity
 67
     1
  8
1
  6
Continuous
 62
   173
370
    18
100
AcDbLine
 10
6.134674072265625
 20
6.241195678710937
 30
0.0
 11
6.134674072265625
 21
6.148453712463378
 31
0.0
  0
LINE
  5
616
330
7D
100
AcDbEntity
 67
     1
  8
1
  6
Continuous
 62
   173
370
    18
100
AcDbLine
 10
6.134674072265625
 20
6.148453712463378
 30
0.0
 11
6.134674072265625
 21
5.506937503814697
 31
0.0
  0
LINE
  5
617
330
7D
100
AcDbEntity
 67
     1
  8
1
  6
Continuous
 62
   173
370
    18
100
AcDbLine
 10
6.134674072265625
 20
6.283369064331054
 30
0.0
 11
6.134674072265625
 21
6.241195678710937
 31
0.0
  0
LINE
  5
618
330
7D
100
AcDbEntity
 67
     1
  8
1
  6
Continuous
 62
   173
370
    18
100
AcDbLine
 10
5.921677589416503
 20
6.237477779388427
 30
0.0
 11
6.134674072265625
 21
6.241195678710937
 31
0.0
  0
LINE
  5
619
330
7D
100
AcDbEntity
 67
     1
  8
1
  6
Continuous
 62
   173
370
    18
100
AcDbLine
 10
6.134674072265625
 20
6.283369064331054
 30
0.0
 11
6.136471271514892
 21
6.284534931182861
 31
0.0
  0
LINE
  5
61A
330
7D
100
AcDbEntity
 67
     1
  8
1
  6
Continuous
 62
   173
370
    18
100
AcDbLine
 10
6.136471271514892
 20
6.284534931182861
 30
0.0
 11
6.179225921630859
 21
6.313373565673828
 31
0.0
  0
LINE
  5
61B
330
7D
100
AcDbEntity
 67
     1
  8
1
  6
Continuous
 62
   173
370
    18
100
AcDbLine
 10
6.179225921630859
 20
6.313373565673828
 30
0.0
 11
6.193381309509277
 21
6.326728820800781
 31
0.0
  0
LINE
  5
61C
330
7D
100
AcDbEntity
 67
     1
  8
1
  6
Continuous
 62
   173
370
    18
100
AcDbLine
 10
6.193381309509277
 20
6.326728820800781
 30
0.0
 11
6.202517986297607
 21
6.343912124633789
 31
0.0
  0
LINE
  5
61D
330
7D
100
AcDbEntity
 67
     1
  8
1
  6
Continuous
 62
   173
370
    18
100
AcDbLine
 10
6.202517986297607
 20
6.343912124633789
 30
0.0
 11
6.205674171447753
 21
6.363115787506103
 31
0.0
  0
LINE
  5
61E
330
7D
100
AcDbEntity
 67
     1
  8
1
  6
Continuous
 62
   173
370
    18
100
AcDbLine
 10
6.009674072265625
 20
6.53185749053955
 30
0.0
 11
6.205674171447753
 21
6.400137424468994
 31
0.0
  0
LINE
  5
61F
330
7D
100
AcDbEntity
 67
     1
  8
1
  6
Continuous
 62
   173
370
    18
100
AcDbLine
 10
5.921671867370605
 20
6.533394336700439
 30
0.0
 11
6.009674072265625
 21
6.53185749053955
 31
0.0
  0
LINE
  5
620
330
7D
100
AcDbEntity
 67
     1
  8
1
  6
Continuous
 62
   173
370
    18
100
AcDbLine
 10
6.205674171447753
 20
6.363115787506103
 30
0.0
 11
6.205674171447753
 21
6.400137424468994
 31
0.0
  0
LINE
  5
621
330
7D
100
AcDbEntity
 67
     1
  8
1
  6
Continuous
 62
   173
370
    18
100
AcDbLine
 10
5.921677589416503
 20
6.15217113494873
 30
0.0
 11
6.134674072265625
 21
6.148453712463378
 31
0.0
  0
LINE
  5
622
330
7D
100
AcDbEntity
 67
     1
  8
1
  6
Continuous
 62
   173
370
    18
100
AcDbLine
 10
5.921679019927978
 20
5.397366046905517
 30
0.0
 11
6.205674171447753
 21
5.402323246002197
 31
0.0
  0
LINE
  5
623
330
7D
100
AcDbEntity
 67
     1
  8
1
  6
Continuous
 62
   173
370
    18
100
AcDbLine
 10
6.134674072265625
 20
5.506937503814697
 30
0.0
 11
6.146721363067626
 21
5.506727218627929
 31
0.0
  0
LINE
  5
624
330
7D
100
AcDbEntity
 67
     1
  8
1
  6
Continuous
 62
   173
370
    18
100
AcDbLine
 10
6.205674171447753
 20
5.402323246002197
 30
0.0
 11
6.205674171447753
 21
5.446735858917236
 31
0.0
  0
LINE
  5
625
330
7D
100
AcDbEntity
 67
     1
  8
1
  6
Continuous
 62
   173
370
    18
100
AcDbLine
 10
6.205674171447753
 20
5.446735858917236
 30
0.0
 11
6.201206684112548
 21
5.469454765319824
 31
0.0
  0
LINE
  5
626
330
7D
100
AcDbEntity
 67
     1
  8
1
  6
Continuous
 62
   173
370
    18
100
AcDbLine
 10
6.201206684112548
 20
5.469454765319824
 30
0.0
 11
6.188469409942626
 21
5.488790988922119
 31
0.0
  0
LINE
  5
627
330
7D
100
AcDbEntity
 67
     1
  8
1
  6
Continuous
 62
   173
370
    18
100
AcDbLine
 10
6.188469409942626
 20
5.488790988922119
 30
0.0
 11
6.169358730316162
 21
5.501863956451416
 31
0.0
  0
LINE
  5
628
330
7D
100
AcDbEntity
 67
     1
  8
1
  6
Continuous
 62
   173
370
    18
100
AcDbLine
 10
6.169358730316162
 20
5.501863956451416
 30
0.0
 11
6.146721363067626
 21
5.506727218627929
 31
0.0
  0
ARC
  5
8A1
330
7D
100
AcDbEntity
 67
     1
  8
1
  6
Continuous
 62
    30
370
    18
100
AcDbCircle
 10
3.688053369522094
 20
6.83489990234375
 30
0.0
 40
0.0111345797777176
100
AcDbArc
 50
270.0
 51
0.0
  0
ARC
  5
8A2
330
7D
100
AcDbEntity
 67
     1
  8
1
  6
Continuous
 62
    30
370
    18
100
AcDbCircle
 10
2.267053365707397
 20
6.83489990234375
 30
0.0
 40
0.0111345797777176
100
AcDbArc
 50
180.0
 51
270.0
  0
ARC
  5
8A3
330
7D
100
AcDbEntity
 67
     1
  8
1
  6
Continuous
 62
    30
370
    18
100
AcDbCircle
 10
2.267053365707397
 20
7.17490005493164
 30
0.0
 40
0.0111345797777176
100
AcDbArc
 50
90.0
 51
180.0
  0
ARC
  5
8A4
330
7D
100
AcDbEntity
 67
     1
  8
1
  6
Continuous
 62
    30
370
    18
100
AcDbCircle
 10
3.688053369522094
 20
7.17490005493164
 30
0.0
 40
0.0111345797777176
100
AcDbArc
 50
0.0
 51
90.0
  0
ARC
  5
8A5
330
7D
100
AcDbEntity
 67
     1
  8
1
  6
Continuous
 62
    30
370
    18
100
AcDbCircle
 10
2.099053382873535
 20
7.103800773620605
 30
0.0
 40
0.145514041185379
100
AcDbArc
 50
90.0
 51
96.34477476569848
  0
ARC
  5
8A6
330
7D
100
AcDbEntity
 67
     1
  8
1
  6
Continuous
 62
    30
370
    18
100
AcDbCircle
 10
2.099053382873535
 20
4.444800853729248
 30
0.0
 40
0.145514041185379
100
AcDbArc
 50
263.6552252343015
 51
270.0
  0
ARC
  5
8A7
330
7D
100
AcDbEntity
 67
     1
  8
1
  6
Continuous
 62
    30
370
    18
100
AcDbCircle
 10
3.856053590774536
 20
4.444800853729248
 30
0.0
 40
0.145514041185379
100
AcDbArc
 50
270.0
 51
276.3447747656984
  0
ARC
  5
8A8
330
7D
100
AcDbEntity
 67
     1
  8
1
  6
Continuous
 62
    30
370
    18
100
AcDbCircle
 10
3.856053590774536
 20
7.103800773620605
 30
0.0
 40
0.145514041185379
100
AcDbArc
 50
83.65522523430152
 51
90.0
  0
ARC
  5
8A9
330
7D
100
AcDbEntity
 67
     1
  8
1
  6
Continuous
 62
    30
370
    18
100
AcDbCircle
 10
3.856053590774536
 20
4.444800853729248
 30
0.0
 40
0.1500000059604645
100
AcDbArc
 50
270.0
 51
0.0
  0
ARC
  5
8AA
330
7D
100
AcDbEntity
 67
     1
  8
1
  6
Continuous
 62
    30
370
    18
100
AcDbCircle
 10
2.099053382873535
 20
4.444800853729248
 30
0.0
 40
0.1500000059604645
100
AcDbArc
 50
180.0
 51
270.0
  0
ARC
  5
8AB
330
7D
100
AcDbEntity
 67
     1
  8
1
  6
Continuous
 62
    30
370
    18
100
AcDbCircle
 10
2.099053382873535
 20
7.103800773620605
 30
0.0
 40
0.1500000059604645
100
AcDbArc
 50
90.0
 51
180.0
  0
ARC
  5
8AC
330
7D
100
AcDbEntity
 67
     1
  8
1
  6
Continuous
 62
    30
370
    18
100
AcDbCircle
 10
3.856053590774536
 20
7.103800773620605
 30
0.0
 40
0.1500000059604645
100
AcDbArc
 50
0.0
 51
90.0
  0
ARC
  5
8AD
330
7D
100
AcDbEntity
 67
     1
  8
1
  6
Continuous
 62
    30
370
    18
100
AcDbCircle
 10
3.688053369522094
 20
7.17490005493164
 30
0.0
 40
0.0106109268963337
100
AcDbArc
 50
0.0
 51
90.0
  0
ARC
  5
8AE
330
7D
100
AcDbEntity
 67
     1
  8
1
  6
Continuous
 62
    30
370
    18
100
AcDbCircle
 10
2.267053365707397
 20
7.17490005493164
 30
0.0
 40
0.0106109268963337
100
AcDbArc
 50
90.0
 51
180.0
  0
ARC
  5
8AF
330
7D
100
AcDbEntity
 67
     1
  8
1
  6
Continuous
 62
    30
370
    18
100
AcDbCircle
 10
2.267053365707397
 20
6.83489990234375
 30
0.0
 40
0.0106109268963337
100
AcDbArc
 50
180.0
 51
270.0
  0
ARC
  5
8B0
330
7D
100
AcDbEntity
 67
     1
  8
1
  6
Continuous
 62
    30
370
    18
100
AcDbCircle
 10
3.688053369522094
 20
6.83489990234375
 30
0.0
 40
0.0106109268963337
100
AcDbArc
 50
270.0
 51
0.0
  0
ARC
  5
8B1
330
7D
100
AcDbEntity
 67
     1
  8
1
  6
Continuous
 62
    30
370
    18
100
AcDbCircle
 10
2.727149248123168
 20
6.699373722076416
 30
0.0
 40
0.0075532114133239
100
AcDbArc
 50
270.0
 51
0.0
  0
ARC
  5
8B2
330
7D
100
AcDbEntity
 67
     1
  8
1
  6
Continuous
 62
    30
370
    18
100
AcDbCircle
 10
2.727149248123168
 20
6.738650321960449
 30
0.0
 40
0.0075532114133239
100
AcDbArc
 50
0.0
 51
90.0
  0
ARC
  5
8B3
330
7D
100
AcDbEntity
 67
     1
  8
1
  6
Continuous
 62
    30
370
    18
100
AcDbCircle
 10
2.749929904937744
 20
6.720220565795898
 30
0.0
 40
0.0531746037304402
100
AcDbArc
 50
18.55300105801696
 51
90.0
  0
ARC
  5
8B4
330
7D
100
AcDbEntity
 67
     1
  8
1
  6
Continuous
 62
    30
370
    18
100
AcDbCircle
 10
2.749929904937744
 20
6.720220565795898
 30
0.0
 40
0.0531746037304402
100
AcDbArc
 50
270.0
 51
295.9858204950424
  0
ARC
  5
8B5
330
7D
100
AcDbEntity
 67
     1
  8
1
  6
Continuous
 62
    30
370
    18
100
AcDbCircle
 10
3.02199649810791
 20
6.651999950408935
 30
0.0
 40
0.0060425689443946
100
AcDbArc
 50
270.0
 51
0.0
  0
ARC
  5
8B6
330
7D
100
AcDbEntity
 67
     1
  8
1
  6
Continuous
 62
    30
370
    18
100
AcDbCircle
 10
3.02199649810791
 20
6.706383228302001
 30
0.0
 40
0.0060425689443946
100
AcDbArc
 50
0.0
 51
90.0
  0
ARC
  5
8B7
330
7D
100
AcDbEntity
 67
     1
  8
1
  6
Continuous
 62
    30
370
    18
100
AcDbCircle
 10
3.041362762451171
 20
6.715991020202636
 30
0.0
 40
0.0211489908397198
100
AcDbArc
 50
0.0
 51
90.0
  0
ARC
  5
8B8
330
7D
100
AcDbEntity
 67
     1
  8
1
  6
Continuous
 62
    30
370
    18
100
AcDbCircle
 10
3.041362762451171
 20
6.639914512634277
 30
0.0
 40
0.0211489908397198
100
AcDbArc
 50
270.0
 51
0.0
  0
ARC
  5
8B9
330
7D
100
AcDbEntity
 67
     1
  8
1
  6
Continuous
 62
    30
370
    18
100
AcDbCircle
 10
3.125777721405029
 20
6.651999950408935
 30
0.0
 40
0.0060425689443946
100
AcDbArc
 50
180.0
 51
270.0
  0
ARC
  5
8BA
330
7D
100
AcDbEntity
 67
     1
  8
1
  6
Continuous
 62
    30
370
    18
100
AcDbCircle
 10
3.134297609329223
 20
6.651999950408935
 30
0.0
 40
0.0060425689443946
100
AcDbArc
 50
270.0
 51
0.0
  0
ARC
  5
8BB
330
7D
100
AcDbEntity
 67
     1
  8
1
  6
Continuous
 62
    30
370
    18
100
AcDbCircle
 10
3.143905401229858
 20
6.639914512634277
 30
0.0
 40
0.0211489908397198
100
AcDbArc
 50
270.0
 51
0.0
  0
ARC
  5
8BC
330
7D
100
AcDbEntity
 67
     1
  8
1
  6
Continuous
 62
    30
370
    18
100
AcDbCircle
 10
3.101788520812988
 20
6.639914512634277
 30
0.0
 40
0.0211489908397198
100
AcDbArc
 50
180.0
 51
270.0
  0
ARC
  5
8BD
330
7D
100
AcDbEntity
 67
     1
  8
1
  6
Continuous
 62
   173
370
    18
100
AcDbCircle
 10
3.851553201675415
 20
7.0993013381958
 30
0.0
 40
0.1580000072717667
100
AcDbArc
 50
82.51544608244971
 51
90.0
  0
ARC
  5
8BE
330
7D
100
AcDbEntity
 67
     1
  8
1
  6
Continuous
 62
   173
370
    18
100
AcDbCircle
 10
2.103553295135498
 20
7.0993013381958
 30
0.0
 40
0.1580000072717667
100
AcDbArc
 50
90.0
 51
97.4845539175503
  0
ARC
  5
8BF
330
7D
100
AcDbEntity
 67
     1
  8
1
  6
Continuous
 62
   173
370
    18
100
AcDbCircle
 10
2.103553295135498
 20
4.44930076599121
 30
0.0
 40
0.1580000072717667
100
AcDbArc
 50
262.5154460824497
 51
270.0
  0
ARC
  5
8C0
330
7D
100
AcDbEntity
 67
     1
  8
1
  6
Continuous
 62
   173
370
    18
100
AcDbCircle
 10
3.851553201675415
 20
4.44930076599121
 30
0.0
 40
0.1580000072717667
100
AcDbArc
 50
270.0
 51
277.4845539175503
  0
ARC
  5
8C1
330
7D
100
AcDbEntity
 67
     1
  8
1
  6
Continuous
 62
   173
370
    18
100
AcDbCircle
 10
1.584653377532958
 20
4.38140058517456
 30
0.0
 40
0.2995807528495788
100
AcDbArc
 50
180.0
 51
270.0
  0
ARC
  5
8C2
330
7D
100
AcDbEntity
 67
     1
  8
1
  6
Continuous
 62
   173
370
    18
100
AcDbCircle
 10
4.370453357696533
 20
7.167200565338134
 30
0.0
 40
0.2995807528495788
100
AcDbArc
 50
0.0
 51
90.0
  0
ARC
  5
8C3
330
7D
100
AcDbEntity
 67
     1
  8
1
  6
Continuous
 62
   173
370
    18
100
AcDbCircle
 10
4.370453357696533
 20
4.38140058517456
 30
0.0
 40
0.2995807528495788
100
AcDbArc
 50
270.0
 51
0.0
  0
ARC
  5
8C4
330
7D
100
AcDbEntity
 67
     1
  8
1
  6
Continuous
 62
   173
370
    18
100
AcDbCircle
 10
1.584653377532958
 20
7.167200565338134
 30
0.0
 40
0.2995807528495788
100
AcDbArc
 50
90.0
 51
180.0
  0
ARC
  5
8C5
330
7D
100
AcDbEntity
 67
     1
  8
1
  6
Continuous
 62
   173
370
    18
100
AcDbCircle
 10
5.721673965454101
 20
4.242088317871093
 30
0.0
 40
0.1500000059604645
100
AcDbArc
 50
180.0
 51
266.9999999082754
  0
ARC
  5
8C6
330
7D
100
AcDbEntity
 67
     1
  8
1
  6
Continuous
 62
   173
370
    18
100
AcDbCircle
 10
5.721673965454101
 20
7.306512832641601
 30
0.0
 40
0.1500000059604645
100
AcDbArc
 50
93.0000000917246
 51
180.0
  0
ENDSEC
  0
SECTION
  2
OBJECTS
  0
DICTIONARY
  5
C
330
0
100
AcDbDictionary
281
     1
  3
ACAD_CIP_PREVIOUS_PRODUCT_INFO
350
9F0
  3
ACAD_COLOR
350
9E5
  3
ACAD_DETAILVIEWSTYLE
350
997
  3
ACAD_GROUP
350
D
  3
ACAD_LAYOUT
350
1A
  3
ACAD_MATERIAL
350
43
  3
ACAD_MLEADERSTYLE
350
996
  3
ACAD_MLINESTYLE
350
17
  3
ACAD_PLOTSETTINGS
350
19
  3
ACAD_PLOTSTYLENAME
350
E
  3
ACAD_SCALELIST
350
47
  3
ACAD_SECTIONVIEWSTYLE
350
998
  3
ACAD_TABLESTYLE
350
995
  3
ACAD_VISUALSTYLE
350
2A
  3
ACDB_RECOMPOSE_DATA
350
A03
  3
AcDbVariableDictionary
350
95C
  0
DICTIONARY
  5
9AB
330
8
100
AcDbDictionary
280
     1
281
     1
  0
SUN
  5
69
330
29
100
AcDbSun
 90
        1
290
     0
 63
     7
421
 16777215
 40
1.0
291
     1
 91
  2455826
 92
 54000000
292
     0
 70
     0
 71
   256
280
     1
  0
XRECORD
  5
9F0
102
{ACAD_REACTORS
330
C
102
}
330
C
100
AcDbXrecord
280
     1
300
ACD
300
2012
300
85730ACD_2012_0F
  0
DICTIONARY
  5
9E5
102
{ACAD_REACTORS
330
C
102
}
330
C
100
AcDbDictionary
281
     1
  0
DICTIONARY
  5
997
102
{ACAD_REACTORS
330
C
102
}
330
C
100
AcDbDictionary
281
     1
  0
DICTIONARY
  5
D
102
{ACAD_REACTORS
330
C
102
}
330
C
100
AcDbDictionary
281
     1
  0
DICTIONARY
  5
1A
102
{ACAD_REACTORS
330
C
102
}
330
C
100
AcDbDictionary
281
     1
  3
Model
350
22
  3
SH1
350
931
  0
DICTIONARY
  5
43
102
{ACAD_REACTORS
330
C
102
}
330
C
100
AcDbDictionary
281
     1
  3
ByBlock
350
45
  3
ByLayer
350
44
  3
Global
350
46
  0
DICTIONARY
  5
996
102
{ACAD_REACTORS
330
C
102
}
330
C
100
AcDbDictionary
281
     1
  3
Standard
350
9E7
  0
DICTIONARY
  5
17
102
{ACAD_REACTORS
330
C
102
}
330
C
100
AcDbDictionary
281
     1
  3
Standard
350
18
  0
DICTIONARY
  5
19
102
{ACAD_REACTORS
330
C
102
}
330
C
100
AcDbDictionary
281
     1
  0
ACDBDICTIONARYWDFLT
  5
E
102
{ACAD_REACTORS
330
C
102
}
330
C
100
AcDbDictionary
281
     1
  3
Normal
350
F
100
AcDbDictionaryWithDefault
340
F
  0
DICTIONARY
  5
47
102
{ACAD_REACTORS
330
C
102
}
330
C
100
AcDbDictionary
281
     1
  3
A0
350
48
  3
A1
350
49
  3
A2
350
4A
  3
A3
350
4B
  3
A4
350
4C
  3
A5
350
4D
  3
A6
350
4E
  3
A7
350
4F
  3
A8
350
50
  3
A9
350
51
  3
B0
350
52
  3
B1
350
53
  3
B2
350
54
  3
B3
350
55
  3
B4
350
56
  3
B5
350
57
  3
B6
350
58
  3
B7
350
59
  3
B8
350
5A
  3
B9
350
5B
  3
C0
350
5C
  3
C1
350
5D
  3
C2
350
5E
  3
C3
350
5F
  3
C4
350
60
  3
C5
350
61
  3
C6
350
62
  3
C7
350
63
  3
C8
350
64
  3
C9
350
65
  3
D0
350
66
  3
D1
350
67
  3
D2
350
68
  0
DICTIONARY
  5
998
102
{ACAD_REACTORS
330
C
102
}
330
C
100
AcDbDictionary
281
     1
  0
DICTIONARY
  5
995
102
{ACAD_REACTORS
330
C
102
}
330
C
100
AcDbDictionary
281
     1
  3
Standard
350
9E6
  0
DICTIONARY
  5
2A
102
{ACAD_REACTORS
330
C
102
}
330
C
100
AcDbDictionary
281
     1
  3
2dWireframe
350
2F
  3
Basic
350
32
  3
Brighten
350
36
  3
ColorChange
350
3A
  3
Conceptual
350
34
  3
Dim
350
35
  3
EdgeColorOff
350
3D
  3
Facepattern
350
39
  3
Flat
350
2B
  3
FlatWithEdges
350
2C
  3
Gouraud
350
2D
  3
GouraudWithEdges
350
2E
  3
Hidden
350
31
  3
JitterOff
350
3B
  3
Linepattern
350
38
  3
OverhangOff
350
3C
  3
Realistic
350
33
  3
Shaded
350
42
  3
Shaded with edges
350
41
  3
Shades of Gray
350
3E
  3
Sketchy
350
3F
  3
Thicken
350
37
  3
Wireframe
350
30
  3
X-Ray
350
40
  0
XRECORD
  5
A03
102
{ACAD_REACTORS
330
C
102
}
330
C
100
AcDbXrecord
280
     1
 90
        1
330
9E6
  0
DICTIONARY
  5
95C
102
{ACAD_REACTORS
330
C
102
}
330
C
100
AcDbDictionary
281
     1
  3
CANNOSCALE
350
95D
  3
CMLEADERSTYLE
350
9FB
  3
CTABLESTYLE
350
9FA
  3
LAYEREVAL
350
9FD
  3
LAYERNOTIFY
350
9FE
  3
LIGHTINGUNITS
350
9FC
  3
MSLTSCALE
350
95E
  0
LAYOUT
  5
22
102
{ACAD_REACTORS
330
1A
102
}
330
1A
100
AcDbPlotSettings
  1

  2
none_device
  4
Letter_(8.50_x_11.00_Inches)
  6

 40
6.349999999999999
 41
6.349999999999999
 42
6.350005079999999
 43
6.350005079999999
 44
215.9
 45
279.4
 46
0.0
 47
0.0
 48
0.0
 49
0.0
140
0.0
141
0.0
142
1.0
143
1.0
 70
  1712
 72
     0
 73
     0
 74
     0
  7

 75
     0
147
1.0
 76
     0
 77
     2
 78
   300
148
0.0
149
0.0
100
AcDbLayout
  1
Model
 70
     1
 71
     0
 10
-0.5
 20
-0.5
 11
5.0
 21
5.0
 12
0.0
 22
0.0
 32
0.0
 14
-0.5
 24
-0.5
 34
-0.5
 15
5.0
 25
5.0
 35
5.0
146
0.0
 13
0.0
 23
0.0
 33
0.0
 16
1.0
 26
0.0
 36
0.0
 17
0.0
 27
1.0
 37
0.0
 76
     0
330
1F
  0
LAYOUT
  5
931
102
{ACAD_REACTORS
330
1A
102
}
330
1A
100
AcDbPlotSettings
  1

  2
none_device
  4
ISO_B4_(250.00_x_354.00_MM)
  6

 40
7.5
 41
20.0
 42
7.5
 43
20.0
 44
250.0
 45
354.0
 46
0.0
 47
6.861111111111114
 48
0.0
 49
0.0
140
13.0
141
10.5
142
1.0
143
0.9727659574468084
 70
   692
 72
     0
 73
     1
 74
     1
  7

 75
     0
147
1.027996500437445
 76
     0
 77
     2
 78
   300
148
12.7
149
12.7
100
AcDbLayout
  1
SH1
 70
     1
 71
     1
 10
0.0
 20
0.0
 11
11.0
 21
8.5
 12
0.0
 22
0.0
 32
0.0
 14
1.284530666755202
 24
4.081390405401343
 34
-0.0015258207003583
 15
6.205795308116123
 25
7.467201251498423
 35
0.0000000349246037
146
0.0
 13
0.0
 23
0.0
 33
0.0
 16
1.0
 26
0.0
 36
0.0
 17
0.0
 27
1.0
 37
0.0
 76
     0
330
7D
331
80
  0
MATERIAL
  5
45
102
{ACAD_REACTORS
330
43
102
}
330
43
100
AcDbMaterial
  1
ByBlock
 73
     1
 78
     1
172
     1
176
     1
270
     1
274
     1
  0
MATERIAL
  5
44
102
{ACAD_REACTORS
330
43
102
}
330
43
100
AcDbMaterial
  1
ByLayer
 73
     1
 78
     1
172
     1
176
     1
270
     1
274
     1
  0
MATERIAL
  5
46
102
{ACAD_REACTORS
330
43
102
}
330
43
100
AcDbMaterial
  1
Global
 73
     1
 78
     1
172
     1
176
     1
270
     1
274
     1
  0
MLEADERSTYLE
  5
9E7
102
{ACAD_XDICTIONARY
360
A01
102
}
102
{ACAD_REACTORS
330
996
102
}
330
996
100
AcDbMLeaderStyle
179
     2
170
     2
171
     1
172
     0
 90
        2
 40
0.0
 41
0.0
173
     1
 91
-1056964608
340
14
 92
       -2
290
     1
 42
0.09
291
     1
 43
0.36
  3
Standard
 44
0.18
300

342
11
174
     1
178
     6
175
     1
176
     0
 93
-1056964608
 45
0.18
292
     0
297
     0
 46
0.18
 94
-1056964608
 47
1.0
 49
1.0
140
1.0
293
     1
141
0.0
294
     1
177
     0
142
1.0
295
     0
296
     0
143
0.125
271
     0
272
     9
273
     9
  0
MLINESTYLE
  5
18
102
{ACAD_REACTORS
330
17
102
}
330
17
100
AcDbMlineStyle
  2
STANDARD
 70
     0
  3

 62
   256
 51
90.0
 52
90.0
 71
     2
 49
0.5
 62
   256
  6
BYLAYER
 49
-0.5
 62
   256
  6
BYLAYER
  0
ACDBPLACEHOLDER
  5
F
102
{ACAD_REACTORS
330
E
102
}
330
E
  0
SCALE
  5
48
102
{ACAD_REACTORS
330
47
102
}
330
47
100
AcDbScale
 70
     0
300
1:1
140
1.0
141
1.0
290
     1
  0
SCALE
  5
49
102
{ACAD_REACTORS
330
47
102
}
330
47
100
AcDbScale
 70
     0
300
1:2
140
1.0
141
2.0
290
     0
  0
SCALE
  5
4A
102
{ACAD_REACTORS
330
47
102
}
330
47
100
AcDbScale
 70
     0
300
1:4
140
1.0
141
4.0
290
     0
  0
SCALE
  5
4B
102
{ACAD_REACTORS
330
47
102
}
330
47
100
AcDbScale
 70
     0
300
1:5
140
1.0
141
5.0
290
     0
  0
SCALE
  5
4C
102
{ACAD_REACTORS
330
47
102
}
330
47
100
AcDbScale
 70
     0
300
1:8
140
1.0
141
8.0
290
     0
  0
SCALE
  5
4D
102
{ACAD_REACTORS
330
47
102
}
330
47
100
AcDbScale
 70
     0
300
1:10
140
1.0
141
10.0
290
     0
  0
SCALE
  5
4E
102
{ACAD_REACTORS
330
47
102
}
330
47
100
AcDbScale
 70
     0
300
1:16
140
1.0
141
16.0
290
     0
  0
SCALE
  5
4F
102
{ACAD_REACTORS
330
47
102
}
330
47
100
AcDbScale
 70
     0
300
1:20
140
1.0
141
20.0
290
     0
  0
SCALE
  5
50
102
{ACAD_REACTORS
330
47
102
}
330
47
100
AcDbScale
 70
     0
300
1:30
140
1.0
141
30.0
290
     0
  0
SCALE
  5
51
102
{ACAD_REACTORS
330
47
102
}
330
47
100
AcDbScale
 70
     0
300
1:40
140
1.0
141
40.0
290
     0
  0
SCALE
  5
52
102
{ACAD_REACTORS
330
47
102
}
330
47
100
AcDbScale
 70
     0
300
1:50
140
1.0
141
50.0
290
     0
  0
SCALE
  5
53
102
{ACAD_REACTORS
330
47
102
}
330
47
100
AcDbScale
 70
     0
300
1:100
140
1.0
141
100.0
290
     0
  0
SCALE
  5
54
102
{ACAD_REACTORS
330
47
102
}
330
47
100
AcDbScale
 70
     0
300
2:1
140
2.0
141
1.0
290
     0
  0
SCALE
  5
55
102
{ACAD_REACTORS
330
47
102
}
330
47
100
AcDbScale
 70
     0
300
4:1
140
4.0
141
1.0
290
     0
  0
SCALE
  5
56
102
{ACAD_REACTORS
330
47
102
}
330
47
100
AcDbScale
 70
     0
300
8:1
140
8.0
141
1.0
290
     0
  0
SCALE
  5
57
102
{ACAD_REACTORS
330
47
102
}
330
47
100
AcDbScale
 70
     0
300
10:1
140
10.0
141
1.0
290
     0
  0
SCALE
  5
58
102
{ACAD_REACTORS
330
47
102
}
330
47
100
AcDbScale
 70
     0
300
100:1
140
100.0
141
1.0
290
     0
  0
SCALE
  5
59
102
{ACAD_REACTORS
330
47
102
}
330
47
100
AcDbScale
 70
     0
300
1/128" = 1'-0"
140
0.0078125
141
12.0
290
     0
  0
SCALE
  5
5A
102
{ACAD_REACTORS
330
47
102
}
330
47
100
AcDbScale
 70
     0
300
1/64" = 1'-0"
140
0.015625
141
12.0
290
     0
  0
SCALE
  5
5B
102
{ACAD_REACTORS
330
47
102
}
330
47
100
AcDbScale
 70
     0
300
1/32" = 1'-0"
140
0.03125
141
12.0
290
     0
  0
SCALE
  5
5C
102
{ACAD_REACTORS
330
47
102
}
330
47
100
AcDbScale
 70
     0
300
1/16" = 1'-0"
140
0.0625
141
12.0
290
     0
  0
SCALE
  5
5D
102
{ACAD_REACTORS
330
47
102
}
330
47
100
AcDbScale
 70
     0
300
3/32" = 1'-0"
140
0.09375
141
12.0
290
     0
  0
SCALE
  5
5E
102
{ACAD_REACTORS
330
47
102
}
330
47
100
AcDbScale
 70
     0
300
1/8" = 1'-0"
140
0.125
141
12.0
290
     0
  0
SCALE
  5
5F
102
{ACAD_REACTORS
330
47
102
}
330
47
100
AcDbScale
 70
     0
300
3/16" = 1'-0"
140
0.1875
141
12.0
290
     0
  0
SCALE
  5
60
102
{ACAD_REACTORS
330
47
102
}
330
47
100
AcDbScale
 70
     0
300
1/4" = 1'-0"
140
0.25
141
12.0
290
     0
  0
SCALE
  5
61
102
{ACAD_REACTORS
330
47
102
}
330
47
100
AcDbScale
 70
     0
300
3/8" = 1'-0"
140
0.375
141
12.0
290
     0
  0
SCALE
  5
62
102
{ACAD_REACTORS
330
47
102
}
330
47
100
AcDbScale
 70
     0
300
1/2" = 1'-0"
140
0.5
141
12.0
290
     0
  0
SCALE
  5
63
102
{ACAD_REACTORS
330
47
102
}
330
47
100
AcDbScale
 70
     0
300
3/4" = 1'-0"
140
0.75
141
12.0
290
     0
  0
SCALE
  5
64
102
{ACAD_REACTORS
330
47
102
}
330
47
100
AcDbScale
 70
     0
300
1" = 1'-0"
140
1.0
141
12.0
290
     0
  0
SCALE
  5
65
102
{ACAD_REACTORS
330
47
102
}
330
47
100
AcDbScale
 70
     0
300
1-1/2" = 1'-0"
140
1.5
141
12.0
290
     0
  0
SCALE
  5
66
102
{ACAD_REACTORS
330
47
102
}
330
47
100
AcDbScale
 70
     0
300
3" = 1'-0"
140
3.0
141
12.0
290
     0
  0
SCALE
  5
67
102
{ACAD_REACTORS
330
47
102
}
330
47
100
AcDbScale
 70
     0
300
6" = 1'-0"
140
6.0
141
12.0
290
     0
  0
SCALE
  5
68
102
{ACAD_REACTORS
330
47
102
}
330
47
100
AcDbScale
 70
     0
300
1'-0" = 1'-0"
140
12.0
141
12.0
290
     0
  0
TABLESTYLE
  5
9E6
102
{ACAD_XDICTIONARY
360
9FF
102
}
102
{ACAD_REACTORS
330
995
102
}
330
995
100
AcDbTableStyle
280
     0
  3
Standard
 70
     0
 71
     0
 40
0.06
 41
0.06
280
     0
281
     0
  7
Standard
140
0.18
170
     2
 62
     0
 63
     7
283
     0
 90
      512
 91
        0
  1

274
    -2
284
     1
 64
     0
275
    -2
285
     1
 65
     0
276
    -2
286
     1
 66
     0
277
    -2
287
     1
 67
     0
278
    -2
288
     1
 68
     0
279
    -2
289
     1
 69
     0
  7
Standard
140
0.25
170
     5
 62
     0
 63
     7
283
     0
 90
      512
 91
        0
  1

274
    -2
284
     1
 64
     0
275
    -2
285
     1
 65
     0
276
    -2
286
     1
 66
     0
277
    -2
287
     1
 67
     0
278
    -2
288
     1
 68
     0
279
    -2
289
     1
 69
     0
  7
Standard
140
0.18
170
     5
 62
     0
 63
     7
283
     0
 90
      512
 91
        0
  1

274
    -2
284
     1
 64
     0
275
    -2
285
     1
 65
     0
276
    -2
286
     1
 66
     0
277
    -2
287
     1
 67
     0
278
    -2
288
     1
 68
     0
279
    -2
289
     1
 69
     0
  0
VISUALSTYLE
  5
2F
102
{ACAD_XDICTIONARY
360
9B5
102
}
102
{ACAD_REACTORS
330
2A
102
}
330
2A
100
AcDbVisualStyle
  2
2dWireframe
 70
     4
177
     2
291
     0
 71
     0
176
     1
 72
     2
176
     1
 73
     0
176
     1
 90
        0
176
     1
 40
0.6
176
     1
 41
30.0
176
     1
 63
     7
421
 16777215
176
     1
 74
     1
176
     1
 91
        4
176
     1
 64
     7
176
     1
 65
   257
176
     1
 75
     1
176
     1
175
     1
176
     1
 42
1.0
176
     1
 92
        0
176
     1
 66
   257
176
     1
 43
1.0
176
     1
 76
     1
176
     1
 77
     6
176
     1
 78
     2
176
     1
 67
     7
176
     1
 79
     5
176
     1
170
     0
176
     1
171
     0
176
     1
290
     0
176
     1
 93
        1
176
     1
 44
0.0
176
     1
173
     0
176
     1
  0
VISUALSTYLE
  5
32
102
{ACAD_XDICTIONARY
360
9BB
102
}
102
{ACAD_REACTORS
330
2A
102
}
330
2A
100
AcDbVisualStyle
  2
Basic
 70
     7
177
     2
291
     1
 71
     1
176
     1
 72
     0
176
     1
 73
     1
176
     1
 90
        0
176
     1
 40
0.6
176
     1
 41
30.0
176
     1
 63
     7
421
 16777215
176
     1
 74
     0
176
     1
 91
        4
176
     1
 64
     7
176
     1
 65
   257
176
     1
 75
     1
176
     1
175
     1
176
     1
 42
1.0
176
     1
 92
        8
176
     1
 66
     7
176
     1
 43
1.0
176
     1
 76
     1
176
     1
 77
     6
176
     1
 78
     2
176
     1
 67
     7
176
     1
 79
     5
176
     1
170
     0
176
     1
171
     0
176
     1
290
     0
176
     1
 93
        1
176
     1
 44
0.0
176
     1
173
     0
176
     1
  0
VISUALSTYLE
  5
36
102
{ACAD_XDICTIONARY
360
9C3
102
}
102
{ACAD_REACTORS
330
2A
102
}
330
2A
100
AcDbVisualStyle
  2
Brighten
 70
    12
177
     2
291
     1
 71
     2
176
     1
 72
     2
176
     1
 73
     0
176
     1
 90
        0
176
     1
 40
0.6
176
     1
 41
30.0
176
     1
 63
     7
421
 16777215
176
     1
 74
     1
176
     1
 91
        4
176
     1
 64
     7
176
     1
 65
   257
176
     1
 75
     1
176
     1
175
     1
176
     1
 42
1.0
176
     1
 92
        8
176
     1
 66
     7
176
     1
 43
1.0
176
     1
 76
     1
176
     1
 77
     6
176
     1
 78
     2
176
     1
 67
     7
176
     1
 79
     5
176
     1
170
     0
176
     1
171
     0
176
     1
290
     0
176
     1
 93
        1
176
     1
 44
50.0
176
     1
173
     0
176
     1
  0
VISUALSTYLE
  5
3A
102
{ACAD_XDICTIONARY
360
9CB
102
}
102
{ACAD_REACTORS
330
2A
102
}
330
2A
100
AcDbVisualStyle
  2
ColorChange
 70
    16
177
     2
291
     1
 71
     2
176
     1
 72
     2
176
     1
 73
     3
176
     1
 90
        0
176
     1
 40
0.6
176
     1
 41
30.0
176
     1
 63
     8
421
  8421504
176
     1
 74
     1
176
     1
 91
        4
176
     1
 64
     7
176
     1
 65
   257
176
     1
 75
     1
176
     1
175
     1
176
     1
 42
1.0
176
     1
 92
        8
176
     1
 66
     8
424
  8421504
176
     1
 43
1.0
176
     1
 76
     1
176
     1
 77
     6
176
     1
 78
     2
176
     1
 67
     7
176
     1
 79
     5
176
     1
170
     0
176
     1
171
     0
176
     1
290
     0
176
     1
 93
        1
176
     1
 44
0.0
176
     1
173
     0
176
     1
  0
VISUALSTYLE
  5
34
102
{ACAD_XDICTIONARY
360
9BF
102
}
102
{ACAD_REACTORS
330
2A
102
}
330
2A
100
AcDbVisualStyle
  2
Conceptual
 70
     9
177
     2
291
     0
 71
     3
176
     1
 72
     2
176
     1
 73
     0
176
     1
 90
        0
176
     1
 40
0.6
176
     1
 41
30.0
176
     1
 63
     7
421
 16777215
176
     1
 74
     2
176
     1
 91
        2
176
     1
 64
     7
176
     1
 65
   257
176
     1
 75
     1
176
     1
175
     1
176
     1
 42
179.0
176
     1
 92
        8
176
     1
 66
     7
176
     1
 43
1.0
176
     1
 76
     1
176
     1
 77
     6
176
     1
 78
     2
176
     1
 67
     7
176
     1
 79
     3
176
     1
170
     0
176
     1
171
     0
176
     1
290
     0
176
     1
 93
        1
176
     1
 44
0.0
176
     1
173
     0
176
     1
  0
VISUALSTYLE
  5
35
102
{ACAD_XDICTIONARY
360
9C1
102
}
102
{ACAD_REACTORS
330
2A
102
}
330
2A
100
AcDbVisualStyle
  2
Dim
 70
    11
177
     2
291
     1
 71
     2
176
     1
 72
     2
176
     1
 73
     0
176
     1
 90
        0
176
     1
 40
0.6
176
     1
 41
30.0
176
     1
 63
     7
421
 16777215
176
     1
 74
     1
176
     1
 91
        4
176
     1
 64
     7
176
     1
 65
   257
176
     1
 75
     1
176
     1
175
     1
176
     1
 42
1.0
176
     1
 92
        8
176
     1
 66
     7
176
     1
 43
1.0
176
     1
 76
     1
176
     1
 77
     6
176
     1
 78
     2
176
     1
 67
     7
176
     1
 79
     5
176
     1
170
     0
176
     1
171
     0
176
     1
290
     0
176
     1
 93
        1
176
     1
 44
-50.0
176
     1
173
     0
176
     1
  0
VISUALSTYLE
  5
3D
102
{ACAD_XDICTIONARY
360
9D1
102
}
102
{ACAD_REACTORS
330
2A
102
}
330
2A
100
AcDbVisualStyle
  2
EdgeColorOff
 70
    22
177
     2
291
     1
 71
     2
176
     0
 72
     2
176
     0
 73
     0
176
     0
 90
        0
176
     0
 40
0.6
176
     0
 41
30.0
176
     0
 63
     7
421
 16777215
176
     0
 74
     1
176
     0
 91
        4
176
     0
 64
     7
176
     0
 65
   257
176
     0
 75
     1
176
     0
175
     1
176
     0
 42
1.0
176
     0
 92
        8
176
     2
 66
     7
176
     0
 43
1.0
176
     0
 76
     1
176
     0
 77
     6
176
     0
 78
     2
176
     0
 67
     7
176
     0
 79
     5
176
     0
170
     0
176
     0
171
     0
176
     0
290
     0
176
     0
 93
        1
176
     0
 44
0.0
176
     0
173
     0
176
     0
  0
VISUALSTYLE
  5
39
102
{ACAD_XDICTIONARY
360
9C9
102
}
102
{ACAD_REACTORS
330
2A
102
}
330
2A
100
AcDbVisualStyle
  2
Facepattern
 70
    15
177
     2
291
     1
 71
     2
176
     1
 72
     2
176
     1
 73
     0
176
     1
 90
        0
176
     1
 40
0.6
176
     1
 41
30.0
176
     1
 63
     7
421
 16777215
176
     1
 74
     1
176
     1
 91
        4
176
     1
 64
     7
176
     1
 65
   257
176
     1
 75
     1
176
     1
175
     1
176
     1
 42
1.0
176
     1
 92
        8
176
     1
 66
     7
176
     1
 43
1.0
176
     1
 76
     1
176
     1
 77
     6
176
     1
 78
     2
176
     1
 67
     7
176
     1
 79
     5
176
     1
170
     0
176
     1
171
     0
176
     1
290
     0
176
     1
 93
        1
176
     1
 44
0.0
176
     1
173
     0
176
     1
  0
VISUALSTYLE
  5
2B
102
{ACAD_XDICTIONARY
360
9AD
102
}
102
{ACAD_REACTORS
330
2A
102
}
330
2A
100
AcDbVisualStyle
  2
Flat
 70
     0
177
     2
291
     1
 71
     2
176
     1
 72
     1
176
     1
 73
     1
176
     1
 90
        2
176
     1
 40
0.6
176
     1
 41
30.0
176
     1
 63
     7
421
 16777215
176
     1
 74
     0
176
     1
 91
        0
176
     1
 64
     7
176
     1
 65
   257
176
     1
 75
     1
176
     1
175
     1
176
     1
 42
1.0
176
     1
 92
        8
176
     1
 66
     7
176
     1
 43
1.0
176
     1
 76
     1
176
     1
 77
     6
176
     1
 78
     2
176
     1
 67
     7
176
     1
 79
     5
176
     1
170
     0
176
     1
171
     0
176
     1
290
     0
176
     1
 93
       13
176
     1
 44
0.0
176
     1
173
     0
176
     1
  0
VISUALSTYLE
  5
2C
102
{ACAD_XDICTIONARY
360
9AF
102
}
102
{ACAD_REACTORS
330
2A
102
}
330
2A
100
AcDbVisualStyle
  2
FlatWithEdges
 70
     1
177
     2
291
     1
 71
     2
176
     1
 72
     1
176
     1
 73
     1
176
     1
 90
        2
176
     1
 40
0.6
176
     1
 41
30.0
176
     1
 63
     7
421
 16777215
176
     1
 74
     1
176
     1
 91
        0
176
     1
 64
     7
176
     1
 65
   257
176
     1
 75
     1
176
     1
175
     1
176
     1
 42
1.0
176
     1
 92
        0
176
     1
 66
   257
176
     1
 43
1.0
176
     1
 76
     1
176
     1
 77
     6
176
     1
 78
     2
176
     1
 67
     7
176
     1
 79
     5
176
     1
170
     0
176
     1
171
     0
176
     1
290
     0
176
     1
 93
       13
176
     1
 44
0.0
176
     1
173
     0
176
     1
  0
VISUALSTYLE
  5
2D
102
{ACAD_XDICTIONARY
360
9B1
102
}
102
{ACAD_REACTORS
330
2A
102
}
330
2A
100
AcDbVisualStyle
  2
Gouraud
 70
     2
177
     2
291
     1
 71
     2
176
     1
 72
     2
176
     1
 73
     1
176
     1
 90
        2
176
     1
 40
0.6
176
     1
 41
30.0
176
     1
 63
     7
421
 16777215
176
     1
 74
     0
176
     1
 91
        0
176
     1
 64
     7
176
     1
 65
   257
176
     1
 75
     1
176
     1
175
     1
176
     1
 42
1.0
176
     1
 92
        0
176
     1
 66
     7
176
     1
 43
1.0
176
     1
 76
     1
176
     1
 77
     6
176
     1
 78
     2
176
     1
 67
     7
176
     1
 79
     5
176
     1
170
     0
176
     1
171
     0
176
     1
290
     0
176
     1
 93
       13
176
     1
 44
0.0
176
     1
173
     0
176
     1
  0
VISUALSTYLE
  5
2E
102
{ACAD_XDICTIONARY
360
9B3
102
}
102
{ACAD_REACTORS
330
2A
102
}
330
2A
100
AcDbVisualStyle
  2
GouraudWithEdges
 70
     3
177
     2
291
     1
 71
     2
176
     1
 72
     2
176
     1
 73
     1
176
     1
 90
        2
176
     1
 40
0.6
176
     1
 41
30.0
176
     1
 63
     7
421
 16777215
176
     1
 74
     1
176
     1
 91
        0
176
     1
 64
     7
176
     1
 65
   257
176
     1
 75
     1
176
     1
175
     1
176
     1
 42
1.0
176
     1
 92
        0
176
     1
 66
   257
176
     1
 43
1.0
176
     1
 76
     1
176
     1
 77
     6
176
     1
 78
     2
176
     1
 67
     7
176
     1
 79
     5
176
     1
170
     0
176
     1
171
     0
176
     1
290
     0
176
     1
 93
       13
176
     1
 44
0.0
176
     1
173
     0
176
     1
  0
VISUALSTYLE
  5
31
102
{ACAD_XDICTIONARY
360
9B9
102
}
102
{ACAD_REACTORS
330
2A
102
}
330
2A
100
AcDbVisualStyle
  2
Hidden
 70
     6
177
     2
291
     0
 71
     1
176
     1
 72
     2
176
     1
 73
     2
176
     1
 90
        0
176
     1
 40
0.6
176
     1
 41
30.0
176
     1
 63
     7
421
 16777215
176
     1
 74
     2
176
     1
 91
        2
176
     1
 64
     7
176
     1
 65
   257
176
     1
 75
     2
176
     1
175
     1
176
     1
 42
40.0
176
     1
 92
        0
176
     1
 66
   257
176
     1
 43
1.0
176
     1
 76
     1
176
     1
 77
     6
176
     1
 78
     2
176
     1
 67
     7
176
     1
 79
     3
176
     1
170
     0
176
     1
171
     0
176
     1
290
     0
176
     1
 93
        1
176
     1
 44
0.0
176
     1
173
     0
176
     1
  0
VISUALSTYLE
  5
3B
102
{ACAD_XDICTIONARY
360
9CD
102
}
102
{ACAD_REACTORS
330
2A
102
}
330
2A
100
AcDbVisualStyle
  2
JitterOff
 70
    20
177
     2
291
     1
 71
     2
176
     0
 72
     2
176
     0
 73
     0
176
     0
 90
        0
176
     0
 40
0.6
176
     0
 41
30.0
176
     0
 63
     7
421
 16777215
176
     0
 74
     1
176
     0
 91
        4
176
     0
 64
     7
176
     0
 65
   257
176
     0
 75
     1
176
     0
175
     1
176
     0
 42
1.0
176
     0
 92
       10
176
     2
 66
     7
176
     0
 43
1.0
176
     0
 76
     1
176
     0
 77
     6
176
     0
 78
     2
176
     0
 67
     7
176
     0
 79
     5
176
     0
170
     0
176
     0
171
     0
176
     0
290
     0
176
     0
 93
        1
176
     0
 44
0.0
176
     0
173
     0
176
     0
  0
VISUALSTYLE
  5
38
102
{ACAD_XDICTIONARY
360
9C7
102
}
102
{ACAD_REACTORS
330
2A
102
}
330
2A
100
AcDbVisualStyle
  2
Linepattern
 70
    14
177
     2
291
     1
 71
     2
176
     1
 72
     2
176
     1
 73
     0
176
     1
 90
        0
176
     1
 40
0.6
176
     1
 41
30.0
176
     1
 63
     7
421
 16777215
176
     1
 74
     1
176
     1
 91
        4
176
     1
 64
     7
176
     1
 65
   257
176
     1
 75
     7
176
     1
175
     7
176
     1
 42
1.0
176
     1
 92
        8
176
     1
 66
     7
176
     1
 43
1.0
176
     1
 76
     1
176
     1
 77
     6
176
     1
 78
     2
176
     1
 67
     7
176
     1
 79
     5
176
     1
170
     0
176
     1
171
     0
176
     1
290
     0
176
     1
 93
        1
176
     1
 44
0.0
176
     1
173
     0
176
     1
  0
VISUALSTYLE
  5
3C
102
{ACAD_XDICTIONARY
360
9CF
102
}
102
{ACAD_REACTORS
330
2A
102
}
330
2A
100
AcDbVisualStyle
  2
OverhangOff
 70
    21
177
     2
291
     1
 71
     2
176
     0
 72
     2
176
     0
 73
     0
176
     0
 90
        0
176
     0
 40
0.6
176
     0
 41
30.0
176
     0
 63
     7
421
 16777215
176
     0
 74
     1
176
     0
 91
        4
176
     0
 64
     7
176
     0
 65
   257
176
     0
 75
     1
176
     0
175
     1
176
     0
 42
1.0
176
     0
 92
        9
176
     2
 66
     7
176
     0
 43
1.0
176
     0
 76
     1
176
     0
 77
     6
176
     0
 78
     2
176
     0
 67
     7
176
     0
 79
     5
176
     0
170
     0
176
     0
171
     0
176
     0
290
     0
176
     0
 93
        1
176
     0
 44
0.0
176
     0
173
     0
176
     0
  0
VISUALSTYLE
  5
33
102
{ACAD_XDICTIONARY
360
9BD
102
}
102
{ACAD_REACTORS
330
2A
102
}
330
2A
100
AcDbVisualStyle
  2
Realistic
 70
     8
177
     2
291
     0
 71
     2
176
     1
 72
     3
176
     1
 73
     0
176
     1
 90
        2
176
     1
 40
0.6
176
     1
 41
30.0
176
     1
 63
     7
421
 16777215
176
     1
 74
     0
176
     1
 91
        0
176
     1
 64
     7
176
     1
 65
   257
176
     1
 75
     1
176
     1
175
     1
176
     1
 42
1.0
176
     1
 92
        8
176
     1
 66
   257
176
     1
 43
1.0
176
     1
 76
     1
176
     1
 77
     6
176
     1
 78
     2
176
     1
 67
     7
176
     1
 79
     3
176
     1
170
     0
176
     1
171
     0
176
     1
290
     0
176
     1
 93
       13
176
     1
 44
0.0
176
     1
173
     0
176
     1
  0
VISUALSTYLE
  5
42
102
{ACAD_XDICTIONARY
360
9DB
102
}
102
{ACAD_REACTORS
330
2A
102
}
330
2A
100
AcDbVisualStyle
  2
Shaded
 70
    27
177
     2
291
     0
 71
     2
176
     1
 72
     2
176
     1
 73
     1
176
     1
 90
        2
176
     1
 40
0.6
176
     1
 41
30.0
176
     1
 63
     7
421
 16777215
176
     1
 74
     0
176
     1
 91
        4
176
     1
 64
     7
176
     1
 65
   257
176
     1
 75
     1
176
     1
175
     1
176
     1
 42
1.0
176
     1
 92
        8
176
     1
 66
   257
176
     1
 43
1.0
176
     1
 76
     1
176
     1
 77
     6
176
     1
 78
     2
176
     1
 67
     8
425
  7895160
176
     1
 79
     3
176
     1
170
     0
176
     1
171
     0
176
     1
290
     0
176
     1
 93
        5
176
     1
 44
0.0
176
     1
173
     0
176
     1
  0
VISUALSTYLE
  5
41
102
{ACAD_XDICTIONARY
360
9D9
102
}
102
{ACAD_REACTORS
330
2A
102
}
330
2A
100
AcDbVisualStyle
  2
Shaded with edges
 70
    26
177
     2
291
     0
 71
     2
176
     1
 72
     2
176
     1
 73
     1
176
     1
 90
        2
176
     1
 40
0.6
176
     1
 41
30.0
176
     1
 63
     7
421
 16777215
176
     1
 74
     1
176
     1
 91
       10
176
     1
 64
     7
176
     1
 65
   257
176
     1
 75
     2
176
     1
175
     1
176
     1
 42
1.0
176
     1
 92
        8
176
     1
 66
   257
176
     1
 43
1.0
176
     1
 76
     1
176
     1
 77
     6
176
     1
 78
     2
176
     1
 67
     7
176
     1
 79
     3
176
     1
170
     0
176
     1
171
     0
176
     1
290
     0
176
     1
 93
        5
176
     1
 44
0.0
176
     1
173
     0
176
     1
  0
VISUALSTYLE
  5
3E
102
{ACAD_XDICTIONARY
360
9D3
102
}
102
{ACAD_REACTORS
330
2A
102
}
330
2A
100
AcDbVisualStyle
  2
Shades of Gray
 70
    23
177
     2
291
     0
 71
     2
176
     1
 72
     2
176
     1
 73
     3
176
     1
 90
        0
176
     1
 40
0.6
176
     1
 41
30.0
176
     1
 63
     7
421
 16777215
176
     1
 74
     2
176
     1
 91
        2
176
     1
 64
     7
176
     1
 65
     7
176
     1
 75
     1
176
     1
175
     1
176
     1
 42
40.0
176
     1
 92
        8
176
     1
 66
     7
176
     1
 43
1.0
176
     1
 76
     1
176
     1
 77
     6
176
     1
 78
     2
176
     1
 67
     7
176
     1
 79
     3
176
     1
170
     0
176
     1
171
     0
176
     1
290
     0
176
     1
 93
        1
176
     1
 44
0.0
176
     1
173
     0
176
     1
  0
VISUALSTYLE
  5
3F
102
{ACAD_XDICTIONARY
360
9D5
102
}
102
{ACAD_REACTORS
330
2A
102
}
330
2A
100
AcDbVisualStyle
  2
Sketchy
 70
    24
177
     2
291
     0
 71
     1
176
     1
 72
     2
176
     1
 73
     2
176
     1
 90
        0
176
     1
 40
0.6
176
     1
 41
30.0
176
     1
 63
     7
421
 16777215
176
     1
 74
     2
176
     1
 91
        2
176
     1
 64
     7
176
     1
 65
     7
176
     1
 75
     1
176
     1
175
     1
176
     1
 42
40.0
176
     1
 92
       11
176
     1
 66
     7
176
     1
 43
1.0
176
     1
 76
     1
176
     1
 77
     6
176
     1
 78
     2
176
     1
 67
     7
176
     1
 79
     6
176
     1
170
     0
176
     1
171
     0
176
     1
290
     0
176
     1
 93
        1
176
     1
 44
0.0
176
     1
173
     0
176
     1
  0
VISUALSTYLE
  5
37
102
{ACAD_XDICTIONARY
360
9C5
102
}
102
{ACAD_REACTORS
330
2A
102
}
330
2A
100
AcDbVisualStyle
  2
Thicken
 70
    13
177
     2
291
     1
 71
     2
176
     1
 72
     2
176
     1
 73
     0
176
     1
 90
        0
176
     1
 40
0.6
176
     1
 41
30.0
176
     1
 63
     7
421
 16777215
176
     1
 74
     1
176
     1
 91
        4
176
     1
 64
     7
176
     1
 65
   257
176
     1
 75
     1
176
     1
175
     1
176
     1
 42
1.0
176
     1
 92
       12
176
     1
 66
     7
176
     1
 43
1.0
176
     1
 76
     1
176
     1
 77
     6
176
     1
 78
     2
176
     1
 67
     7
176
     1
 79
     5
176
     1
170
     0
176
     1
171
     0
176
     1
290
     0
176
     1
 93
        1
176
     1
 44
0.0
176
     1
173
     0
176
     1
  0
VISUALSTYLE
  5
30
102
{ACAD_XDICTIONARY
360
9B7
102
}
102
{ACAD_REACTORS
330
2A
102
}
330
2A
100
AcDbVisualStyle
  2
Wireframe
 70
     5
177
     2
291
     0
 71
     0
176
     1
 72
     2
176
     1
 73
     0
176
     1
 90
        0
176
     1
 40
0.6
176
     1
 41
30.0
176
     1
 63
     7
421
 16777215
176
     1
 74
     1
176
     1
 91
        4
176
     1
 64
     7
176
     1
 65
   257
176
     1
 75
     1
176
     1
175
     1
176
     1
 42
1.0
176
     1
 92
        0
176
     1
 66
   257
176
     1
 43
1.0
176
     1
 76
     1
176
     1
 77
     6
176
     1
 78
     2
176
     1
 67
     7
176
     1
 79
     3
176
     1
170
     0
176
     1
171
     0
176
     1
290
     0
176
     1
 93
        1
176
     1
 44
0.0
176
     1
173
     0
176
     1
  0
VISUALSTYLE
  5
40
102
{ACAD_XDICTIONARY
360
9D7
102
}
102
{ACAD_REACTORS
330
2A
102
}
330
2A
100
AcDbVisualStyle
  2
X-Ray
 70
    25
177
     2
291
     0
 71
     2
176
     1
 72
     2
176
     1
 73
     1
176
     1
 90
        1
176
     1
 40
0.5
176
     1
 41
30.0
176
     1
 63
     7
421
 16777215
176
     1
 74
     1
176
     1
 91
        0
176
     1
 64
     7
176
     1
 65
   257
176
     1
 75
     1
176
     1
175
     1
176
     1
 42
1.0
176
     1
 92
        8
176
     1
 66
     7
176
     1
 43
1.0
176
     1
 76
     1
176
     1
 77
     6
176
     1
 78
     2
176
     1
 67
     7
176
     1
 79
     3
176
     1
170
     0
176
     1
171
     0
176
     1
290
     0
176
     1
 93
       13
176
     1
 44
0.0
176
     1
173
     0
176
     1
  0
DICTIONARYVAR
  5
95D
102
{ACAD_REACTORS
330
95C
102
}
330
95C
100
DictionaryVariables
280
     0
  1
1:1
  0
DICTIONARYVAR
  5
9FB
102
{ACAD_REACTORS
330
95C
102
}
330
95C
100
DictionaryVariables
280
     0
  1
STANDARD
  0
DICTIONARYVAR
  5
9FA
102
{ACAD_REACTORS
330
95C
102
}
330
95C
100
DictionaryVariables
280
     0
  1
STANDARD
  0
DICTIONARYVAR
  5
9FD
102
{ACAD_REACTORS
330
95C
102
}
330
95C
100
DictionaryVariables
280
     0
  1
1
  0
DICTIONARYVAR
  5
9FE
102
{ACAD_REACTORS
330
95C
102
}
330
95C
100
DictionaryVariables
280
     0
  1
15
  0
DICTIONARYVAR
  5
9FC
102
{ACAD_REACTORS
330
95C
102
}
330
95C
100
DictionaryVariables
280
     0
  1
0
  0
DICTIONARYVAR
  5
95E
102
{ACAD_REACTORS
330
95C
102
}
330
95C
100
DictionaryVariables
280
     0
  1
1
  0
DICTIONARY
  5
A01
330
9E7
100
AcDbDictionary
280
     1
281
     1
  3
ACAD_XREC_ROUNDTRIP
360
A02
  0
DICTIONARY
  5
9FF
330
9E6
100
AcDbDictionary
280
     1
281
     1
  3
ACAD_ROUNDTRIP_2008_TABLESTYLE_CELLSTYLEMAP
360
A00
  0
DICTIONARY
  5
9B5
330
2F
100
AcDbDictionary
280
     1
281
     1
  3
ACAD_XREC_ROUNDTRIP
360
9B6
  0
DICTIONARY
  5
9BB
330
32
100
AcDbDictionary
280
     1
281
     1
  3
ACAD_XREC_ROUNDTRIP
360
9BC
  0
DICTIONARY
  5
9C3
330
36
100
AcDbDictionary
280
     1
281
     1
  3
ACAD_XREC_ROUNDTRIP
360
9C4
  0
DICTIONARY
  5
9CB
330
3A
100
AcDbDictionary
280
     1
281
     1
  3
ACAD_XREC_ROUNDTRIP
360
9CC
  0
DICTIONARY
  5
9BF
330
34
100
AcDbDictionary
280
     1
281
     1
  3
ACAD_XREC_ROUNDTRIP
360
9C0
  0
DICTIONARY
  5
9C1
330
35
100
AcDbDictionary
280
     1
281
     1
  3
ACAD_XREC_ROUNDTRIP
360
9C2
  0
DICTIONARY
  5
9D1
330
3D
100
AcDbDictionary
280
     1
281
     1
  3
ACAD_XREC_ROUNDTRIP
360
9D2
  0
DICTIONARY
  5
9C9
330
39
100
AcDbDictionary
280
     1
281
     1
  3
ACAD_XREC_ROUNDTRIP
360
9CA
  0
DICTIONARY
  5
9AD
330
2B
100
AcDbDictionary
280
     1
281
     1
  3
ACAD_XREC_ROUNDTRIP
360
9AE
  0
DICTIONARY
  5
9AF
330
2C
100
AcDbDictionary
280
     1
281
     1
  3
ACAD_XREC_ROUNDTRIP
360
9B0
  0
DICTIONARY
  5
9B1
330
2D
100
AcDbDictionary
280
     1
281
     1
  3
ACAD_XREC_ROUNDTRIP
360
9B2
  0
DICTIONARY
  5
9B3
330
2E
100
AcDbDictionary
280
     1
281
     1
  3
ACAD_XREC_ROUNDTRIP
360
9B4
  0
DICTIONARY
  5
9B9
330
31
100
AcDbDictionary
280
     1
281
     1
  3
ACAD_XREC_ROUNDTRIP
360
9BA
  0
DICTIONARY
  5
9CD
330
3B
100
AcDbDictionary
280
     1
281
     1
  3
ACAD_XREC_ROUNDTRIP
360
9CE
  0
DICTIONARY
  5
9C7
330
38
100
AcDbDictionary
280
     1
281
     1
  3
ACAD_XREC_ROUNDTRIP
360
9C8
  0
DICTIONARY
  5
9CF
330
3C
100
AcDbDictionary
280
     1
281
     1
  3
ACAD_XREC_ROUNDTRIP
360
9D0
  0
DICTIONARY
  5
9BD
330
33
100
AcDbDictionary
280
     1
281
     1
  3
ACAD_XREC_ROUNDTRIP
360
9BE
  0
DICTIONARY
  5
9DB
330
42
100
AcDbDictionary
280
     1
281
     1
  3
ACAD_XREC_ROUNDTRIP
360
9DC
  0
DICTIONARY
  5
9D9
330
41
100
AcDbDictionary
280
     1
281
     1
  3
ACAD_XREC_ROUNDTRIP
360
9DA
  0
DICTIONARY
  5
9D3
330
3E
100
AcDbDictionary
280
     1
281
     1
  3
ACAD_XREC_ROUNDTRIP
360
9D4
  0
DICTIONARY
  5
9D5
330
3F
100
AcDbDictionary
280
     1
281
     1
  3
ACAD_XREC_ROUNDTRIP
360
9D6
  0
DICTIONARY
  5
9C5
330
37
100
AcDbDictionary
280
     1
281
     1
  3
ACAD_XREC_ROUNDTRIP
360
9C6
  0
DICTIONARY
  5
9B7
330
30
100
AcDbDictionary
280
     1
281
     1
  3
ACAD_XREC_ROUNDTRIP
360
9B8
  0
DICTIONARY
  5
9D7
330
40
100
AcDbDictionary
280
     1
281
     1
  3
ACAD_XREC_ROUNDTRIP
360
9D8
  0
XRECORD
  5
A02
102
{ACAD_REACTORS
330
A01
102
}
330
A01
100
AcDbXrecord
280
     1
102
ACAD_ROUNDTRIP_2012_MLEADER_STYLE
298
     1
  0
CELLSTYLEMAP
  5
A00
102
{ACAD_REACTORS
330
9FF
102
}
330
9FF
100
AcDbCellStyleMap
 90
        3
300
CELLSTYLE
  1
TABLEFORMAT_BEGIN
 90
        5
170
     1
 91
        0
 92
    32768
 62
   257
 93
        1
300
CONTENTFORMAT
  1
CONTENTFORMAT_BEGIN
 90
        0
 91
        0
 92
      512
 93
        0
300

 40
0.0
140
1.0
 94
        5
 62
     0
340
11
144
0.25
309
CONTENTFORMAT_END
171
     0
 94
        0
309
TABLEFORMAT_END
  1
CELLSTYLE_BEGIN
 90
        1
 91
        1
300
_TITLE
309
CELLSTYLE_END
300
CELLSTYLE
  1
TABLEFORMAT_BEGIN
 90
        5
170
     1
 91
        0
 92
        0
 62
   257
 93
        1
300
CONTENTFORMAT
  1
CONTENTFORMAT_BEGIN
 90
        0
 91
        0
 92
      512
 93
        0
300

 40
0.0
140
1.0
 94
        5
 62
     0
340
11
144
0.18
309
CONTENTFORMAT_END
171
     0
 94
        0
309
TABLEFORMAT_END
  1
CELLSTYLE_BEGIN
 90
        2
 91
        1
300
_HEADER
309
CELLSTYLE_END
300
CELLSTYLE
  1
TABLEFORMAT_BEGIN
 90
        5
170
     1
 91
        0
 92
        0
 62
   257
 93
        1
300
CONTENTFORMAT
  1
CONTENTFORMAT_BEGIN
 90
        0
 91
        0
 92
      512
 93
        0
300

 40
0.0
140
1.0
 94
        2
 62
     0
340
11
144
0.18
309
CONTENTFORMAT_END
171
     0
 94
        0
309
TABLEFORMAT_END
  1
CELLSTYLE_BEGIN
 90
        3
 91
        2
300
_DATA
309
CELLSTYLE_END
  0
XRECORD
  5
9B6
102
{ACAD_REACTORS
330
9B5
102
}
330
9B5
100
AcDbXrecord
280
     1
102
RTVSPropertyOp33
 70
     1
102
RTVSPropertyOp34
 70
     1
102
RTVSPropertyOp35
 70
     1
102
RTVSPropertyOp36
 70
     1
102
RTVSPropertyOp37
 70
     1
102
RTVSPropertyOp38
 70
     1
102
RTVSPropertyOp39
 70
     1
102
RTVSPropertyOp40
 70
     1
102
RTVSPropertyOp41
 70
     1
102
RTVSPropertyOp42
 70
     1
102
RTVSPropertyOp43
 70
     1
102
RTVSPropertyOp44
 70
     1
102
RTVSPropertyOp45
 70
     1
102
RTVSPropertyOp46
 70
     1
102
RTVSPropertyOp47
 70
     1
102
RTVSPropertyOp48
 70
     1
102
RTVSPropertyOp49
 70
     1
102
RTVSPropertyOp50
 70
     1
102
RTVSPropertyOp51
 70
     0
102
RTVSPropertyOp52
 70
     0
102
RTVSPropertyOp53
 70
     1
102
RTVSPropertyOp54
 70
     1
102
RTVSPropertyOp55
 70
     1
102
RTVSPropertyOp56
 70
     1
102
RTVSPropertyOp57
 70
     1
102
RTVSPost2010Prop28
280
     1
102
RTVSPost2010PropOp28
 70
     1
102
RTVSPost2010Prop29
280
     1
102
RTVSPost2010PropOp29
 70
     1
102
RTVSPost2010Prop30
280
     0
102
RTVSPost2010PropOp30
 70
     1
102
RTVSPost2010Prop31
280
     0
102
RTVSPost2010PropOp31
 70
     1
102
RTVSPost2010Prop32
280
     0
102
RTVSPost2010PropOp32
 70
     1
102
RTVSPost2010Prop33
280
     0
102
RTVSPost2010PropOp33
 70
     1
102
RTVSPost2010Prop34
280
     0
102
RTVSPost2010PropOp34
 70
     1
102
RTVSPost2010Prop35
280
     0
102
RTVSPost2010PropOp35
 70
     1
102
RTVSPost2010Prop36
280
     0
102
RTVSPost2010PropOp36
 70
     1
102
RTVSPost2010Prop37
 90
       50
102
RTVSPost2010PropOp37
 70
     1
102
RTVSPost2010Prop38
140
0.0
102
RTVSPost2010PropOp38
 70
     1
102
RTVSPost2010Prop39
140
1.0
102
RTVSPost2010PropOp39
 70
     1
102
RTVSPost2010Prop40
 90
        0
102
RTVSPost2010PropOp40
 70
     1
102
RTVSPost2010Prop41ColorIndex
 90
       18
102
RTVSPost2010Prop41ColorRGB
 90
        0
102
RTVSPost2010PropOp41
 70
     1
102
RTVSPost2010Prop42
 90
       50
102
RTVSPost2010PropOp42
 70
     1
102
RTVSPost2010Prop43
 90
        3
102
RTVSPost2010PropOp43
 70
     1
102
RTVSPost2010Prop44ColorIndex
 90
        5
102
RTVSPost2010Prop44ColorRGB
 90
      255
102
RTVSPost2010PropOp44
 70
     1
102
RTVSPost2010Prop45
280
     0
102
RTVSPost2010PropOp45
 70
     1
102
RTVSPost2010Prop46
 90
       50
102
RTVSPost2010PropOp46
 70
     1
102
RTVSPost2010Prop47
 90
       50
102
RTVSPost2010PropOp47
 70
     1
102
RTVSPost2010Prop48
 90
       50
102
RTVSPost2010PropOp48
 70
     1
102
RTVSPost2010Prop49
280
     0
102
RTVSPost2010PropOp49
 70
     1
102
RTVSPost2010Prop50
 90
       50
102
RTVSPost2010PropOp50
 70
     1
102
RTVSPost2010Prop51ColorIndex
 90
      256
102
RTVSPost2010Prop51ColorRGB
 90
-16777216
102
RTVSPost2010PropOp51
 70
     0
102
RTVSPost2010Prop52
140
1.0
102
RTVSPost2010PropOp52
 70
     0
102
RTVSPost2010Prop53
 90
        2
102
RTVSPost2010PropOp53
 70
     1
102
RTVSPost2010Prop54
  1
strokes_ogs.tif
102
RTVSPost2010PropOp54
 70
     1
102
RTVSPost2010Prop55
280
     0
102
RTVSPost2010PropOp55
 70
     1
102
RTVSPost2010Prop56
140
1.0
102
RTVSPost2010PropOp56
 70
     1
102
RTVSPost2010Prop57
140
1.0
102
RTVSPost2010PropOp57
 70
     1
  0
XRECORD
  5
9BC
102
{ACAD_REACTORS
330
9BB
102
}
330
9BB
100
AcDbXrecord
280
     1
102
RTVSPropertyOp33
 70
     1
102
RTVSPropertyOp34
 70
     1
102
RTVSPropertyOp35
 70
     1
102
RTVSPropertyOp36
 70
     1
102
RTVSPropertyOp37
 70
     1
102
RTVSPropertyOp38
 70
     1
102
RTVSPropertyOp39
 70
     1
102
RTVSPropertyOp40
 70
     1
102
RTVSPropertyOp41
 70
     1
102
RTVSPropertyOp42
 70
     1
102
RTVSPropertyOp43
 70
     1
102
RTVSPropertyOp44
 70
     1
102
RTVSPropertyOp45
 70
     1
102
RTVSPropertyOp46
 70
     1
102
RTVSPropertyOp47
 70
     1
102
RTVSPropertyOp48
 70
     1
102
RTVSPropertyOp49
 70
     1
102
RTVSPropertyOp50
 70
     1
102
RTVSPropertyOp51
 70
     0
102
RTVSPropertyOp52
 70
     0
102
RTVSPropertyOp53
 70
     1
102
RTVSPropertyOp54
 70
     1
102
RTVSPropertyOp55
 70
     1
102
RTVSPropertyOp56
 70
     1
102
RTVSPropertyOp57
 70
     1
102
RTVSPost2010Prop28
280
     0
102
RTVSPost2010PropOp28
 70
     1
102
RTVSPost2010Prop29
280
     1
102
RTVSPost2010PropOp29
 70
     1
102
RTVSPost2010Prop30
280
     1
102
RTVSPost2010PropOp30
 70
     1
102
RTVSPost2010Prop31
280
     0
102
RTVSPost2010PropOp31
 70
     1
102
RTVSPost2010Prop32
280
     0
102
RTVSPost2010PropOp32
 70
     1
102
RTVSPost2010Prop33
280
     0
102
RTVSPost2010PropOp33
 70
     1
102
RTVSPost2010Prop34
280
     0
102
RTVSPost2010PropOp34
 70
     1
102
RTVSPost2010Prop35
280
     0
102
RTVSPost2010PropOp35
 70
     1
102
RTVSPost2010Prop36
280
     0
102
RTVSPost2010PropOp36
 70
     1
102
RTVSPost2010Prop37
 90
       50
102
RTVSPost2010PropOp37
 70
     1
102
RTVSPost2010Prop38
140
0.0
102
RTVSPost2010PropOp38
 70
     1
102
RTVSPost2010Prop39
140
1.0
102
RTVSPost2010PropOp39
 70
     1
102
RTVSPost2010Prop40
 90
        0
102
RTVSPost2010PropOp40
 70
     1
102
RTVSPost2010Prop41ColorIndex
 90
       18
102
RTVSPost2010Prop41ColorRGB
 90
        0
102
RTVSPost2010PropOp41
 70
     1
102
RTVSPost2010Prop42
 90
       50
102
RTVSPost2010PropOp42
 70
     1
102
RTVSPost2010Prop43
 90
        3
102
RTVSPost2010PropOp43
 70
     1
102
RTVSPost2010Prop44ColorIndex
 90
        5
102
RTVSPost2010Prop44ColorRGB
 90
      255
102
RTVSPost2010PropOp44
 70
     1
102
RTVSPost2010Prop45
280
     0
102
RTVSPost2010PropOp45
 70
     1
102
RTVSPost2010Prop46
 90
       50
102
RTVSPost2010PropOp46
 70
     1
102
RTVSPost2010Prop47
 90
       50
102
RTVSPost2010PropOp47
 70
     1
102
RTVSPost2010Prop48
 90
       50
102
RTVSPost2010PropOp48
 70
     1
102
RTVSPost2010Prop49
280
     0
102
RTVSPost2010PropOp49
 70
     1
102
RTVSPost2010Prop50
 90
       50
102
RTVSPost2010PropOp50
 70
     1
102
RTVSPost2010Prop51ColorIndex
 90
      256
102
RTVSPost2010Prop51ColorRGB
 90
-16777216
102
RTVSPost2010PropOp51
 70
     0
102
RTVSPost2010Prop52
140
1.0
102
RTVSPost2010PropOp52
 70
     0
102
RTVSPost2010Prop53
 90
        2
102
RTVSPost2010PropOp53
 70
     1
102
RTVSPost2010Prop54
  1
strokes_ogs.tif
102
RTVSPost2010PropOp54
 70
     1
102
RTVSPost2010Prop55
280
     0
102
RTVSPost2010PropOp55
 70
     1
102
RTVSPost2010Prop56
140
1.0
102
RTVSPost2010PropOp56
 70
     1
102
RTVSPost2010Prop57
140
1.0
102
RTVSPost2010PropOp57
 70
     1
  0
XRECORD
  5
9C4
102
{ACAD_REACTORS
330
9C3
102
}
330
9C3
100
AcDbXrecord
280
     1
102
RTVSPropertyOp33
 70
     1
102
RTVSPropertyOp34
 70
     1
102
RTVSPropertyOp35
 70
     1
102
RTVSPropertyOp36
 70
     1
102
RTVSPropertyOp37
 70
     1
102
RTVSPropertyOp38
 70
     1
102
RTVSPropertyOp39
 70
     1
102
RTVSPropertyOp40
 70
     1
102
RTVSPropertyOp41
 70
     1
102
RTVSPropertyOp42
 70
     1
102
RTVSPropertyOp43
 70
     1
102
RTVSPropertyOp44
 70
     1
102
RTVSPropertyOp45
 70
     1
102
RTVSPropertyOp46
 70
     1
102
RTVSPropertyOp47
 70
     1
102
RTVSPropertyOp48
 70
     1
102
RTVSPropertyOp49
 70
     1
102
RTVSPropertyOp50
 70
     1
102
RTVSPropertyOp51
 70
     0
102
RTVSPropertyOp52
 70
     0
102
RTVSPropertyOp53
 70
     1
102
RTVSPropertyOp54
 70
     1
102
RTVSPropertyOp55
 70
     1
102
RTVSPropertyOp56
 70
     1
102
RTVSPropertyOp57
 70
     1
102
RTVSPost2010Prop28
280
     0
102
RTVSPost2010PropOp28
 70
     1
102
RTVSPost2010Prop29
280
     1
102
RTVSPost2010PropOp29
 70
     1
102
RTVSPost2010Prop30
280
     1
102
RTVSPost2010PropOp30
 70
     1
102
RTVSPost2010Prop31
280
     0
102
RTVSPost2010PropOp31
 70
     1
102
RTVSPost2010Prop32
280
     0
102
RTVSPost2010PropOp32
 70
     1
102
RTVSPost2010Prop33
280
     0
102
RTVSPost2010PropOp33
 70
     1
102
RTVSPost2010Prop34
280
     0
102
RTVSPost2010PropOp34
 70
     1
102
RTVSPost2010Prop35
280
     0
102
RTVSPost2010PropOp35
 70
     1
102
RTVSPost2010Prop36
280
     0
102
RTVSPost2010PropOp36
 70
     1
102
RTVSPost2010Prop37
 90
       50
102
RTVSPost2010PropOp37
 70
     1
102
RTVSPost2010Prop38
140
0.0
102
RTVSPost2010PropOp38
 70
     1
102
RTVSPost2010Prop39
140
1.0
102
RTVSPost2010PropOp39
 70
     1
102
RTVSPost2010Prop40
 90
        0
102
RTVSPost2010PropOp40
 70
     1
102
RTVSPost2010Prop41ColorIndex
 90
       18
102
RTVSPost2010Prop41ColorRGB
 90
        0
102
RTVSPost2010PropOp41
 70
     1
102
RTVSPost2010Prop42
 90
       50
102
RTVSPost2010PropOp42
 70
     1
102
RTVSPost2010Prop43
 90
        3
102
RTVSPost2010PropOp43
 70
     1
102
RTVSPost2010Prop44ColorIndex
 90
        5
102
RTVSPost2010Prop44ColorRGB
 90
      255
102
RTVSPost2010PropOp44
 70
     1
102
RTVSPost2010Prop45
280
     0
102
RTVSPost2010PropOp45
 70
     1
102
RTVSPost2010Prop46
 90
       50
102
RTVSPost2010PropOp46
 70
     1
102
RTVSPost2010Prop47
 90
       50
102
RTVSPost2010PropOp47
 70
     1
102
RTVSPost2010Prop48
 90
       50
102
RTVSPost2010PropOp48
 70
     1
102
RTVSPost2010Prop49
280
     0
102
RTVSPost2010PropOp49
 70
     1
102
RTVSPost2010Prop50
 90
       50
102
RTVSPost2010PropOp50
 70
     1
102
RTVSPost2010Prop51ColorIndex
 90
      256
102
RTVSPost2010Prop51ColorRGB
 90
-16777216
102
RTVSPost2010PropOp51
 70
     0
102
RTVSPost2010Prop52
140
1.0
102
RTVSPost2010PropOp52
 70
     0
102
RTVSPost2010Prop53
 90
        2
102
RTVSPost2010PropOp53
 70
     1
102
RTVSPost2010Prop54
  1
strokes_ogs.tif
102
RTVSPost2010PropOp54
 70
     1
102
RTVSPost2010Prop55
280
     0
102
RTVSPost2010PropOp55
 70
     1
102
RTVSPost2010Prop56
140
1.0
102
RTVSPost2010PropOp56
 70
     1
102
RTVSPost2010Prop57
140
1.0
102
RTVSPost2010PropOp57
 70
     1
  0
XRECORD
  5
9CC
102
{ACAD_REACTORS
330
9CB
102
}
330
9CB
100
AcDbXrecord
280
     1
102
RTVSPropertyOp33
 70
     1
102
RTVSPropertyOp34
 70
     1
102
RTVSPropertyOp35
 70
     1
102
RTVSPropertyOp36
 70
     1
102
RTVSPropertyOp37
 70
     1
102
RTVSPropertyOp38
 70
     1
102
RTVSPropertyOp39
 70
     1
102
RTVSPropertyOp40
 70
     1
102
RTVSPropertyOp41
 70
     1
102
RTVSPropertyOp42
 70
     1
102
RTVSPropertyOp43
 70
     1
102
RTVSPropertyOp44
 70
     1
102
RTVSPropertyOp45
 70
     1
102
RTVSPropertyOp46
 70
     1
102
RTVSPropertyOp47
 70
     1
102
RTVSPropertyOp48
 70
     1
102
RTVSPropertyOp49
 70
     1
102
RTVSPropertyOp50
 70
     1
102
RTVSPropertyOp51
 70
     0
102
RTVSPropertyOp52
 70
     0
102
RTVSPropertyOp53
 70
     1
102
RTVSPropertyOp54
 70
     1
102
RTVSPropertyOp55
 70
     1
102
RTVSPropertyOp56
 70
     1
102
RTVSPropertyOp57
 70
     1
102
RTVSPost2010Prop28
280
     0
102
RTVSPost2010PropOp28
 70
     1
102
RTVSPost2010Prop29
280
     1
102
RTVSPost2010PropOp29
 70
     1
102
RTVSPost2010Prop30
280
     1
102
RTVSPost2010PropOp30
 70
     1
102
RTVSPost2010Prop31
280
     0
102
RTVSPost2010PropOp31
 70
     1
102
RTVSPost2010Prop32
280
     0
102
RTVSPost2010PropOp32
 70
     1
102
RTVSPost2010Prop33
280
     0
102
RTVSPost2010PropOp33
 70
     1
102
RTVSPost2010Prop34
280
     0
102
RTVSPost2010PropOp34
 70
     1
102
RTVSPost2010Prop35
280
     0
102
RTVSPost2010PropOp35
 70
     1
102
RTVSPost2010Prop36
280
     0
102
RTVSPost2010PropOp36
 70
     1
102
RTVSPost2010Prop37
 90
       50
102
RTVSPost2010PropOp37
 70
     1
102
RTVSPost2010Prop38
140
0.0
102
RTVSPost2010PropOp38
 70
     1
102
RTVSPost2010Prop39
140
1.0
102
RTVSPost2010PropOp39
 70
     1
102
RTVSPost2010Prop40
 90
        0
102
RTVSPost2010PropOp40
 70
     1
102
RTVSPost2010Prop41ColorIndex
 90
       18
102
RTVSPost2010Prop41ColorRGB
 90
        0
102
RTVSPost2010PropOp41
 70
     1
102
RTVSPost2010Prop42
 90
       50
102
RTVSPost2010PropOp42
 70
     1
102
RTVSPost2010Prop43
 90
        3
102
RTVSPost2010PropOp43
 70
     1
102
RTVSPost2010Prop44ColorIndex
 90
        5
102
RTVSPost2010Prop44ColorRGB
 90
      255
102
RTVSPost2010PropOp44
 70
     1
102
RTVSPost2010Prop45
280
     0
102
RTVSPost2010PropOp45
 70
     1
102
RTVSPost2010Prop46
 90
       50
102
RTVSPost2010PropOp46
 70
     1
102
RTVSPost2010Prop47
 90
       50
102
RTVSPost2010PropOp47
 70
     1
102
RTVSPost2010Prop48
 90
       50
102
RTVSPost2010PropOp48
 70
     1
102
RTVSPost2010Prop49
280
     0
102
RTVSPost2010PropOp49
 70
     1
102
RTVSPost2010Prop50
 90
       50
102
RTVSPost2010PropOp50
 70
     1
102
RTVSPost2010Prop51ColorIndex
 90
      256
102
RTVSPost2010Prop51ColorRGB
 90
-16777216
102
RTVSPost2010PropOp51
 70
     0
102
RTVSPost2010Prop52
140
1.0
102
RTVSPost2010PropOp52
 70
     0
102
RTVSPost2010Prop53
 90
        2
102
RTVSPost2010PropOp53
 70
     1
102
RTVSPost2010Prop54
  1
strokes_ogs.tif
102
RTVSPost2010PropOp54
 70
     1
102
RTVSPost2010Prop55
280
     0
102
RTVSPost2010PropOp55
 70
     1
102
RTVSPost2010Prop56
140
1.0
102
RTVSPost2010PropOp56
 70
     1
102
RTVSPost2010Prop57
140
1.0
102
RTVSPost2010PropOp57
 70
     1
  0
XRECORD
  5
9C0
102
{ACAD_REACTORS
330
9BF
102
}
330
9BF
100
AcDbXrecord
280
     1
102
RTVSPropertyOp33
 70
     1
102
RTVSPropertyOp34
 70
     1
102
RTVSPropertyOp35
 70
     1
102
RTVSPropertyOp36
 70
     1
102
RTVSPropertyOp37
 70
     1
102
RTVSPropertyOp38
 70
     1
102
RTVSPropertyOp39
 70
     1
102
RTVSPropertyOp40
 70
     1
102
RTVSPropertyOp41
 70
     1
102
RTVSPropertyOp42
 70
     1
102
RTVSPropertyOp43
 70
     1
102
RTVSPropertyOp44
 70
     1
102
RTVSPropertyOp45
 70
     1
102
RTVSPropertyOp46
 70
     1
102
RTVSPropertyOp47
 70
     1
102
RTVSPropertyOp48
 70
     1
102
RTVSPropertyOp49
 70
     1
102
RTVSPropertyOp50
 70
     1
102
RTVSPropertyOp51
 70
     0
102
RTVSPropertyOp52
 70
     0
102
RTVSPropertyOp53
 70
     1
102
RTVSPropertyOp54
 70
     1
102
RTVSPropertyOp55
 70
     1
102
RTVSPropertyOp56
 70
     1
102
RTVSPropertyOp57
 70
     1
102
RTVSPost2010Prop28
280
     0
102
RTVSPost2010PropOp28
 70
     1
102
RTVSPost2010Prop29
280
     1
102
RTVSPost2010PropOp29
 70
     1
102
RTVSPost2010Prop30
280
     1
102
RTVSPost2010PropOp30
 70
     1
102
RTVSPost2010Prop31
280
     0
102
RTVSPost2010PropOp31
 70
     1
102
RTVSPost2010Prop32
280
     0
102
RTVSPost2010PropOp32
 70
     1
102
RTVSPost2010Prop33
280
     0
102
RTVSPost2010PropOp33
 70
     1
102
RTVSPost2010Prop34
280
     0
102
RTVSPost2010PropOp34
 70
     1
102
RTVSPost2010Prop35
280
     0
102
RTVSPost2010PropOp35
 70
     1
102
RTVSPost2010Prop36
280
     0
102
RTVSPost2010PropOp36
 70
     1
102
RTVSPost2010Prop37
 90
       50
102
RTVSPost2010PropOp37
 70
     1
102
RTVSPost2010Prop38
140
0.0
102
RTVSPost2010PropOp38
 70
     1
102
RTVSPost2010Prop39
140
1.0
102
RTVSPost2010PropOp39
 70
     1
102
RTVSPost2010Prop40
 90
        0
102
RTVSPost2010PropOp40
 70
     1
102
RTVSPost2010Prop41ColorIndex
 90
       18
102
RTVSPost2010Prop41ColorRGB
 90
        0
102
RTVSPost2010PropOp41
 70
     1
102
RTVSPost2010Prop42
 90
       50
102
RTVSPost2010PropOp42
 70
     1
102
RTVSPost2010Prop43
 90
        3
102
RTVSPost2010PropOp43
 70
     1
102
RTVSPost2010Prop44ColorIndex
 90
        5
102
RTVSPost2010Prop44ColorRGB
 90
      255
102
RTVSPost2010PropOp44
 70
     1
102
RTVSPost2010Prop45
280
     0
102
RTVSPost2010PropOp45
 70
     1
102
RTVSPost2010Prop46
 90
       50
102
RTVSPost2010PropOp46
 70
     1
102
RTVSPost2010Prop47
 90
       50
102
RTVSPost2010PropOp47
 70
     1
102
RTVSPost2010Prop48
 90
       50
102
RTVSPost2010PropOp48
 70
     1
102
RTVSPost2010Prop49
280
     0
102
RTVSPost2010PropOp49
 70
     1
102
RTVSPost2010Prop50
 90
       50
102
RTVSPost2010PropOp50
 70
     1
102
RTVSPost2010Prop51ColorIndex
 90
      256
102
RTVSPost2010Prop51ColorRGB
 90
-16777216
102
RTVSPost2010PropOp51
 70
     0
102
RTVSPost2010Prop52
140
1.0
102
RTVSPost2010PropOp52
 70
     0
102
RTVSPost2010Prop53
 90
        2
102
RTVSPost2010PropOp53
 70
     1
102
RTVSPost2010Prop54
  1
strokes_ogs.tif
102
RTVSPost2010PropOp54
 70
     1
102
RTVSPost2010Prop55
280
     0
102
RTVSPost2010PropOp55
 70
     1
102
RTVSPost2010Prop56
140
1.0
102
RTVSPost2010PropOp56
 70
     1
102
RTVSPost2010Prop57
140
1.0
102
RTVSPost2010PropOp57
 70
     1
  0
XRECORD
  5
9C2
102
{ACAD_REACTORS
330
9C1
102
}
330
9C1
100
AcDbXrecord
280
     1
102
RTVSPropertyOp33
 70
     1
102
RTVSPropertyOp34
 70
     1
102
RTVSPropertyOp35
 70
     1
102
RTVSPropertyOp36
 70
     1
102
RTVSPropertyOp37
 70
     1
102
RTVSPropertyOp38
 70
     1
102
RTVSPropertyOp39
 70
     1
102
RTVSPropertyOp40
 70
     1
102
RTVSPropertyOp41
 70
     1
102
RTVSPropertyOp42
 70
     1
102
RTVSPropertyOp43
 70
     1
102
RTVSPropertyOp44
 70
     1
102
RTVSPropertyOp45
 70
     1
102
RTVSPropertyOp46
 70
     1
102
RTVSPropertyOp47
 70
     1
102
RTVSPropertyOp48
 70
     1
102
RTVSPropertyOp49
 70
     1
102
RTVSPropertyOp50
 70
     1
102
RTVSPropertyOp51
 70
     0
102
RTVSPropertyOp52
 70
     0
102
RTVSPropertyOp53
 70
     1
102
RTVSPropertyOp54
 70
     1
102
RTVSPropertyOp55
 70
     1
102
RTVSPropertyOp56
 70
     1
102
RTVSPropertyOp57
 70
     1
102
RTVSPost2010Prop28
280
     0
102
RTVSPost2010PropOp28
 70
     1
102
RTVSPost2010Prop29
280
     1
102
RTVSPost2010PropOp29
 70
     1
102
RTVSPost2010Prop30
280
     1
102
RTVSPost2010PropOp30
 70
     1
102
RTVSPost2010Prop31
280
     0
102
RTVSPost2010PropOp31
 70
     1
102
RTVSPost2010Prop32
280
     0
102
RTVSPost2010PropOp32
 70
     1
102
RTVSPost2010Prop33
280
     0
102
RTVSPost2010PropOp33
 70
     1
102
RTVSPost2010Prop34
280
     0
102
RTVSPost2010PropOp34
 70
     1
102
RTVSPost2010Prop35
280
     0
102
RTVSPost2010PropOp35
 70
     1
102
RTVSPost2010Prop36
280
     0
102
RTVSPost2010PropOp36
 70
     1
102
RTVSPost2010Prop37
 90
       50
102
RTVSPost2010PropOp37
 70
     1
102
RTVSPost2010Prop38
140
0.0
102
RTVSPost2010PropOp38
 70
     1
102
RTVSPost2010Prop39
140
1.0
102
RTVSPost2010PropOp39
 70
     1
102
RTVSPost2010Prop40
 90
        0
102
RTVSPost2010PropOp40
 70
     1
102
RTVSPost2010Prop41ColorIndex
 90
       18
102
RTVSPost2010Prop41ColorRGB
 90
        0
102
RTVSPost2010PropOp41
 70
     1
102
RTVSPost2010Prop42
 90
       50
102
RTVSPost2010PropOp42
 70
     1
102
RTVSPost2010Prop43
 90
        3
102
RTVSPost2010PropOp43
 70
     1
102
RTVSPost2010Prop44ColorIndex
 90
        5
102
RTVSPost2010Prop44ColorRGB
 90
      255
102
RTVSPost2010PropOp44
 70
     1
102
RTVSPost2010Prop45
280
     0
102
RTVSPost2010PropOp45
 70
     1
102
RTVSPost2010Prop46
 90
       50
102
RTVSPost2010PropOp46
 70
     1
102
RTVSPost2010Prop47
 90
       50
102
RTVSPost2010PropOp47
 70
     1
102
RTVSPost2010Prop48
 90
       50
102
RTVSPost2010PropOp48
 70
     1
102
RTVSPost2010Prop49
280
     0
102
RTVSPost2010PropOp49
 70
     1
102
RTVSPost2010Prop50
 90
       50
102
RTVSPost2010PropOp50
 70
     1
102
RTVSPost2010Prop51ColorIndex
 90
      256
102
RTVSPost2010Prop51ColorRGB
 90
-16777216
102
RTVSPost2010PropOp51
 70
     0
102
RTVSPost2010Prop52
140
1.0
102
RTVSPost2010PropOp52
 70
     0
102
RTVSPost2010Prop53
 90
        2
102
RTVSPost2010PropOp53
 70
     1
102
RTVSPost2010Prop54
  1
strokes_ogs.tif
102
RTVSPost2010PropOp54
 70
     1
102
RTVSPost2010Prop55
280
     0
102
RTVSPost2010PropOp55
 70
     1
102
RTVSPost2010Prop56
140
1.0
102
RTVSPost2010PropOp56
 70
     1
102
RTVSPost2010Prop57
140
1.0
102
RTVSPost2010PropOp57
 70
     1
  0
XRECORD
  5
9D2
102
{ACAD_REACTORS
330
9D1
102
}
330
9D1
100
AcDbXrecord
280
     1
102
RTVSPropertyOp33
 70
     0
102
RTVSPropertyOp34
 70
     0
102
RTVSPropertyOp35
 70
     0
102
RTVSPropertyOp36
 70
     0
102
RTVSPropertyOp37
 70
     0
102
RTVSPropertyOp38
 70
     0
102
RTVSPropertyOp39
 70
     0
102
RTVSPropertyOp40
 70
     0
102
RTVSPropertyOp41
 70
     0
102
RTVSPropertyOp42
 70
     0
102
RTVSPropertyOp43
 70
     0
102
RTVSPropertyOp44
 70
     0
102
RTVSPropertyOp45
 70
     0
102
RTVSPropertyOp46
 70
     0
102
RTVSPropertyOp47
 70
     0
102
RTVSPropertyOp48
 70
     0
102
RTVSPropertyOp49
 70
     0
102
RTVSPropertyOp50
 70
     0
102
RTVSPropertyOp51
 70
     0
102
RTVSPropertyOp52
 70
     0
102
RTVSPropertyOp53
 70
     0
102
RTVSPropertyOp54
 70
     0
102
RTVSPropertyOp55
 70
     0
102
RTVSPropertyOp56
 70
     0
102
RTVSPropertyOp57
 70
     0
102
RTVSPost2010Prop28
280
     0
102
RTVSPost2010PropOp28
 70
     0
102
RTVSPost2010Prop29
280
     1
102
RTVSPost2010PropOp29
 70
     0
102
RTVSPost2010Prop30
280
     1
102
RTVSPost2010PropOp30
 70
     0
102
RTVSPost2010Prop31
280
     0
102
RTVSPost2010PropOp31
 70
     0
102
RTVSPost2010Prop32
280
     0
102
RTVSPost2010PropOp32
 70
     0
102
RTVSPost2010Prop33
280
     0
102
RTVSPost2010PropOp33
 70
     0
102
RTVSPost2010Prop34
280
     0
102
RTVSPost2010PropOp34
 70
     0
102
RTVSPost2010Prop35
280
     0
102
RTVSPost2010PropOp35
 70
     0
102
RTVSPost2010Prop36
280
     0
102
RTVSPost2010PropOp36
 70
     0
102
RTVSPost2010Prop37
 90
       50
102
RTVSPost2010PropOp37
 70
     0
102
RTVSPost2010Prop38
140
0.0
102
RTVSPost2010PropOp38
 70
     0
102
RTVSPost2010Prop39
140
1.0
102
RTVSPost2010PropOp39
 70
     0
102
RTVSPost2010Prop40
 90
        0
102
RTVSPost2010PropOp40
 70
     0
102
RTVSPost2010Prop41ColorIndex
 90
       18
102
RTVSPost2010Prop41ColorRGB
 90
        0
102
RTVSPost2010PropOp41
 70
     0
102
RTVSPost2010Prop42
 90
       50
102
RTVSPost2010PropOp42
 70
     0
102
RTVSPost2010Prop43
 90
        3
102
RTVSPost2010PropOp43
 70
     0
102
RTVSPost2010Prop44ColorIndex
 90
        5
102
RTVSPost2010Prop44ColorRGB
 90
      255
102
RTVSPost2010PropOp44
 70
     0
102
RTVSPost2010Prop45
280
     0
102
RTVSPost2010PropOp45
 70
     0
102
RTVSPost2010Prop46
 90
       50
102
RTVSPost2010PropOp46
 70
     0
102
RTVSPost2010Prop47
 90
       50
102
RTVSPost2010PropOp47
 70
     0
102
RTVSPost2010Prop48
 90
       50
102
RTVSPost2010PropOp48
 70
     0
102
RTVSPost2010Prop49
280
     0
102
RTVSPost2010PropOp49
 70
     0
102
RTVSPost2010Prop50
 90
       50
102
RTVSPost2010PropOp50
 70
     0
102
RTVSPost2010Prop51ColorIndex
 90
      256
102
RTVSPost2010Prop51ColorRGB
 90
-16777216
102
RTVSPost2010PropOp51
 70
     0
102
RTVSPost2010Prop52
140
1.0
102
RTVSPost2010PropOp52
 70
     0
102
RTVSPost2010Prop53
 90
        2
102
RTVSPost2010PropOp53
 70
     0
102
RTVSPost2010Prop54
  1
strokes_ogs.tif
102
RTVSPost2010PropOp54
 70
     0
102
RTVSPost2010Prop55
280
     0
102
RTVSPost2010PropOp55
 70
     0
102
RTVSPost2010Prop56
140
1.0
102
RTVSPost2010PropOp56
 70
     0
102
RTVSPost2010Prop57
140
1.0
102
RTVSPost2010PropOp57
 70
     0
  0
XRECORD
  5
9CA
102
{ACAD_REACTORS
330
9C9
102
}
330
9C9
100
AcDbXrecord
280
     1
102
RTVSPropertyOp33
 70
     1
102
RTVSPropertyOp34
 70
     1
102
RTVSPropertyOp35
 70
     1
102
RTVSPropertyOp36
 70
     1
102
RTVSPropertyOp37
 70
     1
102
RTVSPropertyOp38
 70
     1
102
RTVSPropertyOp39
 70
     1
102
RTVSPropertyOp40
 70
     1
102
RTVSPropertyOp41
 70
     1
102
RTVSPropertyOp42
 70
     1
102
RTVSPropertyOp43
 70
     1
102
RTVSPropertyOp44
 70
     1
102
RTVSPropertyOp45
 70
     1
102
RTVSPropertyOp46
 70
     1
102
RTVSPropertyOp47
 70
     1
102
RTVSPropertyOp48
 70
     1
102
RTVSPropertyOp49
 70
     1
102
RTVSPropertyOp50
 70
     1
102
RTVSPropertyOp51
 70
     0
102
RTVSPropertyOp52
 70
     0
102
RTVSPropertyOp53
 70
     1
102
RTVSPropertyOp54
 70
     1
102
RTVSPropertyOp55
 70
     1
102
RTVSPropertyOp56
 70
     1
102
RTVSPropertyOp57
 70
     1
102
RTVSPost2010Prop28
280
     0
102
RTVSPost2010PropOp28
 70
     1
102
RTVSPost2010Prop29
280
     1
102
RTVSPost2010PropOp29
 70
     1
102
RTVSPost2010Prop30
280
     1
102
RTVSPost2010PropOp30
 70
     1
102
RTVSPost2010Prop31
280
     0
102
RTVSPost2010PropOp31
 70
     1
102
RTVSPost2010Prop32
280
     0
102
RTVSPost2010PropOp32
 70
     1
102
RTVSPost2010Prop33
280
     0
102
RTVSPost2010PropOp33
 70
     1
102
RTVSPost2010Prop34
280
     0
102
RTVSPost2010PropOp34
 70
     1
102
RTVSPost2010Prop35
280
     0
102
RTVSPost2010PropOp35
 70
     1
102
RTVSPost2010Prop36
280
     0
102
RTVSPost2010PropOp36
 70
     1
102
RTVSPost2010Prop37
 90
       50
102
RTVSPost2010PropOp37
 70
     1
102
RTVSPost2010Prop38
140
0.0
102
RTVSPost2010PropOp38
 70
     1
102
RTVSPost2010Prop39
140
1.0
102
RTVSPost2010PropOp39
 70
     1
102
RTVSPost2010Prop40
 90
        0
102
RTVSPost2010PropOp40
 70
     1
102
RTVSPost2010Prop41ColorIndex
 90
       18
102
RTVSPost2010Prop41ColorRGB
 90
        0
102
RTVSPost2010PropOp41
 70
     1
102
RTVSPost2010Prop42
 90
       50
102
RTVSPost2010PropOp42
 70
     1
102
RTVSPost2010Prop43
 90
        3
102
RTVSPost2010PropOp43
 70
     1
102
RTVSPost2010Prop44ColorIndex
 90
        5
102
RTVSPost2010Prop44ColorRGB
 90
      255
102
RTVSPost2010PropOp44
 70
     1
102
RTVSPost2010Prop45
280
     0
102
RTVSPost2010PropOp45
 70
     1
102
RTVSPost2010Prop46
 90
       50
102
RTVSPost2010PropOp46
 70
     1
102
RTVSPost2010Prop47
 90
       50
102
RTVSPost2010PropOp47
 70
     1
102
RTVSPost2010Prop48
 90
       50
102
RTVSPost2010PropOp48
 70
     1
102
RTVSPost2010Prop49
280
     0
102
RTVSPost2010PropOp49
 70
     1
102
RTVSPost2010Prop50
 90
       50
102
RTVSPost2010PropOp50
 70
     1
102
RTVSPost2010Prop51ColorIndex
 90
      256
102
RTVSPost2010Prop51ColorRGB
 90
-16777216
102
RTVSPost2010PropOp51
 70
     0
102
RTVSPost2010Prop52
140
1.0
102
RTVSPost2010PropOp52
 70
     0
102
RTVSPost2010Prop53
 90
        2
102
RTVSPost2010PropOp53
 70
     1
102
RTVSPost2010Prop54
  1
strokes_ogs.tif
102
RTVSPost2010PropOp54
 70
     1
102
RTVSPost2010Prop55
280
     0
102
RTVSPost2010PropOp55
 70
     1
102
RTVSPost2010Prop56
140
1.0
102
RTVSPost2010PropOp56
 70
     1
102
RTVSPost2010Prop57
140
1.0
102
RTVSPost2010PropOp57
 70
     1
  0
XRECORD
  5
9AE
102
{ACAD_REACTORS
330
9AD
102
}
330
9AD
100
AcDbXrecord
280
     1
102
RTVSPropertyOp33
 70
     1
102
RTVSPropertyOp34
 70
     1
102
RTVSPropertyOp35
 70
     1
102
RTVSPropertyOp36
 70
     1
102
RTVSPropertyOp37
 70
     1
102
RTVSPropertyOp38
 70
     1
102
RTVSPropertyOp39
 70
     1
102
RTVSPropertyOp40
 70
     1
102
RTVSPropertyOp41
 70
     1
102
RTVSPropertyOp42
 70
     1
102
RTVSPropertyOp43
 70
     1
102
RTVSPropertyOp44
 70
     1
102
RTVSPropertyOp45
 70
     1
102
RTVSPropertyOp46
 70
     1
102
RTVSPropertyOp47
 70
     1
102
RTVSPropertyOp48
 70
     1
102
RTVSPropertyOp49
 70
     1
102
RTVSPropertyOp50
 70
     1
102
RTVSPropertyOp51
 70
     0
102
RTVSPropertyOp52
 70
     0
102
RTVSPropertyOp53
 70
     1
102
RTVSPropertyOp54
 70
     1
102
RTVSPropertyOp55
 70
     1
102
RTVSPropertyOp56
 70
     1
102
RTVSPropertyOp57
 70
     1
102
RTVSPost2010Prop28
280
     0
102
RTVSPost2010PropOp28
 70
     1
102
RTVSPost2010Prop29
280
     1
102
RTVSPost2010PropOp29
 70
     1
102
RTVSPost2010Prop30
280
     1
102
RTVSPost2010PropOp30
 70
     1
102
RTVSPost2010Prop31
280
     0
102
RTVSPost2010PropOp31
 70
     1
102
RTVSPost2010Prop32
280
     0
102
RTVSPost2010PropOp32
 70
     1
102
RTVSPost2010Prop33
280
     0
102
RTVSPost2010PropOp33
 70
     1
102
RTVSPost2010Prop34
280
     0
102
RTVSPost2010PropOp34
 70
     1
102
RTVSPost2010Prop35
280
     0
102
RTVSPost2010PropOp35
 70
     1
102
RTVSPost2010Prop36
280
     0
102
RTVSPost2010PropOp36
 70
     1
102
RTVSPost2010Prop37
 90
       50
102
RTVSPost2010PropOp37
 70
     1
102
RTVSPost2010Prop38
140
0.0
102
RTVSPost2010PropOp38
 70
     1
102
RTVSPost2010Prop39
140
1.0
102
RTVSPost2010PropOp39
 70
     1
102
RTVSPost2010Prop40
 90
        0
102
RTVSPost2010PropOp40
 70
     1
102
RTVSPost2010Prop41ColorIndex
 90
       18
102
RTVSPost2010Prop41ColorRGB
 90
        0
102
RTVSPost2010PropOp41
 70
     1
102
RTVSPost2010Prop42
 90
       50
102
RTVSPost2010PropOp42
 70
     1
102
RTVSPost2010Prop43
 90
        3
102
RTVSPost2010PropOp43
 70
     1
102
RTVSPost2010Prop44ColorIndex
 90
        5
102
RTVSPost2010Prop44ColorRGB
 90
      255
102
RTVSPost2010PropOp44
 70
     1
102
RTVSPost2010Prop45
280
     0
102
RTVSPost2010PropOp45
 70
     1
102
RTVSPost2010Prop46
 90
       50
102
RTVSPost2010PropOp46
 70
     1
102
RTVSPost2010Prop47
 90
       50
102
RTVSPost2010PropOp47
 70
     1
102
RTVSPost2010Prop48
 90
       50
102
RTVSPost2010PropOp48
 70
     1
102
RTVSPost2010Prop49
280
     0
102
RTVSPost2010PropOp49
 70
     1
102
RTVSPost2010Prop50
 90
       50
102
RTVSPost2010PropOp50
 70
     1
102
RTVSPost2010Prop51ColorIndex
 90
      256
102
RTVSPost2010Prop51ColorRGB
 90
-16777216
102
RTVSPost2010PropOp51
 70
     0
102
RTVSPost2010Prop52
140
1.0
102
RTVSPost2010PropOp52
 70
     0
102
RTVSPost2010Prop53
 90
        2
102
RTVSPost2010PropOp53
 70
     1
102
RTVSPost2010Prop54
  1
strokes_ogs.tif
102
RTVSPost2010PropOp54
 70
     1
102
RTVSPost2010Prop55
280
     0
102
RTVSPost2010PropOp55
 70
     1
102
RTVSPost2010Prop56
140
1.0
102
RTVSPost2010PropOp56
 70
     1
102
RTVSPost2010Prop57
140
1.0
102
RTVSPost2010PropOp57
 70
     1
  0
XRECORD
  5
9B0
102
{ACAD_REACTORS
330
9AF
102
}
330
9AF
100
AcDbXrecord
280
     1
102
RTVSPropertyOp33
 70
     1
102
RTVSPropertyOp34
 70
     1
102
RTVSPropertyOp35
 70
     1
102
RTVSPropertyOp36
 70
     1
102
RTVSPropertyOp37
 70
     1
102
RTVSPropertyOp38
 70
     1
102
RTVSPropertyOp39
 70
     1
102
RTVSPropertyOp40
 70
     1
102
RTVSPropertyOp41
 70
     1
102
RTVSPropertyOp42
 70
     1
102
RTVSPropertyOp43
 70
     1
102
RTVSPropertyOp44
 70
     1
102
RTVSPropertyOp45
 70
     1
102
RTVSPropertyOp46
 70
     1
102
RTVSPropertyOp47
 70
     1
102
RTVSPropertyOp48
 70
     1
102
RTVSPropertyOp49
 70
     1
102
RTVSPropertyOp50
 70
     1
102
RTVSPropertyOp51
 70
     0
102
RTVSPropertyOp52
 70
     0
102
RTVSPropertyOp53
 70
     1
102
RTVSPropertyOp54
 70
     1
102
RTVSPropertyOp55
 70
     1
102
RTVSPropertyOp56
 70
     1
102
RTVSPropertyOp57
 70
     1
102
RTVSPost2010Prop28
280
     0
102
RTVSPost2010PropOp28
 70
     1
102
RTVSPost2010Prop29
280
     1
102
RTVSPost2010PropOp29
 70
     1
102
RTVSPost2010Prop30
280
     1
102
RTVSPost2010PropOp30
 70
     1
102
RTVSPost2010Prop31
280
     0
102
RTVSPost2010PropOp31
 70
     1
102
RTVSPost2010Prop32
280
     0
102
RTVSPost2010PropOp32
 70
     1
102
RTVSPost2010Prop33
280
     0
102
RTVSPost2010PropOp33
 70
     1
102
RTVSPost2010Prop34
280
     0
102
RTVSPost2010PropOp34
 70
     1
102
RTVSPost2010Prop35
280
     0
102
RTVSPost2010PropOp35
 70
     1
102
RTVSPost2010Prop36
280
     0
102
RTVSPost2010PropOp36
 70
     1
102
RTVSPost2010Prop37
 90
       50
102
RTVSPost2010PropOp37
 70
     1
102
RTVSPost2010Prop38
140
0.0
102
RTVSPost2010PropOp38
 70
     1
102
RTVSPost2010Prop39
140
1.0
102
RTVSPost2010PropOp39
 70
     1
102
RTVSPost2010Prop40
 90
        0
102
RTVSPost2010PropOp40
 70
     1
102
RTVSPost2010Prop41ColorIndex
 90
       18
102
RTVSPost2010Prop41ColorRGB
 90
        0
102
RTVSPost2010PropOp41
 70
     1
102
RTVSPost2010Prop42
 90
       50
102
RTVSPost2010PropOp42
 70
     1
102
RTVSPost2010Prop43
 90
        3
102
RTVSPost2010PropOp43
 70
     1
102
RTVSPost2010Prop44ColorIndex
 90
        5
102
RTVSPost2010Prop44ColorRGB
 90
      255
102
RTVSPost2010PropOp44
 70
     1
102
RTVSPost2010Prop45
280
     0
102
RTVSPost2010PropOp45
 70
     1
102
RTVSPost2010Prop46
 90
       50
102
RTVSPost2010PropOp46
 70
     1
102
RTVSPost2010Prop47
 90
       50
102
RTVSPost2010PropOp47
 70
     1
102
RTVSPost2010Prop48
 90
       50
102
RTVSPost2010PropOp48
 70
     1
102
RTVSPost2010Prop49
280
     0
102
RTVSPost2010PropOp49
 70
     1
102
RTVSPost2010Prop50
 90
       50
102
RTVSPost2010PropOp50
 70
     1
102
RTVSPost2010Prop51ColorIndex
 90
      256
102
RTVSPost2010Prop51ColorRGB
 90
-16777216
102
RTVSPost2010PropOp51
 70
     0
102
RTVSPost2010Prop52
140
1.0
102
RTVSPost2010PropOp52
 70
     0
102
RTVSPost2010Prop53
 90
        2
102
RTVSPost2010PropOp53
 70
     1
102
RTVSPost2010Prop54
  1
strokes_ogs.tif
102
RTVSPost2010PropOp54
 70
     1
102
RTVSPost2010Prop55
280
     0
102
RTVSPost2010PropOp55
 70
     1
102
RTVSPost2010Prop56
140
1.0
102
RTVSPost2010PropOp56
 70
     1
102
RTVSPost2010Prop57
140
1.0
102
RTVSPost2010PropOp57
 70
     1
  0
XRECORD
  5
9B2
102
{ACAD_REACTORS
330
9B1
102
}
330
9B1
100
AcDbXrecord
280
     1
102
RTVSPropertyOp33
 70
     1
102
RTVSPropertyOp34
 70
     1
102
RTVSPropertyOp35
 70
     1
102
RTVSPropertyOp36
 70
     1
102
RTVSPropertyOp37
 70
     1
102
RTVSPropertyOp38
 70
     1
102
RTVSPropertyOp39
 70
     1
102
RTVSPropertyOp40
 70
     1
102
RTVSPropertyOp41
 70
     1
102
RTVSPropertyOp42
 70
     1
102
RTVSPropertyOp43
 70
     1
102
RTVSPropertyOp44
 70
     1
102
RTVSPropertyOp45
 70
     1
102
RTVSPropertyOp46
 70
     1
102
RTVSPropertyOp47
 70
     1
102
RTVSPropertyOp48
 70
     1
102
RTVSPropertyOp49
 70
     1
102
RTVSPropertyOp50
 70
     1
102
RTVSPropertyOp51
 70
     0
102
RTVSPropertyOp52
 70
     0
102
RTVSPropertyOp53
 70
     1
102
RTVSPropertyOp54
 70
     1
102
RTVSPropertyOp55
 70
     1
102
RTVSPropertyOp56
 70
     1
102
RTVSPropertyOp57
 70
     1
102
RTVSPost2010Prop28
280
     0
102
RTVSPost2010PropOp28
 70
     1
102
RTVSPost2010Prop29
280
     1
102
RTVSPost2010PropOp29
 70
     1
102
RTVSPost2010Prop30
280
     1
102
RTVSPost2010PropOp30
 70
     1
102
RTVSPost2010Prop31
280
     0
102
RTVSPost2010PropOp31
 70
     1
102
RTVSPost2010Prop32
280
     0
102
RTVSPost2010PropOp32
 70
     1
102
RTVSPost2010Prop33
280
     0
102
RTVSPost2010PropOp33
 70
     1
102
RTVSPost2010Prop34
280
     0
102
RTVSPost2010PropOp34
 70
     1
102
RTVSPost2010Prop35
280
     0
102
RTVSPost2010PropOp35
 70
     1
102
RTVSPost2010Prop36
280
     0
102
RTVSPost2010PropOp36
 70
     1
102
RTVSPost2010Prop37
 90
       50
102
RTVSPost2010PropOp37
 70
     1
102
RTVSPost2010Prop38
140
0.0
102
RTVSPost2010PropOp38
 70
     1
102
RTVSPost2010Prop39
140
1.0
102
RTVSPost2010PropOp39
 70
     1
102
RTVSPost2010Prop40
 90
        0
102
RTVSPost2010PropOp40
 70
     1
102
RTVSPost2010Prop41ColorIndex
 90
       18
102
RTVSPost2010Prop41ColorRGB
 90
        0
102
RTVSPost2010PropOp41
 70
     1
102
RTVSPost2010Prop42
 90
       50
102
RTVSPost2010PropOp42
 70
     1
102
RTVSPost2010Prop43
 90
        3
102
RTVSPost2010PropOp43
 70
     1
102
RTVSPost2010Prop44ColorIndex
 90
        5
102
RTVSPost2010Prop44ColorRGB
 90
      255
102
RTVSPost2010PropOp44
 70
     1
102
RTVSPost2010Prop45
280
     0
102
RTVSPost2010PropOp45
 70
     1
102
RTVSPost2010Prop46
 90
       50
102
RTVSPost2010PropOp46
 70
     1
102
RTVSPost2010Prop47
 90
       50
102
RTVSPost2010PropOp47
 70
     1
102
RTVSPost2010Prop48
 90
       50
102
RTVSPost2010PropOp48
 70
     1
102
RTVSPost2010Prop49
280
     0
102
RTVSPost2010PropOp49
 70
     1
102
RTVSPost2010Prop50
 90
       50
102
RTVSPost2010PropOp50
 70
     1
102
RTVSPost2010Prop51ColorIndex
 90
      256
102
RTVSPost2010Prop51ColorRGB
 90
-16777216
102
RTVSPost2010PropOp51
 70
     0
102
RTVSPost2010Prop52
140
1.0
102
RTVSPost2010PropOp52
 70
     0
102
RTVSPost2010Prop53
 90
        2
102
RTVSPost2010PropOp53
 70
     1
102
RTVSPost2010Prop54
  1
strokes_ogs.tif
102
RTVSPost2010PropOp54
 70
     1
102
RTVSPost2010Prop55
280
     0
102
RTVSPost2010PropOp55
 70
     1
102
RTVSPost2010Prop56
140
1.0
102
RTVSPost2010PropOp56
 70
     1
102
RTVSPost2010Prop57
140
1.0
102
RTVSPost2010PropOp57
 70
     1
  0
XRECORD
  5
9B4
102
{ACAD_REACTORS
330
9B3
102
}
330
9B3
100
AcDbXrecord
280
     1
102
RTVSPropertyOp33
 70
     1
102
RTVSPropertyOp34
 70
     1
102
RTVSPropertyOp35
 70
     1
102
RTVSPropertyOp36
 70
     1
102
RTVSPropertyOp37
 70
     1
102
RTVSPropertyOp38
 70
     1
102
RTVSPropertyOp39
 70
     1
102
RTVSPropertyOp40
 70
     1
102
RTVSPropertyOp41
 70
     1
102
RTVSPropertyOp42
 70
     1
102
RTVSPropertyOp43
 70
     1
102
RTVSPropertyOp44
 70
     1
102
RTVSPropertyOp45
 70
     1
102
RTVSPropertyOp46
 70
     1
102
RTVSPropertyOp47
 70
     1
102
RTVSPropertyOp48
 70
     1
102
RTVSPropertyOp49
 70
     1
102
RTVSPropertyOp50
 70
     1
102
RTVSPropertyOp51
 70
     0
102
RTVSPropertyOp52
 70
     0
102
RTVSPropertyOp53
 70
     1
102
RTVSPropertyOp54
 70
     1
102
RTVSPropertyOp55
 70
     1
102
RTVSPropertyOp56
 70
     1
102
RTVSPropertyOp57
 70
     1
102
RTVSPost2010Prop28
280
     0
102
RTVSPost2010PropOp28
 70
     1
102
RTVSPost2010Prop29
280
     1
102
RTVSPost2010PropOp29
 70
     1
102
RTVSPost2010Prop30
280
     1
102
RTVSPost2010PropOp30
 70
     1
102
RTVSPost2010Prop31
280
     0
102
RTVSPost2010PropOp31
 70
     1
102
RTVSPost2010Prop32
280
     0
102
RTVSPost2010PropOp32
 70
     1
102
RTVSPost2010Prop33
280
     0
102
RTVSPost2010PropOp33
 70
     1
102
RTVSPost2010Prop34
280
     0
102
RTVSPost2010PropOp34
 70
     1
102
RTVSPost2010Prop35
280
     0
102
RTVSPost2010PropOp35
 70
     1
102
RTVSPost2010Prop36
280
     0
102
RTVSPost2010PropOp36
 70
     1
102
RTVSPost2010Prop37
 90
       50
102
RTVSPost2010PropOp37
 70
     1
102
RTVSPost2010Prop38
140
0.0
102
RTVSPost2010PropOp38
 70
     1
102
RTVSPost2010Prop39
140
1.0
102
RTVSPost2010PropOp39
 70
     1
102
RTVSPost2010Prop40
 90
        0
102
RTVSPost2010PropOp40
 70
     1
102
RTVSPost2010Prop41ColorIndex
 90
       18
102
RTVSPost2010Prop41ColorRGB
 90
        0
102
RTVSPost2010PropOp41
 70
     1
102
RTVSPost2010Prop42
 90
       50
102
RTVSPost2010PropOp42
 70
     1
102
RTVSPost2010Prop43
 90
        3
102
RTVSPost2010PropOp43
 70
     1
102
RTVSPost2010Prop44ColorIndex
 90
        5
102
RTVSPost2010Prop44ColorRGB
 90
      255
102
RTVSPost2010PropOp44
 70
     1
102
RTVSPost2010Prop45
280
     0
102
RTVSPost2010PropOp45
 70
     1
102
RTVSPost2010Prop46
 90
       50
102
RTVSPost2010PropOp46
 70
     1
102
RTVSPost2010Prop47
 90
       50
102
RTVSPost2010PropOp47
 70
     1
102
RTVSPost2010Prop48
 90
       50
102
RTVSPost2010PropOp48
 70
     1
102
RTVSPost2010Prop49
280
     0
102
RTVSPost2010PropOp49
 70
     1
102
RTVSPost2010Prop50
 90
       50
102
RTVSPost2010PropOp50
 70
     1
102
RTVSPost2010Prop51ColorIndex
 90
      256
102
RTVSPost2010Prop51ColorRGB
 90
-16777216
102
RTVSPost2010PropOp51
 70
     0
102
RTVSPost2010Prop52
140
1.0
102
RTVSPost2010PropOp52
 70
     0
102
RTVSPost2010Prop53
 90
        2
102
RTVSPost2010PropOp53
 70
     1
102
RTVSPost2010Prop54
  1
strokes_ogs.tif
102
RTVSPost2010PropOp54
 70
     1
102
RTVSPost2010Prop55
280
     0
102
RTVSPost2010PropOp55
 70
     1
102
RTVSPost2010Prop56
140
1.0
102
RTVSPost2010PropOp56
 70
     1
102
RTVSPost2010Prop57
140
1.0
102
RTVSPost2010PropOp57
 70
     1
  0
XRECORD
  5
9BA
102
{ACAD_REACTORS
330
9B9
102
}
330
9B9
100
AcDbXrecord
280
     1
102
RTVSPropertyOp33
 70
     1
102
RTVSPropertyOp34
 70
     1
102
RTVSPropertyOp35
 70
     1
102
RTVSPropertyOp36
 70
     1
102
RTVSPropertyOp37
 70
     1
102
RTVSPropertyOp38
 70
     1
102
RTVSPropertyOp39
 70
     1
102
RTVSPropertyOp40
 70
     1
102
RTVSPropertyOp41
 70
     1
102
RTVSPropertyOp42
 70
     1
102
RTVSPropertyOp43
 70
     1
102
RTVSPropertyOp44
 70
     1
102
RTVSPropertyOp45
 70
     1
102
RTVSPropertyOp46
 70
     1
102
RTVSPropertyOp47
 70
     1
102
RTVSPropertyOp48
 70
     1
102
RTVSPropertyOp49
 70
     1
102
RTVSPropertyOp50
 70
     1
102
RTVSPropertyOp51
 70
     0
102
RTVSPropertyOp52
 70
     0
102
RTVSPropertyOp53
 70
     1
102
RTVSPropertyOp54
 70
     1
102
RTVSPropertyOp55
 70
     1
102
RTVSPropertyOp56
 70
     1
102
RTVSPropertyOp57
 70
     1
102
RTVSPost2010Prop28
280
     0
102
RTVSPost2010PropOp28
 70
     1
102
RTVSPost2010Prop29
280
     1
102
RTVSPost2010PropOp29
 70
     1
102
RTVSPost2010Prop30
280
     1
102
RTVSPost2010PropOp30
 70
     1
102
RTVSPost2010Prop31
280
     0
102
RTVSPost2010PropOp31
 70
     1
102
RTVSPost2010Prop32
280
     0
102
RTVSPost2010PropOp32
 70
     1
102
RTVSPost2010Prop33
280
     0
102
RTVSPost2010PropOp33
 70
     1
102
RTVSPost2010Prop34
280
     0
102
RTVSPost2010PropOp34
 70
     1
102
RTVSPost2010Prop35
280
     0
102
RTVSPost2010PropOp35
 70
     1
102
RTVSPost2010Prop36
280
     0
102
RTVSPost2010PropOp36
 70
     1
102
RTVSPost2010Prop37
 90
       50
102
RTVSPost2010PropOp37
 70
     1
102
RTVSPost2010Prop38
140
0.0
102
RTVSPost2010PropOp38
 70
     1
102
RTVSPost2010Prop39
140
1.0
102
RTVSPost2010PropOp39
 70
     1
102
RTVSPost2010Prop40
 90
        0
102
RTVSPost2010PropOp40
 70
     1
102
RTVSPost2010Prop41ColorIndex
 90
       18
102
RTVSPost2010Prop41ColorRGB
 90
        0
102
RTVSPost2010PropOp41
 70
     1
102
RTVSPost2010Prop42
 90
       50
102
RTVSPost2010PropOp42
 70
     1
102
RTVSPost2010Prop43
 90
        3
102
RTVSPost2010PropOp43
 70
     1
102
RTVSPost2010Prop44ColorIndex
 90
        5
102
RTVSPost2010Prop44ColorRGB
 90
      255
102
RTVSPost2010PropOp44
 70
     1
102
RTVSPost2010Prop45
280
     0
102
RTVSPost2010PropOp45
 70
     1
102
RTVSPost2010Prop46
 90
       50
102
RTVSPost2010PropOp46
 70
     1
102
RTVSPost2010Prop47
 90
       50
102
RTVSPost2010PropOp47
 70
     1
102
RTVSPost2010Prop48
 90
       50
102
RTVSPost2010PropOp48
 70
     1
102
RTVSPost2010Prop49
280
     0
102
RTVSPost2010PropOp49
 70
     1
102
RTVSPost2010Prop50
 90
       50
102
RTVSPost2010PropOp50
 70
     1
102
RTVSPost2010Prop51ColorIndex
 90
      256
102
RTVSPost2010Prop51ColorRGB
 90
-16777216
102
RTVSPost2010PropOp51
 70
     0
102
RTVSPost2010Prop52
140
1.0
102
RTVSPost2010PropOp52
 70
     0
102
RTVSPost2010Prop53
 90
        2
102
RTVSPost2010PropOp53
 70
     1
102
RTVSPost2010Prop54
  1
strokes_ogs.tif
102
RTVSPost2010PropOp54
 70
     1
102
RTVSPost2010Prop55
280
     0
102
RTVSPost2010PropOp55
 70
     1
102
RTVSPost2010Prop56
140
1.0
102
RTVSPost2010PropOp56
 70
     1
102
RTVSPost2010Prop57
140
1.0
102
RTVSPost2010PropOp57
 70
     1
  0
XRECORD
  5
9CE
102
{ACAD_REACTORS
330
9CD
102
}
330
9CD
100
AcDbXrecord
280
     1
102
RTVSPropertyOp33
 70
     0
102
RTVSPropertyOp34
 70
     0
102
RTVSPropertyOp35
 70
     0
102
RTVSPropertyOp36
 70
     0
102
RTVSPropertyOp37
 70
     0
102
RTVSPropertyOp38
 70
     0
102
RTVSPropertyOp39
 70
     0
102
RTVSPropertyOp40
 70
     0
102
RTVSPropertyOp41
 70
     0
102
RTVSPropertyOp42
 70
     0
102
RTVSPropertyOp43
 70
     0
102
RTVSPropertyOp44
 70
     0
102
RTVSPropertyOp45
 70
     0
102
RTVSPropertyOp46
 70
     0
102
RTVSPropertyOp47
 70
     0
102
RTVSPropertyOp48
 70
     0
102
RTVSPropertyOp49
 70
     0
102
RTVSPropertyOp50
 70
     0
102
RTVSPropertyOp51
 70
     0
102
RTVSPropertyOp52
 70
     0
102
RTVSPropertyOp53
 70
     0
102
RTVSPropertyOp54
 70
     0
102
RTVSPropertyOp55
 70
     0
102
RTVSPropertyOp56
 70
     0
102
RTVSPropertyOp57
 70
     0
102
RTVSPost2010Prop28
280
     0
102
RTVSPost2010PropOp28
 70
     0
102
RTVSPost2010Prop29
280
     1
102
RTVSPost2010PropOp29
 70
     0
102
RTVSPost2010Prop30
280
     1
102
RTVSPost2010PropOp30
 70
     0
102
RTVSPost2010Prop31
280
     0
102
RTVSPost2010PropOp31
 70
     0
102
RTVSPost2010Prop32
280
     0
102
RTVSPost2010PropOp32
 70
     0
102
RTVSPost2010Prop33
280
     0
102
RTVSPost2010PropOp33
 70
     0
102
RTVSPost2010Prop34
280
     0
102
RTVSPost2010PropOp34
 70
     0
102
RTVSPost2010Prop35
280
     0
102
RTVSPost2010PropOp35
 70
     0
102
RTVSPost2010Prop36
280
     0
102
RTVSPost2010PropOp36
 70
     0
102
RTVSPost2010Prop37
 90
       50
102
RTVSPost2010PropOp37
 70
     0
102
RTVSPost2010Prop38
140
0.0
102
RTVSPost2010PropOp38
 70
     0
102
RTVSPost2010Prop39
140
1.0
102
RTVSPost2010PropOp39
 70
     0
102
RTVSPost2010Prop40
 90
        0
102
RTVSPost2010PropOp40
 70
     0
102
RTVSPost2010Prop41ColorIndex
 90
       18
102
RTVSPost2010Prop41ColorRGB
 90
        0
102
RTVSPost2010PropOp41
 70
     0
102
RTVSPost2010Prop42
 90
       50
102
RTVSPost2010PropOp42
 70
     0
102
RTVSPost2010Prop43
 90
        3
102
RTVSPost2010PropOp43
 70
     0
102
RTVSPost2010Prop44ColorIndex
 90
        5
102
RTVSPost2010Prop44ColorRGB
 90
      255
102
RTVSPost2010PropOp44
 70
     0
102
RTVSPost2010Prop45
280
     0
102
RTVSPost2010PropOp45
 70
     0
102
RTVSPost2010Prop46
 90
       50
102
RTVSPost2010PropOp46
 70
     0
102
RTVSPost2010Prop47
 90
       50
102
RTVSPost2010PropOp47
 70
     0
102
RTVSPost2010Prop48
 90
       50
102
RTVSPost2010PropOp48
 70
     0
102
RTVSPost2010Prop49
280
     0
102
RTVSPost2010PropOp49
 70
     0
102
RTVSPost2010Prop50
 90
       50
102
RTVSPost2010PropOp50
 70
     0
102
RTVSPost2010Prop51ColorIndex
 90
      256
102
RTVSPost2010Prop51ColorRGB
 90
-16777216
102
RTVSPost2010PropOp51
 70
     0
102
RTVSPost2010Prop52
140
1.0
102
RTVSPost2010PropOp52
 70
     0
102
RTVSPost2010Prop53
 90
        2
102
RTVSPost2010PropOp53
 70
     0
102
RTVSPost2010Prop54
  1
strokes_ogs.tif
102
RTVSPost2010PropOp54
 70
     0
102
RTVSPost2010Prop55
280
     0
102
RTVSPost2010PropOp55
 70
     0
102
RTVSPost2010Prop56
140
1.0
102
RTVSPost2010PropOp56
 70
     0
102
RTVSPost2010Prop57
140
1.0
102
RTVSPost2010PropOp57
 70
     0
  0
XRECORD
  5
9C8
102
{ACAD_REACTORS
330
9C7
102
}
330
9C7
100
AcDbXrecord
280
     1
102
RTVSPropertyOp33
 70
     1
102
RTVSPropertyOp34
 70
     1
102
RTVSPropertyOp35
 70
     1
102
RTVSPropertyOp36
 70
     1
102
RTVSPropertyOp37
 70
     1
102
RTVSPropertyOp38
 70
     1
102
RTVSPropertyOp39
 70
     1
102
RTVSPropertyOp40
 70
     1
102
RTVSPropertyOp41
 70
     1
102
RTVSPropertyOp42
 70
     1
102
RTVSPropertyOp43
 70
     1
102
RTVSPropertyOp44
 70
     1
102
RTVSPropertyOp45
 70
     1
102
RTVSPropertyOp46
 70
     1
102
RTVSPropertyOp47
 70
     1
102
RTVSPropertyOp48
 70
     1
102
RTVSPropertyOp49
 70
     1
102
RTVSPropertyOp50
 70
     1
102
RTVSPropertyOp51
 70
     0
102
RTVSPropertyOp52
 70
     0
102
RTVSPropertyOp53
 70
     1
102
RTVSPropertyOp54
 70
     1
102
RTVSPropertyOp55
 70
     1
102
RTVSPropertyOp56
 70
     1
102
RTVSPropertyOp57
 70
     1
102
RTVSPost2010Prop28
280
     0
102
RTVSPost2010PropOp28
 70
     1
102
RTVSPost2010Prop29
280
     1
102
RTVSPost2010PropOp29
 70
     1
102
RTVSPost2010Prop30
280
     1
102
RTVSPost2010PropOp30
 70
     1
102
RTVSPost2010Prop31
280
     0
102
RTVSPost2010PropOp31
 70
     1
102
RTVSPost2010Prop32
280
     0
102
RTVSPost2010PropOp32
 70
     1
102
RTVSPost2010Prop33
280
     0
102
RTVSPost2010PropOp33
 70
     1
102
RTVSPost2010Prop34
280
     0
102
RTVSPost2010PropOp34
 70
     1
102
RTVSPost2010Prop35
280
     0
102
RTVSPost2010PropOp35
 70
     1
102
RTVSPost2010Prop36
280
     0
102
RTVSPost2010PropOp36
 70
     1
102
RTVSPost2010Prop37
 90
       50
102
RTVSPost2010PropOp37
 70
     1
102
RTVSPost2010Prop38
140
0.0
102
RTVSPost2010PropOp38
 70
     1
102
RTVSPost2010Prop39
140
1.0
102
RTVSPost2010PropOp39
 70
     1
102
RTVSPost2010Prop40
 90
        0
102
RTVSPost2010PropOp40
 70
     1
102
RTVSPost2010Prop41ColorIndex
 90
       18
102
RTVSPost2010Prop41ColorRGB
 90
        0
102
RTVSPost2010PropOp41
 70
     1
102
RTVSPost2010Prop42
 90
       50
102
RTVSPost2010PropOp42
 70
     1
102
RTVSPost2010Prop43
 90
        3
102
RTVSPost2010PropOp43
 70
     1
102
RTVSPost2010Prop44ColorIndex
 90
        5
102
RTVSPost2010Prop44ColorRGB
 90
      255
102
RTVSPost2010PropOp44
 70
     1
102
RTVSPost2010Prop45
280
     0
102
RTVSPost2010PropOp45
 70
     1
102
RTVSPost2010Prop46
 90
       50
102
RTVSPost2010PropOp46
 70
     1
102
RTVSPost2010Prop47
 90
       50
102
RTVSPost2010PropOp47
 70
     1
102
RTVSPost2010Prop48
 90
       50
102
RTVSPost2010PropOp48
 70
     1
102
RTVSPost2010Prop49
280
     0
102
RTVSPost2010PropOp49
 70
     1
102
RTVSPost2010Prop50
 90
       50
102
RTVSPost2010PropOp50
 70
     1
102
RTVSPost2010Prop51ColorIndex
 90
      256
102
RTVSPost2010Prop51ColorRGB
 90
-16777216
102
RTVSPost2010PropOp51
 70
     0
102
RTVSPost2010Prop52
140
1.0
102
RTVSPost2010PropOp52
 70
     0
102
RTVSPost2010Prop53
 90
        2
102
RTVSPost2010PropOp53
 70
     1
102
RTVSPost2010Prop54
  1
strokes_ogs.tif
102
RTVSPost2010PropOp54
 70
     1
102
RTVSPost2010Prop55
280
     0
102
RTVSPost2010PropOp55
 70
     1
102
RTVSPost2010Prop56
140
1.0
102
RTVSPost2010PropOp56
 70
     1
102
RTVSPost2010Prop57
140
1.0
102
RTVSPost2010PropOp57
 70
     1
  0
XRECORD
  5
9D0
102
{ACAD_REACTORS
330
9CF
102
}
330
9CF
100
AcDbXrecord
280
     1
102
RTVSPropertyOp33
 70
     0
102
RTVSPropertyOp34
 70
     0
102
RTVSPropertyOp35
 70
     0
102
RTVSPropertyOp36
 70
     0
102
RTVSPropertyOp37
 70
     0
102
RTVSPropertyOp38
 70
     0
102
RTVSPropertyOp39
 70
     0
102
RTVSPropertyOp40
 70
     0
102
RTVSPropertyOp41
 70
     0
102
RTVSPropertyOp42
 70
     0
102
RTVSPropertyOp43
 70
     0
102
RTVSPropertyOp44
 70
     0
102
RTVSPropertyOp45
 70
     0
102
RTVSPropertyOp46
 70
     0
102
RTVSPropertyOp47
 70
     0
102
RTVSPropertyOp48
 70
     0
102
RTVSPropertyOp49
 70
     0
102
RTVSPropertyOp50
 70
     0
102
RTVSPropertyOp51
 70
     0
102
RTVSPropertyOp52
 70
     0
102
RTVSPropertyOp53
 70
     0
102
RTVSPropertyOp54
 70
     0
102
RTVSPropertyOp55
 70
     0
102
RTVSPropertyOp56
 70
     0
102
RTVSPropertyOp57
 70
     0
102
RTVSPost2010Prop28
280
     0
102
RTVSPost2010PropOp28
 70
     0
102
RTVSPost2010Prop29
280
     1
102
RTVSPost2010PropOp29
 70
     0
102
RTVSPost2010Prop30
280
     1
102
RTVSPost2010PropOp30
 70
     0
102
RTVSPost2010Prop31
280
     0
102
RTVSPost2010PropOp31
 70
     0
102
RTVSPost2010Prop32
280
     0
102
RTVSPost2010PropOp32
 70
     0
102
RTVSPost2010Prop33
280
     0
102
RTVSPost2010PropOp33
 70
     0
102
RTVSPost2010Prop34
280
     0
102
RTVSPost2010PropOp34
 70
     0
102
RTVSPost2010Prop35
280
     0
102
RTVSPost2010PropOp35
 70
     0
102
RTVSPost2010Prop36
280
     0
102
RTVSPost2010PropOp36
 70
     0
102
RTVSPost2010Prop37
 90
       50
102
RTVSPost2010PropOp37
 70
     0
102
RTVSPost2010Prop38
140
0.0
102
RTVSPost2010PropOp38
 70
     0
102
RTVSPost2010Prop39
140
1.0
102
RTVSPost2010PropOp39
 70
     0
102
RTVSPost2010Prop40
 90
        0
102
RTVSPost2010PropOp40
 70
     0
102
RTVSPost2010Prop41ColorIndex
 90
       18
102
RTVSPost2010Prop41ColorRGB
 90
        0
102
RTVSPost2010PropOp41
 70
     0
102
RTVSPost2010Prop42
 90
       50
102
RTVSPost2010PropOp42
 70
     0
102
RTVSPost2010Prop43
 90
        3
102
RTVSPost2010PropOp43
 70
     0
102
RTVSPost2010Prop44ColorIndex
 90
        5
102
RTVSPost2010Prop44ColorRGB
 90
      255
102
RTVSPost2010PropOp44
 70
     0
102
RTVSPost2010Prop45
280
     0
102
RTVSPost2010PropOp45
 70
     0
102
RTVSPost2010Prop46
 90
       50
102
RTVSPost2010PropOp46
 70
     0
102
RTVSPost2010Prop47
 90
       50
102
RTVSPost2010PropOp47
 70
     0
102
RTVSPost2010Prop48
 90
       50
102
RTVSPost2010PropOp48
 70
     0
102
RTVSPost2010Prop49
280
     0
102
RTVSPost2010PropOp49
 70
     0
102
RTVSPost2010Prop50
 90
       50
102
RTVSPost2010PropOp50
 70
     0
102
RTVSPost2010Prop51ColorIndex
 90
      256
102
RTVSPost2010Prop51ColorRGB
 90
-16777216
102
RTVSPost2010PropOp51
 70
     0
102
RTVSPost2010Prop52
140
1.0
102
RTVSPost2010PropOp52
 70
     0
102
RTVSPost2010Prop53
 90
        2
102
RTVSPost2010PropOp53
 70
     0
102
RTVSPost2010Prop54
  1
strokes_ogs.tif
102
RTVSPost2010PropOp54
 70
     0
102
RTVSPost2010Prop55
280
     0
102
RTVSPost2010PropOp55
 70
     0
102
RTVSPost2010Prop56
140
1.0
102
RTVSPost2010PropOp56
 70
     0
102
RTVSPost2010Prop57
140
1.0
102
RTVSPost2010PropOp57
 70
     0
  0
XRECORD
  5
9BE
102
{ACAD_REACTORS
330
9BD
102
}
330
9BD
100
AcDbXrecord
280
     1
102
RTVSPropertyOp33
 70
     1
102
RTVSPropertyOp34
 70
     1
102
RTVSPropertyOp35
 70
     1
102
RTVSPropertyOp36
 70
     1
102
RTVSPropertyOp37
 70
     1
102
RTVSPropertyOp38
 70
     1
102
RTVSPropertyOp39
 70
     1
102
RTVSPropertyOp40
 70
     1
102
RTVSPropertyOp41
 70
     1
102
RTVSPropertyOp42
 70
     1
102
RTVSPropertyOp43
 70
     1
102
RTVSPropertyOp44
 70
     1
102
RTVSPropertyOp45
 70
     1
102
RTVSPropertyOp46
 70
     1
102
RTVSPropertyOp47
 70
     1
102
RTVSPropertyOp48
 70
     1
102
RTVSPropertyOp49
 70
     1
102
RTVSPropertyOp50
 70
     1
102
RTVSPropertyOp51
 70
     0
102
RTVSPropertyOp52
 70
     0
102
RTVSPropertyOp53
 70
     1
102
RTVSPropertyOp54
 70
     1
102
RTVSPropertyOp55
 70
     1
102
RTVSPropertyOp56
 70
     1
102
RTVSPropertyOp57
 70
     1
102
RTVSPost2010Prop28
280
     0
102
RTVSPost2010PropOp28
 70
     1
102
RTVSPost2010Prop29
280
     1
102
RTVSPost2010PropOp29
 70
     1
102
RTVSPost2010Prop30
280
     1
102
RTVSPost2010PropOp30
 70
     1
102
RTVSPost2010Prop31
280
     0
102
RTVSPost2010PropOp31
 70
     1
102
RTVSPost2010Prop32
280
     0
102
RTVSPost2010PropOp32
 70
     1
102
RTVSPost2010Prop33
280
     0
102
RTVSPost2010PropOp33
 70
     1
102
RTVSPost2010Prop34
280
     0
102
RTVSPost2010PropOp34
 70
     1
102
RTVSPost2010Prop35
280
     0
102
RTVSPost2010PropOp35
 70
     1
102
RTVSPost2010Prop36
280
     0
102
RTVSPost2010PropOp36
 70
     1
102
RTVSPost2010Prop37
 90
       50
102
RTVSPost2010PropOp37
 70
     1
102
RTVSPost2010Prop38
140
0.0
102
RTVSPost2010PropOp38
 70
     1
102
RTVSPost2010Prop39
140
1.0
102
RTVSPost2010PropOp39
 70
     1
102
RTVSPost2010Prop40
 90
        0
102
RTVSPost2010PropOp40
 70
     1
102
RTVSPost2010Prop41ColorIndex
 90
       18
102
RTVSPost2010Prop41ColorRGB
 90
        0
102
RTVSPost2010PropOp41
 70
     1
102
RTVSPost2010Prop42
 90
       50
102
RTVSPost2010PropOp42
 70
     1
102
RTVSPost2010Prop43
 90
        3
102
RTVSPost2010PropOp43
 70
     1
102
RTVSPost2010Prop44ColorIndex
 90
        5
102
RTVSPost2010Prop44ColorRGB
 90
      255
102
RTVSPost2010PropOp44
 70
     1
102
RTVSPost2010Prop45
280
     0
102
RTVSPost2010PropOp45
 70
     1
102
RTVSPost2010Prop46
 90
       50
102
RTVSPost2010PropOp46
 70
     1
102
RTVSPost2010Prop47
 90
       50
102
RTVSPost2010PropOp47
 70
     1
102
RTVSPost2010Prop48
 90
       50
102
RTVSPost2010PropOp48
 70
     1
102
RTVSPost2010Prop49
280
     0
102
RTVSPost2010PropOp49
 70
     1
102
RTVSPost2010Prop50
 90
       50
102
RTVSPost2010PropOp50
 70
     1
102
RTVSPost2010Prop51ColorIndex
 90
      256
102
RTVSPost2010Prop51ColorRGB
 90
-16777216
102
RTVSPost2010PropOp51
 70
     0
102
RTVSPost2010Prop52
140
1.0
102
RTVSPost2010PropOp52
 70
     0
102
RTVSPost2010Prop53
 90
        2
102
RTVSPost2010PropOp53
 70
     1
102
RTVSPost2010Prop54
  1
strokes_ogs.tif
102
RTVSPost2010PropOp54
 70
     1
102
RTVSPost2010Prop55
280
     0
102
RTVSPost2010PropOp55
 70
     1
102
RTVSPost2010Prop56
140
1.0
102
RTVSPost2010PropOp56
 70
     1
102
RTVSPost2010Prop57
140
1.0
102
RTVSPost2010PropOp57
 70
     1
  0
XRECORD
  5
9DC
102
{ACAD_REACTORS
330
9DB
102
}
330
9DB
100
AcDbXrecord
280
     1
102
RTVSPropertyOp33
 70
     1
102
RTVSPropertyOp34
 70
     1
102
RTVSPropertyOp35
 70
     1
102
RTVSPropertyOp36
 70
     1
102
RTVSPropertyOp37
 70
     1
102
RTVSPropertyOp38
 70
     1
102
RTVSPropertyOp39
 70
     1
102
RTVSPropertyOp40
 70
     1
102
RTVSPropertyOp41
 70
     1
102
RTVSPropertyOp42
 70
     1
102
RTVSPropertyOp43
 70
     1
102
RTVSPropertyOp44
 70
     1
102
RTVSPropertyOp45
 70
     1
102
RTVSPropertyOp46
 70
     1
102
RTVSPropertyOp47
 70
     1
102
RTVSPropertyOp48
 70
     1
102
RTVSPropertyOp49
 70
     1
102
RTVSPropertyOp50
 70
     1
102
RTVSPropertyOp51
 70
     0
102
RTVSPropertyOp52
 70
     0
102
RTVSPropertyOp53
 70
     1
102
RTVSPropertyOp54
 70
     1
102
RTVSPropertyOp55
 70
     1
102
RTVSPropertyOp56
 70
     1
102
RTVSPropertyOp57
 70
     1
102
RTVSPost2010Prop28
280
     0
102
RTVSPost2010PropOp28
 70
     1
102
RTVSPost2010Prop29
280
     1
102
RTVSPost2010PropOp29
 70
     1
102
RTVSPost2010Prop30
280
     1
102
RTVSPost2010PropOp30
 70
     1
102
RTVSPost2010Prop31
280
     0
102
RTVSPost2010PropOp31
 70
     1
102
RTVSPost2010Prop32
280
     0
102
RTVSPost2010PropOp32
 70
     1
102
RTVSPost2010Prop33
280
     0
102
RTVSPost2010PropOp33
 70
     1
102
RTVSPost2010Prop34
280
     0
102
RTVSPost2010PropOp34
 70
     1
102
RTVSPost2010Prop35
280
     0
102
RTVSPost2010PropOp35
 70
     1
102
RTVSPost2010Prop36
280
     0
102
RTVSPost2010PropOp36
 70
     1
102
RTVSPost2010Prop37
 90
       50
102
RTVSPost2010PropOp37
 70
     1
102
RTVSPost2010Prop38
140
0.0
102
RTVSPost2010PropOp38
 70
     1
102
RTVSPost2010Prop39
140
1.0
102
RTVSPost2010PropOp39
 70
     1
102
RTVSPost2010Prop40
 90
        0
102
RTVSPost2010PropOp40
 70
     1
102
RTVSPost2010Prop41ColorIndex
 90
       18
102
RTVSPost2010Prop41ColorRGB
 90
        0
102
RTVSPost2010PropOp41
 70
     1
102
RTVSPost2010Prop42
 90
       50
102
RTVSPost2010PropOp42
 70
     1
102
RTVSPost2010Prop43
 90
        3
102
RTVSPost2010PropOp43
 70
     1
102
RTVSPost2010Prop44ColorIndex
 90
        5
102
RTVSPost2010Prop44ColorRGB
 90
      255
102
RTVSPost2010PropOp44
 70
     1
102
RTVSPost2010Prop45
280
     0
102
RTVSPost2010PropOp45
 70
     1
102
RTVSPost2010Prop46
 90
       50
102
RTVSPost2010PropOp46
 70
     1
102
RTVSPost2010Prop47
 90
       50
102
RTVSPost2010PropOp47
 70
     1
102
RTVSPost2010Prop48
 90
       50
102
RTVSPost2010PropOp48
 70
     1
102
RTVSPost2010Prop49
280
     0
102
RTVSPost2010PropOp49
 70
     1
102
RTVSPost2010Prop50
 90
       50
102
RTVSPost2010PropOp50
 70
     1
102
RTVSPost2010Prop51ColorIndex
 90
      256
102
RTVSPost2010Prop51ColorRGB
 90
-16777216
102
RTVSPost2010PropOp51
 70
     0
102
RTVSPost2010Prop52
140
1.0
102
RTVSPost2010PropOp52
 70
     0
102
RTVSPost2010Prop53
 90
        2
102
RTVSPost2010PropOp53
 70
     1
102
RTVSPost2010Prop54
  1
strokes_ogs.tif
102
RTVSPost2010PropOp54
 70
     1
102
RTVSPost2010Prop55
280
     0
102
RTVSPost2010PropOp55
 70
     1
102
RTVSPost2010Prop56
140
1.0
102
RTVSPost2010PropOp56
 70
     1
102
RTVSPost2010Prop57
140
1.0
102
RTVSPost2010PropOp57
 70
     1
  0
XRECORD
  5
9DA
102
{ACAD_REACTORS
330
9D9
102
}
330
9D9
100
AcDbXrecord
280
     1
102
RTVSPropertyOp33
 70
     1
102
RTVSPropertyOp34
 70
     1
102
RTVSPropertyOp35
 70
     1
102
RTVSPropertyOp36
 70
     1
102
RTVSPropertyOp37
 70
     1
102
RTVSPropertyOp38
 70
     1
102
RTVSPropertyOp39
 70
     1
102
RTVSPropertyOp40
 70
     1
102
RTVSPropertyOp41
 70
     1
102
RTVSPropertyOp42
 70
     1
102
RTVSPropertyOp43
 70
     1
102
RTVSPropertyOp44
 70
     1
102
RTVSPropertyOp45
 70
     1
102
RTVSPropertyOp46
 70
     1
102
RTVSPropertyOp47
 70
     1
102
RTVSPropertyOp48
 70
     1
102
RTVSPropertyOp49
 70
     1
102
RTVSPropertyOp50
 70
     1
102
RTVSPropertyOp51
 70
     0
102
RTVSPropertyOp52
 70
     0
102
RTVSPropertyOp53
 70
     1
102
RTVSPropertyOp54
 70
     1
102
RTVSPropertyOp55
 70
     1
102
RTVSPropertyOp56
 70
     1
102
RTVSPropertyOp57
 70
     1
102
RTVSPost2010Prop28
280
     0
102
RTVSPost2010PropOp28
 70
     1
102
RTVSPost2010Prop29
280
     1
102
RTVSPost2010PropOp29
 70
     1
102
RTVSPost2010Prop30
280
     1
102
RTVSPost2010PropOp30
 70
     1
102
RTVSPost2010Prop31
280
     0
102
RTVSPost2010PropOp31
 70
     1
102
RTVSPost2010Prop32
280
     0
102
RTVSPost2010PropOp32
 70
     1
102
RTVSPost2010Prop33
280
     0
102
RTVSPost2010PropOp33
 70
     1
102
RTVSPost2010Prop34
280
     0
102
RTVSPost2010PropOp34
 70
     1
102
RTVSPost2010Prop35
280
     0
102
RTVSPost2010PropOp35
 70
     1
102
RTVSPost2010Prop36
280
     0
102
RTVSPost2010PropOp36
 70
     1
102
RTVSPost2010Prop37
 90
       50
102
RTVSPost2010PropOp37
 70
     1
102
RTVSPost2010Prop38
140
0.0
102
RTVSPost2010PropOp38
 70
     1
102
RTVSPost2010Prop39
140
1.0
102
RTVSPost2010PropOp39
 70
     1
102
RTVSPost2010Prop40
 90
        0
102
RTVSPost2010PropOp40
 70
     1
102
RTVSPost2010Prop41ColorIndex
 90
       18
102
RTVSPost2010Prop41ColorRGB
 90
        0
102
RTVSPost2010PropOp41
 70
     1
102
RTVSPost2010Prop42
 90
       50
102
RTVSPost2010PropOp42
 70
     1
102
RTVSPost2010Prop43
 90
        3
102
RTVSPost2010PropOp43
 70
     1
102
RTVSPost2010Prop44ColorIndex
 90
        5
102
RTVSPost2010Prop44ColorRGB
 90
      255
102
RTVSPost2010PropOp44
 70
     1
102
RTVSPost2010Prop45
280
     0
102
RTVSPost2010PropOp45
 70
     1
102
RTVSPost2010Prop46
 90
       50
102
RTVSPost2010PropOp46
 70
     1
102
RTVSPost2010Prop47
 90
       50
102
RTVSPost2010PropOp47
 70
     1
102
RTVSPost2010Prop48
 90
       50
102
RTVSPost2010PropOp48
 70
     1
102
RTVSPost2010Prop49
280
     0
102
RTVSPost2010PropOp49
 70
     1
102
RTVSPost2010Prop50
 90
       50
102
RTVSPost2010PropOp50
 70
     1
102
RTVSPost2010Prop51ColorIndex
 90
      256
102
RTVSPost2010Prop51ColorRGB
 90
-16777216
102
RTVSPost2010PropOp51
 70
     0
102
RTVSPost2010Prop52
140
1.0
102
RTVSPost2010PropOp52
 70
     0
102
RTVSPost2010Prop53
 90
        2
102
RTVSPost2010PropOp53
 70
     1
102
RTVSPost2010Prop54
  1
strokes_ogs.tif
102
RTVSPost2010PropOp54
 70
     1
102
RTVSPost2010Prop55
280
     0
102
RTVSPost2010PropOp55
 70
     1
102
RTVSPost2010Prop56
140
1.0
102
RTVSPost2010PropOp56
 70
     1
102
RTVSPost2010Prop57
140
1.0
102
RTVSPost2010PropOp57
 70
     1
  0
XRECORD
  5
9D4
102
{ACAD_REACTORS
330
9D3
102
}
330
9D3
100
AcDbXrecord
280
     1
102
RTVSPropertyOp33
 70
     1
102
RTVSPropertyOp34
 70
     1
102
RTVSPropertyOp35
 70
     1
102
RTVSPropertyOp36
 70
     1
102
RTVSPropertyOp37
 70
     1
102
RTVSPropertyOp38
 70
     1
102
RTVSPropertyOp39
 70
     1
102
RTVSPropertyOp40
 70
     1
102
RTVSPropertyOp41
 70
     1
102
RTVSPropertyOp42
 70
     1
102
RTVSPropertyOp43
 70
     1
102
RTVSPropertyOp44
 70
     1
102
RTVSPropertyOp45
 70
     1
102
RTVSPropertyOp46
 70
     1
102
RTVSPropertyOp47
 70
     1
102
RTVSPropertyOp48
 70
     1
102
RTVSPropertyOp49
 70
     1
102
RTVSPropertyOp50
 70
     1
102
RTVSPropertyOp51
 70
     0
102
RTVSPropertyOp52
 70
     0
102
RTVSPropertyOp53
 70
     1
102
RTVSPropertyOp54
 70
     1
102
RTVSPropertyOp55
 70
     1
102
RTVSPropertyOp56
 70
     1
102
RTVSPropertyOp57
 70
     1
102
RTVSPost2010Prop28
280
     0
102
RTVSPost2010PropOp28
 70
     1
102
RTVSPost2010Prop29
280
     1
102
RTVSPost2010PropOp29
 70
     1
102
RTVSPost2010Prop30
280
     1
102
RTVSPost2010PropOp30
 70
     1
102
RTVSPost2010Prop31
280
     0
102
RTVSPost2010PropOp31
 70
     1
102
RTVSPost2010Prop32
280
     0
102
RTVSPost2010PropOp32
 70
     1
102
RTVSPost2010Prop33
280
     0
102
RTVSPost2010PropOp33
 70
     1
102
RTVSPost2010Prop34
280
     0
102
RTVSPost2010PropOp34
 70
     1
102
RTVSPost2010Prop35
280
     0
102
RTVSPost2010PropOp35
 70
     1
102
RTVSPost2010Prop36
280
     0
102
RTVSPost2010PropOp36
 70
     1
102
RTVSPost2010Prop37
 90
       50
102
RTVSPost2010PropOp37
 70
     1
102
RTVSPost2010Prop38
140
0.0
102
RTVSPost2010PropOp38
 70
     1
102
RTVSPost2010Prop39
140
1.0
102
RTVSPost2010PropOp39
 70
     1
102
RTVSPost2010Prop40
 90
        0
102
RTVSPost2010PropOp40
 70
     1
102
RTVSPost2010Prop41ColorIndex
 90
       18
102
RTVSPost2010Prop41ColorRGB
 90
        0
102
RTVSPost2010PropOp41
 70
     1
102
RTVSPost2010Prop42
 90
       50
102
RTVSPost2010PropOp42
 70
     1
102
RTVSPost2010Prop43
 90
        3
102
RTVSPost2010PropOp43
 70
     1
102
RTVSPost2010Prop44ColorIndex
 90
        5
102
RTVSPost2010Prop44ColorRGB
 90
      255
102
RTVSPost2010PropOp44
 70
     1
102
RTVSPost2010Prop45
280
     0
102
RTVSPost2010PropOp45
 70
     1
102
RTVSPost2010Prop46
 90
       50
102
RTVSPost2010PropOp46
 70
     1
102
RTVSPost2010Prop47
 90
       50
102
RTVSPost2010PropOp47
 70
     1
102
RTVSPost2010Prop48
 90
       50
102
RTVSPost2010PropOp48
 70
     1
102
RTVSPost2010Prop49
280
     0
102
RTVSPost2010PropOp49
 70
     1
102
RTVSPost2010Prop50
 90
       50
102
RTVSPost2010PropOp50
 70
     1
102
RTVSPost2010Prop51ColorIndex
 90
      256
102
RTVSPost2010Prop51ColorRGB
 90
-16777216
102
RTVSPost2010PropOp51
 70
     0
102
RTVSPost2010Prop52
140
1.0
102
RTVSPost2010PropOp52
 70
     0
102
RTVSPost2010Prop53
 90
        2
102
RTVSPost2010PropOp53
 70
     1
102
RTVSPost2010Prop54
  1
strokes_ogs.tif
102
RTVSPost2010PropOp54
 70
     1
102
RTVSPost2010Prop55
280
     0
102
RTVSPost2010PropOp55
 70
     1
102
RTVSPost2010Prop56
140
1.0
102
RTVSPost2010PropOp56
 70
     1
102
RTVSPost2010Prop57
140
1.0
102
RTVSPost2010PropOp57
 70
     1
  0
XRECORD
  5
9D6
102
{ACAD_REACTORS
330
9D5
102
}
330
9D5
100
AcDbXrecord
280
     1
102
RTVSPropertyOp33
 70
     1
102
RTVSPropertyOp34
 70
     1
102
RTVSPropertyOp35
 70
     1
102
RTVSPropertyOp36
 70
     1
102
RTVSPropertyOp37
 70
     1
102
RTVSPropertyOp38
 70
     1
102
RTVSPropertyOp39
 70
     1
102
RTVSPropertyOp40
 70
     1
102
RTVSPropertyOp41
 70
     1
102
RTVSPropertyOp42
 70
     1
102
RTVSPropertyOp43
 70
     1
102
RTVSPropertyOp44
 70
     1
102
RTVSPropertyOp45
 70
     1
102
RTVSPropertyOp46
 70
     1
102
RTVSPropertyOp47
 70
     1
102
RTVSPropertyOp48
 70
     1
102
RTVSPropertyOp49
 70
     1
102
RTVSPropertyOp50
 70
     1
102
RTVSPropertyOp51
 70
     0
102
RTVSPropertyOp52
 70
     0
102
RTVSPropertyOp53
 70
     1
102
RTVSPropertyOp54
 70
     1
102
RTVSPropertyOp55
 70
     1
102
RTVSPropertyOp56
 70
     1
102
RTVSPropertyOp57
 70
     1
102
RTVSPost2010Prop28
280
     0
102
RTVSPost2010PropOp28
 70
     1
102
RTVSPost2010Prop29
280
     1
102
RTVSPost2010PropOp29
 70
     1
102
RTVSPost2010Prop30
280
     1
102
RTVSPost2010PropOp30
 70
     1
102
RTVSPost2010Prop31
280
     0
102
RTVSPost2010PropOp31
 70
     1
102
RTVSPost2010Prop32
280
     0
102
RTVSPost2010PropOp32
 70
     1
102
RTVSPost2010Prop33
280
     0
102
RTVSPost2010PropOp33
 70
     1
102
RTVSPost2010Prop34
280
     0
102
RTVSPost2010PropOp34
 70
     1
102
RTVSPost2010Prop35
280
     0
102
RTVSPost2010PropOp35
 70
     1
102
RTVSPost2010Prop36
280
     0
102
RTVSPost2010PropOp36
 70
     1
102
RTVSPost2010Prop37
 90
       50
102
RTVSPost2010PropOp37
 70
     1
102
RTVSPost2010Prop38
140
0.0
102
RTVSPost2010PropOp38
 70
     1
102
RTVSPost2010Prop39
140
1.0
102
RTVSPost2010PropOp39
 70
     1
102
RTVSPost2010Prop40
 90
        0
102
RTVSPost2010PropOp40
 70
     1
102
RTVSPost2010Prop41ColorIndex
 90
       18
102
RTVSPost2010Prop41ColorRGB
 90
        0
102
RTVSPost2010PropOp41
 70
     1
102
RTVSPost2010Prop42
 90
       50
102
RTVSPost2010PropOp42
 70
     1
102
RTVSPost2010Prop43
 90
        3
102
RTVSPost2010PropOp43
 70
     1
102
RTVSPost2010Prop44ColorIndex
 90
        5
102
RTVSPost2010Prop44ColorRGB
 90
      255
102
RTVSPost2010PropOp44
 70
     1
102
RTVSPost2010Prop45
280
     0
102
RTVSPost2010PropOp45
 70
     1
102
RTVSPost2010Prop46
 90
       50
102
RTVSPost2010PropOp46
 70
     1
102
RTVSPost2010Prop47
 90
       50
102
RTVSPost2010PropOp47
 70
     1
102
RTVSPost2010Prop48
 90
       50
102
RTVSPost2010PropOp48
 70
     1
102
RTVSPost2010Prop49
280
     0
102
RTVSPost2010PropOp49
 70
     1
102
RTVSPost2010Prop50
 90
       50
102
RTVSPost2010PropOp50
 70
     1
102
RTVSPost2010Prop51ColorIndex
 90
      256
102
RTVSPost2010Prop51ColorRGB
 90
-16777216
102
RTVSPost2010PropOp51
 70
     0
102
RTVSPost2010Prop52
140
1.0
102
RTVSPost2010PropOp52
 70
     0
102
RTVSPost2010Prop53
 90
        2
102
RTVSPost2010PropOp53
 70
     1
102
RTVSPost2010Prop54
  1
strokes_ogs.tif
102
RTVSPost2010PropOp54
 70
     1
102
RTVSPost2010Prop55
280
     0
102
RTVSPost2010PropOp55
 70
     1
102
RTVSPost2010Prop56
140
1.0
102
RTVSPost2010PropOp56
 70
     1
102
RTVSPost2010Prop57
140
1.0
102
RTVSPost2010PropOp57
 70
     1
  0
XRECORD
  5
9C6
102
{ACAD_REACTORS
330
9C5
102
}
330
9C5
100
AcDbXrecord
280
     1
102
RTVSPropertyOp33
 70
     1
102
RTVSPropertyOp34
 70
     1
102
RTVSPropertyOp35
 70
     1
102
RTVSPropertyOp36
 70
     1
102
RTVSPropertyOp37
 70
     1
102
RTVSPropertyOp38
 70
     1
102
RTVSPropertyOp39
 70
     1
102
RTVSPropertyOp40
 70
     1
102
RTVSPropertyOp41
 70
     1
102
RTVSPropertyOp42
 70
     1
102
RTVSPropertyOp43
 70
     1
102
RTVSPropertyOp44
 70
     1
102
RTVSPropertyOp45
 70
     1
102
RTVSPropertyOp46
 70
     1
102
RTVSPropertyOp47
 70
     1
102
RTVSPropertyOp48
 70
     1
102
RTVSPropertyOp49
 70
     1
102
RTVSPropertyOp50
 70
     1
102
RTVSPropertyOp51
 70
     0
102
RTVSPropertyOp52
 70
     0
102
RTVSPropertyOp53
 70
     1
102
RTVSPropertyOp54
 70
     1
102
RTVSPropertyOp55
 70
     1
102
RTVSPropertyOp56
 70
     1
102
RTVSPropertyOp57
 70
     1
102
RTVSPost2010Prop28
280
     0
102
RTVSPost2010PropOp28
 70
     1
102
RTVSPost2010Prop29
280
     1
102
RTVSPost2010PropOp29
 70
     1
102
RTVSPost2010Prop30
280
     1
102
RTVSPost2010PropOp30
 70
     1
102
RTVSPost2010Prop31
280
     0
102
RTVSPost2010PropOp31
 70
     1
102
RTVSPost2010Prop32
280
     0
102
RTVSPost2010PropOp32
 70
     1
102
RTVSPost2010Prop33
280
     0
102
RTVSPost2010PropOp33
 70
     1
102
RTVSPost2010Prop34
280
     0
102
RTVSPost2010PropOp34
 70
     1
102
RTVSPost2010Prop35
280
     0
102
RTVSPost2010PropOp35
 70
     1
102
RTVSPost2010Prop36
280
     0
102
RTVSPost2010PropOp36
 70
     1
102
RTVSPost2010Prop37
 90
       50
102
RTVSPost2010PropOp37
 70
     1
102
RTVSPost2010Prop38
140
0.0
102
RTVSPost2010PropOp38
 70
     1
102
RTVSPost2010Prop39
140
1.0
102
RTVSPost2010PropOp39
 70
     1
102
RTVSPost2010Prop40
 90
        0
102
RTVSPost2010PropOp40
 70
     1
102
RTVSPost2010Prop41ColorIndex
 90
       18
102
RTVSPost2010Prop41ColorRGB
 90
        0
102
RTVSPost2010PropOp41
 70
     1
102
RTVSPost2010Prop42
 90
       50
102
RTVSPost2010PropOp42
 70
     1
102
RTVSPost2010Prop43
 90
        3
102
RTVSPost2010PropOp43
 70
     1
102
RTVSPost2010Prop44ColorIndex
 90
        5
102
RTVSPost2010Prop44ColorRGB
 90
      255
102
RTVSPost2010PropOp44
 70
     1
102
RTVSPost2010Prop45
280
     0
102
RTVSPost2010PropOp45
 70
     1
102
RTVSPost2010Prop46
 90
       50
102
RTVSPost2010PropOp46
 70
     1
102
RTVSPost2010Prop47
 90
       50
102
RTVSPost2010PropOp47
 70
     1
102
RTVSPost2010Prop48
 90
       50
102
RTVSPost2010PropOp48
 70
     1
102
RTVSPost2010Prop49
280
     0
102
RTVSPost2010PropOp49
 70
     1
102
RTVSPost2010Prop50
 90
       50
102
RTVSPost2010PropOp50
 70
     1
102
RTVSPost2010Prop51ColorIndex
 90
      256
102
RTVSPost2010Prop51ColorRGB
 90
-16777216
102
RTVSPost2010PropOp51
 70
     0
102
RTVSPost2010Prop52
140
1.0
102
RTVSPost2010PropOp52
 70
     0
102
RTVSPost2010Prop53
 90
        2
102
RTVSPost2010PropOp53
 70
     1
102
RTVSPost2010Prop54
  1
strokes_ogs.tif
102
RTVSPost2010PropOp54
 70
     1
102
RTVSPost2010Prop55
280
     0
102
RTVSPost2010PropOp55
 70
     1
102
RTVSPost2010Prop56
140
1.0
102
RTVSPost2010PropOp56
 70
     1
102
RTVSPost2010Prop57
140
1.0
102
RTVSPost2010PropOp57
 70
     1
  0
XRECORD
  5
9B8
102
{ACAD_REACTORS
330
9B7
102
}
330
9B7
100
AcDbXrecord
280
     1
102
RTVSPropertyOp33
 70
     1
102
RTVSPropertyOp34
 70
     1
102
RTVSPropertyOp35
 70
     1
102
RTVSPropertyOp36
 70
     1
102
RTVSPropertyOp37
 70
     1
102
RTVSPropertyOp38
 70
     1
102
RTVSPropertyOp39
 70
     1
102
RTVSPropertyOp40
 70
     1
102
RTVSPropertyOp41
 70
     1
102
RTVSPropertyOp42
 70
     1
102
RTVSPropertyOp43
 70
     1
102
RTVSPropertyOp44
 70
     1
102
RTVSPropertyOp45
 70
     1
102
RTVSPropertyOp46
 70
     1
102
RTVSPropertyOp47
 70
     1
102
RTVSPropertyOp48
 70
     1
102
RTVSPropertyOp49
 70
     1
102
RTVSPropertyOp50
 70
     1
102
RTVSPropertyOp51
 70
     0
102
RTVSPropertyOp52
 70
     0
102
RTVSPropertyOp53
 70
     1
102
RTVSPropertyOp54
 70
     1
102
RTVSPropertyOp55
 70
     1
102
RTVSPropertyOp56
 70
     1
102
RTVSPropertyOp57
 70
     1
102
RTVSPost2010Prop28
280
     0
102
RTVSPost2010PropOp28
 70
     1
102
RTVSPost2010Prop29
280
     1
102
RTVSPost2010PropOp29
 70
     1
102
RTVSPost2010Prop30
280
     1
102
RTVSPost2010PropOp30
 70
     1
102
RTVSPost2010Prop31
280
     0
102
RTVSPost2010PropOp31
 70
     1
102
RTVSPost2010Prop32
280
     0
102
RTVSPost2010PropOp32
 70
     1
102
RTVSPost2010Prop33
280
     0
102
RTVSPost2010PropOp33
 70
     1
102
RTVSPost2010Prop34
280
     0
102
RTVSPost2010PropOp34
 70
     1
102
RTVSPost2010Prop35
280
     0
102
RTVSPost2010PropOp35
 70
     1
102
RTVSPost2010Prop36
280
     0
102
RTVSPost2010PropOp36
 70
     1
102
RTVSPost2010Prop37
 90
       50
102
RTVSPost2010PropOp37
 70
     1
102
RTVSPost2010Prop38
140
0.0
102
RTVSPost2010PropOp38
 70
     1
102
RTVSPost2010Prop39
140
1.0
102
RTVSPost2010PropOp39
 70
     1
102
RTVSPost2010Prop40
 90
        0
102
RTVSPost2010PropOp40
 70
     1
102
RTVSPost2010Prop41ColorIndex
 90
       18
102
RTVSPost2010Prop41ColorRGB
 90
        0
102
RTVSPost2010PropOp41
 70
     1
102
RTVSPost2010Prop42
 90
       50
102
RTVSPost2010PropOp42
 70
     1
102
RTVSPost2010Prop43
 90
        3
102
RTVSPost2010PropOp43
 70
     1
102
RTVSPost2010Prop44ColorIndex
 90
        5
102
RTVSPost2010Prop44ColorRGB
 90
      255
102
RTVSPost2010PropOp44
 70
     1
102
RTVSPost2010Prop45
280
     0
102
RTVSPost2010PropOp45
 70
     1
102
RTVSPost2010Prop46
 90
       50
102
RTVSPost2010PropOp46
 70
     1
102
RTVSPost2010Prop47
 90
       50
102
RTVSPost2010PropOp47
 70
     1
102
RTVSPost2010Prop48
 90
       50
102
RTVSPost2010PropOp48
 70
     1
102
RTVSPost2010Prop49
280
     0
102
RTVSPost2010PropOp49
 70
     1
102
RTVSPost2010Prop50
 90
       50
102
RTVSPost2010PropOp50
 70
     1
102
RTVSPost2010Prop51ColorIndex
 90
      256
102
RTVSPost2010Prop51ColorRGB
 90
-16777216
102
RTVSPost2010PropOp51
 70
     0
102
RTVSPost2010Prop52
140
1.0
102
RTVSPost2010PropOp52
 70
     0
102
RTVSPost2010Prop53
 90
        2
102
RTVSPost2010PropOp53
 70
     1
102
RTVSPost2010Prop54
  1
strokes_ogs.tif
102
RTVSPost2010PropOp54
 70
     1
102
RTVSPost2010Prop55
280
     0
102
RTVSPost2010PropOp55
 70
     1
102
RTVSPost2010Prop56
140
1.0
102
RTVSPost2010PropOp56
 70
     1
102
RTVSPost2010Prop57
140
1.0
102
RTVSPost2010PropOp57
 70
     1
  0
XRECORD
  5
9D8
102
{ACAD_REACTORS
330
9D7
102
}
330
9D7
100
AcDbXrecord
280
     1
102
RTVSPropertyOp33
 70
     1
102
RTVSPropertyOp34
 70
     1
102
RTVSPropertyOp35
 70
     1
102
RTVSPropertyOp36
 70
     1
102
RTVSPropertyOp37
 70
     1
102
RTVSPropertyOp38
 70
     1
102
RTVSPropertyOp39
 70
     1
102
RTVSPropertyOp40
 70
     1
102
RTVSPropertyOp41
 70
     1
102
RTVSPropertyOp42
 70
     1
102
RTVSPropertyOp43
 70
     1
102
RTVSPropertyOp44
 70
     1
102
RTVSPropertyOp45
 70
     1
102
RTVSPropertyOp46
 70
     1
102
RTVSPropertyOp47
 70
     1
102
RTVSPropertyOp48
 70
     1
102
RTVSPropertyOp49
 70
     1
102
RTVSPropertyOp50
 70
     1
102
RTVSPropertyOp51
 70
     0
102
RTVSPropertyOp52
 70
     0
102
RTVSPropertyOp53
 70
     1
102
RTVSPropertyOp54
 70
     1
102
RTVSPropertyOp55
 70
     1
102
RTVSPropertyOp56
 70
     1
102
RTVSPropertyOp57
 70
     1
102
RTVSPost2010Prop28
280
     0
102
RTVSPost2010PropOp28
 70
     1
102
RTVSPost2010Prop29
280
     1
102
RTVSPost2010PropOp29
 70
     1
102
RTVSPost2010Prop30
280
     1
102
RTVSPost2010PropOp30
 70
     1
102
RTVSPost2010Prop31
280
     0
102
RTVSPost2010PropOp31
 70
     1
102
RTVSPost2010Prop32
280
     0
102
RTVSPost2010PropOp32
 70
     1
102
RTVSPost2010Prop33
280
     0
102
RTVSPost2010PropOp33
 70
     1
102
RTVSPost2010Prop34
280
     0
102
RTVSPost2010PropOp34
 70
     1
102
RTVSPost2010Prop35
280
     0
102
RTVSPost2010PropOp35
 70
     1
102
RTVSPost2010Prop36
280
     0
102
RTVSPost2010PropOp36
 70
     1
102
RTVSPost2010Prop37
 90
       50
102
RTVSPost2010PropOp37
 70
     1
102
RTVSPost2010Prop38
140
0.0
102
RTVSPost2010PropOp38
 70
     1
102
RTVSPost2010Prop39
140
1.0
102
RTVSPost2010PropOp39
 70
     1
102
RTVSPost2010Prop40
 90
        0
102
RTVSPost2010PropOp40
 70
     1
102
RTVSPost2010Prop41ColorIndex
 90
       18
102
RTVSPost2010Prop41ColorRGB
 90
        0
102
RTVSPost2010PropOp41
 70
     1
102
RTVSPost2010Prop42
 90
       50
102
RTVSPost2010PropOp42
 70
     1
102
RTVSPost2010Prop43
 90
        3
102
RTVSPost2010PropOp43
 70
     1
102
RTVSPost2010Prop44ColorIndex
 90
        5
102
RTVSPost2010Prop44ColorRGB
 90
      255
102
RTVSPost2010PropOp44
 70
     1
102
RTVSPost2010Prop45
280
     0
102
RTVSPost2010PropOp45
 70
     1
102
RTVSPost2010Prop46
 90
       50
102
RTVSPost2010PropOp46
 70
     1
102
RTVSPost2010Prop47
 90
       50
102
RTVSPost2010PropOp47
 70
     1
102
RTVSPost2010Prop48
 90
       50
102
RTVSPost2010PropOp48
 70
     1
102
RTVSPost2010Prop49
280
     0
102
RTVSPost2010PropOp49
 70
     1
102
RTVSPost2010Prop50
 90
       50
102
RTVSPost2010PropOp50
 70
     1
102
RTVSPost2010Prop51ColorIndex
 90
      256
102
RTVSPost2010Prop51ColorRGB
 90
-16777216
102
RTVSPost2010PropOp51
 70
     0
102
RTVSPost2010Prop52
140
1.0
102
RTVSPost2010PropOp52
 70
     0
102
RTVSPost2010Prop53
 90
        2
102
RTVSPost2010PropOp53
 70
     1
102
RTVSPost2010Prop54
  1
strokes_ogs.tif
102
RTVSPost2010PropOp54
 70
     1
102
RTVSPost2010Prop55
280
     0
102
RTVSPost2010PropOp55
 70
     1
102
RTVSPost2010Prop56
140
1.0
102
RTVSPost2010PropOp56
 70
     1
102
RTVSPost2010Prop57
140
1.0
102
RTVSPost2010PropOp57
 70
     1
  0
ENDSEC
  0
EOF
