  0
SECTION
  2
HEADER
  9
$ACADVER
  1
AC1012
  9
$DWGCODEPAGE
  3
ANSI_1252
  9
$INSBASE
 10
0.0
 20
0.0
 30
0.0
  9
$EXTMIN
 10
-0.1938997337199701
 20
0.7227630833196024
 30
-0.0000000349181948
  9
$EXTMAX
 10
8.369164169586788
 20
7.210189838207082
 30
0.0000000814935746
  9
$LIMMIN
 10
0.0
 20
0.0
  9
$LIMMAX
 10
12.0
 20
9.0
  9
$ORTHOMODE
 70
     0
  9
$REGENMODE
 70
     1
  9
$FILLMODE
 70
     1
  9
$QTEXTMODE
 70
     0
  9
$MIRRTEXT
 70
     1
  9
$DRAGMODE
 70
     2
  9
$LTSCALE
 40
1.0
  9
$OSMODE
 70
   547
  9
$ATTMODE
 70
     1
  9
$TEXTSIZE
 40
0.2
  9
$TRACEWID
 40
0.05
  9
$TEXTSTYLE
  7
STANDARD
  9
$CLAYER
  8
0
  9
$CELTYPE
  6
BYLAYER
  9
$CECOLOR
 62
   256
  9
$CELTSCALE
 40
1.0
  9
$DELOBJ
 70
     1
  9
$DISPSILH
 70
     0
  9
$DIMSCALE
 40
1.0
  9
$DIMASZ
 40
0.18
  9
$DIMEXO
 40
0.0625
  9
$DIMDLI
 40
0.38
  9
$DIMRND
 40
0.0
  9
$DIMDLE
 40
0.0
  9
$DIMEXE
 40
0.18
  9
$DIMTP
 40
0.0
  9
$DIMTM
 40
0.0
  9
$DIMTXT
 40
0.18
  9
$DIMCEN
 40
0.09
  9
$DIMTSZ
 40
0.0
  9
$DIMTOL
 70
     0
  9
$DIMLIM
 70
     0
  9
$DIMTIH
 70
     1
  9
$DIMTOH
 70
     1
  9
$DIMSE1
 70
     0
  9
$DIMSE2
 70
     0
  9
$DIMTAD
 70
     0
  9
$DIMZIN
 70
     0
  9
$DIMBLK
  1

  9
$DIMASO
 70
     1
  9
$DIMSHO
 70
     1
  9
$DIMPOST
  1

  9
$DIMAPOST
  1

  9
$DIMALT
 70
     0
  9
$DIMALTD
 70
     2
  9
$DIMALTF
 40
25.4
  9
$DIMLFAC
 40
1.0
  9
$DIMTOFL
 70
     0
  9
$DIMTVP
 40
0.0
  9
$DIMTIX
 70
     0
  9
$DIMSOXD
 70
     0
  9
$DIMSAH
 70
     0
  9
$DIMBLK1
  1

  9
$DIMBLK2
  1

  9
$DIMSTYLE
  2
STANDARD
  9
$DIMCLRD
 70
     0
  9
$DIMCLRE
 70
     0
  9
$DIMCLRT
 70
     0
  9
$DIMTFAC
 40
1.0
  9
$DIMGAP
 40
0.09
  9
$DIMJUST
 70
     0
  9
$DIMSD1
 70
     0
  9
$DIMSD2
 70
     0
  9
$DIMTOLJ
 70
     1
  9
$DIMTZIN
 70
     0
  9
$DIMALTZ
 70
     0
  9
$DIMALTTZ
 70
     0
  9
$DIMFIT
 70
     5
  9
$DIMUPT
 70
     0
  9
$DIMUNIT
 70
     2
  9
$DIMDEC
 70
     4
  9
$DIMTDEC
 70
     4
  9
$DIMALTU
 70
     2
  9
$DIMALTTD
 70
     2
  9
$DIMTXSTY
  7
STANDARD
  9
$DIMAUNIT
 70
     0
  9
$LUNITS
 70
     2
  9
$LUPREC
 70
     4
  9
$SKETCHINC
 40
0.1
  9
$FILLETRAD
 40
0.0
  9
$AUNITS
 70
     0
  9
$AUPREC
 70
     0
  9
$MENU
  1
acad
  9
$ELEVATION
 40
0.0
  9
$PELEVATION
 40
0.0
  9
$THICKNESS
 40
0.0
  9
$LIMCHECK
 70
     0
  9
$BLIPMODE
 70
     0
  9
$CHAMFERA
 40
0.0
  9
$CHAMFERB
 40
0.0
  9
$CHAMFERC
 40
0.0
  9
$CHAMFERD
 40
0.0
  9
$SKPOLY
 70
     0
  9
$TDCREATE
 40
2452557.450173611
  9
$TDUPDATE
 40
2453944.465337130
  9
$TDINDWG
 40
0.0010020833
  9
$TDUSRTIMER
 40
0.0010020833
  9
$USRTIMER
 70
     1
  9
$ANGBASE
 50
0.0
  9
$ANGDIR
 70
     0
  9
$PDMODE
 70
     0
  9
$PDSIZE
 40
0.0
  9
$PLINEWID
 40
0.0
  9
$COORDS
 70
     1
  9
$SPLFRAME
 70
     0
  9
$SPLINETYPE
 70
     6
  9
$SPLINESEGS
 70
     8
  9
$ATTDIA
 70
     0
  9
$ATTREQ
 70
     1
  9
$HANDLING
 70
  4097
  9
$HANDSEED
  5
51C8
  9
$SURFTAB1
 70
     6
  9
$SURFTAB2
 70
     6
  9
$SURFTYPE
 70
     6
  9
$SURFU
 70
     6
  9
$SURFV
 70
     6
  9
$UCSNAME
  2

  9
$UCSORG
 10
0.0
 20
0.0
 30
0.0
  9
$UCSXDIR
 10
1.0
 20
0.0
 30
0.0
  9
$UCSYDIR
 10
0.0
 20
1.0
 30
0.0
  9
$PUCSNAME
  2

  9
$PUCSORG
 10
0.0
 20
0.0
 30
0.0
  9
$PUCSXDIR
 10
1.0
 20
0.0
 30
0.0
  9
$PUCSYDIR
 10
0.0
 20
1.0
 30
0.0
  9
$USERI1
 70
     0
  9
$USERI2
 70
     0
  9
$USERI3
 70
     0
  9
$USERI4
 70
     0
  9
$USERI5
 70
     0
  9
$USERR1
 40
0.0
  9
$USERR2
 40
0.0
  9
$USERR3
 40
0.0
  9
$USERR4
 40
0.0
  9
$USERR5
 40
0.0
  9
$WORLDVIEW
 70
     1
  9
$SHADEDGE
 70
     3
  9
$SHADEDIF
 70
    70
  9
$TILEMODE
 70
     1
  9
$MAXACTVP
 70
    16
  9
$PINSBASE
 10
0.0
 20
0.0
 30
0.0
  9
$PLIMCHECK
 70
     0
  9
$PEXTMIN
 10
1.000000000000000E+20
 20
1.000000000000000E+20
 30
1.000000000000000E+20
  9
$PEXTMAX
 10
-1.000000000000000E+20
 20
-1.000000000000000E+20
 30
-1.000000000000000E+20
  9
$PLIMMIN
 10
0.0
 20
0.0
  9
$PLIMMAX
 10
12.0
 20
9.0
  9
$UNITMODE
 70
     0
  9
$VISRETAIN
 70
     0
  9
$PLINEGEN
 70
     0
  9
$PSLTSCALE
 70
     1
  9
$TREEDEPTH
 70
  3020
  9
$PICKSTYLE
 70
     1
  9
$CMLSTYLE
  2
STANDARD
  9
$CMLJUST
 70
     0
  9
$CMLSCALE
 40
1.0
  9
$SAVEIMAGES
 70
     1
  0
ENDSEC
  0
SECTION
  2
CLASSES
  0
CLASS
  1
ACDBDICTIONARYWDFLT
  2
AcDbDictionaryWithDefault
  3
AutoCAD 2000
 90
    32768
280
     0
281
     0
  0
CLASS
  1
ACDBPLACEHOLDER
  2
AcDbPlaceHolder
  3
AutoCAD 2000
 90
    32768
280
     0
281
     0
  0
CLASS
  1
LAYOUT
  2
AcDbLayout
  3
AutoCAD 2000
 90
    32768
280
     0
281
     0
  0
CLASS
  1
LONG_TRANSACTION
  2
AcDbLongTransaction
  3
AutoCAD 2000
 90
    32768
280
     0
281
     0
  0
CLASS
  1
LWPOLYLINE
  2
AcDbPolyline
  3
AutoCAD 2000
 90
    32768
280
     0
281
     1
  0
CLASS
  1
HATCH
  2
AcDbHatch
  3
AutoCAD 2000
 90
    32768
280
     0
281
     1
  0
CLASS
  1
XRECORD
  2
AcDbXrecord
  3
AutoCAD 2000
 90
    32768
280
     0
281
     0
  0
CLASS
  1
LONG_TRANSACTION
  2
AcDbLongTransaction
  3
AutoCAD 2000
 90
    32768
280
     0
281
     0
  0
CLASS
  1
LWPOLYLINE
  2
AcDbPolyline
  3
AutoCAD 2000
 90
    32768
280
     0
281
     1
  0
CLASS
  1
HATCH
  2
AcDbHatch
  3
AutoCAD 2000
 90
    32768
280
     0
281
     1
  0
CLASS
  1
XRECORD
  2
AcDbXrecord
  3
AutoCAD 2000
 90
    32768
280
     0
281
     0
  0
ENDSEC
  0
SECTION
  2
TABLES
  0
TABLE
  2
VPORT
  5
8
330
0
100
AcDbSymbolTable
 70
     3
  0
VPORT
  5
51C5
330
8
100
AcDbSymbolTableRecord
100
AcDbViewportTableRecord
  2
*ACTIVE
 70
     0
 10
0.0
 20
0.0
 11
1.0
 21
1.0
 12
4.087632217933409
 22
3.966476460763342
 13
0.0
 23
0.0
 14
1.0
 24
1.0
 15
0.0
 25
0.0
 16
0.0
 26
0.0
 36
1.0
 17
0.0
 27
0.0
 37
0.0
 40
6.554886998439169
 41
1.647569444444444
 42
50.0
 43
0.0
 44
0.0
 50
0.0
 51
0.0
 71
     0
 72
   100
 73
     1
 74
     1
 75
     0
 76
     0
 77
     0
 78
     0
  0
ENDTAB
  0
TABLE
  2
LTYPE
  5
5
330
0
100
AcDbSymbolTable
 70
    25
  0
LTYPE
  5
13
330
5
100
AcDbSymbolTableRecord
100
AcDbLinetypeTableRecord
  2
BYBLOCK
 70
     0
  3

 72
    65
 73
     0
 40
0.0
  0
LTYPE
  5
14
330
5
100
AcDbSymbolTableRecord
100
AcDbLinetypeTableRecord
  2
BYLAYER
 70
     0
  3

 72
    65
 73
     0
 40
0.0
  0
LTYPE
  5
15
330
5
100
AcDbSymbolTableRecord
100
AcDbLinetypeTableRecord
  2
CONTINUOUS
 70
     0
  3
Solid line
 72
    65
 73
     0
 40
0.0
  0
LTYPE
  5
22
330
5
100
AcDbSymbolTableRecord
100
AcDbLinetypeTableRecord
  2
BORDER
 70
     0
  3
__ __ . __ __ . __ __ . __ __ . __ __ . __ __ .
 72
    65
 73
     6
 40
1.75
 49
0.5
 74
     0
 49
-0.25
 74
     0
 49
0.5
 74
     0
 49
-0.25
 74
     0
 49
0.5
 74
     0
 49
-0.25
 74
     0
  0
LTYPE
  5
23
330
5
100
AcDbSymbolTableRecord
100
AcDbLinetypeTableRecord
  2
BORDER2
 70
     0
  3
__.__.__.__.__.__.__.__.__.__.__.__.__.__.__.__
 72
    65
 73
     6
 40
0.875
 49
0.25
 74
     0
 49
-0.125
 74
     0
 49
0.25
 74
     0
 49
-0.125
 74
     0
 49
0.25
 74
     0
 49
-0.125
 74
     0
  0
LTYPE
  5
24
330
5
100
AcDbSymbolTableRecord
100
AcDbLinetypeTableRecord
  2
BORDERX2
 70
     0
  3
____  ____  .  ____  ____  .  
 72
    65
 73
     6
 40
3.5
 49
1.0
 74
     0
 49
-0.5
 74
     0
 49
1.0
 74
     0
 49
-0.5
 74
     0
 49
1.0
 74
     0
 49
-0.5
 74
     0
  0
LTYPE
  5
25
330
5
100
AcDbSymbolTableRecord
100
AcDbLinetypeTableRecord
  2
CENTER
 70
     0
  3
____ _ ____ _ ____ _ ____ _ ____ _ ____ _ ____
 72
    65
 73
     4
 40
2.0
 49
1.25
 74
     0
 49
-0.25
 74
     0
 49
0.25
 74
     0
 49
-0.25
 74
     0
  0
LTYPE
  5
26
330
5
100
AcDbSymbolTableRecord
100
AcDbLinetypeTableRecord
  2
CENTER2
 70
     0
  3
____ _ ____ _ ____ _ ____ _ ____ _ ____ _ ____
 72
    65
 73
     4
 40
1.125
 49
0.75
 74
     0
 49
-0.125
 74
     0
 49
0.125
 74
     0
 49
-0.125
 74
     0
  0
LTYPE
  5
27
330
5
100
AcDbSymbolTableRecord
100
AcDbLinetypeTableRecord
  2
CENTERX2
 70
     0
  3
________  __  ________  __  ________  __  
 72
    65
 73
     4
 40
4.0
 49
2.5
 74
     0
 49
-0.5
 74
     0
 49
0.5
 74
     0
 49
-0.5
 74
     0
  0
LTYPE
  5
28
330
5
100
AcDbSymbolTableRecord
100
AcDbLinetypeTableRecord
  2
DASHDOT
 70
     0
  3
__ . __ . __ . __ . __ . __ . __ . 
 72
    65
 73
     4
 40
1.0
 49
0.5
 74
     0
 49
-0.25
 74
     0
 49
0.0
 74
     0
 49
-0.25
 74
     0
  0
LTYPE
  5
29
330
5
100
AcDbSymbolTableRecord
100
AcDbLinetypeTableRecord
  2
DASHDOT2
 70
     0
  3
_._._._._._._._._._._._._._._._.
 72
    65
 73
     4
 40
0.5
 49
0.25
 74
     0
 49
-0.125
 74
     0
 49
0.0
 74
     0
 49
-0.125
 74
     0
  0
LTYPE
  5
2A
330
5
100
AcDbSymbolTableRecord
100
AcDbLinetypeTableRecord
  2
DASHDOTX2
 70
     0
  3
____  .  ____  .  ____  .  ____  .  
 72
    65
 73
     4
 40
2.0
 49
1.0
 74
     0
 49
-0.5
 74
     0
 49
0.0
 74
     0
 49
-0.5
 74
     0
  0
LTYPE
  5
2B
330
5
100
AcDbSymbolTableRecord
100
AcDbLinetypeTableRecord
  2
DASHED
 70
     0
  3
__ __ __ __ __ __ __ __ __ __ __ __ 
 72
    65
 73
     2
 40
0.75
 49
0.5
 74
     0
 49
-0.25
 74
     0
  0
LTYPE
  5
2C
330
5
100
AcDbSymbolTableRecord
100
AcDbLinetypeTableRecord
  2
DASHED2
 70
     0
  3
_ _ _ _ _ _ _ _ _ _ _ _ _ _ _ _ _ _ 
 72
    65
 73
     2
 40
0.375
 49
0.25
 74
     0
 49
-0.125
 74
     0
  0
LTYPE
  5
2D
330
5
100
AcDbSymbolTableRecord
100
AcDbLinetypeTableRecord
  2
DASHEDX2
 70
     0
  3
____  ____  ____  ____  ____  ____  
 72
    65
 73
     2
 40
1.5
 49
1.0
 74
     0
 49
-0.5
 74
     0
  0
LTYPE
  5
2E
330
5
100
AcDbSymbolTableRecord
100
AcDbLinetypeTableRecord
  2
DIVIDE
 70
     0
  3
____ . . ____ . . ____ . . ____ . . 
 72
    65
 73
     6
 40
1.25
 49
0.5
 74
     0
 49
-0.25
 74
     0
 49
0.0
 74
     0
 49
-0.25
 74
     0
 49
0.0
 74
     0
 49
-0.25
 74
     0
  0
LTYPE
  5
2F
330
5
100
AcDbSymbolTableRecord
100
AcDbLinetypeTableRecord
  2
DIVIDE2
 70
     0
  3
__..__..__..__..__..__..__..__..__..
 72
    65
 73
     6
 40
0.625
 49
0.25
 74
     0
 49
-0.125
 74
     0
 49
0.0
 74
     0
 49
-0.125
 74
     0
 49
0.0
 74
     0
 49
-0.125
 74
     0
  0
LTYPE
  5
30
330
5
100
AcDbSymbolTableRecord
100
AcDbLinetypeTableRecord
  2
DIVIDEX2
 70
     0
  3
________  .  .  ________  .  .  ________  .  . 
 72
    65
 73
     6
 40
2.5
 49
1.0
 74
     0
 49
-0.5
 74
     0
 49
0.0
 74
     0
 49
-0.5
 74
     0
 49
0.0
 74
     0
 49
-0.5
 74
     0
  0
LTYPE
  5
31
330
5
100
AcDbSymbolTableRecord
100
AcDbLinetypeTableRecord
  2
DOT
 70
     0
  3
. . . . . . . . . . . . . . . . . . 
 72
    65
 73
     2
 40
0.25
 49
0.0
 74
     0
 49
-0.25
 74
     0
  0
LTYPE
  5
32
330
5
100
AcDbSymbolTableRecord
100
AcDbLinetypeTableRecord
  2
DOT2
 70
     0
  3
....................................
 72
    65
 73
     2
 40
0.125
 49
0.0
 74
     0
 49
-0.125
 74
     0
  0
LTYPE
  5
33
330
5
100
AcDbSymbolTableRecord
100
AcDbLinetypeTableRecord
  2
DOTX2
 70
     0
  3
.  .  .  .  .  .  .  .  .  .  .  .  .  
 72
    65
 73
     2
 40
0.5
 49
0.0
 74
     0
 49
-0.5
 74
     0
  0
LTYPE
  5
34
330
5
100
AcDbSymbolTableRecord
100
AcDbLinetypeTableRecord
  2
HIDDEN
 70
     0
  3
__ __ __ __ __ __ __ __ __ __ __ __ 
 72
    65
 73
     2
 40
0.375
 49
0.25
 74
     0
 49
-0.125
 74
     0
  0
LTYPE
  5
35
330
5
100
AcDbSymbolTableRecord
100
AcDbLinetypeTableRecord
  2
HIDDEN2
 70
     0
  3
_ _ _ _ _ _ _ _ _ _ _ _ _ _ _ _ _ _ 
 72
    65
 73
     2
 40
0.1875
 49
0.125
 74
     0
 49
-0.0625
 74
     0
  0
LTYPE
  5
36
330
5
100
AcDbSymbolTableRecord
100
AcDbLinetypeTableRecord
  2
HIDDENX2
 70
     0
  3
____ ____ ____ ____ ____ ____ ____ 
 72
    65
 73
     2
 40
0.75
 49
0.5
 74
     0
 49
-0.25
 74
     0
  0
LTYPE
  5
37
330
5
100
AcDbSymbolTableRecord
100
AcDbLinetypeTableRecord
  2
PHANTOM
 70
     0
  3
______  __  __  ______  __  __  
 72
    65
 73
     6
 40
2.5
 49
1.25
 74
     0
 49
-0.25
 74
     0
 49
0.25
 74
     0
 49
-0.25
 74
     0
 49
0.25
 74
     0
 49
-0.25
 74
     0
  0
LTYPE
  5
38
330
5
100
AcDbSymbolTableRecord
100
AcDbLinetypeTableRecord
  2
PHANTOM2
 70
     0
  3
___ _ _ ___ _ _ ___ _ _ ___ _ _ 
 72
    65
 73
     6
 40
1.25
 49
0.625
 74
     0
 49
-0.125
 74
     0
 49
0.125
 74
     0
 49
-0.125
 74
     0
 49
0.125
 74
     0
 49
-0.125
 74
     0
  0
LTYPE
  5
39
330
5
100
AcDbSymbolTableRecord
100
AcDbLinetypeTableRecord
  2
PHANTOMX2
 70
     0
  3
___ _ _ ___ _ _ ___ _ _ ___ _ _ 
 72
    65
 73
     6
 40
5.0
 49
2.5
 74
     0
 49
-0.5
 74
     0
 49
0.5
 74
     0
 49
-0.5
 74
     0
 49
0.5
 74
     0
 49
-0.5
 74
     0
  0
ENDTAB
  0
TABLE
  2
LAYER
  5
2
330
0
100
AcDbSymbolTable
 70
   256
  0
LAYER
  5
10
330
2
100
AcDbSymbolTableRecord
100
AcDbLayerTableRecord
  2
0
 70
     0
 62
     7
  6
CONTINUOUS
  0
LAYER
  5
3A
330
2
100
AcDbSymbolTableRecord
100
AcDbLayerTableRecord
  2
1
 70
     0
 62
     1
  6
CONTINUOUS
  0
LAYER
  5
3B
330
2
100
AcDbSymbolTableRecord
100
AcDbLayerTableRecord
  2
2
 70
     0
 62
     2
  6
CONTINUOUS
  0
LAYER
  5
3C
330
2
100
AcDbSymbolTableRecord
100
AcDbLayerTableRecord
  2
3
 70
     0
 62
     3
  6
CONTINUOUS
  0
LAYER
  5
3D
330
2
100
AcDbSymbolTableRecord
100
AcDbLayerTableRecord
  2
4
 70
     0
 62
     4
  6
CONTINUOUS
  0
LAYER
  5
3E
330
2
100
AcDbSymbolTableRecord
100
AcDbLayerTableRecord
  2
5
 70
     0
 62
     5
  6
CONTINUOUS
  0
LAYER
  5
3F
330
2
100
AcDbSymbolTableRecord
100
AcDbLayerTableRecord
  2
6
 70
     0
 62
     6
  6
CONTINUOUS
  0
LAYER
  5
40
330
2
100
AcDbSymbolTableRecord
100
AcDbLayerTableRecord
  2
7
 70
     0
 62
     7
  6
CONTINUOUS
  0
LAYER
  5
41
330
2
100
AcDbSymbolTableRecord
100
AcDbLayerTableRecord
  2
8
 70
     0
 62
     8
  6
CONTINUOUS
  0
LAYER
  5
42
330
2
100
AcDbSymbolTableRecord
100
AcDbLayerTableRecord
  2
9
 70
     0
 62
     9
  6
CONTINUOUS
  0
LAYER
  5
43
330
2
100
AcDbSymbolTableRecord
100
AcDbLayerTableRecord
  2
10
 70
     0
 62
    10
  6
CONTINUOUS
  0
LAYER
  5
44
330
2
100
AcDbSymbolTableRecord
100
AcDbLayerTableRecord
  2
11
 70
     0
 62
    11
  6
CONTINUOUS
  0
LAYER
  5
45
330
2
100
AcDbSymbolTableRecord
100
AcDbLayerTableRecord
  2
12
 70
     0
 62
    12
  6
CONTINUOUS
  0
LAYER
  5
46
330
2
100
AcDbSymbolTableRecord
100
AcDbLayerTableRecord
  2
13
 70
     0
 62
    13
  6
CONTINUOUS
  0
LAYER
  5
47
330
2
100
AcDbSymbolTableRecord
100
AcDbLayerTableRecord
  2
14
 70
     0
 62
    14
  6
CONTINUOUS
  0
LAYER
  5
48
330
2
100
AcDbSymbolTableRecord
100
AcDbLayerTableRecord
  2
15
 70
     0
 62
    15
  6
CONTINUOUS
  0
LAYER
  5
49
330
2
100
AcDbSymbolTableRecord
100
AcDbLayerTableRecord
  2
16
 70
     0
 62
    16
  6
CONTINUOUS
  0
LAYER
  5
4A
330
2
100
AcDbSymbolTableRecord
100
AcDbLayerTableRecord
  2
17
 70
     0
 62
    17
  6
CONTINUOUS
  0
LAYER
  5
4B
330
2
100
AcDbSymbolTableRecord
100
AcDbLayerTableRecord
  2
18
 70
     0
 62
    18
  6
CONTINUOUS
  0
LAYER
  5
4C
330
2
100
AcDbSymbolTableRecord
100
AcDbLayerTableRecord
  2
19
 70
     0
 62
    19
  6
CONTINUOUS
  0
LAYER
  5
4D
330
2
100
AcDbSymbolTableRecord
100
AcDbLayerTableRecord
  2
20
 70
     0
 62
    20
  6
CONTINUOUS
  0
LAYER
  5
4E
330
2
100
AcDbSymbolTableRecord
100
AcDbLayerTableRecord
  2
21
 70
     0
 62
    21
  6
CONTINUOUS
  0
LAYER
  5
4F
330
2
100
AcDbSymbolTableRecord
100
AcDbLayerTableRecord
  2
22
 70
     0
 62
    22
  6
CONTINUOUS
  0
LAYER
  5
50
330
2
100
AcDbSymbolTableRecord
100
AcDbLayerTableRecord
  2
23
 70
     0
 62
    23
  6
CONTINUOUS
  0
LAYER
  5
51
330
2
100
AcDbSymbolTableRecord
100
AcDbLayerTableRecord
  2
24
 70
     0
 62
    24
  6
CONTINUOUS
  0
LAYER
  5
52
330
2
100
AcDbSymbolTableRecord
100
AcDbLayerTableRecord
  2
25
 70
     0
 62
    25
  6
CONTINUOUS
  0
LAYER
  5
53
330
2
100
AcDbSymbolTableRecord
100
AcDbLayerTableRecord
  2
26
 70
     0
 62
    26
  6
CONTINUOUS
  0
LAYER
  5
54
330
2
100
AcDbSymbolTableRecord
100
AcDbLayerTableRecord
  2
27
 70
     0
 62
    27
  6
CONTINUOUS
  0
LAYER
  5
55
330
2
100
AcDbSymbolTableRecord
100
AcDbLayerTableRecord
  2
28
 70
     0
 62
    28
  6
CONTINUOUS
  0
LAYER
  5
56
330
2
100
AcDbSymbolTableRecord
100
AcDbLayerTableRecord
  2
29
 70
     0
 62
    29
  6
CONTINUOUS
  0
LAYER
  5
57
330
2
100
AcDbSymbolTableRecord
100
AcDbLayerTableRecord
  2
30
 70
     0
 62
    30
  6
CONTINUOUS
  0
LAYER
  5
58
330
2
100
AcDbSymbolTableRecord
100
AcDbLayerTableRecord
  2
31
 70
     0
 62
    31
  6
CONTINUOUS
  0
LAYER
  5
59
330
2
100
AcDbSymbolTableRecord
100
AcDbLayerTableRecord
  2
32
 70
     0
 62
    32
  6
CONTINUOUS
  0
LAYER
  5
5A
330
2
100
AcDbSymbolTableRecord
100
AcDbLayerTableRecord
  2
33
 70
     0
 62
    33
  6
CONTINUOUS
  0
LAYER
  5
5B
330
2
100
AcDbSymbolTableRecord
100
AcDbLayerTableRecord
  2
34
 70
     0
 62
    34
  6
CONTINUOUS
  0
LAYER
  5
5C
330
2
100
AcDbSymbolTableRecord
100
AcDbLayerTableRecord
  2
35
 70
     0
 62
    35
  6
CONTINUOUS
  0
LAYER
  5
5D
330
2
100
AcDbSymbolTableRecord
100
AcDbLayerTableRecord
  2
36
 70
     0
 62
    36
  6
CONTINUOUS
  0
LAYER
  5
5E
330
2
100
AcDbSymbolTableRecord
100
AcDbLayerTableRecord
  2
37
 70
     0
 62
    37
  6
CONTINUOUS
  0
LAYER
  5
5F
330
2
100
AcDbSymbolTableRecord
100
AcDbLayerTableRecord
  2
38
 70
     0
 62
    38
  6
CONTINUOUS
  0
LAYER
  5
60
330
2
100
AcDbSymbolTableRecord
100
AcDbLayerTableRecord
  2
39
 70
     0
 62
    39
  6
CONTINUOUS
  0
LAYER
  5
61
330
2
100
AcDbSymbolTableRecord
100
AcDbLayerTableRecord
  2
40
 70
     0
 62
    40
  6
CONTINUOUS
  0
LAYER
  5
62
330
2
100
AcDbSymbolTableRecord
100
AcDbLayerTableRecord
  2
41
 70
     0
 62
    41
  6
CONTINUOUS
  0
LAYER
  5
63
330
2
100
AcDbSymbolTableRecord
100
AcDbLayerTableRecord
  2
42
 70
     0
 62
    42
  6
CONTINUOUS
  0
LAYER
  5
64
330
2
100
AcDbSymbolTableRecord
100
AcDbLayerTableRecord
  2
43
 70
     0
 62
    43
  6
CONTINUOUS
  0
LAYER
  5
65
330
2
100
AcDbSymbolTableRecord
100
AcDbLayerTableRecord
  2
44
 70
     0
 62
    44
  6
CONTINUOUS
  0
LAYER
  5
66
330
2
100
AcDbSymbolTableRecord
100
AcDbLayerTableRecord
  2
45
 70
     0
 62
    45
  6
CONTINUOUS
  0
LAYER
  5
67
330
2
100
AcDbSymbolTableRecord
100
AcDbLayerTableRecord
  2
46
 70
     0
 62
    46
  6
CONTINUOUS
  0
LAYER
  5
68
330
2
100
AcDbSymbolTableRecord
100
AcDbLayerTableRecord
  2
47
 70
     0
 62
    47
  6
CONTINUOUS
  0
LAYER
  5
69
330
2
100
AcDbSymbolTableRecord
100
AcDbLayerTableRecord
  2
48
 70
     0
 62
    48
  6
CONTINUOUS
  0
LAYER
  5
6A
330
2
100
AcDbSymbolTableRecord
100
AcDbLayerTableRecord
  2
49
 70
     0
 62
    49
  6
CONTINUOUS
  0
LAYER
  5
6B
330
2
100
AcDbSymbolTableRecord
100
AcDbLayerTableRecord
  2
50
 70
     0
 62
    50
  6
CONTINUOUS
  0
LAYER
  5
6C
330
2
100
AcDbSymbolTableRecord
100
AcDbLayerTableRecord
  2
51
 70
     0
 62
    51
  6
CONTINUOUS
  0
LAYER
  5
6D
330
2
100
AcDbSymbolTableRecord
100
AcDbLayerTableRecord
  2
52
 70
     0
 62
    52
  6
CONTINUOUS
  0
LAYER
  5
6E
330
2
100
AcDbSymbolTableRecord
100
AcDbLayerTableRecord
  2
53
 70
     0
 62
    53
  6
CONTINUOUS
  0
LAYER
  5
6F
330
2
100
AcDbSymbolTableRecord
100
AcDbLayerTableRecord
  2
54
 70
     0
 62
    54
  6
CONTINUOUS
  0
LAYER
  5
70
330
2
100
AcDbSymbolTableRecord
100
AcDbLayerTableRecord
  2
55
 70
     0
 62
    55
  6
CONTINUOUS
  0
LAYER
  5
71
330
2
100
AcDbSymbolTableRecord
100
AcDbLayerTableRecord
  2
56
 70
     0
 62
    56
  6
CONTINUOUS
  0
LAYER
  5
72
330
2
100
AcDbSymbolTableRecord
100
AcDbLayerTableRecord
  2
57
 70
     0
 62
    57
  6
CONTINUOUS
  0
LAYER
  5
73
330
2
100
AcDbSymbolTableRecord
100
AcDbLayerTableRecord
  2
58
 70
     0
 62
    58
  6
CONTINUOUS
  0
LAYER
  5
74
330
2
100
AcDbSymbolTableRecord
100
AcDbLayerTableRecord
  2
59
 70
     0
 62
    59
  6
CONTINUOUS
  0
LAYER
  5
75
330
2
100
AcDbSymbolTableRecord
100
AcDbLayerTableRecord
  2
60
 70
     0
 62
    60
  6
CONTINUOUS
  0
LAYER
  5
76
330
2
100
AcDbSymbolTableRecord
100
AcDbLayerTableRecord
  2
61
 70
     0
 62
    61
  6
CONTINUOUS
  0
LAYER
  5
77
330
2
100
AcDbSymbolTableRecord
100
AcDbLayerTableRecord
  2
62
 70
     0
 62
    62
  6
CONTINUOUS
  0
LAYER
  5
78
330
2
100
AcDbSymbolTableRecord
100
AcDbLayerTableRecord
  2
63
 70
     0
 62
    63
  6
CONTINUOUS
  0
LAYER
  5
79
330
2
100
AcDbSymbolTableRecord
100
AcDbLayerTableRecord
  2
64
 70
     0
 62
    64
  6
CONTINUOUS
  0
LAYER
  5
7A
330
2
100
AcDbSymbolTableRecord
100
AcDbLayerTableRecord
  2
65
 70
     0
 62
    65
  6
CONTINUOUS
  0
LAYER
  5
7B
330
2
100
AcDbSymbolTableRecord
100
AcDbLayerTableRecord
  2
66
 70
     0
 62
    66
  6
CONTINUOUS
  0
LAYER
  5
7C
330
2
100
AcDbSymbolTableRecord
100
AcDbLayerTableRecord
  2
67
 70
     0
 62
    67
  6
CONTINUOUS
  0
LAYER
  5
7D
330
2
100
AcDbSymbolTableRecord
100
AcDbLayerTableRecord
  2
68
 70
     0
 62
    68
  6
CONTINUOUS
  0
LAYER
  5
7E
330
2
100
AcDbSymbolTableRecord
100
AcDbLayerTableRecord
  2
69
 70
     0
 62
    69
  6
CONTINUOUS
  0
LAYER
  5
7F
330
2
100
AcDbSymbolTableRecord
100
AcDbLayerTableRecord
  2
70
 70
     0
 62
    70
  6
CONTINUOUS
  0
LAYER
  5
80
330
2
100
AcDbSymbolTableRecord
100
AcDbLayerTableRecord
  2
71
 70
     0
 62
    71
  6
CONTINUOUS
  0
LAYER
  5
81
330
2
100
AcDbSymbolTableRecord
100
AcDbLayerTableRecord
  2
72
 70
     0
 62
    72
  6
CONTINUOUS
  0
LAYER
  5
82
330
2
100
AcDbSymbolTableRecord
100
AcDbLayerTableRecord
  2
73
 70
     0
 62
    73
  6
CONTINUOUS
  0
LAYER
  5
83
330
2
100
AcDbSymbolTableRecord
100
AcDbLayerTableRecord
  2
74
 70
     0
 62
    74
  6
CONTINUOUS
  0
LAYER
  5
84
330
2
100
AcDbSymbolTableRecord
100
AcDbLayerTableRecord
  2
75
 70
     0
 62
    75
  6
CONTINUOUS
  0
LAYER
  5
85
330
2
100
AcDbSymbolTableRecord
100
AcDbLayerTableRecord
  2
76
 70
     0
 62
    76
  6
CONTINUOUS
  0
LAYER
  5
86
330
2
100
AcDbSymbolTableRecord
100
AcDbLayerTableRecord
  2
77
 70
     0
 62
    77
  6
CONTINUOUS
  0
LAYER
  5
87
330
2
100
AcDbSymbolTableRecord
100
AcDbLayerTableRecord
  2
78
 70
     0
 62
    78
  6
CONTINUOUS
  0
LAYER
  5
88
330
2
100
AcDbSymbolTableRecord
100
AcDbLayerTableRecord
  2
79
 70
     0
 62
    79
  6
CONTINUOUS
  0
LAYER
  5
89
330
2
100
AcDbSymbolTableRecord
100
AcDbLayerTableRecord
  2
80
 70
     0
 62
    80
  6
CONTINUOUS
  0
LAYER
  5
8A
330
2
100
AcDbSymbolTableRecord
100
AcDbLayerTableRecord
  2
81
 70
     0
 62
    81
  6
CONTINUOUS
  0
LAYER
  5
8B
330
2
100
AcDbSymbolTableRecord
100
AcDbLayerTableRecord
  2
82
 70
     0
 62
    82
  6
CONTINUOUS
  0
LAYER
  5
8C
330
2
100
AcDbSymbolTableRecord
100
AcDbLayerTableRecord
  2
83
 70
     0
 62
    83
  6
CONTINUOUS
  0
LAYER
  5
8D
330
2
100
AcDbSymbolTableRecord
100
AcDbLayerTableRecord
  2
84
 70
     0
 62
    84
  6
CONTINUOUS
  0
LAYER
  5
8E
330
2
100
AcDbSymbolTableRecord
100
AcDbLayerTableRecord
  2
85
 70
     0
 62
    85
  6
CONTINUOUS
  0
LAYER
  5
8F
330
2
100
AcDbSymbolTableRecord
100
AcDbLayerTableRecord
  2
86
 70
     0
 62
    86
  6
CONTINUOUS
  0
LAYER
  5
90
330
2
100
AcDbSymbolTableRecord
100
AcDbLayerTableRecord
  2
87
 70
     0
 62
    87
  6
CONTINUOUS
  0
LAYER
  5
91
330
2
100
AcDbSymbolTableRecord
100
AcDbLayerTableRecord
  2
88
 70
     0
 62
    88
  6
CONTINUOUS
  0
LAYER
  5
92
330
2
100
AcDbSymbolTableRecord
100
AcDbLayerTableRecord
  2
89
 70
     0
 62
    89
  6
CONTINUOUS
  0
LAYER
  5
93
330
2
100
AcDbSymbolTableRecord
100
AcDbLayerTableRecord
  2
90
 70
     0
 62
    90
  6
CONTINUOUS
  0
LAYER
  5
94
330
2
100
AcDbSymbolTableRecord
100
AcDbLayerTableRecord
  2
91
 70
     0
 62
    91
  6
CONTINUOUS
  0
LAYER
  5
95
330
2
100
AcDbSymbolTableRecord
100
AcDbLayerTableRecord
  2
92
 70
     0
 62
    92
  6
CONTINUOUS
  0
LAYER
  5
96
330
2
100
AcDbSymbolTableRecord
100
AcDbLayerTableRecord
  2
93
 70
     0
 62
    93
  6
CONTINUOUS
  0
LAYER
  5
97
330
2
100
AcDbSymbolTableRecord
100
AcDbLayerTableRecord
  2
94
 70
     0
 62
    94
  6
CONTINUOUS
  0
LAYER
  5
98
330
2
100
AcDbSymbolTableRecord
100
AcDbLayerTableRecord
  2
95
 70
     0
 62
    95
  6
CONTINUOUS
  0
LAYER
  5
99
330
2
100
AcDbSymbolTableRecord
100
AcDbLayerTableRecord
  2
96
 70
     0
 62
    96
  6
CONTINUOUS
  0
LAYER
  5
9A
330
2
100
AcDbSymbolTableRecord
100
AcDbLayerTableRecord
  2
97
 70
     0
 62
    97
  6
CONTINUOUS
  0
LAYER
  5
9B
330
2
100
AcDbSymbolTableRecord
100
AcDbLayerTableRecord
  2
98
 70
     0
 62
    98
  6
CONTINUOUS
  0
LAYER
  5
9C
330
2
100
AcDbSymbolTableRecord
100
AcDbLayerTableRecord
  2
99
 70
     0
 62
    99
  6
CONTINUOUS
  0
LAYER
  5
9D
330
2
100
AcDbSymbolTableRecord
100
AcDbLayerTableRecord
  2
100
 70
     0
 62
   100
  6
CONTINUOUS
  0
LAYER
  5
9E
330
2
100
AcDbSymbolTableRecord
100
AcDbLayerTableRecord
  2
101
 70
     0
 62
   101
  6
CONTINUOUS
  0
LAYER
  5
9F
330
2
100
AcDbSymbolTableRecord
100
AcDbLayerTableRecord
  2
102
 70
     0
 62
   102
  6
CONTINUOUS
  0
LAYER
  5
A0
330
2
100
AcDbSymbolTableRecord
100
AcDbLayerTableRecord
  2
103
 70
     0
 62
   103
  6
CONTINUOUS
  0
LAYER
  5
A1
330
2
100
AcDbSymbolTableRecord
100
AcDbLayerTableRecord
  2
104
 70
     0
 62
   104
  6
CONTINUOUS
  0
LAYER
  5
A2
330
2
100
AcDbSymbolTableRecord
100
AcDbLayerTableRecord
  2
105
 70
     0
 62
   105
  6
CONTINUOUS
  0
LAYER
  5
A3
330
2
100
AcDbSymbolTableRecord
100
AcDbLayerTableRecord
  2
106
 70
     0
 62
   106
  6
CONTINUOUS
  0
LAYER
  5
A4
330
2
100
AcDbSymbolTableRecord
100
AcDbLayerTableRecord
  2
107
 70
     0
 62
   107
  6
CONTINUOUS
  0
LAYER
  5
A5
330
2
100
AcDbSymbolTableRecord
100
AcDbLayerTableRecord
  2
108
 70
     0
 62
   108
  6
CONTINUOUS
  0
LAYER
  5
A6
330
2
100
AcDbSymbolTableRecord
100
AcDbLayerTableRecord
  2
109
 70
     0
 62
   109
  6
CONTINUOUS
  0
LAYER
  5
A7
330
2
100
AcDbSymbolTableRecord
100
AcDbLayerTableRecord
  2
110
 70
     0
 62
   110
  6
CONTINUOUS
  0
LAYER
  5
A8
330
2
100
AcDbSymbolTableRecord
100
AcDbLayerTableRecord
  2
111
 70
     0
 62
   111
  6
CONTINUOUS
  0
LAYER
  5
A9
330
2
100
AcDbSymbolTableRecord
100
AcDbLayerTableRecord
  2
112
 70
     0
 62
   112
  6
CONTINUOUS
  0
LAYER
  5
AA
330
2
100
AcDbSymbolTableRecord
100
AcDbLayerTableRecord
  2
113
 70
     0
 62
   113
  6
CONTINUOUS
  0
LAYER
  5
AB
330
2
100
AcDbSymbolTableRecord
100
AcDbLayerTableRecord
  2
114
 70
     0
 62
   114
  6
CONTINUOUS
  0
LAYER
  5
AC
330
2
100
AcDbSymbolTableRecord
100
AcDbLayerTableRecord
  2
115
 70
     0
 62
   115
  6
CONTINUOUS
  0
LAYER
  5
AD
330
2
100
AcDbSymbolTableRecord
100
AcDbLayerTableRecord
  2
116
 70
     0
 62
   116
  6
CONTINUOUS
  0
LAYER
  5
AE
330
2
100
AcDbSymbolTableRecord
100
AcDbLayerTableRecord
  2
117
 70
     0
 62
   117
  6
CONTINUOUS
  0
LAYER
  5
AF
330
2
100
AcDbSymbolTableRecord
100
AcDbLayerTableRecord
  2
118
 70
     0
 62
   118
  6
CONTINUOUS
  0
LAYER
  5
B0
330
2
100
AcDbSymbolTableRecord
100
AcDbLayerTableRecord
  2
119
 70
     0
 62
   119
  6
CONTINUOUS
  0
LAYER
  5
B1
330
2
100
AcDbSymbolTableRecord
100
AcDbLayerTableRecord
  2
120
 70
     0
 62
   120
  6
CONTINUOUS
  0
LAYER
  5
B2
330
2
100
AcDbSymbolTableRecord
100
AcDbLayerTableRecord
  2
121
 70
     0
 62
   121
  6
CONTINUOUS
  0
LAYER
  5
B3
330
2
100
AcDbSymbolTableRecord
100
AcDbLayerTableRecord
  2
122
 70
     0
 62
   122
  6
CONTINUOUS
  0
LAYER
  5
B4
330
2
100
AcDbSymbolTableRecord
100
AcDbLayerTableRecord
  2
123
 70
     0
 62
   123
  6
CONTINUOUS
  0
LAYER
  5
B5
330
2
100
AcDbSymbolTableRecord
100
AcDbLayerTableRecord
  2
124
 70
     0
 62
   124
  6
CONTINUOUS
  0
LAYER
  5
B6
330
2
100
AcDbSymbolTableRecord
100
AcDbLayerTableRecord
  2
125
 70
     0
 62
   125
  6
CONTINUOUS
  0
LAYER
  5
B7
330
2
100
AcDbSymbolTableRecord
100
AcDbLayerTableRecord
  2
126
 70
     0
 62
   126
  6
CONTINUOUS
  0
LAYER
  5
B8
330
2
100
AcDbSymbolTableRecord
100
AcDbLayerTableRecord
  2
127
 70
     0
 62
   127
  6
CONTINUOUS
  0
LAYER
  5
B9
330
2
100
AcDbSymbolTableRecord
100
AcDbLayerTableRecord
  2
128
 70
     0
 62
   128
  6
CONTINUOUS
  0
LAYER
  5
BA
330
2
100
AcDbSymbolTableRecord
100
AcDbLayerTableRecord
  2
129
 70
     0
 62
   129
  6
CONTINUOUS
  0
LAYER
  5
BB
330
2
100
AcDbSymbolTableRecord
100
AcDbLayerTableRecord
  2
130
 70
     0
 62
   130
  6
CONTINUOUS
  0
LAYER
  5
BC
330
2
100
AcDbSymbolTableRecord
100
AcDbLayerTableRecord
  2
131
 70
     0
 62
   131
  6
CONTINUOUS
  0
LAYER
  5
BD
330
2
100
AcDbSymbolTableRecord
100
AcDbLayerTableRecord
  2
132
 70
     0
 62
   132
  6
CONTINUOUS
  0
LAYER
  5
BE
330
2
100
AcDbSymbolTableRecord
100
AcDbLayerTableRecord
  2
133
 70
     0
 62
   133
  6
CONTINUOUS
  0
LAYER
  5
BF
330
2
100
AcDbSymbolTableRecord
100
AcDbLayerTableRecord
  2
134
 70
     0
 62
   134
  6
CONTINUOUS
  0
LAYER
  5
C0
330
2
100
AcDbSymbolTableRecord
100
AcDbLayerTableRecord
  2
135
 70
     0
 62
   135
  6
CONTINUOUS
  0
LAYER
  5
C1
330
2
100
AcDbSymbolTableRecord
100
AcDbLayerTableRecord
  2
136
 70
     0
 62
   136
  6
CONTINUOUS
  0
LAYER
  5
C2
330
2
100
AcDbSymbolTableRecord
100
AcDbLayerTableRecord
  2
137
 70
     0
 62
   137
  6
CONTINUOUS
  0
LAYER
  5
C3
330
2
100
AcDbSymbolTableRecord
100
AcDbLayerTableRecord
  2
138
 70
     0
 62
   138
  6
CONTINUOUS
  0
LAYER
  5
C4
330
2
100
AcDbSymbolTableRecord
100
AcDbLayerTableRecord
  2
139
 70
     0
 62
   139
  6
CONTINUOUS
  0
LAYER
  5
C5
330
2
100
AcDbSymbolTableRecord
100
AcDbLayerTableRecord
  2
140
 70
     0
 62
   140
  6
CONTINUOUS
  0
LAYER
  5
C6
330
2
100
AcDbSymbolTableRecord
100
AcDbLayerTableRecord
  2
141
 70
     0
 62
   141
  6
CONTINUOUS
  0
LAYER
  5
C7
330
2
100
AcDbSymbolTableRecord
100
AcDbLayerTableRecord
  2
142
 70
     0
 62
   142
  6
CONTINUOUS
  0
LAYER
  5
C8
330
2
100
AcDbSymbolTableRecord
100
AcDbLayerTableRecord
  2
143
 70
     0
 62
   143
  6
CONTINUOUS
  0
LAYER
  5
C9
330
2
100
AcDbSymbolTableRecord
100
AcDbLayerTableRecord
  2
144
 70
     0
 62
   144
  6
CONTINUOUS
  0
LAYER
  5
CA
330
2
100
AcDbSymbolTableRecord
100
AcDbLayerTableRecord
  2
145
 70
     0
 62
   145
  6
CONTINUOUS
  0
LAYER
  5
CB
330
2
100
AcDbSymbolTableRecord
100
AcDbLayerTableRecord
  2
146
 70
     0
 62
   146
  6
CONTINUOUS
  0
LAYER
  5
CC
330
2
100
AcDbSymbolTableRecord
100
AcDbLayerTableRecord
  2
147
 70
     0
 62
   147
  6
CONTINUOUS
  0
LAYER
  5
CD
330
2
100
AcDbSymbolTableRecord
100
AcDbLayerTableRecord
  2
148
 70
     0
 62
   148
  6
CONTINUOUS
  0
LAYER
  5
CE
330
2
100
AcDbSymbolTableRecord
100
AcDbLayerTableRecord
  2
149
 70
     0
 62
   149
  6
CONTINUOUS
  0
LAYER
  5
CF
330
2
100
AcDbSymbolTableRecord
100
AcDbLayerTableRecord
  2
150
 70
     0
 62
   150
  6
CONTINUOUS
  0
LAYER
  5
D0
330
2
100
AcDbSymbolTableRecord
100
AcDbLayerTableRecord
  2
151
 70
     0
 62
   151
  6
CONTINUOUS
  0
LAYER
  5
D1
330
2
100
AcDbSymbolTableRecord
100
AcDbLayerTableRecord
  2
152
 70
     0
 62
   152
  6
CONTINUOUS
  0
LAYER
  5
D2
330
2
100
AcDbSymbolTableRecord
100
AcDbLayerTableRecord
  2
153
 70
     0
 62
   153
  6
CONTINUOUS
  0
LAYER
  5
D3
330
2
100
AcDbSymbolTableRecord
100
AcDbLayerTableRecord
  2
154
 70
     0
 62
   154
  6
CONTINUOUS
  0
LAYER
  5
D4
330
2
100
AcDbSymbolTableRecord
100
AcDbLayerTableRecord
  2
155
 70
     0
 62
   155
  6
CONTINUOUS
  0
LAYER
  5
D5
330
2
100
AcDbSymbolTableRecord
100
AcDbLayerTableRecord
  2
156
 70
     0
 62
   156
  6
CONTINUOUS
  0
LAYER
  5
D6
330
2
100
AcDbSymbolTableRecord
100
AcDbLayerTableRecord
  2
157
 70
     0
 62
   157
  6
CONTINUOUS
  0
LAYER
  5
D7
330
2
100
AcDbSymbolTableRecord
100
AcDbLayerTableRecord
  2
158
 70
     0
 62
   158
  6
CONTINUOUS
  0
LAYER
  5
D8
330
2
100
AcDbSymbolTableRecord
100
AcDbLayerTableRecord
  2
159
 70
     0
 62
   159
  6
CONTINUOUS
  0
LAYER
  5
D9
330
2
100
AcDbSymbolTableRecord
100
AcDbLayerTableRecord
  2
160
 70
     0
 62
   160
  6
CONTINUOUS
  0
LAYER
  5
DA
330
2
100
AcDbSymbolTableRecord
100
AcDbLayerTableRecord
  2
161
 70
     0
 62
   161
  6
CONTINUOUS
  0
LAYER
  5
DB
330
2
100
AcDbSymbolTableRecord
100
AcDbLayerTableRecord
  2
162
 70
     0
 62
   162
  6
CONTINUOUS
  0
LAYER
  5
DC
330
2
100
AcDbSymbolTableRecord
100
AcDbLayerTableRecord
  2
163
 70
     0
 62
   163
  6
CONTINUOUS
  0
LAYER
  5
DD
330
2
100
AcDbSymbolTableRecord
100
AcDbLayerTableRecord
  2
164
 70
     0
 62
   164
  6
CONTINUOUS
  0
LAYER
  5
DE
330
2
100
AcDbSymbolTableRecord
100
AcDbLayerTableRecord
  2
165
 70
     0
 62
   165
  6
CONTINUOUS
  0
LAYER
  5
DF
330
2
100
AcDbSymbolTableRecord
100
AcDbLayerTableRecord
  2
166
 70
     0
 62
   166
  6
CONTINUOUS
  0
LAYER
  5
E0
330
2
100
AcDbSymbolTableRecord
100
AcDbLayerTableRecord
  2
167
 70
     0
 62
   167
  6
CONTINUOUS
  0
LAYER
  5
E1
330
2
100
AcDbSymbolTableRecord
100
AcDbLayerTableRecord
  2
168
 70
     0
 62
   168
  6
CONTINUOUS
  0
LAYER
  5
E2
330
2
100
AcDbSymbolTableRecord
100
AcDbLayerTableRecord
  2
169
 70
     0
 62
   169
  6
CONTINUOUS
  0
LAYER
  5
E3
330
2
100
AcDbSymbolTableRecord
100
AcDbLayerTableRecord
  2
170
 70
     0
 62
   170
  6
CONTINUOUS
  0
LAYER
  5
E4
330
2
100
AcDbSymbolTableRecord
100
AcDbLayerTableRecord
  2
171
 70
     0
 62
   171
  6
CONTINUOUS
  0
LAYER
  5
E5
330
2
100
AcDbSymbolTableRecord
100
AcDbLayerTableRecord
  2
172
 70
     0
 62
   172
  6
CONTINUOUS
  0
LAYER
  5
E6
330
2
100
AcDbSymbolTableRecord
100
AcDbLayerTableRecord
  2
173
 70
     0
 62
   173
  6
CONTINUOUS
  0
LAYER
  5
E7
330
2
100
AcDbSymbolTableRecord
100
AcDbLayerTableRecord
  2
174
 70
     0
 62
   174
  6
CONTINUOUS
  0
LAYER
  5
E8
330
2
100
AcDbSymbolTableRecord
100
AcDbLayerTableRecord
  2
175
 70
     0
 62
   175
  6
CONTINUOUS
  0
LAYER
  5
E9
330
2
100
AcDbSymbolTableRecord
100
AcDbLayerTableRecord
  2
176
 70
     0
 62
   176
  6
CONTINUOUS
  0
LAYER
  5
EA
330
2
100
AcDbSymbolTableRecord
100
AcDbLayerTableRecord
  2
177
 70
     0
 62
   177
  6
CONTINUOUS
  0
LAYER
  5
EB
330
2
100
AcDbSymbolTableRecord
100
AcDbLayerTableRecord
  2
178
 70
     0
 62
   178
  6
CONTINUOUS
  0
LAYER
  5
EC
330
2
100
AcDbSymbolTableRecord
100
AcDbLayerTableRecord
  2
179
 70
     0
 62
   179
  6
CONTINUOUS
  0
LAYER
  5
ED
330
2
100
AcDbSymbolTableRecord
100
AcDbLayerTableRecord
  2
180
 70
     0
 62
   180
  6
CONTINUOUS
  0
LAYER
  5
EE
330
2
100
AcDbSymbolTableRecord
100
AcDbLayerTableRecord
  2
181
 70
     0
 62
   181
  6
CONTINUOUS
  0
LAYER
  5
EF
330
2
100
AcDbSymbolTableRecord
100
AcDbLayerTableRecord
  2
182
 70
     0
 62
   182
  6
CONTINUOUS
  0
LAYER
  5
F0
330
2
100
AcDbSymbolTableRecord
100
AcDbLayerTableRecord
  2
183
 70
     0
 62
   183
  6
CONTINUOUS
  0
LAYER
  5
F1
330
2
100
AcDbSymbolTableRecord
100
AcDbLayerTableRecord
  2
184
 70
     0
 62
   184
  6
CONTINUOUS
  0
LAYER
  5
F2
330
2
100
AcDbSymbolTableRecord
100
AcDbLayerTableRecord
  2
185
 70
     0
 62
   185
  6
CONTINUOUS
  0
LAYER
  5
F3
330
2
100
AcDbSymbolTableRecord
100
AcDbLayerTableRecord
  2
186
 70
     0
 62
   186
  6
CONTINUOUS
  0
LAYER
  5
F4
330
2
100
AcDbSymbolTableRecord
100
AcDbLayerTableRecord
  2
187
 70
     0
 62
   187
  6
CONTINUOUS
  0
LAYER
  5
F5
330
2
100
AcDbSymbolTableRecord
100
AcDbLayerTableRecord
  2
188
 70
     0
 62
   188
  6
CONTINUOUS
  0
LAYER
  5
F6
330
2
100
AcDbSymbolTableRecord
100
AcDbLayerTableRecord
  2
189
 70
     0
 62
   189
  6
CONTINUOUS
  0
LAYER
  5
F7
330
2
100
AcDbSymbolTableRecord
100
AcDbLayerTableRecord
  2
190
 70
     0
 62
   190
  6
CONTINUOUS
  0
LAYER
  5
F8
330
2
100
AcDbSymbolTableRecord
100
AcDbLayerTableRecord
  2
191
 70
     0
 62
   191
  6
CONTINUOUS
  0
LAYER
  5
F9
330
2
100
AcDbSymbolTableRecord
100
AcDbLayerTableRecord
  2
192
 70
     0
 62
   192
  6
CONTINUOUS
  0
LAYER
  5
FA
330
2
100
AcDbSymbolTableRecord
100
AcDbLayerTableRecord
  2
193
 70
     0
 62
   193
  6
CONTINUOUS
  0
LAYER
  5
FB
330
2
100
AcDbSymbolTableRecord
100
AcDbLayerTableRecord
  2
194
 70
     0
 62
   194
  6
CONTINUOUS
  0
LAYER
  5
FC
330
2
100
AcDbSymbolTableRecord
100
AcDbLayerTableRecord
  2
195
 70
     0
 62
   195
  6
CONTINUOUS
  0
LAYER
  5
FD
330
2
100
AcDbSymbolTableRecord
100
AcDbLayerTableRecord
  2
196
 70
     0
 62
   196
  6
CONTINUOUS
  0
LAYER
  5
FE
330
2
100
AcDbSymbolTableRecord
100
AcDbLayerTableRecord
  2
197
 70
     0
 62
   197
  6
CONTINUOUS
  0
LAYER
  5
FF
330
2
100
AcDbSymbolTableRecord
100
AcDbLayerTableRecord
  2
198
 70
     0
 62
   198
  6
CONTINUOUS
  0
LAYER
  5
100
330
2
100
AcDbSymbolTableRecord
100
AcDbLayerTableRecord
  2
199
 70
     0
 62
   199
  6
CONTINUOUS
  0
LAYER
  5
101
330
2
100
AcDbSymbolTableRecord
100
AcDbLayerTableRecord
  2
200
 70
     0
 62
   200
  6
CONTINUOUS
  0
LAYER
  5
102
330
2
100
AcDbSymbolTableRecord
100
AcDbLayerTableRecord
  2
201
 70
     0
 62
   201
  6
CONTINUOUS
  0
LAYER
  5
103
330
2
100
AcDbSymbolTableRecord
100
AcDbLayerTableRecord
  2
202
 70
     0
 62
   202
  6
CONTINUOUS
  0
LAYER
  5
104
330
2
100
AcDbSymbolTableRecord
100
AcDbLayerTableRecord
  2
203
 70
     0
 62
   203
  6
CONTINUOUS
  0
LAYER
  5
105
330
2
100
AcDbSymbolTableRecord
100
AcDbLayerTableRecord
  2
204
 70
     0
 62
   204
  6
CONTINUOUS
  0
LAYER
  5
106
330
2
100
AcDbSymbolTableRecord
100
AcDbLayerTableRecord
  2
205
 70
     0
 62
   205
  6
CONTINUOUS
  0
LAYER
  5
107
330
2
100
AcDbSymbolTableRecord
100
AcDbLayerTableRecord
  2
206
 70
     0
 62
   206
  6
CONTINUOUS
  0
LAYER
  5
108
330
2
100
AcDbSymbolTableRecord
100
AcDbLayerTableRecord
  2
207
 70
     0
 62
   207
  6
CONTINUOUS
  0
LAYER
  5
109
330
2
100
AcDbSymbolTableRecord
100
AcDbLayerTableRecord
  2
208
 70
     0
 62
   208
  6
CONTINUOUS
  0
LAYER
  5
10A
330
2
100
AcDbSymbolTableRecord
100
AcDbLayerTableRecord
  2
209
 70
     0
 62
   209
  6
CONTINUOUS
  0
LAYER
  5
10B
330
2
100
AcDbSymbolTableRecord
100
AcDbLayerTableRecord
  2
210
 70
     0
 62
   210
  6
CONTINUOUS
  0
LAYER
  5
10C
330
2
100
AcDbSymbolTableRecord
100
AcDbLayerTableRecord
  2
211
 70
     0
 62
   211
  6
CONTINUOUS
  0
LAYER
  5
10D
330
2
100
AcDbSymbolTableRecord
100
AcDbLayerTableRecord
  2
212
 70
     0
 62
   212
  6
CONTINUOUS
  0
LAYER
  5
10E
330
2
100
AcDbSymbolTableRecord
100
AcDbLayerTableRecord
  2
213
 70
     0
 62
   213
  6
CONTINUOUS
  0
LAYER
  5
10F
330
2
100
AcDbSymbolTableRecord
100
AcDbLayerTableRecord
  2
214
 70
     0
 62
   214
  6
CONTINUOUS
  0
LAYER
  5
110
330
2
100
AcDbSymbolTableRecord
100
AcDbLayerTableRecord
  2
215
 70
     0
 62
   215
  6
CONTINUOUS
  0
LAYER
  5
111
330
2
100
AcDbSymbolTableRecord
100
AcDbLayerTableRecord
  2
216
 70
     0
 62
   216
  6
CONTINUOUS
  0
LAYER
  5
112
330
2
100
AcDbSymbolTableRecord
100
AcDbLayerTableRecord
  2
217
 70
     0
 62
   217
  6
CONTINUOUS
  0
LAYER
  5
113
330
2
100
AcDbSymbolTableRecord
100
AcDbLayerTableRecord
  2
218
 70
     0
 62
   218
  6
CONTINUOUS
  0
LAYER
  5
114
330
2
100
AcDbSymbolTableRecord
100
AcDbLayerTableRecord
  2
219
 70
     0
 62
   219
  6
CONTINUOUS
  0
LAYER
  5
115
330
2
100
AcDbSymbolTableRecord
100
AcDbLayerTableRecord
  2
220
 70
     0
 62
   220
  6
CONTINUOUS
  0
LAYER
  5
116
330
2
100
AcDbSymbolTableRecord
100
AcDbLayerTableRecord
  2
221
 70
     0
 62
   221
  6
CONTINUOUS
  0
LAYER
  5
117
330
2
100
AcDbSymbolTableRecord
100
AcDbLayerTableRecord
  2
222
 70
     0
 62
   222
  6
CONTINUOUS
  0
LAYER
  5
118
330
2
100
AcDbSymbolTableRecord
100
AcDbLayerTableRecord
  2
223
 70
     0
 62
   223
  6
CONTINUOUS
  0
LAYER
  5
119
330
2
100
AcDbSymbolTableRecord
100
AcDbLayerTableRecord
  2
224
 70
     0
 62
   224
  6
CONTINUOUS
  0
LAYER
  5
11A
330
2
100
AcDbSymbolTableRecord
100
AcDbLayerTableRecord
  2
225
 70
     0
 62
   225
  6
CONTINUOUS
  0
LAYER
  5
11B
330
2
100
AcDbSymbolTableRecord
100
AcDbLayerTableRecord
  2
226
 70
     0
 62
   226
  6
CONTINUOUS
  0
LAYER
  5
11C
330
2
100
AcDbSymbolTableRecord
100
AcDbLayerTableRecord
  2
227
 70
     0
 62
   227
  6
CONTINUOUS
  0
LAYER
  5
11D
330
2
100
AcDbSymbolTableRecord
100
AcDbLayerTableRecord
  2
228
 70
     0
 62
   228
  6
CONTINUOUS
  0
LAYER
  5
11E
330
2
100
AcDbSymbolTableRecord
100
AcDbLayerTableRecord
  2
229
 70
     0
 62
   229
  6
CONTINUOUS
  0
LAYER
  5
11F
330
2
100
AcDbSymbolTableRecord
100
AcDbLayerTableRecord
  2
230
 70
     0
 62
   230
  6
CONTINUOUS
  0
LAYER
  5
120
330
2
100
AcDbSymbolTableRecord
100
AcDbLayerTableRecord
  2
231
 70
     0
 62
   231
  6
CONTINUOUS
  0
LAYER
  5
121
330
2
100
AcDbSymbolTableRecord
100
AcDbLayerTableRecord
  2
232
 70
     0
 62
   232
  6
CONTINUOUS
  0
LAYER
  5
122
330
2
100
AcDbSymbolTableRecord
100
AcDbLayerTableRecord
  2
233
 70
     0
 62
   233
  6
CONTINUOUS
  0
LAYER
  5
123
330
2
100
AcDbSymbolTableRecord
100
AcDbLayerTableRecord
  2
234
 70
     0
 62
   234
  6
CONTINUOUS
  0
LAYER
  5
124
330
2
100
AcDbSymbolTableRecord
100
AcDbLayerTableRecord
  2
235
 70
     0
 62
   235
  6
CONTINUOUS
  0
LAYER
  5
125
330
2
100
AcDbSymbolTableRecord
100
AcDbLayerTableRecord
  2
236
 70
     0
 62
   236
  6
CONTINUOUS
  0
LAYER
  5
126
330
2
100
AcDbSymbolTableRecord
100
AcDbLayerTableRecord
  2
237
 70
     0
 62
   237
  6
CONTINUOUS
  0
LAYER
  5
127
330
2
100
AcDbSymbolTableRecord
100
AcDbLayerTableRecord
  2
238
 70
     0
 62
   238
  6
CONTINUOUS
  0
LAYER
  5
128
330
2
100
AcDbSymbolTableRecord
100
AcDbLayerTableRecord
  2
239
 70
     0
 62
   239
  6
CONTINUOUS
  0
LAYER
  5
129
330
2
100
AcDbSymbolTableRecord
100
AcDbLayerTableRecord
  2
240
 70
     0
 62
   240
  6
CONTINUOUS
  0
LAYER
  5
12A
330
2
100
AcDbSymbolTableRecord
100
AcDbLayerTableRecord
  2
241
 70
     0
 62
   241
  6
CONTINUOUS
  0
LAYER
  5
12B
330
2
100
AcDbSymbolTableRecord
100
AcDbLayerTableRecord
  2
242
 70
     0
 62
   242
  6
CONTINUOUS
  0
LAYER
  5
12C
330
2
100
AcDbSymbolTableRecord
100
AcDbLayerTableRecord
  2
243
 70
     0
 62
   243
  6
CONTINUOUS
  0
LAYER
  5
12D
330
2
100
AcDbSymbolTableRecord
100
AcDbLayerTableRecord
  2
244
 70
     0
 62
   244
  6
CONTINUOUS
  0
LAYER
  5
12E
330
2
100
AcDbSymbolTableRecord
100
AcDbLayerTableRecord
  2
245
 70
     0
 62
   245
  6
CONTINUOUS
  0
LAYER
  5
12F
330
2
100
AcDbSymbolTableRecord
100
AcDbLayerTableRecord
  2
246
 70
     0
 62
   246
  6
CONTINUOUS
  0
LAYER
  5
130
330
2
100
AcDbSymbolTableRecord
100
AcDbLayerTableRecord
  2
247
 70
     0
 62
   247
  6
CONTINUOUS
  0
LAYER
  5
131
330
2
100
AcDbSymbolTableRecord
100
AcDbLayerTableRecord
  2
248
 70
     0
 62
   248
  6
CONTINUOUS
  0
LAYER
  5
132
330
2
100
AcDbSymbolTableRecord
100
AcDbLayerTableRecord
  2
249
 70
     0
 62
   249
  6
CONTINUOUS
  0
LAYER
  5
133
330
2
100
AcDbSymbolTableRecord
100
AcDbLayerTableRecord
  2
250
 70
     0
 62
   250
  6
CONTINUOUS
  0
LAYER
  5
134
330
2
100
AcDbSymbolTableRecord
100
AcDbLayerTableRecord
  2
251
 70
     0
 62
   251
  6
CONTINUOUS
  0
LAYER
  5
135
330
2
100
AcDbSymbolTableRecord
100
AcDbLayerTableRecord
  2
252
 70
     0
 62
   252
  6
CONTINUOUS
  0
LAYER
  5
136
330
2
100
AcDbSymbolTableRecord
100
AcDbLayerTableRecord
  2
253
 70
     0
 62
   253
  6
CONTINUOUS
  0
LAYER
  5
137
330
2
100
AcDbSymbolTableRecord
100
AcDbLayerTableRecord
  2
254
 70
     0
 62
   254
  6
CONTINUOUS
  0
LAYER
  5
138
330
2
100
AcDbSymbolTableRecord
100
AcDbLayerTableRecord
  2
255
 70
     0
 62
   255
  6
CONTINUOUS
  0
ENDTAB
  0
TABLE
  2
STYLE
  5
3
330
0
100
AcDbSymbolTable
 70
     1
  0
STYLE
  5
11
330
3
100
AcDbSymbolTableRecord
100
AcDbTextStyleTableRecord
  2
STANDARD
 70
     0
 40
0.0
 41
1.0
 50
0.0
 71
     0
 42
0.2
  3
monotxt
  4

  0
ENDTAB
  0
TABLE
  2
VIEW
  5
6
330
0
100
AcDbSymbolTable
 70
     0
  0
ENDTAB
  0
TABLE
  2
UCS
  5
7
330
0
100
AcDbSymbolTable
 70
     0
  0
ENDTAB
  0
TABLE
  2
APPID
  5
9
330
0
100
AcDbSymbolTable
 70
     1
  0
APPID
  5
12
330
9
100
AcDbSymbolTableRecord
100
AcDbRegAppTableRecord
  2
ACAD
 70
     0
  0
ENDTAB
  0
TABLE
  2
DIMSTYLE
  5
A
330
0
100
AcDbSymbolTable
 70
     1
  0
DIMSTYLE
105
3961
330
A
100
AcDbSymbolTableRecord
100
AcDbDimStyleTableRecord
  2
STANDARD
 70
     0
  3

  4

  5

  6

  7

 40
1.0
 41
0.18
 42
0.0625
 43
0.38
 44
0.18
 45
0.0
 46
0.0
 47
0.0
 48
0.0
140
0.18
141
0.09
142
0.0
143
25.4
144
1.0
145
0.0
146
1.0
147
0.09
 71
     0
 72
     0
 73
     1
 74
     1
 75
     0
 76
     0
 77
     0
 78
     0
170
     0
171
     2
172
     0
173
     0
174
     0
175
     0
176
     0
177
     0
178
     0
270
     2
271
     4
272
     4
273
     2
274
     2
340
11
275
     0
280
     0
281
     0
282
     0
283
     1
284
     0
285
     0
286
     0
287
     3
288
     0
  0
ENDTAB
  0
TABLE
  2
BLOCK_RECORD
  5
1
330
0
100
AcDbSymbolTable
 70
     0
  0
BLOCK_RECORD
  5
1E
102
{ACAD_XDICTIONARY
360
518E
102
}
330
1
100
AcDbSymbolTableRecord
100
AcDbBlockTableRecord
  2
*MODEL_SPACE
  0
BLOCK_RECORD
  5
1A
102
{ACAD_XDICTIONARY
360
5190
102
}
330
1
100
AcDbSymbolTableRecord
100
AcDbBlockTableRecord
  2
*PAPER_SPACE
  0
ENDTAB
  0
ENDSEC
  0
SECTION
  2
BLOCKS
  0
BLOCK
  5
13B
330
1E
100
AcDbEntity
  8
0
100
AcDbBlockBegin
  2
*MODEL_SPACE
 70
     0
 10
0.0
 20
0.0
 30
0.0
  3
*MODEL_SPACE
  1

  0
ENDBLK
  5
13C
330
1E
100
AcDbEntity
  8
0
100
AcDbBlockEnd
  0
BLOCK
  5
139
330
1A
100
AcDbEntity
 67
     1
  8
0
100
AcDbBlockBegin
  2
*PAPER_SPACE
 70
     0
 10
0.0
 20
0.0
 30
0.0
  3
*PAPER_SPACE
  1

  0
ENDBLK
  5
13A
330
1A
100
AcDbEntity
 67
     1
  8
0
100
AcDbBlockEnd
  0
ENDSEC
  0
SECTION
  2
ENTITIES
  0
LINE
  5
2CAF
330
1E
100
AcDbEntity
  8
7
100
AcDbLine
 10
0.8690944881889768
 20
4.737204724409449
 30
0.0
 11
0.8690944881889768
 21
4.166338582677165
 31
0.0
  0
LINE
  5
2CB0
330
1E
100
AcDbEntity
  8
7
100
AcDbLine
 10
0.8690944881889768
 20
6.239173228346456
 30
0.0
 11
0.8690944881889768
 21
5.668307086614173
 31
0.0
  0
LINE
  5
2CB1
330
1E
100
AcDbEntity
  8
7
100
AcDbLine
 10
-0.1446850393700787
 20
7.191929133858267
 30
0.0
 11
3.144685039370078
 21
7.191929133858267
 31
0.0
  0
LINE
  5
2CBB
330
1E
100
AcDbEntity
  8
7
100
AcDbLine
 10
3.002952755905512
 20
7.020669291338582
 30
0.0
 11
-0.0049212598425197
 21
7.020669291338582
 31
0.0
  0
LINE
  5
2CCA
330
1E
100
AcDbEntity
  8
7
100
AcDbLine
 10
3.162401574803149
 20
7.209645669291337
 30
0.0
 11
3.144685039370078
 21
7.191929133858267
 31
0.0
  0
LINE
  5
2CCB
330
1E
100
AcDbEntity
  8
7
100
AcDbLine
 10
-0.1761811023622046
 20
7.160433070866141
 30
0.0
 11
-0.1938976377952759
 21
7.178149606299212
 31
0.0
  0
LINE
  5
2CED
330
1E
100
AcDbEntity
  8
7
100
AcDbLine
 10
3.174212598425197
 20
7.160433070866141
 30
0.0
 11
3.166338582677165
 21
7.154527559055117
 31
0.0
  0
LINE
  5
2CF6
330
1E
100
AcDbEntity
  8
7
100
AcDbLine
 10
0.715551181102363
 20
6.378937007874015
 30
0.0
 11
2.28248031496063
 21
6.378937007874015
 31
0.0
  0
LINE
  5
2CF7
330
1E
100
AcDbEntity
  8
7
100
AcDbLine
 10
2.296259842519685
 20
6.918307086614173
 30
0.0
 11
2.28248031496063
 21
6.378937007874015
 31
0.0
  0
LINE
  5
2CF8
330
1E
100
AcDbEntity
  8
7
100
AcDbLine
 10
2.296259842519685
 20
6.918307086614173
 30
0.0
 11
0.7017716535433074
 21
6.918307086614173
 31
0.0
  0
LINE
  5
2CF9
330
1E
100
AcDbEntity
  8
7
100
AcDbLine
 10
0.7017716535433074
 20
6.918307086614173
 30
0.0
 11
0.715551181102363
 21
6.378937007874015
 31
0.0
  0
LINE
  5
2D22
330
1E
100
AcDbEntity
  8
7
100
AcDbLine
 10
2.327755905511811
 20
6.371062992125984
 30
0.0
 11
2.28248031496063
 21
6.378937007874015
 31
0.0
  0
LINE
  5
2D23
330
1E
100
AcDbEntity
  8
7
100
AcDbLine
 10
2.28248031496063
 20
6.298228346456691
 30
0.0
 11
0.715551181102363
 21
6.298228346456691
 31
0.0
  0
LINE
  5
2D2F
330
1E
100
AcDbEntity
  8
7
100
AcDbLine
 10
3.191929133858267
 20
3.853346456692913
 30
0.0
 11
3.174212598425197
 21
3.873031496062991
 31
0.0
  0
LINE
  5
2D30
330
1E
100
AcDbEntity
  8
7
100
AcDbLine
 10
3.191929133858267
 20
7.178149606299212
 30
0.0
 11
3.191929133858267
 21
3.853346456692913
 31
0.0
  0
LINE
  5
2D31
330
1E
100
AcDbEntity
  8
7
100
AcDbLine
 10
-0.1761811023622046
 20
3.873031496062991
 30
0.0
 11
-0.1761811023622046
 21
7.160433070866141
 31
0.0
  0
LINE
  5
2D3E
330
1E
100
AcDbEntity
  8
7
100
AcDbLine
 10
-0.0049212598425197
 20
7.020669291338582
 30
0.0
 11
-0.0049212598425197
 21
4.01279527559055
 31
0.0
  0
LINE
  5
2D4E
330
1E
100
AcDbEntity
  8
7
100
AcDbLine
 10
-0.1624015748031491
 20
3.823818897637795
 30
0.0
 11
3.162401574803149
 21
3.823818897637795
 31
0.0
  0
LINE
  5
2D5D
330
1E
100
AcDbEntity
  8
7
100
AcDbLine
 10
0.9360236220472444
 20
4.121062992125984
 30
0.0
 11
1.426181102362204
 21
4.121062992125984
 31
0.0
  0
LINE
  5
2D5E
330
1E
100
AcDbEntity
  8
7
100
AcDbLine
 10
0.6840551181102362
 20
4.121062992125984
 30
0.0
 11
0.9360236220472444
 21
4.121062992125984
 31
0.0
  0
LINE
  5
2D66
330
1E
100
AcDbEntity
  8
7
100
AcDbLine
 10
0.6151574803149611
 20
5.264763779527558
 30
0.0
 11
0.6151574803149611
 21
4.290354330708662
 31
0.0
  0
LINE
  5
2D6F
330
1E
100
AcDbEntity
  8
7
100
AcDbLine
 10
2.296259842519685
 20
5.416338582677165
 30
0.0
 11
0.7017716535433074
 21
5.416338582677165
 31
0.0
  0
LINE
  5
2D82
330
1E
100
AcDbEntity
  8
7
100
AcDbLine
 10
1.571850393700787
 20
5.623031496062991
 30
0.0
 11
1.426181102362204
 21
5.623031496062991
 31
0.0
  0
LINE
  5
2D83
330
1E
100
AcDbEntity
  8
7
100
AcDbLine
 10
0.9360236220472444
 20
5.623031496062991
 30
0.0
 11
1.426181102362204
 21
5.623031496062991
 31
0.0
  0
LINE
  5
2D84
330
1E
100
AcDbEntity
  8
7
100
AcDbLine
 10
0.6840551181102362
 20
5.623031496062991
 30
0.0
 11
0.9360236220472444
 21
5.623031496062991
 31
0.0
  0
LINE
  5
2D8C
330
1E
100
AcDbEntity
  8
7
100
AcDbLine
 10
0.6151574803149611
 20
6.766732283464565
 30
0.0
 11
0.6151574803149611
 21
5.792322834645669
 31
0.0
  0
LINE
  5
2D9C
330
1E
100
AcDbEntity
  8
7
100
AcDbLine
 10
2.378937007874015
 20
6.813976377952756
 30
0.0
 11
2.384842519685039
 21
6.766732283464565
 31
0.0
  0
LINE
  5
2D9D
330
1E
100
AcDbEntity
  8
7
100
AcDbLine
 10
-0.0049212598425197
 20
4.01279527559055
 30
0.0
 11
3.002952755905512
 21
4.01279527559055
 31
0.0
  0
LINE
  5
2D9E
330
1E
100
AcDbEntity
  8
7
100
AcDbLine
 10
0.2352362204724407
 20
5.373031496062991
 30
0.0
 11
0.2372047244094491
 21
5.325787401574802
 31
0.0
  0
LINE
  5
2DB5
330
1E
100
AcDbEntity
  8
7
100
AcDbLine
 10
0.3868110236220472
 20
5.373031496062991
 30
0.0
 11
0.3868110236220472
 21
5.325787401574802
 31
0.0
  0
LINE
  5
2DB6
330
1E
100
AcDbEntity
  8
7
100
AcDbLine
 10
0.2372047244094491
 20
5.325787401574802
 30
0.0
 11
0.3868110236220472
 21
5.325787401574802
 31
0.0
  0
LINE
  5
2DB7
330
1E
100
AcDbEntity
  8
7
100
AcDbLine
 10
2.611220472440945
 20
5.373031496062991
 30
0.0
 11
2.613188976377952
 21
5.325787401574802
 31
0.0
  0
LINE
  5
2DCE
330
1E
100
AcDbEntity
  8
7
100
AcDbLine
 10
2.762795275590551
 20
5.373031496062991
 30
0.0
 11
2.762795275590551
 21
5.325787401574802
 31
0.0
  0
LINE
  5
2DCF
330
1E
100
AcDbEntity
  8
7
100
AcDbLine
 10
2.762795275590551
 20
5.325787401574802
 30
0.0
 11
2.613188976377952
 21
5.325787401574802
 31
0.0
  0
LINE
  5
2DD0
330
1E
100
AcDbEntity
  8
7
100
AcDbLine
 10
2.373031496062992
 20
6.325787401574802
 30
0.0
 11
2.384842519685039
 21
6.766732283464565
 31
0.0
  0
LINE
  5
2DD1
330
1E
100
AcDbEntity
  8
7
100
AcDbLine
 10
2.384842519685039
 20
5.792322834645669
 30
0.0
 11
2.373031496062992
 21
6.325787401574802
 31
0.0
  0
LINE
  5
2DD2
330
1E
100
AcDbEntity
  8
7
100
AcDbLine
 10
0.625
 20
6.325787401574802
 30
0.0
 11
0.6151574803149611
 21
6.766732283464565
 31
0.0
  0
LINE
  5
2DD3
330
1E
100
AcDbEntity
  8
7
100
AcDbLine
 10
0.6151574803149611
 20
5.792322834645669
 30
0.0
 11
0.625
 21
6.325787401574802
 31
0.0
  0
LINE
  5
2DD4
330
1E
100
AcDbEntity
  8
7
100
AcDbLine
 10
0.8690944881889768
 20
5.713582677165354
 30
0.0
 11
0.9360236220472444
 21
5.713582677165354
 31
0.0
  0
LINE
  5
2DD5
330
1E
100
AcDbEntity
  8
7
100
AcDbLine
 10
0.9360236220472444
 20
5.67027559055118
 30
0.0
 11
1.056102362204724
 21
5.67027559055118
 31
0.0
  0
LINE
  5
2DD6
330
1E
100
AcDbEntity
  8
7
100
AcDbLine
 10
2.128937007874015
 20
6.239173228346456
 30
0.0
 11
2.128937007874015
 21
5.668307086614173
 31
0.0
  0
LINE
  5
2DD7
330
1E
100
AcDbEntity
  8
7
100
AcDbLine
 10
2.062007874015748
 20
5.67027559055118
 30
0.0
 11
1.941929133858267
 21
5.67027559055118
 31
0.0
  0
LINE
  5
2DD8
330
1E
100
AcDbEntity
  8
7
100
AcDbLine
 10
2.128937007874015
 20
5.713582677165354
 30
0.0
 11
2.062007874015748
 21
5.713582677165354
 31
0.0
  0
LINE
  5
2DDE
330
1E
100
AcDbEntity
  8
7
100
AcDbLine
 10
0.715551181102363
 20
4.876968503937008
 30
0.0
 11
2.28248031496063
 21
4.876968503937008
 31
0.0
  0
LINE
  5
2DDF
330
1E
100
AcDbEntity
  8
7
100
AcDbLine
 10
2.296259842519685
 20
5.416338582677165
 30
0.0
 11
2.28248031496063
 21
4.876968503937008
 31
0.0
  0
LINE
  5
2DE0
330
1E
100
AcDbEntity
  8
7
100
AcDbLine
 10
0.7017716535433074
 20
5.416338582677165
 30
0.0
 11
0.715551181102363
 21
4.876968503937008
 31
0.0
  0
LINE
  5
2DED
330
1E
100
AcDbEntity
  8
7
100
AcDbLine
 10
2.373031496062992
 20
4.823818897637795
 30
0.0
 11
2.384842519685039
 21
5.264763779527558
 31
0.0
  0
LINE
  5
2DEE
330
1E
100
AcDbEntity
  8
7
100
AcDbLine
 10
2.384842519685039
 20
4.290354330708662
 30
0.0
 11
2.373031496062992
 21
4.823818897637795
 31
0.0
  0
LINE
  5
2DEF
330
1E
100
AcDbEntity
  8
7
100
AcDbLine
 10
0.8690944881889768
 20
5.668307086614173
 30
0.0
 11
0.9360236220472444
 21
5.668307086614173
 31
0.0
  0
LINE
  5
2DF0
330
1E
100
AcDbEntity
  8
7
100
AcDbLine
 10
1.079724409448819
 20
6.239173228346456
 30
0.0
 11
0.8690944881889768
 21
6.239173228346456
 31
0.0
  0
LINE
  5
2DF7
330
1E
100
AcDbEntity
  8
7
100
AcDbLine
 10
1.715551181102362
 20
6.239173228346456
 30
0.0
 11
1.284448818897637
 21
6.239173228346456
 31
0.0
  0
LINE
  5
2DF8
330
1E
100
AcDbEntity
  8
7
100
AcDbLine
 10
1.715551181102362
 20
6.264763779527558
 30
0.0
 11
1.715551181102362
 21
6.239173228346456
 31
0.0
  0
LINE
  5
2DF9
330
1E
100
AcDbEntity
  8
7
100
AcDbLine
 10
1.918307086614173
 20
6.264763779527558
 30
0.0
 11
1.715551181102362
 21
6.264763779527558
 31
0.0
  0
LINE
  5
2DFA
330
1E
100
AcDbEntity
  8
7
100
AcDbLine
 10
1.918307086614173
 20
6.239173228346456
 30
0.0
 11
1.918307086614173
 21
6.264763779527558
 31
0.0
  0
LINE
  5
2DFB
330
1E
100
AcDbEntity
  8
7
100
AcDbLine
 10
1.918307086614173
 20
6.239173228346456
 30
0.0
 11
2.128937007874015
 21
6.239173228346456
 31
0.0
  0
LINE
  5
2DFC
330
1E
100
AcDbEntity
  8
7
100
AcDbLine
 10
2.128937007874015
 20
5.668307086614173
 30
0.0
 11
2.062007874015748
 21
5.668307086614173
 31
0.0
  0
LINE
  5
2DFD
330
1E
100
AcDbEntity
  8
7
100
AcDbLine
 10
2.062007874015748
 20
5.623031496062991
 30
0.0
 11
2.062007874015748
 21
5.668307086614173
 31
0.0
  0
LINE
  5
2DFE
330
1E
100
AcDbEntity
  8
7
100
AcDbLine
 10
2.302165354330709
 20
6.282480314960628
 30
0.0
 11
2.315944881889763
 21
5.623031496062991
 31
0.0
  0
LINE
  5
2DFF
330
1E
100
AcDbEntity
  8
7
100
AcDbLine
 10
0.6978346456692917
 20
6.282480314960628
 30
0.0
 11
0.6840551181102362
 21
5.623031496062991
 31
0.0
  0
LINE
  5
2E00
330
1E
100
AcDbEntity
  8
7
100
AcDbLine
 10
0.9360236220472444
 20
5.623031496062991
 30
0.0
 11
0.9360236220472444
 21
5.668307086614173
 31
0.0
  0
LINE
  5
2E01
330
1E
100
AcDbEntity
  8
7
100
AcDbLine
 10
0.9360236220472444
 20
5.713582677165354
 30
0.0
 11
0.9360236220472444
 21
5.668307086614173
 31
0.0
  0
LINE
  5
2E02
330
1E
100
AcDbEntity
  8
7
100
AcDbLine
 10
2.062007874015748
 20
5.713582677165354
 30
0.0
 11
2.062007874015748
 21
5.668307086614173
 31
0.0
  0
LINE
  5
2E08
330
1E
100
AcDbEntity
  8
7
100
AcDbLine
 10
0.3868110236220472
 20
5.394685039370078
 30
0.0
 11
0.3868110236220472
 21
5.325787401574802
 31
0.0
  0
LINE
  5
2E09
330
1E
100
AcDbEntity
  8
7
100
AcDbLine
 10
0.2372047244094491
 20
5.394685039370078
 30
0.0
 11
0.2726377952755907
 21
5.376968503937008
 31
0.0
  0
LINE
  5
2E10
330
1E
100
AcDbEntity
  8
7
100
AcDbLine
 10
0.2352362204724407
 20
5.392716535433071
 30
0.0
 11
0.2372047244094491
 21
5.394685039370078
 31
0.0
  0
LINE
  5
2E11
330
1E
100
AcDbEntity
  8
7
100
AcDbLine
 10
0.2352362204724407
 20
5.392716535433071
 30
0.0
 11
0.2352362204724407
 21
5.373031496062991
 31
0.0
  0
LINE
  5
2E12
330
1E
100
AcDbEntity
  8
7
100
AcDbLine
 10
0.3868110236220472
 20
5.373031496062991
 30
0.0
 11
0.3868110236220472
 21
5.392716535433071
 31
0.0
  0
LINE
  5
2E13
330
1E
100
AcDbEntity
  8
7
100
AcDbLine
 10
0.3868110236220472
 20
5.394685039370078
 30
0.0
 11
0.3868110236220472
 21
5.392716535433071
 31
0.0
  0
LINE
  5
2EAB
330
1E
100
AcDbEntity
  8
7
100
AcDbLine
 10
2.611220472440945
 20
5.373031496062991
 30
0.0
 11
2.611220472440945
 21
5.392716535433071
 31
0.0
  0
LINE
  5
2EC1
330
1E
100
AcDbEntity
  8
7
100
AcDbLine
 10
2.762795275590551
 20
5.392716535433071
 30
0.0
 11
2.762795275590551
 21
5.373031496062991
 31
0.0
  0
LINE
  5
2EC2
330
1E
100
AcDbEntity
  8
7
100
AcDbLine
 10
2.762795275590551
 20
5.394685039370078
 30
0.0
 11
2.762795275590551
 21
5.325787401574802
 31
0.0
  0
LINE
  5
2ECE
330
1E
100
AcDbEntity
  8
7
100
AcDbLine
 10
2.762795275590551
 20
5.325787401574802
 30
0.0
 11
2.613188976377952
 21
5.325787401574802
 31
0.0
  0
LINE
  5
2ECF
330
1E
100
AcDbEntity
  8
7
100
AcDbLine
 10
2.613188976377952
 20
5.394685039370078
 30
0.0
 11
2.611220472440945
 21
5.392716535433071
 31
0.0
  0
LINE
  5
2ED0
330
1E
100
AcDbEntity
  8
7
100
AcDbLine
 10
2.762795275590551
 20
5.392716535433071
 30
0.0
 11
2.762795275590551
 21
5.394685039370078
 31
0.0
  0
LINE
  5
2ED1
330
1E
100
AcDbEntity
  8
7
100
AcDbLine
 10
2.609251968503937
 20
5.516732283464565
 30
0.0
 11
2.619094488188976
 21
5.479330708661417
 31
0.0
  0
LINE
  5
2EE1
330
1E
100
AcDbEntity
  8
7
100
AcDbLine
 10
2.609251968503937
 20
5.516732283464565
 30
0.0
 11
2.617125984251968
 21
5.483267716535432
 31
0.0
  0
LINE
  5
2F2C
330
1E
100
AcDbEntity
  8
7
100
AcDbLine
 10
1.073818897637795
 20
5.949803149606299
 30
0.0
 11
1.073818897637795
 21
5.95767716535433
 31
0.0
  0
LINE
  5
2F2D
330
1E
100
AcDbEntity
  8
7
100
AcDbLine
 10
1.290354330708662
 20
5.949803149606299
 30
0.0
 11
1.073818897637795
 21
5.949803149606299
 31
0.0
  0
LINE
  5
2F2E
330
1E
100
AcDbEntity
  8
7
100
AcDbLine
 10
1.290354330708662
 20
5.949803149606299
 30
0.0
 11
1.290354330708662
 21
5.947834645669291
 31
0.0
  0
LINE
  5
2F35
330
1E
100
AcDbEntity
  8
7
100
AcDbLine
 10
1.073818897637795
 20
5.945866141732282
 30
0.0
 11
1.073818897637795
 21
5.947834645669291
 31
0.0
  0
LINE
  5
2F36
330
1E
100
AcDbEntity
  8
7
100
AcDbLine
 10
1.290354330708662
 20
5.945866141732282
 30
0.0
 11
1.073818897637795
 21
5.945866141732282
 31
0.0
  0
LINE
  5
2F37
330
1E
100
AcDbEntity
  8
7
100
AcDbLine
 10
1.288385826771653
 20
5.924212598425197
 30
0.0
 11
1.290354330708662
 21
5.945866141732282
 31
0.0
  0
LINE
  5
2F38
330
1E
100
AcDbEntity
  8
7
100
AcDbLine
 10
1.075787401574803
 20
5.924212598425197
 30
0.0
 11
1.073818897637795
 21
5.945866141732282
 31
0.0
  0
LINE
  5
2F39
330
1E
100
AcDbEntity
  8
7
100
AcDbLine
 10
1.288385826771653
 20
5.924212598425197
 30
0.0
 11
1.075787401574803
 21
5.924212598425197
 31
0.0
  0
LINE
  5
2F3A
330
1E
100
AcDbEntity
  8
7
100
AcDbLine
 10
1.288385826771653
 20
5.924212598425197
 30
0.0
 11
1.288385826771653
 21
5.908464566929134
 31
0.0
  0
LINE
  5
2F41
330
1E
100
AcDbEntity
  8
7
100
AcDbLine
 10
1.075787401574803
 20
5.888779527559054
 30
0.0
 11
1.075787401574803
 21
5.908464566929134
 31
0.0
  0
LINE
  5
2F42
330
1E
100
AcDbEntity
  8
7
100
AcDbLine
 10
1.288385826771653
 20
5.888779527559054
 30
0.0
 11
1.075787401574803
 21
5.888779527559054
 31
0.0
  0
LINE
  5
2F43
330
1E
100
AcDbEntity
  8
7
100
AcDbLine
 10
1.306102362204724
 20
5.67027559055118
 30
0.0
 11
1.426181102362204
 21
5.67027559055118
 31
0.0
  0
LINE
  5
2F44
330
1E
100
AcDbEntity
  8
7
100
AcDbLine
 10
1.288385826771653
 20
5.888779527559054
 30
0.0
 11
1.306102362204724
 21
5.67027559055118
 31
0.0
  0
LINE
  5
2F45
330
1E
100
AcDbEntity
  8
7
100
AcDbLine
 10
1.075787401574803
 20
5.888779527559054
 30
0.0
 11
1.056102362204724
 21
5.67027559055118
 31
0.0
  0
LINE
  5
2F46
330
1E
100
AcDbEntity
  8
7
100
AcDbLine
 10
1.426181102362204
 20
5.623031496062991
 30
0.0
 11
1.426181102362204
 21
5.668307086614173
 31
0.0
  0
LINE
  5
2F4C
330
1E
100
AcDbEntity
  8
7
100
AcDbLine
 10
1.571850393700787
 20
5.713582677165354
 30
0.0
 11
1.571850393700787
 21
5.668307086614173
 31
0.0
  0
LINE
  5
2F4D
330
1E
100
AcDbEntity
  8
7
100
AcDbLine
 10
1.426181102362204
 20
5.713582677165354
 30
0.0
 11
1.571850393700787
 21
5.713582677165354
 31
0.0
  0
LINE
  5
2F4E
330
1E
100
AcDbEntity
  8
7
100
AcDbLine
 10
1.691929133858267
 20
5.67027559055118
 30
0.0
 11
1.571850393700787
 21
5.67027559055118
 31
0.0
  0
LINE
  5
2F54
330
1E
100
AcDbEntity
  8
7
100
AcDbLine
 10
1.711614173228347
 20
5.973425196850393
 30
0.0
 11
1.709645669291338
 21
5.95767716535433
 31
0.0
  0
LINE
  5
2F5C
330
1E
100
AcDbEntity
  8
7
100
AcDbLine
 10
1.709645669291338
 20
5.949803149606299
 30
0.0
 11
1.709645669291338
 21
5.947834645669291
 31
0.0
  0
LINE
  5
2F5D
330
1E
100
AcDbEntity
  8
7
100
AcDbLine
 10
1.924212598425197
 20
5.947834645669291
 30
0.0
 11
1.709645669291338
 21
5.947834645669291
 31
0.0
  0
LINE
  5
2F5E
330
1E
100
AcDbEntity
  8
7
100
AcDbLine
 10
1.924212598425197
 20
5.949803149606299
 30
0.0
 11
1.924212598425197
 21
5.947834645669291
 31
0.0
  0
LINE
  5
2F65
330
1E
100
AcDbEntity
  8
7
100
AcDbLine
 10
1.709645669291338
 20
5.924212598425197
 30
0.0
 11
1.709645669291338
 21
5.945866141732282
 31
0.0
  0
LINE
  5
2F6B
330
1E
100
AcDbEntity
  8
7
100
AcDbLine
 10
1.709645669291338
 20
5.924212598425197
 30
0.0
 11
1.711614173228347
 21
5.908464566929134
 31
0.0
  0
LINE
  5
2F6C
330
1E
100
AcDbEntity
  8
7
100
AcDbLine
 10
1.922244094488188
 20
5.908464566929134
 30
0.0
 11
1.711614173228347
 21
5.908464566929134
 31
0.0
  0
LINE
  5
2F6D
330
1E
100
AcDbEntity
  8
7
100
AcDbLine
 10
1.924212598425197
 20
5.924212598425197
 30
0.0
 11
1.922244094488188
 21
5.908464566929134
 31
0.0
  0
LINE
  5
2F73
330
1E
100
AcDbEntity
  8
7
100
AcDbLine
 10
1.924212598425197
 20
5.888779527559054
 30
0.0
 11
1.922244094488188
 21
5.908464566929134
 31
0.0
  0
LINE
  5
2F74
330
1E
100
AcDbEntity
  8
7
100
AcDbLine
 10
1.924212598425197
 20
5.888779527559054
 30
0.0
 11
1.941929133858267
 21
5.67027559055118
 31
0.0
  0
LINE
  5
2F75
330
1E
100
AcDbEntity
  8
7
100
AcDbLine
 10
1.709645669291338
 20
5.888779527559054
 30
0.0
 11
1.691929133858267
 21
5.67027559055118
 31
0.0
  0
LINE
  5
2F76
330
1E
100
AcDbEntity
  8
7
100
AcDbLine
 10
1.571850393700787
 20
5.668307086614173
 30
0.0
 11
1.571850393700787
 21
5.623031496062991
 31
0.0
  0
LINE
  5
2F7C
330
1E
100
AcDbEntity
  8
7
100
AcDbLine
 10
2.28248031496063
 20
4.796259842519684
 30
0.0
 11
0.715551181102363
 21
4.796259842519684
 31
0.0
  0
LINE
  5
2F8D
330
1E
100
AcDbEntity
  8
7
100
AcDbLine
 10
2.302165354330709
 20
4.780511811023621
 30
0.0
 11
2.296259842519685
 21
4.792322834645669
 31
0.0
  0
LINE
  5
2F8E
330
1E
100
AcDbEntity
  8
7
100
AcDbLine
 10
2.296259842519685
 20
4.792322834645669
 30
0.0
 11
2.28248031496063
 21
4.796259842519684
 31
0.0
  0
LINE
  5
2F95
330
1E
100
AcDbEntity
  8
7
100
AcDbLine
 10
1.093503937007874
 20
6.229330708661417
 30
0.0
 11
1.268700787401574
 21
6.229330708661417
 31
0.0
  0
LINE
  5
2F96
330
1E
100
AcDbEntity
  8
7
100
AcDbLine
 10
1.268700787401574
 20
6.26279527559055
 30
0.0
 11
1.268700787401574
 21
6.229330708661417
 31
0.0
  0
LINE
  5
2F97
330
1E
100
AcDbEntity
  8
7
100
AcDbLine
 10
1.093503937007874
 20
6.26279527559055
 30
0.0
 11
1.268700787401574
 21
6.26279527559055
 31
0.0
  0
LINE
  5
2F98
330
1E
100
AcDbEntity
  8
7
100
AcDbLine
 10
1.093503937007874
 20
6.26279527559055
 30
0.0
 11
1.093503937007874
 21
6.229330708661417
 31
0.0
  0
LINE
  5
2F99
330
1E
100
AcDbEntity
  8
7
100
AcDbLine
 10
1.904527559055118
 20
6.229330708661417
 30
0.0
 11
1.729330708661417
 21
6.229330708661417
 31
0.0
  0
LINE
  5
2F9A
330
1E
100
AcDbEntity
  8
7
100
AcDbLine
 10
1.904527559055118
 20
6.26279527559055
 30
0.0
 11
1.904527559055118
 21
6.229330708661417
 31
0.0
  0
LINE
  5
2FA0
330
1E
100
AcDbEntity
  8
7
100
AcDbLine
 10
1.918307086614173
 20
6.239173228346456
 30
0.0
 11
1.918307086614173
 21
6.26279527559055
 31
0.0
  0
LINE
  5
2FA6
330
1E
100
AcDbEntity
  8
7
100
AcDbLine
 10
1.715551181102362
 20
6.26279527559055
 30
0.0
 11
1.715551181102362
 21
6.264763779527558
 31
0.0
  0
LINE
  5
2FA7
330
1E
100
AcDbEntity
  8
7
100
AcDbLine
 10
1.715551181102362
 20
6.26279527559055
 30
0.0
 11
1.729330708661417
 21
6.26279527559055
 31
0.0
  0
LINE
  5
2FA8
330
1E
100
AcDbEntity
  8
7
100
AcDbLine
 10
1.715551181102362
 20
6.26279527559055
 30
0.0
 11
1.715551181102362
 21
6.239173228346456
 31
0.0
  0
LINE
  5
2FA9
330
1E
100
AcDbEntity
  8
7
100
AcDbLine
 10
1.28248031496063
 20
6.26279527559055
 30
0.0
 11
1.284448818897637
 21
6.239173228346456
 31
0.0
  0
LINE
  5
2FAA
330
1E
100
AcDbEntity
  8
7
100
AcDbLine
 10
1.28248031496063
 20
6.26279527559055
 30
0.0
 11
1.268700787401574
 21
6.26279527559055
 31
0.0
  0
LINE
  5
2FAB
330
1E
100
AcDbEntity
  8
7
100
AcDbLine
 10
1.28248031496063
 20
6.26279527559055
 30
0.0
 11
1.284448818897637
 21
6.264763779527558
 31
0.0
  0
LINE
  5
2FAC
330
1E
100
AcDbEntity
  8
7
100
AcDbLine
 10
1.081692913385826
 20
6.26279527559055
 30
0.0
 11
1.079724409448819
 21
6.264763779527558
 31
0.0
  0
LINE
  5
2FAD
330
1E
100
AcDbEntity
  8
7
100
AcDbLine
 10
1.093503937007874
 20
6.26279527559055
 30
0.0
 11
1.081692913385826
 21
6.26279527559055
 31
0.0
  0
LINE
  5
2FAE
330
1E
100
AcDbEntity
  8
7
100
AcDbLine
 10
1.079724409448819
 20
6.239173228346456
 30
0.0
 11
1.081692913385826
 21
6.26279527559055
 31
0.0
  0
LINE
  5
2FB4
330
1E
100
AcDbEntity
  8
7
100
AcDbLine
 10
2.735236220472441
 20
4.235236220472439
 30
0.0
 11
2.735236220472441
 21
4.193897637795275
 31
0.0
  0
LINE
  5
2FBA
330
1E
100
AcDbEntity
  8
7
100
AcDbLine
 10
2.721456692913386
 20
4.239173228346456
 30
0.0
 11
2.731299212598425
 21
4.239173228346456
 31
0.0
  0
LINE
  5
2FBB
330
1E
100
AcDbEntity
  8
7
100
AcDbLine
 10
2.721456692913386
 20
4.18996062992126
 30
0.0
 11
2.721456692913386
 21
4.239173228346456
 31
0.0
  0
LINE
  5
2FBC
330
1E
100
AcDbEntity
  8
7
100
AcDbLine
 10
2.721456692913386
 20
4.18996062992126
 30
0.0
 11
2.731299212598425
 21
4.18996062992126
 31
0.0
  0
LINE
  5
2FBD
330
1E
100
AcDbEntity
  8
7
100
AcDbLine
 10
2.518700787401574
 20
4.229330708661417
 30
0.0
 11
2.518700787401574
 21
4.256889763779526
 31
0.0
  0
LINE
  5
2FC3
330
1E
100
AcDbEntity
  8
7
100
AcDbLine
 10
2.502952755905512
 20
4.26279527559055
 30
0.0
 11
2.514763779527559
 21
4.26279527559055
 31
0.0
  0
LINE
  5
2FC4
330
1E
100
AcDbEntity
  8
7
100
AcDbLine
 10
2.502952755905512
 20
4.223425196850393
 30
0.0
 11
2.502952755905512
 21
4.26279527559055
 31
0.0
  0
LINE
  5
2FC5
330
1E
100
AcDbEntity
  8
7
100
AcDbLine
 10
2.502952755905512
 20
4.223425196850393
 30
0.0
 11
2.514763779527559
 21
4.223425196850393
 31
0.0
  0
LINE
  5
2FCB
330
1E
100
AcDbEntity
  8
7
100
AcDbLine
 10
2.567913385826772
 20
4.201771653543306
 30
0.0
 11
2.577755905511811
 21
4.2253937007874
 31
0.0
  0
LINE
  5
2FCC
330
1E
100
AcDbEntity
  8
7
100
AcDbLine
 10
2.567913385826772
 20
4.201771653543306
 30
0.0
 11
2.589566929133858
 21
4.201771653543306
 31
0.0
  0
LINE
  5
2FCD
330
1E
100
AcDbEntity
  8
7
100
AcDbLine
 10
2.589566929133858
 20
4.201771653543306
 30
0.0
 11
2.577755905511811
 21
4.2253937007874
 31
0.0
  0
LINE
  5
2FCE
330
1E
100
AcDbEntity
  8
7
100
AcDbLine
 10
1.904527559055118
 20
4.727362204724408
 30
0.0
 11
1.729330708661417
 21
4.727362204724408
 31
0.0
  0
LINE
  5
2FCF
330
1E
100
AcDbEntity
  8
7
100
AcDbLine
 10
1.093503937007874
 20
4.727362204724408
 30
0.0
 11
1.268700787401574
 21
4.727362204724408
 31
0.0
  0
LINE
  5
2FD0
330
1E
100
AcDbEntity
  8
7
100
AcDbLine
 10
1.904527559055118
 20
4.760826771653543
 30
0.0
 11
1.904527559055118
 21
4.727362204724408
 31
0.0
  0
LINE
  5
2FD6
330
1E
100
AcDbEntity
  8
7
100
AcDbLine
 10
1.268700787401574
 20
4.760826771653543
 30
0.0
 11
1.268700787401574
 21
4.727362204724408
 31
0.0
  0
LINE
  5
2FD7
330
1E
100
AcDbEntity
  8
7
100
AcDbLine
 10
1.093503937007874
 20
4.760826771653543
 30
0.0
 11
1.268700787401574
 21
4.760826771653543
 31
0.0
  0
LINE
  5
2FD8
330
1E
100
AcDbEntity
  8
7
100
AcDbLine
 10
1.093503937007874
 20
4.760826771653543
 30
0.0
 11
1.093503937007874
 21
4.727362204724408
 31
0.0
  0
LINE
  5
2FD9
330
1E
100
AcDbEntity
  8
7
100
AcDbLine
 10
2.774606299212599
 20
4.256889763779526
 30
0.0
 11
2.804133858267716
 21
4.256889763779526
 31
0.0
  0
LINE
  5
2FDA
330
1E
100
AcDbEntity
  8
7
100
AcDbLine
 10
2.774606299212599
 20
4.186023622047243
 30
0.0
 11
2.774606299212599
 21
4.256889763779526
 31
0.0
  0
LINE
  5
2FDB
330
1E
100
AcDbEntity
  8
7
100
AcDbLine
 10
2.776574803149606
 20
4.186023622047243
 30
0.0
 11
2.780511811023622
 21
4.176181102362204
 31
0.0
  0
LINE
  5
2FDC
330
1E
100
AcDbEntity
  8
7
100
AcDbLine
 10
2.780511811023622
 20
4.176181102362204
 30
0.0
 11
2.790354330708662
 21
4.172244094488188
 31
0.0
  0
LINE
  5
2FDD
330
1E
100
AcDbEntity
  8
7
100
AcDbLine
 10
2.790354330708662
 20
4.17027559055118
 30
0.0
 11
2.821850393700787
 21
4.17027559055118
 31
0.0
  0
LINE
  5
2FE3
330
1E
100
AcDbEntity
  8
7
100
AcDbLine
 10
2.835629921259842
 20
4.256889763779526
 30
0.0
 11
2.835629921259842
 21
4.186023622047243
 31
0.0
  0
LINE
  5
2FE4
330
1E
100
AcDbEntity
  8
7
100
AcDbLine
 10
2.817913385826772
 20
4.256889763779526
 30
0.0
 11
2.835629921259842
 21
4.256889763779526
 31
0.0
  0
LINE
  5
2FE5
330
1E
100
AcDbEntity
  8
7
100
AcDbLine
 10
2.817913385826772
 20
4.193897637795275
 30
0.0
 11
2.817913385826772
 21
4.256889763779526
 31
0.0
  0
LINE
  5
2FEB
330
1E
100
AcDbEntity
  8
7
100
AcDbLine
 10
2.808070866141732
 20
4.18996062992126
 30
0.0
 11
2.813976377952756
 21
4.18996062992126
 31
0.0
  0
LINE
  5
2FF1
330
1E
100
AcDbEntity
  8
7
100
AcDbLine
 10
2.804133858267716
 20
4.256889763779526
 30
0.0
 11
2.804133858267716
 21
4.193897637795275
 31
0.0
  0
LINE
  5
2FF2
330
1E
100
AcDbEntity
  8
7
100
AcDbLine
 10
2.74507874015748
 20
4.17027559055118
 30
0.0
 11
2.695866141732283
 21
4.17027559055118
 31
0.0
  0
LINE
  5
2FF8
330
1E
100
AcDbEntity
  8
7
100
AcDbLine
 10
2.760826771653543
 20
4.241141732283463
 30
0.0
 11
2.760826771653543
 21
4.186023622047243
 31
0.0
  0
LINE
  5
2FFE
330
1E
100
AcDbEntity
  8
7
100
AcDbLine
 10
2.695866141732283
 20
4.256889763779526
 30
0.0
 11
2.74507874015748
 21
4.256889763779526
 31
0.0
  0
LINE
  5
2FFF
330
1E
100
AcDbEntity
  8
7
100
AcDbLine
 10
2.695866141732283
 20
4.17027559055118
 30
0.0
 11
2.695866141732283
 21
4.256889763779526
 31
0.0
  0
LINE
  5
3000
330
1E
100
AcDbEntity
  8
7
100
AcDbLine
 10
2.451771653543307
 20
4.17027559055118
 30
0.0
 11
2.451771653543307
 21
4.282480314960628
 31
0.0
  0
LINE
  5
3001
330
1E
100
AcDbEntity
  8
7
100
AcDbLine
 10
2.502952755905512
 20
4.17027559055118
 30
0.0
 11
2.451771653543307
 21
4.17027559055118
 31
0.0
  0
LINE
  5
3002
330
1E
100
AcDbEntity
  8
7
100
AcDbLine
 10
2.502952755905512
 20
4.205708661417323
 30
0.0
 11
2.502952755905512
 21
4.17027559055118
 31
0.0
  0
LINE
  5
3003
330
1E
100
AcDbEntity
  8
7
100
AcDbLine
 10
2.502952755905512
 20
4.205708661417323
 30
0.0
 11
2.530511811023622
 21
4.205708661417323
 31
0.0
  0
LINE
  5
3009
330
1E
100
AcDbEntity
  8
7
100
AcDbLine
 10
2.53248031496063
 20
4.17027559055118
 30
0.0
 11
2.548228346456693
 21
4.209645669291337
 31
0.0
  0
LINE
  5
300A
330
1E
100
AcDbEntity
  8
7
100
AcDbLine
 10
2.556102362204724
 20
4.17027559055118
 30
0.0
 11
2.53248031496063
 21
4.17027559055118
 31
0.0
  0
LINE
  5
3011
330
1E
100
AcDbEntity
  8
7
100
AcDbLine
 10
2.638779527559055
 20
4.17027559055118
 30
0.0
 11
2.601377952755905
 21
4.17027559055118
 31
0.0
  0
LINE
  5
3017
330
1E
100
AcDbEntity
  8
7
100
AcDbLine
 10
2.682086614173228
 20
4.17027559055118
 30
0.0
 11
2.654527559055118
 21
4.17027559055118
 31
0.0
  0
LINE
  5
3018
330
1E
100
AcDbEntity
  8
7
100
AcDbLine
 10
2.682086614173228
 20
4.256889763779526
 30
0.0
 11
2.682086614173228
 21
4.17027559055118
 31
0.0
  0
LINE
  5
3019
330
1E
100
AcDbEntity
  8
7
100
AcDbLine
 10
2.658464566929134
 20
4.256889763779526
 30
0.0
 11
2.682086614173228
 21
4.256889763779526
 31
0.0
  0
LINE
  5
301A
330
1E
100
AcDbEntity
  8
7
100
AcDbLine
 10
2.658464566929134
 20
4.2253937007874
 30
0.0
 11
2.658464566929134
 21
4.256889763779526
 31
0.0
  0
LINE
  5
301B
330
1E
100
AcDbEntity
  8
7
100
AcDbLine
 10
2.658464566929134
 20
4.2253937007874
 30
0.0
 11
2.644685039370078
 21
4.256889763779526
 31
0.0
  0
LINE
  5
301C
330
1E
100
AcDbEntity
  8
7
100
AcDbLine
 10
2.615157480314961
 20
4.256889763779526
 30
0.0
 11
2.644685039370078
 21
4.256889763779526
 31
0.0
  0
LINE
  5
301D
330
1E
100
AcDbEntity
  8
7
100
AcDbLine
 10
2.615157480314961
 20
4.199803149606299
 30
0.0
 11
2.615157480314961
 21
4.256889763779526
 31
0.0
  0
LINE
  5
301E
330
1E
100
AcDbEntity
  8
7
100
AcDbLine
 10
2.589566929133858
 20
4.256889763779526
 30
0.0
 11
2.615157480314961
 21
4.199803149606299
 31
0.0
  0
LINE
  5
301F
330
1E
100
AcDbEntity
  8
7
100
AcDbLine
 10
2.567913385826772
 20
4.256889763779526
 30
0.0
 11
2.589566929133858
 21
4.256889763779526
 31
0.0
  0
LINE
  5
3025
330
1E
100
AcDbEntity
  8
7
100
AcDbLine
 10
2.451771653543307
 20
4.282480314960628
 30
0.0
 11
2.530511811023622
 21
4.282480314960628
 31
0.0
  0
LINE
  5
3026
330
1E
100
AcDbEntity
  8
7
100
AcDbLine
 10
2.934055118110236
 20
4.17027559055118
 30
0.0
 11
2.906496062992125
 21
4.17027559055118
 31
0.0
  0
LINE
  5
3027
330
1E
100
AcDbEntity
  8
7
100
AcDbLine
 10
2.934055118110236
 20
4.17027559055118
 30
0.0
 11
2.934055118110236
 21
4.239173228346456
 31
0.0
  0
LINE
  5
3028
330
1E
100
AcDbEntity
  8
7
100
AcDbLine
 10
2.953740157480314
 20
4.239173228346456
 30
0.0
 11
2.934055118110236
 21
4.239173228346456
 31
0.0
  0
LINE
  5
3029
330
1E
100
AcDbEntity
  8
7
100
AcDbLine
 10
2.953740157480314
 20
4.239173228346456
 30
0.0
 11
2.953740157480314
 21
4.256889763779526
 31
0.0
  0
LINE
  5
302A
330
1E
100
AcDbEntity
  8
7
100
AcDbLine
 10
2.888779527559055
 20
4.256889763779526
 30
0.0
 11
2.953740157480314
 21
4.256889763779526
 31
0.0
  0
LINE
  5
3030
330
1E
100
AcDbEntity
  8
7
100
AcDbLine
 10
2.906496062992125
 20
4.17027559055118
 30
0.0
 11
2.906496062992125
 21
4.239173228346456
 31
0.0
  0
LINE
  5
3031
330
1E
100
AcDbEntity
  8
7
100
AcDbLine
 10
2.875
 20
4.17027559055118
 30
0.0
 11
2.851377952755905
 21
4.17027559055118
 31
0.0
  0
LINE
  5
3032
330
1E
100
AcDbEntity
  8
7
100
AcDbLine
 10
2.875
 20
4.17027559055118
 30
0.0
 11
2.875
 21
4.256889763779526
 31
0.0
  0
LINE
  5
3033
330
1E
100
AcDbEntity
  8
7
100
AcDbLine
 10
2.851377952755905
 20
4.256889763779526
 30
0.0
 11
2.875
 21
4.256889763779526
 31
0.0
  0
LINE
  5
3034
330
1E
100
AcDbEntity
  8
7
100
AcDbLine
 10
2.851377952755905
 20
4.17027559055118
 30
0.0
 11
2.851377952755905
 21
4.256889763779526
 31
0.0
  0
LINE
  5
303A
330
1E
100
AcDbEntity
  8
7
100
AcDbLine
 10
1.711614173228347
 20
4.471456692913386
 30
0.0
 11
1.709645669291338
 21
4.455708661417323
 31
0.0
  0
LINE
  5
3042
330
1E
100
AcDbEntity
  8
7
100
AcDbLine
 10
1.709645669291338
 20
4.447834645669291
 30
0.0
 11
1.709645669291338
 21
4.445866141732282
 31
0.0
  0
LINE
  5
3043
330
1E
100
AcDbEntity
  8
7
100
AcDbLine
 10
1.924212598425197
 20
4.445866141732282
 30
0.0
 11
1.709645669291338
 21
4.445866141732282
 31
0.0
  0
LINE
  5
3044
330
1E
100
AcDbEntity
  8
7
100
AcDbLine
 10
1.924212598425197
 20
4.447834645669291
 30
0.0
 11
1.924212598425197
 21
4.445866141732282
 31
0.0
  0
LINE
  5
304B
330
1E
100
AcDbEntity
  8
7
100
AcDbLine
 10
1.709645669291338
 20
4.422244094488188
 30
0.0
 11
1.709645669291338
 21
4.443897637795275
 31
0.0
  0
LINE
  5
3051
330
1E
100
AcDbEntity
  8
7
100
AcDbLine
 10
1.709645669291338
 20
4.422244094488188
 30
0.0
 11
1.711614173228347
 21
4.406496062992125
 31
0.0
  0
LINE
  5
3052
330
1E
100
AcDbEntity
  8
7
100
AcDbLine
 10
1.922244094488188
 20
4.406496062992125
 30
0.0
 11
1.711614173228347
 21
4.406496062992125
 31
0.0
  0
LINE
  5
3053
330
1E
100
AcDbEntity
  8
7
100
AcDbLine
 10
1.924212598425197
 20
4.422244094488188
 30
0.0
 11
1.922244094488188
 21
4.406496062992125
 31
0.0
  0
LINE
  5
305A
330
1E
100
AcDbEntity
  8
7
100
AcDbLine
 10
1.426181102362204
 20
4.121062992125984
 30
0.0
 11
1.426181102362204
 21
4.166338582677165
 31
0.0
  0
LINE
  5
305B
330
1E
100
AcDbEntity
  8
7
100
AcDbLine
 10
1.426181102362204
 20
4.211614173228345
 30
0.0
 11
1.426181102362204
 21
4.166338582677165
 31
0.0
  0
LINE
  5
3061
330
1E
100
AcDbEntity
  8
7
100
AcDbLine
 10
1.426181102362204
 20
4.166338582677165
 30
0.0
 11
1.571850393700787
 21
4.166338582677165
 31
0.0
  0
LINE
  5
3062
330
1E
100
AcDbEntity
  8
7
100
AcDbLine
 10
1.426181102362204
 20
4.211614173228345
 30
0.0
 11
1.571850393700787
 21
4.211614173228345
 31
0.0
  0
LINE
  5
3068
330
1E
100
AcDbEntity
  8
7
100
AcDbLine
 10
1.073818897637795
 20
4.455708661417323
 30
0.0
 11
1.290354330708662
 21
4.455708661417323
 31
0.0
  0
LINE
  5
306E
330
1E
100
AcDbEntity
  8
7
100
AcDbLine
 10
1.073818897637795
 20
4.447834645669291
 30
0.0
 11
1.073818897637795
 21
4.455708661417323
 31
0.0
  0
LINE
  5
306F
330
1E
100
AcDbEntity
  8
7
100
AcDbLine
 10
1.290354330708662
 20
4.447834645669291
 30
0.0
 11
1.073818897637795
 21
4.447834645669291
 31
0.0
  0
LINE
  5
3070
330
1E
100
AcDbEntity
  8
7
100
AcDbLine
 10
1.290354330708662
 20
4.447834645669291
 30
0.0
 11
1.290354330708662
 21
4.445866141732282
 31
0.0
  0
LINE
  5
3076
330
1E
100
AcDbEntity
  8
7
100
AcDbLine
 10
1.290354330708662
 20
4.445866141732282
 30
0.0
 11
1.290354330708662
 21
4.443897637795275
 31
0.0
  0
LINE
  5
3077
330
1E
100
AcDbEntity
  8
7
100
AcDbLine
 10
1.073818897637795
 20
4.443897637795275
 30
0.0
 11
1.073818897637795
 21
4.445866141732282
 31
0.0
  0
LINE
  5
3078
330
1E
100
AcDbEntity
  8
7
100
AcDbLine
 10
1.290354330708662
 20
4.443897637795275
 30
0.0
 11
1.073818897637795
 21
4.443897637795275
 31
0.0
  0
LINE
  5
3079
330
1E
100
AcDbEntity
  8
7
100
AcDbLine
 10
1.288385826771653
 20
4.422244094488188
 30
0.0
 11
1.290354330708662
 21
4.443897637795275
 31
0.0
  0
LINE
  5
307A
330
1E
100
AcDbEntity
  8
7
100
AcDbLine
 10
1.075787401574803
 20
4.422244094488188
 30
0.0
 11
1.073818897637795
 21
4.443897637795275
 31
0.0
  0
LINE
  5
307B
330
1E
100
AcDbEntity
  8
7
100
AcDbLine
 10
1.288385826771653
 20
4.422244094488188
 30
0.0
 11
1.075787401574803
 21
4.422244094488188
 31
0.0
  0
LINE
  5
307C
330
1E
100
AcDbEntity
  8
7
100
AcDbLine
 10
1.288385826771653
 20
4.422244094488188
 30
0.0
 11
1.288385826771653
 21
4.406496062992125
 31
0.0
  0
LINE
  5
3083
330
1E
100
AcDbEntity
  8
7
100
AcDbLine
 10
1.075787401574803
 20
4.386811023622047
 30
0.0
 11
1.075787401574803
 21
4.406496062992125
 31
0.0
  0
LINE
  5
3084
330
1E
100
AcDbEntity
  8
7
100
AcDbLine
 10
1.288385826771653
 20
4.386811023622047
 30
0.0
 11
1.075787401574803
 21
4.386811023622047
 31
0.0
  0
LINE
  5
3085
330
1E
100
AcDbEntity
  8
7
100
AcDbLine
 10
2.128937007874015
 20
4.211614173228345
 30
0.0
 11
2.062007874015748
 21
4.211614173228345
 31
0.0
  0
LINE
  5
3086
330
1E
100
AcDbEntity
  8
7
100
AcDbLine
 10
2.062007874015748
 20
4.211614173228345
 30
0.0
 11
2.062007874015748
 21
4.166338582677165
 31
0.0
  0
LINE
  5
3087
330
1E
100
AcDbEntity
  8
7
100
AcDbLine
 10
2.128937007874015
 20
4.166338582677165
 30
0.0
 11
2.062007874015748
 21
4.166338582677165
 31
0.0
  0
LINE
  5
3088
330
1E
100
AcDbEntity
  8
7
100
AcDbLine
 10
0.8690944881889768
 20
4.166338582677165
 30
0.0
 11
0.9360236220472444
 21
4.166338582677165
 31
0.0
  0
LINE
  5
3089
330
1E
100
AcDbEntity
  8
7
100
AcDbLine
 10
0.9360236220472444
 20
4.211614173228345
 30
0.0
 11
0.9360236220472444
 21
4.166338582677165
 31
0.0
  0
LINE
  5
308A
330
1E
100
AcDbEntity
  8
7
100
AcDbLine
 10
0.8690944881889768
 20
4.211614173228345
 30
0.0
 11
0.9360236220472444
 21
4.211614173228345
 31
0.0
  0
LINE
  5
308B
330
1E
100
AcDbEntity
  8
7
100
AcDbLine
 10
2.128937007874015
 20
4.737204724409449
 30
0.0
 11
2.128937007874015
 21
4.166338582677165
 31
0.0
  0
LINE
  5
308C
330
1E
100
AcDbEntity
  8
7
100
AcDbLine
 10
1.918307086614173
 20
4.760826771653543
 30
0.0
 11
1.918307086614173
 21
4.76279527559055
 31
0.0
  0
LINE
  5
308D
330
1E
100
AcDbEntity
  8
7
100
AcDbLine
 10
1.918307086614173
 20
4.737204724409449
 30
0.0
 11
1.918307086614173
 21
4.760826771653543
 31
0.0
  0
LINE
  5
308E
330
1E
100
AcDbEntity
  8
7
100
AcDbLine
 10
1.918307086614173
 20
4.737204724409449
 30
0.0
 11
1.918307086614173
 21
4.76279527559055
 31
0.0
  0
LINE
  5
308F
330
1E
100
AcDbEntity
  8
7
100
AcDbLine
 10
1.715551181102362
 20
4.760826771653543
 30
0.0
 11
1.715551181102362
 21
4.76279527559055
 31
0.0
  0
LINE
  5
3090
330
1E
100
AcDbEntity
  8
7
100
AcDbLine
 10
1.715551181102362
 20
4.760826771653543
 30
0.0
 11
1.729330708661417
 21
4.760826771653543
 31
0.0
  0
LINE
  5
3091
330
1E
100
AcDbEntity
  8
7
100
AcDbLine
 10
1.904527559055118
 20
4.760826771653543
 30
0.0
 11
1.918307086614173
 21
4.760826771653543
 31
0.0
  0
LINE
  5
3097
330
1E
100
AcDbEntity
  8
7
100
AcDbLine
 10
1.715551181102362
 20
4.760826771653543
 30
0.0
 11
1.715551181102362
 21
4.737204724409449
 31
0.0
  0
LINE
  5
3098
330
1E
100
AcDbEntity
  8
7
100
AcDbLine
 10
1.284448818897637
 20
4.76279527559055
 30
0.0
 11
1.284448818897637
 21
4.737204724409449
 31
0.0
  0
LINE
  5
3099
330
1E
100
AcDbEntity
  8
7
100
AcDbLine
 10
1.28248031496063
 20
4.760826771653543
 30
0.0
 11
1.284448818897637
 21
4.76279527559055
 31
0.0
  0
LINE
  5
309A
330
1E
100
AcDbEntity
  8
7
100
AcDbLine
 10
1.28248031496063
 20
4.760826771653543
 30
0.0
 11
1.284448818897637
 21
4.737204724409449
 31
0.0
  0
LINE
  5
309B
330
1E
100
AcDbEntity
  8
7
100
AcDbLine
 10
1.079724409448819
 20
4.76279527559055
 30
0.0
 11
1.284448818897637
 21
4.76279527559055
 31
0.0
  0
LINE
  5
309C
330
1E
100
AcDbEntity
  8
7
100
AcDbLine
 10
1.081692913385826
 20
4.760826771653543
 30
0.0
 11
1.079724409448819
 21
4.76279527559055
 31
0.0
  0
LINE
  5
309D
330
1E
100
AcDbEntity
  8
7
100
AcDbLine
 10
1.093503937007874
 20
4.760826771653543
 30
0.0
 11
1.081692913385826
 21
4.760826771653543
 31
0.0
  0
LINE
  5
309E
330
1E
100
AcDbEntity
  8
7
100
AcDbLine
 10
1.28248031496063
 20
4.760826771653543
 30
0.0
 11
1.268700787401574
 21
4.760826771653543
 31
0.0
  0
LINE
  5
309F
330
1E
100
AcDbEntity
  8
7
100
AcDbLine
 10
1.079724409448819
 20
4.737204724409449
 30
0.0
 11
1.079724409448819
 21
4.76279527559055
 31
0.0
  0
LINE
  5
30A0
330
1E
100
AcDbEntity
  8
7
100
AcDbLine
 10
1.079724409448819
 20
4.737204724409449
 30
0.0
 11
1.081692913385826
 21
4.760826771653543
 31
0.0
  0
LINE
  5
30A1
330
1E
100
AcDbEntity
  8
7
100
AcDbLine
 10
3.144685039370078
 20
3.841535433070865
 30
0.0
 11
-0.1446850393700787
 21
3.841535433070865
 31
0.0
  0
LINE
  5
30B7
330
1E
100
AcDbEntity
  8
7
100
AcDbLine
 10
0.9360236220472444
 20
4.121062992125984
 30
0.0
 11
0.9360236220472444
 21
4.166338582677165
 31
0.0
  0
LINE
  5
30B8
330
1E
100
AcDbEntity
  8
7
100
AcDbLine
 10
1.306102362204724
 20
4.168307086614173
 30
0.0
 11
1.426181102362204
 21
4.168307086614173
 31
0.0
  0
LINE
  5
30B9
330
1E
100
AcDbEntity
  8
7
100
AcDbLine
 10
1.288385826771653
 20
4.386811023622047
 30
0.0
 11
1.306102362204724
 21
4.168307086614173
 31
0.0
  0
LINE
  5
30BA
330
1E
100
AcDbEntity
  8
7
100
AcDbLine
 10
1.075787401574803
 20
4.386811023622047
 30
0.0
 11
1.056102362204724
 21
4.168307086614173
 31
0.0
  0
LINE
  5
30BB
330
1E
100
AcDbEntity
  8
7
100
AcDbLine
 10
0.9360236220472444
 20
4.168307086614173
 30
0.0
 11
1.056102362204724
 21
4.168307086614173
 31
0.0
  0
LINE
  5
30BC
330
1E
100
AcDbEntity
  8
7
100
AcDbLine
 10
1.691929133858267
 20
4.168307086614173
 30
0.0
 11
1.571850393700787
 21
4.168307086614173
 31
0.0
  0
LINE
  5
30BD
330
1E
100
AcDbEntity
  8
7
100
AcDbLine
 10
2.062007874015748
 20
4.168307086614173
 30
0.0
 11
1.941929133858267
 21
4.168307086614173
 31
0.0
  0
LINE
  5
30BE
330
1E
100
AcDbEntity
  8
7
100
AcDbLine
 10
1.924212598425197
 20
4.386811023622047
 30
0.0
 11
1.941929133858267
 21
4.168307086614173
 31
0.0
  0
LINE
  5
30BF
330
1E
100
AcDbEntity
  8
7
100
AcDbLine
 10
1.709645669291338
 20
4.386811023622047
 30
0.0
 11
1.691929133858267
 21
4.168307086614173
 31
0.0
  0
LINE
  5
30C0
330
1E
100
AcDbEntity
  8
7
100
AcDbLine
 10
2.062007874015748
 20
4.121062992125984
 30
0.0
 11
2.062007874015748
 21
4.166338582677165
 31
0.0
  0
LINE
  5
30C1
330
1E
100
AcDbEntity
  8
7
100
AcDbLine
 10
3.144685039370078
 20
3.841535433070865
 30
0.0
 11
3.162401574803149
 21
3.823818897637795
 31
0.0
  0
LINE
  5
30C2
330
1E
100
AcDbEntity
  8
7
100
AcDbLine
 10
-0.1446850393700787
 20
3.841535433070865
 30
0.0
 11
-0.1624015748031491
 21
3.823818897637795
 31
0.0
  0
LINE
  5
30CD
330
1E
100
AcDbEntity
  8
7
100
AcDbLine
 10
1.918307086614173
 20
4.737204724409449
 30
0.0
 11
2.128937007874015
 21
4.737204724409449
 31
0.0
  0
LINE
  5
30CE
330
1E
100
AcDbEntity
  8
7
100
AcDbLine
 10
1.715551181102362
 20
4.737204724409449
 30
0.0
 11
1.284448818897637
 21
4.737204724409449
 31
0.0
  0
LINE
  5
30CF
330
1E
100
AcDbEntity
  8
7
100
AcDbLine
 10
1.079724409448819
 20
4.737204724409449
 30
0.0
 11
0.8690944881889768
 21
4.737204724409449
 31
0.0
  0
LINE
  5
30D0
330
1E
100
AcDbEntity
  8
7
100
AcDbLine
 10
2.302165354330709
 20
4.780511811023621
 30
0.0
 11
2.315944881889763
 21
4.121062992125984
 31
0.0
  0
LINE
  5
30D1
330
1E
100
AcDbEntity
  8
7
100
AcDbLine
 10
0.6978346456692917
 20
4.780511811023621
 30
0.0
 11
0.6840551181102362
 21
4.121062992125984
 31
0.0
  0
LINE
  5
30D2
330
1E
100
AcDbEntity
  8
7
100
AcDbLine
 10
1.093503937007874
 20
1.654527559055118
 30
0.0
 11
1.268700787401574
 21
1.654527559055118
 31
0.0
  0
LINE
  5
30D3
330
1E
100
AcDbEntity
  8
7
100
AcDbLine
 10
1.729330708661417
 20
1.654527559055118
 30
0.0
 11
1.904527559055118
 21
1.654527559055118
 31
0.0
  0
LINE
  5
30D4
330
1E
100
AcDbEntity
  8
7
100
AcDbLine
 10
2.28248031496063
 20
1.808070866141733
 30
0.0
 11
0.715551181102363
 21
1.808070866141733
 31
0.0
  0
LINE
  5
30DB
330
1E
100
AcDbEntity
  8
7
100
AcDbLine
 10
2.371062992125984
 20
1.721456692913386
 30
0.0
 11
2.357283464566929
 21
1.762795275590551
 31
0.0
  0
LINE
  5
30E1
330
1E
100
AcDbEntity
  8
7
100
AcDbLine
 10
0.8690944881889768
 20
1.768700787401575
 30
0.0
 11
0.8690944881889768
 21
1.437992125984252
 31
0.0
  0
LINE
  5
30EB
330
1E
100
AcDbEntity
  8
7
100
AcDbLine
 10
3.191929133858267
 20
0.9931102362204731
 30
0.0
 11
3.174212598425197
 21
1.252952755905512
 31
0.0
  0
LINE
  5
30F5
330
1E
100
AcDbEntity
  8
7
100
AcDbLine
 10
-0.1938976377952759
 20
0.9931102362204731
 30
0.0
 11
-0.1761811023622046
 21
1.252952755905512
 31
0.0
  0
LINE
  5
3100
330
1E
100
AcDbEntity
  8
7
100
AcDbLine
 10
-0.1624015748031491
 20
0.9931102362204731
 30
0.0
 11
3.162401574803149
 21
0.9931102362204731
 31
0.0
  0
LINE
  5
3101
330
1E
100
AcDbEntity
  8
7
100
AcDbLine
 10
-0.0049212598425197
 20
1.412401574803149
 30
0.0
 11
3.002952755905512
 21
1.412401574803149
 31
0.0
  0
LINE
  5
3102
330
1E
100
AcDbEntity
  8
7
100
AcDbLine
 10
0.6151574803149611
 20
1.412401574803149
 30
0.0
 11
0.625
 21
1.721456692913386
 31
0.0
  0
LINE
  5
3103
330
1E
100
AcDbEntity
  8
7
100
AcDbLine
 10
2.384842519685039
 20
1.412401574803149
 30
0.0
 11
2.373031496062992
 21
1.721456692913386
 31
0.0
  0
LINE
  5
3109
330
1E
100
AcDbEntity
  8
7
100
AcDbLine
 10
2.28248031496063
 20
1.804133858267716
 30
0.0
 11
0.715551181102363
 21
1.804133858267716
 31
0.0
  0
LINE
  5
310F
330
1E
100
AcDbEntity
  8
7
100
AcDbLine
 10
0.6978346456692917
 20
1.794291338582677
 30
0.0
 11
0.6604330708661417
 21
1.780511811023622
 31
0.0
  0
LINE
  5
3125
330
1E
100
AcDbEntity
  8
7
100
AcDbLine
 10
1.904527559055118
 20
1.687992125984251
 30
0.0
 11
1.729330708661417
 21
1.687992125984251
 31
0.0
  0
LINE
  5
3126
330
1E
100
AcDbEntity
  8
7
100
AcDbLine
 10
1.904527559055118
 20
1.705708661417324
 30
0.0
 11
1.904527559055118
 21
1.687992125984251
 31
0.0
  0
LINE
  5
312D
330
1E
100
AcDbEntity
  8
7
100
AcDbLine
 10
1.904527559055118
 20
1.662401574803149
 30
0.0
 11
1.729330708661417
 21
1.662401574803149
 31
0.0
  0
LINE
  5
312E
330
1E
100
AcDbEntity
  8
7
100
AcDbLine
 10
1.904527559055118
 20
1.662401574803149
 30
0.0
 11
1.904527559055118
 21
1.687992125984251
 31
0.0
  0
LINE
  5
312F
330
1E
100
AcDbEntity
  8
7
100
AcDbLine
 10
1.093503937007874
 20
1.687992125984251
 30
0.0
 11
1.268700787401574
 21
1.687992125984251
 31
0.0
  0
LINE
  5
3130
330
1E
100
AcDbEntity
  8
7
100
AcDbLine
 10
1.268700787401574
 20
1.705708661417324
 30
0.0
 11
1.268700787401574
 21
1.687992125984251
 31
0.0
  0
LINE
  5
3131
330
1E
100
AcDbEntity
  8
7
100
AcDbLine
 10
1.093503937007874
 20
1.705708661417324
 30
0.0
 11
1.268700787401574
 21
1.705708661417324
 31
0.0
  0
LINE
  5
3132
330
1E
100
AcDbEntity
  8
7
100
AcDbLine
 10
1.093503937007874
 20
1.705708661417324
 30
0.0
 11
1.093503937007874
 21
1.687992125984251
 31
0.0
  0
LINE
  5
3133
330
1E
100
AcDbEntity
  8
7
100
AcDbLine
 10
1.093503937007874
 20
1.662401574803149
 30
0.0
 11
1.093503937007874
 21
1.687992125984251
 31
0.0
  0
LINE
  5
3134
330
1E
100
AcDbEntity
  8
7
100
AcDbLine
 10
1.093503937007874
 20
1.662401574803149
 30
0.0
 11
1.268700787401574
 21
1.662401574803149
 31
0.0
  0
LINE
  5
3135
330
1E
100
AcDbEntity
  8
7
100
AcDbLine
 10
1.268700787401574
 20
1.687992125984251
 30
0.0
 11
1.268700787401574
 21
1.662401574803149
 31
0.0
  0
LINE
  5
3136
330
1E
100
AcDbEntity
  8
7
100
AcDbLine
 10
1.904527559055118
 20
1.725393700787401
 30
0.0
 11
1.904527559055118
 21
1.705708661417324
 31
0.0
  0
LINE
  5
313C
330
1E
100
AcDbEntity
  8
7
100
AcDbLine
 10
1.268700787401574
 20
1.725393700787401
 30
0.0
 11
1.268700787401574
 21
1.705708661417324
 31
0.0
  0
LINE
  5
313D
330
1E
100
AcDbEntity
  8
7
100
AcDbLine
 10
1.093503937007874
 20
1.725393700787401
 30
0.0
 11
1.268700787401574
 21
1.725393700787401
 31
0.0
  0
LINE
  5
313E
330
1E
100
AcDbEntity
  8
7
100
AcDbLine
 10
1.093503937007874
 20
1.725393700787401
 30
0.0
 11
1.093503937007874
 21
1.705708661417324
 31
0.0
  0
LINE
  5
313F
330
1E
100
AcDbEntity
  8
7
100
AcDbLine
 10
2.774606299212599
 20
1.428149606299212
 30
0.0
 11
2.778543307086614
 21
1.428149606299212
 31
0.0
  0
LINE
  5
3147
330
1E
100
AcDbEntity
  8
7
100
AcDbLine
 10
2.74507874015748
 20
1.428149606299212
 30
0.0
 11
2.695866141732283
 21
1.428149606299212
 31
0.0
  0
LINE
  5
314D
330
1E
100
AcDbEntity
  8
7
100
AcDbLine
 10
2.502952755905512
 20
1.428149606299212
 30
0.0
 11
2.451771653543307
 21
1.428149606299212
 31
0.0
  0
LINE
  5
3153
330
1E
100
AcDbEntity
  8
7
100
AcDbLine
 10
2.556102362204724
 20
1.428149606299212
 30
0.0
 11
2.53248031496063
 21
1.428149606299212
 31
0.0
  0
LINE
  5
315A
330
1E
100
AcDbEntity
  8
7
100
AcDbLine
 10
2.638779527559055
 20
1.428149606299212
 30
0.0
 11
2.601377952755905
 21
1.428149606299212
 31
0.0
  0
LINE
  5
315B
330
1E
100
AcDbEntity
  8
7
100
AcDbLine
 10
2.638779527559055
 20
1.428149606299212
 30
0.0
 11
2.654527559055118
 21
1.428149606299212
 31
0.0
  0
LINE
  5
315C
330
1E
100
AcDbEntity
  8
7
100
AcDbLine
 10
2.682086614173228
 20
1.428149606299212
 30
0.0
 11
2.654527559055118
 21
1.428149606299212
 31
0.0
  0
LINE
  5
315D
330
1E
100
AcDbEntity
  8
7
100
AcDbLine
 10
2.934055118110236
 20
1.428149606299212
 30
0.0
 11
2.906496062992125
 21
1.428149606299212
 31
0.0
  0
LINE
  5
315E
330
1E
100
AcDbEntity
  8
7
100
AcDbLine
 10
2.953740157480314
 20
1.428149606299212
 30
0.0
 11
2.934055118110236
 21
1.428149606299212
 31
0.0
  0
LINE
  5
315F
330
1E
100
AcDbEntity
  8
7
100
AcDbLine
 10
2.888779527559055
 20
1.428149606299212
 30
0.0
 11
2.906496062992125
 21
1.428149606299212
 31
0.0
  0
LINE
  5
3160
330
1E
100
AcDbEntity
  8
7
100
AcDbLine
 10
2.875
 20
1.428149606299212
 30
0.0
 11
2.851377952755905
 21
1.428149606299212
 31
0.0
  0
LINE
  5
3168
330
1E
100
AcDbEntity
  8
7
100
AcDbLine
 10
1.719488188976378
 20
0.8100393700787407
 30
0.0
 11
1.723425196850394
 21
0.7372047244094491
 31
0.0
  0
LINE
  5
3169
330
1E
100
AcDbEntity
  8
7
100
AcDbLine
 10
1.910433070866141
 20
0.7372047244094491
 30
0.0
 11
1.723425196850394
 21
0.7372047244094491
 31
0.0
  0
LINE
  5
316A
330
1E
100
AcDbEntity
  8
7
100
AcDbLine
 10
1.914370078740157
 20
0.8100393700787407
 30
0.0
 11
1.910433070866141
 21
0.7372047244094491
 31
0.0
  0
LINE
  5
316B
330
1E
100
AcDbEntity
  8
7
100
AcDbLine
 10
1.910433070866141
 20
0.7234251968503945
 30
0.0
 11
1.910433070866141
 21
0.7372047244094491
 31
0.0
  0
LINE
  5
3171
330
1E
100
AcDbEntity
  8
7
100
AcDbLine
 10
1.426181102362204
 20
1.412401574803149
 30
0.0
 11
1.426181102362204
 21
1.437992125984252
 31
0.0
  0
LINE
  5
3172
330
1E
100
AcDbEntity
  8
7
100
AcDbLine
 10
1.571850393700787
 20
1.437992125984252
 30
0.0
 11
1.571850393700787
 21
1.412401574803149
 31
0.0
  0
LINE
  5
3173
330
1E
100
AcDbEntity
  8
7
100
AcDbLine
 10
1.426181102362204
 20
1.437992125984252
 30
0.0
 11
1.571850393700787
 21
1.437992125984252
 31
0.0
  0
LINE
  5
3174
330
1E
100
AcDbEntity
  8
7
100
AcDbLine
 10
1.280511811023622
 20
0.8257874015748036
 30
0.0
 11
1.280511811023622
 21
0.8100393700787407
 31
0.0
  0
LINE
  5
3175
330
1E
100
AcDbEntity
  8
7
100
AcDbLine
 10
1.083661417322835
 20
0.8257874015748036
 30
0.0
 11
1.280511811023622
 21
0.8257874015748036
 31
0.0
  0
LINE
  5
3176
330
1E
100
AcDbEntity
  8
7
100
AcDbLine
 10
1.083661417322835
 20
0.8100393700787407
 30
0.0
 11
1.083661417322835
 21
0.8257874015748036
 31
0.0
  0
LINE
  5
3177
330
1E
100
AcDbEntity
  8
7
100
AcDbLine
 10
1.280511811023622
 20
0.8100393700787407
 30
0.0
 11
1.083661417322835
 21
0.8100393700787407
 31
0.0
  0
LINE
  5
3178
330
1E
100
AcDbEntity
  8
7
100
AcDbLine
 10
1.280511811023622
 20
0.8100393700787407
 30
0.0
 11
1.276574803149606
 21
0.7372047244094491
 31
0.0
  0
LINE
  5
317E
330
1E
100
AcDbEntity
  8
7
100
AcDbLine
 10
1.089566929133858
 20
0.7234251968503945
 30
0.0
 11
1.08759842519685
 21
0.7372047244094491
 31
0.0
  0
LINE
  5
317F
330
1E
100
AcDbEntity
  8
7
100
AcDbLine
 10
1.274606299212599
 20
0.7234251968503945
 30
0.0
 11
1.089566929133858
 21
0.7234251968503945
 31
0.0
  0
LINE
  5
3180
330
1E
100
AcDbEntity
  8
7
100
AcDbLine
 10
1.276574803149606
 20
0.7372047244094491
 30
0.0
 11
1.274606299212599
 21
0.7234251968503945
 31
0.0
  0
LINE
  5
3181
330
1E
100
AcDbEntity
  8
7
100
AcDbLine
 10
2.128937007874015
 20
1.437992125984252
 30
0.0
 11
2.062007874015748
 21
1.437992125984252
 31
0.0
  0
LINE
  5
3196
330
1E
100
AcDbEntity
  8
7
100
AcDbLine
 10
0.8690944881889768
 20
1.437992125984252
 30
0.0
 11
0.9360236220472444
 21
1.437992125984252
 31
0.0
  0
LINE
  5
3197
330
1E
100
AcDbEntity
  8
7
100
AcDbLine
 10
2.128937007874015
 20
1.768700787401575
 30
0.0
 11
2.128937007874015
 21
1.437992125984252
 31
0.0
  0
LINE
  5
3198
330
1E
100
AcDbEntity
  8
7
100
AcDbLine
 10
1.918307086614173
 20
1.768700787401575
 30
0.0
 11
1.918307086614173
 21
1.725393700787401
 31
0.0
  0
LINE
  5
3199
330
1E
100
AcDbEntity
  8
7
100
AcDbLine
 10
1.918307086614173
 20
1.768700787401575
 30
0.0
 11
1.918307086614173
 21
1.784448818897638
 31
0.0
  0
LINE
  5
319A
330
1E
100
AcDbEntity
  8
7
100
AcDbLine
 10
1.715551181102362
 20
1.725393700787401
 30
0.0
 11
1.729330708661417
 21
1.725393700787401
 31
0.0
  0
LINE
  5
319B
330
1E
100
AcDbEntity
  8
7
100
AcDbLine
 10
1.904527559055118
 20
1.725393700787401
 30
0.0
 11
1.918307086614173
 21
1.725393700787401
 31
0.0
  0
LINE
  5
319C
330
1E
100
AcDbEntity
  8
7
100
AcDbLine
 10
1.918307086614173
 20
1.784448818897638
 30
0.0
 11
1.715551181102362
 21
1.784448818897638
 31
0.0
  0
LINE
  5
319D
330
1E
100
AcDbEntity
  8
7
100
AcDbLine
 10
1.715551181102362
 20
1.784448818897638
 30
0.0
 11
1.715551181102362
 21
1.768700787401575
 31
0.0
  0
LINE
  5
319E
330
1E
100
AcDbEntity
  8
7
100
AcDbLine
 10
1.715551181102362
 20
1.725393700787401
 30
0.0
 11
1.715551181102362
 21
1.768700787401575
 31
0.0
  0
LINE
  5
319F
330
1E
100
AcDbEntity
  8
7
100
AcDbLine
 10
1.284448818897637
 20
1.784448818897638
 30
0.0
 11
1.284448818897637
 21
1.768700787401575
 31
0.0
  0
LINE
  5
31A0
330
1E
100
AcDbEntity
  8
7
100
AcDbLine
 10
1.28248031496063
 20
1.725393700787401
 30
0.0
 11
1.284448818897637
 21
1.768700787401575
 31
0.0
  0
LINE
  5
31A1
330
1E
100
AcDbEntity
  8
7
100
AcDbLine
 10
1.079724409448819
 20
1.784448818897638
 30
0.0
 11
1.284448818897637
 21
1.784448818897638
 31
0.0
  0
LINE
  5
31A2
330
1E
100
AcDbEntity
  8
7
100
AcDbLine
 10
1.093503937007874
 20
1.725393700787401
 30
0.0
 11
1.081692913385826
 21
1.725393700787401
 31
0.0
  0
LINE
  5
31A3
330
1E
100
AcDbEntity
  8
7
100
AcDbLine
 10
1.28248031496063
 20
1.725393700787401
 30
0.0
 11
1.268700787401574
 21
1.725393700787401
 31
0.0
  0
LINE
  5
31A4
330
1E
100
AcDbEntity
  8
7
100
AcDbLine
 10
1.079724409448819
 20
1.768700787401575
 30
0.0
 11
1.079724409448819
 21
1.784448818897638
 31
0.0
  0
LINE
  5
31A5
330
1E
100
AcDbEntity
  8
7
100
AcDbLine
 10
1.079724409448819
 20
1.768700787401575
 30
0.0
 11
1.081692913385826
 21
1.725393700787401
 31
0.0
  0
LINE
  5
31A6
330
1E
100
AcDbEntity
  8
7
100
AcDbLine
 10
3.144685039370078
 20
1.252952755905512
 30
0.0
 11
-0.1446850393700787
 21
1.252952755905512
 31
0.0
  0
LINE
  5
31BC
330
1E
100
AcDbEntity
  8
7
100
AcDbLine
 10
0.9360236220472444
 20
1.412401574803149
 30
0.0
 11
0.9360236220472444
 21
1.437992125984252
 31
0.0
  0
LINE
  5
31BD
330
1E
100
AcDbEntity
  8
7
100
AcDbLine
 10
2.062007874015748
 20
1.412401574803149
 30
0.0
 11
2.062007874015748
 21
1.437992125984252
 31
0.0
  0
LINE
  5
31BE
330
1E
100
AcDbEntity
  8
7
100
AcDbLine
 10
2.774606299212599
 20
1.428149606299212
 30
0.0
 11
2.774606299212599
 21
1.412401574803149
 31
0.0
  0
LINE
  5
31BF
330
1E
100
AcDbEntity
  8
7
100
AcDbLine
 10
2.790354330708662
 20
1.428149606299212
 30
0.0
 11
2.790354330708662
 21
1.412401574803149
 31
0.0
  0
LINE
  5
31C0
330
1E
100
AcDbEntity
  8
7
100
AcDbLine
 10
2.821850393700787
 20
1.428149606299212
 30
0.0
 11
2.821850393700787
 21
1.412401574803149
 31
0.0
  0
LINE
  5
31C1
330
1E
100
AcDbEntity
  8
7
100
AcDbLine
 10
2.835629921259842
 20
1.428149606299212
 30
0.0
 11
2.835629921259842
 21
1.412401574803149
 31
0.0
  0
LINE
  5
31C2
330
1E
100
AcDbEntity
  8
7
100
AcDbLine
 10
2.695866141732283
 20
1.428149606299212
 30
0.0
 11
2.695866141732283
 21
1.412401574803149
 31
0.0
  0
LINE
  5
31C3
330
1E
100
AcDbEntity
  8
7
100
AcDbLine
 10
2.74507874015748
 20
1.428149606299212
 30
0.0
 11
2.74507874015748
 21
1.412401574803149
 31
0.0
  0
LINE
  5
31C4
330
1E
100
AcDbEntity
  8
7
100
AcDbLine
 10
2.760826771653543
 20
1.428149606299212
 30
0.0
 11
2.760826771653543
 21
1.412401574803149
 31
0.0
  0
LINE
  5
31C5
330
1E
100
AcDbEntity
  8
7
100
AcDbLine
 10
2.53248031496063
 20
1.428149606299212
 30
0.0
 11
2.53248031496063
 21
1.412401574803149
 31
0.0
  0
LINE
  5
31C6
330
1E
100
AcDbEntity
  8
7
100
AcDbLine
 10
2.53248031496063
 20
1.428149606299212
 30
0.0
 11
2.53248031496063
 21
1.412401574803149
 31
0.0
  0
LINE
  5
31C7
330
1E
100
AcDbEntity
  8
7
100
AcDbLine
 10
2.556102362204724
 20
1.428149606299212
 30
0.0
 11
2.556102362204724
 21
1.412401574803149
 31
0.0
  0
LINE
  5
31C8
330
1E
100
AcDbEntity
  8
7
100
AcDbLine
 10
2.562007874015748
 20
1.428149606299212
 30
0.0
 11
2.562007874015748
 21
1.412401574803149
 31
0.0
  0
LINE
  5
31C9
330
1E
100
AcDbEntity
  8
7
100
AcDbLine
 10
2.595472440944882
 20
1.428149606299212
 30
0.0
 11
2.595472440944882
 21
1.412401574803149
 31
0.0
  0
LINE
  5
31CA
330
1E
100
AcDbEntity
  8
7
100
AcDbLine
 10
2.601377952755905
 20
1.428149606299212
 30
0.0
 11
2.601377952755905
 21
1.412401574803149
 31
0.0
  0
LINE
  5
31CB
330
1E
100
AcDbEntity
  8
7
100
AcDbLine
 10
2.638779527559055
 20
1.428149606299212
 30
0.0
 11
2.638779527559055
 21
1.412401574803149
 31
0.0
  0
LINE
  5
31CC
330
1E
100
AcDbEntity
  8
7
100
AcDbLine
 10
2.654527559055118
 20
1.428149606299212
 30
0.0
 11
2.654527559055118
 21
1.412401574803149
 31
0.0
  0
LINE
  5
31CD
330
1E
100
AcDbEntity
  8
7
100
AcDbLine
 10
2.682086614173228
 20
1.428149606299212
 30
0.0
 11
2.682086614173228
 21
1.412401574803149
 31
0.0
  0
LINE
  5
31CE
330
1E
100
AcDbEntity
  8
7
100
AcDbLine
 10
2.451771653543307
 20
1.428149606299212
 30
0.0
 11
2.451771653543307
 21
1.412401574803149
 31
0.0
  0
LINE
  5
31CF
330
1E
100
AcDbEntity
  8
7
100
AcDbLine
 10
2.502952755905512
 20
1.428149606299212
 30
0.0
 11
2.502952755905512
 21
1.412401574803149
 31
0.0
  0
LINE
  5
31D0
330
1E
100
AcDbEntity
  8
7
100
AcDbLine
 10
2.530511811023622
 20
1.428149606299212
 30
0.0
 11
2.530511811023622
 21
1.412401574803149
 31
0.0
  0
LINE
  5
31D1
330
1E
100
AcDbEntity
  8
7
100
AcDbLine
 10
2.888779527559055
 20
1.428149606299212
 30
0.0
 11
2.888779527559055
 21
1.412401574803149
 31
0.0
  0
LINE
  5
31D2
330
1E
100
AcDbEntity
  8
7
100
AcDbLine
 10
2.906496062992125
 20
1.428149606299212
 30
0.0
 11
2.906496062992125
 21
1.412401574803149
 31
0.0
  0
LINE
  5
31D3
330
1E
100
AcDbEntity
  8
7
100
AcDbLine
 10
2.934055118110236
 20
1.428149606299212
 30
0.0
 11
2.934055118110236
 21
1.412401574803149
 31
0.0
  0
LINE
  5
31D4
330
1E
100
AcDbEntity
  8
7
100
AcDbLine
 10
2.953740157480314
 20
1.428149606299212
 30
0.0
 11
2.953740157480314
 21
1.412401574803149
 31
0.0
  0
LINE
  5
31D5
330
1E
100
AcDbEntity
  8
7
100
AcDbLine
 10
2.851377952755905
 20
1.428149606299212
 30
0.0
 11
2.851377952755905
 21
1.412401574803149
 31
0.0
  0
LINE
  5
31D6
330
1E
100
AcDbEntity
  8
7
100
AcDbLine
 10
2.875
 20
1.428149606299212
 30
0.0
 11
2.875
 21
1.412401574803149
 31
0.0
  0
LINE
  5
31D7
330
1E
100
AcDbEntity
  8
7
100
AcDbLine
 10
1.924212598425197
 20
0.9931102362204731
 30
0.0
 11
1.916338582677165
 21
0.8257874015748036
 31
0.0
  0
LINE
  5
31D8
330
1E
100
AcDbEntity
  8
7
100
AcDbLine
 10
1.709645669291338
 20
0.9931102362204731
 30
0.0
 11
1.719488188976378
 21
0.8257874015748036
 31
0.0
  0
LINE
  5
31D9
330
1E
100
AcDbEntity
  8
7
100
AcDbLine
 10
1.288385826771653
 20
0.9931102362204731
 30
0.0
 11
1.280511811023622
 21
0.8257874015748036
 31
0.0
  0
LINE
  5
31DA
330
1E
100
AcDbEntity
  8
7
100
AcDbLine
 10
1.075787401574803
 20
0.9931102362204731
 30
0.0
 11
1.083661417322835
 21
0.8257874015748036
 31
0.0
  0
LINE
  5
31DB
330
1E
100
AcDbEntity
  8
7
100
AcDbLine
 10
3.144685039370078
 20
1.252952755905512
 30
0.0
 11
3.162401574803149
 21
0.9931102362204731
 31
0.0
  0
LINE
  5
31DC
330
1E
100
AcDbEntity
  8
7
100
AcDbLine
 10
-0.1446850393700787
 20
1.252952755905512
 30
0.0
 11
-0.1624015748031491
 21
0.9931102362204731
 31
0.0
  0
LINE
  5
31E7
330
1E
100
AcDbEntity
  8
7
100
AcDbLine
 10
1.953740157480314
 20
1.687992125984251
 30
0.0
 11
1.953740157480314
 21
1.662401574803149
 31
0.0
  0
LINE
  5
31E8
330
1E
100
AcDbEntity
  8
7
100
AcDbLine
 10
2.128937007874015
 20
1.687992125984251
 30
0.0
 11
1.953740157480314
 21
1.687992125984251
 31
0.0
  0
LINE
  5
31E9
330
1E
100
AcDbEntity
  8
7
100
AcDbLine
 10
1.918307086614173
 20
1.768700787401575
 30
0.0
 11
2.128937007874015
 21
1.768700787401575
 31
0.0
  0
LINE
  5
31EA
330
1E
100
AcDbEntity
  8
7
100
AcDbLine
 10
1.953740157480314
 20
1.662401574803149
 30
0.0
 11
1.904527559055118
 21
1.662401574803149
 31
0.0
  0
LINE
  5
31F0
330
1E
100
AcDbEntity
  8
7
100
AcDbLine
 10
1.729330708661417
 20
1.662401574803149
 30
0.0
 11
1.68011811023622
 21
1.662401574803149
 31
0.0
  0
LINE
  5
31F1
330
1E
100
AcDbEntity
  8
7
100
AcDbLine
 10
1.715551181102362
 20
1.768700787401575
 30
0.0
 11
1.284448818897637
 21
1.768700787401575
 31
0.0
  0
LINE
  5
31F2
330
1E
100
AcDbEntity
  8
7
100
AcDbLine
 10
1.268700787401574
 20
1.662401574803149
 30
0.0
 11
1.317913385826772
 21
1.662401574803149
 31
0.0
  0
LINE
  5
31F3
330
1E
100
AcDbEntity
  8
7
100
AcDbLine
 10
1.319881889763779
 20
1.687992125984251
 30
0.0
 11
1.317913385826772
 21
1.662401574803149
 31
0.0
  0
LINE
  5
31FA
330
1E
100
AcDbEntity
  8
7
100
AcDbLine
 10
1.079724409448819
 20
1.768700787401575
 30
0.0
 11
0.8690944881889768
 21
1.768700787401575
 31
0.0
  0
LINE
  5
31FB
330
1E
100
AcDbEntity
  8
7
100
AcDbLine
 10
2.302165354330709
 20
1.794291338582677
 30
0.0
 11
2.315944881889763
 21
1.412401574803149
 31
0.0
  0
LINE
  5
31FC
330
1E
100
AcDbEntity
  8
7
100
AcDbLine
 10
0.6978346456692917
 20
1.794291338582677
 30
0.0
 11
0.6840551181102362
 21
1.412401574803149
 31
0.0
  0
LINE
  5
3512
330
1E
100
AcDbEntity
  8
7
100
AcDbLine
 10
7.306102362204723
 20
4.782480314960628
 30
0.0
 11
7.306102362204723
 21
4.211614173228345
 31
0.0
  0
LINE
  5
3513
330
1E
100
AcDbEntity
  8
7
100
AcDbLine
 10
7.306102362204723
 20
6.284448818897637
 30
0.0
 11
7.306102362204723
 21
5.713582677165354
 31
0.0
  0
LINE
  5
3514
330
1E
100
AcDbEntity
  8
7
100
AcDbLine
 10
7.764763779527558
 20
6.562007874015747
 30
0.0
 11
7.764763779527558
 21
6.593503937007873
 31
0.0
  0
LINE
  5
3515
330
1E
100
AcDbEntity
  8
7
100
AcDbLine
 10
7.894685039370078
 20
6.562007874015747
 30
0.0
 11
7.764763779527558
 21
6.562007874015747
 31
0.0
  0
LINE
  5
3516
330
1E
100
AcDbEntity
  8
7
100
AcDbLine
 10
7.894685039370078
 20
6.593503937007873
 30
0.0
 11
7.894685039370078
 21
6.562007874015747
 31
0.0
  0
LINE
  5
3517
330
1E
100
AcDbEntity
  8
7
100
AcDbLine
 10
7.894685039370078
 20
6.593503937007873
 30
0.0
 11
7.764763779527558
 21
6.593503937007873
 31
0.0
  0
LINE
  5
3518
330
1E
100
AcDbEntity
  8
7
100
AcDbLine
 10
5.585629921259842
 20
6.562007874015747
 30
0.0
 11
5.585629921259842
 21
6.593503937007873
 31
0.0
  0
LINE
  5
3519
330
1E
100
AcDbEntity
  8
7
100
AcDbLine
 10
5.457677165354331
 20
6.593503937007873
 30
0.0
 11
5.585629921259842
 21
6.593503937007873
 31
0.0
  0
LINE
  5
351F
330
1E
100
AcDbEntity
  8
7
100
AcDbLine
 10
7.764763779527558
 20
6.593503937007873
 30
0.0
 11
7.764763779527558
 21
6.599409448818897
 31
0.0
  0
LINE
  5
3520
330
1E
100
AcDbEntity
  8
7
100
AcDbLine
 10
7.764763779527558
 20
6.556102362204724
 30
0.0
 11
7.764763779527558
 21
6.562007874015747
 31
0.0
  0
LINE
  5
3521
330
1E
100
AcDbEntity
  8
7
100
AcDbLine
 10
7.9005905511811
 20
6.556102362204724
 30
0.0
 11
7.764763779527558
 21
6.556102362204724
 31
0.0
  0
LINE
  5
3522
330
1E
100
AcDbEntity
  8
7
100
AcDbLine
 10
7.9005905511811
 20
6.556102362204724
 30
0.0
 11
7.894685039370078
 21
6.562007874015747
 31
0.0
  0
LINE
  5
3523
330
1E
100
AcDbEntity
  8
7
100
AcDbLine
 10
7.9005905511811
 20
6.599409448818897
 30
0.0
 11
7.9005905511811
 21
6.556102362204724
 31
0.0
  0
LINE
  5
3524
330
1E
100
AcDbEntity
  8
7
100
AcDbLine
 10
7.9005905511811
 20
6.599409448818897
 30
0.0
 11
7.894685039370078
 21
6.593503937007873
 31
0.0
  0
LINE
  5
3525
330
1E
100
AcDbEntity
  8
7
100
AcDbLine
 10
7.9005905511811
 20
6.599409448818897
 30
0.0
 11
7.764763779527558
 21
6.599409448818897
 31
0.0
  0
LINE
  5
352B
330
1E
100
AcDbEntity
  8
7
100
AcDbLine
 10
5.451771653543307
 20
6.599409448818897
 30
0.0
 11
5.457677165354331
 21
6.593503937007873
 31
0.0
  0
LINE
  5
352C
330
1E
100
AcDbEntity
  8
7
100
AcDbLine
 10
5.585629921259842
 20
6.556102362204724
 30
0.0
 11
5.585629921259842
 21
6.562007874015747
 31
0.0
  0
LINE
  5
352D
330
1E
100
AcDbEntity
  8
7
100
AcDbLine
 10
5.451771653543307
 20
6.556102362204724
 30
0.0
 11
5.585629921259842
 21
6.556102362204724
 31
0.0
  0
LINE
  5
352E
330
1E
100
AcDbEntity
  8
7
100
AcDbLine
 10
5.585629921259842
 20
6.593503937007873
 30
0.0
 11
5.585629921259842
 21
6.599409448818897
 31
0.0
  0
LINE
  5
352F
330
1E
100
AcDbEntity
  8
7
100
AcDbLine
 10
5.451771653543307
 20
6.599409448818897
 30
0.0
 11
5.585629921259842
 21
6.599409448818897
 31
0.0
  0
LINE
  5
3530
330
1E
100
AcDbEntity
  8
7
100
AcDbLine
 10
5.012795275590551
 20
7.209645669291337
 30
0.0
 11
8.337598425196848
 21
7.209645669291337
 31
0.0
  0
LINE
  5
3540
330
1E
100
AcDbEntity
  8
7
100
AcDbLine
 10
5.075787401574803
 20
7.117125984251967
 30
0.0
 11
8.276574803149607
 21
7.117125984251967
 31
0.0
  0
LINE
  5
3541
330
1E
100
AcDbEntity
  8
7
100
AcDbLine
 10
5.093503937007874
 20
7.099409448818897
 30
0.0
 11
5.075787401574803
 21
7.117125984251967
 31
0.0
  0
LINE
  5
3542
330
1E
100
AcDbEntity
  8
7
100
AcDbLine
 10
8.180118110236218
 20
7.020669291338582
 30
0.0
 11
5.172244094488188
 21
7.020669291338582
 31
0.0
  0
LINE
  5
3551
330
1E
100
AcDbEntity
  8
7
100
AcDbLine
 10
8.180118110236218
 20
6.351377952755904
 30
0.0
 11
8.180118110236218
 21
7.020669291338582
 31
0.0
  0
LINE
  5
355D
330
1E
100
AcDbEntity
  8
7
100
AcDbLine
 10
8.274606299212596
 20
6.310039370078739
 30
0.0
 11
8.274606299212596
 21
6.345472440944882
 31
0.0
  0
LINE
  5
3563
330
1E
100
AcDbEntity
  8
7
100
AcDbLine
 10
8.276574803149607
 20
3.916338582677165
 30
0.0
 11
8.258858267716533
 21
3.934055118110236
 31
0.0
  0
LINE
  5
3564
330
1E
100
AcDbEntity
  8
7
100
AcDbLine
 10
8.276574803149607
 20
7.117125984251967
 30
0.0
 11
8.276574803149607
 21
3.916338582677165
 31
0.0
  0
LINE
  5
3572
330
1E
100
AcDbEntity
  8
7
100
AcDbLine
 10
5.093503937007874
 20
6.306102362204724
 30
0.0
 11
5.093503937007874
 21
3.934055118110236
 31
0.0
  0
LINE
  5
3573
330
1E
100
AcDbEntity
  8
7
100
AcDbLine
 10
5.077755905511811
 20
6.310039370078739
 30
0.0
 11
5.093503937007874
 21
6.306102362204724
 31
0.0
  0
LINE
  5
3574
330
1E
100
AcDbEntity
  8
7
100
AcDbLine
 10
5.077755905511811
 20
6.310039370078739
 30
0.0
 11
5.077755905511811
 21
6.345472440944882
 31
0.0
  0
LINE
  5
3575
330
1E
100
AcDbEntity
  8
7
100
AcDbLine
 10
5.093503937007874
 20
6.349409448818897
 30
0.0
 11
5.077755905511811
 21
6.345472440944882
 31
0.0
  0
LINE
  5
3576
330
1E
100
AcDbEntity
  8
7
100
AcDbLine
 10
4.983267716535433
 20
7.178149606299212
 30
0.0
 11
4.983267716535433
 21
3.853346456692913
 31
0.0
  0
LINE
  5
3577
330
1E
100
AcDbEntity
  8
7
100
AcDbLine
 10
8.369094488188974
 20
7.178149606299212
 30
0.0
 11
8.369094488188974
 21
3.853346456692913
 31
0.0
  0
LINE
  5
3578
330
1E
100
AcDbEntity
  8
7
100
AcDbLine
 10
5.075787401574803
 20
3.916338582677165
 30
0.0
 11
8.276574803149607
 21
3.916338582677165
 31
0.0
  0
LINE
  5
357E
330
1E
100
AcDbEntity
  8
7
100
AcDbLine
 10
5.012795275590551
 20
3.823818897637795
 30
0.0
 11
4.991141732283464
 21
3.831692913385826
 31
0.0
  0
LINE
  5
357F
330
1E
100
AcDbEntity
  8
7
100
AcDbLine
 10
4.991141732283464
 20
3.831692913385826
 30
0.0
 11
4.983267716535433
 21
3.853346456692913
 31
0.0
  0
LINE
  5
3580
330
1E
100
AcDbEntity
  8
7
100
AcDbLine
 10
8.337598425196848
 20
3.823818897637795
 30
0.0
 11
5.012795275590551
 21
3.823818897637795
 31
0.0
  0
LINE
  5
3581
330
1E
100
AcDbEntity
  8
7
100
AcDbLine
 10
6.235236220472439
 20
4.144685039370078
 30
0.0
 11
5.869094488188975
 21
4.144685039370078
 31
0.0
  0
LINE
  5
3582
330
1E
100
AcDbEntity
  8
7
100
AcDbLine
 10
5.869094488188975
 20
5.386811023622047
 30
0.0
 11
5.869094488188975
 21
4.144685039370078
 31
0.0
  0
LINE
  5
3583
330
1E
100
AcDbEntity
  8
7
100
AcDbLine
 10
7.483267716535432
 20
5.386811023622047
 30
0.0
 11
5.869094488188975
 21
5.386811023622047
 31
0.0
  0
LINE
  5
3584
330
1E
100
AcDbEntity
  8
7
100
AcDbLine
 10
7.483267716535432
 20
5.386811023622047
 30
0.0
 11
7.483267716535432
 21
4.144685039370078
 31
0.0
  0
LINE
  5
3585
330
1E
100
AcDbEntity
  8
7
100
AcDbLine
 10
7.117125984251967
 20
4.144685039370078
 30
0.0
 11
7.483267716535432
 21
4.144685039370078
 31
0.0
  0
LINE
  5
3586
330
1E
100
AcDbEntity
  8
7
100
AcDbLine
 10
7.117125984251967
 20
4.065944881889763
 30
0.0
 11
7.117125984251967
 21
4.144685039370078
 31
0.0
  0
LINE
  5
3587
330
1E
100
AcDbEntity
  8
7
100
AcDbLine
 10
7.117125984251967
 20
4.065944881889763
 30
0.0
 11
6.869094488188975
 21
4.065944881889763
 31
0.0
  0
LINE
  5
3588
330
1E
100
AcDbEntity
  8
7
100
AcDbLine
 10
6.869094488188975
 20
4.144685039370078
 30
0.0
 11
6.869094488188975
 21
4.065944881889763
 31
0.0
  0
LINE
  5
3589
330
1E
100
AcDbEntity
  8
7
100
AcDbLine
 10
6.483267716535432
 20
4.144685039370078
 30
0.0
 11
6.869094488188975
 21
4.144685039370078
 31
0.0
  0
LINE
  5
358A
330
1E
100
AcDbEntity
  8
7
100
AcDbLine
 10
6.483267716535432
 20
4.144685039370078
 30
0.0
 11
6.483267716535432
 21
4.065944881889763
 31
0.0
  0
LINE
  5
358B
330
1E
100
AcDbEntity
  8
7
100
AcDbLine
 10
6.235236220472439
 20
4.065944881889763
 30
0.0
 11
6.483267716535432
 21
4.065944881889763
 31
0.0
  0
LINE
  5
358C
330
1E
100
AcDbEntity
  8
7
100
AcDbLine
 10
6.235236220472439
 20
4.065944881889763
 30
0.0
 11
6.235236220472439
 21
4.144685039370078
 31
0.0
  0
LINE
  5
358D
330
1E
100
AcDbEntity
  8
7
100
AcDbLine
 10
6.235236220472439
 20
5.646653543307086
 30
0.0
 11
5.869094488188975
 21
5.646653543307086
 31
0.0
  0
LINE
  5
358E
330
1E
100
AcDbEntity
  8
7
100
AcDbLine
 10
5.869094488188975
 20
6.888779527559054
 30
0.0
 11
5.869094488188975
 21
5.646653543307086
 31
0.0
  0
LINE
  5
358F
330
1E
100
AcDbEntity
  8
7
100
AcDbLine
 10
7.483267716535432
 20
6.888779527559054
 30
0.0
 11
5.869094488188975
 21
6.888779527559054
 31
0.0
  0
LINE
  5
3590
330
1E
100
AcDbEntity
  8
7
100
AcDbLine
 10
7.483267716535432
 20
6.888779527559054
 30
0.0
 11
7.483267716535432
 21
5.646653543307086
 31
0.0
  0
LINE
  5
3591
330
1E
100
AcDbEntity
  8
7
100
AcDbLine
 10
7.117125984251967
 20
5.646653543307086
 30
0.0
 11
7.483267716535432
 21
5.646653543307086
 31
0.0
  0
LINE
  5
3592
330
1E
100
AcDbEntity
  8
7
100
AcDbLine
 10
7.117125984251967
 20
5.567913385826771
 30
0.0
 11
7.117125984251967
 21
5.646653543307086
 31
0.0
  0
LINE
  5
3593
330
1E
100
AcDbEntity
  8
7
100
AcDbLine
 10
7.117125984251967
 20
5.567913385826771
 30
0.0
 11
6.869094488188975
 21
5.567913385826771
 31
0.0
  0
LINE
  5
3594
330
1E
100
AcDbEntity
  8
7
100
AcDbLine
 10
6.869094488188975
 20
5.646653543307086
 30
0.0
 11
6.869094488188975
 21
5.567913385826771
 31
0.0
  0
LINE
  5
3595
330
1E
100
AcDbEntity
  8
7
100
AcDbLine
 10
6.483267716535432
 20
5.646653543307086
 30
0.0
 11
6.869094488188975
 21
5.646653543307086
 31
0.0
  0
LINE
  5
3596
330
1E
100
AcDbEntity
  8
7
100
AcDbLine
 10
6.483267716535432
 20
5.646653543307086
 30
0.0
 11
6.483267716535432
 21
5.567913385826771
 31
0.0
  0
LINE
  5
3597
330
1E
100
AcDbEntity
  8
7
100
AcDbLine
 10
6.235236220472439
 20
5.567913385826771
 30
0.0
 11
6.483267716535432
 21
5.567913385826771
 31
0.0
  0
LINE
  5
3598
330
1E
100
AcDbEntity
  8
7
100
AcDbLine
 10
6.235236220472439
 20
5.567913385826771
 30
0.0
 11
6.235236220472439
 21
5.646653543307086
 31
0.0
  0
LINE
  5
359E
330
1E
100
AcDbEntity
  8
7
100
AcDbLine
 10
5.172244094488188
 20
6.304133858267715
 30
0.0
 11
5.325787401574803
 21
6.304133858267715
 31
0.0
  0
LINE
  5
359F
330
1E
100
AcDbEntity
  8
7
100
AcDbLine
 10
5.172244094488188
 20
4.010826771653543
 30
0.0
 11
5.172244094488188
 21
6.304133858267715
 31
0.0
  0
LINE
  5
35A6
330
1E
100
AcDbEntity
  8
7
100
AcDbLine
 10
8.026574803149607
 20
6.351377952755904
 30
0.0
 11
8.026574803149607
 21
6.304133858267715
 31
0.0
  0
LINE
  5
35A7
330
1E
100
AcDbEntity
  8
7
100
AcDbLine
 10
8.180118110236218
 20
6.351377952755904
 30
0.0
 11
8.026574803149607
 21
6.351377952755904
 31
0.0
  0
LINE
  5
35A8
330
1E
100
AcDbEntity
  8
7
100
AcDbLine
 10
7.9005905511811
 20
6.099409448818897
 30
0.0
 11
7.764763779527558
 21
6.099409448818897
 31
0.0
  0
LINE
  5
35AE
330
1E
100
AcDbEntity
  8
7
100
AcDbLine
 10
5.451771653543307
 20
6.099409448818897
 30
0.0
 11
5.585629921259842
 21
6.099409448818897
 31
0.0
  0
LINE
  5
35AF
330
1E
100
AcDbEntity
  8
7
100
AcDbLine
 10
5.451771653543307
 20
6.056102362204724
 30
0.0
 11
5.585629921259842
 21
6.056102362204724
 31
0.0
  0
LINE
  5
35B0
330
1E
100
AcDbEntity
  8
7
100
AcDbLine
 10
5.451771653543307
 20
6.099409448818897
 30
0.0
 11
5.451771653543307
 21
6.056102362204724
 31
0.0
  0
LINE
  5
35CD
330
1E
100
AcDbEntity
  8
7
100
AcDbLine
 10
8.075787401574803
 20
5.516732283464565
 30
0.0
 11
8.06791338582677
 21
5.575787401574802
 31
0.0
  0
LINE
  5
35E9
330
1E
100
AcDbEntity
  8
7
100
AcDbLine
 10
7.786417322834645
 20
4.611220472440945
 30
0.0
 11
7.786417322834645
 21
4.636811023622047
 31
0.0
  0
LINE
  5
35EA
330
1E
100
AcDbEntity
  8
7
100
AcDbLine
 10
7.894685039370078
 20
4.636811023622047
 30
0.0
 11
7.786417322834645
 21
4.636811023622047
 31
0.0
  0
LINE
  5
35EB
330
1E
100
AcDbEntity
  8
7
100
AcDbLine
 10
7.894685039370078
 20
4.74507874015748
 30
0.0
 11
7.894685039370078
 21
4.636811023622047
 31
0.0
  0
LINE
  5
35EC
330
1E
100
AcDbEntity
  8
7
100
AcDbLine
 10
7.918307086614173
 20
4.74507874015748
 30
0.0
 11
7.894685039370078
 21
4.74507874015748
 31
0.0
  0
LINE
  5
35ED
330
1E
100
AcDbEntity
  8
7
100
AcDbLine
 10
7.918307086614173
 20
4.74507874015748
 30
0.0
 11
7.918307086614173
 21
4.636811023622047
 31
0.0
  0
LINE
  5
35EE
330
1E
100
AcDbEntity
  8
7
100
AcDbLine
 10
8.026574803149607
 20
4.636811023622047
 30
0.0
 11
7.918307086614173
 21
4.636811023622047
 31
0.0
  0
LINE
  5
35EF
330
1E
100
AcDbEntity
  8
7
100
AcDbLine
 10
8.026574803149607
 20
4.611220472440945
 30
0.0
 11
8.026574803149607
 21
4.636811023622047
 31
0.0
  0
LINE
  5
35F6
330
1E
100
AcDbEntity
  8
7
100
AcDbLine
 10
7.894685039370078
 20
4.611220472440945
 30
0.0
 11
7.894685039370078
 21
4.502952755905512
 31
0.0
  0
LINE
  5
35F7
330
1E
100
AcDbEntity
  8
7
100
AcDbLine
 10
7.894685039370078
 20
4.611220472440945
 30
0.0
 11
7.786417322834645
 21
4.611220472440945
 31
0.0
  0
LINE
  5
35F8
330
1E
100
AcDbEntity
  8
7
100
AcDbLine
 10
5.565944881889764
 20
4.611220472440945
 30
0.0
 11
5.565944881889764
 21
4.636811023622047
 31
0.0
  0
LINE
  5
35F9
330
1E
100
AcDbEntity
  8
7
100
AcDbLine
 10
5.457677165354331
 20
4.611220472440945
 30
0.0
 11
5.565944881889764
 21
4.611220472440945
 31
0.0
  0
LINE
  5
35FA
330
1E
100
AcDbEntity
  8
7
100
AcDbLine
 10
5.457677165354331
 20
4.611220472440945
 30
0.0
 11
5.457677165354331
 21
4.502952755905512
 31
0.0
  0
LINE
  5
35FB
330
1E
100
AcDbEntity
  8
7
100
AcDbLine
 10
5.434055118110237
 20
4.502952755905512
 30
0.0
 11
5.457677165354331
 21
4.502952755905512
 31
0.0
  0
LINE
  5
35FC
330
1E
100
AcDbEntity
  8
7
100
AcDbLine
 10
5.434055118110237
 20
4.611220472440945
 30
0.0
 11
5.434055118110237
 21
4.502952755905512
 31
0.0
  0
LINE
  5
35FD
330
1E
100
AcDbEntity
  8
7
100
AcDbLine
 10
5.325787401574803
 20
4.611220472440945
 30
0.0
 11
5.434055118110237
 21
4.611220472440945
 31
0.0
  0
LINE
  5
3603
330
1E
100
AcDbEntity
  8
7
100
AcDbLine
 10
5.434055118110237
 20
4.74507874015748
 30
0.0
 11
5.434055118110237
 21
4.636811023622047
 31
0.0
  0
LINE
  5
360A
330
1E
100
AcDbEntity
  8
7
100
AcDbLine
 10
5.882874015748031
 20
6.32775590551181
 30
0.0
 11
5.869094488188975
 21
5.646653543307086
 31
0.0
  0
LINE
  5
360B
330
1E
100
AcDbEntity
  8
7
100
AcDbLine
 10
5.869094488188975
 20
6.888779527559054
 30
0.0
 11
5.882874015748031
 21
6.32775590551181
 31
0.0
  0
LINE
  5
360C
330
1E
100
AcDbEntity
  8
7
100
AcDbLine
 10
7.130905511811023
 20
6.32775590551181
 30
0.0
 11
7.130905511811023
 21
6.369094488188976
 31
0.0
  0
LINE
  5
360D
330
1E
100
AcDbEntity
  8
7
100
AcDbLine
 10
7.469488188976376
 20
6.32775590551181
 30
0.0
 11
7.130905511811023
 21
6.32775590551181
 31
0.0
  0
LINE
  5
360E
330
1E
100
AcDbEntity
  8
7
100
AcDbLine
 10
7.483267716535432
 20
6.888779527559054
 30
0.0
 11
7.469488188976376
 21
6.32775590551181
 31
0.0
  0
LINE
  5
3614
330
1E
100
AcDbEntity
  8
7
100
AcDbLine
 10
6.270669291338582
 20
6.369094488188976
 30
0.0
 11
6.270669291338582
 21
6.32775590551181
 31
0.0
  0
LINE
  5
3615
330
1E
100
AcDbEntity
  8
7
100
AcDbLine
 10
6.445866141732282
 20
6.32775590551181
 30
0.0
 11
6.270669291338582
 21
6.32775590551181
 31
0.0
  0
LINE
  5
3616
330
1E
100
AcDbEntity
  8
7
100
AcDbLine
 10
6.445866141732282
 20
6.32775590551181
 30
0.0
 11
6.445866141732282
 21
6.369094488188976
 31
0.0
  0
LINE
  5
361C
330
1E
100
AcDbEntity
  8
7
100
AcDbLine
 10
6.857283464566928
 20
6.369094488188976
 30
0.0
 11
6.855314960629921
 21
6.32775590551181
 31
0.0
  0
LINE
  5
361D
330
1E
100
AcDbEntity
  8
7
100
AcDbLine
 10
6.906496062992125
 20
6.32775590551181
 30
0.0
 11
6.906496062992125
 21
6.369094488188976
 31
0.0
  0
LINE
  5
361E
330
1E
100
AcDbEntity
  8
7
100
AcDbLine
 10
6.906496062992125
 20
6.32775590551181
 30
0.0
 11
7.081692913385826
 21
6.32775590551181
 31
0.0
  0
LINE
  5
361F
330
1E
100
AcDbEntity
  8
7
100
AcDbLine
 10
7.081692913385826
 20
6.369094488188976
 30
0.0
 11
7.081692913385826
 21
6.32775590551181
 31
0.0
  0
LINE
  5
3620
330
1E
100
AcDbEntity
  8
7
100
AcDbLine
 10
7.469488188976376
 20
6.32775590551181
 30
0.0
 11
7.483267716535432
 21
5.646653543307086
 31
0.0
  0
LINE
  5
3621
330
1E
100
AcDbEntity
  8
7
100
AcDbLine
 10
7.081692913385826
 20
6.369094488188976
 30
0.0
 11
7.130905511811023
 21
6.369094488188976
 31
0.0
  0
LINE
  5
3622
330
1E
100
AcDbEntity
  8
7
100
AcDbLine
 10
6.904527559055117
 20
6.369094488188976
 30
0.0
 11
6.906496062992125
 21
6.369094488188976
 31
0.0
  0
LINE
  5
3623
330
1E
100
AcDbEntity
  8
7
100
AcDbLine
 10
6.857283464566928
 20
6.369094488188976
 30
0.0
 11
6.904527559055117
 21
6.369094488188976
 31
0.0
  0
LINE
  5
3624
330
1E
100
AcDbEntity
  8
7
100
AcDbLine
 10
6.447834645669289
 20
6.369094488188976
 30
0.0
 11
6.445866141732282
 21
6.369094488188976
 31
0.0
  0
LINE
  5
3625
330
1E
100
AcDbEntity
  8
7
100
AcDbLine
 10
6.447834645669289
 20
6.369094488188976
 30
0.0
 11
6.49507874015748
 21
6.369094488188976
 31
0.0
  0
LINE
  5
362B
330
1E
100
AcDbEntity
  8
7
100
AcDbLine
 10
7.130905511811023
 20
4.825787401574802
 30
0.0
 11
7.130905511811023
 21
4.867125984251967
 31
0.0
  0
LINE
  5
362C
330
1E
100
AcDbEntity
  8
7
100
AcDbLine
 10
7.469488188976376
 20
4.825787401574802
 30
0.0
 11
7.130905511811023
 21
4.825787401574802
 31
0.0
  0
LINE
  5
3633
330
1E
100
AcDbEntity
  8
7
100
AcDbLine
 10
6.270669291338582
 20
4.867125984251967
 30
0.0
 11
6.270669291338582
 21
4.825787401574802
 31
0.0
  0
LINE
  5
3634
330
1E
100
AcDbEntity
  8
7
100
AcDbLine
 10
6.445866141732282
 20
4.825787401574802
 30
0.0
 11
6.270669291338582
 21
4.825787401574802
 31
0.0
  0
LINE
  5
3635
330
1E
100
AcDbEntity
  8
7
100
AcDbLine
 10
6.445866141732282
 20
4.825787401574802
 30
0.0
 11
6.445866141732282
 21
4.867125984251967
 31
0.0
  0
LINE
  5
363B
330
1E
100
AcDbEntity
  8
7
100
AcDbLine
 10
6.857283464566928
 20
4.867125984251967
 30
0.0
 11
6.855314960629921
 21
4.825787401574802
 31
0.0
  0
LINE
  5
363C
330
1E
100
AcDbEntity
  8
7
100
AcDbLine
 10
6.906496062992125
 20
4.825787401574802
 30
0.0
 11
6.906496062992125
 21
4.867125984251967
 31
0.0
  0
LINE
  5
363D
330
1E
100
AcDbEntity
  8
7
100
AcDbLine
 10
6.906496062992125
 20
4.825787401574802
 30
0.0
 11
7.081692913385826
 21
4.825787401574802
 31
0.0
  0
LINE
  5
363E
330
1E
100
AcDbEntity
  8
7
100
AcDbLine
 10
7.081692913385826
 20
4.867125984251967
 30
0.0
 11
7.081692913385826
 21
4.825787401574802
 31
0.0
  0
LINE
  5
363F
330
1E
100
AcDbEntity
  8
7
100
AcDbLine
 10
5.882874015748031
 20
4.825787401574802
 30
0.0
 11
5.869094488188975
 21
4.144685039370078
 31
0.0
  0
LINE
  5
3640
330
1E
100
AcDbEntity
  8
7
100
AcDbLine
 10
7.130905511811023
 20
6.284448818897637
 30
0.0
 11
7.130905511811023
 21
6.32775590551181
 31
0.0
  0
LINE
  5
3641
330
1E
100
AcDbEntity
  8
7
100
AcDbLine
 10
7.306102362204723
 20
6.284448818897637
 30
0.0
 11
7.130905511811023
 21
6.284448818897637
 31
0.0
  0
LINE
  5
3648
330
1E
100
AcDbEntity
  8
7
100
AcDbLine
 10
7.117125984251967
 20
5.646653543307086
 30
0.0
 11
7.119094488188975
 21
5.67027559055118
 31
0.0
  0
LINE
  5
3649
330
1E
100
AcDbEntity
  8
7
100
AcDbLine
 10
6.046259842519685
 20
6.284448818897637
 30
0.0
 11
6.046259842519685
 21
5.713582677165354
 31
0.0
  0
LINE
  5
364F
330
1E
100
AcDbEntity
  8
7
100
AcDbLine
 10
6.235236220472439
 20
5.646653543307086
 30
0.0
 11
6.233267716535432
 21
5.67027559055118
 31
0.0
  0
LINE
  5
3650
330
1E
100
AcDbEntity
  8
7
100
AcDbLine
 10
6.113188976377952
 20
5.67027559055118
 30
0.0
 11
6.233267716535432
 21
5.67027559055118
 31
0.0
  0
LINE
  5
3651
330
1E
100
AcDbEntity
  8
7
100
AcDbLine
 10
6.113188976377952
 20
5.713582677165354
 30
0.0
 11
6.113188976377952
 21
5.67027559055118
 31
0.0
  0
LINE
  5
3652
330
1E
100
AcDbEntity
  8
7
100
AcDbLine
 10
6.046259842519685
 20
5.713582677165354
 30
0.0
 11
6.113188976377952
 21
5.713582677165354
 31
0.0
  0
LINE
  5
3653
330
1E
100
AcDbEntity
  8
7
100
AcDbLine
 10
7.09547244094488
 20
6.239173228346456
 30
0.0
 11
7.306102362204723
 21
6.239173228346456
 31
0.0
  0
LINE
  5
3654
330
1E
100
AcDbEntity
  8
7
100
AcDbLine
 10
6.459645669291337
 20
6.239173228346456
 30
0.0
 11
6.892716535433069
 21
6.239173228346456
 31
0.0
  0
LINE
  5
3655
330
1E
100
AcDbEntity
  8
7
100
AcDbLine
 10
6.256889763779526
 20
6.239173228346456
 30
0.0
 11
6.046259842519685
 21
6.239173228346456
 31
0.0
  0
LINE
  5
373D
330
1E
100
AcDbEntity
  8
7
100
AcDbLine
 10
5.321850393700787
 20
6.345472440944882
 30
0.0
 11
5.321850393700787
 21
6.310039370078739
 31
0.0
  0
LINE
  5
373E
330
1E
100
AcDbEntity
  8
7
100
AcDbLine
 10
5.077755905511811
 20
6.345472440944882
 30
0.0
 11
5.321850393700787
 21
6.345472440944882
 31
0.0
  0
LINE
  5
373F
330
1E
100
AcDbEntity
  8
7
100
AcDbLine
 10
5.077755905511811
 20
6.310039370078739
 30
0.0
 11
5.321850393700787
 21
6.310039370078739
 31
0.0
  0
LINE
  5
3740
330
1E
100
AcDbEntity
  8
7
100
AcDbLine
 10
5.585629921259842
 20
6.062007874015747
 30
0.0
 11
5.585629921259842
 21
6.093503937007873
 31
0.0
  0
LINE
  5
3741
330
1E
100
AcDbEntity
  8
7
100
AcDbLine
 10
5.457677165354331
 20
6.093503937007873
 30
0.0
 11
5.585629921259842
 21
6.093503937007873
 31
0.0
  0
LINE
  5
3747
330
1E
100
AcDbEntity
  8
7
100
AcDbLine
 10
5.325787401574803
 20
6.304133858267715
 30
0.0
 11
5.321850393700787
 21
6.310039370078739
 31
0.0
  0
LINE
  5
3748
330
1E
100
AcDbEntity
  8
7
100
AcDbLine
 10
5.325787401574803
 20
6.351377952755904
 30
0.0
 11
5.321850393700787
 21
6.345472440944882
 31
0.0
  0
LINE
  5
3749
330
1E
100
AcDbEntity
  8
7
100
AcDbLine
 10
5.451771653543307
 20
6.099409448818897
 30
0.0
 11
5.457677165354331
 21
6.093503937007873
 31
0.0
  0
LINE
  5
374A
330
1E
100
AcDbEntity
  8
7
100
AcDbLine
 10
5.451771653543307
 20
6.056102362204724
 30
0.0
 11
5.457677165354331
 21
6.062007874015747
 31
0.0
  0
LINE
  5
374B
330
1E
100
AcDbEntity
  8
7
100
AcDbLine
 10
5.585629921259842
 20
6.056102362204724
 30
0.0
 11
5.585629921259842
 21
6.062007874015747
 31
0.0
  0
LINE
  5
374C
330
1E
100
AcDbEntity
  8
7
100
AcDbLine
 10
5.585629921259842
 20
6.093503937007873
 30
0.0
 11
5.585629921259842
 21
6.099409448818897
 31
0.0
  0
LINE
  5
374D
330
1E
100
AcDbEntity
  8
7
100
AcDbLine
 10
6.894685039370078
 20
5.900590551181102
 30
0.0
 11
6.896653543307086
 21
5.906496062992125
 31
0.0
  0
LINE
  5
374E
330
1E
100
AcDbEntity
  8
7
100
AcDbLine
 10
7.091535433070865
 20
5.900590551181102
 30
0.0
 11
6.894685039370078
 21
5.900590551181102
 31
0.0
  0
LINE
  5
374F
330
1E
100
AcDbEntity
  8
7
100
AcDbLine
 10
7.091535433070865
 20
5.906496062992125
 30
0.0
 11
7.091535433070865
 21
5.900590551181102
 31
0.0
  0
LINE
  5
3750
330
1E
100
AcDbEntity
  8
7
100
AcDbLine
 10
6.896653543307086
 20
5.906496062992125
 30
0.0
 11
7.091535433070865
 21
5.906496062992125
 31
0.0
  0
LINE
  5
3751
330
1E
100
AcDbEntity
  8
7
100
AcDbLine
 10
6.896653543307086
 20
5.906496062992125
 30
0.0
 11
6.9005905511811
 21
5.910433070866141
 31
0.0
  0
LINE
  5
3757
330
1E
100
AcDbEntity
  8
7
100
AcDbLine
 10
7.087598425196849
 20
5.926181102362204
 30
0.0
 11
7.087598425196849
 21
5.910433070866141
 31
0.0
  0
LINE
  5
3758
330
1E
100
AcDbEntity
  8
7
100
AcDbLine
 10
6.9005905511811
 20
5.926181102362204
 30
0.0
 11
7.087598425196849
 21
5.926181102362204
 31
0.0
  0
LINE
  5
3764
330
1E
100
AcDbEntity
  8
7
100
AcDbLine
 10
7.087598425196849
 20
5.961614173228345
 30
0.0
 11
7.087598425196849
 21
5.945866141732282
 31
0.0
  0
LINE
  5
376A
330
1E
100
AcDbEntity
  8
7
100
AcDbLine
 10
6.886811023622047
 20
5.973425196850393
 30
0.0
 11
7.099409448818897
 21
5.973425196850393
 31
0.0
  0
LINE
  5
376B
330
1E
100
AcDbEntity
  8
7
100
AcDbLine
 10
6.9005905511811
 20
5.961614173228345
 30
0.0
 11
6.886811023622047
 21
5.973425196850393
 31
0.0
  0
LINE
  5
376C
330
1E
100
AcDbEntity
  8
7
100
AcDbLine
 10
7.099409448818897
 20
5.973425196850393
 30
0.0
 11
7.101377952755904
 21
5.95767716535433
 31
0.0
  0
LINE
  5
3772
330
1E
100
AcDbEntity
  8
7
100
AcDbLine
 10
7.101377952755904
 20
5.949803149606299
 30
0.0
 11
7.101377952755904
 21
5.95767716535433
 31
0.0
  0
LINE
  5
3773
330
1E
100
AcDbEntity
  8
7
100
AcDbLine
 10
6.884842519685038
 20
5.949803149606299
 30
0.0
 11
6.884842519685038
 21
5.947834645669291
 31
0.0
  0
LINE
  5
3774
330
1E
100
AcDbEntity
  8
7
100
AcDbLine
 10
7.101377952755904
 20
5.949803149606299
 30
0.0
 11
7.101377952755904
 21
5.947834645669291
 31
0.0
  0
LINE
  5
3775
330
1E
100
AcDbEntity
  8
7
100
AcDbLine
 10
6.884842519685038
 20
5.947834645669291
 30
0.0
 11
6.884842519685038
 21
5.945866141732282
 31
0.0
  0
LINE
  5
3776
330
1E
100
AcDbEntity
  8
7
100
AcDbLine
 10
7.101377952755904
 20
5.945866141732282
 30
0.0
 11
7.101377952755904
 21
5.947834645669291
 31
0.0
  0
LINE
  5
3777
330
1E
100
AcDbEntity
  8
7
100
AcDbLine
 10
6.886811023622047
 20
5.924212598425197
 30
0.0
 11
6.884842519685038
 21
5.945866141732282
 31
0.0
  0
LINE
  5
3778
330
1E
100
AcDbEntity
  8
7
100
AcDbLine
 10
7.099409448818897
 20
5.924212598425197
 30
0.0
 11
7.101377952755904
 21
5.945866141732282
 31
0.0
  0
LINE
  5
3779
330
1E
100
AcDbEntity
  8
7
100
AcDbLine
 10
6.886811023622047
 20
5.924212598425197
 30
0.0
 11
6.886811023622047
 21
5.908464566929134
 31
0.0
  0
LINE
  5
377A
330
1E
100
AcDbEntity
  8
7
100
AcDbLine
 10
7.099409448818897
 20
5.924212598425197
 30
0.0
 11
7.099409448818897
 21
5.908464566929134
 31
0.0
  0
LINE
  5
377B
330
1E
100
AcDbEntity
  8
7
100
AcDbLine
 10
6.886811023622047
 20
5.908464566929134
 30
0.0
 11
6.886811023622047
 21
5.888779527559054
 31
0.0
  0
LINE
  5
377C
330
1E
100
AcDbEntity
  8
7
100
AcDbLine
 10
7.099409448818897
 20
5.888779527559054
 30
0.0
 11
7.099409448818897
 21
5.908464566929134
 31
0.0
  0
LINE
  5
377D
330
1E
100
AcDbEntity
  8
7
100
AcDbLine
 10
6.869094488188975
 20
5.67027559055118
 30
0.0
 11
6.749015748031495
 21
5.67027559055118
 31
0.0
  0
LINE
  5
377E
330
1E
100
AcDbEntity
  8
7
100
AcDbLine
 10
6.886811023622047
 20
5.888779527559054
 30
0.0
 11
6.869094488188975
 21
5.67027559055118
 31
0.0
  0
LINE
  5
377F
330
1E
100
AcDbEntity
  8
7
100
AcDbLine
 10
7.099409448818897
 20
5.888779527559054
 30
0.0
 11
7.119094488188975
 21
5.67027559055118
 31
0.0
  0
LINE
  5
3780
330
1E
100
AcDbEntity
  8
7
100
AcDbLine
 10
6.749015748031495
 20
5.67027559055118
 30
0.0
 11
6.749015748031495
 21
5.713582677165354
 31
0.0
  0
LINE
  5
3781
330
1E
100
AcDbEntity
  8
7
100
AcDbLine
 10
6.869094488188975
 20
5.567913385826771
 30
0.0
 11
6.894685039370078
 21
5.900590551181102
 31
0.0
  0
LINE
  5
3782
330
1E
100
AcDbEntity
  8
7
100
AcDbLine
 10
6.869094488188975
 20
5.646653543307086
 30
0.0
 11
6.869094488188975
 21
5.67027559055118
 31
0.0
  0
LINE
  5
3783
330
1E
100
AcDbEntity
  8
7
100
AcDbLine
 10
7.117125984251967
 20
5.567913385826771
 30
0.0
 11
7.091535433070865
 21
5.900590551181102
 31
0.0
  0
LINE
  5
3784
330
1E
100
AcDbEntity
  8
7
100
AcDbLine
 10
6.749015748031495
 20
5.713582677165354
 30
0.0
 11
6.603346456692912
 21
5.713582677165354
 31
0.0
  0
LINE
  5
3785
330
1E
100
AcDbEntity
  8
7
100
AcDbLine
 10
6.603346456692912
 20
5.67027559055118
 30
0.0
 11
6.603346456692912
 21
5.713582677165354
 31
0.0
  0
LINE
  5
3786
330
1E
100
AcDbEntity
  8
7
100
AcDbLine
 10
6.483267716535432
 20
5.67027559055118
 30
0.0
 11
6.603346456692912
 21
5.67027559055118
 31
0.0
  0
LINE
  5
3787
330
1E
100
AcDbEntity
  8
7
100
AcDbLine
 10
6.483267716535432
 20
5.646653543307086
 30
0.0
 11
6.483267716535432
 21
5.67027559055118
 31
0.0
  0
LINE
  5
3788
330
1E
100
AcDbEntity
  8
7
100
AcDbLine
 10
6.45767716535433
 20
5.900590551181102
 30
0.0
 11
6.455708661417321
 21
5.906496062992125
 31
0.0
  0
LINE
  5
378F
330
1E
100
AcDbEntity
  8
7
100
AcDbLine
 10
6.455708661417321
 20
5.906496062992125
 30
0.0
 11
6.451771653543306
 21
5.910433070866141
 31
0.0
  0
LINE
  5
3790
330
1E
100
AcDbEntity
  8
7
100
AcDbLine
 10
6.264763779527558
 20
5.910433070866141
 30
0.0
 11
6.451771653543306
 21
5.910433070866141
 31
0.0
  0
LINE
  5
3791
330
1E
100
AcDbEntity
  8
7
100
AcDbLine
 10
6.260826771653543
 20
5.906496062992125
 30
0.0
 11
6.264763779527558
 21
5.910433070866141
 31
0.0
  0
LINE
  5
3792
330
1E
100
AcDbEntity
  8
7
100
AcDbLine
 10
6.264763779527558
 20
5.926181102362204
 30
0.0
 11
6.264763779527558
 21
5.910433070866141
 31
0.0
  0
LINE
  5
3798
330
1E
100
AcDbEntity
  8
7
100
AcDbLine
 10
6.451771653543306
 20
5.926181102362204
 30
0.0
 11
6.451771653543306
 21
5.945866141732282
 31
0.0
  0
LINE
  5
3799
330
1E
100
AcDbEntity
  8
7
100
AcDbLine
 10
6.264763779527558
 20
5.945866141732282
 30
0.0
 11
6.451771653543306
 21
5.945866141732282
 31
0.0
  0
LINE
  5
379A
330
1E
100
AcDbEntity
  8
7
100
AcDbLine
 10
6.264763779527558
 20
5.926181102362204
 30
0.0
 11
6.264763779527558
 21
5.945866141732282
 31
0.0
  0
LINE
  5
37A1
330
1E
100
AcDbEntity
  8
7
100
AcDbLine
 10
6.264763779527558
 20
5.961614173228345
 30
0.0
 11
6.252952755905512
 21
5.973425196850393
 31
0.0
  0
LINE
  5
37A2
330
1E
100
AcDbEntity
  8
7
100
AcDbLine
 10
6.451771653543306
 20
5.961614173228345
 30
0.0
 11
6.465551181102362
 21
5.973425196850393
 31
0.0
  0
LINE
  5
37AD
330
1E
100
AcDbEntity
  8
7
100
AcDbLine
 10
6.250984251968502
 20
5.949803149606299
 30
0.0
 11
6.250984251968502
 21
5.95767716535433
 31
0.0
  0
LINE
  5
37AE
330
1E
100
AcDbEntity
  8
7
100
AcDbLine
 10
6.467519685039369
 20
5.949803149606299
 30
0.0
 11
6.467519685039369
 21
5.947834645669291
 31
0.0
  0
LINE
  5
37AF
330
1E
100
AcDbEntity
  8
7
100
AcDbLine
 10
6.250984251968502
 20
5.949803149606299
 30
0.0
 11
6.250984251968502
 21
5.947834645669291
 31
0.0
  0
LINE
  5
37B0
330
1E
100
AcDbEntity
  8
7
100
AcDbLine
 10
6.467519685039369
 20
5.947834645669291
 30
0.0
 11
6.465551181102362
 21
5.945866141732282
 31
0.0
  0
LINE
  5
37B1
330
1E
100
AcDbEntity
  8
7
100
AcDbLine
 10
6.250984251968502
 20
5.945866141732282
 30
0.0
 11
6.250984251968502
 21
5.947834645669291
 31
0.0
  0
LINE
  5
37B2
330
1E
100
AcDbEntity
  8
7
100
AcDbLine
 10
6.465551181102362
 20
5.924212598425197
 30
0.0
 11
6.465551181102362
 21
5.945866141732282
 31
0.0
  0
LINE
  5
37B3
330
1E
100
AcDbEntity
  8
7
100
AcDbLine
 10
6.252952755905512
 20
5.924212598425197
 30
0.0
 11
6.250984251968502
 21
5.945866141732282
 31
0.0
  0
LINE
  5
37B4
330
1E
100
AcDbEntity
  8
7
100
AcDbLine
 10
6.465551181102362
 20
5.924212598425197
 30
0.0
 11
6.465551181102362
 21
5.908464566929134
 31
0.0
  0
LINE
  5
37B5
330
1E
100
AcDbEntity
  8
7
100
AcDbLine
 10
6.252952755905512
 20
5.924212598425197
 30
0.0
 11
6.252952755905512
 21
5.908464566929134
 31
0.0
  0
LINE
  5
37B6
330
1E
100
AcDbEntity
  8
7
100
AcDbLine
 10
6.465551181102362
 20
5.908464566929134
 30
0.0
 11
6.465551181102362
 21
5.888779527559054
 31
0.0
  0
LINE
  5
37B7
330
1E
100
AcDbEntity
  8
7
100
AcDbLine
 10
6.252952755905512
 20
5.888779527559054
 30
0.0
 11
6.252952755905512
 21
5.908464566929134
 31
0.0
  0
LINE
  5
37B8
330
1E
100
AcDbEntity
  8
7
100
AcDbLine
 10
6.252952755905512
 20
5.888779527559054
 30
0.0
 11
6.233267716535432
 21
5.67027559055118
 31
0.0
  0
LINE
  5
37B9
330
1E
100
AcDbEntity
  8
7
100
AcDbLine
 10
6.465551181102362
 20
5.888779527559054
 30
0.0
 11
6.483267716535432
 21
5.67027559055118
 31
0.0
  0
LINE
  5
37BA
330
1E
100
AcDbEntity
  8
7
100
AcDbLine
 10
6.483267716535432
 20
5.567913385826771
 30
0.0
 11
6.45767716535433
 21
5.900590551181102
 31
0.0
  0
LINE
  5
37BB
330
1E
100
AcDbEntity
  8
7
100
AcDbLine
 10
6.235236220472439
 20
5.567913385826771
 30
0.0
 11
6.260826771653543
 21
5.900590551181102
 31
0.0
  0
LINE
  5
37BC
330
1E
100
AcDbEntity
  8
7
100
AcDbLine
 10
8.030511811023622
 20
6.345472440944882
 30
0.0
 11
8.030511811023622
 21
6.310039370078739
 31
0.0
  0
LINE
  5
37BD
330
1E
100
AcDbEntity
  8
7
100
AcDbLine
 10
8.274606299212596
 20
6.310039370078739
 30
0.0
 11
8.030511811023622
 21
6.310039370078739
 31
0.0
  0
LINE
  5
37BE
330
1E
100
AcDbEntity
  8
7
100
AcDbLine
 10
8.274606299212596
 20
6.345472440944882
 30
0.0
 11
8.030511811023622
 21
6.345472440944882
 31
0.0
  0
LINE
  5
37BF
330
1E
100
AcDbEntity
  8
7
100
AcDbLine
 10
7.764763779527558
 20
6.062007874015747
 30
0.0
 11
7.764763779527558
 21
6.093503937007873
 31
0.0
  0
LINE
  5
37C0
330
1E
100
AcDbEntity
  8
7
100
AcDbLine
 10
7.894685039370078
 20
6.062007874015747
 30
0.0
 11
7.764763779527558
 21
6.062007874015747
 31
0.0
  0
LINE
  5
37C1
330
1E
100
AcDbEntity
  8
7
100
AcDbLine
 10
7.894685039370078
 20
6.093503937007873
 30
0.0
 11
7.894685039370078
 21
6.062007874015747
 31
0.0
  0
LINE
  5
37C2
330
1E
100
AcDbEntity
  8
7
100
AcDbLine
 10
7.894685039370078
 20
6.093503937007873
 30
0.0
 11
7.764763779527558
 21
6.093503937007873
 31
0.0
  0
LINE
  5
37C3
330
1E
100
AcDbEntity
  8
7
100
AcDbLine
 10
8.026574803149607
 20
6.351377952755904
 30
0.0
 11
8.030511811023622
 21
6.345472440944882
 31
0.0
  0
LINE
  5
37C4
330
1E
100
AcDbEntity
  8
7
100
AcDbLine
 10
8.026574803149607
 20
6.304133858267715
 30
0.0
 11
8.030511811023622
 21
6.310039370078739
 31
0.0
  0
LINE
  5
37C5
330
1E
100
AcDbEntity
  8
7
100
AcDbLine
 10
7.764763779527558
 20
6.056102362204724
 30
0.0
 11
7.764763779527558
 21
6.062007874015747
 31
0.0
  0
LINE
  5
37C6
330
1E
100
AcDbEntity
  8
7
100
AcDbLine
 10
7.764763779527558
 20
6.093503937007873
 30
0.0
 11
7.764763779527558
 21
6.099409448818897
 31
0.0
  0
LINE
  5
37C7
330
1E
100
AcDbEntity
  8
7
100
AcDbLine
 10
7.9005905511811
 20
6.056102362204724
 30
0.0
 11
7.894685039370078
 21
6.062007874015747
 31
0.0
  0
LINE
  5
37C8
330
1E
100
AcDbEntity
  8
7
100
AcDbLine
 10
7.9005905511811
 20
6.099409448818897
 30
0.0
 11
7.894685039370078
 21
6.093503937007873
 31
0.0
  0
LINE
  5
37C9
330
1E
100
AcDbEntity
  8
7
100
AcDbLine
 10
6.221456692913384
 20
6.369094488188976
 30
0.0
 11
6.270669291338582
 21
6.369094488188976
 31
0.0
  0
LINE
  5
37CA
330
1E
100
AcDbEntity
  8
7
100
AcDbLine
 10
6.221456692913384
 20
6.298228346456691
 30
0.0
 11
6.221456692913384
 21
6.369094488188976
 31
0.0
  0
LINE
  5
37CB
330
1E
100
AcDbEntity
  8
7
100
AcDbLine
 10
6.221456692913384
 20
6.298228346456691
 30
0.0
 11
6.270669291338582
 21
6.298228346456691
 31
0.0
  0
LINE
  5
37CC
330
1E
100
AcDbEntity
  8
7
100
AcDbLine
 10
6.270669291338582
 20
6.369094488188976
 30
0.0
 11
6.270669291338582
 21
6.298228346456691
 31
0.0
  0
LINE
  5
37CD
330
1E
100
AcDbEntity
  8
7
100
AcDbLine
 10
6.447834645669289
 20
6.298228346456691
 30
0.0
 11
6.447834645669289
 21
6.369094488188976
 31
0.0
  0
LINE
  5
37CE
330
1E
100
AcDbEntity
  8
7
100
AcDbLine
 10
6.445866141732282
 20
6.298228346456691
 30
0.0
 11
6.49507874015748
 21
6.298228346456691
 31
0.0
  0
LINE
  5
37CF
330
1E
100
AcDbEntity
  8
7
100
AcDbLine
 10
6.49507874015748
 20
6.369094488188976
 30
0.0
 11
6.49507874015748
 21
6.298228346456691
 31
0.0
  0
LINE
  5
37D0
330
1E
100
AcDbEntity
  8
7
100
AcDbLine
 10
6.857283464566928
 20
6.369094488188976
 30
0.0
 11
6.857283464566928
 21
6.298228346456691
 31
0.0
  0
LINE
  5
37D1
330
1E
100
AcDbEntity
  8
7
100
AcDbLine
 10
6.906496062992125
 20
6.298228346456691
 30
0.0
 11
6.857283464566928
 21
6.298228346456691
 31
0.0
  0
LINE
  5
37D2
330
1E
100
AcDbEntity
  8
7
100
AcDbLine
 10
6.904527559055117
 20
6.298228346456691
 30
0.0
 11
6.904527559055117
 21
6.369094488188976
 31
0.0
  0
LINE
  5
37D8
330
1E
100
AcDbEntity
  8
7
100
AcDbLine
 10
6.270669291338582
 20
6.32775590551181
 30
0.0
 11
6.270669291338582
 21
6.308070866141732
 31
0.0
  0
LINE
  5
37D9
330
1E
100
AcDbEntity
  8
7
100
AcDbLine
 10
7.081692913385826
 20
6.308070866141732
 30
0.0
 11
6.906496062992125
 21
6.308070866141732
 31
0.0
  0
LINE
  5
37DA
330
1E
100
AcDbEntity
  8
7
100
AcDbLine
 10
7.081692913385826
 20
6.32775590551181
 30
0.0
 11
7.081692913385826
 21
6.308070866141732
 31
0.0
  0
LINE
  5
37DB
330
1E
100
AcDbEntity
  8
7
100
AcDbLine
 10
6.906496062992125
 20
6.308070866141732
 30
0.0
 11
6.906496062992125
 21
6.32775590551181
 31
0.0
  0
LINE
  5
37DC
330
1E
100
AcDbEntity
  8
7
100
AcDbLine
 10
6.49507874015748
 20
6.32775590551181
 30
0.0
 11
6.49507874015748
 21
6.284448818897637
 31
0.0
  0
LINE
  5
37DD
330
1E
100
AcDbEntity
  8
7
100
AcDbLine
 10
6.857283464566928
 20
6.284448818897637
 30
0.0
 11
6.49507874015748
 21
6.284448818897637
 31
0.0
  0
LINE
  5
37DE
330
1E
100
AcDbEntity
  8
7
100
AcDbLine
 10
6.855314960629921
 20
6.32775590551181
 30
0.0
 11
6.857283464566928
 21
6.284448818897637
 31
0.0
  0
LINE
  5
37E4
330
1E
100
AcDbEntity
  8
7
100
AcDbLine
 10
6.445866141732282
 20
6.308070866141732
 30
0.0
 11
6.447834645669289
 21
6.308070866141732
 31
0.0
  0
LINE
  5
37E5
330
1E
100
AcDbEntity
  8
7
100
AcDbLine
 10
6.447834645669289
 20
6.308070866141732
 30
0.0
 11
6.270669291338582
 21
6.308070866141732
 31
0.0
  0
LINE
  5
37E6
330
1E
100
AcDbEntity
  8
7
100
AcDbLine
 10
7.081692913385826
 20
6.241141732283463
 30
0.0
 11
6.906496062992125
 21
6.241141732283463
 31
0.0
  0
LINE
  5
37E7
330
1E
100
AcDbEntity
  8
7
100
AcDbLine
 10
6.906496062992125
 20
6.229330708661417
 30
0.0
 11
6.906496062992125
 21
6.241141732283463
 31
0.0
  0
LINE
  5
37E8
330
1E
100
AcDbEntity
  8
7
100
AcDbLine
 10
7.081692913385826
 20
6.229330708661417
 30
0.0
 11
6.906496062992125
 21
6.229330708661417
 31
0.0
  0
LINE
  5
37E9
330
1E
100
AcDbEntity
  8
7
100
AcDbLine
 10
7.081692913385826
 20
6.229330708661417
 30
0.0
 11
7.081692913385826
 21
6.241141732283463
 31
0.0
  0
LINE
  5
37EA
330
1E
100
AcDbEntity
  8
7
100
AcDbLine
 10
6.270669291338582
 20
6.241141732283463
 30
0.0
 11
6.445866141732282
 21
6.241141732283463
 31
0.0
  0
LINE
  5
37EB
330
1E
100
AcDbEntity
  8
7
100
AcDbLine
 10
6.270669291338582
 20
6.229330708661417
 30
0.0
 11
6.270669291338582
 21
6.241141732283463
 31
0.0
  0
LINE
  5
37F1
330
1E
100
AcDbEntity
  8
7
100
AcDbLine
 10
6.221456692913384
 20
6.284448818897637
 30
0.0
 11
6.221456692913384
 21
6.298228346456691
 31
0.0
  0
LINE
  5
37F2
330
1E
100
AcDbEntity
  8
7
100
AcDbLine
 10
6.270669291338582
 20
6.298228346456691
 30
0.0
 11
6.270669291338582
 21
6.308070866141732
 31
0.0
  0
LINE
  5
37F3
330
1E
100
AcDbEntity
  8
7
100
AcDbLine
 10
6.270669291338582
 20
6.29035433070866
 30
0.0
 11
6.270669291338582
 21
6.298228346456691
 31
0.0
  0
LINE
  5
37F4
330
1E
100
AcDbEntity
  8
7
100
AcDbLine
 10
6.445866141732282
 20
6.29035433070866
 30
0.0
 11
6.270669291338582
 21
6.29035433070866
 31
0.0
  0
LINE
  5
37F5
330
1E
100
AcDbEntity
  8
7
100
AcDbLine
 10
6.445866141732282
 20
6.29035433070866
 30
0.0
 11
6.445866141732282
 21
6.298228346456691
 31
0.0
  0
LINE
  5
37F6
330
1E
100
AcDbEntity
  8
7
100
AcDbLine
 10
6.447834645669289
 20
6.308070866141732
 30
0.0
 11
6.447834645669289
 21
6.298228346456691
 31
0.0
  0
LINE
  5
37F7
330
1E
100
AcDbEntity
  8
7
100
AcDbLine
 10
6.49507874015748
 20
6.284448818897637
 30
0.0
 11
6.49507874015748
 21
6.298228346456691
 31
0.0
  0
LINE
  5
37F8
330
1E
100
AcDbEntity
  8
7
100
AcDbLine
 10
6.857283464566928
 20
6.284448818897637
 30
0.0
 11
6.857283464566928
 21
6.298228346456691
 31
0.0
  0
LINE
  5
37F9
330
1E
100
AcDbEntity
  8
7
100
AcDbLine
 10
6.904527559055117
 20
6.308070866141732
 30
0.0
 11
6.904527559055117
 21
6.298228346456691
 31
0.0
  0
LINE
  5
37FA
330
1E
100
AcDbEntity
  8
7
100
AcDbLine
 10
6.906496062992125
 20
6.29035433070866
 30
0.0
 11
6.906496062992125
 21
6.298228346456691
 31
0.0
  0
LINE
  5
3801
330
1E
100
AcDbEntity
  8
7
100
AcDbLine
 10
7.081692913385826
 20
6.369094488188976
 30
0.0
 11
7.081692913385826
 21
6.298228346456691
 31
0.0
  0
LINE
  5
3802
330
1E
100
AcDbEntity
  8
7
100
AcDbLine
 10
7.130905511811023
 20
6.298228346456691
 30
0.0
 11
7.130905511811023
 21
6.369094488188976
 31
0.0
  0
LINE
  5
3808
330
1E
100
AcDbEntity
  8
7
100
AcDbLine
 10
6.256889763779526
 20
6.239173228346456
 30
0.0
 11
6.256889763779526
 21
6.26279527559055
 31
0.0
  0
LINE
  5
3809
330
1E
100
AcDbEntity
  8
7
100
AcDbLine
 10
6.270669291338582
 20
6.26279527559055
 30
0.0
 11
6.256889763779526
 21
6.26279527559055
 31
0.0
  0
LINE
  5
380A
330
1E
100
AcDbEntity
  8
7
100
AcDbLine
 10
6.459645669291337
 20
6.26279527559055
 30
0.0
 11
6.445866141732282
 21
6.26279527559055
 31
0.0
  0
LINE
  5
380B
330
1E
100
AcDbEntity
  8
7
100
AcDbLine
 10
6.459645669291337
 20
6.26279527559055
 30
0.0
 11
6.459645669291337
 21
6.239173228346456
 31
0.0
  0
LINE
  5
3811
330
1E
100
AcDbEntity
  8
7
100
AcDbLine
 10
6.445866141732282
 20
6.241141732283463
 30
0.0
 11
6.445866141732282
 21
6.264763779527558
 31
0.0
  0
LINE
  5
3812
330
1E
100
AcDbEntity
  8
7
100
AcDbLine
 10
6.270669291338582
 20
6.264763779527558
 30
0.0
 11
6.270669291338582
 21
6.241141732283463
 31
0.0
  0
LINE
  5
3819
330
1E
100
AcDbEntity
  8
7
100
AcDbLine
 10
6.892716535433069
 20
6.26279527559055
 30
0.0
 11
6.892716535433069
 21
6.239173228346456
 31
0.0
  0
LINE
  5
381A
330
1E
100
AcDbEntity
  8
7
100
AcDbLine
 10
6.892716535433069
 20
6.26279527559055
 30
0.0
 11
6.906496062992125
 21
6.26279527559055
 31
0.0
  0
LINE
  5
381B
330
1E
100
AcDbEntity
  8
7
100
AcDbLine
 10
7.081692913385826
 20
6.26279527559055
 30
0.0
 11
7.093503937007873
 21
6.26279527559055
 31
0.0
  0
LINE
  5
381C
330
1E
100
AcDbEntity
  8
7
100
AcDbLine
 10
7.09547244094488
 20
6.239173228346456
 30
0.0
 11
7.093503937007873
 21
6.26279527559055
 31
0.0
  0
LINE
  5
3829
330
1E
100
AcDbEntity
  8
7
100
AcDbLine
 10
7.081692913385826
 20
6.264763779527558
 30
0.0
 11
6.906496062992125
 21
6.264763779527558
 31
0.0
  0
LINE
  5
382A
330
1E
100
AcDbEntity
  8
7
100
AcDbLine
 10
7.081692913385826
 20
4.867125984251967
 30
0.0
 11
7.130905511811023
 21
4.867125984251967
 31
0.0
  0
LINE
  5
382B
330
1E
100
AcDbEntity
  8
7
100
AcDbLine
 10
6.904527559055117
 20
4.867125984251967
 30
0.0
 11
6.906496062992125
 21
4.867125984251967
 31
0.0
  0
LINE
  5
382C
330
1E
100
AcDbEntity
  8
7
100
AcDbLine
 10
6.857283464566928
 20
4.867125984251967
 30
0.0
 11
6.904527559055117
 21
4.867125984251967
 31
0.0
  0
LINE
  5
382D
330
1E
100
AcDbEntity
  8
7
100
AcDbLine
 10
6.447834645669289
 20
4.867125984251967
 30
0.0
 11
6.445866141732282
 21
4.867125984251967
 31
0.0
  0
LINE
  5
382E
330
1E
100
AcDbEntity
  8
7
100
AcDbLine
 10
6.447834645669289
 20
4.867125984251967
 30
0.0
 11
6.49507874015748
 21
4.867125984251967
 31
0.0
  0
LINE
  5
382F
330
1E
100
AcDbEntity
  8
7
100
AcDbLine
 10
6.270669291338582
 20
4.739173228346456
 30
0.0
 11
6.445866141732282
 21
4.739173228346456
 31
0.0
  0
LINE
  5
3830
330
1E
100
AcDbEntity
  8
7
100
AcDbLine
 10
6.270669291338582
 20
4.727362204724408
 30
0.0
 11
6.270669291338582
 21
4.739173228346456
 31
0.0
  0
LINE
  5
3837
330
1E
100
AcDbEntity
  8
7
100
AcDbLine
 10
6.270669291338582
 20
4.76279527559055
 30
0.0
 11
6.445866141732282
 21
4.76279527559055
 31
0.0
  0
LINE
  5
3838
330
1E
100
AcDbEntity
  8
7
100
AcDbLine
 10
6.270669291338582
 20
4.76279527559055
 30
0.0
 11
6.270669291338582
 21
4.739173228346456
 31
0.0
  0
LINE
  5
3839
330
1E
100
AcDbEntity
  8
7
100
AcDbLine
 10
7.081692913385826
 20
4.739173228346456
 30
0.0
 11
6.906496062992125
 21
4.739173228346456
 31
0.0
  0
LINE
  5
383A
330
1E
100
AcDbEntity
  8
7
100
AcDbLine
 10
6.906496062992125
 20
4.727362204724408
 30
0.0
 11
6.906496062992125
 21
4.739173228346456
 31
0.0
  0
LINE
  5
383B
330
1E
100
AcDbEntity
  8
7
100
AcDbLine
 10
7.081692913385826
 20
4.727362204724408
 30
0.0
 11
6.906496062992125
 21
4.727362204724408
 31
0.0
  0
LINE
  5
383C
330
1E
100
AcDbEntity
  8
7
100
AcDbLine
 10
7.081692913385826
 20
4.727362204724408
 30
0.0
 11
7.081692913385826
 21
4.739173228346456
 31
0.0
  0
LINE
  5
383D
330
1E
100
AcDbEntity
  8
7
100
AcDbLine
 10
7.081692913385826
 20
4.76279527559055
 30
0.0
 11
7.081692913385826
 21
4.739173228346456
 31
0.0
  0
LINE
  5
383E
330
1E
100
AcDbEntity
  8
7
100
AcDbLine
 10
7.081692913385826
 20
4.76279527559055
 30
0.0
 11
6.906496062992125
 21
4.76279527559055
 31
0.0
  0
LINE
  5
383F
330
1E
100
AcDbEntity
  8
7
100
AcDbLine
 10
6.906496062992125
 20
4.739173228346456
 30
0.0
 11
6.906496062992125
 21
4.76279527559055
 31
0.0
  0
LINE
  5
3847
330
1E
100
AcDbEntity
  8
7
100
AcDbLine
 10
6.455708661417321
 20
4.404527559055117
 30
0.0
 11
6.451771653543306
 21
4.408464566929134
 31
0.0
  0
LINE
  5
3848
330
1E
100
AcDbEntity
  8
7
100
AcDbLine
 10
6.264763779527558
 20
4.408464566929134
 30
0.0
 11
6.451771653543306
 21
4.408464566929134
 31
0.0
  0
LINE
  5
3849
330
1E
100
AcDbEntity
  8
7
100
AcDbLine
 10
6.260826771653543
 20
4.404527559055117
 30
0.0
 11
6.264763779527558
 21
4.408464566929134
 31
0.0
  0
LINE
  5
384A
330
1E
100
AcDbEntity
  8
7
100
AcDbLine
 10
6.264763779527558
 20
4.422244094488188
 30
0.0
 11
6.264763779527558
 21
4.408464566929134
 31
0.0
  0
LINE
  5
3850
330
1E
100
AcDbEntity
  8
7
100
AcDbLine
 10
6.451771653543306
 20
4.422244094488188
 30
0.0
 11
6.451771653543306
 21
4.443897637795275
 31
0.0
  0
LINE
  5
3851
330
1E
100
AcDbEntity
  8
7
100
AcDbLine
 10
6.264763779527558
 20
4.443897637795275
 30
0.0
 11
6.451771653543306
 21
4.443897637795275
 31
0.0
  0
LINE
  5
3852
330
1E
100
AcDbEntity
  8
7
100
AcDbLine
 10
6.264763779527558
 20
4.422244094488188
 30
0.0
 11
6.264763779527558
 21
4.443897637795275
 31
0.0
  0
LINE
  5
3859
330
1E
100
AcDbEntity
  8
7
100
AcDbLine
 10
6.264763779527558
 20
4.459645669291337
 30
0.0
 11
6.252952755905512
 21
4.471456692913386
 31
0.0
  0
LINE
  5
3865
330
1E
100
AcDbEntity
  8
7
100
AcDbLine
 10
6.250984251968502
 20
4.447834645669291
 30
0.0
 11
6.250984251968502
 21
4.455708661417323
 31
0.0
  0
LINE
  5
3866
330
1E
100
AcDbEntity
  8
7
100
AcDbLine
 10
6.467519685039369
 20
4.447834645669291
 30
0.0
 11
6.467519685039369
 21
4.445866141732282
 31
0.0
  0
LINE
  5
3867
330
1E
100
AcDbEntity
  8
7
100
AcDbLine
 10
6.250984251968502
 20
4.447834645669291
 30
0.0
 11
6.250984251968502
 21
4.445866141732282
 31
0.0
  0
LINE
  5
3868
330
1E
100
AcDbEntity
  8
7
100
AcDbLine
 10
6.467519685039369
 20
4.445866141732282
 30
0.0
 11
6.465551181102362
 21
4.443897637795275
 31
0.0
  0
LINE
  5
3869
330
1E
100
AcDbEntity
  8
7
100
AcDbLine
 10
6.250984251968502
 20
4.443897637795275
 30
0.0
 11
6.250984251968502
 21
4.445866141732282
 31
0.0
  0
LINE
  5
386A
330
1E
100
AcDbEntity
  8
7
100
AcDbLine
 10
6.465551181102362
 20
4.422244094488188
 30
0.0
 11
6.465551181102362
 21
4.443897637795275
 31
0.0
  0
LINE
  5
386B
330
1E
100
AcDbEntity
  8
7
100
AcDbLine
 10
6.252952755905512
 20
4.422244094488188
 30
0.0
 11
6.250984251968502
 21
4.443897637795275
 31
0.0
  0
LINE
  5
386C
330
1E
100
AcDbEntity
  8
7
100
AcDbLine
 10
6.465551181102362
 20
4.422244094488188
 30
0.0
 11
6.465551181102362
 21
4.406496062992125
 31
0.0
  0
LINE
  5
386D
330
1E
100
AcDbEntity
  8
7
100
AcDbLine
 10
6.252952755905512
 20
4.422244094488188
 30
0.0
 11
6.252952755905512
 21
4.406496062992125
 31
0.0
  0
LINE
  5
386E
330
1E
100
AcDbEntity
  8
7
100
AcDbLine
 10
6.465551181102362
 20
4.406496062992125
 30
0.0
 11
6.465551181102362
 21
4.386811023622047
 31
0.0
  0
LINE
  5
386F
330
1E
100
AcDbEntity
  8
7
100
AcDbLine
 10
6.252952755905512
 20
4.386811023622047
 30
0.0
 11
6.252952755905512
 21
4.406496062992125
 31
0.0
  0
LINE
  5
3870
330
1E
100
AcDbEntity
  8
7
100
AcDbLine
 10
6.749015748031495
 20
4.168307086614173
 30
0.0
 11
6.749015748031495
 21
4.211614173228345
 31
0.0
  0
LINE
  5
3871
330
1E
100
AcDbEntity
  8
7
100
AcDbLine
 10
6.603346456692912
 20
4.168307086614173
 30
0.0
 11
6.603346456692912
 21
4.211614173228345
 31
0.0
  0
LINE
  5
3872
330
1E
100
AcDbEntity
  8
7
100
AcDbLine
 10
6.749015748031495
 20
4.211614173228345
 30
0.0
 11
6.603346456692912
 21
4.211614173228345
 31
0.0
  0
LINE
  5
3873
330
1E
100
AcDbEntity
  8
7
100
AcDbLine
 10
6.894685039370078
 20
4.398622047244093
 30
0.0
 11
6.896653543307086
 21
4.404527559055117
 31
0.0
  0
LINE
  5
3874
330
1E
100
AcDbEntity
  8
7
100
AcDbLine
 10
7.091535433070865
 20
4.398622047244093
 30
0.0
 11
6.894685039370078
 21
4.398622047244093
 31
0.0
  0
LINE
  5
3875
330
1E
100
AcDbEntity
  8
7
100
AcDbLine
 10
7.091535433070865
 20
4.404527559055117
 30
0.0
 11
7.091535433070865
 21
4.398622047244093
 31
0.0
  0
LINE
  5
3876
330
1E
100
AcDbEntity
  8
7
100
AcDbLine
 10
6.896653543307086
 20
4.404527559055117
 30
0.0
 11
7.091535433070865
 21
4.404527559055117
 31
0.0
  0
LINE
  5
3877
330
1E
100
AcDbEntity
  8
7
100
AcDbLine
 10
6.896653543307086
 20
4.404527559055117
 30
0.0
 11
6.9005905511811
 21
4.408464566929134
 31
0.0
  0
LINE
  5
387D
330
1E
100
AcDbEntity
  8
7
100
AcDbLine
 10
7.087598425196849
 20
4.422244094488188
 30
0.0
 11
7.087598425196849
 21
4.408464566929134
 31
0.0
  0
LINE
  5
387E
330
1E
100
AcDbEntity
  8
7
100
AcDbLine
 10
6.9005905511811
 20
4.422244094488188
 30
0.0
 11
7.087598425196849
 21
4.422244094488188
 31
0.0
  0
LINE
  5
388A
330
1E
100
AcDbEntity
  8
7
100
AcDbLine
 10
7.087598425196849
 20
4.459645669291337
 30
0.0
 11
7.087598425196849
 21
4.443897637795275
 31
0.0
  0
LINE
  5
3890
330
1E
100
AcDbEntity
  8
7
100
AcDbLine
 10
6.886811023622047
 20
4.471456692913386
 30
0.0
 11
7.099409448818897
 21
4.471456692913386
 31
0.0
  0
LINE
  5
3891
330
1E
100
AcDbEntity
  8
7
100
AcDbLine
 10
6.9005905511811
 20
4.459645669291337
 30
0.0
 11
6.886811023622047
 21
4.471456692913386
 31
0.0
  0
LINE
  5
3892
330
1E
100
AcDbEntity
  8
7
100
AcDbLine
 10
7.099409448818897
 20
4.471456692913386
 30
0.0
 11
7.101377952755904
 21
4.455708661417323
 31
0.0
  0
LINE
  5
3898
330
1E
100
AcDbEntity
  8
7
100
AcDbLine
 10
7.101377952755904
 20
4.447834645669291
 30
0.0
 11
7.101377952755904
 21
4.455708661417323
 31
0.0
  0
LINE
  5
3899
330
1E
100
AcDbEntity
  8
7
100
AcDbLine
 10
6.884842519685038
 20
4.447834645669291
 30
0.0
 11
6.884842519685038
 21
4.445866141732282
 31
0.0
  0
LINE
  5
389A
330
1E
100
AcDbEntity
  8
7
100
AcDbLine
 10
7.101377952755904
 20
4.447834645669291
 30
0.0
 11
7.101377952755904
 21
4.445866141732282
 31
0.0
  0
LINE
  5
389B
330
1E
100
AcDbEntity
  8
7
100
AcDbLine
 10
6.884842519685038
 20
4.445866141732282
 30
0.0
 11
6.884842519685038
 21
4.443897637795275
 31
0.0
  0
LINE
  5
389C
330
1E
100
AcDbEntity
  8
7
100
AcDbLine
 10
7.101377952755904
 20
4.443897637795275
 30
0.0
 11
7.101377952755904
 21
4.445866141732282
 31
0.0
  0
LINE
  5
389D
330
1E
100
AcDbEntity
  8
7
100
AcDbLine
 10
6.886811023622047
 20
4.422244094488188
 30
0.0
 11
6.884842519685038
 21
4.443897637795275
 31
0.0
  0
LINE
  5
389E
330
1E
100
AcDbEntity
  8
7
100
AcDbLine
 10
7.099409448818897
 20
4.422244094488188
 30
0.0
 11
7.101377952755904
 21
4.443897637795275
 31
0.0
  0
LINE
  5
389F
330
1E
100
AcDbEntity
  8
7
100
AcDbLine
 10
6.886811023622047
 20
4.422244094488188
 30
0.0
 11
6.886811023622047
 21
4.406496062992125
 31
0.0
  0
LINE
  5
38A0
330
1E
100
AcDbEntity
  8
7
100
AcDbLine
 10
7.099409448818897
 20
4.422244094488188
 30
0.0
 11
7.099409448818897
 21
4.406496062992125
 31
0.0
  0
LINE
  5
38A1
330
1E
100
AcDbEntity
  8
7
100
AcDbLine
 10
6.886811023622047
 20
4.406496062992125
 30
0.0
 11
6.886811023622047
 21
4.386811023622047
 31
0.0
  0
LINE
  5
38A2
330
1E
100
AcDbEntity
  8
7
100
AcDbLine
 10
7.099409448818897
 20
4.386811023622047
 30
0.0
 11
7.099409448818897
 21
4.406496062992125
 31
0.0
  0
LINE
  5
38B8
330
1E
100
AcDbEntity
  8
7
100
AcDbLine
 10
5.436023622047244
 20
4.613188976377952
 30
0.0
 11
5.436023622047244
 21
4.508858267716534
 31
0.0
  0
LINE
  5
38B9
330
1E
100
AcDbEntity
  8
7
100
AcDbLine
 10
5.455708661417322
 20
4.613188976377952
 30
0.0
 11
5.455708661417322
 21
4.508858267716534
 31
0.0
  0
LINE
  5
38BA
330
1E
100
AcDbEntity
  8
7
100
AcDbLine
 10
5.455708661417322
 20
4.613188976377952
 30
0.0
 11
5.56003937007874
 21
4.613188976377952
 31
0.0
  0
LINE
  5
38BB
330
1E
100
AcDbEntity
  8
7
100
AcDbLine
 10
5.56003937007874
 20
4.63287401574803
 30
0.0
 11
5.56003937007874
 21
4.613188976377952
 31
0.0
  0
LINE
  5
38BC
330
1E
100
AcDbEntity
  8
7
100
AcDbLine
 10
5.455708661417322
 20
4.63287401574803
 30
0.0
 11
5.56003937007874
 21
4.63287401574803
 31
0.0
  0
LINE
  5
38BD
330
1E
100
AcDbEntity
  8
7
100
AcDbLine
 10
5.455708661417322
 20
4.739173228346456
 30
0.0
 11
5.455708661417322
 21
4.63287401574803
 31
0.0
  0
LINE
  5
38BE
330
1E
100
AcDbEntity
  8
7
100
AcDbLine
 10
5.436023622047244
 20
4.739173228346456
 30
0.0
 11
5.436023622047244
 21
4.63287401574803
 31
0.0
  0
LINE
  5
38BF
330
1E
100
AcDbEntity
  8
7
100
AcDbLine
 10
5.331692913385827
 20
4.63287401574803
 30
0.0
 11
5.436023622047244
 21
4.63287401574803
 31
0.0
  0
LINE
  5
38C0
330
1E
100
AcDbEntity
  8
7
100
AcDbLine
 10
5.331692913385827
 20
4.613188976377952
 30
0.0
 11
5.436023622047244
 21
4.613188976377952
 31
0.0
  0
LINE
  5
38C1
330
1E
100
AcDbEntity
  8
7
100
AcDbLine
 10
5.563976377952755
 20
4.634842519685039
 30
0.0
 11
5.56003937007874
 21
4.63287401574803
 31
0.0
  0
LINE
  5
38C7
330
1E
100
AcDbEntity
  8
7
100
AcDbLine
 10
7.894685039370078
 20
4.504921259842519
 30
0.0
 11
7.896653543307086
 21
4.508858267716534
 31
0.0
  0
LINE
  5
38C8
330
1E
100
AcDbEntity
  8
7
100
AcDbLine
 10
7.916338582677163
 20
4.504921259842519
 30
0.0
 11
7.894685039370078
 21
4.504921259842519
 31
0.0
  0
LINE
  5
38C9
330
1E
100
AcDbEntity
  8
7
100
AcDbLine
 10
7.916338582677163
 20
4.508858267716534
 30
0.0
 11
7.916338582677163
 21
4.504921259842519
 31
0.0
  0
LINE
  5
38CA
330
1E
100
AcDbEntity
  8
7
100
AcDbLine
 10
7.896653543307086
 20
4.508858267716534
 30
0.0
 11
7.916338582677163
 21
4.508858267716534
 31
0.0
  0
LINE
  5
38CB
330
1E
100
AcDbEntity
  8
7
100
AcDbLine
 10
8.020669291338581
 20
4.63287401574803
 30
0.0
 11
8.024606299212596
 21
4.634842519685039
 31
0.0
  0
LINE
  5
38CC
330
1E
100
AcDbEntity
  8
7
100
AcDbLine
 10
8.020669291338581
 20
4.613188976377952
 30
0.0
 11
8.020669291338581
 21
4.63287401574803
 31
0.0
  0
LINE
  5
38CD
330
1E
100
AcDbEntity
  8
7
100
AcDbLine
 10
8.024606299212596
 20
4.613188976377952
 30
0.0
 11
8.020669291338581
 21
4.613188976377952
 31
0.0
  0
LINE
  5
38CE
330
1E
100
AcDbEntity
  8
7
100
AcDbLine
 10
8.024606299212596
 20
4.634842519685039
 30
0.0
 11
8.024606299212596
 21
4.613188976377952
 31
0.0
  0
LINE
  5
38CF
330
1E
100
AcDbEntity
  8
7
100
AcDbLine
 10
7.896653543307086
 20
4.739173228346456
 30
0.0
 11
7.894685039370078
 21
4.743110236220471
 31
0.0
  0
LINE
  5
38D0
330
1E
100
AcDbEntity
  8
7
100
AcDbLine
 10
7.916338582677163
 20
4.739173228346456
 30
0.0
 11
7.896653543307086
 21
4.739173228346456
 31
0.0
  0
LINE
  5
38D1
330
1E
100
AcDbEntity
  8
7
100
AcDbLine
 10
7.916338582677163
 20
4.743110236220471
 30
0.0
 11
7.916338582677163
 21
4.739173228346456
 31
0.0
  0
LINE
  5
38D2
330
1E
100
AcDbEntity
  8
7
100
AcDbLine
 10
7.894685039370078
 20
4.743110236220471
 30
0.0
 11
7.916338582677163
 21
4.743110236220471
 31
0.0
  0
LINE
  5
38D3
330
1E
100
AcDbEntity
  8
7
100
AcDbLine
 10
7.916338582677163
 20
4.613188976377952
 30
0.0
 11
7.916338582677163
 21
4.508858267716534
 31
0.0
  0
LINE
  5
38D4
330
1E
100
AcDbEntity
  8
7
100
AcDbLine
 10
8.020669291338581
 20
4.613188976377952
 30
0.0
 11
7.916338582677163
 21
4.613188976377952
 31
0.0
  0
LINE
  5
38D5
330
1E
100
AcDbEntity
  8
7
100
AcDbLine
 10
8.020669291338581
 20
4.63287401574803
 30
0.0
 11
7.916338582677163
 21
4.63287401574803
 31
0.0
  0
LINE
  5
38D6
330
1E
100
AcDbEntity
  8
7
100
AcDbLine
 10
7.916338582677163
 20
4.739173228346456
 30
0.0
 11
7.916338582677163
 21
4.63287401574803
 31
0.0
  0
LINE
  5
38DD
330
1E
100
AcDbEntity
  8
7
100
AcDbLine
 10
7.896653543307086
 20
4.613188976377952
 30
0.0
 11
7.79035433070866
 21
4.613188976377952
 31
0.0
  0
LINE
  5
38DE
330
1E
100
AcDbEntity
  8
7
100
AcDbLine
 10
7.896653543307086
 20
4.613188976377952
 30
0.0
 11
7.896653543307086
 21
4.508858267716534
 31
0.0
  0
LINE
  5
38DF
330
1E
100
AcDbEntity
  8
7
100
AcDbLine
 10
7.788385826771652
 20
4.634842519685039
 30
0.0
 11
7.79035433070866
 21
4.63287401574803
 31
0.0
  0
LINE
  5
38E0
330
1E
100
AcDbEntity
  8
7
100
AcDbLine
 10
7.788385826771652
 20
4.613188976377952
 30
0.0
 11
7.788385826771652
 21
4.634842519685039
 31
0.0
  0
LINE
  5
38E1
330
1E
100
AcDbEntity
  8
7
100
AcDbLine
 10
7.79035433070866
 20
4.613188976377952
 30
0.0
 11
7.788385826771652
 21
4.613188976377952
 31
0.0
  0
LINE
  5
38E2
330
1E
100
AcDbEntity
  8
7
100
AcDbLine
 10
6.046259842519685
 20
4.211614173228345
 30
0.0
 11
6.113188976377952
 21
4.211614173228345
 31
0.0
  0
LINE
  5
38EE
330
1E
100
AcDbEntity
  8
7
100
AcDbLine
 10
6.270669291338582
 20
4.788385826771652
 30
0.0
 11
6.270669291338582
 21
4.796259842519684
 31
0.0
  0
LINE
  5
38EF
330
1E
100
AcDbEntity
  8
7
100
AcDbLine
 10
6.445866141732282
 20
4.788385826771652
 30
0.0
 11
6.445866141732282
 21
4.796259842519684
 31
0.0
  0
LINE
  5
38F0
330
1E
100
AcDbEntity
  8
7
100
AcDbLine
 10
6.906496062992125
 20
4.788385826771652
 30
0.0
 11
7.081692913385826
 21
4.788385826771652
 31
0.0
  0
LINE
  5
38FB
330
1E
100
AcDbEntity
  8
7
100
AcDbLine
 10
6.906496062992125
 20
4.788385826771652
 30
0.0
 11
6.906496062992125
 21
4.796259842519684
 31
0.0
  0
LINE
  5
38FC
330
1E
100
AcDbEntity
  8
7
100
AcDbLine
 10
7.306102362204723
 20
4.211614173228345
 30
0.0
 11
7.239173228346456
 21
4.211614173228345
 31
0.0
  0
LINE
  5
38FD
330
1E
100
AcDbEntity
  8
7
100
AcDbLine
 10
7.081692913385826
 20
4.788385826771652
 30
0.0
 11
7.081692913385826
 21
4.796259842519684
 31
0.0
  0
LINE
  5
38FE
330
1E
100
AcDbEntity
  8
7
100
AcDbLine
 10
6.046259842519685
 20
4.782480314960628
 30
0.0
 11
6.046259842519685
 21
4.211614173228345
 31
0.0
  0
LINE
  5
38FF
330
1E
100
AcDbEntity
  8
7
100
AcDbLine
 10
6.256889763779526
 20
4.737204724409449
 30
0.0
 11
6.256889763779526
 21
4.760826771653543
 31
0.0
  0
LINE
  5
3900
330
1E
100
AcDbEntity
  8
7
100
AcDbLine
 10
6.459645669291337
 20
4.760826771653543
 30
0.0
 11
6.445866141732282
 21
4.760826771653543
 31
0.0
  0
LINE
  5
3901
330
1E
100
AcDbEntity
  8
7
100
AcDbLine
 10
6.270669291338582
 20
4.760826771653543
 30
0.0
 11
6.256889763779526
 21
4.760826771653543
 31
0.0
  0
LINE
  5
3902
330
1E
100
AcDbEntity
  8
7
100
AcDbLine
 10
6.459645669291337
 20
4.760826771653543
 30
0.0
 11
6.459645669291337
 21
4.737204724409449
 31
0.0
  0
LINE
  5
3903
330
1E
100
AcDbEntity
  8
7
100
AcDbLine
 10
6.892716535433069
 20
4.760826771653543
 30
0.0
 11
6.892716535433069
 21
4.737204724409449
 31
0.0
  0
LINE
  5
3904
330
1E
100
AcDbEntity
  8
7
100
AcDbLine
 10
7.081692913385826
 20
4.760826771653543
 30
0.0
 11
7.093503937007873
 21
4.760826771653543
 31
0.0
  0
LINE
  5
3905
330
1E
100
AcDbEntity
  8
7
100
AcDbLine
 10
6.892716535433069
 20
4.760826771653543
 30
0.0
 11
6.906496062992125
 21
4.760826771653543
 31
0.0
  0
LINE
  5
3906
330
1E
100
AcDbEntity
  8
7
100
AcDbLine
 10
7.09547244094488
 20
4.737204724409449
 30
0.0
 11
7.093503937007873
 21
4.760826771653543
 31
0.0
  0
LINE
  5
3907
330
1E
100
AcDbEntity
  8
7
100
AcDbLine
 10
7.239173228346456
 20
4.211614173228345
 30
0.0
 11
7.239173228346456
 21
4.168307086614173
 31
0.0
  0
LINE
  5
3908
330
1E
100
AcDbEntity
  8
7
100
AcDbLine
 10
6.869094488188975
 20
4.168307086614173
 30
0.0
 11
6.749015748031495
 21
4.168307086614173
 31
0.0
  0
LINE
  5
3909
330
1E
100
AcDbEntity
  8
7
100
AcDbLine
 10
6.886811023622047
 20
4.386811023622047
 30
0.0
 11
6.869094488188975
 21
4.168307086614173
 31
0.0
  0
LINE
  5
390A
330
1E
100
AcDbEntity
  8
7
100
AcDbLine
 10
7.099409448818897
 20
4.386811023622047
 30
0.0
 11
7.119094488188975
 21
4.168307086614173
 31
0.0
  0
LINE
  5
390B
330
1E
100
AcDbEntity
  8
7
100
AcDbLine
 10
7.239173228346456
 20
4.168307086614173
 30
0.0
 11
7.119094488188975
 21
4.168307086614173
 31
0.0
  0
LINE
  5
390C
330
1E
100
AcDbEntity
  8
7
100
AcDbLine
 10
6.483267716535432
 20
4.168307086614173
 30
0.0
 11
6.603346456692912
 21
4.168307086614173
 31
0.0
  0
LINE
  5
390D
330
1E
100
AcDbEntity
  8
7
100
AcDbLine
 10
6.113188976377952
 20
4.168307086614173
 30
0.0
 11
6.233267716535432
 21
4.168307086614173
 31
0.0
  0
LINE
  5
390E
330
1E
100
AcDbEntity
  8
7
100
AcDbLine
 10
6.252952755905512
 20
4.386811023622047
 30
0.0
 11
6.233267716535432
 21
4.168307086614173
 31
0.0
  0
LINE
  5
390F
330
1E
100
AcDbEntity
  8
7
100
AcDbLine
 10
6.465551181102362
 20
4.386811023622047
 30
0.0
 11
6.483267716535432
 21
4.168307086614173
 31
0.0
  0
LINE
  5
3910
330
1E
100
AcDbEntity
  8
7
100
AcDbLine
 10
6.113188976377952
 20
4.211614173228345
 30
0.0
 11
6.113188976377952
 21
4.168307086614173
 31
0.0
  0
LINE
  5
3911
330
1E
100
AcDbEntity
  8
7
100
AcDbLine
 10
6.235236220472439
 20
4.144685039370078
 30
0.0
 11
6.233267716535432
 21
4.168307086614173
 31
0.0
  0
LINE
  5
3912
330
1E
100
AcDbEntity
  8
7
100
AcDbLine
 10
6.235236220472439
 20
4.065944881889763
 30
0.0
 11
6.260826771653543
 21
4.398622047244093
 31
0.0
  0
LINE
  5
3913
330
1E
100
AcDbEntity
  8
7
100
AcDbLine
 10
6.483267716535432
 20
4.065944881889763
 30
0.0
 11
6.45767716535433
 21
4.398622047244093
 31
0.0
  0
LINE
  5
3914
330
1E
100
AcDbEntity
  8
7
100
AcDbLine
 10
6.483267716535432
 20
4.144685039370078
 30
0.0
 11
6.483267716535432
 21
4.168307086614173
 31
0.0
  0
LINE
  5
3915
330
1E
100
AcDbEntity
  8
7
100
AcDbLine
 10
6.869094488188975
 20
4.144685039370078
 30
0.0
 11
6.869094488188975
 21
4.168307086614173
 31
0.0
  0
LINE
  5
3916
330
1E
100
AcDbEntity
  8
7
100
AcDbLine
 10
6.869094488188975
 20
4.065944881889763
 30
0.0
 11
6.894685039370078
 21
4.398622047244093
 31
0.0
  0
LINE
  5
3917
330
1E
100
AcDbEntity
  8
7
100
AcDbLine
 10
7.117125984251967
 20
4.065944881889763
 30
0.0
 11
7.091535433070865
 21
4.398622047244093
 31
0.0
  0
LINE
  5
3918
330
1E
100
AcDbEntity
  8
7
100
AcDbLine
 10
7.117125984251967
 20
4.144685039370078
 30
0.0
 11
7.119094488188975
 21
4.168307086614173
 31
0.0
  0
LINE
  5
3919
330
1E
100
AcDbEntity
  8
7
100
AcDbLine
 10
5.565944881889764
 20
4.636811023622047
 30
0.0
 11
5.563976377952755
 21
4.634842519685039
 31
0.0
  0
LINE
  5
391A
330
1E
100
AcDbEntity
  8
7
100
AcDbLine
 10
5.455708661417322
 20
4.63287401574803
 30
0.0
 11
5.457677165354331
 21
4.636811023622047
 31
0.0
  0
LINE
  5
391B
330
1E
100
AcDbEntity
  8
7
100
AcDbLine
 10
5.457677165354331
 20
4.74507874015748
 30
0.0
 11
5.455708661417322
 21
4.743110236220471
 31
0.0
  0
LINE
  5
391C
330
1E
100
AcDbEntity
  8
7
100
AcDbLine
 10
5.434055118110237
 20
4.74507874015748
 30
0.0
 11
5.436023622047244
 21
4.743110236220471
 31
0.0
  0
LINE
  5
391D
330
1E
100
AcDbEntity
  8
7
100
AcDbLine
 10
5.434055118110237
 20
4.636811023622047
 30
0.0
 11
5.436023622047244
 21
4.63287401574803
 31
0.0
  0
LINE
  5
391E
330
1E
100
AcDbEntity
  8
7
100
AcDbLine
 10
5.325787401574803
 20
4.636811023622047
 30
0.0
 11
5.327755905511811
 21
4.634842519685039
 31
0.0
  0
LINE
  5
391F
330
1E
100
AcDbEntity
  8
7
100
AcDbLine
 10
5.325787401574803
 20
4.611220472440945
 30
0.0
 11
5.327755905511811
 21
4.613188976377952
 31
0.0
  0
LINE
  5
3920
330
1E
100
AcDbEntity
  8
7
100
AcDbLine
 10
5.436023622047244
 20
4.613188976377952
 30
0.0
 11
5.434055118110237
 21
4.611220472440945
 31
0.0
  0
LINE
  5
3921
330
1E
100
AcDbEntity
  8
7
100
AcDbLine
 10
5.434055118110237
 20
4.502952755905512
 30
0.0
 11
5.436023622047244
 21
4.504921259842519
 31
0.0
  0
LINE
  5
3922
330
1E
100
AcDbEntity
  8
7
100
AcDbLine
 10
5.457677165354331
 20
4.502952755905512
 30
0.0
 11
5.455708661417322
 21
4.504921259842519
 31
0.0
  0
LINE
  5
3923
330
1E
100
AcDbEntity
  8
7
100
AcDbLine
 10
5.457677165354331
 20
4.611220472440945
 30
0.0
 11
5.455708661417322
 21
4.613188976377952
 31
0.0
  0
LINE
  5
3924
330
1E
100
AcDbEntity
  8
7
100
AcDbLine
 10
5.565944881889764
 20
4.611220472440945
 30
0.0
 11
5.563976377952755
 21
4.613188976377952
 31
0.0
  0
LINE
  5
3925
330
1E
100
AcDbEntity
  8
7
100
AcDbLine
 10
7.894685039370078
 20
4.611220472440945
 30
0.0
 11
7.896653543307086
 21
4.613188976377952
 31
0.0
  0
LINE
  5
3926
330
1E
100
AcDbEntity
  8
7
100
AcDbLine
 10
7.786417322834645
 20
4.611220472440945
 30
0.0
 11
7.788385826771652
 21
4.613188976377952
 31
0.0
  0
LINE
  5
3927
330
1E
100
AcDbEntity
  8
7
100
AcDbLine
 10
7.894685039370078
 20
4.502952755905512
 30
0.0
 11
7.894685039370078
 21
4.504921259842519
 31
0.0
  0
LINE
  5
3928
330
1E
100
AcDbEntity
  8
7
100
AcDbLine
 10
7.918307086614173
 20
4.502952755905512
 30
0.0
 11
7.916338582677163
 21
4.504921259842519
 31
0.0
  0
LINE
  5
3929
330
1E
100
AcDbEntity
  8
7
100
AcDbLine
 10
7.916338582677163
 20
4.613188976377952
 30
0.0
 11
7.918307086614173
 21
4.611220472440945
 31
0.0
  0
LINE
  5
392A
330
1E
100
AcDbEntity
  8
7
100
AcDbLine
 10
8.026574803149607
 20
4.611220472440945
 30
0.0
 11
8.024606299212596
 21
4.613188976377952
 31
0.0
  0
LINE
  5
392B
330
1E
100
AcDbEntity
  8
7
100
AcDbLine
 10
8.026574803149607
 20
4.636811023622047
 30
0.0
 11
8.024606299212596
 21
4.634842519685039
 31
0.0
  0
LINE
  5
392C
330
1E
100
AcDbEntity
  8
7
100
AcDbLine
 10
7.918307086614173
 20
4.636811023622047
 30
0.0
 11
7.916338582677163
 21
4.63287401574803
 31
0.0
  0
LINE
  5
392D
330
1E
100
AcDbEntity
  8
7
100
AcDbLine
 10
7.918307086614173
 20
4.74507874015748
 30
0.0
 11
7.916338582677163
 21
4.743110236220471
 31
0.0
  0
LINE
  5
392E
330
1E
100
AcDbEntity
  8
7
100
AcDbLine
 10
7.894685039370078
 20
4.74507874015748
 30
0.0
 11
7.894685039370078
 21
4.743110236220471
 31
0.0
  0
LINE
  5
392F
330
1E
100
AcDbEntity
  8
7
100
AcDbLine
 10
7.896653543307086
 20
4.63287401574803
 30
0.0
 11
7.894685039370078
 21
4.636811023622047
 31
0.0
  0
LINE
  5
3930
330
1E
100
AcDbEntity
  8
7
100
AcDbLine
 10
7.786417322834645
 20
4.636811023622047
 30
0.0
 11
7.788385826771652
 21
4.634842519685039
 31
0.0
  0
LINE
  5
3931
330
1E
100
AcDbEntity
  8
7
100
AcDbLine
 10
8.258858267716533
 20
3.934055118110236
 30
0.0
 11
5.093503937007874
 21
3.934055118110236
 31
0.0
  0
LINE
  5
3932
330
1E
100
AcDbEntity
  8
7
100
AcDbLine
 10
6.221456692913384
 20
4.782480314960628
 30
0.0
 11
6.221456692913384
 21
4.796259842519684
 31
0.0
  0
LINE
  5
3933
330
1E
100
AcDbEntity
  8
7
100
AcDbLine
 10
6.046259842519685
 20
4.782480314960628
 30
0.0
 11
6.221456692913384
 21
4.782480314960628
 31
0.0
  0
LINE
  5
3934
330
1E
100
AcDbEntity
  8
7
100
AcDbLine
 10
6.256889763779526
 20
4.737204724409449
 30
0.0
 11
6.046259842519685
 21
4.737204724409449
 31
0.0
  0
LINE
  5
3935
330
1E
100
AcDbEntity
  8
7
100
AcDbLine
 10
6.221456692913384
 20
4.796259842519684
 30
0.0
 11
6.270669291338582
 21
4.796259842519684
 31
0.0
  0
LINE
  5
3936
330
1E
100
AcDbEntity
  8
7
100
AcDbLine
 10
6.221456692913384
 20
4.782480314960628
 30
0.0
 11
6.221456692913384
 21
4.825787401574802
 31
0.0
  0
LINE
  5
3937
330
1E
100
AcDbEntity
  8
7
100
AcDbLine
 10
6.270669291338582
 20
4.796259842519684
 30
0.0
 11
6.270669291338582
 21
4.806102362204724
 31
0.0
  0
LINE
  5
3938
330
1E
100
AcDbEntity
  8
7
100
AcDbLine
 10
6.447834645669289
 20
4.806102362204724
 30
0.0
 11
6.447834645669289
 21
4.796259842519684
 31
0.0
  0
LINE
  5
3939
330
1E
100
AcDbEntity
  8
7
100
AcDbLine
 10
6.447834645669289
 20
4.806102362204724
 30
0.0
 11
6.270669291338582
 21
4.806102362204724
 31
0.0
  0
LINE
  5
393A
330
1E
100
AcDbEntity
  8
7
100
AcDbLine
 10
6.445866141732282
 20
4.806102362204724
 30
0.0
 11
6.447834645669289
 21
4.806102362204724
 31
0.0
  0
LINE
  5
393B
330
1E
100
AcDbEntity
  8
7
100
AcDbLine
 10
6.270669291338582
 20
4.806102362204724
 30
0.0
 11
6.445866141732282
 21
4.806102362204724
 31
0.0
  0
LINE
  5
393C
330
1E
100
AcDbEntity
  8
7
100
AcDbLine
 10
6.445866141732282
 20
4.806102362204724
 30
0.0
 11
6.445866141732282
 21
4.825787401574802
 31
0.0
  0
LINE
  5
393D
330
1E
100
AcDbEntity
  8
7
100
AcDbLine
 10
6.270669291338582
 20
4.825787401574802
 30
0.0
 11
6.270669291338582
 21
4.806102362204724
 31
0.0
  0
LINE
  5
393E
330
1E
100
AcDbEntity
  8
7
100
AcDbLine
 10
6.49507874015748
 20
4.825787401574802
 30
0.0
 11
6.49507874015748
 21
4.782480314960628
 31
0.0
  0
LINE
  5
393F
330
1E
100
AcDbEntity
  8
7
100
AcDbLine
 10
6.857283464566928
 20
4.782480314960628
 30
0.0
 11
6.49507874015748
 21
4.782480314960628
 31
0.0
  0
LINE
  5
3940
330
1E
100
AcDbEntity
  8
7
100
AcDbLine
 10
6.855314960629921
 20
4.825787401574802
 30
0.0
 11
6.857283464566928
 21
4.782480314960628
 31
0.0
  0
LINE
  5
3941
330
1E
100
AcDbEntity
  8
7
100
AcDbLine
 10
6.49507874015748
 20
4.782480314960628
 30
0.0
 11
6.49507874015748
 21
4.796259842519684
 31
0.0
  0
LINE
  5
3942
330
1E
100
AcDbEntity
  8
7
100
AcDbLine
 10
6.445866141732282
 20
4.796259842519684
 30
0.0
 11
6.49507874015748
 21
4.796259842519684
 31
0.0
  0
LINE
  5
3943
330
1E
100
AcDbEntity
  8
7
100
AcDbLine
 10
6.459645669291337
 20
4.737204724409449
 30
0.0
 11
6.892716535433069
 21
4.737204724409449
 31
0.0
  0
LINE
  5
3944
330
1E
100
AcDbEntity
  8
7
100
AcDbLine
 10
6.906496062992125
 20
4.796259842519684
 30
0.0
 11
6.857283464566928
 21
4.796259842519684
 31
0.0
  0
LINE
  5
3945
330
1E
100
AcDbEntity
  8
7
100
AcDbLine
 10
6.857283464566928
 20
4.782480314960628
 30
0.0
 11
6.857283464566928
 21
4.796259842519684
 31
0.0
  0
LINE
  5
3946
330
1E
100
AcDbEntity
  8
7
100
AcDbLine
 10
7.081692913385826
 20
4.806102362204724
 30
0.0
 11
6.906496062992125
 21
4.806102362204724
 31
0.0
  0
LINE
  5
3947
330
1E
100
AcDbEntity
  8
7
100
AcDbLine
 10
7.081692913385826
 20
4.825787401574802
 30
0.0
 11
7.081692913385826
 21
4.806102362204724
 31
0.0
  0
LINE
  5
3948
330
1E
100
AcDbEntity
  8
7
100
AcDbLine
 10
6.906496062992125
 20
4.806102362204724
 30
0.0
 11
6.906496062992125
 21
4.825787401574802
 31
0.0
  0
LINE
  5
3949
330
1E
100
AcDbEntity
  8
7
100
AcDbLine
 10
6.904527559055117
 20
4.806102362204724
 30
0.0
 11
6.904527559055117
 21
4.796259842519684
 31
0.0
  0
LINE
  5
394A
330
1E
100
AcDbEntity
  8
7
100
AcDbLine
 10
7.081692913385826
 20
4.796259842519684
 30
0.0
 11
7.081692913385826
 21
4.806102362204724
 31
0.0
  0
LINE
  5
394B
330
1E
100
AcDbEntity
  8
7
100
AcDbLine
 10
6.904527559055117
 20
4.806102362204724
 30
0.0
 11
7.081692913385826
 21
4.806102362204724
 31
0.0
  0
LINE
  5
394C
330
1E
100
AcDbEntity
  8
7
100
AcDbLine
 10
6.906496062992125
 20
4.806102362204724
 30
0.0
 11
6.904527559055117
 21
4.806102362204724
 31
0.0
  0
LINE
  5
394D
330
1E
100
AcDbEntity
  8
7
100
AcDbLine
 10
7.130905511811023
 20
4.782480314960628
 30
0.0
 11
7.130905511811023
 21
4.825787401574802
 31
0.0
  0
LINE
  5
3954
330
1E
100
AcDbEntity
  8
7
100
AcDbLine
 10
7.09547244094488
 20
4.737204724409449
 30
0.0
 11
7.306102362204723
 21
4.737204724409449
 31
0.0
  0
LINE
  5
3955
330
1E
100
AcDbEntity
  8
7
100
AcDbLine
 10
6.904527559055117
 20
4.796259842519684
 30
0.0
 11
6.904527559055117
 21
4.867125984251967
 31
0.0
  0
LINE
  5
3956
330
1E
100
AcDbEntity
  8
7
100
AcDbLine
 10
7.081692913385826
 20
4.867125984251967
 30
0.0
 11
7.081692913385826
 21
4.796259842519684
 31
0.0
  0
LINE
  5
3957
330
1E
100
AcDbEntity
  8
7
100
AcDbLine
 10
7.130905511811023
 20
4.796259842519684
 30
0.0
 11
7.130905511811023
 21
4.867125984251967
 31
0.0
  0
LINE
  5
3958
330
1E
100
AcDbEntity
  8
7
100
AcDbLine
 10
6.857283464566928
 20
4.867125984251967
 30
0.0
 11
6.857283464566928
 21
4.796259842519684
 31
0.0
  0
LINE
  5
3959
330
1E
100
AcDbEntity
  8
7
100
AcDbLine
 10
6.49507874015748
 20
4.867125984251967
 30
0.0
 11
6.49507874015748
 21
4.796259842519684
 31
0.0
  0
LINE
  5
395A
330
1E
100
AcDbEntity
  8
7
100
AcDbLine
 10
6.447834645669289
 20
4.796259842519684
 30
0.0
 11
6.447834645669289
 21
4.867125984251967
 31
0.0
  0
LINE
  5
395B
330
1E
100
AcDbEntity
  8
7
100
AcDbLine
 10
6.270669291338582
 20
4.867125984251967
 30
0.0
 11
6.270669291338582
 21
4.796259842519684
 31
0.0
  0
LINE
  5
3964
330
1E
100
AcDbEntity
  8
7
100
AcDbLine
 10
6.221456692913384
 20
4.796259842519684
 30
0.0
 11
6.221456692913384
 21
4.867125984251967
 31
0.0
  0
LINE
  5
3965
330
1E
100
AcDbEntity
  8
7
100
AcDbLine
 10
6.221456692913384
 20
4.867125984251967
 30
0.0
 11
6.270669291338582
 21
4.867125984251967
 31
0.0
  0
LINE
  5
3966
330
1E
100
AcDbEntity
  8
7
100
AcDbLine
 10
7.306102362204723
 20
4.782480314960628
 30
0.0
 11
7.130905511811023
 21
4.782480314960628
 31
0.0
  0
LINE
  5
3967
330
1E
100
AcDbEntity
  8
7
100
AcDbLine
 10
7.130905511811023
 20
4.782480314960628
 30
0.0
 11
7.130905511811023
 21
4.796259842519684
 31
0.0
  0
LINE
  5
3968
330
1E
100
AcDbEntity
  8
7
100
AcDbLine
 10
7.130905511811023
 20
4.796259842519684
 30
0.0
 11
7.081692913385826
 21
4.796259842519684
 31
0.0
  0
LINE
  5
3969
330
1E
100
AcDbEntity
  8
7
100
AcDbLine
 10
7.081692913385826
 20
4.788385826771652
 30
0.0
 11
7.081692913385826
 21
4.774606299212597
 31
0.0
  0
LINE
  5
396A
330
1E
100
AcDbEntity
  8
7
100
AcDbLine
 10
7.081692913385826
 20
4.774606299212597
 30
0.0
 11
7.081692913385826
 21
4.76279527559055
 31
0.0
  0
LINE
  5
396B
330
1E
100
AcDbEntity
  8
7
100
AcDbLine
 10
6.906496062992125
 20
4.76279527559055
 30
0.0
 11
6.906496062992125
 21
4.774606299212597
 31
0.0
  0
LINE
  5
396C
330
1E
100
AcDbEntity
  8
7
100
AcDbLine
 10
6.906496062992125
 20
4.774606299212597
 30
0.0
 11
6.906496062992125
 21
4.788385826771652
 31
0.0
  0
LINE
  5
396D
330
1E
100
AcDbEntity
  8
7
100
AcDbLine
 10
6.445866141732282
 20
4.76279527559055
 30
0.0
 11
6.445866141732282
 21
4.774606299212597
 31
0.0
  0
LINE
  5
396E
330
1E
100
AcDbEntity
  8
7
100
AcDbLine
 10
6.445866141732282
 20
4.774606299212597
 30
0.0
 11
6.445866141732282
 21
4.788385826771652
 31
0.0
  0
LINE
  5
396F
330
1E
100
AcDbEntity
  8
7
100
AcDbLine
 10
6.445866141732282
 20
4.788385826771652
 30
0.0
 11
6.270669291338582
 21
4.788385826771652
 31
0.0
  0
LINE
  5
3970
330
1E
100
AcDbEntity
  8
7
100
AcDbLine
 10
6.270669291338582
 20
4.788385826771652
 30
0.0
 11
6.270669291338582
 21
4.774606299212597
 31
0.0
  0
LINE
  5
3971
330
1E
100
AcDbEntity
  8
7
100
AcDbLine
 10
6.270669291338582
 20
4.774606299212597
 30
0.0
 11
6.270669291338582
 21
4.76279527559055
 31
0.0
  0
LINE
  5
3972
330
1E
100
AcDbEntity
  8
7
100
AcDbLine
 10
7.896653543307086
 20
4.739173228346456
 30
0.0
 11
7.896653543307086
 21
4.63287401574803
 31
0.0
  0
LINE
  5
3973
330
1E
100
AcDbEntity
  8
7
100
AcDbLine
 10
7.896653543307086
 20
4.63287401574803
 30
0.0
 11
7.79035433070866
 21
4.63287401574803
 31
0.0
  0
LINE
  5
3974
330
1E
100
AcDbEntity
  8
7
100
AcDbLine
 10
7.79035433070866
 20
4.63287401574803
 30
0.0
 11
7.79035433070866
 21
4.613188976377952
 31
0.0
  0
LINE
  5
3975
330
1E
100
AcDbEntity
  8
7
100
AcDbLine
 10
5.56003937007874
 20
4.613188976377952
 30
0.0
 11
5.563976377952755
 21
4.613188976377952
 31
0.0
  0
LINE
  5
3976
330
1E
100
AcDbEntity
  8
7
100
AcDbLine
 10
5.563976377952755
 20
4.613188976377952
 30
0.0
 11
5.563976377952755
 21
4.634842519685039
 31
0.0
  0
LINE
  5
3977
330
1E
100
AcDbEntity
  8
7
100
AcDbLine
 10
5.455708661417322
 20
4.504921259842519
 30
0.0
 11
5.455708661417322
 21
4.508858267716534
 31
0.0
  0
LINE
  5
3978
330
1E
100
AcDbEntity
  8
7
100
AcDbLine
 10
5.455708661417322
 20
4.508858267716534
 30
0.0
 11
5.436023622047244
 21
4.508858267716534
 31
0.0
  0
LINE
  5
3979
330
1E
100
AcDbEntity
  8
7
100
AcDbLine
 10
5.436023622047244
 20
4.508858267716534
 30
0.0
 11
5.436023622047244
 21
4.504921259842519
 31
0.0
  0
LINE
  5
397A
330
1E
100
AcDbEntity
  8
7
100
AcDbLine
 10
5.436023622047244
 20
4.504921259842519
 30
0.0
 11
5.455708661417322
 21
4.504921259842519
 31
0.0
  0
LINE
  5
397B
330
1E
100
AcDbEntity
  8
7
100
AcDbLine
 10
5.331692913385827
 20
4.63287401574803
 30
0.0
 11
5.327755905511811
 21
4.634842519685039
 31
0.0
  0
LINE
  5
397C
330
1E
100
AcDbEntity
  8
7
100
AcDbLine
 10
5.327755905511811
 20
4.634842519685039
 30
0.0
 11
5.327755905511811
 21
4.613188976377952
 31
0.0
  0
LINE
  5
397D
330
1E
100
AcDbEntity
  8
7
100
AcDbLine
 10
5.327755905511811
 20
4.613188976377952
 30
0.0
 11
5.331692913385827
 21
4.613188976377952
 31
0.0
  0
LINE
  5
397E
330
1E
100
AcDbEntity
  8
7
100
AcDbLine
 10
5.331692913385827
 20
4.613188976377952
 30
0.0
 11
5.331692913385827
 21
4.63287401574803
 31
0.0
  0
LINE
  5
397F
330
1E
100
AcDbEntity
  8
7
100
AcDbLine
 10
5.455708661417322
 20
4.739173228346456
 30
0.0
 11
5.455708661417322
 21
4.743110236220471
 31
0.0
  0
LINE
  5
3980
330
1E
100
AcDbEntity
  8
7
100
AcDbLine
 10
5.455708661417322
 20
4.743110236220471
 30
0.0
 11
5.436023622047244
 21
4.743110236220471
 31
0.0
  0
LINE
  5
3981
330
1E
100
AcDbEntity
  8
7
100
AcDbLine
 10
5.436023622047244
 20
4.743110236220471
 30
0.0
 11
5.436023622047244
 21
4.739173228346456
 31
0.0
  0
LINE
  5
3982
330
1E
100
AcDbEntity
  8
7
100
AcDbLine
 10
5.436023622047244
 20
4.739173228346456
 30
0.0
 11
5.455708661417322
 21
4.739173228346456
 31
0.0
  0
LINE
  5
3983
330
1E
100
AcDbEntity
  8
7
100
AcDbLine
 10
6.886811023622047
 20
4.471456692913386
 30
0.0
 11
6.884842519685038
 21
4.455708661417323
 31
0.0
  0
LINE
  5
3984
330
1E
100
AcDbEntity
  8
7
100
AcDbLine
 10
6.884842519685038
 20
4.455708661417323
 30
0.0
 11
6.884842519685038
 21
4.447834645669291
 31
0.0
  0
LINE
  5
3985
330
1E
100
AcDbEntity
  8
7
100
AcDbLine
 10
6.9005905511811
 20
4.459645669291337
 30
0.0
 11
7.087598425196849
 21
4.459645669291337
 31
0.0
  0
LINE
  5
3986
330
1E
100
AcDbEntity
  8
7
100
AcDbLine
 10
7.087598425196849
 20
4.459645669291337
 30
0.0
 11
7.099409448818897
 21
4.471456692913386
 31
0.0
  0
LINE
  5
3987
330
1E
100
AcDbEntity
  8
7
100
AcDbLine
 10
7.087598425196849
 20
4.422244094488188
 30
0.0
 11
7.087598425196849
 21
4.443897637795275
 31
0.0
  0
LINE
  5
3988
330
1E
100
AcDbEntity
  8
7
100
AcDbLine
 10
7.087598425196849
 20
4.443897637795275
 30
0.0
 11
6.9005905511811
 21
4.443897637795275
 31
0.0
  0
LINE
  5
3989
330
1E
100
AcDbEntity
  8
7
100
AcDbLine
 10
6.9005905511811
 20
4.443897637795275
 30
0.0
 11
6.9005905511811
 21
4.459645669291337
 31
0.0
  0
LINE
  5
398A
330
1E
100
AcDbEntity
  8
7
100
AcDbLine
 10
6.9005905511811
 20
4.408464566929134
 30
0.0
 11
6.9005905511811
 21
4.422244094488188
 31
0.0
  0
LINE
  5
398B
330
1E
100
AcDbEntity
  8
7
100
AcDbLine
 10
6.9005905511811
 20
4.422244094488188
 30
0.0
 11
6.9005905511811
 21
4.443897637795275
 31
0.0
  0
LINE
  5
398C
330
1E
100
AcDbEntity
  8
7
100
AcDbLine
 10
7.091535433070865
 20
4.404527559055117
 30
0.0
 11
7.087598425196849
 21
4.408464566929134
 31
0.0
  0
LINE
  5
398D
330
1E
100
AcDbEntity
  8
7
100
AcDbLine
 10
7.087598425196849
 20
4.408464566929134
 30
0.0
 11
6.9005905511811
 21
4.408464566929134
 31
0.0
  0
LINE
  5
398E
330
1E
100
AcDbEntity
  8
7
100
AcDbLine
 10
6.465551181102362
 20
4.471456692913386
 30
0.0
 11
6.467519685039369
 21
4.455708661417323
 31
0.0
  0
LINE
  5
398F
330
1E
100
AcDbEntity
  8
7
100
AcDbLine
 10
6.467519685039369
 20
4.455708661417323
 30
0.0
 11
6.467519685039369
 21
4.447834645669291
 31
0.0
  0
LINE
  5
3990
330
1E
100
AcDbEntity
  8
7
100
AcDbLine
 10
6.451771653543306
 20
4.459645669291337
 30
0.0
 11
6.465551181102362
 21
4.471456692913386
 31
0.0
  0
LINE
  5
3991
330
1E
100
AcDbEntity
  8
7
100
AcDbLine
 10
6.465551181102362
 20
4.471456692913386
 30
0.0
 11
6.252952755905512
 21
4.471456692913386
 31
0.0
  0
LINE
  5
3992
330
1E
100
AcDbEntity
  8
7
100
AcDbLine
 10
6.252952755905512
 20
4.471456692913386
 30
0.0
 11
6.250984251968502
 21
4.455708661417323
 31
0.0
  0
LINE
  5
3993
330
1E
100
AcDbEntity
  8
7
100
AcDbLine
 10
6.451771653543306
 20
4.443897637795275
 30
0.0
 11
6.451771653543306
 21
4.459645669291337
 31
0.0
  0
LINE
  5
3994
330
1E
100
AcDbEntity
  8
7
100
AcDbLine
 10
6.451771653543306
 20
4.459645669291337
 30
0.0
 11
6.264763779527558
 21
4.459645669291337
 31
0.0
  0
LINE
  5
3995
330
1E
100
AcDbEntity
  8
7
100
AcDbLine
 10
6.264763779527558
 20
4.459645669291337
 30
0.0
 11
6.264763779527558
 21
4.443897637795275
 31
0.0
  0
LINE
  5
3996
330
1E
100
AcDbEntity
  8
7
100
AcDbLine
 10
6.451771653543306
 20
4.408464566929134
 30
0.0
 11
6.451771653543306
 21
4.422244094488188
 31
0.0
  0
LINE
  5
3997
330
1E
100
AcDbEntity
  8
7
100
AcDbLine
 10
6.451771653543306
 20
4.422244094488188
 30
0.0
 11
6.264763779527558
 21
4.422244094488188
 31
0.0
  0
LINE
  5
3998
330
1E
100
AcDbEntity
  8
7
100
AcDbLine
 10
6.45767716535433
 20
4.398622047244093
 30
0.0
 11
6.455708661417321
 21
4.404527559055117
 31
0.0
  0
LINE
  5
3999
330
1E
100
AcDbEntity
  8
7
100
AcDbLine
 10
6.455708661417321
 20
4.404527559055117
 30
0.0
 11
6.260826771653543
 21
4.404527559055117
 31
0.0
  0
LINE
  5
399A
330
1E
100
AcDbEntity
  8
7
100
AcDbLine
 10
6.260826771653543
 20
4.404527559055117
 30
0.0
 11
6.260826771653543
 21
4.398622047244093
 31
0.0
  0
LINE
  5
399B
330
1E
100
AcDbEntity
  8
7
100
AcDbLine
 10
6.260826771653543
 20
4.398622047244093
 30
0.0
 11
6.45767716535433
 21
4.398622047244093
 31
0.0
  0
LINE
  5
399C
330
1E
100
AcDbEntity
  8
7
100
AcDbLine
 10
6.270669291338582
 20
4.727362204724408
 30
0.0
 11
6.445866141732282
 21
4.727362204724408
 31
0.0
  0
LINE
  5
399D
330
1E
100
AcDbEntity
  8
7
100
AcDbLine
 10
6.445866141732282
 20
4.727362204724408
 30
0.0
 11
6.445866141732282
 21
4.739173228346456
 31
0.0
  0
LINE
  5
399E
330
1E
100
AcDbEntity
  8
7
100
AcDbLine
 10
6.445866141732282
 20
4.739173228346456
 30
0.0
 11
6.445866141732282
 21
4.76279527559055
 31
0.0
  0
LINE
  5
399F
330
1E
100
AcDbEntity
  8
7
100
AcDbLine
 10
6.906496062992125
 20
6.241141732283463
 30
0.0
 11
6.906496062992125
 21
6.264763779527558
 31
0.0
  0
LINE
  5
39A0
330
1E
100
AcDbEntity
  8
7
100
AcDbLine
 10
6.906496062992125
 20
6.264763779527558
 30
0.0
 11
6.906496062992125
 21
6.276574803149606
 31
0.0
  0
LINE
  5
39A1
330
1E
100
AcDbEntity
  8
7
100
AcDbLine
 10
6.906496062992125
 20
6.276574803149606
 30
0.0
 11
6.906496062992125
 21
6.29035433070866
 31
0.0
  0
LINE
  5
39A2
330
1E
100
AcDbEntity
  8
7
100
AcDbLine
 10
7.081692913385826
 20
6.29035433070866
 30
0.0
 11
7.081692913385826
 21
6.276574803149606
 31
0.0
  0
LINE
  5
39A3
330
1E
100
AcDbEntity
  8
7
100
AcDbLine
 10
7.081692913385826
 20
6.276574803149606
 30
0.0
 11
7.081692913385826
 21
6.264763779527558
 31
0.0
  0
LINE
  5
39A4
330
1E
100
AcDbEntity
  8
7
100
AcDbLine
 10
7.081692913385826
 20
6.264763779527558
 30
0.0
 11
7.081692913385826
 21
6.241141732283463
 31
0.0
  0
LINE
  5
39A5
330
1E
100
AcDbEntity
  8
7
100
AcDbLine
 10
6.270669291338582
 20
6.29035433070866
 30
0.0
 11
6.270669291338582
 21
6.276574803149606
 31
0.0
  0
LINE
  5
39A6
330
1E
100
AcDbEntity
  8
7
100
AcDbLine
 10
6.270669291338582
 20
6.276574803149606
 30
0.0
 11
6.270669291338582
 21
6.264763779527558
 31
0.0
  0
LINE
  5
39A7
330
1E
100
AcDbEntity
  8
7
100
AcDbLine
 10
6.270669291338582
 20
6.264763779527558
 30
0.0
 11
6.445866141732282
 21
6.264763779527558
 31
0.0
  0
LINE
  5
39A8
330
1E
100
AcDbEntity
  8
7
100
AcDbLine
 10
6.445866141732282
 20
6.264763779527558
 30
0.0
 11
6.445866141732282
 21
6.276574803149606
 31
0.0
  0
LINE
  5
39A9
330
1E
100
AcDbEntity
  8
7
100
AcDbLine
 10
6.445866141732282
 20
6.276574803149606
 30
0.0
 11
6.445866141732282
 21
6.29035433070866
 31
0.0
  0
LINE
  5
39AA
330
1E
100
AcDbEntity
  8
7
100
AcDbLine
 10
7.130905511811023
 20
6.284448818897637
 30
0.0
 11
7.130905511811023
 21
6.298228346456691
 31
0.0
  0
LINE
  5
39AB
330
1E
100
AcDbEntity
  8
7
100
AcDbLine
 10
7.130905511811023
 20
6.298228346456691
 30
0.0
 11
7.081692913385826
 21
6.298228346456691
 31
0.0
  0
LINE
  5
39AC
330
1E
100
AcDbEntity
  8
7
100
AcDbLine
 10
6.906496062992125
 20
6.29035433070866
 30
0.0
 11
7.081692913385826
 21
6.29035433070866
 31
0.0
  0
LINE
  5
39AD
330
1E
100
AcDbEntity
  8
7
100
AcDbLine
 10
7.081692913385826
 20
6.29035433070866
 30
0.0
 11
7.081692913385826
 21
6.298228346456691
 31
0.0
  0
LINE
  5
39AE
330
1E
100
AcDbEntity
  8
7
100
AcDbLine
 10
7.081692913385826
 20
6.298228346456691
 30
0.0
 11
7.081692913385826
 21
6.308070866141732
 31
0.0
  0
LINE
  5
39AF
330
1E
100
AcDbEntity
  8
7
100
AcDbLine
 10
6.270669291338582
 20
6.229330708661417
 30
0.0
 11
6.445866141732282
 21
6.229330708661417
 31
0.0
  0
LINE
  5
39B0
330
1E
100
AcDbEntity
  8
7
100
AcDbLine
 10
6.445866141732282
 20
6.229330708661417
 30
0.0
 11
6.445866141732282
 21
6.241141732283463
 31
0.0
  0
LINE
  5
39B1
330
1E
100
AcDbEntity
  8
7
100
AcDbLine
 10
6.906496062992125
 20
6.308070866141732
 30
0.0
 11
6.904527559055117
 21
6.308070866141732
 31
0.0
  0
LINE
  5
39B2
330
1E
100
AcDbEntity
  8
7
100
AcDbLine
 10
6.904527559055117
 20
6.308070866141732
 30
0.0
 11
7.081692913385826
 21
6.308070866141732
 31
0.0
  0
LINE
  5
39B3
330
1E
100
AcDbEntity
  8
7
100
AcDbLine
 10
6.270669291338582
 20
6.308070866141732
 30
0.0
 11
6.445866141732282
 21
6.308070866141732
 31
0.0
  0
LINE
  5
39B4
330
1E
100
AcDbEntity
  8
7
100
AcDbLine
 10
6.445866141732282
 20
6.308070866141732
 30
0.0
 11
6.445866141732282
 21
6.32775590551181
 31
0.0
  0
LINE
  5
39B5
330
1E
100
AcDbEntity
  8
7
100
AcDbLine
 10
6.465551181102362
 20
5.973425196850393
 30
0.0
 11
6.467519685039369
 21
5.95767716535433
 31
0.0
  0
LINE
  5
39B6
330
1E
100
AcDbEntity
  8
7
100
AcDbLine
 10
6.467519685039369
 20
5.95767716535433
 30
0.0
 11
6.467519685039369
 21
5.949803149606299
 31
0.0
  0
LINE
  5
39B7
330
1E
100
AcDbEntity
  8
7
100
AcDbLine
 10
6.465551181102362
 20
5.973425196850393
 30
0.0
 11
6.252952755905512
 21
5.973425196850393
 31
0.0
  0
LINE
  5
39B8
330
1E
100
AcDbEntity
  8
7
100
AcDbLine
 10
6.252952755905512
 20
5.973425196850393
 30
0.0
 11
6.250984251968502
 21
5.95767716535433
 31
0.0
  0
LINE
  5
39B9
330
1E
100
AcDbEntity
  8
7
100
AcDbLine
 10
6.451771653543306
 20
5.945866141732282
 30
0.0
 11
6.451771653543306
 21
5.961614173228345
 31
0.0
  0
LINE
  5
39BA
330
1E
100
AcDbEntity
  8
7
100
AcDbLine
 10
6.451771653543306
 20
5.961614173228345
 30
0.0
 11
6.264763779527558
 21
5.961614173228345
 31
0.0
  0
LINE
  5
39BB
330
1E
100
AcDbEntity
  8
7
100
AcDbLine
 10
6.264763779527558
 20
5.961614173228345
 30
0.0
 11
6.264763779527558
 21
5.945866141732282
 31
0.0
  0
LINE
  5
39BC
330
1E
100
AcDbEntity
  8
7
100
AcDbLine
 10
6.451771653543306
 20
5.910433070866141
 30
0.0
 11
6.451771653543306
 21
5.926181102362204
 31
0.0
  0
LINE
  5
39BD
330
1E
100
AcDbEntity
  8
7
100
AcDbLine
 10
6.451771653543306
 20
5.926181102362204
 30
0.0
 11
6.264763779527558
 21
5.926181102362204
 31
0.0
  0
LINE
  5
39BE
330
1E
100
AcDbEntity
  8
7
100
AcDbLine
 10
6.455708661417321
 20
5.906496062992125
 30
0.0
 11
6.260826771653543
 21
5.906496062992125
 31
0.0
  0
LINE
  5
39BF
330
1E
100
AcDbEntity
  8
7
100
AcDbLine
 10
6.260826771653543
 20
5.906496062992125
 30
0.0
 11
6.260826771653543
 21
5.900590551181102
 31
0.0
  0
LINE
  5
39C0
330
1E
100
AcDbEntity
  8
7
100
AcDbLine
 10
6.260826771653543
 20
5.900590551181102
 30
0.0
 11
6.45767716535433
 21
5.900590551181102
 31
0.0
  0
LINE
  5
39C1
330
1E
100
AcDbEntity
  8
7
100
AcDbLine
 10
6.886811023622047
 20
5.973425196850393
 30
0.0
 11
6.884842519685038
 21
5.95767716535433
 31
0.0
  0
LINE
  5
39C2
330
1E
100
AcDbEntity
  8
7
100
AcDbLine
 10
6.884842519685038
 20
5.95767716535433
 30
0.0
 11
6.884842519685038
 21
5.949803149606299
 31
0.0
  0
LINE
  5
39C3
330
1E
100
AcDbEntity
  8
7
100
AcDbLine
 10
6.9005905511811
 20
5.961614173228345
 30
0.0
 11
7.087598425196849
 21
5.961614173228345
 31
0.0
  0
LINE
  5
39C4
330
1E
100
AcDbEntity
  8
7
100
AcDbLine
 10
7.087598425196849
 20
5.961614173228345
 30
0.0
 11
7.099409448818897
 21
5.973425196850393
 31
0.0
  0
LINE
  5
39C5
330
1E
100
AcDbEntity
  8
7
100
AcDbLine
 10
7.087598425196849
 20
5.926181102362204
 30
0.0
 11
7.087598425196849
 21
5.945866141732282
 31
0.0
  0
LINE
  5
39C6
330
1E
100
AcDbEntity
  8
7
100
AcDbLine
 10
7.087598425196849
 20
5.945866141732282
 30
0.0
 11
6.9005905511811
 21
5.945866141732282
 31
0.0
  0
LINE
  5
39C7
330
1E
100
AcDbEntity
  8
7
100
AcDbLine
 10
6.9005905511811
 20
5.945866141732282
 30
0.0
 11
6.9005905511811
 21
5.961614173228345
 31
0.0
  0
LINE
  5
39C8
330
1E
100
AcDbEntity
  8
7
100
AcDbLine
 10
6.9005905511811
 20
5.910433070866141
 30
0.0
 11
6.9005905511811
 21
5.926181102362204
 31
0.0
  0
LINE
  5
39C9
330
1E
100
AcDbEntity
  8
7
100
AcDbLine
 10
6.9005905511811
 20
5.926181102362204
 30
0.0
 11
6.9005905511811
 21
5.945866141732282
 31
0.0
  0
LINE
  5
39CA
330
1E
100
AcDbEntity
  8
7
100
AcDbLine
 10
7.091535433070865
 20
5.906496062992125
 30
0.0
 11
7.087598425196849
 21
5.910433070866141
 31
0.0
  0
LINE
  5
39CB
330
1E
100
AcDbEntity
  8
7
100
AcDbLine
 10
7.087598425196849
 20
5.910433070866141
 30
0.0
 11
6.9005905511811
 21
5.910433070866141
 31
0.0
  0
LINE
  5
39CC
330
1E
100
AcDbEntity
  8
7
100
AcDbLine
 10
5.457677165354331
 20
6.093503937007873
 30
0.0
 11
5.457677165354331
 21
6.062007874015747
 31
0.0
  0
LINE
  5
39CD
330
1E
100
AcDbEntity
  8
7
100
AcDbLine
 10
5.457677165354331
 20
6.062007874015747
 30
0.0
 11
5.585629921259842
 21
6.062007874015747
 31
0.0
  0
LINE
  5
39CE
330
1E
100
AcDbEntity
  8
7
100
AcDbLine
 10
5.532480314960629
 20
5.581692913385826
 30
0.0
 11
5.497047244094488
 21
5.595472440944882
 31
0.0
  0
LINE
  5
39CF
330
1E
100
AcDbEntity
  8
7
100
AcDbLine
 10
5.497047244094488
 20
5.595472440944882
 30
0.0
 11
5.459645669291338
 21
5.589566929133858
 31
0.0
  0
LINE
  5
39D0
330
1E
100
AcDbEntity
  8
7
100
AcDbLine
 10
5.459645669291338
 20
5.589566929133858
 30
0.0
 11
5.428149606299212
 21
5.569881889763778
 31
0.0
  0
LINE
  5
39D1
330
1E
100
AcDbEntity
  8
7
100
AcDbLine
 10
5.428149606299212
 20
5.569881889763778
 30
0.0
 11
5.410433070866142
 21
5.536417322834645
 31
0.0
  0
LINE
  5
39D2
330
1E
100
AcDbEntity
  8
7
100
AcDbLine
 10
5.410433070866142
 20
5.536417322834645
 30
0.0
 11
5.410433070866142
 21
5.497047244094487
 31
0.0
  0
LINE
  5
39D3
330
1E
100
AcDbEntity
  8
7
100
AcDbLine
 10
5.410433070866142
 20
5.497047244094487
 30
0.0
 11
5.428149606299212
 21
5.463582677165354
 31
0.0
  0
LINE
  5
39D4
330
1E
100
AcDbEntity
  8
7
100
AcDbLine
 10
5.428149606299212
 20
5.463582677165354
 30
0.0
 11
5.459645669291338
 21
5.443897637795275
 31
0.0
  0
LINE
  5
39D5
330
1E
100
AcDbEntity
  8
7
100
AcDbLine
 10
5.459645669291338
 20
5.443897637795275
 30
0.0
 11
5.497047244094488
 21
5.43799212598425
 31
0.0
  0
LINE
  5
39D6
330
1E
100
AcDbEntity
  8
7
100
AcDbLine
 10
5.497047244094488
 20
5.43799212598425
 30
0.0
 11
5.532480314960629
 21
5.451771653543306
 31
0.0
  0
LINE
  5
39D7
330
1E
100
AcDbEntity
  8
7
100
AcDbLine
 10
5.532480314960629
 20
5.451771653543306
 30
0.0
 11
5.556102362204724
 21
5.479330708661417
 31
0.0
  0
LINE
  5
39D8
330
1E
100
AcDbEntity
  8
7
100
AcDbLine
 10
5.556102362204724
 20
5.479330708661417
 30
0.0
 11
5.565944881889764
 21
5.516732283464565
 31
0.0
  0
LINE
  5
39D9
330
1E
100
AcDbEntity
  8
7
100
AcDbLine
 10
5.565944881889764
 20
5.516732283464565
 30
0.0
 11
5.556102362204724
 21
5.554133858267715
 31
0.0
  0
LINE
  5
39DA
330
1E
100
AcDbEntity
  8
7
100
AcDbLine
 10
5.556102362204724
 20
5.554133858267715
 30
0.0
 11
5.532480314960629
 21
5.581692913385826
 31
0.0
  0
LINE
  5
39DB
330
1E
100
AcDbEntity
  8
7
100
AcDbLine
 10
5.644685039370079
 20
5.542322834645669
 30
0.0
 11
5.626968503937007
 21
5.593503937007873
 31
0.0
  0
LINE
  5
39DC
330
1E
100
AcDbEntity
  8
7
100
AcDbLine
 10
5.626968503937007
 20
5.593503937007873
 30
0.0
 11
5.595472440944881
 21
5.634842519685039
 31
0.0
  0
LINE
  5
39DD
330
1E
100
AcDbEntity
  8
7
100
AcDbLine
 10
5.595472440944881
 20
5.634842519685039
 30
0.0
 11
5.552165354330709
 21
5.662401574803149
 31
0.0
  0
LINE
  5
39DE
330
1E
100
AcDbEntity
  8
7
100
AcDbLine
 10
5.552165354330709
 20
5.662401574803149
 30
0.0
 11
5.500984251968503
 21
5.676181102362204
 31
0.0
  0
LINE
  5
39DF
330
1E
100
AcDbEntity
  8
7
100
AcDbLine
 10
5.500984251968503
 20
5.676181102362204
 30
0.0
 11
5.44783464566929
 21
5.672244094488188
 31
0.0
  0
LINE
  5
39E0
330
1E
100
AcDbEntity
  8
7
100
AcDbLine
 10
5.44783464566929
 20
5.672244094488188
 30
0.0
 11
5.400590551181101
 21
5.650590551181102
 31
0.0
  0
LINE
  5
39E1
330
1E
100
AcDbEntity
  8
7
100
AcDbLine
 10
5.400590551181101
 20
5.650590551181102
 30
0.0
 11
5.361220472440944
 21
5.61515748031496
 31
0.0
  0
LINE
  5
39E2
330
1E
100
AcDbEntity
  8
7
100
AcDbLine
 10
5.361220472440944
 20
5.61515748031496
 30
0.0
 11
5.335629921259842
 21
5.567913385826771
 31
0.0
  0
LINE
  5
39E3
330
1E
100
AcDbEntity
  8
7
100
AcDbLine
 10
5.335629921259842
 20
5.567913385826771
 30
0.0
 11
5.327755905511811
 21
5.516732283464565
 31
0.0
  0
LINE
  5
39E4
330
1E
100
AcDbEntity
  8
7
100
AcDbLine
 10
5.327755905511811
 20
5.516732283464565
 30
0.0
 11
5.335629921259842
 21
5.465551181102362
 31
0.0
  0
LINE
  5
39E5
330
1E
100
AcDbEntity
  8
7
100
AcDbLine
 10
5.335629921259842
 20
5.465551181102362
 30
0.0
 11
5.361220472440944
 21
5.418307086614173
 31
0.0
  0
LINE
  5
39E6
330
1E
100
AcDbEntity
  8
7
100
AcDbLine
 10
5.361220472440944
 20
5.418307086614173
 30
0.0
 11
5.400590551181101
 21
5.38287401574803
 31
0.0
  0
LINE
  5
39E7
330
1E
100
AcDbEntity
  8
7
100
AcDbLine
 10
5.400590551181101
 20
5.38287401574803
 30
0.0
 11
5.44783464566929
 21
5.361220472440945
 31
0.0
  0
LINE
  5
39E8
330
1E
100
AcDbEntity
  8
7
100
AcDbLine
 10
5.44783464566929
 20
5.361220472440945
 30
0.0
 11
5.500984251968503
 21
5.357283464566928
 31
0.0
  0
LINE
  5
39E9
330
1E
100
AcDbEntity
  8
7
100
AcDbLine
 10
5.500984251968503
 20
5.357283464566928
 30
0.0
 11
5.552165354330709
 21
5.371062992125984
 31
0.0
  0
LINE
  5
39EA
330
1E
100
AcDbEntity
  8
7
100
AcDbLine
 10
5.552165354330709
 20
5.371062992125984
 30
0.0
 11
5.595472440944881
 21
5.398622047244093
 31
0.0
  0
LINE
  5
39EB
330
1E
100
AcDbEntity
  8
7
100
AcDbLine
 10
5.595472440944881
 20
5.398622047244093
 30
0.0
 11
5.626968503937007
 21
5.43996062992126
 31
0.0
  0
LINE
  5
39EC
330
1E
100
AcDbEntity
  8
7
100
AcDbLine
 10
5.626968503937007
 20
5.43996062992126
 30
0.0
 11
5.644685039370079
 21
5.491141732283463
 31
0.0
  0
LINE
  5
39ED
330
1E
100
AcDbEntity
  8
7
100
AcDbLine
 10
5.644685039370079
 20
5.491141732283463
 30
0.0
 11
5.644685039370079
 21
5.542322834645669
 31
0.0
  0
LINE
  5
39EE
330
1E
100
AcDbEntity
  8
7
100
AcDbLine
 10
5.605314960629922
 20
5.369094488188976
 30
0.0
 11
5.64271653543307
 21
5.410433070866141
 31
0.0
  0
LINE
  5
39EF
330
1E
100
AcDbEntity
  8
7
100
AcDbLine
 10
5.64271653543307
 20
5.410433070866141
 30
0.0
 11
5.668307086614174
 21
5.461614173228345
 31
0.0
  0
LINE
  5
39F0
330
1E
100
AcDbEntity
  8
7
100
AcDbLine
 10
5.668307086614174
 20
5.461614173228345
 30
0.0
 11
5.676181102362205
 21
5.516732283464565
 31
0.0
  0
LINE
  5
39F1
330
1E
100
AcDbEntity
  8
7
100
AcDbLine
 10
5.556102362204724
 20
5.691929133858267
 30
0.0
 11
5.500984251968503
 21
5.705708661417323
 31
0.0
  0
LINE
  5
39F2
330
1E
100
AcDbEntity
  8
7
100
AcDbLine
 10
5.500984251968503
 20
5.705708661417323
 30
0.0
 11
5.445866141732283
 21
5.701771653543306
 31
0.0
  0
LINE
  5
39F3
330
1E
100
AcDbEntity
  8
7
100
AcDbLine
 10
5.445866141732283
 20
5.701771653543306
 30
0.0
 11
5.39271653543307
 21
5.680118110236219
 31
0.0
  0
LINE
  5
39F4
330
1E
100
AcDbEntity
  8
7
100
AcDbLine
 10
5.39271653543307
 20
5.680118110236219
 30
0.0
 11
5.349409448818898
 21
5.644685039370078
 31
0.0
  0
LINE
  5
39F5
330
1E
100
AcDbEntity
  8
7
100
AcDbLine
 10
5.349409448818898
 20
5.644685039370078
 30
0.0
 11
5.317913385826772
 21
5.599409448818897
 31
0.0
  0
LINE
  5
39F6
330
1E
100
AcDbEntity
  8
7
100
AcDbLine
 10
5.317913385826772
 20
5.599409448818897
 30
0.0
 11
5.300196850393701
 21
5.544291338582676
 31
0.0
  0
LINE
  5
39F7
330
1E
100
AcDbEntity
  8
7
100
AcDbLine
 10
5.300196850393701
 20
5.544291338582676
 30
0.0
 11
5.300196850393701
 21
5.489173228346456
 31
0.0
  0
LINE
  5
39F8
330
1E
100
AcDbEntity
  8
7
100
AcDbLine
 10
5.300196850393701
 20
5.489173228346456
 30
0.0
 11
5.317913385826772
 21
5.434055118110236
 31
0.0
  0
LINE
  5
39F9
330
1E
100
AcDbEntity
  8
7
100
AcDbLine
 10
5.317913385826772
 20
5.434055118110236
 30
0.0
 11
5.349409448818898
 21
5.388779527559054
 31
0.0
  0
LINE
  5
39FA
330
1E
100
AcDbEntity
  8
7
100
AcDbLine
 10
5.349409448818898
 20
5.388779527559054
 30
0.0
 11
5.39271653543307
 21
5.353346456692913
 31
0.0
  0
LINE
  5
39FB
330
1E
100
AcDbEntity
  8
7
100
AcDbLine
 10
5.39271653543307
 20
5.353346456692913
 30
0.0
 11
5.445866141732283
 21
5.331692913385826
 31
0.0
  0
LINE
  5
39FC
330
1E
100
AcDbEntity
  8
7
100
AcDbLine
 10
5.445866141732283
 20
5.331692913385826
 30
0.0
 11
5.500984251968503
 21
5.32775590551181
 31
0.0
  0
LINE
  5
39FD
330
1E
100
AcDbEntity
  8
7
100
AcDbLine
 10
5.500984251968503
 20
5.32775590551181
 30
0.0
 11
5.556102362204724
 21
5.341535433070865
 31
0.0
  0
LINE
  5
39FE
330
1E
100
AcDbEntity
  8
7
100
AcDbLine
 10
5.556102362204724
 20
5.341535433070865
 30
0.0
 11
5.605314960629922
 21
5.369094488188976
 31
0.0
  0
LINE
  5
39FF
330
1E
100
AcDbEntity
  8
7
100
AcDbLine
 10
5.676181102362205
 20
5.516732283464565
 30
0.0
 11
5.668307086614174
 21
5.571850393700787
 31
0.0
  0
LINE
  5
3A00
330
1E
100
AcDbEntity
  8
7
100
AcDbLine
 10
5.668307086614174
 20
5.571850393700787
 30
0.0
 11
5.64271653543307
 21
5.623031496062991
 31
0.0
  0
LINE
  5
3A01
330
1E
100
AcDbEntity
  8
7
100
AcDbLine
 10
5.64271653543307
 20
5.623031496062991
 30
0.0
 11
5.605314960629922
 21
5.664370078740156
 31
0.0
  0
LINE
  5
3A02
330
1E
100
AcDbEntity
  8
7
100
AcDbLine
 10
5.605314960629922
 20
5.664370078740156
 30
0.0
 11
5.556102362204724
 21
5.691929133858267
 31
0.0
  0
LINE
  5
3A03
330
1E
100
AcDbEntity
  8
7
100
AcDbLine
 10
5.583661417322835
 20
5.684055118110236
 30
0.0
 11
5.530511811023622
 21
5.705708661417323
 31
0.0
  0
LINE
  5
3A04
330
1E
100
AcDbEntity
  8
7
100
AcDbLine
 10
5.530511811023622
 20
5.705708661417323
 30
0.0
 11
5.473425196850394
 21
5.709645669291337
 31
0.0
  0
LINE
  5
3A05
330
1E
100
AcDbEntity
  8
7
100
AcDbLine
 10
5.473425196850394
 20
5.709645669291337
 30
0.0
 11
5.416338582677164
 21
5.695866141732282
 31
0.0
  0
LINE
  5
3A06
330
1E
100
AcDbEntity
  8
7
100
AcDbLine
 10
5.416338582677164
 20
5.695866141732282
 30
0.0
 11
5.367125984251968
 21
5.668307086614173
 31
0.0
  0
LINE
  5
3A07
330
1E
100
AcDbEntity
  8
7
100
AcDbLine
 10
5.367125984251968
 20
5.668307086614173
 30
0.0
 11
5.327755905511811
 21
5.624999999999999
 31
0.0
  0
LINE
  5
3A08
330
1E
100
AcDbEntity
  8
7
100
AcDbLine
 10
5.327755905511811
 20
5.624999999999999
 30
0.0
 11
5.302165354330709
 21
5.573818897637795
 31
0.0
  0
LINE
  5
3A09
330
1E
100
AcDbEntity
  8
7
100
AcDbLine
 10
5.302165354330709
 20
5.573818897637795
 30
0.0
 11
5.294291338582677
 21
5.516732283464565
 31
0.0
  0
LINE
  5
3A0A
330
1E
100
AcDbEntity
  8
7
100
AcDbLine
 10
5.294291338582677
 20
5.516732283464565
 30
0.0
 11
5.302165354330709
 21
5.459645669291337
 31
0.0
  0
LINE
  5
3A0B
330
1E
100
AcDbEntity
  8
7
100
AcDbLine
 10
5.302165354330709
 20
5.459645669291337
 30
0.0
 11
5.327755905511811
 21
5.408464566929134
 31
0.0
  0
LINE
  5
3A0C
330
1E
100
AcDbEntity
  8
7
100
AcDbLine
 10
5.327755905511811
 20
5.408464566929134
 30
0.0
 11
5.367125984251968
 21
5.36515748031496
 31
0.0
  0
LINE
  5
3A0D
330
1E
100
AcDbEntity
  8
7
100
AcDbLine
 10
5.367125984251968
 20
5.36515748031496
 30
0.0
 11
5.416338582677164
 21
5.33759842519685
 31
0.0
  0
LINE
  5
3A0E
330
1E
100
AcDbEntity
  8
7
100
AcDbLine
 10
5.416338582677164
 20
5.33759842519685
 30
0.0
 11
5.473425196850394
 21
5.323818897637795
 31
0.0
  0
LINE
  5
3A0F
330
1E
100
AcDbEntity
  8
7
100
AcDbLine
 10
5.473425196850394
 20
5.323818897637795
 30
0.0
 11
5.530511811023622
 21
5.32775590551181
 31
0.0
  0
LINE
  5
3A10
330
1E
100
AcDbEntity
  8
7
100
AcDbLine
 10
5.530511811023622
 20
5.32775590551181
 30
0.0
 11
5.583661417322835
 21
5.349409448818897
 31
0.0
  0
LINE
  5
3A11
330
1E
100
AcDbEntity
  8
7
100
AcDbLine
 10
5.583661417322835
 20
5.349409448818897
 30
0.0
 11
5.628937007874016
 21
5.384842519685039
 31
0.0
  0
LINE
  5
3A12
330
1E
100
AcDbEntity
  8
7
100
AcDbLine
 10
5.628937007874016
 20
5.384842519685039
 30
0.0
 11
5.660433070866142
 21
5.432086614173228
 31
0.0
  0
LINE
  5
3A13
330
1E
100
AcDbEntity
  8
7
100
AcDbLine
 10
5.660433070866142
 20
5.432086614173228
 30
0.0
 11
5.678149606299212
 21
5.487204724409449
 31
0.0
  0
LINE
  5
3A14
330
1E
100
AcDbEntity
  8
7
100
AcDbLine
 10
5.678149606299212
 20
5.487204724409449
 30
0.0
 11
5.678149606299212
 21
5.546259842519684
 31
0.0
  0
LINE
  5
3A15
330
1E
100
AcDbEntity
  8
7
100
AcDbLine
 10
5.678149606299212
 20
5.546259842519684
 30
0.0
 11
5.660433070866142
 21
5.601377952755904
 31
0.0
  0
LINE
  5
3A16
330
1E
100
AcDbEntity
  8
7
100
AcDbLine
 10
5.660433070866142
 20
5.601377952755904
 30
0.0
 11
5.628937007874016
 21
5.648622047244093
 31
0.0
  0
LINE
  5
3A17
330
1E
100
AcDbEntity
  8
7
100
AcDbLine
 10
5.628937007874016
 20
5.648622047244093
 30
0.0
 11
5.583661417322835
 21
5.684055118110236
 31
0.0
  0
LINE
  5
3A18
330
1E
100
AcDbEntity
  8
7
100
AcDbLine
 10
5.172244094488188
 20
6.304133858267715
 30
0.0
 11
5.134842519685038
 21
6.304133858267715
 31
0.0
  0
LINE
  5
3A19
330
1E
100
AcDbEntity
  8
7
100
AcDbLine
 10
5.134842519685038
 20
6.304133858267715
 30
0.0
 11
5.105314960629922
 21
6.304133858267715
 31
0.0
  0
LINE
  5
3A1A
330
1E
100
AcDbEntity
  8
7
100
AcDbLine
 10
5.105314960629922
 20
6.304133858267715
 30
0.0
 11
5.093503937007874
 21
6.306102362204724
 31
0.0
  0
LINE
  5
3A1B
330
1E
100
AcDbEntity
  8
7
100
AcDbLine
 10
5.093503937007874
 20
3.934055118110236
 30
0.0
 11
5.101377952755905
 21
3.941929133858267
 31
0.0
  0
LINE
  5
3A1C
330
1E
100
AcDbEntity
  8
7
100
AcDbLine
 10
5.101377952755905
 20
3.941929133858267
 30
0.0
 11
5.119094488188975
 21
3.95767716535433
 31
0.0
  0
LINE
  5
3A1D
330
1E
100
AcDbEntity
  8
7
100
AcDbLine
 10
5.119094488188975
 20
3.95767716535433
 30
0.0
 11
5.14271653543307
 21
3.983267716535432
 31
0.0
  0
LINE
  5
3A1E
330
1E
100
AcDbEntity
  8
7
100
AcDbLine
 10
5.14271653543307
 20
3.983267716535432
 30
0.0
 11
5.172244094488188
 21
4.010826771653543
 31
0.0
  0
LINE
  5
3A1F
330
1E
100
AcDbEntity
  8
7
100
AcDbLine
 10
7.817913385826771
 20
5.581692913385826
 30
0.0
 11
7.794291338582676
 21
5.554133858267715
 31
0.0
  0
LINE
  5
3A20
330
1E
100
AcDbEntity
  8
7
100
AcDbLine
 10
7.794291338582676
 20
5.554133858267715
 30
0.0
 11
7.784448818897637
 21
5.516732283464565
 31
0.0
  0
LINE
  5
3A21
330
1E
100
AcDbEntity
  8
7
100
AcDbLine
 10
7.784448818897637
 20
5.516732283464565
 30
0.0
 11
7.794291338582676
 21
5.479330708661417
 31
0.0
  0
LINE
  5
3A22
330
1E
100
AcDbEntity
  8
7
100
AcDbLine
 10
7.794291338582676
 20
5.479330708661417
 30
0.0
 11
7.817913385826771
 21
5.451771653543306
 31
0.0
  0
LINE
  5
3A23
330
1E
100
AcDbEntity
  8
7
100
AcDbLine
 10
7.817913385826771
 20
5.451771653543306
 30
0.0
 11
7.853346456692912
 21
5.43799212598425
 31
0.0
  0
LINE
  5
3A24
330
1E
100
AcDbEntity
  8
7
100
AcDbLine
 10
7.853346456692912
 20
5.43799212598425
 30
0.0
 11
7.890748031496062
 21
5.443897637795275
 31
0.0
  0
LINE
  5
3A25
330
1E
100
AcDbEntity
  8
7
100
AcDbLine
 10
7.890748031496062
 20
5.443897637795275
 30
0.0
 11
7.922244094488188
 21
5.463582677165354
 31
0.0
  0
LINE
  5
3A26
330
1E
100
AcDbEntity
  8
7
100
AcDbLine
 10
7.922244094488188
 20
5.463582677165354
 30
0.0
 11
7.939960629921258
 21
5.497047244094487
 31
0.0
  0
LINE
  5
3A27
330
1E
100
AcDbEntity
  8
7
100
AcDbLine
 10
7.939960629921258
 20
5.497047244094487
 30
0.0
 11
7.939960629921258
 21
5.536417322834645
 31
0.0
  0
LINE
  5
3A28
330
1E
100
AcDbEntity
  8
7
100
AcDbLine
 10
7.939960629921258
 20
5.536417322834645
 30
0.0
 11
7.922244094488188
 21
5.569881889763778
 31
0.0
  0
LINE
  5
3A29
330
1E
100
AcDbEntity
  8
7
100
AcDbLine
 10
7.922244094488188
 20
5.569881889763778
 30
0.0
 11
7.890748031496062
 21
5.589566929133858
 31
0.0
  0
LINE
  5
3A2A
330
1E
100
AcDbEntity
  8
7
100
AcDbLine
 10
7.890748031496062
 20
5.589566929133858
 30
0.0
 11
7.853346456692912
 21
5.595472440944882
 31
0.0
  0
LINE
  5
3A2B
330
1E
100
AcDbEntity
  8
7
100
AcDbLine
 10
7.853346456692912
 20
5.595472440944882
 30
0.0
 11
7.817913385826771
 21
5.581692913385826
 31
0.0
  0
LINE
  5
3A2C
330
1E
100
AcDbEntity
  8
7
100
AcDbLine
 10
7.989173228346456
 20
5.418307086614173
 30
0.0
 11
8.014763779527559
 21
5.465551181102362
 31
0.0
  0
LINE
  5
3A2D
330
1E
100
AcDbEntity
  8
7
100
AcDbLine
 10
8.014763779527559
 20
5.465551181102362
 30
0.0
 11
8.022637795275588
 21
5.516732283464565
 31
0.0
  0
LINE
  5
3A2E
330
1E
100
AcDbEntity
  8
7
100
AcDbLine
 10
7.949803149606299
 20
5.650590551181102
 30
0.0
 11
7.90255905511811
 21
5.672244094488188
 31
0.0
  0
LINE
  5
3A2F
330
1E
100
AcDbEntity
  8
7
100
AcDbLine
 10
7.90255905511811
 20
5.672244094488188
 30
0.0
 11
7.849409448818897
 21
5.676181102362204
 31
0.0
  0
LINE
  5
3A30
330
1E
100
AcDbEntity
  8
7
100
AcDbLine
 10
7.849409448818897
 20
5.676181102362204
 30
0.0
 11
7.798228346456691
 21
5.662401574803149
 31
0.0
  0
LINE
  5
3A31
330
1E
100
AcDbEntity
  8
7
100
AcDbLine
 10
7.798228346456691
 20
5.662401574803149
 30
0.0
 11
7.754921259842519
 21
5.634842519685039
 31
0.0
  0
LINE
  5
3A32
330
1E
100
AcDbEntity
  8
7
100
AcDbLine
 10
7.754921259842519
 20
5.634842519685039
 30
0.0
 11
7.723425196850393
 21
5.593503937007873
 31
0.0
  0
LINE
  5
3A33
330
1E
100
AcDbEntity
  8
7
100
AcDbLine
 10
7.723425196850393
 20
5.593503937007873
 30
0.0
 11
7.705708661417321
 21
5.542322834645669
 31
0.0
  0
LINE
  5
3A34
330
1E
100
AcDbEntity
  8
7
100
AcDbLine
 10
7.705708661417321
 20
5.542322834645669
 30
0.0
 11
7.705708661417321
 21
5.491141732283463
 31
0.0
  0
LINE
  5
3A35
330
1E
100
AcDbEntity
  8
7
100
AcDbLine
 10
7.705708661417321
 20
5.491141732283463
 30
0.0
 11
7.723425196850393
 21
5.43996062992126
 31
0.0
  0
LINE
  5
3A36
330
1E
100
AcDbEntity
  8
7
100
AcDbLine
 10
7.723425196850393
 20
5.43996062992126
 30
0.0
 11
7.754921259842519
 21
5.398622047244093
 31
0.0
  0
LINE
  5
3A37
330
1E
100
AcDbEntity
  8
7
100
AcDbLine
 10
7.754921259842519
 20
5.398622047244093
 30
0.0
 11
7.798228346456691
 21
5.371062992125984
 31
0.0
  0
LINE
  5
3A38
330
1E
100
AcDbEntity
  8
7
100
AcDbLine
 10
7.798228346456691
 20
5.371062992125984
 30
0.0
 11
7.849409448818897
 21
5.357283464566928
 31
0.0
  0
LINE
  5
3A39
330
1E
100
AcDbEntity
  8
7
100
AcDbLine
 10
7.849409448818897
 20
5.357283464566928
 30
0.0
 11
7.90255905511811
 21
5.361220472440945
 31
0.0
  0
LINE
  5
3A3A
330
1E
100
AcDbEntity
  8
7
100
AcDbLine
 10
7.90255905511811
 20
5.361220472440945
 30
0.0
 11
7.949803149606299
 21
5.38287401574803
 31
0.0
  0
LINE
  5
3A3B
330
1E
100
AcDbEntity
  8
7
100
AcDbLine
 10
7.949803149606299
 20
5.38287401574803
 30
0.0
 11
7.989173228346456
 21
5.418307086614173
 31
0.0
  0
LINE
  5
3A3C
330
1E
100
AcDbEntity
  8
7
100
AcDbLine
 10
8.022637795275588
 20
5.516732283464565
 30
0.0
 11
8.014763779527559
 21
5.567913385826771
 31
0.0
  0
LINE
  5
3A3D
330
1E
100
AcDbEntity
  8
7
100
AcDbLine
 10
8.014763779527559
 20
5.567913385826771
 30
0.0
 11
7.989173228346456
 21
5.61515748031496
 31
0.0
  0
LINE
  5
3A3E
330
1E
100
AcDbEntity
  8
7
100
AcDbLine
 10
7.989173228346456
 20
5.61515748031496
 30
0.0
 11
7.949803149606299
 21
5.650590551181102
 31
0.0
  0
LINE
  5
3A3F
330
1E
100
AcDbEntity
  8
7
100
AcDbLine
 10
8.000984251968503
 20
5.644685039370078
 30
0.0
 11
7.95767716535433
 21
5.680118110236219
 31
0.0
  0
LINE
  5
3A40
330
1E
100
AcDbEntity
  8
7
100
AcDbLine
 10
7.95767716535433
 20
5.680118110236219
 30
0.0
 11
7.904527559055117
 21
5.701771653543306
 31
0.0
  0
LINE
  5
3A41
330
1E
100
AcDbEntity
  8
7
100
AcDbLine
 10
7.904527559055117
 20
5.701771653543306
 30
0.0
 11
7.849409448818897
 21
5.705708661417323
 31
0.0
  0
LINE
  5
3A42
330
1E
100
AcDbEntity
  8
7
100
AcDbLine
 10
7.849409448818897
 20
5.705708661417323
 30
0.0
 11
7.794291338582676
 21
5.691929133858267
 31
0.0
  0
LINE
  5
3A43
330
1E
100
AcDbEntity
  8
7
100
AcDbLine
 10
7.794291338582676
 20
5.691929133858267
 30
0.0
 11
7.745078740157478
 21
5.664370078740156
 31
0.0
  0
LINE
  5
3A44
330
1E
100
AcDbEntity
  8
7
100
AcDbLine
 10
7.745078740157478
 20
5.664370078740156
 30
0.0
 11
7.70767716535433
 21
5.623031496062991
 31
0.0
  0
LINE
  5
3A45
330
1E
100
AcDbEntity
  8
7
100
AcDbLine
 10
7.70767716535433
 20
5.623031496062991
 30
0.0
 11
7.682086614173226
 21
5.571850393700787
 31
0.0
  0
LINE
  5
3A46
330
1E
100
AcDbEntity
  8
7
100
AcDbLine
 10
7.682086614173226
 20
5.571850393700787
 30
0.0
 11
7.674212598425195
 21
5.516732283464565
 31
0.0
  0
LINE
  5
3A47
330
1E
100
AcDbEntity
  8
7
100
AcDbLine
 10
7.674212598425195
 20
5.516732283464565
 30
0.0
 11
7.682086614173226
 21
5.461614173228345
 31
0.0
  0
LINE
  5
3A48
330
1E
100
AcDbEntity
  8
7
100
AcDbLine
 10
7.682086614173226
 20
5.461614173228345
 30
0.0
 11
7.70767716535433
 21
5.410433070866141
 31
0.0
  0
LINE
  5
3A49
330
1E
100
AcDbEntity
  8
7
100
AcDbLine
 10
7.70767716535433
 20
5.410433070866141
 30
0.0
 11
7.745078740157478
 21
5.369094488188976
 31
0.0
  0
LINE
  5
3A4A
330
1E
100
AcDbEntity
  8
7
100
AcDbLine
 10
7.745078740157478
 20
5.369094488188976
 30
0.0
 11
7.794291338582676
 21
5.341535433070865
 31
0.0
  0
LINE
  5
3A4B
330
1E
100
AcDbEntity
  8
7
100
AcDbLine
 10
7.794291338582676
 20
5.341535433070865
 30
0.0
 11
7.849409448818897
 21
5.32775590551181
 31
0.0
  0
LINE
  5
3A4C
330
1E
100
AcDbEntity
  8
7
100
AcDbLine
 10
7.849409448818897
 20
5.32775590551181
 30
0.0
 11
7.904527559055117
 21
5.331692913385826
 31
0.0
  0
LINE
  5
3A4D
330
1E
100
AcDbEntity
  8
7
100
AcDbLine
 10
7.904527559055117
 20
5.331692913385826
 30
0.0
 11
7.95767716535433
 21
5.353346456692913
 31
0.0
  0
LINE
  5
3A4E
330
1E
100
AcDbEntity
  8
7
100
AcDbLine
 10
7.95767716535433
 20
5.353346456692913
 30
0.0
 11
8.000984251968503
 21
5.388779527559054
 31
0.0
  0
LINE
  5
3A4F
330
1E
100
AcDbEntity
  8
7
100
AcDbLine
 10
8.000984251968503
 20
5.388779527559054
 30
0.0
 11
8.032480314960629
 21
5.434055118110236
 31
0.0
  0
LINE
  5
3A50
330
1E
100
AcDbEntity
  8
7
100
AcDbLine
 10
8.032480314960629
 20
5.434055118110236
 30
0.0
 11
8.0501968503937
 21
5.489173228346456
 31
0.0
  0
LINE
  5
3A51
330
1E
100
AcDbEntity
  8
7
100
AcDbLine
 10
8.0501968503937
 20
5.489173228346456
 30
0.0
 11
8.0501968503937
 21
5.544291338582676
 31
0.0
  0
LINE
  5
3A52
330
1E
100
AcDbEntity
  8
7
100
AcDbLine
 10
8.0501968503937
 20
5.544291338582676
 30
0.0
 11
8.032480314960629
 21
5.599409448818897
 31
0.0
  0
LINE
  5
3A53
330
1E
100
AcDbEntity
  8
7
100
AcDbLine
 10
8.032480314960629
 20
5.599409448818897
 30
0.0
 11
8.000984251968503
 21
5.644685039370078
 31
0.0
  0
LINE
  5
3A54
330
1E
100
AcDbEntity
  8
7
100
AcDbLine
 10
8.180118110236218
 20
6.304133858267715
 30
0.0
 11
8.21751968503937
 21
6.304133858267715
 31
0.0
  0
LINE
  5
3A55
330
1E
100
AcDbEntity
  8
7
100
AcDbLine
 10
8.21751968503937
 20
6.304133858267715
 30
0.0
 11
8.247047244094488
 21
6.304133858267715
 31
0.0
  0
LINE
  5
3A56
330
1E
100
AcDbEntity
  8
7
100
AcDbLine
 10
8.247047244094488
 20
6.304133858267715
 30
0.0
 11
8.258858267716533
 21
6.306102362204724
 31
0.0
  0
LINE
  5
3A57
330
1E
100
AcDbEntity
  8
7
100
AcDbLine
 10
8.258858267716533
 20
3.934055118110236
 30
0.0
 11
8.250984251968503
 21
3.941929133858267
 31
0.0
  0
LINE
  5
3A58
330
1E
100
AcDbEntity
  8
7
100
AcDbLine
 10
8.250984251968503
 20
3.941929133858267
 30
0.0
 11
8.233267716535433
 21
3.95767716535433
 31
0.0
  0
LINE
  5
3A59
330
1E
100
AcDbEntity
  8
7
100
AcDbLine
 10
8.233267716535433
 20
3.95767716535433
 30
0.0
 11
8.209645669291337
 21
3.983267716535432
 31
0.0
  0
LINE
  5
3A5A
330
1E
100
AcDbEntity
  8
7
100
AcDbLine
 10
8.209645669291337
 20
3.983267716535432
 30
0.0
 11
8.180118110236218
 21
4.010826771653543
 31
0.0
  0
LINE
  5
3A5B
330
1E
100
AcDbEntity
  8
7
100
AcDbLine
 10
7.983267716535432
 20
5.36515748031496
 30
0.0
 11
8.022637795275588
 21
5.408464566929134
 31
0.0
  0
LINE
  5
3A5C
330
1E
100
AcDbEntity
  8
7
100
AcDbLine
 10
8.022637795275588
 20
5.408464566929134
 30
0.0
 11
8.048228346456692
 21
5.459645669291337
 31
0.0
  0
LINE
  5
3A5D
330
1E
100
AcDbEntity
  8
7
100
AcDbLine
 10
8.048228346456692
 20
5.459645669291337
 30
0.0
 11
8.056102362204722
 21
5.516732283464565
 31
0.0
  0
LINE
  5
3A5E
330
1E
100
AcDbEntity
  8
7
100
AcDbLine
 10
7.934055118110236
 20
5.695866141732282
 30
0.0
 11
7.876968503937006
 21
5.709645669291337
 31
0.0
  0
LINE
  5
3A5F
330
1E
100
AcDbEntity
  8
7
100
AcDbLine
 10
7.876968503937006
 20
5.709645669291337
 30
0.0
 11
7.819881889763778
 21
5.705708661417323
 31
0.0
  0
LINE
  5
3A60
330
1E
100
AcDbEntity
  8
7
100
AcDbLine
 10
7.819881889763778
 20
5.705708661417323
 30
0.0
 11
7.766732283464565
 21
5.684055118110236
 31
0.0
  0
LINE
  5
3A61
330
1E
100
AcDbEntity
  8
7
100
AcDbLine
 10
7.766732283464565
 20
5.684055118110236
 30
0.0
 11
7.721456692913384
 21
5.648622047244093
 31
0.0
  0
LINE
  5
3A62
330
1E
100
AcDbEntity
  8
7
100
AcDbLine
 10
7.721456692913384
 20
5.648622047244093
 30
0.0
 11
7.689960629921258
 21
5.601377952755904
 31
0.0
  0
LINE
  5
3A63
330
1E
100
AcDbEntity
  8
7
100
AcDbLine
 10
7.689960629921258
 20
5.601377952755904
 30
0.0
 11
7.672244094488188
 21
5.546259842519684
 31
0.0
  0
LINE
  5
3A64
330
1E
100
AcDbEntity
  8
7
100
AcDbLine
 10
7.672244094488188
 20
5.546259842519684
 30
0.0
 11
7.672244094488188
 21
5.487204724409449
 31
0.0
  0
LINE
  5
3A65
330
1E
100
AcDbEntity
  8
7
100
AcDbLine
 10
7.672244094488188
 20
5.487204724409449
 30
0.0
 11
7.689960629921258
 21
5.432086614173228
 31
0.0
  0
LINE
  5
3A66
330
1E
100
AcDbEntity
  8
7
100
AcDbLine
 10
7.689960629921258
 20
5.432086614173228
 30
0.0
 11
7.721456692913384
 21
5.384842519685039
 31
0.0
  0
LINE
  5
3A67
330
1E
100
AcDbEntity
  8
7
100
AcDbLine
 10
7.721456692913384
 20
5.384842519685039
 30
0.0
 11
7.766732283464565
 21
5.349409448818897
 31
0.0
  0
LINE
  5
3A68
330
1E
100
AcDbEntity
  8
7
100
AcDbLine
 10
7.766732283464565
 20
5.349409448818897
 30
0.0
 11
7.819881889763778
 21
5.32775590551181
 31
0.0
  0
LINE
  5
3A69
330
1E
100
AcDbEntity
  8
7
100
AcDbLine
 10
7.819881889763778
 20
5.32775590551181
 30
0.0
 11
7.876968503937006
 21
5.323818897637795
 31
0.0
  0
LINE
  5
3A6A
330
1E
100
AcDbEntity
  8
7
100
AcDbLine
 10
7.876968503937006
 20
5.323818897637795
 30
0.0
 11
7.934055118110236
 21
5.33759842519685
 31
0.0
  0
LINE
  5
3A6B
330
1E
100
AcDbEntity
  8
7
100
AcDbLine
 10
7.934055118110236
 20
5.33759842519685
 30
0.0
 11
7.983267716535432
 21
5.36515748031496
 31
0.0
  0
LINE
  5
3A6C
330
1E
100
AcDbEntity
  8
7
100
AcDbLine
 10
8.056102362204722
 20
5.516732283464565
 30
0.0
 11
8.048228346456692
 21
5.573818897637795
 31
0.0
  0
LINE
  5
3A6D
330
1E
100
AcDbEntity
  8
7
100
AcDbLine
 10
8.048228346456692
 20
5.573818897637795
 30
0.0
 11
8.022637795275588
 21
5.624999999999999
 31
0.0
  0
LINE
  5
3A6E
330
1E
100
AcDbEntity
  8
7
100
AcDbLine
 10
8.022637795275588
 20
5.624999999999999
 30
0.0
 11
7.983267716535432
 21
5.668307086614173
 31
0.0
  0
LINE
  5
3A6F
330
1E
100
AcDbEntity
  8
7
100
AcDbLine
 10
7.983267716535432
 20
5.668307086614173
 30
0.0
 11
7.934055118110236
 21
5.695866141732282
 31
0.0
  0
LINE
  5
3A70
330
1E
100
AcDbEntity
  8
7
100
AcDbLine
 10
6.046259842519685
 20
6.284448818897637
 30
0.0
 11
6.221456692913384
 21
6.284448818897637
 31
0.0
  0
LINE
  5
3A71
330
1E
100
AcDbEntity
  8
7
100
AcDbLine
 10
6.221456692913384
 20
6.284448818897637
 30
0.0
 11
6.221456692913384
 21
6.32775590551181
 31
0.0
  0
LINE
  5
3A72
330
1E
100
AcDbEntity
  8
7
100
AcDbLine
 10
7.306102362204723
 20
5.713582677165354
 30
0.0
 11
7.239173228346456
 21
5.713582677165354
 31
0.0
  0
LINE
  5
3A73
330
1E
100
AcDbEntity
  8
7
100
AcDbLine
 10
7.239173228346456
 20
5.713582677165354
 30
0.0
 11
7.239173228346456
 21
5.67027559055118
 31
0.0
  0
LINE
  5
3A74
330
1E
100
AcDbEntity
  8
7
100
AcDbLine
 10
7.239173228346456
 20
5.67027559055118
 30
0.0
 11
7.119094488188975
 21
5.67027559055118
 31
0.0
  0
LINE
  5
3A75
330
1E
100
AcDbEntity
  8
7
100
AcDbLine
 10
6.49507874015748
 20
4.867125984251967
 30
0.0
 11
6.49507874015748
 21
4.825787401574802
 31
0.0
  0
LINE
  5
3A76
330
1E
100
AcDbEntity
  8
7
100
AcDbLine
 10
6.49507874015748
 20
4.825787401574802
 30
0.0
 11
6.855314960629921
 21
4.825787401574802
 31
0.0
  0
LINE
  5
3A77
330
1E
100
AcDbEntity
  8
7
100
AcDbLine
 10
5.869094488188975
 20
5.386811023622047
 30
0.0
 11
5.882874015748031
 21
4.825787401574802
 31
0.0
  0
LINE
  5
3A78
330
1E
100
AcDbEntity
  8
7
100
AcDbLine
 10
5.882874015748031
 20
4.825787401574802
 30
0.0
 11
6.221456692913384
 21
4.825787401574802
 31
0.0
  0
LINE
  5
3A79
330
1E
100
AcDbEntity
  8
7
100
AcDbLine
 10
6.221456692913384
 20
4.825787401574802
 30
0.0
 11
6.221456692913384
 21
4.867125984251967
 31
0.0
  0
LINE
  5
3A7A
330
1E
100
AcDbEntity
  8
7
100
AcDbLine
 10
7.483267716535432
 20
5.386811023622047
 30
0.0
 11
7.469488188976376
 21
4.825787401574802
 31
0.0
  0
LINE
  5
3A7B
330
1E
100
AcDbEntity
  8
7
100
AcDbLine
 10
7.469488188976376
 20
4.825787401574802
 30
0.0
 11
7.483267716535432
 21
4.144685039370078
 31
0.0
  0
LINE
  5
3A7C
330
1E
100
AcDbEntity
  8
7
100
AcDbLine
 10
6.49507874015748
 20
6.369094488188976
 30
0.0
 11
6.49507874015748
 21
6.32775590551181
 31
0.0
  0
LINE
  5
3A7D
330
1E
100
AcDbEntity
  8
7
100
AcDbLine
 10
6.49507874015748
 20
6.32775590551181
 30
0.0
 11
6.855314960629921
 21
6.32775590551181
 31
0.0
  0
LINE
  5
3A7E
330
1E
100
AcDbEntity
  8
7
100
AcDbLine
 10
5.882874015748031
 20
6.32775590551181
 30
0.0
 11
6.221456692913384
 21
6.32775590551181
 31
0.0
  0
LINE
  5
3A7F
330
1E
100
AcDbEntity
  8
7
100
AcDbLine
 10
6.221456692913384
 20
6.32775590551181
 30
0.0
 11
6.221456692913384
 21
6.369094488188976
 31
0.0
  0
LINE
  5
3A80
330
1E
100
AcDbEntity
  8
7
100
AcDbLine
 10
5.434055118110237
 20
4.74507874015748
 30
0.0
 11
5.457677165354331
 21
4.74507874015748
 31
0.0
  0
LINE
  5
3A81
330
1E
100
AcDbEntity
  8
7
100
AcDbLine
 10
5.457677165354331
 20
4.74507874015748
 30
0.0
 11
5.457677165354331
 21
4.636811023622047
 31
0.0
  0
LINE
  5
3A82
330
1E
100
AcDbEntity
  8
7
100
AcDbLine
 10
5.457677165354331
 20
4.636811023622047
 30
0.0
 11
5.565944881889764
 21
4.636811023622047
 31
0.0
  0
LINE
  5
3A83
330
1E
100
AcDbEntity
  8
7
100
AcDbLine
 10
5.325787401574803
 20
4.611220472440945
 30
0.0
 11
5.325787401574803
 21
4.636811023622047
 31
0.0
  0
LINE
  5
3A84
330
1E
100
AcDbEntity
  8
7
100
AcDbLine
 10
5.325787401574803
 20
4.636811023622047
 30
0.0
 11
5.434055118110237
 21
4.636811023622047
 31
0.0
  0
LINE
  5
3A85
330
1E
100
AcDbEntity
  8
7
100
AcDbLine
 10
8.026574803149607
 20
4.611220472440945
 30
0.0
 11
7.918307086614173
 21
4.611220472440945
 31
0.0
  0
LINE
  5
3A86
330
1E
100
AcDbEntity
  8
7
100
AcDbLine
 10
7.918307086614173
 20
4.611220472440945
 30
0.0
 11
7.918307086614173
 21
4.502952755905512
 31
0.0
  0
LINE
  5
3A87
330
1E
100
AcDbEntity
  8
7
100
AcDbLine
 10
7.918307086614173
 20
4.502952755905512
 30
0.0
 11
7.894685039370078
 21
4.502952755905512
 31
0.0
  0
LINE
  5
3A88
330
1E
100
AcDbEntity
  8
7
100
AcDbLine
 10
7.723425196850393
 20
5.355314960629921
 30
0.0
 11
7.774606299212597
 21
5.323818897637795
 31
0.0
  0
LINE
  5
3A89
330
1E
100
AcDbEntity
  8
7
100
AcDbLine
 10
7.774606299212597
 20
5.323818897637795
 30
0.0
 11
7.833661417322834
 21
5.306102362204724
 31
0.0
  0
LINE
  5
3A8A
330
1E
100
AcDbEntity
  8
7
100
AcDbLine
 10
7.833661417322834
 20
5.306102362204724
 30
0.0
 11
7.892716535433069
 21
5.306102362204724
 31
0.0
  0
LINE
  5
3A8B
330
1E
100
AcDbEntity
  8
7
100
AcDbLine
 10
7.892716535433069
 20
5.306102362204724
 30
0.0
 11
7.951771653543306
 21
5.323818897637795
 31
0.0
  0
LINE
  5
3A8C
330
1E
100
AcDbEntity
  8
7
100
AcDbLine
 10
7.951771653543306
 20
5.323818897637795
 30
0.0
 11
8.002952755905511
 21
5.355314960629921
 31
0.0
  0
LINE
  5
3A8D
330
1E
100
AcDbEntity
  8
7
100
AcDbLine
 10
8.002952755905511
 20
5.355314960629921
 30
0.0
 11
8.04232283464567
 21
5.40255905511811
 31
0.0
  0
LINE
  5
3A8E
330
1E
100
AcDbEntity
  8
7
100
AcDbLine
 10
8.04232283464567
 20
5.40255905511811
 30
0.0
 11
8.06791338582677
 21
5.45767716535433
 31
0.0
  0
LINE
  5
3A8F
330
1E
100
AcDbEntity
  8
7
100
AcDbLine
 10
8.06791338582677
 20
5.45767716535433
 30
0.0
 11
8.075787401574803
 21
5.516732283464565
 31
0.0
  0
LINE
  5
3A90
330
1E
100
AcDbEntity
  8
7
100
AcDbLine
 10
8.06791338582677
 20
5.575787401574802
 30
0.0
 11
8.04232283464567
 21
5.630905511811023
 31
0.0
  0
LINE
  5
3A91
330
1E
100
AcDbEntity
  8
7
100
AcDbLine
 10
8.04232283464567
 20
5.630905511811023
 30
0.0
 11
8.002952755905511
 21
5.678149606299212
 31
0.0
  0
LINE
  5
3A92
330
1E
100
AcDbEntity
  8
7
100
AcDbLine
 10
8.002952755905511
 20
5.678149606299212
 30
0.0
 11
7.951771653543306
 21
5.709645669291337
 31
0.0
  0
LINE
  5
3A93
330
1E
100
AcDbEntity
  8
7
100
AcDbLine
 10
7.951771653543306
 20
5.709645669291337
 30
0.0
 11
7.892716535433069
 21
5.727362204724408
 31
0.0
  0
LINE
  5
3A94
330
1E
100
AcDbEntity
  8
7
100
AcDbLine
 10
7.892716535433069
 20
5.727362204724408
 30
0.0
 11
7.833661417322834
 21
5.727362204724408
 31
0.0
  0
LINE
  5
3A95
330
1E
100
AcDbEntity
  8
7
100
AcDbLine
 10
7.833661417322834
 20
5.727362204724408
 30
0.0
 11
7.774606299212597
 21
5.709645669291337
 31
0.0
  0
LINE
  5
3A96
330
1E
100
AcDbEntity
  8
7
100
AcDbLine
 10
7.774606299212597
 20
5.709645669291337
 30
0.0
 11
7.723425196850393
 21
5.678149606299212
 31
0.0
  0
LINE
  5
3A97
330
1E
100
AcDbEntity
  8
7
100
AcDbLine
 10
7.723425196850393
 20
5.678149606299212
 30
0.0
 11
7.684055118110236
 21
5.630905511811023
 31
0.0
  0
LINE
  5
3A98
330
1E
100
AcDbEntity
  8
7
100
AcDbLine
 10
7.684055118110236
 20
5.630905511811023
 30
0.0
 11
7.658464566929132
 21
5.575787401574802
 31
0.0
  0
LINE
  5
3A99
330
1E
100
AcDbEntity
  8
7
100
AcDbLine
 10
7.658464566929132
 20
5.575787401574802
 30
0.0
 11
7.6505905511811
 21
5.516732283464565
 31
0.0
  0
LINE
  5
3A9A
330
1E
100
AcDbEntity
  8
7
100
AcDbLine
 10
7.6505905511811
 20
5.516732283464565
 30
0.0
 11
7.658464566929132
 21
5.45767716535433
 31
0.0
  0
LINE
  5
3A9B
330
1E
100
AcDbEntity
  8
7
100
AcDbLine
 10
7.658464566929132
 20
5.45767716535433
 30
0.0
 11
7.684055118110236
 21
5.40255905511811
 31
0.0
  0
LINE
  5
3A9C
330
1E
100
AcDbEntity
  8
7
100
AcDbLine
 10
7.684055118110236
 20
5.40255905511811
 30
0.0
 11
7.723425196850393
 21
5.355314960629921
 31
0.0
  0
LINE
  5
3A9D
330
1E
100
AcDbEntity
  8
7
100
AcDbLine
 10
5.666338582677164
 20
5.630905511811023
 30
0.0
 11
5.626968503937007
 21
5.678149606299212
 31
0.0
  0
LINE
  5
3A9E
330
1E
100
AcDbEntity
  8
7
100
AcDbLine
 10
5.626968503937007
 20
5.678149606299212
 30
0.0
 11
5.575787401574803
 21
5.709645669291337
 31
0.0
  0
LINE
  5
3A9F
330
1E
100
AcDbEntity
  8
7
100
AcDbLine
 10
5.575787401574803
 20
5.709645669291337
 30
0.0
 11
5.516732283464566
 21
5.727362204724408
 31
0.0
  0
LINE
  5
3AA0
330
1E
100
AcDbEntity
  8
7
100
AcDbLine
 10
5.516732283464566
 20
5.727362204724408
 30
0.0
 11
5.457677165354331
 21
5.727362204724408
 31
0.0
  0
LINE
  5
3AA1
330
1E
100
AcDbEntity
  8
7
100
AcDbLine
 10
5.457677165354331
 20
5.727362204724408
 30
0.0
 11
5.398622047244094
 21
5.709645669291337
 31
0.0
  0
LINE
  5
3AA2
330
1E
100
AcDbEntity
  8
7
100
AcDbLine
 10
5.398622047244094
 20
5.709645669291337
 30
0.0
 11
5.34744094488189
 21
5.678149606299212
 31
0.0
  0
LINE
  5
3AA3
330
1E
100
AcDbEntity
  8
7
100
AcDbLine
 10
5.34744094488189
 20
5.678149606299212
 30
0.0
 11
5.308070866141733
 21
5.630905511811023
 31
0.0
  0
LINE
  5
3AA4
330
1E
100
AcDbEntity
  8
7
100
AcDbLine
 10
5.308070866141733
 20
5.630905511811023
 30
0.0
 11
5.282480314960629
 21
5.575787401574802
 31
0.0
  0
LINE
  5
3AA5
330
1E
100
AcDbEntity
  8
7
100
AcDbLine
 10
5.282480314960629
 20
5.575787401574802
 30
0.0
 11
5.274606299212598
 21
5.516732283464565
 31
0.0
  0
LINE
  5
3AA6
330
1E
100
AcDbEntity
  8
7
100
AcDbLine
 10
5.274606299212598
 20
5.516732283464565
 30
0.0
 11
5.282480314960629
 21
5.45767716535433
 31
0.0
  0
LINE
  5
3AA7
330
1E
100
AcDbEntity
  8
7
100
AcDbLine
 10
5.282480314960629
 20
5.45767716535433
 30
0.0
 11
5.308070866141733
 21
5.40255905511811
 31
0.0
  0
LINE
  5
3AA8
330
1E
100
AcDbEntity
  8
7
100
AcDbLine
 10
5.308070866141733
 20
5.40255905511811
 30
0.0
 11
5.34744094488189
 21
5.355314960629921
 31
0.0
  0
LINE
  5
3AA9
330
1E
100
AcDbEntity
  8
7
100
AcDbLine
 10
5.34744094488189
 20
5.355314960629921
 30
0.0
 11
5.398622047244094
 21
5.323818897637795
 31
0.0
  0
LINE
  5
3AAA
330
1E
100
AcDbEntity
  8
7
100
AcDbLine
 10
5.398622047244094
 20
5.323818897637795
 30
0.0
 11
5.457677165354331
 21
5.306102362204724
 31
0.0
  0
LINE
  5
3AAB
330
1E
100
AcDbEntity
  8
7
100
AcDbLine
 10
5.457677165354331
 20
5.306102362204724
 30
0.0
 11
5.516732283464566
 21
5.306102362204724
 31
0.0
  0
LINE
  5
3AAC
330
1E
100
AcDbEntity
  8
7
100
AcDbLine
 10
5.516732283464566
 20
5.306102362204724
 30
0.0
 11
5.575787401574803
 21
5.323818897637795
 31
0.0
  0
LINE
  5
3AAD
330
1E
100
AcDbEntity
  8
7
100
AcDbLine
 10
5.575787401574803
 20
5.323818897637795
 30
0.0
 11
5.626968503937007
 21
5.355314960629921
 31
0.0
  0
LINE
  5
3AAE
330
1E
100
AcDbEntity
  8
7
100
AcDbLine
 10
5.626968503937007
 20
5.355314960629921
 30
0.0
 11
5.666338582677164
 21
5.40255905511811
 31
0.0
  0
LINE
  5
3AAF
330
1E
100
AcDbEntity
  8
7
100
AcDbLine
 10
5.666338582677164
 20
5.40255905511811
 30
0.0
 11
5.691929133858268
 21
5.45767716535433
 31
0.0
  0
LINE
  5
3AB0
330
1E
100
AcDbEntity
  8
7
100
AcDbLine
 10
5.691929133858268
 20
5.45767716535433
 30
0.0
 11
5.699803149606299
 21
5.516732283464565
 31
0.0
  0
LINE
  5
3AB1
330
1E
100
AcDbEntity
  8
7
100
AcDbLine
 10
5.699803149606299
 20
5.516732283464565
 30
0.0
 11
5.691929133858268
 21
5.575787401574802
 31
0.0
  0
LINE
  5
3AB2
330
1E
100
AcDbEntity
  8
7
100
AcDbLine
 10
5.691929133858268
 20
5.575787401574802
 30
0.0
 11
5.666338582677164
 21
5.630905511811023
 31
0.0
  0
LINE
  5
3AB3
330
1E
100
AcDbEntity
  8
7
100
AcDbLine
 10
7.9005905511811
 20
6.099409448818897
 30
0.0
 11
7.9005905511811
 21
6.056102362204724
 31
0.0
  0
LINE
  5
3AB4
330
1E
100
AcDbEntity
  8
7
100
AcDbLine
 10
7.9005905511811
 20
6.056102362204724
 30
0.0
 11
7.764763779527558
 21
6.056102362204724
 31
0.0
  0
LINE
  5
3AB5
330
1E
100
AcDbEntity
  8
7
100
AcDbLine
 10
5.172244094488188
 20
4.010826771653543
 30
0.0
 11
8.180118110236218
 21
4.010826771653543
 31
0.0
  0
LINE
  5
3AB6
330
1E
100
AcDbEntity
  8
7
100
AcDbLine
 10
8.180118110236218
 20
4.010826771653543
 30
0.0
 11
8.180118110236218
 21
6.304133858267715
 31
0.0
  0
LINE
  5
3AB7
330
1E
100
AcDbEntity
  8
7
100
AcDbLine
 10
8.180118110236218
 20
6.304133858267715
 30
0.0
 11
8.026574803149607
 21
6.304133858267715
 31
0.0
  0
LINE
  5
3AB8
330
1E
100
AcDbEntity
  8
7
100
AcDbLine
 10
5.172244094488188
 20
6.351377952755904
 30
0.0
 11
5.325787401574803
 21
6.351377952755904
 31
0.0
  0
LINE
  5
3AB9
330
1E
100
AcDbEntity
  8
7
100
AcDbLine
 10
5.325787401574803
 20
6.351377952755904
 30
0.0
 11
5.325787401574803
 21
6.304133858267715
 31
0.0
  0
LINE
  5
3ABA
330
1E
100
AcDbEntity
  8
7
100
AcDbLine
 10
8.337598425196848
 20
3.823818897637795
 30
0.0
 11
8.361220472440944
 21
3.831692913385826
 31
0.0
  0
LINE
  5
3ABB
330
1E
100
AcDbEntity
  8
7
100
AcDbLine
 10
8.361220472440944
 20
3.831692913385826
 30
0.0
 11
8.369094488188974
 21
3.853346456692913
 31
0.0
  0
LINE
  5
3ABC
330
1E
100
AcDbEntity
  8
7
100
AcDbLine
 10
5.075787401574803
 20
7.117125984251967
 30
0.0
 11
5.075787401574803
 21
3.916338582677165
 31
0.0
  0
LINE
  5
3ABD
330
1E
100
AcDbEntity
  8
7
100
AcDbLine
 10
5.075787401574803
 20
3.916338582677165
 30
0.0
 11
5.093503937007874
 21
3.934055118110236
 31
0.0
  0
LINE
  5
3ABE
330
1E
100
AcDbEntity
  8
7
100
AcDbLine
 10
5.093503937007874
 20
7.099409448818897
 30
0.0
 11
5.093503937007874
 21
6.349409448818897
 31
0.0
  0
LINE
  5
3ABF
330
1E
100
AcDbEntity
  8
7
100
AcDbLine
 10
5.093503937007874
 20
6.349409448818897
 30
0.0
 11
5.105314960629922
 21
6.351377952755904
 31
0.0
  0
LINE
  5
3AC0
330
1E
100
AcDbEntity
  8
7
100
AcDbLine
 10
5.105314960629922
 20
6.351377952755904
 30
0.0
 11
5.134842519685038
 21
6.351377952755904
 31
0.0
  0
LINE
  5
3AC1
330
1E
100
AcDbEntity
  8
7
100
AcDbLine
 10
5.134842519685038
 20
6.351377952755904
 30
0.0
 11
5.172244094488188
 21
6.351377952755904
 31
0.0
  0
LINE
  5
3AC2
330
1E
100
AcDbEntity
  8
7
100
AcDbLine
 10
5.172244094488188
 20
6.351377952755904
 30
0.0
 11
5.172244094488188
 21
7.020669291338582
 31
0.0
  0
LINE
  5
3AC3
330
1E
100
AcDbEntity
  8
7
100
AcDbLine
 10
8.274606299212596
 20
6.310039370078739
 30
0.0
 11
8.258858267716533
 21
6.306102362204724
 31
0.0
  0
LINE
  5
3AC4
330
1E
100
AcDbEntity
  8
7
100
AcDbLine
 10
8.258858267716533
 20
6.306102362204724
 30
0.0
 11
8.258858267716533
 21
3.934055118110236
 31
0.0
  0
LINE
  5
3AC5
330
1E
100
AcDbEntity
  8
7
100
AcDbLine
 10
8.258858267716533
 20
7.099409448818897
 30
0.0
 11
8.258858267716533
 21
6.349409448818897
 31
0.0
  0
LINE
  5
3AC6
330
1E
100
AcDbEntity
  8
7
100
AcDbLine
 10
8.258858267716533
 20
6.349409448818897
 30
0.0
 11
8.274606299212596
 21
6.345472440944882
 31
0.0
  0
LINE
  5
3AC7
330
1E
100
AcDbEntity
  8
7
100
AcDbLine
 10
8.258858267716533
 20
6.349409448818897
 30
0.0
 11
8.247047244094488
 21
6.351377952755904
 31
0.0
  0
LINE
  5
3AC8
330
1E
100
AcDbEntity
  8
7
100
AcDbLine
 10
8.247047244094488
 20
6.351377952755904
 30
0.0
 11
8.21751968503937
 21
6.351377952755904
 31
0.0
  0
LINE
  5
3AC9
330
1E
100
AcDbEntity
  8
7
100
AcDbLine
 10
8.21751968503937
 20
6.351377952755904
 30
0.0
 11
8.180118110236218
 21
6.351377952755904
 31
0.0
  0
LINE
  5
3ACA
330
1E
100
AcDbEntity
  8
7
100
AcDbLine
 10
5.172244094488188
 20
7.020669291338582
 30
0.0
 11
5.14271653543307
 21
7.0501968503937
 31
0.0
  0
LINE
  5
3ACB
330
1E
100
AcDbEntity
  8
7
100
AcDbLine
 10
5.14271653543307
 20
7.0501968503937
 30
0.0
 11
5.119094488188975
 21
7.073818897637795
 31
0.0
  0
LINE
  5
3ACC
330
1E
100
AcDbEntity
  8
7
100
AcDbLine
 10
5.119094488188975
 20
7.073818897637795
 30
0.0
 11
5.101377952755905
 21
7.091535433070865
 31
0.0
  0
LINE
  5
3ACD
330
1E
100
AcDbEntity
  8
7
100
AcDbLine
 10
5.101377952755905
 20
7.091535433070865
 30
0.0
 11
5.093503937007874
 21
7.099409448818897
 31
0.0
  0
LINE
  5
3ACE
330
1E
100
AcDbEntity
  8
7
100
AcDbLine
 10
8.180118110236218
 20
7.020669291338582
 30
0.0
 11
8.209645669291337
 21
7.0501968503937
 31
0.0
  0
LINE
  5
3ACF
330
1E
100
AcDbEntity
  8
7
100
AcDbLine
 10
8.209645669291337
 20
7.0501968503937
 30
0.0
 11
8.233267716535433
 21
7.073818897637795
 31
0.0
  0
LINE
  5
3AD0
330
1E
100
AcDbEntity
  8
7
100
AcDbLine
 10
8.233267716535433
 20
7.073818897637795
 30
0.0
 11
8.250984251968503
 21
7.091535433070865
 31
0.0
  0
LINE
  5
3AD1
330
1E
100
AcDbEntity
  8
7
100
AcDbLine
 10
8.250984251968503
 20
7.091535433070865
 30
0.0
 11
8.258858267716533
 21
7.099409448818897
 31
0.0
  0
LINE
  5
3AD2
330
1E
100
AcDbEntity
  8
7
100
AcDbLine
 10
5.093503937007874
 20
7.099409448818897
 30
0.0
 11
8.258858267716533
 21
7.099409448818897
 31
0.0
  0
LINE
  5
3AD3
330
1E
100
AcDbEntity
  8
7
100
AcDbLine
 10
8.258858267716533
 20
7.099409448818897
 30
0.0
 11
8.276574803149607
 21
7.117125984251967
 31
0.0
  0
LINE
  5
3AD4
330
1E
100
AcDbEntity
  8
7
100
AcDbLine
 10
4.983267716535433
 20
7.178149606299212
 30
0.0
 11
4.991141732283464
 21
7.199803149606299
 31
0.0
  0
LINE
  5
3AD5
330
1E
100
AcDbEntity
  8
7
100
AcDbLine
 10
4.991141732283464
 20
7.199803149606299
 30
0.0
 11
5.012795275590551
 21
7.209645669291337
 31
0.0
  0
LINE
  5
3AD6
330
1E
100
AcDbEntity
  8
7
100
AcDbLine
 10
8.369094488188974
 20
7.178149606299212
 30
0.0
 11
8.361220472440944
 21
7.199803149606299
 31
0.0
  0
LINE
  5
3AD7
330
1E
100
AcDbEntity
  8
7
100
AcDbLine
 10
8.361220472440944
 20
7.199803149606299
 30
0.0
 11
8.337598425196848
 21
7.209645669291337
 31
0.0
  0
LINE
  5
3AD8
330
1E
100
AcDbEntity
  8
7
100
AcDbLine
 10
5.451771653543307
 20
6.599409448818897
 30
0.0
 11
5.451771653543307
 21
6.556102362204724
 31
0.0
  0
LINE
  5
3AD9
330
1E
100
AcDbEntity
  8
7
100
AcDbLine
 10
5.451771653543307
 20
6.556102362204724
 30
0.0
 11
5.457677165354331
 21
6.562007874015747
 31
0.0
  0
LINE
  5
3ADA
330
1E
100
AcDbEntity
  8
7
100
AcDbLine
 10
5.457677165354331
 20
6.593503937007873
 30
0.0
 11
5.457677165354331
 21
6.562007874015747
 31
0.0
  0
LINE
  5
3ADB
330
1E
100
AcDbEntity
  8
7
100
AcDbLine
 10
5.457677165354331
 20
6.562007874015747
 30
0.0
 11
5.585629921259842
 21
6.562007874015747
 31
0.0
  0
LINE
  5
3BCC
330
1E
100
AcDbEntity
  8
7
100
AcDbLine
 10
0.8690944881889768
 20
1.687992125984251
 30
0.0
 11
1.044291338582677
 21
1.687992125984251
 31
0.0
  0
LINE
  5
3BCD
330
1E
100
AcDbEntity
  8
7
100
AcDbLine
 10
1.044291338582677
 20
1.687992125984251
 30
0.0
 11
1.046259842519685
 21
1.662401574803149
 31
0.0
  0
LINE
  5
3BCE
330
1E
100
AcDbEntity
  8
7
100
AcDbLine
 10
1.046259842519685
 20
1.662401574803149
 30
0.0
 11
1.093503937007874
 21
1.662401574803149
 31
0.0
  0
LINE
  5
3BCF
330
1E
100
AcDbEntity
  8
7
100
AcDbLine
 10
1.319881889763779
 20
1.687992125984251
 30
0.0
 11
1.68011811023622
 21
1.687992125984251
 31
0.0
  0
LINE
  5
3BD0
330
1E
100
AcDbEntity
  8
7
100
AcDbLine
 10
1.68011811023622
 20
1.687992125984251
 30
0.0
 11
1.68011811023622
 21
1.662401574803149
 31
0.0
  0
LINE
  5
3BD1
330
1E
100
AcDbEntity
  8
7
100
AcDbLine
 10
3.144685039370078
 20
1.252952755905512
 30
0.0
 11
3.166338582677165
 21
1.252952755905512
 31
0.0
  0
LINE
  5
3BD2
330
1E
100
AcDbEntity
  8
7
100
AcDbLine
 10
3.166338582677165
 20
1.252952755905512
 30
0.0
 11
3.174212598425197
 21
1.252952755905512
 31
0.0
  0
LINE
  5
3BD3
330
1E
100
AcDbEntity
  8
7
100
AcDbLine
 10
-0.1446850393700787
 20
1.252952755905512
 30
0.0
 11
-0.1663385826771648
 21
1.252952755905512
 31
0.0
  0
LINE
  5
3BD4
330
1E
100
AcDbEntity
  8
7
100
AcDbLine
 10
-0.1663385826771648
 20
1.252952755905512
 30
0.0
 11
-0.1761811023622046
 21
1.252952755905512
 31
0.0
  0
LINE
  5
3BD5
330
1E
100
AcDbEntity
  8
7
100
AcDbLine
 10
-0.0049212598425197
 20
1.412401574803149
 30
0.0
 11
-0.0383858267716535
 21
1.408464566929134
 31
0.0
  0
LINE
  5
3BD6
330
1E
100
AcDbEntity
  8
7
100
AcDbLine
 10
-0.0383858267716535
 20
1.408464566929134
 30
0.0
 11
-0.0718503937007871
 21
1.392716535433071
 31
0.0
  0
LINE
  5
3BD7
330
1E
100
AcDbEntity
  8
7
100
AcDbLine
 10
-0.0718503937007871
 20
1.392716535433071
 30
0.0
 11
-0.0994094488188973
 21
1.367125984251969
 31
0.0
  0
LINE
  5
3BD8
330
1E
100
AcDbEntity
  8
7
100
AcDbLine
 10
-0.0994094488188973
 20
1.367125984251969
 30
0.0
 11
-0.1230314960629917
 21
1.333661417322835
 31
0.0
  0
LINE
  5
3BD9
330
1E
100
AcDbEntity
  8
7
100
AcDbLine
 10
-0.1230314960629917
 20
1.333661417322835
 30
0.0
 11
-0.1387795275590546
 21
1.294291338582677
 31
0.0
  0
LINE
  5
3BDA
330
1E
100
AcDbEntity
  8
7
100
AcDbLine
 10
-0.1387795275590546
 20
1.294291338582677
 30
0.0
 11
-0.1446850393700787
 21
1.252952755905512
 31
0.0
  0
LINE
  5
3BDB
330
1E
100
AcDbEntity
  8
7
100
AcDbLine
 10
3.121062992125984
 20
1.333661417322835
 30
0.0
 11
3.136811023622047
 21
1.294291338582677
 31
0.0
  0
LINE
  5
3BDC
330
1E
100
AcDbEntity
  8
7
100
AcDbLine
 10
3.136811023622047
 20
1.294291338582677
 30
0.0
 11
3.144685039370078
 21
1.252952755905512
 31
0.0
  0
LINE
  5
3BDD
330
1E
100
AcDbEntity
  8
7
100
AcDbLine
 10
3.002952755905512
 20
1.412401574803149
 30
0.0
 11
3.038385826771653
 21
1.408464566929134
 31
0.0
  0
LINE
  5
3BDE
330
1E
100
AcDbEntity
  8
7
100
AcDbLine
 10
3.038385826771653
 20
1.408464566929134
 30
0.0
 11
3.069881889763779
 21
1.392716535433071
 31
0.0
  0
LINE
  5
3BDF
330
1E
100
AcDbEntity
  8
7
100
AcDbLine
 10
3.069881889763779
 20
1.392716535433071
 30
0.0
 11
3.099409448818898
 21
1.367125984251969
 31
0.0
  0
LINE
  5
3BE0
330
1E
100
AcDbEntity
  8
7
100
AcDbLine
 10
3.099409448818898
 20
1.367125984251969
 30
0.0
 11
3.121062992125984
 21
1.333661417322835
 31
0.0
  0
LINE
  5
3BE1
330
1E
100
AcDbEntity
  8
7
100
AcDbLine
 10
1.093503937007874
 20
1.654527559055118
 30
0.0
 11
1.093503937007874
 21
1.656496062992125
 31
0.0
  0
LINE
  5
3BE2
330
1E
100
AcDbEntity
  8
7
100
AcDbLine
 10
1.093503937007874
 20
1.656496062992125
 30
0.0
 11
1.093503937007874
 21
1.662401574803149
 31
0.0
  0
LINE
  5
3BE3
330
1E
100
AcDbEntity
  8
7
100
AcDbLine
 10
1.268700787401574
 20
1.662401574803149
 30
0.0
 11
1.268700787401574
 21
1.656496062992125
 31
0.0
  0
LINE
  5
3BE4
330
1E
100
AcDbEntity
  8
7
100
AcDbLine
 10
1.268700787401574
 20
1.656496062992125
 30
0.0
 11
1.268700787401574
 21
1.654527559055118
 31
0.0
  0
LINE
  5
3BE5
330
1E
100
AcDbEntity
  8
7
100
AcDbLine
 10
1.729330708661417
 20
1.662401574803149
 30
0.0
 11
1.729330708661417
 21
1.656496062992125
 31
0.0
  0
LINE
  5
3BE6
330
1E
100
AcDbEntity
  8
7
100
AcDbLine
 10
1.729330708661417
 20
1.656496062992125
 30
0.0
 11
1.729330708661417
 21
1.654527559055118
 31
0.0
  0
LINE
  5
3BE7
330
1E
100
AcDbEntity
  8
7
100
AcDbLine
 10
1.904527559055118
 20
1.654527559055118
 30
0.0
 11
1.904527559055118
 21
1.656496062992125
 31
0.0
  0
LINE
  5
3BE8
330
1E
100
AcDbEntity
  8
7
100
AcDbLine
 10
1.904527559055118
 20
1.656496062992125
 30
0.0
 11
1.904527559055118
 21
1.662401574803149
 31
0.0
  0
LINE
  5
3BE9
330
1E
100
AcDbEntity
  8
7
100
AcDbLine
 10
1.083661417322835
 20
0.8100393700787407
 30
0.0
 11
1.08759842519685
 21
0.7372047244094491
 31
0.0
  0
LINE
  5
3BEA
330
1E
100
AcDbEntity
  8
7
100
AcDbLine
 10
1.08759842519685
 20
0.7372047244094491
 30
0.0
 11
1.276574803149606
 21
0.7372047244094491
 31
0.0
  0
LINE
  5
3BEB
330
1E
100
AcDbEntity
  8
7
100
AcDbLine
 10
1.723425196850394
 20
0.7372047244094491
 30
0.0
 11
1.723425196850394
 21
0.7234251968503945
 31
0.0
  0
LINE
  5
3BEC
330
1E
100
AcDbEntity
  8
7
100
AcDbLine
 10
1.723425196850394
 20
0.7234251968503945
 30
0.0
 11
1.910433070866141
 21
0.7234251968503945
 31
0.0
  0
LINE
  5
3BED
330
1E
100
AcDbEntity
  8
7
100
AcDbLine
 10
1.719488188976378
 20
0.8257874015748036
 30
0.0
 11
1.719488188976378
 21
0.8100393700787407
 31
0.0
  0
LINE
  5
3BEE
330
1E
100
AcDbEntity
  8
7
100
AcDbLine
 10
1.719488188976378
 20
0.8100393700787407
 30
0.0
 11
1.914370078740157
 21
0.8100393700787407
 31
0.0
  0
LINE
  5
3BEF
330
1E
100
AcDbEntity
  8
7
100
AcDbLine
 10
1.914370078740157
 20
0.8100393700787407
 30
0.0
 11
1.916338582677165
 21
0.8257874015748036
 31
0.0
  0
LINE
  5
3BF0
330
1E
100
AcDbEntity
  8
7
100
AcDbLine
 10
1.916338582677165
 20
0.8257874015748036
 30
0.0
 11
1.719488188976378
 21
0.8257874015748036
 31
0.0
  0
LINE
  5
3BF1
330
1E
100
AcDbEntity
  8
7
100
AcDbLine
 10
2.556102362204724
 20
1.428149606299212
 30
0.0
 11
2.562007874015748
 21
1.428149606299212
 31
0.0
  0
LINE
  5
3BF2
330
1E
100
AcDbEntity
  8
7
100
AcDbLine
 10
2.562007874015748
 20
1.428149606299212
 30
0.0
 11
2.595472440944882
 21
1.428149606299212
 31
0.0
  0
LINE
  5
3BF3
330
1E
100
AcDbEntity
  8
7
100
AcDbLine
 10
2.595472440944882
 20
1.428149606299212
 30
0.0
 11
2.601377952755905
 21
1.428149606299212
 31
0.0
  0
LINE
  5
3BF4
330
1E
100
AcDbEntity
  8
7
100
AcDbLine
 10
2.502952755905512
 20
1.428149606299212
 30
0.0
 11
2.530511811023622
 21
1.428149606299212
 31
0.0
  0
LINE
  5
3BF5
330
1E
100
AcDbEntity
  8
7
100
AcDbLine
 10
2.530511811023622
 20
1.428149606299212
 30
0.0
 11
2.53248031496063
 21
1.428149606299212
 31
0.0
  0
LINE
  5
3BF6
330
1E
100
AcDbEntity
  8
7
100
AcDbLine
 10
2.74507874015748
 20
1.428149606299212
 30
0.0
 11
2.75492125984252
 21
1.428149606299212
 31
0.0
  0
LINE
  5
3BF7
330
1E
100
AcDbEntity
  8
7
100
AcDbLine
 10
2.75492125984252
 20
1.428149606299212
 30
0.0
 11
2.760826771653543
 21
1.428149606299212
 31
0.0
  0
LINE
  5
3BF8
330
1E
100
AcDbEntity
  8
7
100
AcDbLine
 10
2.778543307086614
 20
1.428149606299212
 30
0.0
 11
2.790354330708662
 21
1.428149606299212
 31
0.0
  0
LINE
  5
3BF9
330
1E
100
AcDbEntity
  8
7
100
AcDbLine
 10
2.790354330708662
 20
1.428149606299212
 30
0.0
 11
2.821850393700787
 21
1.428149606299212
 31
0.0
  0
LINE
  5
3BFA
330
1E
100
AcDbEntity
  8
7
100
AcDbLine
 10
2.821850393700787
 20
1.428149606299212
 30
0.0
 11
2.831692913385826
 21
1.428149606299212
 31
0.0
  0
LINE
  5
3BFB
330
1E
100
AcDbEntity
  8
7
100
AcDbLine
 10
2.831692913385826
 20
1.428149606299212
 30
0.0
 11
2.835629921259842
 21
1.428149606299212
 31
0.0
  0
LINE
  5
3BFC
330
1E
100
AcDbEntity
  8
7
100
AcDbLine
 10
1.904527559055118
 20
1.725393700787401
 30
0.0
 11
1.729330708661417
 21
1.725393700787401
 31
0.0
  0
LINE
  5
3BFD
330
1E
100
AcDbEntity
  8
7
100
AcDbLine
 10
1.729330708661417
 20
1.725393700787401
 30
0.0
 11
1.729330708661417
 21
1.705708661417324
 31
0.0
  0
LINE
  5
3BFE
330
1E
100
AcDbEntity
  8
7
100
AcDbLine
 10
1.904527559055118
 20
1.705708661417324
 30
0.0
 11
1.729330708661417
 21
1.705708661417324
 31
0.0
  0
LINE
  5
3BFF
330
1E
100
AcDbEntity
  8
7
100
AcDbLine
 10
1.729330708661417
 20
1.705708661417324
 30
0.0
 11
1.729330708661417
 21
1.687992125984251
 31
0.0
  0
LINE
  5
3C00
330
1E
100
AcDbEntity
  8
7
100
AcDbLine
 10
1.729330708661417
 20
1.687992125984251
 30
0.0
 11
1.729330708661417
 21
1.662401574803149
 31
0.0
  0
LINE
  5
3C01
330
1E
100
AcDbEntity
  8
7
100
AcDbLine
 10
2.302165354330709
 20
1.794291338582677
 30
0.0
 11
2.33759842519685
 21
1.780511811023622
 31
0.0
  0
LINE
  5
3C02
330
1E
100
AcDbEntity
  8
7
100
AcDbLine
 10
2.33759842519685
 20
1.780511811023622
 30
0.0
 11
2.363188976377952
 21
1.752952755905512
 31
0.0
  0
LINE
  5
3C03
330
1E
100
AcDbEntity
  8
7
100
AcDbLine
 10
2.363188976377952
 20
1.752952755905512
 30
0.0
 11
2.373031496062992
 21
1.721456692913386
 31
0.0
  0
LINE
  5
3C04
330
1E
100
AcDbEntity
  8
7
100
AcDbLine
 10
2.302165354330709
 20
1.794291338582677
 30
0.0
 11
2.296259842519685
 21
1.800196850393701
 31
0.0
  0
LINE
  5
3C05
330
1E
100
AcDbEntity
  8
7
100
AcDbLine
 10
2.296259842519685
 20
1.800196850393701
 30
0.0
 11
2.28248031496063
 21
1.804133858267716
 31
0.0
  0
LINE
  5
3C06
330
1E
100
AcDbEntity
  8
7
100
AcDbLine
 10
0.6978346456692917
 20
1.794291338582677
 30
0.0
 11
0.7017716535433074
 21
1.800196850393701
 31
0.0
  0
LINE
  5
3C07
330
1E
100
AcDbEntity
  8
7
100
AcDbLine
 10
0.7017716535433074
 20
1.800196850393701
 30
0.0
 11
0.715551181102363
 21
1.804133858267716
 31
0.0
  0
LINE
  5
3C08
330
1E
100
AcDbEntity
  8
7
100
AcDbLine
 10
0.6604330708661417
 20
1.780511811023622
 30
0.0
 11
0.6348425196850398
 21
1.752952755905512
 31
0.0
  0
LINE
  5
3C09
330
1E
100
AcDbEntity
  8
7
100
AcDbLine
 10
0.6348425196850398
 20
1.752952755905512
 30
0.0
 11
0.625
 21
1.721456692913386
 31
0.0
  0
LINE
  5
3C0A
330
1E
100
AcDbEntity
  8
7
100
AcDbLine
 10
2.28248031496063
 20
1.808070866141733
 30
0.0
 11
2.28248031496063
 21
1.806102362204725
 31
0.0
  0
LINE
  5
3C0B
330
1E
100
AcDbEntity
  8
7
100
AcDbLine
 10
2.28248031496063
 20
1.806102362204725
 30
0.0
 11
2.28248031496063
 21
1.804133858267716
 31
0.0
  0
LINE
  5
3C0C
330
1E
100
AcDbEntity
  8
7
100
AcDbLine
 10
0.715551181102363
 20
1.808070866141733
 30
0.0
 11
0.715551181102363
 21
1.806102362204725
 31
0.0
  0
LINE
  5
3C0D
330
1E
100
AcDbEntity
  8
7
100
AcDbLine
 10
0.715551181102363
 20
1.806102362204725
 30
0.0
 11
0.715551181102363
 21
1.804133858267716
 31
0.0
  0
LINE
  5
3C0E
330
1E
100
AcDbEntity
  8
7
100
AcDbLine
 10
3.162401574803149
 20
0.9931102362204731
 30
0.0
 11
3.184055118110236
 21
0.9931102362204731
 31
0.0
  0
LINE
  5
3C0F
330
1E
100
AcDbEntity
  8
7
100
AcDbLine
 10
3.184055118110236
 20
0.9931102362204731
 30
0.0
 11
3.191929133858267
 21
0.9931102362204731
 31
0.0
  0
LINE
  5
3C10
330
1E
100
AcDbEntity
  8
7
100
AcDbLine
 10
-0.1624015748031491
 20
0.9931102362204731
 30
0.0
 11
-0.1840551181102361
 21
0.9931102362204731
 31
0.0
  0
LINE
  5
3C11
330
1E
100
AcDbEntity
  8
7
100
AcDbLine
 10
-0.1840551181102361
 20
0.9931102362204731
 30
0.0
 11
-0.1938976377952759
 21
0.9931102362204731
 31
0.0
  0
LINE
  5
3C12
330
1E
100
AcDbEntity
  8
7
100
AcDbLine
 10
-0.0049212598425197
 20
1.412401574803149
 30
0.0
 11
-0.046259842519685
 21
1.408464566929134
 31
0.0
  0
LINE
  5
3C13
330
1E
100
AcDbEntity
  8
7
100
AcDbLine
 10
-0.046259842519685
 20
1.408464566929134
 30
0.0
 11
-0.08759842519685
 21
1.392716535433071
 31
0.0
  0
LINE
  5
3C14
330
1E
100
AcDbEntity
  8
7
100
AcDbLine
 10
-0.08759842519685
 20
1.392716535433071
 30
0.0
 11
-0.1210629921259843
 21
1.367125984251969
 31
0.0
  0
LINE
  5
3C15
330
1E
100
AcDbEntity
  8
7
100
AcDbLine
 10
-0.1210629921259843
 20
1.367125984251969
 30
0.0
 11
-0.1486220472440944
 21
1.333661417322835
 31
0.0
  0
LINE
  5
3C16
330
1E
100
AcDbEntity
  8
7
100
AcDbLine
 10
-0.1486220472440944
 20
1.333661417322835
 30
0.0
 11
-0.1683070866141731
 21
1.294291338582677
 31
0.0
  0
LINE
  5
3C17
330
1E
100
AcDbEntity
  8
7
100
AcDbLine
 10
-0.1683070866141731
 20
1.294291338582677
 30
0.0
 11
-0.1761811023622046
 21
1.252952755905512
 31
0.0
  0
LINE
  5
3C18
330
1E
100
AcDbEntity
  8
7
100
AcDbLine
 10
3.002952755905512
 20
1.412401574803149
 30
0.0
 11
3.046259842519685
 21
1.408464566929134
 31
0.0
  0
LINE
  5
3C19
330
1E
100
AcDbEntity
  8
7
100
AcDbLine
 10
3.046259842519685
 20
1.408464566929134
 30
0.0
 11
3.085629921259842
 21
1.392716535433071
 31
0.0
  0
LINE
  5
3C1A
330
1E
100
AcDbEntity
  8
7
100
AcDbLine
 10
3.085629921259842
 20
1.392716535433071
 30
0.0
 11
3.121062992125984
 21
1.367125984251969
 31
0.0
  0
LINE
  5
3C1B
330
1E
100
AcDbEntity
  8
7
100
AcDbLine
 10
3.121062992125984
 20
1.367125984251969
 30
0.0
 11
3.148622047244094
 21
1.333661417322835
 31
0.0
  0
LINE
  5
3C1C
330
1E
100
AcDbEntity
  8
7
100
AcDbLine
 10
3.148622047244094
 20
1.333661417322835
 30
0.0
 11
3.166338582677165
 21
1.294291338582677
 31
0.0
  0
LINE
  5
3C1D
330
1E
100
AcDbEntity
  8
7
100
AcDbLine
 10
3.166338582677165
 20
1.294291338582677
 30
0.0
 11
3.174212598425197
 21
1.252952755905512
 31
0.0
  0
LINE
  5
3C1E
330
1E
100
AcDbEntity
  8
7
100
AcDbLine
 10
2.357283464566929
 20
1.762795275590551
 30
0.0
 11
2.325787401574803
 21
1.794291338582677
 31
0.0
  0
LINE
  5
3C1F
330
1E
100
AcDbEntity
  8
7
100
AcDbLine
 10
2.325787401574803
 20
1.794291338582677
 30
0.0
 11
2.28248031496063
 21
1.806102362204725
 31
0.0
  0
LINE
  5
3C20
330
1E
100
AcDbEntity
  8
7
100
AcDbLine
 10
0.715551181102363
 20
1.806102362204725
 30
0.0
 11
0.6722440944881889
 21
1.794291338582677
 31
0.0
  0
LINE
  5
3C21
330
1E
100
AcDbEntity
  8
7
100
AcDbLine
 10
0.6722440944881889
 20
1.794291338582677
 30
0.0
 11
0.640748031496063
 21
1.762795275590551
 31
0.0
  0
LINE
  5
3C22
330
1E
100
AcDbEntity
  8
7
100
AcDbLine
 10
0.640748031496063
 20
1.762795275590551
 30
0.0
 11
0.6269685039370084
 21
1.721456692913386
 31
0.0
  0
LINE
  5
3C23
330
1E
100
AcDbEntity
  8
7
100
AcDbLine
 10
3.144685039370078
 20
3.841535433070865
 30
0.0
 11
3.166338582677165
 21
3.849409448818897
 31
0.0
  0
LINE
  5
3C24
330
1E
100
AcDbEntity
  8
7
100
AcDbLine
 10
3.166338582677165
 20
3.849409448818897
 30
0.0
 11
3.174212598425197
 21
3.873031496062991
 31
0.0
  0
LINE
  5
3C25
330
1E
100
AcDbEntity
  8
7
100
AcDbLine
 10
-0.1446850393700787
 20
3.841535433070865
 30
0.0
 11
-0.1663385826771648
 21
3.849409448818897
 31
0.0
  0
LINE
  5
3C26
330
1E
100
AcDbEntity
  8
7
100
AcDbLine
 10
-0.1663385826771648
 20
3.849409448818897
 30
0.0
 11
-0.1761811023622046
 21
3.873031496062991
 31
0.0
  0
LINE
  5
3C27
330
1E
100
AcDbEntity
  8
7
100
AcDbLine
 10
-0.1230314960629917
 20
3.867125984251967
 30
0.0
 11
-0.1387795275590546
 21
3.849409448818897
 31
0.0
  0
LINE
  5
3C28
330
1E
100
AcDbEntity
  8
7
100
AcDbLine
 10
-0.1387795275590546
 20
3.849409448818897
 30
0.0
 11
-0.1446850393700787
 21
3.841535433070865
 31
0.0
  0
LINE
  5
3C29
330
1E
100
AcDbEntity
  8
7
100
AcDbLine
 10
-0.0049212598425197
 20
4.01279527559055
 30
0.0
 11
-0.0383858267716535
 21
3.969488188976376
 31
0.0
  0
LINE
  5
3C2A
330
1E
100
AcDbEntity
  8
7
100
AcDbLine
 10
-0.0383858267716535
 20
3.969488188976376
 30
0.0
 11
-0.0718503937007871
 21
3.930118110236219
 31
0.0
  0
LINE
  5
3C2B
330
1E
100
AcDbEntity
  8
7
100
AcDbLine
 10
-0.0718503937007871
 20
3.930118110236219
 30
0.0
 11
-0.0994094488188973
 21
3.894685039370078
 31
0.0
  0
LINE
  5
3C2C
330
1E
100
AcDbEntity
  8
7
100
AcDbLine
 10
-0.0994094488188973
 20
3.894685039370078
 30
0.0
 11
-0.1230314960629917
 21
3.867125984251967
 31
0.0
  0
LINE
  5
3C2D
330
1E
100
AcDbEntity
  8
7
100
AcDbLine
 10
3.002952755905512
 20
4.01279527559055
 30
0.0
 11
3.038385826771653
 21
3.969488188976376
 31
0.0
  0
LINE
  5
3C2E
330
1E
100
AcDbEntity
  8
7
100
AcDbLine
 10
3.038385826771653
 20
3.969488188976376
 30
0.0
 11
3.069881889763779
 21
3.930118110236219
 31
0.0
  0
LINE
  5
3C2F
330
1E
100
AcDbEntity
  8
7
100
AcDbLine
 10
3.069881889763779
 20
3.930118110236219
 30
0.0
 11
3.099409448818898
 21
3.894685039370078
 31
0.0
  0
LINE
  5
3C30
330
1E
100
AcDbEntity
  8
7
100
AcDbLine
 10
3.099409448818898
 20
3.894685039370078
 30
0.0
 11
3.121062992125984
 21
3.867125984251967
 31
0.0
  0
LINE
  5
3C31
330
1E
100
AcDbEntity
  8
7
100
AcDbLine
 10
3.121062992125984
 20
3.867125984251967
 30
0.0
 11
3.136811023622047
 21
3.849409448818897
 31
0.0
  0
LINE
  5
3C32
330
1E
100
AcDbEntity
  8
7
100
AcDbLine
 10
3.136811023622047
 20
3.849409448818897
 30
0.0
 11
3.144685039370078
 21
3.841535433070865
 31
0.0
  0
LINE
  5
3C33
330
1E
100
AcDbEntity
  8
7
100
AcDbLine
 10
1.918307086614173
 20
4.76279527559055
 30
0.0
 11
1.715551181102362
 21
4.76279527559055
 31
0.0
  0
LINE
  5
3C34
330
1E
100
AcDbEntity
  8
7
100
AcDbLine
 10
1.715551181102362
 20
4.76279527559055
 30
0.0
 11
1.715551181102362
 21
4.737204724409449
 31
0.0
  0
LINE
  5
3C35
330
1E
100
AcDbEntity
  8
7
100
AcDbLine
 10
1.075787401574803
 20
4.422244094488188
 30
0.0
 11
1.075787401574803
 21
4.406496062992125
 31
0.0
  0
LINE
  5
3C36
330
1E
100
AcDbEntity
  8
7
100
AcDbLine
 10
1.075787401574803
 20
4.406496062992125
 30
0.0
 11
1.288385826771653
 21
4.406496062992125
 31
0.0
  0
LINE
  5
3C37
330
1E
100
AcDbEntity
  8
7
100
AcDbLine
 10
1.288385826771653
 20
4.406496062992125
 30
0.0
 11
1.288385826771653
 21
4.386811023622047
 31
0.0
  0
LINE
  5
3C38
330
1E
100
AcDbEntity
  8
7
100
AcDbLine
 10
1.073818897637795
 20
4.447834645669291
 30
0.0
 11
1.073818897637795
 21
4.445866141732282
 31
0.0
  0
LINE
  5
3C39
330
1E
100
AcDbEntity
  8
7
100
AcDbLine
 10
1.073818897637795
 20
4.445866141732282
 30
0.0
 11
1.290354330708662
 21
4.445866141732282
 31
0.0
  0
LINE
  5
3C3A
330
1E
100
AcDbEntity
  8
7
100
AcDbLine
 10
1.288385826771653
 20
4.471456692913386
 30
0.0
 11
1.290354330708662
 21
4.455708661417323
 31
0.0
  0
LINE
  5
3C3B
330
1E
100
AcDbEntity
  8
7
100
AcDbLine
 10
1.290354330708662
 20
4.455708661417323
 30
0.0
 11
1.290354330708662
 21
4.447834645669291
 31
0.0
  0
LINE
  5
3C3C
330
1E
100
AcDbEntity
  8
7
100
AcDbLine
 10
1.288385826771653
 20
4.471456692913386
 30
0.0
 11
1.075787401574803
 21
4.471456692913386
 31
0.0
  0
LINE
  5
3C3D
330
1E
100
AcDbEntity
  8
7
100
AcDbLine
 10
1.075787401574803
 20
4.471456692913386
 30
0.0
 11
1.073818897637795
 21
4.455708661417323
 31
0.0
  0
LINE
  5
3C3E
330
1E
100
AcDbEntity
  8
7
100
AcDbLine
 10
1.571850393700787
 20
4.211614173228345
 30
0.0
 11
1.571850393700787
 21
4.166338582677165
 31
0.0
  0
LINE
  5
3C3F
330
1E
100
AcDbEntity
  8
7
100
AcDbLine
 10
1.571850393700787
 20
4.166338582677165
 30
0.0
 11
1.571850393700787
 21
4.121062992125984
 31
0.0
  0
LINE
  5
3C40
330
1E
100
AcDbEntity
  8
7
100
AcDbLine
 10
1.711614173228347
 20
4.406496062992125
 30
0.0
 11
1.709645669291338
 21
4.386811023622047
 31
0.0
  0
LINE
  5
3C41
330
1E
100
AcDbEntity
  8
7
100
AcDbLine
 10
1.709645669291338
 20
4.386811023622047
 30
0.0
 11
1.924212598425197
 21
4.386811023622047
 31
0.0
  0
LINE
  5
3C42
330
1E
100
AcDbEntity
  8
7
100
AcDbLine
 10
1.924212598425197
 20
4.386811023622047
 30
0.0
 11
1.922244094488188
 21
4.406496062992125
 31
0.0
  0
LINE
  5
3C43
330
1E
100
AcDbEntity
  8
7
100
AcDbLine
 10
1.709645669291338
 20
4.422244094488188
 30
0.0
 11
1.924212598425197
 21
4.422244094488188
 31
0.0
  0
LINE
  5
3C44
330
1E
100
AcDbEntity
  8
7
100
AcDbLine
 10
1.924212598425197
 20
4.422244094488188
 30
0.0
 11
1.924212598425197
 21
4.443897637795275
 31
0.0
  0
LINE
  5
3C45
330
1E
100
AcDbEntity
  8
7
100
AcDbLine
 10
1.709645669291338
 20
4.445866141732282
 30
0.0
 11
1.709645669291338
 21
4.443897637795275
 31
0.0
  0
LINE
  5
3C46
330
1E
100
AcDbEntity
  8
7
100
AcDbLine
 10
1.709645669291338
 20
4.443897637795275
 30
0.0
 11
1.924212598425197
 21
4.443897637795275
 31
0.0
  0
LINE
  5
3C47
330
1E
100
AcDbEntity
  8
7
100
AcDbLine
 10
1.924212598425197
 20
4.443897637795275
 30
0.0
 11
1.924212598425197
 21
4.445866141732282
 31
0.0
  0
LINE
  5
3C48
330
1E
100
AcDbEntity
  8
7
100
AcDbLine
 10
1.924212598425197
 20
4.455708661417323
 30
0.0
 11
1.709645669291338
 21
4.455708661417323
 31
0.0
  0
LINE
  5
3C49
330
1E
100
AcDbEntity
  8
7
100
AcDbLine
 10
1.709645669291338
 20
4.455708661417323
 30
0.0
 11
1.709645669291338
 21
4.447834645669291
 31
0.0
  0
LINE
  5
3C4A
330
1E
100
AcDbEntity
  8
7
100
AcDbLine
 10
1.709645669291338
 20
4.447834645669291
 30
0.0
 11
1.924212598425197
 21
4.447834645669291
 31
0.0
  0
LINE
  5
3C4B
330
1E
100
AcDbEntity
  8
7
100
AcDbLine
 10
1.924212598425197
 20
4.447834645669291
 30
0.0
 11
1.924212598425197
 21
4.455708661417323
 31
0.0
  0
LINE
  5
3C4C
330
1E
100
AcDbEntity
  8
7
100
AcDbLine
 10
1.711614173228347
 20
4.471456692913386
 30
0.0
 11
1.922244094488188
 21
4.471456692913386
 31
0.0
  0
LINE
  5
3C4D
330
1E
100
AcDbEntity
  8
7
100
AcDbLine
 10
1.922244094488188
 20
4.471456692913386
 30
0.0
 11
1.924212598425197
 21
4.455708661417323
 31
0.0
  0
LINE
  5
3C4E
330
1E
100
AcDbEntity
  8
7
100
AcDbLine
 10
2.888779527559055
 20
4.256889763779526
 30
0.0
 11
2.888779527559055
 21
4.239173228346456
 31
0.0
  0
LINE
  5
3C4F
330
1E
100
AcDbEntity
  8
7
100
AcDbLine
 10
2.888779527559055
 20
4.239173228346456
 30
0.0
 11
2.906496062992125
 21
4.239173228346456
 31
0.0
  0
LINE
  5
3C50
330
1E
100
AcDbEntity
  8
7
100
AcDbLine
 10
2.565944881889763
 20
4.256889763779526
 30
0.0
 11
2.552165354330709
 21
4.274606299212597
 31
0.0
  0
LINE
  5
3C51
330
1E
100
AcDbEntity
  8
7
100
AcDbLine
 10
2.552165354330709
 20
4.274606299212597
 30
0.0
 11
2.530511811023622
 21
4.282480314960628
 31
0.0
  0
LINE
  5
3C52
330
1E
100
AcDbEntity
  8
7
100
AcDbLine
 10
2.638779527559055
 20
4.17027559055118
 30
0.0
 11
2.638779527559055
 21
4.20767716535433
 31
0.0
  0
LINE
  5
3C53
330
1E
100
AcDbEntity
  8
7
100
AcDbLine
 10
2.638779527559055
 20
4.20767716535433
 30
0.0
 11
2.654527559055118
 21
4.17027559055118
 31
0.0
  0
LINE
  5
3C54
330
1E
100
AcDbEntity
  8
7
100
AcDbLine
 10
2.556102362204724
 20
4.17027559055118
 30
0.0
 11
2.562007874015748
 21
4.182086614173228
 31
0.0
  0
LINE
  5
3C55
330
1E
100
AcDbEntity
  8
7
100
AcDbLine
 10
2.562007874015748
 20
4.182086614173228
 30
0.0
 11
2.595472440944882
 21
4.182086614173228
 31
0.0
  0
LINE
  5
3C56
330
1E
100
AcDbEntity
  8
7
100
AcDbLine
 10
2.595472440944882
 20
4.182086614173228
 30
0.0
 11
2.601377952755905
 21
4.17027559055118
 31
0.0
  0
LINE
  5
3C57
330
1E
100
AcDbEntity
  8
7
100
AcDbLine
 10
2.530511811023622
 20
4.20767716535433
 30
0.0
 11
2.538385826771653
 21
4.20767716535433
 31
0.0
  0
LINE
  5
3C58
330
1E
100
AcDbEntity
  8
7
100
AcDbLine
 10
2.538385826771653
 20
4.20767716535433
 30
0.0
 11
2.546259842519685
 21
4.211614173228345
 31
0.0
  0
LINE
  5
3C59
330
1E
100
AcDbEntity
  8
7
100
AcDbLine
 10
2.758858267716536
 20
4.241141732283463
 30
0.0
 11
2.75492125984252
 21
4.250984251968502
 31
0.0
  0
LINE
  5
3C5A
330
1E
100
AcDbEntity
  8
7
100
AcDbLine
 10
2.75492125984252
 20
4.250984251968502
 30
0.0
 11
2.74507874015748
 21
4.254921259842519
 31
0.0
  0
LINE
  5
3C5B
330
1E
100
AcDbEntity
  8
7
100
AcDbLine
 10
2.74507874015748
 20
4.172244094488188
 30
0.0
 11
2.75492125984252
 21
4.176181102362204
 31
0.0
  0
LINE
  5
3C5C
330
1E
100
AcDbEntity
  8
7
100
AcDbLine
 10
2.75492125984252
 20
4.176181102362204
 30
0.0
 11
2.758858267716536
 21
4.186023622047243
 31
0.0
  0
LINE
  5
3C5D
330
1E
100
AcDbEntity
  8
7
100
AcDbLine
 10
2.804133858267716
 20
4.193897637795275
 30
0.0
 11
2.806102362204724
 21
4.191929133858267
 31
0.0
  0
LINE
  5
3C5E
330
1E
100
AcDbEntity
  8
7
100
AcDbLine
 10
2.806102362204724
 20
4.191929133858267
 30
0.0
 11
2.808070866141732
 21
4.18996062992126
 31
0.0
  0
LINE
  5
3C5F
330
1E
100
AcDbEntity
  8
7
100
AcDbLine
 10
2.813976377952756
 20
4.18996062992126
 30
0.0
 11
2.815944881889763
 21
4.191929133858267
 31
0.0
  0
LINE
  5
3C60
330
1E
100
AcDbEntity
  8
7
100
AcDbLine
 10
2.815944881889763
 20
4.191929133858267
 30
0.0
 11
2.817913385826772
 21
4.193897637795275
 31
0.0
  0
LINE
  5
3C61
330
1E
100
AcDbEntity
  8
7
100
AcDbLine
 10
2.821850393700787
 20
4.172244094488188
 30
0.0
 11
2.831692913385826
 21
4.176181102362204
 31
0.0
  0
LINE
  5
3C62
330
1E
100
AcDbEntity
  8
7
100
AcDbLine
 10
2.831692913385826
 20
4.176181102362204
 30
0.0
 11
2.835629921259842
 21
4.186023622047243
 31
0.0
  0
LINE
  5
3C63
330
1E
100
AcDbEntity
  8
7
100
AcDbLine
 10
1.904527559055118
 20
4.760826771653543
 30
0.0
 11
1.729330708661417
 21
4.760826771653543
 31
0.0
  0
LINE
  5
3C64
330
1E
100
AcDbEntity
  8
7
100
AcDbLine
 10
1.729330708661417
 20
4.760826771653543
 30
0.0
 11
1.729330708661417
 21
4.727362204724408
 31
0.0
  0
LINE
  5
3C65
330
1E
100
AcDbEntity
  8
7
100
AcDbLine
 10
2.514763779527559
 20
4.2253937007874
 30
0.0
 11
2.516732283464567
 21
4.227362204724408
 31
0.0
  0
LINE
  5
3C66
330
1E
100
AcDbEntity
  8
7
100
AcDbLine
 10
2.516732283464567
 20
4.227362204724408
 30
0.0
 11
2.518700787401574
 21
4.229330708661417
 31
0.0
  0
LINE
  5
3C67
330
1E
100
AcDbEntity
  8
7
100
AcDbLine
 10
2.518700787401574
 20
4.256889763779526
 30
0.0
 11
2.516732283464567
 21
4.258858267716534
 31
0.0
  0
LINE
  5
3C68
330
1E
100
AcDbEntity
  8
7
100
AcDbLine
 10
2.516732283464567
 20
4.258858267716534
 30
0.0
 11
2.514763779527559
 21
4.260826771653543
 31
0.0
  0
LINE
  5
3C69
330
1E
100
AcDbEntity
  8
7
100
AcDbLine
 10
2.735236220472441
 20
4.235236220472439
 30
0.0
 11
2.733267716535433
 21
4.237204724409449
 31
0.0
  0
LINE
  5
3C6A
330
1E
100
AcDbEntity
  8
7
100
AcDbLine
 10
2.733267716535433
 20
4.237204724409449
 30
0.0
 11
2.731299212598425
 21
4.239173228346456
 31
0.0
  0
LINE
  5
3C6B
330
1E
100
AcDbEntity
  8
7
100
AcDbLine
 10
2.731299212598425
 20
4.18996062992126
 30
0.0
 11
2.733267716535433
 21
4.191929133858267
 31
0.0
  0
LINE
  5
3C6C
330
1E
100
AcDbEntity
  8
7
100
AcDbLine
 10
2.733267716535433
 20
4.191929133858267
 30
0.0
 11
2.735236220472441
 21
4.193897637795275
 31
0.0
  0
LINE
  5
3C6D
330
1E
100
AcDbEntity
  8
7
100
AcDbLine
 10
1.904527559055118
 20
6.26279527559055
 30
0.0
 11
1.918307086614173
 21
6.26279527559055
 31
0.0
  0
LINE
  5
3C6E
330
1E
100
AcDbEntity
  8
7
100
AcDbLine
 10
1.918307086614173
 20
6.26279527559055
 30
0.0
 11
1.918307086614173
 21
6.264763779527558
 31
0.0
  0
LINE
  5
3C6F
330
1E
100
AcDbEntity
  8
7
100
AcDbLine
 10
1.904527559055118
 20
6.26279527559055
 30
0.0
 11
1.729330708661417
 21
6.26279527559055
 31
0.0
  0
LINE
  5
3C70
330
1E
100
AcDbEntity
  8
7
100
AcDbLine
 10
1.729330708661417
 20
6.26279527559055
 30
0.0
 11
1.729330708661417
 21
6.229330708661417
 31
0.0
  0
LINE
  5
3C71
330
1E
100
AcDbEntity
  8
7
100
AcDbLine
 10
2.302165354330709
 20
4.780511811023621
 30
0.0
 11
2.33759842519685
 21
4.790354330708662
 31
0.0
  0
LINE
  5
3C72
330
1E
100
AcDbEntity
  8
7
100
AcDbLine
 10
2.33759842519685
 20
4.790354330708662
 30
0.0
 11
2.363188976377952
 21
4.806102362204724
 31
0.0
  0
LINE
  5
3C73
330
1E
100
AcDbEntity
  8
7
100
AcDbLine
 10
2.363188976377952
 20
4.806102362204724
 30
0.0
 11
2.373031496062992
 21
4.823818897637795
 31
0.0
  0
LINE
  5
3C74
330
1E
100
AcDbEntity
  8
7
100
AcDbLine
 10
0.6978346456692917
 20
4.780511811023621
 30
0.0
 11
0.7017716535433074
 21
4.792322834645669
 31
0.0
  0
LINE
  5
3C75
330
1E
100
AcDbEntity
  8
7
100
AcDbLine
 10
0.7017716535433074
 20
4.792322834645669
 30
0.0
 11
0.715551181102363
 21
4.796259842519684
 31
0.0
  0
LINE
  5
3C76
330
1E
100
AcDbEntity
  8
7
100
AcDbLine
 10
0.6978346456692917
 20
4.780511811023621
 30
0.0
 11
0.6604330708661417
 21
4.790354330708662
 31
0.0
  0
LINE
  5
3C77
330
1E
100
AcDbEntity
  8
7
100
AcDbLine
 10
0.6604330708661417
 20
4.790354330708662
 30
0.0
 11
0.6348425196850398
 21
4.806102362204724
 31
0.0
  0
LINE
  5
3C78
330
1E
100
AcDbEntity
  8
7
100
AcDbLine
 10
0.6348425196850398
 20
4.806102362204724
 30
0.0
 11
0.625
 21
4.823818897637795
 31
0.0
  0
LINE
  5
3C79
330
1E
100
AcDbEntity
  8
7
100
AcDbLine
 10
2.28248031496063
 20
4.876968503937008
 30
0.0
 11
2.28248031496063
 21
4.83759842519685
 31
0.0
  0
LINE
  5
3C7A
330
1E
100
AcDbEntity
  8
7
100
AcDbLine
 10
2.28248031496063
 20
4.83759842519685
 30
0.0
 11
2.28248031496063
 21
4.796259842519684
 31
0.0
  0
LINE
  5
3C7B
330
1E
100
AcDbEntity
  8
7
100
AcDbLine
 10
0.715551181102363
 20
4.876968503937008
 30
0.0
 11
0.715551181102363
 21
4.83759842519685
 31
0.0
  0
LINE
  5
3C7C
330
1E
100
AcDbEntity
  8
7
100
AcDbLine
 10
0.715551181102363
 20
4.83759842519685
 30
0.0
 11
0.715551181102363
 21
4.796259842519684
 31
0.0
  0
LINE
  5
3C7D
330
1E
100
AcDbEntity
  8
7
100
AcDbLine
 10
1.711614173228347
 20
5.908464566929134
 30
0.0
 11
1.709645669291338
 21
5.888779527559054
 31
0.0
  0
LINE
  5
3C7E
330
1E
100
AcDbEntity
  8
7
100
AcDbLine
 10
1.709645669291338
 20
5.888779527559054
 30
0.0
 11
1.924212598425197
 21
5.888779527559054
 31
0.0
  0
LINE
  5
3C7F
330
1E
100
AcDbEntity
  8
7
100
AcDbLine
 10
1.709645669291338
 20
5.924212598425197
 30
0.0
 11
1.924212598425197
 21
5.924212598425197
 31
0.0
  0
LINE
  5
3C80
330
1E
100
AcDbEntity
  8
7
100
AcDbLine
 10
1.924212598425197
 20
5.924212598425197
 30
0.0
 11
1.924212598425197
 21
5.945866141732282
 31
0.0
  0
LINE
  5
3C81
330
1E
100
AcDbEntity
  8
7
100
AcDbLine
 10
1.709645669291338
 20
5.947834645669291
 30
0.0
 11
1.709645669291338
 21
5.945866141732282
 31
0.0
  0
LINE
  5
3C82
330
1E
100
AcDbEntity
  8
7
100
AcDbLine
 10
1.709645669291338
 20
5.945866141732282
 30
0.0
 11
1.924212598425197
 21
5.945866141732282
 31
0.0
  0
LINE
  5
3C83
330
1E
100
AcDbEntity
  8
7
100
AcDbLine
 10
1.924212598425197
 20
5.945866141732282
 30
0.0
 11
1.924212598425197
 21
5.947834645669291
 31
0.0
  0
LINE
  5
3C84
330
1E
100
AcDbEntity
  8
7
100
AcDbLine
 10
1.924212598425197
 20
5.95767716535433
 30
0.0
 11
1.709645669291338
 21
5.95767716535433
 31
0.0
  0
LINE
  5
3C85
330
1E
100
AcDbEntity
  8
7
100
AcDbLine
 10
1.709645669291338
 20
5.95767716535433
 30
0.0
 11
1.709645669291338
 21
5.949803149606299
 31
0.0
  0
LINE
  5
3C86
330
1E
100
AcDbEntity
  8
7
100
AcDbLine
 10
1.709645669291338
 20
5.949803149606299
 30
0.0
 11
1.924212598425197
 21
5.949803149606299
 31
0.0
  0
LINE
  5
3C87
330
1E
100
AcDbEntity
  8
7
100
AcDbLine
 10
1.924212598425197
 20
5.949803149606299
 30
0.0
 11
1.924212598425197
 21
5.95767716535433
 31
0.0
  0
LINE
  5
3C88
330
1E
100
AcDbEntity
  8
7
100
AcDbLine
 10
1.711614173228347
 20
5.973425196850393
 30
0.0
 11
1.922244094488188
 21
5.973425196850393
 31
0.0
  0
LINE
  5
3C89
330
1E
100
AcDbEntity
  8
7
100
AcDbLine
 10
1.922244094488188
 20
5.973425196850393
 30
0.0
 11
1.924212598425197
 21
5.95767716535433
 31
0.0
  0
LINE
  5
3C8A
330
1E
100
AcDbEntity
  8
7
100
AcDbLine
 10
1.426181102362204
 20
5.713582677165354
 30
0.0
 11
1.426181102362204
 21
5.668307086614173
 31
0.0
  0
LINE
  5
3C8B
330
1E
100
AcDbEntity
  8
7
100
AcDbLine
 10
1.426181102362204
 20
5.668307086614173
 30
0.0
 11
1.571850393700787
 21
5.668307086614173
 31
0.0
  0
LINE
  5
3C8C
330
1E
100
AcDbEntity
  8
7
100
AcDbLine
 10
1.075787401574803
 20
5.924212598425197
 30
0.0
 11
1.075787401574803
 21
5.908464566929134
 31
0.0
  0
LINE
  5
3C8D
330
1E
100
AcDbEntity
  8
7
100
AcDbLine
 10
1.075787401574803
 20
5.908464566929134
 30
0.0
 11
1.288385826771653
 21
5.908464566929134
 31
0.0
  0
LINE
  5
3C8E
330
1E
100
AcDbEntity
  8
7
100
AcDbLine
 10
1.288385826771653
 20
5.908464566929134
 30
0.0
 11
1.288385826771653
 21
5.888779527559054
 31
0.0
  0
LINE
  5
3C8F
330
1E
100
AcDbEntity
  8
7
100
AcDbLine
 10
1.073818897637795
 20
5.949803149606299
 30
0.0
 11
1.073818897637795
 21
5.947834645669291
 31
0.0
  0
LINE
  5
3C90
330
1E
100
AcDbEntity
  8
7
100
AcDbLine
 10
1.073818897637795
 20
5.947834645669291
 30
0.0
 11
1.290354330708662
 21
5.947834645669291
 31
0.0
  0
LINE
  5
3C91
330
1E
100
AcDbEntity
  8
7
100
AcDbLine
 10
1.290354330708662
 20
5.947834645669291
 30
0.0
 11
1.290354330708662
 21
5.945866141732282
 31
0.0
  0
LINE
  5
3C92
330
1E
100
AcDbEntity
  8
7
100
AcDbLine
 10
1.288385826771653
 20
5.973425196850393
 30
0.0
 11
1.290354330708662
 21
5.95767716535433
 31
0.0
  0
LINE
  5
3C93
330
1E
100
AcDbEntity
  8
7
100
AcDbLine
 10
1.290354330708662
 20
5.95767716535433
 30
0.0
 11
1.290354330708662
 21
5.949803149606299
 31
0.0
  0
LINE
  5
3C94
330
1E
100
AcDbEntity
  8
7
100
AcDbLine
 10
1.288385826771653
 20
5.973425196850393
 30
0.0
 11
1.075787401574803
 21
5.973425196850393
 31
0.0
  0
LINE
  5
3C95
330
1E
100
AcDbEntity
  8
7
100
AcDbLine
 10
1.075787401574803
 20
5.973425196850393
 30
0.0
 11
1.073818897637795
 21
5.95767716535433
 31
0.0
  0
LINE
  5
3C96
330
1E
100
AcDbEntity
  8
7
100
AcDbLine
 10
1.073818897637795
 20
5.95767716535433
 30
0.0
 11
1.290354330708662
 21
5.95767716535433
 31
0.0
  0
LINE
  5
3C97
330
1E
100
AcDbEntity
  8
7
100
AcDbLine
 10
2.548228346456693
 20
5.516732283464565
 30
0.0
 11
2.556102362204724
 21
5.469488188976376
 31
0.0
  0
LINE
  5
3C98
330
1E
100
AcDbEntity
  8
7
100
AcDbLine
 10
2.556102362204724
 20
5.469488188976376
 30
0.0
 11
2.581692913385826
 21
5.426181102362204
 31
0.0
  0
LINE
  5
3C99
330
1E
100
AcDbEntity
  8
7
100
AcDbLine
 10
2.581692913385826
 20
5.426181102362204
 30
0.0
 11
2.617125984251968
 21
5.396653543307086
 31
0.0
  0
LINE
  5
3C9A
330
1E
100
AcDbEntity
  8
7
100
AcDbLine
 10
2.617125984251968
 20
5.396653543307086
 30
0.0
 11
2.664370078740157
 21
5.378937007874015
 31
0.0
  0
LINE
  5
3C9B
330
1E
100
AcDbEntity
  8
7
100
AcDbLine
 10
2.664370078740157
 20
5.378937007874015
 30
0.0
 11
2.711614173228346
 21
5.378937007874015
 31
0.0
  0
LINE
  5
3C9C
330
1E
100
AcDbEntity
  8
7
100
AcDbLine
 10
2.711614173228346
 20
5.378937007874015
 30
0.0
 11
2.756889763779527
 21
5.396653543307086
 31
0.0
  0
LINE
  5
3C9D
330
1E
100
AcDbEntity
  8
7
100
AcDbLine
 10
2.756889763779527
 20
5.396653543307086
 30
0.0
 11
2.794291338582677
 21
5.426181102362204
 31
0.0
  0
LINE
  5
3C9E
330
1E
100
AcDbEntity
  8
7
100
AcDbLine
 10
2.794291338582677
 20
5.426181102362204
 30
0.0
 11
2.819881889763779
 21
5.469488188976376
 31
0.0
  0
LINE
  5
3C9F
330
1E
100
AcDbEntity
  8
7
100
AcDbLine
 10
2.819881889763779
 20
5.469488188976376
 30
0.0
 11
2.827755905511811
 21
5.516732283464565
 31
0.0
  0
LINE
  5
3CA0
330
1E
100
AcDbEntity
  8
7
100
AcDbLine
 10
2.827755905511811
 20
5.516732283464565
 30
0.0
 11
2.819881889763779
 21
5.563976377952756
 31
0.0
  0
LINE
  5
3CA1
330
1E
100
AcDbEntity
  8
7
100
AcDbLine
 10
2.819881889763779
 20
5.563976377952756
 30
0.0
 11
2.794291338582677
 21
5.607283464566928
 31
0.0
  0
LINE
  5
3CA2
330
1E
100
AcDbEntity
  8
7
100
AcDbLine
 10
2.794291338582677
 20
5.607283464566928
 30
0.0
 11
2.758858267716536
 21
5.636811023622047
 31
0.0
  0
LINE
  5
3CA3
330
1E
100
AcDbEntity
  8
7
100
AcDbLine
 10
2.758858267716536
 20
5.636811023622047
 30
0.0
 11
2.711614173228346
 21
5.654527559055117
 31
0.0
  0
LINE
  5
3CA4
330
1E
100
AcDbEntity
  8
7
100
AcDbLine
 10
2.711614173228346
 20
5.654527559055117
 30
0.0
 11
2.664370078740157
 21
5.654527559055117
 31
0.0
  0
LINE
  5
3CA5
330
1E
100
AcDbEntity
  8
7
100
AcDbLine
 10
2.664370078740157
 20
5.654527559055117
 30
0.0
 11
2.619094488188976
 21
5.636811023622047
 31
0.0
  0
LINE
  5
3CA6
330
1E
100
AcDbEntity
  8
7
100
AcDbLine
 10
2.619094488188976
 20
5.636811023622047
 30
0.0
 11
2.581692913385826
 21
5.607283464566928
 31
0.0
  0
LINE
  5
3CA7
330
1E
100
AcDbEntity
  8
7
100
AcDbLine
 10
2.581692913385826
 20
5.607283464566928
 30
0.0
 11
2.556102362204724
 21
5.563976377952756
 31
0.0
  0
LINE
  5
3CA8
330
1E
100
AcDbEntity
  8
7
100
AcDbLine
 10
2.556102362204724
 20
5.563976377952756
 30
0.0
 11
2.548228346456693
 21
5.516732283464565
 31
0.0
  0
LINE
  5
3CA9
330
1E
100
AcDbEntity
  8
7
100
AcDbLine
 10
2.599409448818898
 20
5.597440944881889
 30
0.0
 11
2.575787401574803
 21
5.560039370078739
 31
0.0
  0
LINE
  5
3CAA
330
1E
100
AcDbEntity
  8
7
100
AcDbLine
 10
2.575787401574803
 20
5.560039370078739
 30
0.0
 11
2.567913385826772
 21
5.516732283464565
 31
0.0
  0
LINE
  5
3CAB
330
1E
100
AcDbEntity
  8
7
100
AcDbLine
 10
2.567913385826772
 20
5.516732283464565
 30
0.0
 11
2.575787401574803
 21
5.473425196850393
 31
0.0
  0
LINE
  5
3CAC
330
1E
100
AcDbEntity
  8
7
100
AcDbLine
 10
2.575787401574803
 20
5.473425196850393
 30
0.0
 11
2.599409448818898
 21
5.436023622047243
 31
0.0
  0
LINE
  5
3CAD
330
1E
100
AcDbEntity
  8
7
100
AcDbLine
 10
2.599409448818898
 20
5.436023622047243
 30
0.0
 11
2.634842519685039
 21
5.408464566929134
 31
0.0
  0
LINE
  5
3CAE
330
1E
100
AcDbEntity
  8
7
100
AcDbLine
 10
2.634842519685039
 20
5.408464566929134
 30
0.0
 11
2.676181102362204
 21
5.396653543307086
 31
0.0
  0
LINE
  5
3CAF
330
1E
100
AcDbEntity
  8
7
100
AcDbLine
 10
2.676181102362204
 20
5.396653543307086
 30
0.0
 11
2.721456692913386
 21
5.400590551181102
 31
0.0
  0
LINE
  5
3CB0
330
1E
100
AcDbEntity
  8
7
100
AcDbLine
 10
2.721456692913386
 20
5.400590551181102
 30
0.0
 11
2.760826771653543
 21
5.42027559055118
 31
0.0
  0
LINE
  5
3CB1
330
1E
100
AcDbEntity
  8
7
100
AcDbLine
 10
2.760826771653543
 20
5.42027559055118
 30
0.0
 11
2.790354330708662
 21
5.453740157480313
 31
0.0
  0
LINE
  5
3CB2
330
1E
100
AcDbEntity
  8
7
100
AcDbLine
 10
2.790354330708662
 20
5.453740157480313
 30
0.0
 11
2.806102362204724
 21
5.49507874015748
 31
0.0
  0
LINE
  5
3CB3
330
1E
100
AcDbEntity
  8
7
100
AcDbLine
 10
2.806102362204724
 20
5.49507874015748
 30
0.0
 11
2.806102362204724
 21
5.538385826771652
 31
0.0
  0
LINE
  5
3CB4
330
1E
100
AcDbEntity
  8
7
100
AcDbLine
 10
2.806102362204724
 20
5.538385826771652
 30
0.0
 11
2.790354330708662
 21
5.579724409448819
 31
0.0
  0
LINE
  5
3CB5
330
1E
100
AcDbEntity
  8
7
100
AcDbLine
 10
2.790354330708662
 20
5.579724409448819
 30
0.0
 11
2.760826771653543
 21
5.613188976377952
 31
0.0
  0
LINE
  5
3CB6
330
1E
100
AcDbEntity
  8
7
100
AcDbLine
 10
2.760826771653543
 20
5.613188976377952
 30
0.0
 11
2.721456692913386
 21
5.63287401574803
 31
0.0
  0
LINE
  5
3CB7
330
1E
100
AcDbEntity
  8
7
100
AcDbLine
 10
2.721456692913386
 20
5.63287401574803
 30
0.0
 11
2.676181102362204
 21
5.636811023622047
 31
0.0
  0
LINE
  5
3CB8
330
1E
100
AcDbEntity
  8
7
100
AcDbLine
 10
2.676181102362204
 20
5.636811023622047
 30
0.0
 11
2.634842519685039
 21
5.624999999999999
 31
0.0
  0
LINE
  5
3CB9
330
1E
100
AcDbEntity
  8
7
100
AcDbLine
 10
2.634842519685039
 20
5.624999999999999
 30
0.0
 11
2.599409448818898
 21
5.597440944881889
 31
0.0
  0
LINE
  5
3CBA
330
1E
100
AcDbEntity
  8
7
100
AcDbLine
 10
2.617125984251968
 20
5.483267716535432
 30
0.0
 11
2.638779527559055
 21
5.455708661417323
 31
0.0
  0
LINE
  5
3CBB
330
1E
100
AcDbEntity
  8
7
100
AcDbLine
 10
2.638779527559055
 20
5.455708661417323
 30
0.0
 11
2.670275590551181
 21
5.43996062992126
 31
0.0
  0
LINE
  5
3CBC
330
1E
100
AcDbEntity
  8
7
100
AcDbLine
 10
2.670275590551181
 20
5.43996062992126
 30
0.0
 11
2.705708661417323
 21
5.43996062992126
 31
0.0
  0
LINE
  5
3CBD
330
1E
100
AcDbEntity
  8
7
100
AcDbLine
 10
2.705708661417323
 20
5.43996062992126
 30
0.0
 11
2.737204724409449
 21
5.455708661417323
 31
0.0
  0
LINE
  5
3CBE
330
1E
100
AcDbEntity
  8
7
100
AcDbLine
 10
2.737204724409449
 20
5.455708661417323
 30
0.0
 11
2.758858267716536
 21
5.483267716535432
 31
0.0
  0
LINE
  5
3CBF
330
1E
100
AcDbEntity
  8
7
100
AcDbLine
 10
2.758858267716536
 20
5.483267716535432
 30
0.0
 11
2.766732283464567
 21
5.516732283464565
 31
0.0
  0
LINE
  5
3CC0
330
1E
100
AcDbEntity
  8
7
100
AcDbLine
 10
2.766732283464567
 20
5.516732283464565
 30
0.0
 11
2.758858267716536
 21
5.5501968503937
 31
0.0
  0
LINE
  5
3CC1
330
1E
100
AcDbEntity
  8
7
100
AcDbLine
 10
2.758858267716536
 20
5.5501968503937
 30
0.0
 11
2.737204724409449
 21
5.57775590551181
 31
0.0
  0
LINE
  5
3CC2
330
1E
100
AcDbEntity
  8
7
100
AcDbLine
 10
2.737204724409449
 20
5.57775590551181
 30
0.0
 11
2.705708661417323
 21
5.593503937007873
 31
0.0
  0
LINE
  5
3CC3
330
1E
100
AcDbEntity
  8
7
100
AcDbLine
 10
2.705708661417323
 20
5.593503937007873
 30
0.0
 11
2.670275590551181
 21
5.593503937007873
 31
0.0
  0
LINE
  5
3CC4
330
1E
100
AcDbEntity
  8
7
100
AcDbLine
 10
2.670275590551181
 20
5.593503937007873
 30
0.0
 11
2.638779527559055
 21
5.57775590551181
 31
0.0
  0
LINE
  5
3CC5
330
1E
100
AcDbEntity
  8
7
100
AcDbLine
 10
2.638779527559055
 20
5.57775590551181
 30
0.0
 11
2.617125984251968
 21
5.5501968503937
 31
0.0
  0
LINE
  5
3CC6
330
1E
100
AcDbEntity
  8
7
100
AcDbLine
 10
2.617125984251968
 20
5.5501968503937
 30
0.0
 11
2.609251968503937
 21
5.516732283464565
 31
0.0
  0
LINE
  5
3CC7
330
1E
100
AcDbEntity
  8
7
100
AcDbLine
 10
2.619094488188976
 20
5.479330708661417
 30
0.0
 11
2.642716535433071
 21
5.451771653543306
 31
0.0
  0
LINE
  5
3CC8
330
1E
100
AcDbEntity
  8
7
100
AcDbLine
 10
2.642716535433071
 20
5.451771653543306
 30
0.0
 11
2.678149606299212
 21
5.43799212598425
 31
0.0
  0
LINE
  5
3CC9
330
1E
100
AcDbEntity
  8
7
100
AcDbLine
 10
2.678149606299212
 20
5.43799212598425
 30
0.0
 11
2.715551181102362
 21
5.443897637795275
 31
0.0
  0
LINE
  5
3CCA
330
1E
100
AcDbEntity
  8
7
100
AcDbLine
 10
2.715551181102362
 20
5.443897637795275
 30
0.0
 11
2.747047244094488
 21
5.463582677165354
 31
0.0
  0
LINE
  5
3CCB
330
1E
100
AcDbEntity
  8
7
100
AcDbLine
 10
2.747047244094488
 20
5.463582677165354
 30
0.0
 11
2.764763779527559
 21
5.497047244094487
 31
0.0
  0
LINE
  5
3CCC
330
1E
100
AcDbEntity
  8
7
100
AcDbLine
 10
2.764763779527559
 20
5.497047244094487
 30
0.0
 11
2.764763779527559
 21
5.536417322834645
 31
0.0
  0
LINE
  5
3CCD
330
1E
100
AcDbEntity
  8
7
100
AcDbLine
 10
2.764763779527559
 20
5.536417322834645
 30
0.0
 11
2.747047244094488
 21
5.569881889763778
 31
0.0
  0
LINE
  5
3CCE
330
1E
100
AcDbEntity
  8
7
100
AcDbLine
 10
2.747047244094488
 20
5.569881889763778
 30
0.0
 11
2.715551181102362
 21
5.589566929133858
 31
0.0
  0
LINE
  5
3CCF
330
1E
100
AcDbEntity
  8
7
100
AcDbLine
 10
2.715551181102362
 20
5.589566929133858
 30
0.0
 11
2.678149606299212
 21
5.595472440944882
 31
0.0
  0
LINE
  5
3CD0
330
1E
100
AcDbEntity
  8
7
100
AcDbLine
 10
2.678149606299212
 20
5.595472440944882
 30
0.0
 11
2.642716535433071
 21
5.581692913385826
 31
0.0
  0
LINE
  5
3CD1
330
1E
100
AcDbEntity
  8
7
100
AcDbLine
 10
2.642716535433071
 20
5.581692913385826
 30
0.0
 11
2.619094488188976
 21
5.554133858267715
 31
0.0
  0
LINE
  5
3CD2
330
1E
100
AcDbEntity
  8
7
100
AcDbLine
 10
2.619094488188976
 20
5.554133858267715
 30
0.0
 11
2.609251968503937
 21
5.516732283464565
 31
0.0
  0
LINE
  5
3CD3
330
1E
100
AcDbEntity
  8
7
100
AcDbLine
 10
2.648622047244094
 20
5.376968503937008
 30
0.0
 11
2.613188976377952
 21
5.394685039370078
 31
0.0
  0
LINE
  5
3CD4
330
1E
100
AcDbEntity
  8
7
100
AcDbLine
 10
2.613188976377952
 20
5.394685039370078
 30
0.0
 11
2.613188976377952
 21
5.325787401574802
 31
0.0
  0
LINE
  5
3CD5
330
1E
100
AcDbEntity
  8
7
100
AcDbLine
 10
2.762795275590551
 20
5.394685039370078
 30
0.0
 11
2.72736220472441
 21
5.376968503937008
 31
0.0
  0
LINE
  5
3CD6
330
1E
100
AcDbEntity
  8
7
100
AcDbLine
 10
2.72736220472441
 20
5.376968503937008
 30
0.0
 11
2.687992125984251
 21
5.373031496062991
 31
0.0
  0
LINE
  5
3CD7
330
1E
100
AcDbEntity
  8
7
100
AcDbLine
 10
2.687992125984251
 20
5.373031496062991
 30
0.0
 11
2.648622047244094
 21
5.376968503937008
 31
0.0
  0
LINE
  5
3CD8
330
1E
100
AcDbEntity
  8
7
100
AcDbLine
 10
2.554133858267716
 20
5.567913385826771
 30
0.0
 11
2.544291338582677
 21
5.518700787401574
 31
0.0
  0
LINE
  5
3CD9
330
1E
100
AcDbEntity
  8
7
100
AcDbLine
 10
2.544291338582677
 20
5.518700787401574
 30
0.0
 11
2.552165354330709
 21
5.471456692913386
 31
0.0
  0
LINE
  5
3CDA
330
1E
100
AcDbEntity
  8
7
100
AcDbLine
 10
2.552165354330709
 20
5.471456692913386
 30
0.0
 11
2.575787401574803
 21
5.428149606299212
 31
0.0
  0
LINE
  5
3CDB
330
1E
100
AcDbEntity
  8
7
100
AcDbLine
 10
2.575787401574803
 20
5.428149606299212
 30
0.0
 11
2.613188976377952
 21
5.394685039370078
 31
0.0
  0
LINE
  5
3CDC
330
1E
100
AcDbEntity
  8
7
100
AcDbLine
 10
2.762795275590551
 20
5.394685039370078
 30
0.0
 11
2.8001968503937
 21
5.428149606299212
 31
0.0
  0
LINE
  5
3CDD
330
1E
100
AcDbEntity
  8
7
100
AcDbLine
 10
2.8001968503937
 20
5.428149606299212
 30
0.0
 11
2.823818897637795
 21
5.471456692913386
 31
0.0
  0
LINE
  5
3CDE
330
1E
100
AcDbEntity
  8
7
100
AcDbLine
 10
2.823818897637795
 20
5.471456692913386
 30
0.0
 11
2.831692913385826
 21
5.518700787401574
 31
0.0
  0
LINE
  5
3CDF
330
1E
100
AcDbEntity
  8
7
100
AcDbLine
 10
2.831692913385826
 20
5.518700787401574
 30
0.0
 11
2.821850393700787
 21
5.567913385826771
 31
0.0
  0
LINE
  5
3CE0
330
1E
100
AcDbEntity
  8
7
100
AcDbLine
 10
2.821850393700787
 20
5.567913385826771
 30
0.0
 11
2.796259842519685
 21
5.609251968503936
 31
0.0
  0
LINE
  5
3CE1
330
1E
100
AcDbEntity
  8
7
100
AcDbLine
 10
2.796259842519685
 20
5.609251968503936
 30
0.0
 11
2.758858267716536
 21
5.640748031496062
 31
0.0
  0
LINE
  5
3CE2
330
1E
100
AcDbEntity
  8
7
100
AcDbLine
 10
2.758858267716536
 20
5.640748031496062
 30
0.0
 11
2.713582677165354
 21
5.658464566929134
 31
0.0
  0
LINE
  5
3CE3
330
1E
100
AcDbEntity
  8
7
100
AcDbLine
 10
2.713582677165354
 20
5.658464566929134
 30
0.0
 11
2.662401574803149
 21
5.658464566929134
 31
0.0
  0
LINE
  5
3CE4
330
1E
100
AcDbEntity
  8
7
100
AcDbLine
 10
2.662401574803149
 20
5.658464566929134
 30
0.0
 11
2.617125984251968
 21
5.640748031496062
 31
0.0
  0
LINE
  5
3CE5
330
1E
100
AcDbEntity
  8
7
100
AcDbLine
 10
2.617125984251968
 20
5.640748031496062
 30
0.0
 11
2.579724409448819
 21
5.609251968503936
 31
0.0
  0
LINE
  5
3CE6
330
1E
100
AcDbEntity
  8
7
100
AcDbLine
 10
2.579724409448819
 20
5.609251968503936
 30
0.0
 11
2.554133858267716
 21
5.567913385826771
 31
0.0
  0
LINE
  5
3CE7
330
1E
100
AcDbEntity
  8
7
100
AcDbLine
 10
2.823818897637795
 20
5.605314960629921
 30
0.0
 11
2.788385826771653
 21
5.644685039370078
 31
0.0
  0
LINE
  5
3CE8
330
1E
100
AcDbEntity
  8
7
100
AcDbLine
 10
2.788385826771653
 20
5.644685039370078
 30
0.0
 11
2.741141732283464
 21
5.67027559055118
 31
0.0
  0
LINE
  5
3CE9
330
1E
100
AcDbEntity
  8
7
100
AcDbLine
 10
2.741141732283464
 20
5.67027559055118
 30
0.0
 11
2.687992125984251
 21
5.678149606299212
 31
0.0
  0
LINE
  5
3CEA
330
1E
100
AcDbEntity
  8
7
100
AcDbLine
 10
2.687992125984251
 20
5.678149606299212
 30
0.0
 11
2.634842519685039
 21
5.67027559055118
 31
0.0
  0
LINE
  5
3CEB
330
1E
100
AcDbEntity
  8
7
100
AcDbLine
 10
2.634842519685039
 20
5.67027559055118
 30
0.0
 11
2.58759842519685
 21
5.644685039370078
 31
0.0
  0
LINE
  5
3CEC
330
1E
100
AcDbEntity
  8
7
100
AcDbLine
 10
2.58759842519685
 20
5.644685039370078
 30
0.0
 11
2.552165354330709
 21
5.605314960629921
 31
0.0
  0
LINE
  5
3CED
330
1E
100
AcDbEntity
  8
7
100
AcDbLine
 10
2.552165354330709
 20
5.605314960629921
 30
0.0
 11
2.530511811023622
 21
5.556102362204724
 31
0.0
  0
LINE
  5
3CEE
330
1E
100
AcDbEntity
  8
7
100
AcDbLine
 10
2.530511811023622
 20
5.556102362204724
 30
0.0
 11
2.526574803149606
 21
5.502952755905512
 31
0.0
  0
LINE
  5
3CEF
330
1E
100
AcDbEntity
  8
7
100
AcDbLine
 10
2.526574803149606
 20
5.502952755905512
 30
0.0
 11
2.540354330708662
 21
5.449803149606299
 31
0.0
  0
LINE
  5
3CF0
330
1E
100
AcDbEntity
  8
7
100
AcDbLine
 10
2.540354330708662
 20
5.449803149606299
 30
0.0
 11
2.569881889763779
 21
5.406496062992125
 31
0.0
  0
LINE
  5
3CF1
330
1E
100
AcDbEntity
  8
7
100
AcDbLine
 10
2.569881889763779
 20
5.406496062992125
 30
0.0
 11
2.613188976377952
 21
5.373031496062991
 31
0.0
  0
LINE
  5
3CF2
330
1E
100
AcDbEntity
  8
7
100
AcDbLine
 10
2.762795275590551
 20
5.373031496062991
 30
0.0
 11
2.806102362204724
 21
5.406496062992125
 31
0.0
  0
LINE
  5
3CF3
330
1E
100
AcDbEntity
  8
7
100
AcDbLine
 10
2.806102362204724
 20
5.406496062992125
 30
0.0
 11
2.835629921259842
 21
5.449803149606299
 31
0.0
  0
LINE
  5
3CF4
330
1E
100
AcDbEntity
  8
7
100
AcDbLine
 10
2.835629921259842
 20
5.449803149606299
 30
0.0
 11
2.849409448818898
 21
5.502952755905512
 31
0.0
  0
LINE
  5
3CF5
330
1E
100
AcDbEntity
  8
7
100
AcDbLine
 10
2.849409448818898
 20
5.502952755905512
 30
0.0
 11
2.845472440944882
 21
5.556102362204724
 31
0.0
  0
LINE
  5
3CF6
330
1E
100
AcDbEntity
  8
7
100
AcDbLine
 10
2.845472440944882
 20
5.556102362204724
 30
0.0
 11
2.823818897637795
 21
5.605314960629921
 31
0.0
  0
LINE
  5
3CF7
330
1E
100
AcDbEntity
  8
7
100
AcDbLine
 10
0.2332677165354333
 20
5.516732283464565
 30
0.0
 11
0.2411417322834648
 21
5.483267716535432
 31
0.0
  0
LINE
  5
3CF8
330
1E
100
AcDbEntity
  8
7
100
AcDbLine
 10
0.2411417322834648
 20
5.483267716535432
 30
0.0
 11
0.2627952755905509
 21
5.455708661417323
 31
0.0
  0
LINE
  5
3CF9
330
1E
100
AcDbEntity
  8
7
100
AcDbLine
 10
0.2627952755905509
 20
5.455708661417323
 30
0.0
 11
0.2942913385826769
 21
5.43996062992126
 31
0.0
  0
LINE
  5
3CFA
330
1E
100
AcDbEntity
  8
7
100
AcDbLine
 10
0.2942913385826769
 20
5.43996062992126
 30
0.0
 11
0.3297244094488194
 21
5.43996062992126
 31
0.0
  0
LINE
  5
3CFB
330
1E
100
AcDbEntity
  8
7
100
AcDbLine
 10
0.3297244094488194
 20
5.43996062992126
 30
0.0
 11
0.3612204724409453
 21
5.455708661417323
 31
0.0
  0
LINE
  5
3CFC
330
1E
100
AcDbEntity
  8
7
100
AcDbLine
 10
0.3612204724409453
 20
5.455708661417323
 30
0.0
 11
0.3828740157480315
 21
5.483267716535432
 31
0.0
  0
LINE
  5
3CFD
330
1E
100
AcDbEntity
  8
7
100
AcDbLine
 10
0.3828740157480315
 20
5.483267716535432
 30
0.0
 11
0.3907480314960629
 21
5.516732283464565
 31
0.0
  0
LINE
  5
3CFE
330
1E
100
AcDbEntity
  8
7
100
AcDbLine
 10
0.3907480314960629
 20
5.516732283464565
 30
0.0
 11
0.3828740157480315
 21
5.5501968503937
 31
0.0
  0
LINE
  5
3CFF
330
1E
100
AcDbEntity
  8
7
100
AcDbLine
 10
0.3828740157480315
 20
5.5501968503937
 30
0.0
 11
0.3612204724409453
 21
5.57775590551181
 31
0.0
  0
LINE
  5
3D00
330
1E
100
AcDbEntity
  8
7
100
AcDbLine
 10
0.3612204724409453
 20
5.57775590551181
 30
0.0
 11
0.3297244094488194
 21
5.593503937007873
 31
0.0
  0
LINE
  5
3D01
330
1E
100
AcDbEntity
  8
7
100
AcDbLine
 10
0.3297244094488194
 20
5.593503937007873
 30
0.0
 11
0.2942913385826769
 21
5.593503937007873
 31
0.0
  0
LINE
  5
3D02
330
1E
100
AcDbEntity
  8
7
100
AcDbLine
 10
0.2942913385826769
 20
5.593503937007873
 30
0.0
 11
0.2627952755905509
 21
5.57775590551181
 31
0.0
  0
LINE
  5
3D03
330
1E
100
AcDbEntity
  8
7
100
AcDbLine
 10
0.2627952755905509
 20
5.57775590551181
 30
0.0
 11
0.2411417322834648
 21
5.5501968503937
 31
0.0
  0
LINE
  5
3D04
330
1E
100
AcDbEntity
  8
7
100
AcDbLine
 10
0.2411417322834648
 20
5.5501968503937
 30
0.0
 11
0.2332677165354333
 21
5.516732283464565
 31
0.0
  0
LINE
  5
3D05
330
1E
100
AcDbEntity
  8
7
100
AcDbLine
 10
0.252952755905512
 20
5.463582677165354
 30
0.0
 11
0.2844488188976379
 21
5.443897637795275
 31
0.0
  0
LINE
  5
3D06
330
1E
100
AcDbEntity
  8
7
100
AcDbLine
 10
0.2844488188976379
 20
5.443897637795275
 30
0.0
 11
0.3218503937007879
 21
5.43799212598425
 31
0.0
  0
LINE
  5
3D07
330
1E
100
AcDbEntity
  8
7
100
AcDbLine
 10
0.3218503937007879
 20
5.43799212598425
 30
0.0
 11
0.3572834645669296
 21
5.451771653543306
 31
0.0
  0
LINE
  5
3D08
330
1E
100
AcDbEntity
  8
7
100
AcDbLine
 10
0.3572834645669296
 20
5.451771653543306
 30
0.0
 11
0.380905511811024
 21
5.479330708661417
 31
0.0
  0
LINE
  5
3D09
330
1E
100
AcDbEntity
  8
7
100
AcDbLine
 10
0.380905511811024
 20
5.479330708661417
 30
0.0
 11
0.3907480314960629
 21
5.516732283464565
 31
0.0
  0
LINE
  5
3D0A
330
1E
100
AcDbEntity
  8
7
100
AcDbLine
 10
0.3907480314960629
 20
5.516732283464565
 30
0.0
 11
0.380905511811024
 21
5.554133858267715
 31
0.0
  0
LINE
  5
3D0B
330
1E
100
AcDbEntity
  8
7
100
AcDbLine
 10
0.380905511811024
 20
5.554133858267715
 30
0.0
 11
0.3572834645669296
 21
5.581692913385826
 31
0.0
  0
LINE
  5
3D0C
330
1E
100
AcDbEntity
  8
7
100
AcDbLine
 10
0.3572834645669296
 20
5.581692913385826
 30
0.0
 11
0.3218503937007879
 21
5.595472440944882
 31
0.0
  0
LINE
  5
3D0D
330
1E
100
AcDbEntity
  8
7
100
AcDbLine
 10
0.3218503937007879
 20
5.595472440944882
 30
0.0
 11
0.2844488188976379
 21
5.589566929133858
 31
0.0
  0
LINE
  5
3D0E
330
1E
100
AcDbEntity
  8
7
100
AcDbLine
 10
0.2844488188976379
 20
5.589566929133858
 30
0.0
 11
0.252952755905512
 21
5.569881889763778
 31
0.0
  0
LINE
  5
3D0F
330
1E
100
AcDbEntity
  8
7
100
AcDbLine
 10
0.252952755905512
 20
5.569881889763778
 30
0.0
 11
0.2352362204724407
 21
5.536417322834645
 31
0.0
  0
LINE
  5
3D10
330
1E
100
AcDbEntity
  8
7
100
AcDbLine
 10
0.2352362204724407
 20
5.536417322834645
 30
0.0
 11
0.2352362204724407
 21
5.497047244094487
 31
0.0
  0
LINE
  5
3D11
330
1E
100
AcDbEntity
  8
7
100
AcDbLine
 10
0.2352362204724407
 20
5.497047244094487
 30
0.0
 11
0.252952755905512
 21
5.463582677165354
 31
0.0
  0
LINE
  5
3D12
330
1E
100
AcDbEntity
  8
7
100
AcDbLine
 10
0.3238188976377954
 20
5.396653543307086
 30
0.0
 11
0.3651574803149611
 21
5.408464566929134
 31
0.0
  0
LINE
  5
3D13
330
1E
100
AcDbEntity
  8
7
100
AcDbLine
 10
0.3651574803149611
 20
5.408464566929134
 30
0.0
 11
0.4005905511811028
 21
5.436023622047243
 31
0.0
  0
LINE
  5
3D14
330
1E
100
AcDbEntity
  8
7
100
AcDbLine
 10
0.4005905511811028
 20
5.436023622047243
 30
0.0
 11
0.4242125984251972
 21
5.473425196850393
 31
0.0
  0
LINE
  5
3D15
330
1E
100
AcDbEntity
  8
7
100
AcDbLine
 10
0.4242125984251972
 20
5.473425196850393
 30
0.0
 11
0.4320866141732287
 21
5.516732283464565
 31
0.0
  0
LINE
  5
3D16
330
1E
100
AcDbEntity
  8
7
100
AcDbLine
 10
0.4320866141732287
 20
5.516732283464565
 30
0.0
 11
0.4242125984251972
 21
5.560039370078739
 31
0.0
  0
LINE
  5
3D17
330
1E
100
AcDbEntity
  8
7
100
AcDbLine
 10
0.4242125984251972
 20
5.560039370078739
 30
0.0
 11
0.4005905511811028
 21
5.597440944881889
 31
0.0
  0
LINE
  5
3D18
330
1E
100
AcDbEntity
  8
7
100
AcDbLine
 10
0.4005905511811028
 20
5.597440944881889
 30
0.0
 11
0.3651574803149611
 21
5.624999999999999
 31
0.0
  0
LINE
  5
3D19
330
1E
100
AcDbEntity
  8
7
100
AcDbLine
 10
0.3651574803149611
 20
5.624999999999999
 30
0.0
 11
0.3238188976377954
 21
5.636811023622047
 31
0.0
  0
LINE
  5
3D1A
330
1E
100
AcDbEntity
  8
7
100
AcDbLine
 10
0.3238188976377954
 20
5.636811023622047
 30
0.0
 11
0.2785433070866139
 21
5.63287401574803
 31
0.0
  0
LINE
  5
3D1B
330
1E
100
AcDbEntity
  8
7
100
AcDbLine
 10
0.2785433070866139
 20
5.63287401574803
 30
0.0
 11
0.2391732283464565
 21
5.613188976377952
 31
0.0
  0
LINE
  5
3D1C
330
1E
100
AcDbEntity
  8
7
100
AcDbLine
 10
0.2391732283464565
 20
5.613188976377952
 30
0.0
 11
0.2096456692913389
 21
5.579724409448819
 31
0.0
  0
LINE
  5
3D1D
330
1E
100
AcDbEntity
  8
7
100
AcDbLine
 10
0.2096456692913389
 20
5.579724409448819
 30
0.0
 11
0.1938976377952759
 21
5.538385826771652
 31
0.0
  0
LINE
  5
3D1E
330
1E
100
AcDbEntity
  8
7
100
AcDbLine
 10
0.1938976377952759
 20
5.538385826771652
 30
0.0
 11
0.1938976377952759
 21
5.49507874015748
 31
0.0
  0
LINE
  5
3D1F
330
1E
100
AcDbEntity
  8
7
100
AcDbLine
 10
0.1938976377952759
 20
5.49507874015748
 30
0.0
 11
0.2096456692913389
 21
5.453740157480313
 31
0.0
  0
LINE
  5
3D20
330
1E
100
AcDbEntity
  8
7
100
AcDbLine
 10
0.2096456692913389
 20
5.453740157480313
 30
0.0
 11
0.2391732283464565
 21
5.42027559055118
 31
0.0
  0
LINE
  5
3D21
330
1E
100
AcDbEntity
  8
7
100
AcDbLine
 10
0.2391732283464565
 20
5.42027559055118
 30
0.0
 11
0.2785433070866139
 21
5.400590551181102
 31
0.0
  0
LINE
  5
3D22
330
1E
100
AcDbEntity
  8
7
100
AcDbLine
 10
0.2785433070866139
 20
5.400590551181102
 30
0.0
 11
0.3238188976377954
 21
5.396653543307086
 31
0.0
  0
LINE
  5
3D23
330
1E
100
AcDbEntity
  8
7
100
AcDbLine
 10
0.2883858267716537
 20
5.378937007874015
 30
0.0
 11
0.3356299212598426
 21
5.378937007874015
 31
0.0
  0
LINE
  5
3D24
330
1E
100
AcDbEntity
  8
7
100
AcDbLine
 10
0.3356299212598426
 20
5.378937007874015
 30
0.0
 11
0.380905511811024
 21
5.396653543307086
 31
0.0
  0
LINE
  5
3D25
330
1E
100
AcDbEntity
  8
7
100
AcDbLine
 10
0.380905511811024
 20
5.396653543307086
 30
0.0
 11
0.4183070866141732
 21
5.426181102362204
 31
0.0
  0
LINE
  5
3D26
330
1E
100
AcDbEntity
  8
7
100
AcDbLine
 10
0.4183070866141732
 20
5.426181102362204
 30
0.0
 11
0.443897637795276
 21
5.469488188976376
 31
0.0
  0
LINE
  5
3D27
330
1E
100
AcDbEntity
  8
7
100
AcDbLine
 10
0.443897637795276
 20
5.469488188976376
 30
0.0
 11
0.4517716535433074
 21
5.516732283464565
 31
0.0
  0
LINE
  5
3D28
330
1E
100
AcDbEntity
  8
7
100
AcDbLine
 10
0.4517716535433074
 20
5.516732283464565
 30
0.0
 11
0.443897637795276
 21
5.563976377952756
 31
0.0
  0
LINE
  5
3D29
330
1E
100
AcDbEntity
  8
7
100
AcDbLine
 10
0.443897637795276
 20
5.563976377952756
 30
0.0
 11
0.4183070866141732
 21
5.607283464566928
 31
0.0
  0
LINE
  5
3D2A
330
1E
100
AcDbEntity
  8
7
100
AcDbLine
 10
0.4183070866141732
 20
5.607283464566928
 30
0.0
 11
0.3828740157480315
 21
5.636811023622047
 31
0.0
  0
LINE
  5
3D2B
330
1E
100
AcDbEntity
  8
7
100
AcDbLine
 10
0.3828740157480315
 20
5.636811023622047
 30
0.0
 11
0.3356299212598426
 21
5.654527559055117
 31
0.0
  0
LINE
  5
3D2C
330
1E
100
AcDbEntity
  8
7
100
AcDbLine
 10
0.3356299212598426
 20
5.654527559055117
 30
0.0
 11
0.2883858267716537
 21
5.654527559055117
 31
0.0
  0
LINE
  5
3D2D
330
1E
100
AcDbEntity
  8
7
100
AcDbLine
 10
0.2883858267716537
 20
5.654527559055117
 30
0.0
 11
0.2431102362204722
 21
5.636811023622047
 31
0.0
  0
LINE
  5
3D2E
330
1E
100
AcDbEntity
  8
7
100
AcDbLine
 10
0.2431102362204722
 20
5.636811023622047
 30
0.0
 11
0.2057086614173231
 21
5.607283464566928
 31
0.0
  0
LINE
  5
3D2F
330
1E
100
AcDbEntity
  8
7
100
AcDbLine
 10
0.2057086614173231
 20
5.607283464566928
 30
0.0
 11
0.1801181102362204
 21
5.563976377952756
 31
0.0
  0
LINE
  5
3D30
330
1E
100
AcDbEntity
  8
7
100
AcDbLine
 10
0.1801181102362204
 20
5.563976377952756
 30
0.0
 11
0.1722440944881889
 21
5.516732283464565
 31
0.0
  0
LINE
  5
3D31
330
1E
100
AcDbEntity
  8
7
100
AcDbLine
 10
0.1722440944881889
 20
5.516732283464565
 30
0.0
 11
0.1801181102362204
 21
5.469488188976376
 31
0.0
  0
LINE
  5
3D32
330
1E
100
AcDbEntity
  8
7
100
AcDbLine
 10
0.1801181102362204
 20
5.469488188976376
 30
0.0
 11
0.2057086614173231
 21
5.426181102362204
 31
0.0
  0
LINE
  5
3D33
330
1E
100
AcDbEntity
  8
7
100
AcDbLine
 10
0.2057086614173231
 20
5.426181102362204
 30
0.0
 11
0.2411417322834648
 21
5.396653543307086
 31
0.0
  0
LINE
  5
3D34
330
1E
100
AcDbEntity
  8
7
100
AcDbLine
 10
0.2411417322834648
 20
5.396653543307086
 30
0.0
 11
0.2883858267716537
 21
5.378937007874015
 31
0.0
  0
LINE
  5
3D35
330
1E
100
AcDbEntity
  8
7
100
AcDbLine
 10
0.2864173228346454
 20
5.658464566929134
 30
0.0
 11
0.2411417322834648
 21
5.640748031496062
 31
0.0
  0
LINE
  5
3D36
330
1E
100
AcDbEntity
  8
7
100
AcDbLine
 10
0.2411417322834648
 20
5.640748031496062
 30
0.0
 11
0.2037401574803148
 21
5.609251968503936
 31
0.0
  0
LINE
  5
3D37
330
1E
100
AcDbEntity
  8
7
100
AcDbLine
 10
0.2037401574803148
 20
5.609251968503936
 30
0.0
 11
0.1781496062992129
 21
5.567913385826771
 31
0.0
  0
LINE
  5
3D38
330
1E
100
AcDbEntity
  8
7
100
AcDbLine
 10
0.1781496062992129
 20
5.567913385826771
 30
0.0
 11
0.1683070866141731
 21
5.518700787401574
 31
0.0
  0
LINE
  5
3D39
330
1E
100
AcDbEntity
  8
7
100
AcDbLine
 10
0.1683070866141731
 20
5.518700787401574
 30
0.0
 11
0.1761811023622046
 21
5.471456692913386
 31
0.0
  0
LINE
  5
3D3A
330
1E
100
AcDbEntity
  8
7
100
AcDbLine
 10
0.1761811023622046
 20
5.471456692913386
 30
0.0
 11
0.1998031496062991
 21
5.428149606299212
 31
0.0
  0
LINE
  5
3D3B
330
1E
100
AcDbEntity
  8
7
100
AcDbLine
 10
0.1998031496062991
 20
5.428149606299212
 30
0.0
 11
0.2372047244094491
 21
5.394685039370078
 31
0.0
  0
LINE
  5
3D3C
330
1E
100
AcDbEntity
  8
7
100
AcDbLine
 10
0.3868110236220472
 20
5.394685039370078
 30
0.0
 11
0.4242125984251972
 21
5.428149606299212
 31
0.0
  0
LINE
  5
3D3D
330
1E
100
AcDbEntity
  8
7
100
AcDbLine
 10
0.4242125984251972
 20
5.428149606299212
 30
0.0
 11
0.4478346456692917
 21
5.471456692913386
 31
0.0
  0
LINE
  5
3D3E
330
1E
100
AcDbEntity
  8
7
100
AcDbLine
 10
0.4478346456692917
 20
5.471456692913386
 30
0.0
 11
0.4557086614173232
 21
5.518700787401574
 31
0.0
  0
LINE
  5
3D3F
330
1E
100
AcDbEntity
  8
7
100
AcDbLine
 10
0.4557086614173232
 20
5.518700787401574
 30
0.0
 11
0.4458661417322843
 21
5.567913385826771
 31
0.0
  0
LINE
  5
3D40
330
1E
100
AcDbEntity
  8
7
100
AcDbLine
 10
0.4458661417322843
 20
5.567913385826771
 30
0.0
 11
0.4202755905511815
 21
5.609251968503936
 31
0.0
  0
LINE
  5
3D41
330
1E
100
AcDbEntity
  8
7
100
AcDbLine
 10
0.4202755905511815
 20
5.609251968503936
 30
0.0
 11
0.3828740157480315
 21
5.640748031496062
 31
0.0
  0
LINE
  5
3D42
330
1E
100
AcDbEntity
  8
7
100
AcDbLine
 10
0.3828740157480315
 20
5.640748031496062
 30
0.0
 11
0.3375984251968509
 21
5.658464566929134
 31
0.0
  0
LINE
  5
3D43
330
1E
100
AcDbEntity
  8
7
100
AcDbLine
 10
0.3375984251968509
 20
5.658464566929134
 30
0.0
 11
0.2864173228346454
 21
5.658464566929134
 31
0.0
  0
LINE
  5
3D44
330
1E
100
AcDbEntity
  8
7
100
AcDbLine
 10
0.1545275590551185
 20
5.556102362204724
 30
0.0
 11
0.1505905511811028
 21
5.502952755905512
 31
0.0
  0
LINE
  5
3D45
330
1E
100
AcDbEntity
  8
7
100
AcDbLine
 10
0.1505905511811028
 20
5.502952755905512
 30
0.0
 11
0.1643700787401574
 21
5.449803149606299
 31
0.0
  0
LINE
  5
3D46
330
1E
100
AcDbEntity
  8
7
100
AcDbLine
 10
0.1643700787401574
 20
5.449803149606299
 30
0.0
 11
0.1938976377952759
 21
5.406496062992125
 31
0.0
  0
LINE
  5
3D47
330
1E
100
AcDbEntity
  8
7
100
AcDbLine
 10
0.1938976377952759
 20
5.406496062992125
 30
0.0
 11
0.2372047244094491
 21
5.373031496062991
 31
0.0
  0
LINE
  5
3D48
330
1E
100
AcDbEntity
  8
7
100
AcDbLine
 10
0.3868110236220472
 20
5.373031496062991
 30
0.0
 11
0.4301181102362204
 21
5.406496062992125
 31
0.0
  0
LINE
  5
3D49
330
1E
100
AcDbEntity
  8
7
100
AcDbLine
 10
0.4301181102362204
 20
5.406496062992125
 30
0.0
 11
0.4596456692913389
 21
5.449803149606299
 31
0.0
  0
LINE
  5
3D4A
330
1E
100
AcDbEntity
  8
7
100
AcDbLine
 10
0.4596456692913389
 20
5.449803149606299
 30
0.0
 11
0.4734251968503945
 21
5.502952755905512
 31
0.0
  0
LINE
  5
3D4B
330
1E
100
AcDbEntity
  8
7
100
AcDbLine
 10
0.4734251968503945
 20
5.502952755905512
 30
0.0
 11
0.4694881889763787
 21
5.556102362204724
 31
0.0
  0
LINE
  5
3D4C
330
1E
100
AcDbEntity
  8
7
100
AcDbLine
 10
0.4694881889763787
 20
5.556102362204724
 30
0.0
 11
0.4478346456692917
 21
5.605314960629921
 31
0.0
  0
LINE
  5
3D4D
330
1E
100
AcDbEntity
  8
7
100
AcDbLine
 10
0.4478346456692917
 20
5.605314960629921
 30
0.0
 11
0.41240157480315
 21
5.644685039370078
 31
0.0
  0
LINE
  5
3D4E
330
1E
100
AcDbEntity
  8
7
100
AcDbLine
 10
0.41240157480315
 20
5.644685039370078
 30
0.0
 11
0.3651574803149611
 21
5.67027559055118
 31
0.0
  0
LINE
  5
3D4F
330
1E
100
AcDbEntity
  8
7
100
AcDbLine
 10
0.3651574803149611
 20
5.67027559055118
 30
0.0
 11
0.3120078740157481
 21
5.678149606299212
 31
0.0
  0
LINE
  5
3D50
330
1E
100
AcDbEntity
  8
7
100
AcDbLine
 10
0.3120078740157481
 20
5.678149606299212
 30
0.0
 11
0.2588582677165352
 21
5.67027559055118
 31
0.0
  0
LINE
  5
3D51
330
1E
100
AcDbEntity
  8
7
100
AcDbLine
 10
0.2588582677165352
 20
5.67027559055118
 30
0.0
 11
0.2116141732283463
 21
5.644685039370078
 31
0.0
  0
LINE
  5
3D52
330
1E
100
AcDbEntity
  8
7
100
AcDbLine
 10
0.2116141732283463
 20
5.644685039370078
 30
0.0
 11
0.1761811023622046
 21
5.605314960629921
 31
0.0
  0
LINE
  5
3D53
330
1E
100
AcDbEntity
  8
7
100
AcDbLine
 10
0.1761811023622046
 20
5.605314960629921
 30
0.0
 11
0.1545275590551185
 21
5.556102362204724
 31
0.0
  0
LINE
  5
3D54
330
1E
100
AcDbEntity
  8
7
100
AcDbLine
 10
0.2726377952755907
 20
5.376968503937008
 30
0.0
 11
0.3120078740157481
 21
5.373031496062991
 31
0.0
  0
LINE
  5
3D55
330
1E
100
AcDbEntity
  8
7
100
AcDbLine
 10
0.3120078740157481
 20
5.373031496062991
 30
0.0
 11
0.3513779527559055
 21
5.376968503937008
 31
0.0
  0
LINE
  5
3D56
330
1E
100
AcDbEntity
  8
7
100
AcDbLine
 10
0.3513779527559055
 20
5.376968503937008
 30
0.0
 11
0.3868110236220472
 21
5.394685039370078
 31
0.0
  0
LINE
  5
3D57
330
1E
100
AcDbEntity
  8
7
100
AcDbLine
 10
0.2372047244094491
 20
5.394685039370078
 30
0.0
 11
0.2372047244094491
 21
5.325787401574802
 31
0.0
  0
LINE
  5
3D58
330
1E
100
AcDbEntity
  8
7
100
AcDbLine
 10
0.2372047244094491
 20
5.325787401574802
 30
0.0
 11
0.3868110236220472
 21
5.325787401574802
 31
0.0
  0
LINE
  5
3D59
330
1E
100
AcDbEntity
  8
7
100
AcDbLine
 10
1.079724409448819
 20
6.239173228346456
 30
0.0
 11
1.079724409448819
 21
6.264763779527558
 31
0.0
  0
LINE
  5
3D5A
330
1E
100
AcDbEntity
  8
7
100
AcDbLine
 10
1.079724409448819
 20
6.264763779527558
 30
0.0
 11
1.284448818897637
 21
6.264763779527558
 31
0.0
  0
LINE
  5
3D5B
330
1E
100
AcDbEntity
  8
7
100
AcDbLine
 10
1.284448818897637
 20
6.264763779527558
 30
0.0
 11
1.284448818897637
 21
6.239173228346456
 31
0.0
  0
LINE
  5
3D5C
330
1E
100
AcDbEntity
  8
7
100
AcDbLine
 10
2.373031496062992
 20
4.823818897637795
 30
0.0
 11
2.361220472440945
 21
4.849409448818897
 31
0.0
  0
LINE
  5
3D5D
330
1E
100
AcDbEntity
  8
7
100
AcDbLine
 10
2.361220472440945
 20
4.849409448818897
 30
0.0
 11
2.327755905511811
 21
4.869094488188976
 31
0.0
  0
LINE
  5
3D5E
330
1E
100
AcDbEntity
  8
7
100
AcDbLine
 10
2.327755905511811
 20
4.869094488188976
 30
0.0
 11
2.28248031496063
 21
4.876968503937008
 31
0.0
  0
LINE
  5
3D5F
330
1E
100
AcDbEntity
  8
7
100
AcDbLine
 10
0.625
 20
4.823818897637795
 30
0.0
 11
0.6387795275590556
 21
4.849409448818897
 31
0.0
  0
LINE
  5
3D60
330
1E
100
AcDbEntity
  8
7
100
AcDbLine
 10
0.6387795275590556
 20
4.849409448818897
 30
0.0
 11
0.6722440944881889
 21
4.869094488188976
 31
0.0
  0
LINE
  5
3D61
330
1E
100
AcDbEntity
  8
7
100
AcDbLine
 10
0.6722440944881889
 20
4.869094488188976
 30
0.0
 11
0.715551181102363
 21
4.876968503937008
 31
0.0
  0
LINE
  5
3D62
330
1E
100
AcDbEntity
  8
7
100
AcDbLine
 10
0.6151574803149611
 20
4.290354330708662
 30
0.0
 11
0.625
 21
4.823818897637795
 31
0.0
  0
LINE
  5
3D63
330
1E
100
AcDbEntity
  8
7
100
AcDbLine
 10
0.625
 20
4.823818897637795
 30
0.0
 11
0.6151574803149611
 21
5.264763779527558
 31
0.0
  0
LINE
  5
3D64
330
1E
100
AcDbEntity
  8
7
100
AcDbLine
 10
2.788385826771653
 20
5.644685039370078
 30
0.0
 11
2.741141732283464
 21
5.67027559055118
 31
0.0
  0
LINE
  5
3D65
330
1E
100
AcDbEntity
  8
7
100
AcDbLine
 10
2.741141732283464
 20
5.67027559055118
 30
0.0
 11
2.687992125984251
 21
5.678149606299212
 31
0.0
  0
LINE
  5
3D66
330
1E
100
AcDbEntity
  8
7
100
AcDbLine
 10
2.687992125984251
 20
5.678149606299212
 30
0.0
 11
2.634842519685039
 21
5.67027559055118
 31
0.0
  0
LINE
  5
3D67
330
1E
100
AcDbEntity
  8
7
100
AcDbLine
 10
2.634842519685039
 20
5.67027559055118
 30
0.0
 11
2.58759842519685
 21
5.644685039370078
 31
0.0
  0
LINE
  5
3D68
330
1E
100
AcDbEntity
  8
7
100
AcDbLine
 10
2.58759842519685
 20
5.644685039370078
 30
0.0
 11
2.552165354330709
 21
5.605314960629921
 31
0.0
  0
LINE
  5
3D69
330
1E
100
AcDbEntity
  8
7
100
AcDbLine
 10
2.552165354330709
 20
5.605314960629921
 30
0.0
 11
2.530511811023622
 21
5.556102362204724
 31
0.0
  0
LINE
  5
3D6A
330
1E
100
AcDbEntity
  8
7
100
AcDbLine
 10
2.530511811023622
 20
5.556102362204724
 30
0.0
 11
2.526574803149606
 21
5.502952755905512
 31
0.0
  0
LINE
  5
3D6B
330
1E
100
AcDbEntity
  8
7
100
AcDbLine
 10
2.526574803149606
 20
5.502952755905512
 30
0.0
 11
2.540354330708662
 21
5.449803149606299
 31
0.0
  0
LINE
  5
3D6C
330
1E
100
AcDbEntity
  8
7
100
AcDbLine
 10
2.540354330708662
 20
5.449803149606299
 30
0.0
 11
2.569881889763779
 21
5.406496062992125
 31
0.0
  0
LINE
  5
3D6D
330
1E
100
AcDbEntity
  8
7
100
AcDbLine
 10
2.569881889763779
 20
5.406496062992125
 30
0.0
 11
2.613188976377952
 21
5.373031496062991
 31
0.0
  0
LINE
  5
3D6E
330
1E
100
AcDbEntity
  8
7
100
AcDbLine
 10
2.762795275590551
 20
5.373031496062991
 30
0.0
 11
2.806102362204724
 21
5.406496062992125
 31
0.0
  0
LINE
  5
3D6F
330
1E
100
AcDbEntity
  8
7
100
AcDbLine
 10
2.806102362204724
 20
5.406496062992125
 30
0.0
 11
2.835629921259842
 21
5.449803149606299
 31
0.0
  0
LINE
  5
3D70
330
1E
100
AcDbEntity
  8
7
100
AcDbLine
 10
2.835629921259842
 20
5.449803149606299
 30
0.0
 11
2.849409448818898
 21
5.502952755905512
 31
0.0
  0
LINE
  5
3D71
330
1E
100
AcDbEntity
  8
7
100
AcDbLine
 10
2.849409448818898
 20
5.502952755905512
 30
0.0
 11
2.845472440944882
 21
5.556102362204724
 31
0.0
  0
LINE
  5
3D72
330
1E
100
AcDbEntity
  8
7
100
AcDbLine
 10
2.845472440944882
 20
5.556102362204724
 30
0.0
 11
2.823818897637795
 21
5.605314960629921
 31
0.0
  0
LINE
  5
3D73
330
1E
100
AcDbEntity
  8
7
100
AcDbLine
 10
2.823818897637795
 20
5.605314960629921
 30
0.0
 11
2.788385826771653
 21
5.644685039370078
 31
0.0
  0
LINE
  5
3D74
330
1E
100
AcDbEntity
  8
7
100
AcDbLine
 10
0.4478346456692917
 20
5.605314960629921
 30
0.0
 11
0.41240157480315
 21
5.644685039370078
 31
0.0
  0
LINE
  5
3D75
330
1E
100
AcDbEntity
  8
7
100
AcDbLine
 10
0.41240157480315
 20
5.644685039370078
 30
0.0
 11
0.3651574803149611
 21
5.67027559055118
 31
0.0
  0
LINE
  5
3D76
330
1E
100
AcDbEntity
  8
7
100
AcDbLine
 10
0.3651574803149611
 20
5.67027559055118
 30
0.0
 11
0.3120078740157481
 21
5.678149606299212
 31
0.0
  0
LINE
  5
3D77
330
1E
100
AcDbEntity
  8
7
100
AcDbLine
 10
0.3120078740157481
 20
5.678149606299212
 30
0.0
 11
0.2588582677165352
 21
5.67027559055118
 31
0.0
  0
LINE
  5
3D78
330
1E
100
AcDbEntity
  8
7
100
AcDbLine
 10
0.2588582677165352
 20
5.67027559055118
 30
0.0
 11
0.2116141732283463
 21
5.644685039370078
 31
0.0
  0
LINE
  5
3D79
330
1E
100
AcDbEntity
  8
7
100
AcDbLine
 10
0.2116141732283463
 20
5.644685039370078
 30
0.0
 11
0.1761811023622046
 21
5.605314960629921
 31
0.0
  0
LINE
  5
3D7A
330
1E
100
AcDbEntity
  8
7
100
AcDbLine
 10
0.1761811023622046
 20
5.605314960629921
 30
0.0
 11
0.1545275590551185
 21
5.556102362204724
 31
0.0
  0
LINE
  5
3D7B
330
1E
100
AcDbEntity
  8
7
100
AcDbLine
 10
0.1545275590551185
 20
5.556102362204724
 30
0.0
 11
0.1505905511811028
 21
5.502952755905512
 31
0.0
  0
LINE
  5
3D7C
330
1E
100
AcDbEntity
  8
7
100
AcDbLine
 10
0.1505905511811028
 20
5.502952755905512
 30
0.0
 11
0.1643700787401574
 21
5.449803149606299
 31
0.0
  0
LINE
  5
3D7D
330
1E
100
AcDbEntity
  8
7
100
AcDbLine
 10
0.1643700787401574
 20
5.449803149606299
 30
0.0
 11
0.1938976377952759
 21
5.406496062992125
 31
0.0
  0
LINE
  5
3D7E
330
1E
100
AcDbEntity
  8
7
100
AcDbLine
 10
0.1938976377952759
 20
5.406496062992125
 30
0.0
 11
0.2372047244094491
 21
5.373031496062991
 31
0.0
  0
LINE
  5
3D7F
330
1E
100
AcDbEntity
  8
7
100
AcDbLine
 10
0.3868110236220472
 20
5.373031496062991
 30
0.0
 11
0.4301181102362204
 21
5.406496062992125
 31
0.0
  0
LINE
  5
3D80
330
1E
100
AcDbEntity
  8
7
100
AcDbLine
 10
0.4301181102362204
 20
5.406496062992125
 30
0.0
 11
0.4596456692913389
 21
5.449803149606299
 31
0.0
  0
LINE
  5
3D81
330
1E
100
AcDbEntity
  8
7
100
AcDbLine
 10
0.4596456692913389
 20
5.449803149606299
 30
0.0
 11
0.4734251968503945
 21
5.502952755905512
 31
0.0
  0
LINE
  5
3D82
330
1E
100
AcDbEntity
  8
7
100
AcDbLine
 10
0.4734251968503945
 20
5.502952755905512
 30
0.0
 11
0.4694881889763787
 21
5.556102362204724
 31
0.0
  0
LINE
  5
3D83
330
1E
100
AcDbEntity
  8
7
100
AcDbLine
 10
0.4694881889763787
 20
5.556102362204724
 30
0.0
 11
0.4478346456692917
 21
5.605314960629921
 31
0.0
  0
LINE
  5
3D84
330
1E
100
AcDbEntity
  8
7
100
AcDbLine
 10
2.296259842519685
 20
6.918307086614173
 30
0.0
 11
2.323818897637795
 21
6.910433070866141
 31
0.0
  0
LINE
  5
3D85
330
1E
100
AcDbEntity
  8
7
100
AcDbLine
 10
2.323818897637795
 20
6.910433070866141
 30
0.0
 11
2.347440944881889
 21
6.888779527559054
 31
0.0
  0
LINE
  5
3D86
330
1E
100
AcDbEntity
  8
7
100
AcDbLine
 10
2.347440944881889
 20
6.888779527559054
 30
0.0
 11
2.367125984251968
 21
6.855314960629921
 31
0.0
  0
LINE
  5
3D87
330
1E
100
AcDbEntity
  8
7
100
AcDbLine
 10
2.367125984251968
 20
6.855314960629921
 30
0.0
 11
2.378937007874015
 21
6.813976377952756
 31
0.0
  0
LINE
  5
3D88
330
1E
100
AcDbEntity
  8
7
100
AcDbLine
 10
0.7017716535433074
 20
6.918307086614173
 30
0.0
 11
0.6761811023622047
 21
6.910433070866141
 31
0.0
  0
LINE
  5
3D89
330
1E
100
AcDbEntity
  8
7
100
AcDbLine
 10
0.6761811023622047
 20
6.910433070866141
 30
0.0
 11
0.6505905511811028
 21
6.888779527559054
 31
0.0
  0
LINE
  5
3D8A
330
1E
100
AcDbEntity
  8
7
100
AcDbLine
 10
0.6505905511811028
 20
6.888779527559054
 30
0.0
 11
0.6309055118110241
 21
6.855314960629921
 31
0.0
  0
LINE
  5
3D8B
330
1E
100
AcDbEntity
  8
7
100
AcDbLine
 10
0.6309055118110241
 20
6.855314960629921
 30
0.0
 11
0.6190944881889769
 21
6.813976377952756
 31
0.0
  0
LINE
  5
3D8C
330
1E
100
AcDbEntity
  8
7
100
AcDbLine
 10
0.6190944881889769
 20
6.813976377952756
 30
0.0
 11
0.6151574803149611
 21
6.766732283464565
 31
0.0
  0
LINE
  5
3D8D
330
1E
100
AcDbEntity
  8
7
100
AcDbLine
 10
0.6151574803149611
 20
5.792322834645669
 30
0.0
 11
0.6190944881889769
 21
5.735236220472439
 31
0.0
  0
LINE
  5
3D8E
330
1E
100
AcDbEntity
  8
7
100
AcDbLine
 10
0.6190944881889769
 20
5.735236220472439
 30
0.0
 11
0.6348425196850398
 21
5.684055118110236
 31
0.0
  0
LINE
  5
3D8F
330
1E
100
AcDbEntity
  8
7
100
AcDbLine
 10
0.6348425196850398
 20
5.684055118110236
 30
0.0
 11
0.656496062992126
 21
5.644685039370078
 31
0.0
  0
LINE
  5
3D90
330
1E
100
AcDbEntity
  8
7
100
AcDbLine
 10
0.656496062992126
 20
5.644685039370078
 30
0.0
 11
0.6840551181102362
 21
5.623031496062991
 31
0.0
  0
LINE
  5
3D91
330
1E
100
AcDbEntity
  8
7
100
AcDbLine
 10
2.384842519685039
 20
6.766732283464565
 30
0.0
 11
2.384842519685039
 21
5.792322834645669
 31
0.0
  0
LINE
  5
3D92
330
1E
100
AcDbEntity
  8
7
100
AcDbLine
 10
2.384842519685039
 20
5.792322834645669
 30
0.0
 11
2.378937007874015
 21
5.735236220472439
 31
0.0
  0
LINE
  5
3D93
330
1E
100
AcDbEntity
  8
7
100
AcDbLine
 10
2.378937007874015
 20
5.735236220472439
 30
0.0
 11
2.365157480314961
 21
5.684055118110236
 31
0.0
  0
LINE
  5
3D94
330
1E
100
AcDbEntity
  8
7
100
AcDbLine
 10
2.365157480314961
 20
5.684055118110236
 30
0.0
 11
2.343503937007874
 21
5.644685039370078
 31
0.0
  0
LINE
  5
3D95
330
1E
100
AcDbEntity
  8
7
100
AcDbLine
 10
2.343503937007874
 20
5.644685039370078
 30
0.0
 11
2.315944881889763
 21
5.623031496062991
 31
0.0
  0
LINE
  5
3D96
330
1E
100
AcDbEntity
  8
7
100
AcDbLine
 10
2.315944881889763
 20
5.623031496062991
 30
0.0
 11
2.062007874015748
 21
5.623031496062991
 31
0.0
  0
LINE
  5
3D97
330
1E
100
AcDbEntity
  8
7
100
AcDbLine
 10
2.062007874015748
 20
5.623031496062991
 30
0.0
 11
1.571850393700787
 21
5.623031496062991
 31
0.0
  0
LINE
  5
3D98
330
1E
100
AcDbEntity
  8
7
100
AcDbLine
 10
2.296259842519685
 20
5.416338582677165
 30
0.0
 11
2.323818897637795
 21
5.408464566929134
 31
0.0
  0
LINE
  5
3D99
330
1E
100
AcDbEntity
  8
7
100
AcDbLine
 10
2.323818897637795
 20
5.408464566929134
 30
0.0
 11
2.347440944881889
 21
5.386811023622047
 31
0.0
  0
LINE
  5
3D9A
330
1E
100
AcDbEntity
  8
7
100
AcDbLine
 10
2.347440944881889
 20
5.386811023622047
 30
0.0
 11
2.367125984251968
 21
5.353346456692913
 31
0.0
  0
LINE
  5
3D9B
330
1E
100
AcDbEntity
  8
7
100
AcDbLine
 10
2.367125984251968
 20
5.353346456692913
 30
0.0
 11
2.378937007874015
 21
5.312007874015747
 31
0.0
  0
LINE
  5
3D9C
330
1E
100
AcDbEntity
  8
7
100
AcDbLine
 10
2.378937007874015
 20
5.312007874015747
 30
0.0
 11
2.384842519685039
 21
5.264763779527558
 31
0.0
  0
LINE
  5
3D9D
330
1E
100
AcDbEntity
  8
7
100
AcDbLine
 10
0.7017716535433074
 20
5.416338582677165
 30
0.0
 11
0.6761811023622047
 21
5.408464566929134
 31
0.0
  0
LINE
  5
3D9E
330
1E
100
AcDbEntity
  8
7
100
AcDbLine
 10
0.6761811023622047
 20
5.408464566929134
 30
0.0
 11
0.6505905511811028
 21
5.386811023622047
 31
0.0
  0
LINE
  5
3D9F
330
1E
100
AcDbEntity
  8
7
100
AcDbLine
 10
0.6505905511811028
 20
5.386811023622047
 30
0.0
 11
0.6309055118110241
 21
5.353346456692913
 31
0.0
  0
LINE
  5
3DA0
330
1E
100
AcDbEntity
  8
7
100
AcDbLine
 10
0.6309055118110241
 20
5.353346456692913
 30
0.0
 11
0.6190944881889769
 21
5.312007874015747
 31
0.0
  0
LINE
  5
3DA1
330
1E
100
AcDbEntity
  8
7
100
AcDbLine
 10
0.6190944881889769
 20
5.312007874015747
 30
0.0
 11
0.6151574803149611
 21
5.264763779527558
 31
0.0
  0
LINE
  5
3DA2
330
1E
100
AcDbEntity
  8
7
100
AcDbLine
 10
0.6151574803149611
 20
4.290354330708662
 30
0.0
 11
0.6190944881889769
 21
4.233267716535432
 31
0.0
  0
LINE
  5
3DA3
330
1E
100
AcDbEntity
  8
7
100
AcDbLine
 10
0.6190944881889769
 20
4.233267716535432
 30
0.0
 11
0.6348425196850398
 21
4.182086614173228
 31
0.0
  0
LINE
  5
3DA4
330
1E
100
AcDbEntity
  8
7
100
AcDbLine
 10
0.6348425196850398
 20
4.182086614173228
 30
0.0
 11
0.656496062992126
 21
4.142716535433071
 31
0.0
  0
LINE
  5
3DA5
330
1E
100
AcDbEntity
  8
7
100
AcDbLine
 10
0.656496062992126
 20
4.142716535433071
 30
0.0
 11
0.6840551181102362
 21
4.121062992125984
 31
0.0
  0
LINE
  5
3DA6
330
1E
100
AcDbEntity
  8
7
100
AcDbLine
 10
2.315944881889763
 20
4.121062992125984
 30
0.0
 11
2.062007874015748
 21
4.121062992125984
 31
0.0
  0
LINE
  5
3DA7
330
1E
100
AcDbEntity
  8
7
100
AcDbLine
 10
2.062007874015748
 20
4.121062992125984
 30
0.0
 11
1.571850393700787
 21
4.121062992125984
 31
0.0
  0
LINE
  5
3DA8
330
1E
100
AcDbEntity
  8
7
100
AcDbLine
 10
1.571850393700787
 20
4.121062992125984
 30
0.0
 11
1.426181102362204
 21
4.121062992125984
 31
0.0
  0
LINE
  5
3DA9
330
1E
100
AcDbEntity
  8
7
100
AcDbLine
 10
2.384842519685039
 20
5.264763779527558
 30
0.0
 11
2.384842519685039
 21
4.290354330708662
 31
0.0
  0
LINE
  5
3DAA
330
1E
100
AcDbEntity
  8
7
100
AcDbLine
 10
2.384842519685039
 20
4.290354330708662
 30
0.0
 11
2.378937007874015
 21
4.233267716535432
 31
0.0
  0
LINE
  5
3DAB
330
1E
100
AcDbEntity
  8
7
100
AcDbLine
 10
2.378937007874015
 20
4.233267716535432
 30
0.0
 11
2.365157480314961
 21
4.182086614173228
 31
0.0
  0
LINE
  5
3DAC
330
1E
100
AcDbEntity
  8
7
100
AcDbLine
 10
2.365157480314961
 20
4.182086614173228
 30
0.0
 11
2.343503937007874
 21
4.142716535433071
 31
0.0
  0
LINE
  5
3DAD
330
1E
100
AcDbEntity
  8
7
100
AcDbLine
 10
2.343503937007874
 20
4.142716535433071
 30
0.0
 11
2.315944881889763
 21
4.121062992125984
 31
0.0
  0
LINE
  5
3DAE
330
1E
100
AcDbEntity
  8
7
100
AcDbLine
 10
3.162401574803149
 20
3.823818897637795
 30
0.0
 11
3.184055118110236
 21
3.831692913385826
 31
0.0
  0
LINE
  5
3DAF
330
1E
100
AcDbEntity
  8
7
100
AcDbLine
 10
3.184055118110236
 20
3.831692913385826
 30
0.0
 11
3.191929133858267
 21
3.853346456692913
 31
0.0
  0
LINE
  5
3DB0
330
1E
100
AcDbEntity
  8
7
100
AcDbLine
 10
-0.1624015748031491
 20
3.823818897637795
 30
0.0
 11
-0.1840551181102361
 21
3.831692913385826
 31
0.0
  0
LINE
  5
3DB1
330
1E
100
AcDbEntity
  8
7
100
AcDbLine
 10
-0.1840551181102361
 20
3.831692913385826
 30
0.0
 11
-0.1938976377952759
 21
3.853346456692913
 31
0.0
  0
LINE
  5
3DB2
330
1E
100
AcDbEntity
  8
7
100
AcDbLine
 10
-0.1938976377952759
 20
7.178149606299212
 30
0.0
 11
-0.1938976377952759
 21
3.853346456692913
 31
0.0
  0
LINE
  5
3DB3
330
1E
100
AcDbEntity
  8
7
100
AcDbLine
 10
-0.1938976377952759
 20
3.853346456692913
 30
0.0
 11
-0.1761811023622046
 21
3.873031496062991
 31
0.0
  0
LINE
  5
3DB4
330
1E
100
AcDbEntity
  8
7
100
AcDbLine
 10
-0.1210629921259843
 20
3.916338582677165
 30
0.0
 11
-0.1486220472440944
 21
3.894685039370078
 31
0.0
  0
LINE
  5
3DB5
330
1E
100
AcDbEntity
  8
7
100
AcDbLine
 10
-0.1486220472440944
 20
3.894685039370078
 30
0.0
 11
-0.1683070866141731
 21
3.878937007874015
 31
0.0
  0
LINE
  5
3DB6
330
1E
100
AcDbEntity
  8
7
100
AcDbLine
 10
-0.1683070866141731
 20
3.878937007874015
 30
0.0
 11
-0.1761811023622046
 21
3.873031496062991
 31
0.0
  0
LINE
  5
3DB7
330
1E
100
AcDbEntity
  8
7
100
AcDbLine
 10
-0.0049212598425197
 20
4.01279527559055
 30
0.0
 11
-0.046259842519685
 21
3.977362204724408
 31
0.0
  0
LINE
  5
3DB8
330
1E
100
AcDbEntity
  8
7
100
AcDbLine
 10
-0.046259842519685
 20
3.977362204724408
 30
0.0
 11
-0.08759842519685
 21
3.945866141732282
 31
0.0
  0
LINE
  5
3DB9
330
1E
100
AcDbEntity
  8
7
100
AcDbLine
 10
-0.08759842519685
 20
3.945866141732282
 30
0.0
 11
-0.1210629921259843
 21
3.916338582677165
 31
0.0
  0
LINE
  5
3DBA
330
1E
100
AcDbEntity
  8
7
100
AcDbLine
 10
3.002952755905512
 20
7.020669291338582
 30
0.0
 11
3.002952755905512
 21
4.01279527559055
 31
0.0
  0
LINE
  5
3DBB
330
1E
100
AcDbEntity
  8
7
100
AcDbLine
 10
3.002952755905512
 20
4.01279527559055
 30
0.0
 11
3.046259842519685
 21
3.977362204724408
 31
0.0
  0
LINE
  5
3DBC
330
1E
100
AcDbEntity
  8
7
100
AcDbLine
 10
3.046259842519685
 20
3.977362204724408
 30
0.0
 11
3.085629921259842
 21
3.945866141732282
 31
0.0
  0
LINE
  5
3DBD
330
1E
100
AcDbEntity
  8
7
100
AcDbLine
 10
3.085629921259842
 20
3.945866141732282
 30
0.0
 11
3.121062992125984
 21
3.916338582677165
 31
0.0
  0
LINE
  5
3DBE
330
1E
100
AcDbEntity
  8
7
100
AcDbLine
 10
3.121062992125984
 20
3.916338582677165
 30
0.0
 11
3.148622047244094
 21
3.894685039370078
 31
0.0
  0
LINE
  5
3DBF
330
1E
100
AcDbEntity
  8
7
100
AcDbLine
 10
3.148622047244094
 20
3.894685039370078
 30
0.0
 11
3.166338582677165
 21
3.878937007874015
 31
0.0
  0
LINE
  5
3DC0
330
1E
100
AcDbEntity
  8
7
100
AcDbLine
 10
3.166338582677165
 20
3.878937007874015
 30
0.0
 11
3.174212598425197
 21
3.873031496062991
 31
0.0
  0
LINE
  5
3DC1
330
1E
100
AcDbEntity
  8
7
100
AcDbLine
 10
3.174212598425197
 20
3.873031496062991
 30
0.0
 11
3.174212598425197
 21
7.160433070866141
 31
0.0
  0
LINE
  5
3DC2
330
1E
100
AcDbEntity
  8
7
100
AcDbLine
 10
2.302165354330709
 20
6.282480314960628
 30
0.0
 11
2.33759842519685
 21
6.292322834645669
 31
0.0
  0
LINE
  5
3DC3
330
1E
100
AcDbEntity
  8
7
100
AcDbLine
 10
2.33759842519685
 20
6.292322834645669
 30
0.0
 11
2.363188976377952
 21
6.308070866141732
 31
0.0
  0
LINE
  5
3DC4
330
1E
100
AcDbEntity
  8
7
100
AcDbLine
 10
2.363188976377952
 20
6.308070866141732
 30
0.0
 11
2.373031496062992
 21
6.325787401574802
 31
0.0
  0
LINE
  5
3DC5
330
1E
100
AcDbEntity
  8
7
100
AcDbLine
 10
2.373031496062992
 20
6.325787401574802
 30
0.0
 11
2.361220472440945
 21
6.351377952755904
 31
0.0
  0
LINE
  5
3DC6
330
1E
100
AcDbEntity
  8
7
100
AcDbLine
 10
2.361220472440945
 20
6.351377952755904
 30
0.0
 11
2.327755905511811
 21
6.371062992125984
 31
0.0
  0
LINE
  5
3DC7
330
1E
100
AcDbEntity
  8
7
100
AcDbLine
 10
2.302165354330709
 20
6.282480314960628
 30
0.0
 11
2.296259842519685
 21
6.294291338582676
 31
0.0
  0
LINE
  5
3DC8
330
1E
100
AcDbEntity
  8
7
100
AcDbLine
 10
2.296259842519685
 20
6.294291338582676
 30
0.0
 11
2.28248031496063
 21
6.298228346456691
 31
0.0
  0
LINE
  5
3DC9
330
1E
100
AcDbEntity
  8
7
100
AcDbLine
 10
2.28248031496063
 20
6.378937007874015
 30
0.0
 11
2.28248031496063
 21
6.339566929133858
 31
0.0
  0
LINE
  5
3DCA
330
1E
100
AcDbEntity
  8
7
100
AcDbLine
 10
2.28248031496063
 20
6.339566929133858
 30
0.0
 11
2.28248031496063
 21
6.298228346456691
 31
0.0
  0
LINE
  5
3DCB
330
1E
100
AcDbEntity
  8
7
100
AcDbLine
 10
0.715551181102363
 20
6.378937007874015
 30
0.0
 11
0.715551181102363
 21
6.339566929133858
 31
0.0
  0
LINE
  5
3DCC
330
1E
100
AcDbEntity
  8
7
100
AcDbLine
 10
0.715551181102363
 20
6.339566929133858
 30
0.0
 11
0.715551181102363
 21
6.298228346456691
 31
0.0
  0
LINE
  5
3DCD
330
1E
100
AcDbEntity
  8
7
100
AcDbLine
 10
0.6978346456692917
 20
6.282480314960628
 30
0.0
 11
0.7017716535433074
 21
6.294291338582676
 31
0.0
  0
LINE
  5
3DCE
330
1E
100
AcDbEntity
  8
7
100
AcDbLine
 10
0.7017716535433074
 20
6.294291338582676
 30
0.0
 11
0.715551181102363
 21
6.298228346456691
 31
0.0
  0
LINE
  5
3DCF
330
1E
100
AcDbEntity
  8
7
100
AcDbLine
 10
0.6978346456692917
 20
6.282480314960628
 30
0.0
 11
0.6604330708661417
 21
6.292322834645669
 31
0.0
  0
LINE
  5
3DD0
330
1E
100
AcDbEntity
  8
7
100
AcDbLine
 10
0.6604330708661417
 20
6.292322834645669
 30
0.0
 11
0.6348425196850398
 21
6.308070866141732
 31
0.0
  0
LINE
  5
3DD1
330
1E
100
AcDbEntity
  8
7
100
AcDbLine
 10
0.6348425196850398
 20
6.308070866141732
 30
0.0
 11
0.625
 21
6.325787401574802
 31
0.0
  0
LINE
  5
3DD2
330
1E
100
AcDbEntity
  8
7
100
AcDbLine
 10
0.625
 20
6.325787401574802
 30
0.0
 11
0.6387795275590556
 21
6.351377952755904
 31
0.0
  0
LINE
  5
3DD3
330
1E
100
AcDbEntity
  8
7
100
AcDbLine
 10
0.6387795275590556
 20
6.351377952755904
 30
0.0
 11
0.6722440944881889
 21
6.371062992125984
 31
0.0
  0
LINE
  5
3DD4
330
1E
100
AcDbEntity
  8
7
100
AcDbLine
 10
0.6722440944881889
 20
6.371062992125984
 30
0.0
 11
0.715551181102363
 21
6.378937007874015
 31
0.0
  0
LINE
  5
3DD5
330
1E
100
AcDbEntity
  8
7
100
AcDbLine
 10
3.166338582677165
 20
7.154527559055117
 30
0.0
 11
3.148622047244094
 21
7.138779527559054
 31
0.0
  0
LINE
  5
3DD6
330
1E
100
AcDbEntity
  8
7
100
AcDbLine
 10
3.148622047244094
 20
7.138779527559054
 30
0.0
 11
3.121062992125984
 21
7.117125984251967
 31
0.0
  0
LINE
  5
3DD7
330
1E
100
AcDbEntity
  8
7
100
AcDbLine
 10
3.121062992125984
 20
7.117125984251967
 30
0.0
 11
3.085629921259842
 21
7.08759842519685
 31
0.0
  0
LINE
  5
3DD8
330
1E
100
AcDbEntity
  8
7
100
AcDbLine
 10
3.085629921259842
 20
7.08759842519685
 30
0.0
 11
3.046259842519685
 21
7.054133858267715
 31
0.0
  0
LINE
  5
3DD9
330
1E
100
AcDbEntity
  8
7
100
AcDbLine
 10
3.046259842519685
 20
7.054133858267715
 30
0.0
 11
3.002952755905512
 21
7.020669291338582
 31
0.0
  0
LINE
  5
3DDA
330
1E
100
AcDbEntity
  8
7
100
AcDbLine
 10
3.174212598425197
 20
7.160433070866141
 30
0.0
 11
3.166338582677165
 21
7.182086614173228
 31
0.0
  0
LINE
  5
3DDB
330
1E
100
AcDbEntity
  8
7
100
AcDbLine
 10
3.166338582677165
 20
7.182086614173228
 30
0.0
 11
3.144685039370078
 21
7.191929133858267
 31
0.0
  0
LINE
  5
3DDC
330
1E
100
AcDbEntity
  8
7
100
AcDbLine
 10
3.174212598425197
 20
7.160433070866141
 30
0.0
 11
3.191929133858267
 21
7.178149606299212
 31
0.0
  0
LINE
  5
3DDD
330
1E
100
AcDbEntity
  8
7
100
AcDbLine
 10
3.191929133858267
 20
7.178149606299212
 30
0.0
 11
3.184055118110236
 21
7.199803149606299
 31
0.0
  0
LINE
  5
3DDE
330
1E
100
AcDbEntity
  8
7
100
AcDbLine
 10
3.184055118110236
 20
7.199803149606299
 30
0.0
 11
3.162401574803149
 21
7.209645669291337
 31
0.0
  0
LINE
  5
3DDF
330
1E
100
AcDbEntity
  8
7
100
AcDbLine
 10
-0.1486220472440944
 20
7.138779527559054
 30
0.0
 11
-0.1210629921259843
 21
7.117125984251967
 31
0.0
  0
LINE
  5
3DE0
330
1E
100
AcDbEntity
  8
7
100
AcDbLine
 10
-0.1210629921259843
 20
7.117125984251967
 30
0.0
 11
-0.08759842519685
 21
7.08759842519685
 31
0.0
  0
LINE
  5
3DE1
330
1E
100
AcDbEntity
  8
7
100
AcDbLine
 10
-0.08759842519685
 20
7.08759842519685
 30
0.0
 11
-0.046259842519685
 21
7.054133858267715
 31
0.0
  0
LINE
  5
3DE2
330
1E
100
AcDbEntity
  8
7
100
AcDbLine
 10
-0.046259842519685
 20
7.054133858267715
 30
0.0
 11
-0.0049212598425197
 21
7.020669291338582
 31
0.0
  0
LINE
  5
3DE3
330
1E
100
AcDbEntity
  8
7
100
AcDbLine
 10
-0.1761811023622046
 20
7.160433070866141
 30
0.0
 11
-0.1683070866141731
 21
7.154527559055117
 31
0.0
  0
LINE
  5
3DE4
330
1E
100
AcDbEntity
  8
7
100
AcDbLine
 10
-0.1683070866141731
 20
7.154527559055117
 30
0.0
 11
-0.1486220472440944
 21
7.138779527559054
 31
0.0
  0
LINE
  5
3DE5
330
1E
100
AcDbEntity
  8
7
100
AcDbLine
 10
-0.1938976377952759
 20
7.178149606299212
 30
0.0
 11
-0.1840551181102361
 21
7.199803149606299
 31
0.0
  0
LINE
  5
3DE6
330
1E
100
AcDbEntity
  8
7
100
AcDbLine
 10
-0.1840551181102361
 20
7.199803149606299
 30
0.0
 11
-0.1624015748031491
 21
7.209645669291337
 31
0.0
  0
LINE
  5
3DE7
330
1E
100
AcDbEntity
  8
7
100
AcDbLine
 10
-0.1761811023622046
 20
7.160433070866141
 30
0.0
 11
-0.1663385826771648
 21
7.182086614173228
 31
0.0
  0
LINE
  5
3DE8
330
1E
100
AcDbEntity
  8
7
100
AcDbLine
 10
-0.1663385826771648
 20
7.182086614173228
 30
0.0
 11
-0.1446850393700787
 21
7.191929133858267
 31
0.0
  0
LINE
  5
3DE9
330
1E
100
AcDbEntity
  8
7
100
AcDbLine
 10
3.162401574803149
 20
7.209645669291337
 30
0.0
 11
-0.1624015748031491
 21
7.209645669291337
 31
0.0
  0
LINE
  5
3DEA
330
1E
100
AcDbEntity
  8
7
100
AcDbLine
 10
-0.1624015748031491
 20
7.209645669291337
 30
0.0
 11
-0.1446850393700787
 21
7.191929133858267
 31
0.0
  0
LINE
  5
3DEB
330
1E
100
AcDbEntity
  8
7
100
AcDbLine
 10
3.144685039370078
 20
7.191929133858267
 30
0.0
 11
3.136811023622047
 21
7.184055118110236
 31
0.0
  0
LINE
  5
3DEC
330
1E
100
AcDbEntity
  8
7
100
AcDbLine
 10
3.136811023622047
 20
7.184055118110236
 30
0.0
 11
3.121062992125984
 21
7.164370078740156
 31
0.0
  0
LINE
  5
3DED
330
1E
100
AcDbEntity
  8
7
100
AcDbLine
 10
3.121062992125984
 20
7.164370078740156
 30
0.0
 11
3.099409448818898
 21
7.136811023622047
 31
0.0
  0
LINE
  5
3DEE
330
1E
100
AcDbEntity
  8
7
100
AcDbLine
 10
3.099409448818898
 20
7.136811023622047
 30
0.0
 11
3.069881889763779
 21
7.103346456692913
 31
0.0
  0
LINE
  5
3DEF
330
1E
100
AcDbEntity
  8
7
100
AcDbLine
 10
3.069881889763779
 20
7.103346456692913
 30
0.0
 11
3.038385826771653
 21
7.062007874015747
 31
0.0
  0
LINE
  5
3DF0
330
1E
100
AcDbEntity
  8
7
100
AcDbLine
 10
3.038385826771653
 20
7.062007874015747
 30
0.0
 11
3.002952755905512
 21
7.020669291338582
 31
0.0
  0
LINE
  5
3DF1
330
1E
100
AcDbEntity
  8
7
100
AcDbLine
 10
-0.1446850393700787
 20
7.191929133858267
 30
0.0
 11
-0.1387795275590546
 21
7.184055118110236
 31
0.0
  0
LINE
  5
3DF2
330
1E
100
AcDbEntity
  8
7
100
AcDbLine
 10
-0.1387795275590546
 20
7.184055118110236
 30
0.0
 11
-0.1230314960629917
 21
7.164370078740156
 31
0.0
  0
LINE
  5
3DF3
330
1E
100
AcDbEntity
  8
7
100
AcDbLine
 10
-0.1230314960629917
 20
7.164370078740156
 30
0.0
 11
-0.0994094488188973
 21
7.136811023622047
 31
0.0
  0
LINE
  5
3DF4
330
1E
100
AcDbEntity
  8
7
100
AcDbLine
 10
-0.0994094488188973
 20
7.136811023622047
 30
0.0
 11
-0.0718503937007871
 21
7.103346456692913
 31
0.0
  0
LINE
  5
3DF5
330
1E
100
AcDbEntity
  8
7
100
AcDbLine
 10
-0.0718503937007871
 20
7.103346456692913
 30
0.0
 11
-0.0383858267716535
 21
7.062007874015747
 31
0.0
  0
LINE
  5
3DF6
330
1E
100
AcDbEntity
  8
7
100
AcDbLine
 10
-0.0383858267716535
 20
7.062007874015747
 30
0.0
 11
-0.0049212598425197
 21
7.020669291338582
 31
0.0
  0
ENDSEC
  0
SECTION
  2
OBJECTS
  0
DICTIONARY
  5
C
330
0
100
AcDbDictionary
  3
ACAD_GROUP
350
D
  3
ACAD_LAYOUT
350
19
  3
ACAD_MLINESTYLE
350
16
  3
ACAD_PLOTSETTINGS
350
18
1001
ACAD
1000
TREAT_AS_HARD
1070
     0
  0
DICTIONARY
  5
518E
330
1E
100
AcDbDictionary
  3
ACAD_LAYOUTSELFREF
350
51C7
1001
ACAD
1000
TREAT_AS_HARD
1070
     1
  0
DICTIONARY
  5
5190
330
1A
100
AcDbDictionary
  3
ACAD_LAYOUTSELFREF
350
51C6
1001
ACAD
1000
TREAT_AS_HARD
1070
     1
  0
DICTIONARY
  5
D
102
{ACAD_REACTORS
330
C
102
}
330
C
100
AcDbDictionary
1001
ACAD
1000
TREAT_AS_HARD
1070
     0
  0
DICTIONARY
  5
19
102
{ACAD_REACTORS
330
C
102
}
330
C
100
AcDbDictionary
1001
ACAD
1000
TREAT_AS_HARD
1070
     0
  0
DICTIONARY
  5
16
102
{ACAD_REACTORS
330
C
102
}
330
C
100
AcDbDictionary
  3
STANDARD
350
17
1001
ACAD
1000
TREAT_AS_HARD
1070
     0
  0
DICTIONARY
  5
18
102
{ACAD_REACTORS
330
C
102
}
330
C
100
AcDbDictionary
1001
ACAD
1000
TREAT_AS_HARD
1070
     0
  0
XRECORD
  5
51C7
102
{ACAD_REACTORS
330
518E
102
}
330
518E
100
AcDbXrecord
340
1E
  0
XRECORD
  5
51C6
102
{ACAD_REACTORS
330
5190
102
}
330
5190
100
AcDbXrecord
340
1A
  0
MLINESTYLE
  5
17
102
{ACAD_REACTORS
330
16
102
}
330
16
100
AcDbMlineStyle
  2
STANDARD
 70
     0
  3

 62
   256
 51
90.0
 52
90.0
 71
     2
 49
0.5
 62
   256
  6
BYLAYER
 49
-0.5
 62
   256
  6
BYLAYER
  0
ENDSEC
  0
EOF
