  0
SECTION
  2
HEADER
  9
$ACADVER
  1
AC1014
  9
$ACADMAINTVER
 70
     9
  9
$DWGCODEPAGE
  3
ANSI_1252
  9
$INSBASE
 10
0.0
 20
0.0
 30
0.0
  9
$EXTMIN
 10
0.343651394586459
 20
0.046081677994561
 30
-0.0015258207003583
  9
$EXTMAX
 10
11.46374371859102
 20
8.666130617679254
 30
0.0000000349246037
  9
$LIMMIN
 10
-5.177165354330709
 20
-3.820127952755905
  9
$LIMMAX
 10
5.177165354330709
 20
3.820127952755905
  9
$ORTHOMODE
 70
     0
  9
$REGENMODE
 70
     1
  9
$FILLMODE
 70
     1
  9
$QTEXTMODE
 70
     0
  9
$MIRRTEXT
 70
     1
  9
$DRAGMODE
 70
     2
  9
$LTSCALE
 40
1.0
  9
$OSMODE
 70
    37
  9
$ATTMODE
 70
     1
  9
$TEXTSIZE
 40
0.2
  9
$TRACEWID
 40
0.05
  9
$TEXTSTYLE
  7
STANDARD
  9
$CLAYER
  8
0
  9
$CELTYPE
  6
CONTINUOUS
  9
$CECOLOR
 62
   256
  9
$CELTSCALE
 40
1.0
  9
$DELOBJ
 70
     1
  9
$DISPSILH
 70
     0
  9
$DIMSCALE
 40
1.0
  9
$DIMASZ
 40
0.18
  9
$DIMEXO
 40
0.0625
  9
$DIMDLI
 40
0.38
  9
$DIMRND
 40
0.0
  9
$DIMDLE
 40
0.0
  9
$DIMEXE
 40
0.18
  9
$DIMTP
 40
0.0
  9
$DIMTM
 40
0.0
  9
$DIMTXT
 40
0.18
  9
$DIMCEN
 40
0.09
  9
$DIMTSZ
 40
0.0
  9
$DIMTOL
 70
     0
  9
$DIMLIM
 70
     0
  9
$DIMTIH
 70
     1
  9
$DIMTOH
 70
     1
  9
$DIMSE1
 70
     0
  9
$DIMSE2
 70
     0
  9
$DIMTAD
 70
     0
  9
$DIMZIN
 70
     0
  9
$DIMBLK
  1

  9
$DIMASO
 70
     1
  9
$DIMSHO
 70
     1
  9
$DIMPOST
  1

  9
$DIMAPOST
  1

  9
$DIMALT
 70
     0
  9
$DIMALTD
 70
     2
  9
$DIMALTF
 40
25.4
  9
$DIMLFAC
 40
1.0
  9
$DIMTOFL
 70
     0
  9
$DIMTVP
 40
0.0
  9
$DIMTIX
 70
     0
  9
$DIMSOXD
 70
     0
  9
$DIMSAH
 70
     0
  9
$DIMBLK1
  1

  9
$DIMBLK2
  1

  9
$DIMSTYLE
  2
STANDARD
  9
$DIMCLRD
 70
     0
  9
$DIMCLRE
 70
     0
  9
$DIMCLRT
 70
     0
  9
$DIMTFAC
 40
1.0
  9
$DIMGAP
 40
0.09
  9
$DIMJUST
 70
     0
  9
$DIMSD1
 70
     0
  9
$DIMSD2
 70
     0
  9
$DIMTOLJ
 70
     1
  9
$DIMTZIN
 70
     0
  9
$DIMALTZ
 70
     0
  9
$DIMALTTZ
 70
     0
  9
$DIMFIT
 70
     3
  9
$DIMUPT
 70
     0
  9
$DIMUNIT
 70
     2
  9
$DIMDEC
 70
     4
  9
$DIMTDEC
 70
     4
  9
$DIMALTU
 70
     2
  9
$DIMALTTD
 70
     2
  9
$DIMTXSTY
  7
STANDARD
  9
$DIMAUNIT
 70
     0
  9
$LUNITS
 70
     2
  9
$LUPREC
 70
     4
  9
$SKETCHINC
 40
0.1
  9
$FILLETRAD
 40
0.0
  9
$AUNITS
 70
     0
  9
$AUPREC
 70
     0
  9
$MENU
  1
.
  9
$ELEVATION
 40
0.0
  9
$PELEVATION
 40
0.0
  9
$THICKNESS
 40
0.0
  9
$LIMCHECK
 70
     0
  9
$BLIPMODE
 70
     0
  9
$CHAMFERA
 40
0.0
  9
$CHAMFERB
 40
0.0
  9
$CHAMFERC
 40
0.0
  9
$CHAMFERD
 40
0.0
  9
$SKPOLY
 70
     0
  9
$TDCREATE
 40
2452165.361503715
  9
$TDUPDATE
 40
2452165.363133136
  9
$TDINDWG
 40
0.0016420718
  9
$TDUSRTIMER
 40
0.0016420718
  9
$USRTIMER
 70
     1
  9
$ANGBASE
 50
0.0
  9
$ANGDIR
 70
     0
  9
$PDMODE
 70
     2
  9
$PDSIZE
 40
0.1528051181102362
  9
$PLINEWID
 40
0.0
  9
$COORDS
 70
     0
  9
$SPLFRAME
 70
     0
  9
$SPLINETYPE
 70
     6
  9
$SPLINESEGS
 70
     8
  9
$ATTDIA
 70
     0
  9
$ATTREQ
 70
     1
  9
$HANDLING
 70
-16383
  9
$HANDSEED
  5
7FD
  9
$SURFTAB1
 70
     6
  9
$SURFTAB2
 70
     6
  9
$SURFTYPE
 70
     6
  9
$SURFU
 70
     6
  9
$SURFV
 70
     6
  9
$UCSNAME
  2

  9
$UCSORG
 10
0.0
 20
0.0
 30
0.0
  9
$UCSXDIR
 10
1.0
 20
0.0
 30
0.0
  9
$UCSYDIR
 10
0.0
 20
1.0
 30
0.0
  9
$PUCSNAME
  2

  9
$PUCSORG
 10
0.0
 20
0.0
 30
0.0
  9
$PUCSXDIR
 10
1.0
 20
0.0
 30
0.0
  9
$PUCSYDIR
 10
0.0
 20
1.0
 30
0.0
  9
$USERI1
 70
     0
  9
$USERI2
 70
     0
  9
$USERI3
 70
     0
  9
$USERI4
 70
     0
  9
$USERI5
 70
     0
  9
$USERR1
 40
0.0
  9
$USERR2
 40
0.0
  9
$USERR3
 40
0.0
  9
$USERR4
 40
0.0
  9
$USERR5
 40
0.0
  9
$WORLDVIEW
 70
     1
  9
$SHADEDGE
 70
     3
  9
$SHADEDIF
 70
    70
  9
$TILEMODE
 70
     1
  9
$MAXACTVP
 70
    64
  9
$PINSBASE
 10
0.0
 20
0.0
 30
0.0
  9
$PLIMCHECK
 70
     0
  9
$PEXTMIN
 10
-0.0003661829982491
 20
-0.0002746372486868
 30
-0.0015258207003583
  9
$PEXTMAX
 10
12.0003662388776
 20
9.000274679158202
 30
0.0000000349246037
  9
$PLIMMIN
 10
-0.8761957476440011
 20
-0.2854497066957741
  9
$PLIMMAX
 10
12.87619524023191
 20
10.34139780656695
  9
$UNITMODE
 70
     0
  9
$VISRETAIN
 70
     1
  9
$PLINEGEN
 70
     0
  9
$PSLTSCALE
 70
     1
  9
$TREEDEPTH
 70
  3020
  9
$PICKSTYLE
 70
     0
  9
$CMLSTYLE
  2
STANDARD
  9
$CMLJUST
 70
     0
  9
$CMLSCALE
 40
1.0
  9
$PROXYGRAPHICS
 70
     1
  9
$MEASUREMENT
 70
     0
  0
ENDSEC
  0
SECTION
  2
CLASSES
  0
CLASS
  1
ACDBDICTIONARYWDFLT
  2
AcDbDictionaryWithDefault
  3
AutoCAD 2000
 90
        0
280
     0
281
     0
  0
CLASS
  1
ACDBPLACEHOLDER
  2
AcDbPlaceHolder
  3
AutoCAD 2000
 90
        0
280
     0
281
     0
  0
CLASS
  1
LAYOUT
  2
AcDbLayout
  3
AutoCAD 2000
 90
        0
280
     0
281
     0
  0
CLASS
  1
LONG_TRANSACTION
  2
AcDbLongTransaction
  3
AutoCAD 2000
 90
        0
280
     0
281
     0
  0
CLASS
  1
LWPOLYLINE
  2
AcDbPolyline
  3
AutoCAD 2000
 90
        0
280
     0
281
     1
  0
CLASS
  1
HATCH
  2
AcDbHatch
  3
AutoCAD 2000
 90
        0
280
     0
281
     1
  0
CLASS
  1
XRECORD
  2
AcDbXrecord
  3
AutoCAD 2000
 90
        0
280
     0
281
     0
  0
ENDSEC
  0
SECTION
  2
TABLES
  0
TABLE
  2
VPORT
  5
28
330
0
100
AcDbSymbolTable
 70
    18
  0
VPORT
  5
29
330
28
100
AcDbSymbolTableRecord
100
AcDbViewportTableRecord
  2
L1
 70
     0
 10
0.0
 20
0.0
 11
1.0
 21
1.0
 12
5.903735890984535
 22
4.356249792501329
 13
0.0
 23
0.0
 14
1.0
 24
1.0
 15
0.0
 25
0.0
 16
0.0
 26
0.0
 36
1.0
 17
0.0
 27
0.0
 37
0.0
 40
7.640255905511811
 41
1.355233494363929
 42
56.5964619460975
 43
0.0
 44
0.0
 50
0.0
 51
0.0
 71
    16
 72
   100
 73
     1
 74
     3
 75
     0
 76
     0
 77
     0
 78
     0
  0
VPORT
  5
2B
330
28
100
AcDbSymbolTableRecord
100
AcDbViewportTableRecord
  2
L2
 70
     0
 10
0.0
 20
0.0
 11
0.5
 21
1.0
 12
0.0
 22
0.0
 13
0.0
 23
0.0
 14
1.0
 24
1.0
 15
0.0
 25
0.0
 16
0.0
 26
-1.0
 36
0.0
 17
0.0
 27
0.0
 37
0.0
 40
7.640255905511811
 41
1.355233494363929
 42
50.0
 43
0.0
 44
0.0
 50
0.0
 51
0.0
 71
    16
 72
   100
 73
     1
 74
     3
 75
     0
 76
     0
 77
     0
 78
     0
  0
VPORT
  5
2C
330
28
100
AcDbSymbolTableRecord
100
AcDbViewportTableRecord
  2
L2
 70
     0
 10
0.5
 20
0.0
 11
1.0
 21
1.0
 12
0.0
 22
0.0
 13
0.0
 23
0.0
 14
1.0
 24
1.0
 15
0.0
 25
0.0
 16
1.0
 26
0.0
 36
0.0
 17
0.0
 27
0.0
 37
0.0
 40
7.640255905511811
 41
1.0
 42
50.0
 43
0.0
 44
0.0
 50
0.0
 51
0.0
 71
    16
 72
   100
 73
     1
 74
     3
 75
     0
 76
     0
 77
     0
 78
     0
  0
VPORT
  5
2D
330
28
100
AcDbSymbolTableRecord
100
AcDbViewportTableRecord
  2
L3
 70
     0
 10
0.0
 20
0.5
 11
1.0
 21
1.0
 12
5.903735890984535
 22
4.356249792501329
 13
0.0
 23
0.0
 14
1.0
 24
1.0
 15
0.0
 25
0.0
 16
0.0
 26
0.0
 36
1.0
 17
0.0
 27
0.0
 37
0.0
 40
7.640255905511811
 41
1.355233494363929
 42
56.5964619460975
 43
0.0
 44
0.0
 50
0.0
 51
0.0
 71
    16
 72
   100
 73
     1
 74
     3
 75
     0
 76
     0
 77
     0
 78
     0
  0
VPORT
  5
2E
330
28
100
AcDbSymbolTableRecord
100
AcDbViewportTableRecord
  2
L3
 70
     0
 10
0.0
 20
0.0
 11
1.0
 21
0.5
 12
0.0
 22
0.0
 13
0.0
 23
0.0
 14
1.0
 24
1.0
 15
0.0
 25
0.0
 16
0.0
 26
-1.0
 36
0.0
 17
0.0
 27
0.0
 37
0.0
 40
7.640255905511811
 41
1.355233494363929
 42
50.0
 43
0.0
 44
0.0
 50
0.0
 51
0.0
 71
    16
 72
   100
 73
     1
 74
     3
 75
     0
 76
     0
 77
     0
 78
     0
  0
VPORT
  5
2F
330
28
100
AcDbSymbolTableRecord
100
AcDbViewportTableRecord
  2
L4
 70
     0
 10
0.0
 20
0.5
 11
0.5
 21
1.0
 12
5.903735890984535
 22
4.356249792501329
 13
0.0
 23
0.0
 14
1.0
 24
1.0
 15
0.0
 25
0.0
 16
0.0
 26
0.0
 36
1.0
 17
0.0
 27
0.0
 37
0.0
 40
7.640255905511811
 41
1.355233494363929
 42
56.5964619460975
 43
0.0
 44
0.0
 50
0.0
 51
0.0
 71
    16
 72
   100
 73
     1
 74
     3
 75
     0
 76
     0
 77
     0
 78
     0
  0
VPORT
  5
30
330
28
100
AcDbSymbolTableRecord
100
AcDbViewportTableRecord
  2
L4
 70
     0
 10
0.0
 20
0.0
 11
0.5
 21
0.5
 12
0.0
 22
0.0
 13
0.0
 23
0.0
 14
1.0
 24
1.0
 15
0.0
 25
0.0
 16
0.0
 26
-1.0
 36
0.0
 17
0.0
 27
0.0
 37
0.0
 40
7.640255905511811
 41
1.355233494363929
 42
50.0
 43
0.0
 44
0.0
 50
0.0
 51
0.0
 71
    16
 72
   100
 73
     1
 74
     3
 75
     0
 76
     0
 77
     0
 78
     0
  0
VPORT
  5
31
330
28
100
AcDbSymbolTableRecord
100
AcDbViewportTableRecord
  2
L4
 70
     0
 10
0.5
 20
0.0
 11
1.0
 21
0.5
 12
0.0
 22
0.0
 13
0.0
 23
0.0
 14
1.0
 24
1.0
 15
0.0
 25
0.0
 16
1.0
 26
0.0
 36
0.0
 17
0.0
 27
0.0
 37
0.0
 40
7.640255905511811
 41
1.0
 42
50.0
 43
0.0
 44
0.0
 50
0.0
 51
0.0
 71
    16
 72
   100
 73
     1
 74
     3
 75
     0
 76
     0
 77
     0
 78
     0
  0
VPORT
  5
32
330
28
100
AcDbSymbolTableRecord
100
AcDbViewportTableRecord
  2
L4
 70
     0
 10
0.5
 20
0.5
 11
1.0
 21
1.0
 12
0.0
 22
0.0
 13
0.0
 23
0.0
 14
1.0
 24
1.0
 15
0.0
 25
0.0
 16
0.5773502691896258
 26
-0.5773502691896258
 36
0.5773502691896258
 17
0.0
 27
0.0
 37
0.0
 40
13.58450204710339
 41
0.9366625420210898
 42
50.0
 43
0.0
 44
0.0
 50
0.0
 51
0.0
 71
    16
 72
   100
 73
     1
 74
     3
 75
     0
 76
     0
 77
     0
 78
     0
  0
VPORT
  5
33
330
28
100
AcDbSymbolTableRecord
100
AcDbViewportTableRecord
  2
L6
 70
     0
 10
0.0
 20
0.5
 11
0.3333333333333334
 21
1.0
 12
0.0
 22
0.0
 13
0.0
 23
0.0
 14
1.0
 24
1.0
 15
0.0
 25
0.0
 16
0.7188730927569434
 26
-0.5850486126764433
 36
0.3754192287502549
 17
0.0
 27
0.0
 37
0.0
 40
11.90687697058677
 41
1.04659421283051
 42
50.0
 43
0.0
 44
0.0
 50
0.0
 51
0.0
 71
    16
 72
   100
 73
     1
 74
     3
 75
     0
 76
     0
 77
     0
 78
     0
  0
VPORT
  5
34
330
28
100
AcDbSymbolTableRecord
100
AcDbViewportTableRecord
  2
L6
 70
     0
 10
0.0
 20
0.0
 11
0.3333333333333334
 21
0.5
 12
0.0
 22
0.0
 13
0.0
 23
0.0
 14
1.0
 24
1.0
 15
0.0
 25
0.0
 16
-1.0
 26
0.0
 36
0.0
 17
0.0
 27
0.0
 37
0.0
 40
7.640255905511811
 41
1.0
 42
50.0
 43
0.0
 44
0.0
 50
0.0
 51
0.0
 71
    16
 72
   100
 73
     1
 74
     3
 75
     0
 76
     0
 77
     0
 78
     0
  0
VPORT
  5
35
330
28
100
AcDbSymbolTableRecord
100
AcDbViewportTableRecord
  2
L6
 70
     0
 10
0.3333333333333334
 20
0.5
 11
0.6666666666666666
 21
1.0
 12
5.903735890984535
 22
4.356249792501329
 13
0.0
 23
0.0
 14
1.0
 24
1.0
 15
0.0
 25
0.0
 16
0.0
 26
0.0
 36
1.0
 17
0.0
 27
0.0
 37
0.0
 40
7.640255905511811
 41
1.355233494363929
 42
56.5964619460975
 43
0.0
 44
0.0
 50
0.0
 51
0.0
 71
    16
 72
   100
 73
     1
 74
     3
 75
     0
 76
     0
 77
     0
 78
     0
  0
VPORT
  5
36
330
28
100
AcDbSymbolTableRecord
100
AcDbViewportTableRecord
  2
L6
 70
     0
 10
0.3333333333333334
 20
0.0
 11
0.6666666666666666
 21
0.5
 12
0.0
 22
0.0
 13
0.0
 23
0.0
 14
1.0
 24
1.0
 15
0.0
 25
0.0
 16
0.0
 26
-1.0
 36
0.0
 17
0.0
 27
0.0
 37
0.0
 40
7.640255905511811
 41
1.355233494363929
 42
50.0
 43
0.0
 44
0.0
 50
0.0
 51
0.0
 71
    16
 72
   100
 73
     1
 74
     3
 75
     0
 76
     0
 77
     0
 78
     0
  0
VPORT
  5
37
330
28
100
AcDbSymbolTableRecord
100
AcDbViewportTableRecord
  2
L6
 70
     0
 10
0.6666666666666666
 20
0.5
 11
1.0
 21
1.0
 12
0.0
 22
0.0
 13
0.0
 23
0.0
 14
1.0
 24
1.0
 15
0.0
 25
0.0
 16
0.5773502691896258
 26
-0.5773502691896258
 36
0.5773502691896258
 17
0.0
 27
0.0
 37
0.0
 40
13.58450204710339
 41
0.9366625420210898
 42
50.0
 43
0.0
 44
0.0
 50
0.0
 51
0.0
 71
    16
 72
   100
 73
     1
 74
     3
 75
     0
 76
     0
 77
     0
 78
     0
  0
VPORT
  5
38
330
28
100
AcDbSymbolTableRecord
100
AcDbViewportTableRecord
  2
L6
 70
     0
 10
0.6666666666666666
 20
0.0
 11
1.0
 21
0.5
 12
0.0
 22
0.0
 13
0.0
 23
0.0
 14
1.0
 24
1.0
 15
0.0
 25
0.0
 16
1.0
 26
0.0
 36
0.0
 17
0.0
 27
0.0
 37
0.0
 40
7.640255905511811
 41
1.0
 42
50.0
 43
0.0
 44
0.0
 50
0.0
 51
0.0
 71
    16
 72
   100
 73
     1
 74
     3
 75
     0
 76
     0
 77
     0
 78
     0
  0
VPORT
  5
7D8
330
28
100
AcDbSymbolTableRecord
100
AcDbViewportTableRecord
  2
*ACTIVE
 70
     0
 10
0.0
 20
0.0
 11
1.0
 21
1.0
 12
5.903697561455328
 22
4.388709412608422
 13
0.0
 23
0.0
 14
1.0
 24
1.0
 15
0.0
 25
0.0
 16
0.0
 26
0.0
 36
1.0
 17
0.0
 27
0.0
 37
0.0
 40
8.684297748984082
 41
1.457711442786069
 42
56.5964619460975
 43
0.0
 44
0.0
 50
0.0
 51
0.0
 71
    16
 72
   100
 73
     1
 74
     3
 75
     0
 76
     0
 77
     0
 78
     0
  0
ENDTAB
  0
TABLE
  2
LTYPE
  5
1
330
0
100
AcDbSymbolTable
 70
     7
  0
LTYPE
  5
2
330
1
100
AcDbSymbolTableRecord
100
AcDbLinetypeTableRecord
  2
BYBLOCK
 70
     0
  3

 72
    65
 73
     0
 40
0.0
  0
LTYPE
  5
3
330
1
100
AcDbSymbolTableRecord
100
AcDbLinetypeTableRecord
  2
BYLAYER
 70
     0
  3

 72
    65
 73
     0
 40
0.0
  0
LTYPE
  5
4
330
1
100
AcDbSymbolTableRecord
100
AcDbLinetypeTableRecord
  2
CONTINUOUS
 70
     0
  3
Solid line
 72
    65
 73
     0
 40
0.0
  0
LTYPE
  5
5
330
1
100
AcDbSymbolTableRecord
100
AcDbLinetypeTableRecord
  2
HIDDEN
 70
     0
  3
_ _ _ _ _ _ _ _ _ _ _ _ _ _ _ _ _ _ _ _ _ _ _
 72
    65
 73
     2
 40
0.5
 49
0.25
 74
     0
 49
-0.25
 74
     0
  0
LTYPE
  5
6
330
1
100
AcDbSymbolTableRecord
100
AcDbLinetypeTableRecord
  2
PHANTOM
 70
     0
  3
_____ _ _ _____ _ _ _____ _ _ _____ _ _ ____
 72
    65
 73
     6
 40
2.5
 49
1.25
 74
     0
 49
-0.25
 74
     0
 49
0.25
 74
     0
 49
-0.25
 74
     0
 49
0.25
 74
     0
 49
-0.25
 74
     0
  0
LTYPE
  5
7
330
1
100
AcDbSymbolTableRecord
100
AcDbLinetypeTableRecord
  2
CENTER
 70
     0
  3
____ _ ____ _ ____ _ ____ _ ____ _ ____ _ ____
 72
    65
 73
     4
 40
2.0
 49
1.25
 74
     0
 49
-0.25
 74
     0
 49
0.25
 74
     0
 49
-0.25
 74
     0
  0
LTYPE
  5
8
330
1
100
AcDbSymbolTableRecord
100
AcDbLinetypeTableRecord
  2
DOT
 70
     0
  3
..............................................
 72
    65
 73
     2
 40
0.25
 49
0.0
 74
     0
 49
-0.25
 74
     0
  0
LTYPE
  5
9
330
1
100
AcDbSymbolTableRecord
100
AcDbLinetypeTableRecord
  2
DASHED
 70
     0
  3
__ __ __ __ __ __ __ __ __ __ __ __ __ __ __
 72
    65
 73
     2
 40
0.75
 49
0.5
 74
     0
 49
-0.25
 74
     0
  0
LTYPE
  5
A
330
1
100
AcDbSymbolTableRecord
100
AcDbLinetypeTableRecord
  2
DASHDOT
 70
     0
  3
-- . -- . -- . -- . -- . -- . -- . -- . -- . --
 72
    65
 73
     4
 40
1.0
 49
0.5
 74
     0
 49
-0.25
 74
     0
 49
0.0
 74
     0
 49
-0.25
 74
     0
  0
ENDTAB
  0
TABLE
  2
LAYER
  5
B
330
0
100
AcDbSymbolTable
 70
     4
  0
LAYER
  5
C
330
B
100
AcDbSymbolTableRecord
100
AcDbLayerTableRecord
  2
0
 70
     0
 62
     7
  6
CONTINUOUS
  0
LAYER
  5
D
330
B
100
AcDbSymbolTableRecord
100
AcDbLayerTableRecord
  2
1
 70
     0
 62
     7
  6
CONTINUOUS
  0
LAYER
  5
E
330
B
100
AcDbSymbolTableRecord
100
AcDbLayerTableRecord
  2
TOP
 70
     0
 62
     7
  6
CONTINUOUS
  0
LAYER
  5
F
330
B
100
AcDbSymbolTableRecord
100
AcDbLayerTableRecord
  2
DEFPOINTS
 70
     0
 62
    -7
  6
CONTINUOUS
  0
ENDTAB
  0
TABLE
  2
STYLE
  5
10
330
0
100
AcDbSymbolTable
 70
     5
  0
STYLE
  5
11
330
10
100
AcDbSymbolTableRecord
100
AcDbTextStyleTableRecord
  2
UGMTXT
 70
     0
 40
0.0
 41
1.0
 50
0.0
 71
     0
 42
0.2
  3
ugmtxt
  4
bigfont
  0
STYLE
  5
12
330
10
100
AcDbSymbolTableRecord
100
AcDbTextStyleTableRecord
  2
UGTXT
 70
     0
 40
0.0
 41
1.0
 50
0.0
 71
     0
 42
0.2
  3
ugtxt
  4
bigfont
  0
STYLE
  5
13
330
10
100
AcDbSymbolTableRecord
100
AcDbTextStyleTableRecord
  2
VUGTXT
 70
     4
 40
0.0
 41
1.0
 50
0.0
 71
     0
 42
0.2
  3
ugtxt
  4
bigfont
  0
STYLE
  5
14
330
10
100
AcDbSymbolTableRecord
100
AcDbTextStyleTableRecord
  2
VUGMTXT
 70
     4
 40
0.0
 41
1.0
 50
0.0
 71
     0
 42
0.2
  3
ugmtxt
  4
bigfont
  0
STYLE
  5
76B
330
10
100
AcDbSymbolTableRecord
100
AcDbTextStyleTableRecord
  2
STANDARD
 70
     0
 40
0.0
 41
1.0
 50
0.0
 71
     0
 42
0.2
  3

  4

  0
ENDTAB
  0
TABLE
  2
VIEW
  5
15
330
0
100
AcDbSymbolTable
 70
     8
  0
VIEW
  5
16
330
15
100
AcDbSymbolTableRecord
100
AcDbViewTableRecord
  2
TOP
 70
     0
 40
7.640255905511811
 10
5.903735890984535
 20
4.356249792501329
 41
10.35433070866141
 11
0.0
 21
0.0
 31
1.0
 12
0.0
 22
0.0
 32
0.0
 42
56.5964619460975
 43
0.0
 44
0.0
 50
0.0
 71
    16
  0
VIEW
  5
17
330
15
100
AcDbSymbolTableRecord
100
AcDbViewTableRecord
  2
FRONT
 70
     0
 40
7.640255905511811
 10
0.0
 20
0.0
 41
10.35433070866141
 11
0.0
 21
-1.0
 31
0.0
 12
0.0
 22
0.0
 32
0.0
 42
50.0
 43
0.0
 44
0.0
 50
0.0
 71
    16
  0
VIEW
  5
18
330
15
100
AcDbSymbolTableRecord
100
AcDbViewTableRecord
  2
RIGHT
 70
     0
 40
7.640255905511811
 10
0.0
 20
0.0
 41
7.640255905511811
 11
1.0
 21
0.0
 31
0.0
 12
0.0
 22
0.0
 32
0.0
 42
50.0
 43
0.0
 44
0.0
 50
0.0
 71
    16
  0
VIEW
  5
19
330
15
100
AcDbSymbolTableRecord
100
AcDbViewTableRecord
  2
BACK
 70
     0
 40
7.640255905511811
 10
0.0
 20
0.0
 41
10.35433070866141
 11
0.0
 21
1.0
 31
0.0
 12
0.0
 22
0.0
 32
0.0
 42
50.0
 43
0.0
 44
0.0
 50
0.0
 71
    16
  0
VIEW
  5
1A
330
15
100
AcDbSymbolTableRecord
100
AcDbViewTableRecord
  2
BOTTOM
 70
     0
 40
7.640255905511811
 10
0.0
 20
0.0
 41
10.35433070866141
 11
0.0
 21
0.0
 31
-1.0
 12
0.0
 22
0.0
 32
0.0
 42
50.0
 43
0.0
 44
0.0
 50
180.0
 71
    16
  0
VIEW
  5
1B
330
15
100
AcDbSymbolTableRecord
100
AcDbViewTableRecord
  2
LEFT
 70
     0
 40
7.640255905511811
 10
0.0
 20
0.0
 41
7.640255905511811
 11
-1.0
 21
0.0
 31
0.0
 12
0.0
 22
0.0
 32
0.0
 42
50.0
 43
0.0
 44
0.0
 50
0.0
 71
    16
  0
VIEW
  5
1C
330
15
100
AcDbSymbolTableRecord
100
AcDbViewTableRecord
  2
TFR-ISO
 70
     0
 40
13.58450204710339
 10
0.0
 20
0.0
 41
12.72409421953057
 11
0.5773502691896258
 21
-0.5773502691896258
 31
0.5773502691896258
 12
0.0
 22
0.0
 32
0.0
 42
50.0
 43
0.0
 44
0.0
 50
0.0
 71
    16
  0
VIEW
  5
1D
330
15
100
AcDbSymbolTableRecord
100
AcDbViewTableRecord
  2
TFR-TRI
 70
     0
 40
11.90687697058677
 10
0.0
 20
0.0
 41
12.461668530301
 11
0.7188730927569434
 21
-0.5850486126764433
 31
0.3754192287502549
 12
0.0
 22
0.0
 32
0.0
 42
50.0
 43
0.0
 44
0.0
 50
0.0
 71
    16
  0
ENDTAB
  0
TABLE
  2
UCS
  5
26
330
0
100
AcDbSymbolTable
 70
     1
  0
UCS
  5
27
330
26
100
AcDbSymbolTableRecord
100
AcDbUCSTableRecord
  2
UCS01
 70
     0
 10
0.0
 20
0.0
 30
0.0
 11
1.0
 21
0.0
 31
0.0
 12
0.0
 22
1.0
 32
0.0
  0
ENDTAB
  0
TABLE
  2
APPID
  5
1E
330
0
100
AcDbSymbolTable
 70
     1
  0
APPID
  5
1F
330
1E
100
AcDbSymbolTableRecord
100
AcDbRegAppTableRecord
  2
ACAD
 70
     0
  0
ENDTAB
  0
TABLE
  2
DIMSTYLE
  5
20
330
0
100
AcDbSymbolTable
 70
     1
  0
DIMSTYLE
105
21
330
20
100
AcDbSymbolTableRecord
100
AcDbDimStyleTableRecord
  2
STANDARD
 70
     0
  3

  4

  5

  6

  7

 40
1.0
 41
0.18
 42
0.0625
 43
0.38
 44
0.18
 45
0.0
 46
0.0
 47
0.0
 48
0.0
140
0.18
141
0.09
142
0.0
143
25.4
144
1.0
145
0.0
146
1.0
147
0.09
 71
     0
 72
     0
 73
     1
 74
     1
 75
     0
 76
     0
 77
     0
 78
     0
170
     0
171
     2
172
     0
173
     0
174
     0
175
     0
176
     0
177
     0
178
     0
270
     2
271
     4
272
     4
273
     2
274
     2
340
11
275
     0
280
     0
281
     0
282
     0
283
     1
284
     0
285
     0
286
     0
287
     3
288
     0
  0
ENDTAB
  0
TABLE
  2
BLOCK_RECORD
  5
22
330
0
100
AcDbSymbolTable
 70
     1
  0
BLOCK_RECORD
  5
23
102
{ACAD_XDICTIONARY
360
7F9
102
}
330
22
100
AcDbSymbolTableRecord
100
AcDbBlockTableRecord
  2
*MODEL_SPACE
  0
BLOCK_RECORD
  5
24
102
{ACAD_XDICTIONARY
360
7FB
102
}
330
22
100
AcDbSymbolTableRecord
100
AcDbBlockTableRecord
  2
*PAPER_SPACE
  0
BLOCK_RECORD
  5
25
330
22
100
AcDbSymbolTableRecord
100
AcDbBlockTableRecord
  2
DOT
  0
ENDTAB
  0
ENDSEC
  0
SECTION
  2
BLOCKS
  0
BLOCK
  5
39
330
23
100
AcDbEntity
  8
0
100
AcDbBlockBegin
  2
*MODEL_SPACE
 70
     0
 10
0.0
 20
0.0
 30
0.0
  3
*MODEL_SPACE
  1

  0
ENDBLK
  5
3A
330
23
100
AcDbEntity
  8
0
100
AcDbBlockEnd
  0
BLOCK
  5
3B
330
24
100
AcDbEntity
 67
     1
  8
0
100
AcDbBlockBegin
  2
*PAPER_SPACE
 70
     0
 10
0.0
 20
0.0
 30
0.0
  3
*PAPER_SPACE
  1

  0
ENDBLK
  5
3C
330
24
100
AcDbEntity
 67
     1
  8
0
100
AcDbBlockEnd
  0
BLOCK
  5
3D
330
25
100
AcDbEntity
  8
0
100
AcDbBlockBegin
  2
DOT
 70
     0
 10
0.0
 20
0.0
 30
0.0
  3
DOT
  1

  0
LWPOLYLINE
  5
3E
330
25
100
AcDbEntity
  8
0
  6
BYBLOCK
 62
     0
100
AcDbPolyline
 90
        2
 70
     1
 43
0.5
 10
-0.25
 20
0.0
 42
1.0
 10
0.25
 20
0.0
 42
1.0
  0
ENDBLK
  5
42
330
25
100
AcDbEntity
  8
0
100
AcDbBlockEnd
  0
ENDSEC
  0
SECTION
  2
ENTITIES
  0
LINE
  5
43
330
23
100
AcDbEntity
  8
TOP
  6
CONTINUOUS
 62
     7
100
AcDbLine
 10
8.407215118408203
 20
3.760263919830321
 30
0.0
 11
7.939482212066649
 21
3.976026058197021
 31
0.0
  0
LINE
  5
44
330
23
100
AcDbEntity
  8
TOP
  6
CONTINUOUS
 62
     7
100
AcDbLine
 10
1.2744882106781
 20
4.101128101348876
 30
0.0
 11
1.2744882106781
 21
4.106075763702392
 31
0.0
  0
LINE
  5
45
330
23
100
AcDbEntity
  8
TOP
  6
CONTINUOUS
 62
     7
100
AcDbLine
 10
3.040488243103027
 20
3.246075868606567
 30
0.0
 11
3.044507503509521
 21
3.246075868606567
 31
0.0
  0
LINE
  5
46
330
23
100
AcDbEntity
  8
TOP
  6
CONTINUOUS
 62
     7
100
AcDbLine
 10
8.672209739685056
 20
3.7665114402771
 30
0.0
 11
8.675917625427246
 21
3.766089439392089
 31
0.0
  0
LINE
  5
47
330
23
100
AcDbEntity
  8
TOP
  6
CONTINUOUS
 62
     7
100
AcDbLine
 10
1.305488228797912
 20
6.4917573928833
 30
0.0
 11
1.305488228797912
 21
7.164257526397705
 31
0.0
  0
LINE
  5
48
330
23
100
AcDbEntity
  8
TOP
  6
CONTINUOUS
 62
     7
100
AcDbLine
 10
9.637874603271484
 20
4.12976598739624
 30
0.0
 11
9.686119079589843
 21
4.141912460327148
 31
0.0
  0
LINE
  5
49
330
23
100
AcDbEntity
  8
TOP
  6
CONTINUOUS
 62
     7
100
AcDbLine
 10
7.960149765014648
 20
4.438011169433593
 30
0.0
 11
7.952703952789305
 21
4.435736179351807
 31
0.0
  0
LINE
  5
4A
330
23
100
AcDbEntity
  8
TOP
  6
CONTINUOUS
 62
     7
100
AcDbLine
 10
5.306488037109375
 20
7.888772964477539
 30
0.0
 11
5.216488361358642
 21
7.912888050079345
 31
0.0
  0
LINE
  5
4B
330
23
100
AcDbEntity
  8
TOP
  6
CONTINUOUS
 62
     7
100
AcDbLine
 10
4.62548828125
 20
5.594257354736328
 30
0.0
 11
4.62548828125
 21
5.644257545471192
 31
0.0
  0
LINE
  5
4C
330
23
100
AcDbEntity
  8
TOP
  6
CONTINUOUS
 62
     7
100
AcDbLine
 10
8.854092597961427
 20
3.7767174243927
 30
0.0
 11
8.854194641113281
 21
3.77667236328125
 31
0.0
  0
LINE
  5
4D
330
23
100
AcDbEntity
  8
TOP
  6
CONTINUOUS
 62
     7
100
AcDbLine
 10
10.53487968444824
 20
4.552988529205321
 30
0.0
 11
10.53487968444824
 21
4.656925201416015
 31
0.0
  0
LINE
  5
4E
330
23
100
AcDbEntity
  8
TOP
  6
CONTINUOUS
 62
     7
100
AcDbLine
 10
3.756450176239013
 20
5.0542573928833
 30
0.0
 11
3.770540475845336
 21
5.0542573928833
 31
0.0
  0
LINE
  5
4F
330
23
100
AcDbEntity
  8
TOP
  6
CONTINUOUS
 62
     7
100
AcDbLine
 10
6.536843299865722
 20
4.016075611114501
 30
0.0
 11
6.536843299865722
 21
4.07621955871582
 31
0.0
  0
LINE
  5
50
330
23
100
AcDbEntity
  8
TOP
  6
CONTINUOUS
 62
     7
100
AcDbLine
 10
5.836025714874267
 20
3.14007568359375
 30
0.0
 11
5.836025714874267
 21
3.17782711982727
 31
0.0
  0
LINE
  5
52
330
23
100
AcDbEntity
  8
TOP
  6
CONTINUOUS
 62
     7
100
AcDbLine
 10
1.480488181114196
 20
6.639257431030273
 30
0.0
 11
1.455488204956054
 21
6.639257431030273
 31
0.0
  0
LINE
  5
54
330
23
100
AcDbEntity
  8
TOP
  6
CONTINUOUS
 62
     7
100
AcDbLine
 10
8.107137680053712
 20
4.119643688201904
 30
0.0
 11
8.100442886352539
 21
4.118659973144531
 31
0.0
  0
LINE
  5
55
330
23
100
AcDbEntity
  8
TOP
  6
CONTINUOUS
 62
     7
100
AcDbLine
 10
9.901056289672851
 20
4.124481678009033
 30
0.0
 11
9.777968406677246
 21
4.18126106262207
 31
0.0
  0
LINE
  5
56
330
23
100
AcDbEntity
  8
TOP
  6
CONTINUOUS
 62
     7
100
AcDbLine
 10
8.248173713684082
 20
3.5807626247406
 30
0.0
 11
8.273756980895996
 21
3.587101697921752
 31
0.0
  0
LINE
  5
57
330
23
100
AcDbEntity
  8
TOP
  6
CONTINUOUS
 62
     7
100
AcDbLine
 10
3.840488195419311
 20
5.038257598876953
 30
0.0
 11
3.815613746643065
 21
5.038257598876953
 31
0.0
  0
LINE
  5
58
330
23
100
AcDbEntity
  8
TOP
  6
CONTINUOUS
 62
     7
100
AcDbLine
 10
9.777762413024902
 20
4.181352138519287
 30
0.0
 11
9.775996208190917
 21
4.17253828048706
 31
0.0
  0
LINE
  5
59
330
23
100
AcDbEntity
  8
TOP
  6
CONTINUOUS
 62
     7
100
AcDbLine
 10
2.160249233245849
 20
4.197034835815429
 30
0.0
 11
2.160051345825195
 21
4.19665241241455
 31
0.0
  0
LINE
  5
5A
330
23
100
AcDbEntity
  8
TOP
  6
CONTINUOUS
 62
     7
100
AcDbLine
 10
4.737987995147705
 20
3.67607569694519
 30
0.0
 11
5.947025299072265
 21
3.67607569694519
 31
0.0
  0
LINE
  5
5B
330
23
100
AcDbEntity
  8
TOP
  6
CONTINUOUS
 62
     7
100
AcDbLine
 10
1.455488204956054
 20
5.719257354736328
 30
0.0
 11
1.480488181114196
 21
5.719257354736328
 31
0.0
  0
LINE
  5
5C
330
23
100
AcDbEntity
  8
TOP
  6
CONTINUOUS
 62
     7
100
AcDbLine
 10
9.926701545715332
 20
4.031494617462158
 30
0.0
 11
9.911577224731443
 21
4.03171682357788
 31
0.0
  0
LINE
  5
5D
330
23
100
AcDbEntity
  8
TOP
  6
CONTINUOUS
 62
     7
100
AcDbLine
 10
9.064314842224119
 20
3.457148790359496
 30
0.0
 11
9.064314842224119
 21
3.890917062759399
 31
0.0
  0
LINE
  5
5E
330
23
100
AcDbEntity
  8
TOP
  6
CONTINUOUS
 62
     7
100
AcDbLine
 10
9.266066551208496
 20
3.910125494003295
 30
0.0
 11
9.299235343933103
 21
3.931438207626343
 31
0.0
  0
LINE
  5
5F
330
23
100
AcDbEntity
  8
TOP
  6
CONTINUOUS
 62
     7
100
AcDbLine
 10
5.290488243103027
 20
5.8667573928833
 30
0.0
 11
5.290488243103027
 21
5.871705532073975
 31
0.0
  0
LINE
  5
60
330
23
100
AcDbEntity
  8
TOP
  6
CONTINUOUS
 62
     7
100
AcDbLine
 10
9.641785621643066
 20
3.983912467956542
 30
0.0
 11
9.628585815429687
 21
3.982431411743164
 31
0.0
  0
LINE
  5
61
330
23
100
AcDbEntity
  8
TOP
  6
CONTINUOUS
 62
     7
100
AcDbLine
 10
2.355488300323486
 20
7.308257579803465
 30
0.0
 11
2.355488300323486
 21
7.304257392883299
 31
0.0
  0
LINE
  5
62
330
23
100
AcDbEntity
  8
TOP
  6
CONTINUOUS
 62
     7
100
AcDbLine
 10
9.03590965270996
 20
3.70103883743286
 30
0.0
 11
9.033136367797853
 21
3.692487239837647
 31
0.0
  0
LINE
  5
63
330
23
100
AcDbEntity
  8
TOP
  6
CONTINUOUS
 62
     7
100
AcDbLine
 10
1.364488244056701
 20
7.890772819519042
 30
0.0
 11
1.281952381134033
 21
7.890772819519042
 31
0.0
  0
LINE
  5
64
330
23
100
AcDbEntity
  8
TOP
  6
CONTINUOUS
 62
     7
100
AcDbLine
 10
8.167519569396972
 20
4.417249202728272
 30
0.0
 11
8.168980598449707
 21
4.417356014251708
 31
0.0
  0
LINE
  5
65
330
23
100
AcDbEntity
  8
TOP
  6
CONTINUOUS
 62
     7
100
AcDbLine
 10
1.2744882106781
 20
7.888772964477539
 30
0.0
 11
2.648632764816284
 21
7.888772964477539
 31
0.0
  0
LINE
  5
66
330
23
100
AcDbEntity
  8
TOP
  6
CONTINUOUS
 62
     7
100
AcDbLine
 10
9.014661788940429
 20
4.760198116302489
 30
0.0
 11
9.007215499877927
 21
4.757923126220703
 31
0.0
  0
LINE
  5
67
330
23
100
AcDbEntity
  8
TOP
  6
CONTINUOUS
 62
     7
100
AcDbLine
 10
3.815613746643065
 20
7.304257392883299
 30
0.0
 11
3.794526338577271
 21
7.304257392883299
 31
0.0
  0
LINE
  5
69
330
23
100
AcDbEntity
  8
TOP
  6
CONTINUOUS
 62
     7
100
AcDbLine
 10
6.548861980438232
 20
5.128257751464843
 30
0.0
 11
6.548861980438232
 21
5.090506076812744
 31
0.0
  0
LINE
  5
6A
330
23
100
AcDbEntity
  8
TOP
  6
CONTINUOUS
 62
     7
100
AcDbLine
 10
7.811883926391601
 20
4.037606716156005
 30
0.0
 11
7.811883926391601
 21
4.028708934783936
 31
0.0
  0
LINE
  5
6B
330
23
100
AcDbEntity
  8
TOP
  6
CONTINUOUS
 62
     7
100
AcDbLine
 10
9.071717262268066
 20
3.850712299346923
 30
0.0
 11
9.091084480285644
 21
3.854962348937987
 31
0.0
  0
LINE
  5
6C
330
23
100
AcDbEntity
  8
TOP
  6
CONTINUOUS
 62
     7
100
AcDbLine
 10
4.350488185882568
 20
3.701075792312622
 30
0.0
 11
4.675487995147705
 21
3.701075792312622
 31
0.0
  0
LINE
  5
6D
330
23
100
AcDbEntity
  8
TOP
  6
CONTINUOUS
 62
     7
100
AcDbLine
 10
8.287888526916503
 20
4.03790283203125
 30
0.0
 11
8.287991523742675
 21
4.037858009338378
 31
0.0
  0
LINE
  5
6E
330
23
100
AcDbEntity
  8
TOP
  6
CONTINUOUS
 62
     7
100
AcDbLine
 10
1.747283816337585
 20
5.763816356658936
 30
0.0
 11
1.746971487998962
 21
5.763519763946533
 31
0.0
  0
LINE
  5
6F
330
23
100
AcDbEntity
  8
TOP
  6
CONTINUOUS
 62
     7
100
AcDbLine
 10
9.697509765625
 20
3.713280916213988
 30
0.0
 11
9.689283370971679
 21
3.714839458465576
 31
0.0
  0
LINE
  5
70
330
23
100
AcDbEntity
  8
TOP
  6
CONTINUOUS
 62
     7
100
AcDbLine
 10
8.117622375488281
 20
3.543290853500366
 30
0.0
 11
8.168896675109863
 21
3.465492486953735
 31
0.0
  0
LINE
  5
71
330
23
100
AcDbEntity
  8
TOP
  6
CONTINUOUS
 62
     7
100
AcDbLine
 10
7.530874729156494
 20
3.744077682495116
 30
0.0
 11
7.534100532531737
 21
3.698922157287597
 31
0.0
  0
LINE
  5
72
330
23
100
AcDbEntity
  8
TOP
  6
CONTINUOUS
 62
     7
100
AcDbLine
 10
5.852837085723877
 20
5.776757717132568
 30
0.0
 11
5.852837085723877
 21
5.799580574035644
 31
0.0
  0
LINE
  5
73
330
23
100
AcDbEntity
  8
TOP
  6
CONTINUOUS
 62
     7
100
AcDbLine
 10
1.430488228797912
 20
3.23007583618164
 30
0.0
 11
1.398135900497436
 21
3.23007583618164
 31
0.0
  0
LINE
  5
74
330
23
100
AcDbEntity
  8
TOP
  6
CONTINUOUS
 62
     7
100
AcDbLine
 10
9.906923294067382
 20
3.791166305541992
 30
0.0
 11
9.903515815734863
 21
3.780294179916381
 31
0.0
  0
LINE
  5
75
330
23
100
AcDbEntity
  8
TOP
  6
CONTINUOUS
 62
     7
100
AcDbLine
 10
10.10651779174804
 20
4.250086307525634
 30
0.0
 11
10.09420871734619
 21
4.260607242584228
 31
0.0
  0
LINE
  5
76
330
23
100
AcDbEntity
  8
TOP
  6
CONTINUOUS
 62
     7
100
AcDbLine
 10
5.846837043762207
 20
6.581757545471192
 30
0.0
 11
5.846837043762207
 21
6.536542415618896
 31
0.0
  0
LINE
  5
77
330
23
100
AcDbEntity
  8
TOP
  6
CONTINUOUS
 62
     7
100
AcDbLine
 10
4.700488090515136
 20
7.139257431030273
 30
0.0
 11
4.75048828125
 21
7.139257431030273
 31
0.0
  0
LINE
  5
78
330
23
100
AcDbEntity
  8
TOP
  6
CONTINUOUS
 62
     7
100
AcDbLine
 10
8.151617050170898
 20
3.668545007705688
 30
0.0
 11
8.170387268066406
 21
3.673306465148925
 31
0.0
  0
LINE
  5
79
330
23
100
AcDbEntity
  8
TOP
  6
CONTINUOUS
 62
     7
100
AcDbLine
 10
3.040488243103027
 20
7.308257579803465
 30
0.0
 11
3.040488243103027
 21
7.304257392883299
 31
0.0
  0
LINE
  5
7A
330
23
100
AcDbEntity
  8
TOP
  6
CONTINUOUS
 62
     7
100
AcDbLine
 10
7.90538215637207
 20
3.482659816741943
 30
0.0
 11
7.763358116149902
 21
3.548174619674682
 31
0.0
  0
LINE
  5
7B
330
23
100
AcDbEntity
  8
TOP
  6
CONTINUOUS
 62
     7
100
AcDbLine
 10
6.54084300994873
 20
3.320075750350952
 30
0.0
 11
6.54084300994873
 21
3.274860382080078
 31
0.0
  0
LINE
  5
7C
330
23
100
AcDbEntity
  8
TOP
  6
CONTINUOUS
 62
     7
100
AcDbLine
 10
5.840025424957275
 20
3.76607584953308
 30
0.0
 11
5.840025424957275
 21
3.743252754211425
 31
0.0
  0
LINE
  5
7E
330
23
100
AcDbEntity
  8
TOP
  6
CONTINUOUS
 62
     7
100
AcDbLine
 10
1.290488243103027
 20
6.486809730529785
 30
0.0
 11
1.290488243103027
 21
6.472719669342041
 31
0.0
  0
LINE
  5
7F
330
23
100
AcDbEntity
  8
TOP
  6
CONTINUOUS
 62
     7
100
AcDbLine
 10
5.216488361358642
 20
7.870772838592529
 30
0.0
 11
5.239311218261719
 21
7.870772838592529
 31
0.0
  0
LINE
  5
80
330
23
100
AcDbEntity
  8
TOP
  6
CONTINUOUS
 62
     7
100
AcDbLine
 10
1.364488244056701
 20
7.866772651672363
 30
0.0
 11
1.356593370437622
 21
7.866772651672363
 31
0.0
  0
LINE
  5
81
330
23
100
AcDbEntity
  8
TOP
  6
CONTINUOUS
 62
     7
100
AcDbLine
 10
1.455488204956054
 20
6.814257621765136
 30
0.0
 11
1.455488204956054
 21
6.8642578125
 31
0.0
  0
LINE
  5
82
330
23
100
AcDbEntity
  8
TOP
  6
CONTINUOUS
 62
     7
100
AcDbLine
 10
5.216488361358642
 20
7.874772548675537
 30
0.0
 11
5.254239559173583
 21
7.874772548675537
 31
0.0
  0
LINE
  5
83
330
23
100
AcDbEntity
  8
TOP
  6
CONTINUOUS
 62
     7
100
AcDbLine
 10
8.32151126861572
 20
3.940217018127441
 30
0.0
 11
8.318213462829589
 21
3.95981216430664
 31
0.0
  0
LINE
  5
84
330
23
100
AcDbEntity
  8
TOP
  6
CONTINUOUS
 62
     7
100
AcDbLine
 10
9.145780563354492
 20
3.856870412826537
 30
0.0
 11
9.164141654968259
 21
3.862783432006835
 31
0.0
  0
LINE
  5
85
330
23
100
AcDbEntity
  8
TOP
  6
CONTINUOUS
 62
     7
100
AcDbLine
 10
2.786450147628784
 20
5.038257598876953
 30
0.0
 11
2.765362739562988
 21
5.038257598876953
 31
0.0
  0
LINE
  5
86
330
23
100
AcDbEntity
  8
TOP
  6
CONTINUOUS
 62
     7
100
AcDbLine
 10
6.528843402862548
 20
4.106075763702392
 30
0.0
 11
6.504727840423583
 21
4.016075611114501
 31
0.0
  0
LINE
  5
87
330
23
100
AcDbEntity
  8
TOP
  6
CONTINUOUS
 62
     7
100
AcDbLine
 10
9.469173431396482
 20
4.093067646026611
 30
0.0
 11
9.469173431396482
 21
4.084725856781005
 31
0.0
  0
LINE
  5
88
330
23
100
AcDbEntity
  8
TOP
  6
CONTINUOUS
 62
     7
100
AcDbLine
 10
1.665488243103027
 20
5.719257354736328
 30
0.0
 11
2.268625020980834
 21
6.291833400726318
 31
0.0
  0
LINE
  5
8A
330
23
100
AcDbEntity
  8
TOP
  6
CONTINUOUS
 62
     7
100
AcDbLine
 10
1.680488228797912
 20
5.219257354736328
 30
0.0
 11
1.630488276481628
 21
5.219257354736328
 31
0.0
  0
LINE
  5
8B
330
23
100
AcDbEntity
  8
TOP
  6
CONTINUOUS
 62
     7
100
AcDbLine
 10
8.716760635375976
 20
3.8580904006958
 30
0.0
 11
8.723456382751464
 21
3.859074115753173
 31
0.0
  0
LINE
  5
8C
330
23
100
AcDbEntity
  8
TOP
  6
CONTINUOUS
 62
     7
100
AcDbLine
 10
7.695662021636962
 20
3.5942702293396
 30
0.0
 11
7.712099552154541
 21
3.557141065597534
 31
0.0
  0
LINE
  5
8D
330
23
100
AcDbEntity
  8
TOP
  6
CONTINUOUS
 62
     7
100
AcDbLine
 10
1.2744882106781
 20
5.8667573928833
 30
0.0
 11
1.2744882106781
 21
5.871705532073975
 31
0.0
  0
LINE
  5
8E
330
23
100
AcDbEntity
  8
TOP
  6
CONTINUOUS
 62
     7
100
AcDbLine
 10
8.987013816833496
 20
4.287738323211669
 30
0.0
 11
8.991950035095216
 21
4.291689872741699
 31
0.0
  0
LINE
  5
8F
330
23
100
AcDbEntity
  8
TOP
  6
CONTINUOUS
 62
     7
100
AcDbLine
 10
5.826837062835692
 20
5.776757717132568
 30
0.0
 11
5.826837062835692
 21
5.836901187896728
 31
0.0
  0
LINE
  5
90
330
23
100
AcDbEntity
  8
TOP
  6
CONTINUOUS
 62
     7
100
AcDbLine
 10
4.325488090515136
 20
5.0542573928833
 30
0.0
 11
4.325488090515136
 21
5.050257682800292
 31
0.0
  0
LINE
  5
91
330
23
100
AcDbEntity
  8
TOP
  6
CONTINUOUS
 62
     7
100
AcDbLine
 10
8.147784233093259
 20
4.110724449157714
 30
0.0
 11
8.150557518005371
 21
4.119276046752929
 31
0.0
  0
LINE
  5
92
330
23
100
AcDbEntity
  8
TOP
  6
CONTINUOUS
 62
     7
100
AcDbLine
 10
8.176525115966798
 20
4.414900779724121
 30
0.0
 11
8.16829776763916
 21
4.416459560394287
 31
0.0
  0
LINE
  5
93
330
23
100
AcDbEntity
  8
TOP
  6
CONTINUOUS
 62
     7
100
AcDbLine
 10
8.108861923217773
 20
3.551657199859619
 30
0.0
 11
8.15721321105957
 21
3.566551208496093
 31
0.0
  0
LINE
  5
94
330
23
100
AcDbEntity
  8
TOP
  6
CONTINUOUS
 62
     7
100
AcDbLine
 10
2.765362739562988
 20
7.304257392883299
 30
0.0
 11
2.740488290786743
 21
7.304257392883299
 31
0.0
  0
LINE
  5
95
330
23
100
AcDbEntity
  8
TOP
  6
CONTINUOUS
 62
     7
100
AcDbLine
 10
6.522861957550048
 20
5.128257751464843
 30
0.0
 11
6.522861957550048
 21
5.083042144775391
 31
0.0
  0
LINE
  5
96
330
23
100
AcDbEntity
  8
TOP
  6
CONTINUOUS
 62
     7
100
AcDbLine
 10
9.639233589172365
 20
3.470355033874512
 30
0.0
 11
9.639233589172365
 21
3.479252815246582
 31
0.0
  0
LINE
  5
97
330
23
100
AcDbEntity
  8
TOP
  6
CONTINUOUS
 62
     7
100
AcDbLine
 10
1.71561312675476
 20
5.7971773147583
 30
0.0
 11
1.709887504577636
 21
5.791741847991944
 31
0.0
  0
LINE
  5
98
330
23
100
AcDbEntity
  8
TOP
  6
CONTINUOUS
 62
     7
100
AcDbLine
 10
9.666098594665527
 20
3.9518723487854
 30
0.0
 11
9.65502643585205
 21
3.935258626937865
 31
0.0
  0
LINE
  5
99
330
23
100
AcDbEntity
  8
TOP
  6
CONTINUOUS
 62
     7
100
AcDbLine
 10
8.183583259582517
 20
3.482027053833007
 30
0.0
 11
8.121874809265136
 21
3.53683876991272
 31
0.0
  0
LINE
  5
9A
330
23
100
AcDbEntity
  8
TOP
  6
CONTINUOUS
 62
     7
100
AcDbLine
 10
1.810436010360717
 20
7.320257663726806
 30
0.0
 11
1.824526309967041
 21
7.320257663726806
 31
0.0
  0
LINE
  5
9B
330
23
100
AcDbEntity
  8
TOP
  6
CONTINUOUS
 62
     7
100
AcDbLine
 10
6.530861854553223
 20
7.230257511138916
 30
0.0
 11
6.530861854553223
 21
7.30532932281494
 31
0.0
  0
LINE
  5
9C
330
23
100
AcDbEntity
  8
TOP
  6
CONTINUOUS
 62
     7
100
AcDbLine
 10
10.1245412826538
 20
3.772892951965332
 30
0.0
 11
10.12627220153808
 21
3.78161072731018
 31
0.0
  0
LINE
  5
9D
330
23
100
AcDbEntity
  8
TOP
  6
CONTINUOUS
 62
     7
100
AcDbLine
 10
9.052005767822263
 20
3.927899599075317
 30
0.0
 11
9.03969669342041
 21
3.938420295715332
 31
0.0
  0
LINE
  5
9E
330
23
100
AcDbEntity
  8
TOP
  6
CONTINUOUS
 62
     7
100
AcDbLine
 10
5.290488243103027
 20
4.065950393676757
 30
0.0
 11
5.290488243103027
 21
4.087037563323975
 31
0.0
  0
LINE
  5
9F
330
23
100
AcDbEntity
  8
TOP
  6
CONTINUOUS
 62
     7
100
AcDbLine
 10
9.360416412353517
 20
4.594257354736328
 30
0.0
 11
9.348108291625976
 21
4.604778289794921
 31
0.0
  0
LINE
  5
A0
330
23
100
AcDbEntity
  8
TOP
  6
CONTINUOUS
 62
     7
100
AcDbLine
 10
3.040488243103027
 20
5.0542573928833
 30
0.0
 11
3.040488243103027
 21
5.058650970458984
 31
0.0
  0
LINE
  5
A1
330
23
100
AcDbEntity
  8
TOP
  6
CONTINUOUS
 62
     7
100
AcDbLine
 10
8.668411254882812
 20
3.767830610275268
 30
0.0
 11
8.672209739685056
 21
3.7665114402771
 31
0.0
  0
LINE
  5
A2
330
23
100
AcDbEntity
  8
TOP
  6
CONTINUOUS
 62
     7
100
AcDbLine
 10
9.0528564453125
 20
3.949431657791137
 30
0.0
 11
9.073039054870605
 21
3.954366445541381
 31
0.0
  0
LINE
  5
A3
330
23
100
AcDbEntity
  8
TOP
  6
CONTINUOUS
 62
     7
100
AcDbLine
 10
3.044507503509521
 20
3.246075868606567
 30
0.0
 11
3.055488348007202
 21
3.246075868606567
 31
0.0
  0
LINE
  5
A4
330
23
100
AcDbEntity
  8
TOP
  6
CONTINUOUS
 62
     7
100
AcDbLine
 10
8.706250190734863
 20
4.0938401222229
 30
0.0
 11
8.711779594421384
 21
4.094354152679443
 31
0.0
  0
LINE
  5
A5
330
23
100
AcDbEntity
  8
TOP
  6
CONTINUOUS
 62
     7
100
AcDbLine
 10
1.364488244056701
 20
7.90877294540405
 30
0.0
 11
1.349129199981689
 21
7.90877294540405
 31
0.0
  0
LINE
  5
A6
330
23
100
AcDbEntity
  8
TOP
  6
CONTINUOUS
 62
     7
100
AcDbLine
 10
5.12548828125
 20
5.244257450103759
 30
0.0
 11
5.12548828125
 21
5.219257354736328
 31
0.0
  0
LINE
  5
A7
330
23
100
AcDbEntity
  8
TOP
  6
CONTINUOUS
 62
     7
100
AcDbLine
 10
4.837988376617431
 20
5.038257598876953
 30
0.0
 11
6.659862041473388
 21
5.038257598876953
 31
0.0
  0
LINE
  5
A8
330
23
100
AcDbEntity
  8
TOP
  6
CONTINUOUS
 62
     7
100
AcDbLine
 10
8.90314769744873
 20
3.776179790496825
 30
0.0
 11
8.901381492614746
 21
3.767366170883178
 31
0.0
  0
LINE
  5
A9
330
23
100
AcDbEntity
  8
TOP
  6
CONTINUOUS
 62
     7
100
AcDbLine
 10
2.740488290786743
 20
5.0542573928833
 30
0.0
 11
2.765362739562988
 21
5.0542573928833
 31
0.0
  0
LINE
  5
AA
330
23
100
AcDbEntity
  8
TOP
  6
CONTINUOUS
 62
     7
100
AcDbLine
 10
9.238636970520019
 20
3.896530628204345
 30
0.0
 11
9.266066551208496
 21
3.910125494003295
 31
0.0
  0
LINE
  5
AB
330
23
100
AcDbEntity
  8
TOP
  6
CONTINUOUS
 62
     7
100
AcDbLine
 10
6.526843070983887
 20
4.016075611114501
 30
0.0
 11
6.526843070983887
 21
4.098611831665039
 31
0.0
  0
LINE
  5
AC
330
23
100
AcDbEntity
  8
TOP
  6
CONTINUOUS
 62
     7
100
AcDbLine
 10
5.814025402069091
 20
3.14007568359375
 30
0.0
 11
5.814025402069091
 21
3.200219392776489
 31
0.0
  0
LINE
  5
AE
330
23
100
AcDbEntity
  8
TOP
  6
CONTINUOUS
 62
     7
100
AcDbLine
 10
1.455488204956054
 20
5.219257354736328
 30
0.0
 11
1.455488204956054
 21
5.244257450103759
 31
0.0
  0
LINE
  5
B0
330
23
100
AcDbEntity
  8
TOP
  6
CONTINUOUS
 62
     7
100
AcDbLine
 10
9.025172233581542
 20
4.524448394775391
 30
0.0
 11
9.031867027282713
 21
4.525432109832763
 31
0.0
  0
LINE
  5
B1
330
23
100
AcDbEntity
  8
TOP
  6
CONTINUOUS
 62
     7
100
AcDbLine
 10
7.756015300750732
 20
3.490953922271728
 30
0.0
 11
7.789239406585692
 21
3.473304510116576
 31
0.0
  0
LINE
  5
B2
330
23
100
AcDbEntity
  8
TOP
  6
CONTINUOUS
 62
     7
100
AcDbLine
 10
4.775488376617431
 20
5.069257736206055
 30
0.0
 11
4.775488376617431
 21
5.058650970458984
 31
0.0
  0
LINE
  5
B3
330
23
100
AcDbEntity
  8
TOP
  6
CONTINUOUS
 62
     7
100
AcDbLine
 10
5.12548828125
 20
5.644257545471192
 30
0.0
 11
5.12548828125
 21
5.594257354736328
 31
0.0
  0
LINE
  5
B4
330
23
100
AcDbEntity
  8
TOP
  6
CONTINUOUS
 62
     7
100
AcDbLine
 10
9.029895782470703
 20
4.516709804534912
 30
0.0
 11
9.032974243164062
 21
4.506401538848876
 31
0.0
  0
LINE
  5
B5
330
23
100
AcDbEntity
  8
TOP
  6
CONTINUOUS
 62
     7
100
AcDbLine
 10
2.199324131011962
 20
4.176807403564453
 30
0.0
 11
2.19226336479187
 21
4.163167476654052
 31
0.0
  0
LINE
  5
B6
330
23
100
AcDbEntity
  8
TOP
  6
CONTINUOUS
 62
     7
100
AcDbLine
 10
5.840837001800537
 20
5.776757717132568
 30
0.0
 11
5.840837001800537
 21
5.844365119934082
 31
0.0
  0
LINE
  5
B7
330
23
100
AcDbEntity
  8
TOP
  6
CONTINUOUS
 62
     7
100
AcDbLine
 10
1.880488276481628
 20
5.219257354736328
 30
0.0
 11
1.830488204956054
 21
5.219257354736328
 31
0.0
  0
LINE
  5
B8
330
23
100
AcDbEntity
  8
TOP
  6
CONTINUOUS
 62
     7
100
AcDbLine
 10
8.845729827880859
 20
3.780580997467041
 30
0.0
 11
8.850796699523925
 21
3.782542467117309
 31
0.0
  0
LINE
  5
B9
330
23
100
AcDbEntity
  8
TOP
  6
CONTINUOUS
 62
     7
100
AcDbLine
 10
5.306488037109375
 20
6.451632022857666
 30
0.0
 11
5.306488037109375
 21
6.4267578125
 31
0.0
  0
LINE
  5
BA
330
23
100
AcDbEntity
  8
TOP
  6
CONTINUOUS
 62
     7
100
AcDbLine
 10
6.528843402862548
 20
4.106075763702392
 30
0.0
 11
6.528843402862548
 21
3.910685777664184
 31
0.0
  0
LINE
  5
BB
330
23
100
AcDbEntity
  8
TOP
  6
CONTINUOUS
 62
     7
100
AcDbLine
 10
8.45362377166748
 20
3.754066467285155
 30
0.0
 11
8.449291229248048
 21
3.756065130233764
 31
0.0
  0
LINE
  5
BC
330
23
100
AcDbEntity
  8
TOP
  6
CONTINUOUS
 62
     7
100
AcDbLine
 10
5.810837268829345
 20
6.581757545471192
 30
0.0
 11
5.810837268829345
 21
6.581326961517333
 31
0.0
  0
LINE
  5
BD
330
23
100
AcDbEntity
  8
TOP
  6
CONTINUOUS
 62
     7
100
AcDbLine
 10
1.880488276481628
 20
7.320257663726806
 30
0.0
 11
1.880488276481628
 21
7.316257476806639
 31
0.0
  0
LINE
  5
BE
330
23
100
AcDbEntity
  8
TOP
  6
CONTINUOUS
 62
     7
100
AcDbLine
 10
6.069868564605712
 20
6.00799560546875
 30
0.0
 11
6.114868640899657
 21
6.00799560546875
 31
0.0
  0
LINE
  5
BF
330
23
100
AcDbEntity
  8
TOP
  6
CONTINUOUS
 62
     7
100
AcDbLine
 10
8.184910774230957
 20
3.483522415161132
 30
0.0
 11
8.117622375488281
 21
3.543290853500366
 31
0.0
  0
LINE
  5
C0
330
23
100
AcDbEntity
  8
TOP
  6
CONTINUOUS
 62
     7
100
AcDbLine
 10
3.756450176239013
 20
7.320257663726806
 30
0.0
 11
3.770540475845336
 21
7.320257663726806
 31
0.0
  0
LINE
  5
C1
330
23
100
AcDbEntity
  8
TOP
  6
CONTINUOUS
 62
     7
100
AcDbLine
 10
6.536861896514892
 20
7.230257511138916
 30
0.0
 11
6.536861896514892
 21
7.312793254852295
 31
0.0
  0
LINE
  5
C2
330
23
100
AcDbEntity
  8
TOP
  6
CONTINUOUS
 62
     7
100
AcDbLine
 10
8.416706085205078
 20
3.757265090942383
 30
0.0
 11
8.42164134979248
 21
3.756330013275146
 31
0.0
  0
LINE
  5
C3
330
23
100
AcDbEntity
  8
TOP
  6
CONTINUOUS
 62
     7
100
AcDbLine
 10
9.022398948669431
 20
4.515896797180175
 30
0.0
 11
9.025172233581542
 21
4.524448394775391
 31
0.0
  0
LINE
  5
C4
330
23
100
AcDbEntity
  8
TOP
  6
CONTINUOUS
 62
     7
100
AcDbLine
 10
9.372725486755372
 20
4.281999111175537
 30
0.0
 11
9.380171775817872
 21
4.284274101257324
 31
0.0
  0
LINE
  5
C5
330
23
100
AcDbEntity
  8
TOP
  6
CONTINUOUS
 62
     7
100
AcDbLine
 10
9.940126419067382
 20
3.562893152236938
 30
0.0
 11
9.941825866699216
 21
3.571043014526367
 31
0.0
  0
LINE
  5
C6
330
23
100
AcDbEntity
  8
TOP
  6
CONTINUOUS
 62
     7
100
AcDbLine
 10
3.794526338577271
 20
7.304257392883299
 30
0.0
 11
3.780436038970947
 21
7.304257392883299
 31
0.0
  0
LINE
  5
C7
330
23
100
AcDbEntity
  8
TOP
  6
CONTINUOUS
 62
     7
100
AcDbLine
 10
10.1157112121582
 20
4.266376495361328
 30
0.0
 11
10.16017436981201
 21
4.280479431152343
 31
0.0
  0
LINE
  5
C9
330
23
100
AcDbEntity
  8
TOP
  6
CONTINUOUS
 62
     7
100
AcDbLine
 10
5.216488361358642
 20
7.912772655487058
 30
0.0
 11
5.2169189453125
 21
7.912772655487058
 31
0.0
  0
LINE
  5
CA
330
23
100
AcDbEntity
  8
TOP
  6
CONTINUOUS
 62
     7
100
AcDbLine
 10
4.950488090515136
 20
6.639257431030273
 30
0.0
 11
4.900488376617431
 21
6.639257431030273
 31
0.0
  0
LINE
  5
CB
330
23
100
AcDbEntity
  8
TOP
  6
CONTINUOUS
 62
     7
100
AcDbLine
 10
9.085201263427734
 20
7.260260105133055
 30
0.0
 11
9.085201263427734
 21
7.88476037979126
 31
0.0
  0
LINE
  5
CC
330
23
100
AcDbEntity
  8
TOP
  6
CONTINUOUS
 62
     7
100
AcDbLine
 10
10.52557277679443
 20
4.654081821441649
 30
0.0
 11
10.38354873657226
 21
4.71959638595581
 31
0.0
  0
LINE
  5
CD
330
23
100
AcDbEntity
  8
TOP
  6
CONTINUOUS
 62
     7
100
AcDbLine
 10
3.794526338577271
 20
5.0542573928833
 30
0.0
 11
3.815613746643065
 21
5.0542573928833
 31
0.0
  0
LINE
  5
CE
330
23
100
AcDbEntity
  8
TOP
  6
CONTINUOUS
 62
     7
100
AcDbLine
 10
9.397342681884765
 20
4.234495639801025
 30
0.0
 11
9.71547794342041
 21
4.087742805480957
 31
0.0
  0
LINE
  5
CF
330
23
100
AcDbEntity
  8
TOP
  6
CONTINUOUS
 62
     7
100
AcDbLine
 10
5.216488361358642
 20
7.864772796630859
 30
0.0
 11
5.2169189453125
 21
7.864772796630859
 31
0.0
  0
LINE
  5
D0
330
23
100
AcDbEntity
  8
TOP
  6
CONTINUOUS
 62
     7
100
AcDbLine
 10
6.528843402862548
 20
4.016075611114501
 30
0.0
 11
6.528843402862548
 21
4.106075763702392
 31
0.0
  0
LINE
  5
D1
330
23
100
AcDbEntity
  8
TOP
  6
CONTINUOUS
 62
     7
100
AcDbLine
 10
8.910799026489257
 20
3.750557899475097
 30
0.0
 11
8.903353691101074
 21
3.748283147811889
 31
0.0
  0
LINE
  5
D2
330
23
100
AcDbEntity
  8
TOP
  6
CONTINUOUS
 62
     7
100
AcDbLine
 10
8.426521301269531
 20
4.261700630187988
 30
0.0
 11
8.325658798217773
 21
4.230884075164794
 31
0.0
  0
LINE
  5
D4
330
23
100
AcDbEntity
  8
TOP
  6
CONTINUOUS
 62
     7
100
AcDbLine
 10
1.955488204956054
 20
6.8642578125
 30
0.0
 11
1.955488204956054
 21
6.814257621765136
 31
0.0
  0
LINE
  5
D5
330
23
100
AcDbEntity
  8
TOP
  6
CONTINUOUS
 62
     7
100
AcDbLine
 10
9.03969669342041
 20
3.938420295715332
 30
0.0
 11
8.710200309753417
 21
4.090414524078369
 31
0.0
  0
LINE
  5
D6
330
23
100
AcDbEntity
  8
TOP
  6
CONTINUOUS
 62
     7
100
AcDbLine
 10
9.907751083374023
 20
4.097659587860107
 30
0.0
 11
9.901056289672851
 21
4.096675872802734
 31
0.0
  0
LINE
  5
D7
330
23
100
AcDbEntity
  8
TOP
  6
CONTINUOUS
 62
     7
100
AcDbLine
 10
3.775488138198852
 20
5.038257598876953
 30
0.0
 11
3.770540475845336
 21
5.038257598876953
 31
0.0
  0
LINE
  5
D8
330
23
100
AcDbEntity
  8
TOP
  6
CONTINUOUS
 62
     7
100
AcDbLine
 10
10.08839893341064
 20
4.015965461730957
 30
0.0
 11
10.08850193023681
 21
4.015918731689453
 31
0.0
  0
LINE
  5
D9
330
23
100
AcDbEntity
  8
TOP
  6
CONTINUOUS
 62
     7
100
AcDbLine
 10
2.16557765007019
 20
4.194276332855224
 30
0.0
 11
2.155085563659668
 21
4.1740083694458
 31
0.0
  0
LINE
  5
DB
330
23
100
AcDbEntity
  8
TOP
  6
CONTINUOUS
 62
     7
100
AcDbLine
 10
1.830488204956054
 20
5.719257354736328
 30
0.0
 11
1.880488276481628
 21
5.719257354736328
 31
0.0
  0
LINE
  5
DC
330
23
100
AcDbEntity
  8
TOP
  6
CONTINUOUS
 62
     7
100
AcDbLine
 10
9.219210624694824
 20
4.416915893554688
 30
0.0
 11
9.211764335632322
 21
4.4146409034729
 31
0.0
  0
LINE
  5
DD
330
23
100
AcDbEntity
  8
TOP
  6
CONTINUOUS
 62
     7
100
AcDbLine
 10
8.100442886352539
 20
4.14646577835083
 30
0.0
 11
8.107137680053712
 21
4.139305114746093
 31
0.0
  0
LINE
  5
DE
330
23
100
AcDbEntity
  8
TOP
  6
CONTINUOUS
 62
     7
100
AcDbLine
 10
9.722923278808591
 20
4.090017318725585
 30
0.0
 11
9.404788970947263
 21
4.236770629882812
 31
0.0
  0
LINE
  5
DF
330
23
100
AcDbEntity
  8
TOP
  6
CONTINUOUS
 62
     7
100
AcDbLine
 10
8.893885612487792
 20
3.7665536403656
 30
0.0
 11
8.896658897399902
 21
3.775104999542235
 31
0.0
  0
LINE
  5
E0
330
23
100
AcDbEntity
  8
TOP
  6
CONTINUOUS
 62
     7
100
AcDbLine
 10
1.305488228797912
 20
5.8667573928833
 30
0.0
 11
1.294881582260131
 21
5.8667573928833
 31
0.0
  0
LINE
  5
E1
330
23
100
AcDbEntity
  8
TOP
  6
CONTINUOUS
 62
     7
100
AcDbLine
 10
8.335515022277832
 20
3.60389232635498
 30
0.0
 11
8.35400390625
 21
3.611267328262328
 31
0.0
  0
LINE
  5
E2
330
23
100
AcDbEntity
  8
TOP
  6
CONTINUOUS
 62
     7
100
AcDbLine
 10
10.27070045471191
 20
3.676675796508788
 30
0.0
 11
10.26343345642089
 21
3.664585113525391
 31
0.0
  0
LINE
  5
E3
330
23
100
AcDbEntity
  8
TOP
  6
CONTINUOUS
 62
     7
100
AcDbLine
 10
5.81072187423706
 20
5.776757717132568
 30
0.0
 11
5.858952522277832
 21
5.776757717132568
 31
0.0
  0
LINE
  5
E4
330
23
100
AcDbEntity
  8
TOP
  6
CONTINUOUS
 62
     7
100
AcDbLine
 10
4.700488090515136
 20
7.316257476806639
 30
0.0
 11
4.700488090515136
 21
7.320257663726806
 31
0.0
  0
LINE
  5
E5
330
23
100
AcDbEntity
  8
TOP
  6
CONTINUOUS
 62
     7
100
AcDbLine
 10
8.38453197479248
 20
4.73613166809082
 30
0.0
 11
8.39304447174072
 21
4.737271785736083
 31
0.0
  0
LINE
  5
E6
330
23
100
AcDbEntity
  8
TOP
  6
CONTINUOUS
 62
     7
100
AcDbLine
 10
10.34098720550537
 20
4.23086929321289
 30
0.0
 11
10.37859725952148
 21
4.254403114318847
 31
0.0
  0
LINE
  5
E7
330
23
100
AcDbEntity
  8
TOP
  6
CONTINUOUS
 62
     7
100
AcDbLine
 10
3.770540475845336
 20
7.304257392883299
 30
0.0
 11
3.756450176239013
 21
7.304257392883299
 31
0.0
  0
LINE
  5
E9
330
23
100
AcDbEntity
  8
TOP
  6
CONTINUOUS
 62
     7
100
AcDbLine
 10
8.416788101196289
 20
4.7232666015625
 30
0.0
 11
8.405715942382812
 21
4.733114719390869
 31
0.0
  0
LINE
  5
EA
330
23
100
AcDbEntity
  8
TOP
  6
CONTINUOUS
 62
     7
100
AcDbLine
 10
6.540862083435058
 20
5.128257751464843
 30
0.0
 11
6.540862083435058
 21
5.060649871826171
 31
0.0
  0
LINE
  5
EB
330
23
100
AcDbEntity
  8
TOP
  6
CONTINUOUS
 62
     7
100
AcDbLine
 10
9.772158622741699
 20
4.414876461029052
 30
0.0
 11
10.10165500640869
 21
4.262882232666015
 31
0.0
  0
LINE
  5
EC
330
23
100
AcDbEntity
  8
TOP
  6
CONTINUOUS
 62
     7
100
AcDbLine
 10
5.798025608062744
 20
3.14007568359375
 30
0.0
 11
5.798025608062744
 21
3.140506505966186
 31
0.0
  0
LINE
  5
ED
330
23
100
AcDbEntity
  8
TOP
  6
CONTINUOUS
 62
     7
100
AcDbLine
 10
3.87548828125
 20
3.701075792312622
 30
0.0
 11
4.200488090515136
 21
3.701075792312622
 31
0.0
  0
LINE
  5
EE
330
23
100
AcDbEntity
  8
TOP
  6
CONTINUOUS
 62
     7
100
AcDbLine
 10
1.741775870323181
 20
5.769618034362792
 30
0.0
 11
1.719810366630554
 21
5.748765468597412
 31
0.0
  0
LINE
  5
EF
330
23
100
AcDbEntity
  8
TOP
  6
CONTINUOUS
 62
     7
100
AcDbLine
 10
9.697509765625
 20
3.741086721420288
 30
0.0
 11
9.895289421081542
 21
3.801514387130736
 31
0.0
  0
LINE
  5
F0
330
23
100
AcDbEntity
  8
TOP
  6
CONTINUOUS
 62
     7
100
AcDbLine
 10
8.168972969055174
 20
3.46557879447937
 30
0.0
 11
8.16865062713623
 21
3.465864896774291
 31
0.0
  0
LINE
  5
F1
330
23
100
AcDbEntity
  8
TOP
  6
CONTINUOUS
 62
     7
100
AcDbLine
 10
1.805488228797912
 20
7.289257526397705
 30
0.0
 11
1.805488228797912
 21
7.299864292144774
 31
0.0
  0
LINE
  5
F2
330
23
100
AcDbEntity
  8
TOP
  6
CONTINUOUS
 62
     7
100
AcDbLine
 10
8.318213462829589
 20
4.235088348388671
 30
0.0
 11
8.314915657043457
 21
4.254683017730712
 31
0.0
  0
LINE
  5
F3
330
23
100
AcDbEntity
  8
TOP
  6
CONTINUOUS
 62
     7
100
AcDbLine
 10
6.510861873626708
 20
7.230257511138916
 30
0.0
 11
6.510861873626708
 21
7.230688571929931
 31
0.0
  0
LINE
  5
F4
330
23
100
AcDbEntity
  8
TOP
  6
CONTINUOUS
 62
     7
100
AcDbLine
 10
7.580721378326416
 20
3.587325096130371
 30
0.0
 11
7.607138156890869
 21
3.561524152755737
 31
0.0
  0
LINE
  5
F5
330
23
100
AcDbEntity
  8
TOP
  6
CONTINUOUS
 62
     7
100
AcDbLine
 10
1.830488204956054
 20
7.139257431030273
 30
0.0
 11
1.880488276481628
 21
7.139257431030273
 31
0.0
  0
LINE
  5
F6
330
23
100
AcDbEntity
  8
TOP
  6
CONTINUOUS
 62
     7
100
AcDbLine
 10
1.322235107421875
 20
3.23007583618164
 30
0.0
 11
1.309747457504272
 21
3.23007583618164
 31
0.0
  0
LINE
  5
F7
330
23
100
AcDbEntity
  8
TOP
  6
CONTINUOUS
 62
     7
100
AcDbLine
 10
5.822025299072265
 20
3.67607569694519
 30
0.0
 11
5.846140861511231
 21
3.76607584953308
 31
0.0
  0
LINE
  5
F8
330
23
100
AcDbEntity
  8
TOP
  6
CONTINUOUS
 62
     7
100
AcDbLine
 10
5.100488185882568
 20
7.139257431030273
 30
0.0
 11
5.12548828125
 21
7.139257431030273
 31
0.0
  0
LINE
  5
F9
330
23
100
AcDbEntity
  8
TOP
  6
CONTINUOUS
 62
     7
100
AcDbLine
 10
8.226186752319335
 20
3.694432735443115
 30
0.0
 11
8.241688728332517
 21
3.700938701629639
 31
0.0
  0
LINE
  5
FA
330
23
100
AcDbEntity
  8
TOP
  6
CONTINUOUS
 62
     7
100
AcDbLine
 10
5.832025527954101
 20
3.76607584953308
 30
0.0
 11
5.832025527954101
 21
3.713396310806273
 31
0.0
  0
LINE
  5
FB
330
23
100
AcDbEntity
  8
TOP
  6
CONTINUOUS
 62
     7
100
AcDbLine
 10
1.364488244056701
 20
7.874772548675537
 30
0.0
 11
1.32673692703247
 21
7.874772548675537
 31
0.0
  0
LINE
  5
FC
330
23
100
AcDbEntity
  8
TOP
  6
CONTINUOUS
 62
     7
100
AcDbLine
 10
5.12548828125
 20
5.219257354736328
 30
0.0
 11
5.100488185882568
 21
5.219257354736328
 31
0.0
  0
LINE
  5
FD
330
23
100
AcDbEntity
  8
TOP
  6
CONTINUOUS
 62
     7
100
AcDbLine
 10
5.216488361358642
 20
7.882772922515869
 30
0.0
 11
5.284095764160156
 21
7.882772922515869
 31
0.0
  0
LINE
  5
FE
330
23
100
AcDbEntity
  8
TOP
  6
CONTINUOUS
 62
     7
100
AcDbLine
 10
9.228528976440429
 20
3.881721735000609
 30
0.0
 11
9.264012336730957
 21
3.897517919540404
 31
0.0
  0
LINE
  5
FF
330
23
100
AcDbEntity
  8
TOP
  6
CONTINUOUS
 62
     7
100
AcDbLine
 10
1.824526309967041
 20
5.038257598876953
 30
0.0
 11
1.810436010360717
 21
5.038257598876953
 31
0.0
  0
LINE
  5
100
330
23
100
AcDbEntity
  8
TOP
  6
CONTINUOUS
 62
     7
100
AcDbLine
 10
6.114868640899657
 20
6.00799560546875
 30
0.0
 11
6.114868640899657
 21
6.176745891571044
 31
0.0
  0
LINE
  5
101
330
23
100
AcDbEntity
  8
TOP
  6
CONTINUOUS
 62
     7
100
AcDbLine
 10
6.504843235015869
 20
4.016075611114501
 30
0.0
 11
6.504843235015869
 21
4.016506671905517
 31
0.0
  0
LINE
  5
102
330
23
100
AcDbEntity
  8
TOP
  6
CONTINUOUS
 62
     7
100
AcDbLine
 10
8.711779594421384
 20
4.094354152679443
 30
0.0
 11
8.717646598815917
 21
4.092689514160156
 31
0.0
  0
LINE
  5
104
330
23
100
AcDbEntity
  8
TOP
  6
CONTINUOUS
 62
     7
100
AcDbLine
 10
8.342830657958984
 20
3.912308931350708
 30
0.0
 11
8.660965919494628
 21
3.76555585861206
 31
0.0
  0
LINE
  5
105
330
23
100
AcDbEntity
  8
TOP
  6
CONTINUOUS
 62
     7
100
AcDbLine
 10
1.955488204956054
 20
5.644257545471192
 30
0.0
 11
1.955488204956054
 21
5.594257354736328
 31
0.0
  0
LINE
  5
107
330
23
100
AcDbEntity
  8
TOP
  6
CONTINUOUS
 62
     7
100
AcDbLine
 10
7.793778896331787
 20
3.484402656555175
 30
0.0
 11
7.829037189483641
 21
3.475494861602783
 31
0.0
  0
LINE
  5
108
330
23
100
AcDbEntity
  8
TOP
  6
CONTINUOUS
 62
     7
100
AcDbLine
 10
1.290488243103027
 20
6.4917573928833
 30
0.0
 11
1.290488243103027
 21
6.486809730529785
 31
0.0
  0
LINE
  5
10A
330
23
100
AcDbEntity
  8
TOP
  6
CONTINUOUS
 62
     7
100
AcDbLine
 10
9.469169616699216
 20
4.084327697753905
 30
0.0
 11
9.469173431396482
 21
4.084725856781005
 31
0.0
  0
LINE
  5
10C
330
23
100
AcDbEntity
  8
TOP
  6
CONTINUOUS
 62
     7
100
AcDbLine
 10
3.184382915496826
 20
7.804397583007811
 30
0.0
 11
3.229382753372192
 21
7.804397583007811
 31
0.0
  0
LINE
  5
10D
330
23
100
AcDbEntity
  8
TOP
  6
CONTINUOUS
 62
     7
100
AcDbLine
 10
8.420840263366699
 20
4.706430912017822
 30
0.0
 11
8.416788101196289
 21
4.7232666015625
 31
0.0
  0
LINE
  5
10E
330
23
100
AcDbEntity
  8
TOP
  6
CONTINUOUS
 62
     7
100
AcDbLine
 10
8.269464492797851
 20
3.597196578979492
 30
0.0
 11
8.293641090393066
 21
3.603030204772948
 31
0.0
  0
LINE
  5
10F
330
23
100
AcDbEntity
  8
TOP
  6
CONTINUOUS
 62
     7
100
AcDbLine
 10
1.824526309967041
 20
7.304257392883299
 30
0.0
 11
1.810436010360717
 21
7.304257392883299
 31
0.0
  0
LINE
  5
111
330
23
100
AcDbEntity
  8
TOP
  6
CONTINUOUS
 62
     7
100
AcDbLine
 10
6.530861854553223
 20
5.128257751464843
 30
0.0
 11
6.530861854553223
 21
5.053185939788817
 31
0.0
  0
LINE
  5
112
330
23
100
AcDbEntity
  8
TOP
  6
CONTINUOUS
 62
     7
100
AcDbLine
 10
8.822444915771484
 20
4.360257625579833
 30
0.0
 11
8.794476509094238
 21
4.363489627838134
 31
0.0
  0
LINE
  5
113
330
23
100
AcDbEntity
  8
TOP
  6
CONTINUOUS
 62
     7
100
AcDbLine
 10
5.258741378784179
 20
3.23007583618164
 30
0.0
 11
5.238876342773437
 21
3.23007583618164
 31
0.0
  0
LINE
  5
114
330
23
100
AcDbEntity
  8
TOP
  6
CONTINUOUS
 62
     7
100
AcDbLine
 10
1.305488228797912
 20
5.194257736206055
 30
0.0
 11
1.305488228797912
 21
5.8667573928833
 31
0.0
  0
LINE
  5
115
330
23
100
AcDbEntity
  8
TOP
  6
CONTINUOUS
 62
     7
100
AcDbLine
 10
7.585201263427734
 20
7.572760105133055
 30
0.0
 11
10.67520141601562
 21
7.572760105133055
 31
0.0
  0
LINE
  5
116
330
23
100
AcDbEntity
  8
TOP
  6
CONTINUOUS
 62
     7
100
AcDbLine
 10
8.374303817749021
 20
4.503134250640869
 30
0.0
 11
8.382530212402341
 21
4.501575469970703
 31
0.0
  0
LINE
  5
117
330
23
100
AcDbEntity
  8
TOP
  6
CONTINUOUS
 62
     7
100
AcDbLine
 10
1.721121072769165
 20
5.791375637054443
 30
0.0
 11
1.693742275238037
 21
5.765383720397949
 31
0.0
  0
LINE
  5
118
330
23
100
AcDbEntity
  8
TOP
  6
CONTINUOUS
 62
     7
100
AcDbLine
 10
9.889229774475095
 20
3.776504039764403
 30
0.0
 11
9.691450119018552
 21
3.716076374053955
 31
0.0
  0
LINE
  5
119
330
23
100
AcDbEntity
  8
TOP
  6
CONTINUOUS
 62
     7
100
AcDbLine
 10
8.1995210647583
 20
3.49997067451477
 30
0.0
 11
8.193618774414062
 21
3.505213737487792
 31
0.0
  0
LINE
  5
11A
330
23
100
AcDbEntity
  8
TOP
  6
CONTINUOUS
 62
     7
100
AcDbLine
 10
2.740488290786743
 20
7.320257663726806
 30
0.0
 11
2.765362739562988
 21
7.320257663726806
 31
0.0
  0
LINE
  5
11B
330
23
100
AcDbEntity
  8
TOP
  6
CONTINUOUS
 62
     7
100
AcDbLine
 10
1.730759978294372
 20
5.781221866607666
 30
0.0
 11
1.665488243103027
 21
5.719257354736328
 31
0.0
  0
LINE
  5
11C
330
23
100
AcDbEntity
  8
TOP
  6
CONTINUOUS
 62
     7
100
AcDbLine
 10
6.55886173248291
 20
7.230257511138916
 30
0.0
 11
6.55886173248291
 21
7.230688571929931
 31
0.0
  0
LINE
  5
11D
330
23
100
AcDbEntity
  8
TOP
  6
CONTINUOUS
 62
     7
100
AcDbLine
 10
9.649048805236816
 20
3.988574504852295
 30
0.0
 11
9.644112586975095
 21
3.984623432159423
 31
0.0
  0
LINE
  5
11E
330
23
100
AcDbEntity
  8
TOP
  6
CONTINUOUS
 62
     7
100
AcDbLine
 10
8.155281066894531
 20
4.111537456512451
 30
0.0
 11
8.158359527587888
 21
4.101229190826416
 31
0.0
  0
LINE
  5
11F
330
23
100
AcDbEntity
  8
TOP
  6
CONTINUOUS
 62
     7
100
AcDbLine
 10
2.740488290786743
 20
5.038257598876953
 30
0.0
 11
1.870488286018371
 21
5.038257598876953
 31
0.0
  0
LINE
  5
120
330
23
100
AcDbEntity
  8
TOP
  6
CONTINUOUS
 62
     7
100
AcDbLine
 10
9.03969669342041
 20
3.938420295715332
 30
0.0
 11
9.04714298248291
 21
3.940695285797119
 31
0.0
  0
LINE
  5
121
330
23
100
AcDbEntity
  8
TOP
  6
CONTINUOUS
 62
     7
100
AcDbLine
 10
9.157211303710935
 20
3.996953010559082
 30
0.0
 11
9.197635650634765
 21
4.021320343017577
 31
0.0
  0
LINE
  5
122
330
23
100
AcDbEntity
  8
TOP
  6
CONTINUOUS
 62
     7
100
AcDbLine
 10
6.542861938476562
 20
5.128257751464843
 30
0.0
 11
6.542861938476562
 21
5.068113803863524
 31
0.0
  0
LINE
  5
123
330
23
100
AcDbEntity
  8
TOP
  6
CONTINUOUS
 62
     7
100
AcDbLine
 10
6.526843070983887
 20
3.320075750350952
 30
0.0
 11
6.526843070983887
 21
3.237539768218994
 31
0.0
  0
LINE
  5
124
330
23
100
AcDbEntity
  8
TOP
  6
CONTINUOUS
 62
     7
100
AcDbLine
 10
5.814025402069091
 20
3.76607584953308
 30
0.0
 11
5.814025402069091
 21
3.705932140350341
 31
0.0
  0
LINE
  5
125
330
23
100
AcDbEntity
  8
TOP
  6
CONTINUOUS
 62
     7
100
AcDbLine
 10
1.364488244056701
 20
7.900772571563719
 30
0.0
 11
1.319272875785827
 21
7.900772571563719
 31
0.0
  0
LINE
  5
126
330
23
100
AcDbEntity
  8
TOP
  6
CONTINUOUS
 62
     7
100
AcDbLine
 10
4.900488376617431
 20
5.719257354736328
 30
0.0
 11
4.950488090515136
 21
5.719257354736328
 31
0.0
  0
LINE
  5
127
330
23
100
AcDbEntity
  8
TOP
  6
CONTINUOUS
 62
     7
100
AcDbLine
 10
10.38178062438964
 20
4.244924068450927
 30
0.0
 11
10.41853904724121
 21
4.276638984680175
 31
0.0
  0
LINE
  5
128
330
23
100
AcDbEntity
  8
TOP
  6
CONTINUOUS
 62
     7
100
AcDbLine
 10
2.805488348007202
 20
5.0542573928833
 30
0.0
 11
2.810436010360717
 21
5.0542573928833
 31
0.0
  0
LINE
  5
129
330
23
100
AcDbEntity
  8
TOP
  6
CONTINUOUS
 62
     7
100
AcDbLine
 10
8.39304447174072
 20
4.737271785736083
 30
0.0
 11
8.400868415832517
 21
4.735397815704345
 31
0.0
  0
LINE
  5
12A
330
23
100
AcDbEntity
  8
TOP
  6
CONTINUOUS
 62
     7
100
AcDbLine
 10
6.550843238830566
 20
4.016075611114501
 30
0.0
 11
6.550843238830566
 21
4.023970603942871
 31
0.0
  0
LINE
  5
12B
330
23
100
AcDbEntity
  8
TOP
  6
CONTINUOUS
 62
     7
100
AcDbLine
 10
9.334852218627927
 20
4.357861518859863
 30
0.0
 11
9.342298507690429
 21
4.360136508941649
 31
0.0
  0
LINE
  5
12C
330
23
100
AcDbEntity
  8
TOP
  6
CONTINUOUS
 62
     7
100
AcDbLine
 10
1.455488204956054
 20
5.594257354736328
 30
0.0
 11
1.455488204956054
 21
5.644257545471192
 31
0.0
  0
LINE
  5
12D
330
23
100
AcDbEntity
  8
TOP
  6
CONTINUOUS
 62
     7
100
AcDbLine
 10
9.34432029724121
 20
4.367396831512451
 30
0.0
 11
9.341547966003417
 21
4.358845233917236
 31
0.0
  0
LINE
  5
12E
330
23
100
AcDbEntity
  8
TOP
  6
CONTINUOUS
 62
     7
100
AcDbLine
 10
7.905580043792722
 20
3.471597909927368
 30
0.0
 11
7.978557109832762
 21
3.497251987457275
 31
0.0
  0
LINE
  5
12F
330
23
100
AcDbEntity
  8
TOP
  6
CONTINUOUS
 62
     7
100
AcDbLine
 10
4.775488376617431
 20
5.0542573928833
 30
0.0
 11
4.775488376617431
 21
5.038257598876953
 31
0.0
  0
LINE
  5
130
330
23
100
AcDbEntity
  8
TOP
  6
CONTINUOUS
 62
     7
100
AcDbLine
 10
9.061016082763673
 20
3.910512208938598
 30
0.0
 11
9.052005767822263
 21
3.927899599075317
 31
0.0
  0
LINE
  5
131
330
23
100
AcDbEntity
  8
TOP
  6
CONTINUOUS
 62
     7
100
AcDbLine
 10
5.212988376617431
 20
3.246075868606567
 30
0.0
 11
5.238876342773437
 21
3.246075868606567
 31
0.0
  0
LINE
  5
132
330
23
100
AcDbEntity
  8
TOP
  6
CONTINUOUS
 62
     7
100
AcDbLine
 10
2.192219734191894
 20
4.180484771728515
 30
0.0
 11
2.171433210372924
 21
4.140330791473388
 31
0.0
  0
LINE
  5
133
330
23
100
AcDbEntity
  8
TOP
  6
CONTINUOUS
 62
     7
100
AcDbLine
 10
1.880488276481628
 20
6.639257431030273
 30
0.0
 11
1.830488204956054
 21
6.639257431030273
 31
0.0
  0
LINE
  5
134
330
23
100
AcDbEntity
  8
TOP
  6
CONTINUOUS
 62
     7
100
AcDbLine
 10
5.586994171142577
 20
3.45036244392395
 30
0.0
 11
5.541994094848632
 21
3.45036244392395
 31
0.0
  0
LINE
  5
135
330
23
100
AcDbEntity
  8
TOP
  6
CONTINUOUS
 62
     7
100
AcDbLine
 10
5.271228790283203
 20
3.246075868606567
 30
0.0
 11
5.275488376617431
 21
3.246075868606567
 31
0.0
  0
LINE
  5
136
330
23
100
AcDbEntity
  8
TOP
  6
CONTINUOUS
 62
     7
100
AcDbLine
 10
1.480488181114196
 20
5.219257354736328
 30
0.0
 11
1.455488204956054
 21
5.219257354736328
 31
0.0
  0
LINE
  5
137
330
23
100
AcDbEntity
  8
TOP
  6
CONTINUOUS
 62
     7
100
AcDbLine
 10
9.071760177612304
 20
3.459423780441284
 30
0.0
 11
9.064314842224119
 21
3.457148790359496
 31
0.0
  0
LINE
  5
138
330
23
100
AcDbEntity
  8
TOP
  6
CONTINUOUS
 62
     7
100
AcDbLine
 10
9.125323295593259
 20
3.862594842910766
 30
0.0
 11
9.149425506591796
 21
3.869078636169433
 31
0.0
  0
LINE
  5
139
330
23
100
AcDbEntity
  8
TOP
  6
CONTINUOUS
 62
     7
100
AcDbLine
 10
5.306488037109375
 20
5.885795593261719
 30
0.0
 11
5.306488037109375
 21
5.871705532073975
 31
0.0
  0
LINE
  5
13A
330
23
100
AcDbEntity
  8
TOP
  6
CONTINUOUS
 62
     7
100
AcDbLine
 10
9.300412178039552
 20
3.378495693206787
 30
0.0
 11
9.326276779174802
 21
3.383634567260742
 31
0.0
  0
LINE
  5
13B
330
23
100
AcDbEntity
  8
TOP
  6
CONTINUOUS
 62
     7
100
AcDbLine
 10
5.816837310791015
 20
6.581757545471192
 30
0.0
 11
5.816837310791015
 21
6.558934688568115
 31
0.0
  0
LINE
  5
13C
330
23
100
AcDbEntity
  8
TOP
  6
CONTINUOUS
 62
     7
100
AcDbLine
 10
5.368988037109375
 20
5.8667573928833
 30
0.0
 11
5.959837436676025
 21
5.8667573928833
 31
0.0
  0
LINE
  5
13D
330
23
100
AcDbEntity
  8
TOP
  6
CONTINUOUS
 62
     7
100
AcDbLine
 10
8.706251144409179
 20
4.0938401222229
 30
0.0
 11
8.698804855346677
 21
4.091565132141112
 31
0.0
  0
LINE
  5
13E
330
23
100
AcDbEntity
  8
TOP
  6
CONTINUOUS
 62
     7
100
AcDbLine
 10
3.794526338577271
 20
7.320257663726806
 30
0.0
 11
3.815613746643065
 21
7.320257663726806
 31
0.0
  0
LINE
  5
13F
330
23
100
AcDbEntity
  8
TOP
  6
CONTINUOUS
 62
     7
100
AcDbLine
 10
6.532843112945556
 20
3.320075750350952
 30
0.0
 11
6.532843112945556
 21
3.245003938674926
 31
0.0
  0
LINE
  5
140
330
23
100
AcDbEntity
  8
TOP
  6
CONTINUOUS
 62
     7
100
AcDbLine
 10
6.510746479034423
 20
5.128257751464843
 30
0.0
 11
6.534862041473388
 21
5.038257598876953
 31
0.0
  0
LINE
  5
141
330
23
100
AcDbEntity
  8
TOP
  6
CONTINUOUS
 62
     7
100
AcDbLine
 10
7.971545219421385
 20
4.436860561370849
 30
0.0
 11
8.301041603088378
 21
4.284866333007812
 31
0.0
  0
LINE
  5
142
330
23
100
AcDbEntity
  8
TOP
  6
CONTINUOUS
 62
     7
100
AcDbLine
 10
4.775488376617431
 20
3.245575666427612
 30
0.0
 11
4.775488376617431
 21
3.261075735092163
 31
0.0
  0
LINE
  5
144
330
23
100
AcDbEntity
  8
TOP
  6
CONTINUOUS
 62
     7
100
AcDbLine
 10
9.639233589172365
 20
3.479252815246582
 30
0.0
 11
9.643250465393066
 21
3.479842901229858
 31
0.0
  0
LINE
  5
145
330
23
100
AcDbEntity
  8
TOP
  6
CONTINUOUS
 62
     7
100
AcDbLine
 10
10.27186107635498
 20
4.350364208221436
 30
0.0
 11
10.30375671386718
 21
4.386797428131104
 31
0.0
  0
LINE
  5
146
330
23
100
AcDbEntity
  8
TOP
  6
CONTINUOUS
 62
     7
100
AcDbLine
 10
3.540488243103027
 20
3.23007583618164
 30
0.0
 11
3.536468982696532
 21
3.23007583618164
 31
0.0
  0
LINE
  5
147
330
23
100
AcDbEntity
  8
TOP
  6
CONTINUOUS
 62
     7
100
AcDbLine
 10
5.12548828125
 20
7.139257431030273
 30
0.0
 11
5.12548828125
 21
7.1142578125
 31
0.0
  0
LINE
  5
148
330
23
100
AcDbEntity
  8
TOP
  6
CONTINUOUS
 62
     7
100
AcDbLine
 10
10.1188268661499
 20
4.213103771209716
 30
0.0
 11
10.11552810668945
 21
4.232698917388916
 31
0.0
  0
LINE
  5
149
330
23
100
AcDbEntity
  8
TOP
  6
CONTINUOUS
 62
     7
100
AcDbLine
 10
7.975383758544922
 20
4.194522857666015
 30
0.0
 11
7.978461742401122
 21
4.18421459197998
 31
0.0
  0
LINE
  5
14A
330
23
100
AcDbEntity
  8
TOP
  6
CONTINUOUS
 62
     7
100
AcDbLine
 10
3.040488243103027
 20
5.0542573928833
 30
0.0
 11
3.040488243103027
 21
5.050257682800292
 31
0.0
  0
LINE
  5
14B
330
23
100
AcDbEntity
  8
TOP
  6
CONTINUOUS
 62
     7
100
AcDbLine
 10
6.55284309387207
 20
3.320075750350952
 30
0.0
 11
6.55284309387207
 21
3.319644927978516
 31
0.0
  0
LINE
  5
14C
330
23
100
AcDbEntity
  8
TOP
  6
CONTINUOUS
 62
     7
100
AcDbLine
 10
8.170465469360349
 20
4.417695999145507
 30
0.0
 11
8.176525115966798
 21
4.414900779724121
 31
0.0
  0
LINE
  5
14D
330
23
100
AcDbEntity
  8
TOP
  6
CONTINUOUS
 62
     7
100
AcDbLine
 10
8.193755149841308
 20
3.680635452270507
 30
0.0
 11
8.211245536804199
 21
3.68765115737915
 31
0.0
  0
LINE
  5
14E
330
23
100
AcDbEntity
  8
TOP
  6
CONTINUOUS
 62
     7
100
AcDbLine
 10
1.364488244056701
 20
7.872772693634033
 30
0.0
 11
1.334201097488403
 21
7.872772693634033
 31
0.0
  0
LINE
  5
14F
330
23
100
AcDbEntity
  8
TOP
  6
CONTINUOUS
 62
     7
100
AcDbLine
 10
1.53048825263977
 20
7.139257431030273
 30
0.0
 11
1.580488204956054
 21
7.139257431030273
 31
0.0
  0
LINE
  5
150
330
23
100
AcDbEntity
  8
TOP
  6
CONTINUOUS
 62
     7
100
AcDbLine
 10
5.216488361358642
 20
7.888772964477539
 30
0.0
 11
5.306488037109375
 21
7.888772964477539
 31
0.0
  0
LINE
  5
151
330
23
100
AcDbEntity
  8
TOP
  6
CONTINUOUS
 62
     7
100
AcDbLine
 10
8.685583114624021
 20
4.065623283386231
 30
0.0
 11
8.685583114624021
 21
3.790347337722777
 31
0.0
  0
LINE
  5
152
330
23
100
AcDbEntity
  8
TOP
  6
CONTINUOUS
 62
     7
100
AcDbLine
 10
8.402418136596677
 20
3.630162715911864
 30
0.0
 11
8.425073623657224
 21
3.635139942169189
 31
0.0
  0
LINE
  5
153
330
23
100
AcDbEntity
  8
TOP
  6
CONTINUOUS
 62
     7
100
AcDbLine
 10
2.870488166809082
 20
5.038257598876953
 30
0.0
 11
3.710488319396972
 21
5.038257598876953
 31
0.0
  0
LINE
  5
154
330
23
100
AcDbEntity
  8
TOP
  6
CONTINUOUS
 62
     7
100
AcDbLine
 10
9.958971977233886
 20
4.079245090484619
 30
0.0
 11
9.96531105041504
 21
4.072744846343993
 31
0.0
  0
LINE
  5
155
330
23
100
AcDbEntity
  8
TOP
  6
CONTINUOUS
 62
     7
100
AcDbLine
 10
2.172682285308837
 20
4.190598964691161
 30
0.0
 11
2.148464441299438
 21
4.143815994262695
 31
0.0
  0
LINE
  5
157
330
23
100
AcDbEntity
  8
TOP
  6
CONTINUOUS
 62
     7
100
AcDbLine
 10
1.455488204956054
 20
5.394257545471192
 30
0.0
 11
1.455488204956054
 21
5.444257736206055
 31
0.0
  0
LINE
  5
158
330
23
100
AcDbEntity
  8
TOP
  6
CONTINUOUS
 62
     7
100
AcDbLine
 10
9.033136367797853
 20
3.712148904800415
 30
0.0
 11
9.03590965270996
 21
3.70103883743286
 31
0.0
  0
LINE
  5
159
330
23
100
AcDbEntity
  8
TOP
  6
CONTINUOUS
 62
     7
100
AcDbLine
 10
10.1262617111206
 20
4.168239116668701
 30
0.0
 11
10.14843559265136
 21
4.172913551330566
 31
0.0
  0
LINE
  5
15A
330
23
100
AcDbEntity
  8
TOP
  6
CONTINUOUS
 62
     7
100
AcDbLine
 10
1.290488243103027
 20
5.8667573928833
 30
0.0
 11
1.2744882106781
 21
5.8667573928833
 31
0.0
  0
LINE
  5
15B
330
23
100
AcDbEntity
  8
TOP
  6
CONTINUOUS
 62
     7
100
AcDbLine
 10
9.271278381347656
 20
3.368565797805786
 30
0.0
 11
9.24330997467041
 21
3.371798038482666
 31
0.0
  0
LINE
  5
15C
330
23
100
AcDbEntity
  8
TOP
  6
CONTINUOUS
 62
     7
100
AcDbLine
 10
5.812837123870849
 20
5.776757717132568
 30
0.0
 11
5.812837123870849
 21
5.784652233123779
 31
0.0
  0
LINE
  5
15D
330
23
100
AcDbEntity
  8
TOP
  6
CONTINUOUS
 62
     7
100
AcDbLine
 10
9.957865715026855
 20
4.070469856262207
 30
0.0
 11
10.08095359802246
 21
4.013690471649169
 31
0.0
  0
LINE
  5
15E
330
23
100
AcDbEntity
  8
TOP
  6
CONTINUOUS
 62
     7
100
AcDbLine
 10
10.473313331604
 20
4.362596035003662
 30
0.0
 11
10.4956464767456
 21
4.407534599304199
 31
0.0
  0
LINE
  5
15F
330
23
100
AcDbEntity
  8
TOP
  6
CONTINUOUS
 62
     7
100
AcDbLine
 10
2.870488166809082
 20
7.304257392883299
 30
0.0
 11
2.845613718032836
 21
7.304257392883299
 31
0.0
  0
LINE
  5
160
330
23
100
AcDbEntity
  8
TOP
  6
CONTINUOUS
 62
     7
100
AcDbLine
 10
6.510861873626708
 20
5.128257751464843
 30
0.0
 11
6.510861873626708
 21
5.127826690673828
 31
0.0
  0
LINE
  5
161
330
23
100
AcDbEntity
  8
TOP
  6
CONTINUOUS
 62
     7
100
AcDbLine
 10
8.426521301269531
 20
4.261700630187988
 30
0.0
 11
8.739477157592773
 21
4.357318401336669
 31
0.0
  0
LINE
  5
162
330
23
100
AcDbEntity
  8
TOP
  6
CONTINUOUS
 62
     7
100
AcDbLine
 10
2.380488157272338
 20
3.701075792312622
 30
0.0
 11
2.705488204956054
 21
3.701075792312622
 31
0.0
  0
LINE
  5
163
330
23
100
AcDbEntity
  8
TOP
  6
CONTINUOUS
 62
     7
100
AcDbLine
 10
9.026441574096679
 20
3.691503524780273
 30
0.0
 11
9.033886909484863
 21
3.69377851486206
 31
0.0
  0
LINE
  5
164
330
23
100
AcDbEntity
  8
TOP
  6
CONTINUOUS
 62
     7
100
AcDbLine
 10
1.736267924308776
 20
5.775420188903808
 30
0.0
 11
1.692649364471435
 21
5.734011650085449
 31
0.0
  0
LINE
  5
165
330
23
100
AcDbEntity
  8
TOP
  6
CONTINUOUS
 62
     7
100
AcDbLine
 10
8.174285888671875
 20
3.471560001373291
 30
0.0
 11
8.151641845703125
 21
3.491673469543457
 31
0.0
  0
LINE
  5
166
330
23
100
AcDbEntity
  8
TOP
  6
CONTINUOUS
 62
     7
100
AcDbLine
 10
1.805488228797912
 20
7.304257392883299
 30
0.0
 11
1.805488228797912
 21
7.320257663726806
 31
0.0
  0
LINE
  5
167
330
23
100
AcDbEntity
  8
TOP
  6
CONTINUOUS
 62
     7
100
AcDbLine
 10
6.516861915588378
 20
7.230257511138916
 30
0.0
 11
6.516861915588378
 21
7.25308084487915
 31
0.0
  0
LINE
  5
168
330
23
100
AcDbEntity
  8
TOP
  6
CONTINUOUS
 62
     7
100
AcDbLine
 10
7.971545219421385
 20
4.436860561370849
 30
0.0
 11
7.964099407196046
 21
4.434585571289063
 31
0.0
  0
LINE
  5
169
330
23
100
AcDbEntity
  8
TOP
  6
CONTINUOUS
 62
     7
100
AcDbLine
 10
8.287035942077634
 20
4.056319713592528
 30
0.0
 11
8.289808273315429
 21
4.045209884643554
 31
0.0
  0
LINE
  5
16A
330
23
100
AcDbEntity
  8
TOP
  6
CONTINUOUS
 62
     7
100
AcDbLine
 10
5.306488037109375
 20
3.261075735092163
 30
0.0
 11
5.306488037109375
 21
4.041075706481933
 31
0.0
  0
LINE
  5
16B
330
23
100
AcDbEntity
  8
TOP
  6
CONTINUOUS
 62
     7
100
AcDbLine
 10
5.806025505065917
 20
3.76607584953308
 30
0.0
 11
5.806025505065917
 21
3.735788583755492
 31
0.0
  0
LINE
  5
16C
330
23
100
AcDbEntity
  8
TOP
  6
CONTINUOUS
 62
     7
100
AcDbLine
 10
7.585201263427734
 20
7.260260105133055
 30
0.0
 11
7.585201263427734
 21
7.88476037979126
 31
0.0
  0
LINE
  5
16D
330
23
100
AcDbEntity
  8
TOP
  6
CONTINUOUS
 62
     7
100
AcDbLine
 10
4.62548828125
 20
6.914257526397705
 30
0.0
 11
4.62548828125
 21
6.964257717132568
 31
0.0
  0
LINE
  5
16F
330
23
100
AcDbEntity
  8
TOP
  6
CONTINUOUS
 62
     7
100
AcDbLine
 10
8.325422286987304
 20
3.719647884368896
 30
0.0
 11
8.373602867126464
 21
3.729671239852904
 31
0.0
  0
LINE
  5
170
330
23
100
AcDbEntity
  8
TOP
  6
CONTINUOUS
 62
     7
100
AcDbLine
 10
10.08095359802246
 20
4.041496276855468
 30
0.0
 11
9.957865715026855
 21
4.098275661468505
 31
0.0
  0
LINE
  5
171
330
23
100
AcDbEntity
  8
TOP
  6
CONTINUOUS
 62
     7
100
AcDbLine
 10
6.504843235015869
 20
3.320075750350952
 30
0.0
 11
6.504843235015869
 21
3.319644927978516
 31
0.0
  0
LINE
  5
172
330
23
100
AcDbEntity
  8
TOP
  6
CONTINUOUS
 62
     7
100
AcDbLine
 10
5.824025630950927
 20
3.76607584953308
 30
0.0
 11
5.824025630950927
 21
3.683539867401123
 31
0.0
  0
LINE
  5
173
330
23
100
AcDbEntity
  8
TOP
  6
CONTINUOUS
 62
     7
100
AcDbLine
 10
1.364488244056701
 20
7.882772922515869
 30
0.0
 11
1.296880483627319
 21
7.882772922515869
 31
0.0
  0
LINE
  5
174
330
23
100
AcDbEntity
  8
TOP
  6
CONTINUOUS
 62
     7
100
AcDbLine
 10
4.75048828125
 20
5.219257354736328
 30
0.0
 11
4.700488090515136
 21
5.219257354736328
 31
0.0
  0
LINE
  5
175
330
23
100
AcDbEntity
  8
TOP
  6
CONTINUOUS
 62
     7
100
AcDbLine
 10
8.17827033996582
 20
3.476045846939086
 30
0.0
 11
8.138884544372558
 21
3.511029958724976
 31
0.0
  0
LINE
  5
176
330
23
100
AcDbEntity
  8
TOP
  6
CONTINUOUS
 62
     7
100
AcDbLine
 10
5.822025299072265
 20
3.901075839996337
 30
0.0
 11
5.822025299072265
 21
3.67607569694519
 31
0.0
  0
LINE
  5
177
330
23
100
AcDbEntity
  8
TOP
  6
CONTINUOUS
 62
     7
100
AcDbLine
 10
6.250799655914306
 20
6.172073364257812
 30
0.0
 11
6.20579957962036
 21
6.172073364257812
 31
0.0
  0
LINE
  5
178
330
23
100
AcDbEntity
  8
TOP
  6
CONTINUOUS
 62
     7
100
AcDbLine
 10
7.763358116149902
 20
3.548174619674682
 30
0.0
 11
7.841927051544188
 21
3.575757026672363
 31
0.0
  0
LINE
  5
179
330
23
100
AcDbEntity
  8
TOP
  6
CONTINUOUS
 62
     7
100
AcDbLine
 10
9.376105308532713
 20
3.961371660232543
 30
0.0
 11
9.418371200561523
 21
3.973768234252929
 31
0.0
  0
LINE
  5
17A
330
23
100
AcDbEntity
  8
TOP
  6
CONTINUOUS
 62
     7
100
AcDbLine
 10
4.735362529754639
 20
5.0542573928833
 30
0.0
 11
4.756450176239013
 21
5.0542573928833
 31
0.0
  0
LINE
  5
17B
330
23
100
AcDbEntity
  8
TOP
  6
CONTINUOUS
 62
     7
100
AcDbLine
 10
9.644914627075197
 20
3.918742179870605
 30
0.0
 11
9.648966789245603
 21
3.938053846359252
 31
0.0
  0
LINE
  5
17C
330
23
100
AcDbEntity
  8
TOP
  6
CONTINUOUS
 62
     7
100
AcDbLine
 10
9.033886909484863
 20
3.69377851486206
 30
0.0
 11
9.033989906311036
 21
3.693732023239136
 31
0.0
  0
LINE
  5
17D
330
23
100
AcDbEntity
  8
TOP
  6
CONTINUOUS
 62
     7
100
AcDbLine
 10
6.512843132019042
 20
4.016075611114501
 30
0.0
 11
6.512843132019042
 21
4.046362876892089
 31
0.0
  0
LINE
  5
17E
330
23
100
AcDbEntity
  8
TOP
  6
CONTINUOUS
 62
     7
100
AcDbLine
 10
9.380171775817872
 20
4.284274101257324
 30
0.0
 11
9.383469581604005
 21
4.264678955078125
 31
0.0
  0
LINE
  5
180
330
23
100
AcDbEntity
  8
TOP
  6
CONTINUOUS
 62
     7
100
AcDbLine
 10
1.955488204956054
 20
5.244257450103759
 30
0.0
 11
1.955488204956054
 21
5.219257354736328
 31
0.0
  0
LINE
  5
181
330
23
100
AcDbEntity
  8
TOP
  6
CONTINUOUS
 62
     7
100
AcDbLine
 10
9.16164970397949
 20
4.46149206161499
 30
0.0
 11
9.164422988891599
 21
4.450382232666015
 31
0.0
  0
LINE
  5
182
330
23
100
AcDbEntity
  8
TOP
  6
CONTINUOUS
 62
     7
100
AcDbLine
 10
7.68220615386963
 20
3.746654510498047
 30
0.0
 11
7.672898769378662
 21
3.743810892105102
 31
0.0
  0
LINE
  5
183
330
23
100
AcDbEntity
  8
TOP
  6
CONTINUOUS
 62
     7
100
AcDbLine
 10
1.290488243103027
 20
6.4267578125
 30
0.0
 11
1.290488243103027
 21
5.931757450103759
 31
0.0
  0
LINE
  5
184
330
23
100
AcDbEntity
  8
TOP
  6
CONTINUOUS
 62
     7
100
AcDbLine
 10
8.150557518005371
 20
4.09961462020874
 30
0.0
 11
8.147784233093259
 21
4.110724449157714
 31
0.0
  0
LINE
  5
185
330
23
100
AcDbEntity
  8
TOP
  6
CONTINUOUS
 62
     7
100
AcDbLine
 10
8.993993759155273
 20
4.298213005065917
 30
0.0
 11
8.993993759155273
 21
4.73198127746582
 31
0.0
  0
LINE
  5
186
330
23
100
AcDbEntity
  8
TOP
  6
CONTINUOUS
 62
     7
100
AcDbLine
 10
1.2744882106781
 20
6.5542573928833
 30
0.0
 11
1.2744882106781
 21
8.013772964477539
 31
0.0
  0
LINE
  5
187
330
23
100
AcDbEntity
  8
TOP
  6
CONTINUOUS
 62
     7
100
AcDbLine
 10
2.255488157272338
 20
5.038257598876953
 30
0.0
 11
2.255488157272338
 21
5.042257785797119
 31
0.0
  0
LINE
  5
188
330
23
100
AcDbEntity
  8
TOP
  6
CONTINUOUS
 62
     7
100
AcDbLine
 10
8.353269577026367
 20
3.622136354446411
 30
0.0
 11
8.368210792541503
 21
3.628917932510376
 31
0.0
  0
LINE
  5
189
330
23
100
AcDbEntity
  8
TOP
  6
CONTINUOUS
 62
     7
100
AcDbLine
 10
5.275488376617431
 20
5.8667573928833
 30
0.0
 11
5.286094665527343
 21
5.8667573928833
 31
0.0
  0
LINE
  5
18A
330
23
100
AcDbEntity
  8
TOP
  6
CONTINUOUS
 62
     7
100
AcDbLine
 10
6.248812198638916
 20
3.668185949325561
 30
0.0
 11
6.248812198638916
 21
3.499435901641845
 31
0.0
  0
LINE
  5
18B
330
23
100
AcDbEntity
  8
TOP
  6
CONTINUOUS
 62
     7
100
AcDbLine
 10
1.726629018783569
 20
5.785573482513427
 30
0.0
 11
1.677597165107727
 21
5.739026069641112
 31
0.0
  0
LINE
  5
18C
330
23
100
AcDbEntity
  8
TOP
  6
CONTINUOUS
 62
     7
100
AcDbLine
 10
8.194208145141601
 20
3.493989467620849
 30
0.0
 11
8.165984153747558
 21
3.519059896469116
 31
0.0
  0
LINE
  5
18D
330
23
100
AcDbEntity
  8
TOP
  6
CONTINUOUS
 62
     7
100
AcDbLine
 10
2.805488348007202
 20
7.320257663726806
 30
0.0
 11
2.810436010360717
 21
7.320257663726806
 31
0.0
  0
LINE
  5
18E
330
23
100
AcDbEntity
  8
TOP
  6
CONTINUOUS
 62
     7
100
AcDbLine
 10
9.897177696228029
 20
3.782683372497559
 30
0.0
 11
9.900837898254392
 21
3.79302978515625
 31
0.0
  0
LINE
  5
18F
330
23
100
AcDbEntity
  8
TOP
  6
CONTINUOUS
 62
     7
100
AcDbLine
 10
6.550861835479736
 20
7.230257511138916
 30
0.0
 11
6.550861835479736
 21
7.260544776916503
 31
0.0
  0
LINE
  5
190
330
23
100
AcDbEntity
  8
TOP
  6
CONTINUOUS
 62
     7
100
AcDbLine
 10
6.514862060546875
 20
7.230257511138916
 30
0.0
 11
6.514862060546875
 21
7.245616436004638
 31
0.0
  0
LINE
  5
191
330
23
100
AcDbEntity
  8
TOP
  6
CONTINUOUS
 62
     7
100
AcDbLine
 10
10.11678218841552
 20
3.772812604904175
 30
0.0
 11
10.1188268661499
 21
3.779335737228393
 31
0.0
  0
LINE
  5
192
330
23
100
AcDbEntity
  8
TOP
  6
CONTINUOUS
 62
     7
100
AcDbLine
 10
1.2744882106781
 20
4.041075706481933
 30
0.0
 11
1.2744882106781
 21
4.065950393676757
 31
0.0
  0
LINE
  5
193
330
23
100
AcDbEntity
  8
TOP
  6
CONTINUOUS
 62
     7
100
AcDbLine
 10
4.710488319396972
 20
7.304257392883299
 30
0.0
 11
3.840488195419311
 21
7.304257392883299
 31
0.0
  0
LINE
  5
195
330
23
100
AcDbEntity
  8
TOP
  6
CONTINUOUS
 62
     7
100
AcDbLine
 10
5.822025299072265
 20
3.76607584953308
 30
0.0
 11
5.822025299072265
 21
3.67607569694519
 31
0.0
  0
LINE
  5
196
330
23
100
AcDbEntity
  8
TOP
  6
CONTINUOUS
 62
     7
100
AcDbLine
 10
9.059451103210447
 20
3.930174350738525
 30
0.0
 11
9.068462371826173
 21
3.912786960601806
 31
0.0
  0
LINE
  5
197
330
23
100
AcDbEntity
  8
TOP
  6
CONTINUOUS
 62
     7
100
AcDbLine
 10
1.364488244056701
 20
7.892772674560546
 30
0.0
 11
1.289416432380676
 21
7.892772674560546
 31
0.0
  0
LINE
  5
198
330
23
100
AcDbEntity
  8
TOP
  6
CONTINUOUS
 62
     7
100
AcDbLine
 10
4.62548828125
 20
5.294257640838623
 30
0.0
 11
4.62548828125
 21
5.344257354736328
 31
0.0
  0
LINE
  5
199
330
23
100
AcDbEntity
  8
TOP
  6
CONTINUOUS
 62
     7
100
AcDbLine
 10
10.50370597839355
 20
4.404436111450195
 30
0.0
 11
10.52084732055664
 21
4.453600406646728
 31
0.0
  0
LINE
  5
19A
330
23
100
AcDbEntity
  8
TOP
  6
CONTINUOUS
 62
     7
100
AcDbLine
 10
3.710488319396972
 20
5.0542573928833
 30
0.0
 11
2.870488166809082
 21
5.0542573928833
 31
0.0
  0
LINE
  5
19B
330
23
100
AcDbEntity
  8
TOP
  6
CONTINUOUS
 62
     7
100
AcDbLine
 10
8.853239059448242
 20
3.77547264099121
 30
0.0
 11
8.84654426574707
 21
3.774488925933837
 31
0.0
  0
LINE
  5
19D
330
23
100
AcDbEntity
  8
TOP
  6
CONTINUOUS
 62
     7
100
AcDbLine
 10
1.78048825263977
 20
6.639257431030273
 30
0.0
 11
1.730488181114196
 21
6.639257431030273
 31
0.0
  0
LINE
  5
19E
330
23
100
AcDbEntity
  8
TOP
  6
CONTINUOUS
 62
     7
100
AcDbLine
 10
9.205069541931152
 20
4.421801567077636
 30
0.0
 11
9.202296257019042
 21
4.432911396026611
 31
0.0
  0
LINE
  5
19F
330
23
100
AcDbEntity
  8
TOP
  6
CONTINUOUS
 62
     7
100
AcDbLine
 10
8.143394470214843
 20
3.551254987716674
 30
0.0
 11
8.182955741882322
 21
3.563002347946166
 31
0.0
  0
LINE
  5
1A0
330
23
100
AcDbEntity
  8
TOP
  6
CONTINUOUS
 62
     7
100
AcDbLine
 10
4.756450176239013
 20
5.038257598876953
 30
0.0
 11
4.735362529754639
 21
5.038257598876953
 31
0.0
  0
LINE
  5
1A1
330
23
100
AcDbEntity
  8
TOP
  6
CONTINUOUS
 62
     7
100
AcDbLine
 10
8.305904388427734
 20
4.272070407867431
 30
0.0
 11
8.293596267700195
 21
4.282591342926025
 31
0.0
  0
LINE
  5
1A2
330
23
100
AcDbEntity
  8
TOP
  6
CONTINUOUS
 62
     7
100
AcDbLine
 10
2.185115098953247
 20
4.184162616729736
 30
0.0
 11
2.150603294372558
 21
4.117494106292724
 31
0.0
  0
LINE
  5
1A3
330
23
100
AcDbEntity
  8
TOP
  6
CONTINUOUS
 62
     7
100
AcDbLine
 10
1.955488204956054
 20
5.344257354736328
 30
0.0
 11
1.955488204956054
 21
5.294257640838623
 31
0.0
  0
LINE
  5
1A4
330
23
100
AcDbEntity
  8
TOP
  6
CONTINUOUS
 62
     7
100
AcDbLine
 10
6.102056503295897
 20
3.281612396240234
 30
0.0
 11
6.102056503295897
 21
3.45036244392395
 31
0.0
  0
LINE
  5
1A5
330
23
100
AcDbEntity
  8
TOP
  6
CONTINUOUS
 62
     7
100
AcDbLine
 10
1.955488204956054
 20
5.444257736206055
 30
0.0
 11
1.955488204956054
 21
5.394257545471192
 31
0.0
  0
LINE
  5
1A6
330
23
100
AcDbEntity
  8
TOP
  6
CONTINUOUS
 62
     7
100
AcDbLine
 10
9.194880485534667
 20
3.883916854858398
 30
0.0
 11
9.215063095092771
 21
3.888851642608642
 31
0.0
  0
LINE
  5
1A7
330
23
100
AcDbEntity
  8
TOP
  6
CONTINUOUS
 62
     7
100
AcDbLine
 10
5.290488243103027
 20
6.451632022857666
 30
0.0
 11
5.290488243103027
 21
6.472719669342041
 31
0.0
  0
LINE
  5
1A8
330
23
100
AcDbEntity
  8
TOP
  6
CONTINUOUS
 62
     7
100
AcDbLine
 10
10.12627220153808
 20
3.78161072731018
 30
0.0
 11
10.1188268661499
 21
3.779335737228393
 31
0.0
  0
LINE
  5
1A9
330
23
100
AcDbEntity
  8
TOP
  6
CONTINUOUS
 62
     7
100
AcDbLine
 10
10.27030849456787
 20
3.682698965072631
 30
0.0
 11
10.26755905151367
 21
3.693636417388916
 31
0.0
  0
LINE
  5
1AA
330
23
100
AcDbEntity
  8
TOP
  6
CONTINUOUS
 62
     7
100
AcDbLine
 10
2.730488300323486
 20
7.304257392883299
 30
0.0
 11
2.730488300323486
 21
7.308257579803465
 31
0.0
  0
LINE
  5
1AB
330
23
100
AcDbEntity
  8
TOP
  6
CONTINUOUS
 62
     7
100
AcDbLine
 10
1.305488228797912
 20
3.246075868606567
 30
0.0
 11
1.309747457504272
 21
3.246075868606567
 31
0.0
  0
LINE
  5
1AD
330
23
100
AcDbEntity
  8
TOP
  6
CONTINUOUS
 62
     7
100
AcDbLine
 10
10.34260272979736
 20
4.220409870147705
 30
0.0
 11
10.38178062438964
 21
4.244924068450927
 31
0.0
  0
LINE
  5
1AE
330
23
100
AcDbEntity
  8
TOP
  6
CONTINUOUS
 62
     7
100
AcDbLine
 10
9.220765113830566
 20
3.387700080871582
 30
0.0
 11
9.078741073608398
 21
3.453214883804321
 31
0.0
  0
LINE
  5
1AF
330
23
100
AcDbEntity
  8
TOP
  6
CONTINUOUS
 62
     7
100
AcDbLine
 10
4.775488376617431
 20
3.261075735092163
 30
0.0
 11
4.775488376617431
 21
4.041075706481933
 31
0.0
  0
LINE
  5
1B0
330
23
100
AcDbEntity
  8
TOP
  6
CONTINUOUS
 62
     7
100
AcDbLine
 10
9.404788970947263
 20
4.236770629882812
 30
0.0
 11
9.397342681884765
 21
4.234495639801025
 31
0.0
  0
LINE
  5
1B1
330
23
100
AcDbEntity
  8
TOP
  6
CONTINUOUS
 62
     7
100
AcDbLine
 10
1.747363328933715
 20
5.763732433319091
 30
0.0
 11
1.714156746864318
 21
5.798711776733398
 31
0.0
  0
LINE
  5
1B2
330
23
100
AcDbEntity
  8
TOP
  6
CONTINUOUS
 62
     7
100
AcDbLine
 10
9.65097427368164
 20
3.482178688049316
 30
0.0
 11
9.65097427368164
 21
3.91594672203064
 31
0.0
  0
LINE
  5
1B3
330
23
100
AcDbEntity
  8
TOP
  6
CONTINUOUS
 62
     7
100
AcDbLine
 10
10.37007713317871
 20
4.520246982574462
 30
0.0
 11
10.38015460968017
 21
4.568270206451416
 31
0.0
  0
LINE
  5
1B4
330
23
100
AcDbEntity
  8
TOP
  6
CONTINUOUS
 62
     7
100
AcDbLine
 10
5.306488037109375
 20
6.5542573928833
 30
0.0
 11
5.306488037109375
 21
8.013772964477539
 31
0.0
  0
LINE
  5
1B5
330
23
100
AcDbEntity
  8
TOP
  6
CONTINUOUS
 62
     7
100
AcDbLine
 10
3.070488214492797
 20
3.23007583618164
 30
0.0
 11
3.055488348007202
 21
3.23007583618164
 31
0.0
  0
LINE
  5
1B7
330
23
100
AcDbEntity
  8
TOP
  6
CONTINUOUS
 62
     7
100
AcDbLine
 10
5.830837249755859
 20
6.581757545471192
 30
0.0
 11
5.830837249755859
 21
6.506685733795166
 31
0.0
  0
LINE
  5
1B8
330
23
100
AcDbEntity
  8
TOP
  6
CONTINUOUS
 62
     7
100
AcDbLine
 10
5.852837085723877
 20
6.581757545471192
 30
0.0
 11
5.852837085723877
 21
6.558934688568115
 31
0.0
  0
LINE
  5
1B9
330
23
100
AcDbEntity
  8
TOP
  6
CONTINUOUS
 62
     7
100
AcDbLine
 10
5.12548828125
 20
6.764257431030273
 30
0.0
 11
5.12548828125
 21
6.714257717132568
 31
0.0
  0
LINE
  5
1BA
330
23
100
AcDbEntity
  8
TOP
  6
CONTINUOUS
 62
     7
100
AcDbLine
 10
8.107991218566894
 20
4.120888233184815
 30
0.0
 11
8.108094215393066
 21
4.120843410491944
 31
0.0
  0
LINE
  5
1BB
330
23
100
AcDbEntity
  8
TOP
  6
CONTINUOUS
 62
     7
100
AcDbLine
 10
8.055473327636718
 20
3.643790960311889
 30
0.0
 11
8.096020698547363
 21
3.65480089187622
 31
0.0
  0
LINE
  5
1BC
330
23
100
AcDbEntity
  8
TOP
  6
CONTINUOUS
 62
     7
100
AcDbLine
 10
3.540488243103027
 20
7.304257392883299
 30
0.0
 11
3.540488243103027
 21
7.308257579803465
 31
0.0
  0
LINE
  5
1BD
330
23
100
AcDbEntity
  8
TOP
  6
CONTINUOUS
 62
     7
100
AcDbLine
 10
6.5468430519104
 20
3.320075750350952
 30
0.0
 11
6.5468430519104
 21
3.297252655029296
 31
0.0
  0
LINE
  5
1BE
330
23
100
AcDbEntity
  8
TOP
  6
CONTINUOUS
 62
     7
100
AcDbLine
 10
1.805488228797912
 20
3.23007583618164
 30
0.0
 11
1.805488228797912
 21
3.234229087829589
 31
0.0
  0
LINE
  5
1C0
330
23
100
AcDbEntity
  8
TOP
  6
CONTINUOUS
 62
     7
100
AcDbLine
 10
1.364488244056701
 20
7.912888050079345
 30
0.0
 11
1.2744882106781
 21
7.888772964477539
 31
0.0
  0
LINE
  5
1C1
330
23
100
AcDbEntity
  8
TOP
  6
CONTINUOUS
 62
     7
100
AcDbLine
 10
5.854837417602539
 20
5.776757717132568
 30
0.0
 11
5.854837417602539
 21
5.792116641998291
 31
0.0
  0
LINE
  5
1C2
330
23
100
AcDbEntity
  8
TOP
  6
CONTINUOUS
 62
     7
100
AcDbLine
 10
5.216488361358642
 20
7.868772506713867
 30
0.0
 11
5.231847286224365
 21
7.868772506713867
 31
0.0
  0
LINE
  5
1C3
330
23
100
AcDbEntity
  8
TOP
  6
CONTINUOUS
 62
     7
100
AcDbLine
 10
9.939723014831542
 20
3.562164068222045
 30
0.0
 11
10.24304103851318
 21
3.654837608337401
 31
0.0
  0
LINE
  5
1C4
330
23
100
AcDbEntity
  8
TOP
  6
CONTINUOUS
 62
     7
100
AcDbLine
 10
9.071709632873535
 20
3.839566230773925
 30
0.0
 11
9.08290100097656
 21
3.842046499252319
 31
0.0
  0
LINE
  5
1C5
330
23
100
AcDbEntity
  8
TOP
  6
CONTINUOUS
 62
     7
100
AcDbLine
 10
2.810436010360717
 20
5.038257598876953
 30
0.0
 11
2.805488348007202
 21
5.038257598876953
 31
0.0
  0
LINE
  5
1C6
330
23
100
AcDbEntity
  8
TOP
  6
CONTINUOUS
 62
     7
100
AcDbLine
 10
2.800540447235107
 20
7.320257663726806
 30
0.0
 11
2.805488348007202
 21
7.320257663726806
 31
0.0
  0
LINE
  5
1C7
330
23
100
AcDbEntity
  8
TOP
  6
CONTINUOUS
 62
     7
100
AcDbLine
 10
10.12297439575195
 20
4.234973907470703
 30
0.0
 11
10.12627220153808
 21
4.215378761291503
 31
0.0
  0
LINE
  5
1C8
330
23
100
AcDbEntity
  8
TOP
  6
CONTINUOUS
 62
     7
100
AcDbLine
 10
2.179786682128906
 20
4.18692111968994
 30
0.0
 11
2.141843557357788
 21
4.113623619079589
 31
0.0
  0
LINE
  5
1C9
330
23
100
AcDbEntity
  8
TOP
  6
CONTINUOUS
 62
     7
100
AcDbLine
 10
1.955488204956054
 20
5.219257354736328
 30
0.0
 11
1.930488228797912
 21
5.219257354736328
 31
0.0
  0
LINE
  5
1CA
330
23
100
AcDbEntity
  8
TOP
  6
CONTINUOUS
 62
     7
100
AcDbLine
 10
9.24330997467041
 20
3.371798038482666
 30
0.0
 11
9.220765113830566
 21
3.378802299499512
 31
0.0
  0
LINE
  5
1CB
330
23
100
AcDbEntity
  8
TOP
  6
CONTINUOUS
 62
     7
100
AcDbLine
 10
8.723456382751464
 20
3.831268548965454
 30
0.0
 11
8.716760635375976
 21
3.838428974151611
 31
0.0
  0
LINE
  5
1CC
330
23
100
AcDbEntity
  8
TOP
  6
CONTINUOUS
 62
     7
100
AcDbLine
 10
8.896658897399902
 20
3.755443572998047
 30
0.0
 11
8.893885612487792
 21
3.7665536403656
 31
0.0
  0
LINE
  5
1CD
330
23
100
AcDbEntity
  8
TOP
  6
CONTINUOUS
 62
     7
100
AcDbLine
 10
1.2744882106781
 20
6.451632022857666
 30
0.0
 11
1.2744882106781
 21
6.472719669342041
 31
0.0
  0
LINE
  5
1CF
330
23
100
AcDbEntity
  8
TOP
  6
CONTINUOUS
 62
     7
100
AcDbLine
 10
8.42164134979248
 20
3.747432231903076
 30
0.0
 11
8.423968315124509
 21
3.748143196105957
 31
0.0
  0
LINE
  5
1D0
330
23
100
AcDbEntity
  8
TOP
  6
CONTINUOUS
 62
     7
100
AcDbLine
 10
5.820837020874024
 20
5.776757717132568
 30
0.0
 11
5.820837020874024
 21
5.814508914947509
 31
0.0
  0
LINE
  5
1D1
330
23
100
AcDbEntity
  8
TOP
  6
CONTINUOUS
 62
     7
100
AcDbLine
 10
4.700488090515136
 20
5.050257682800292
 30
0.0
 11
4.700488090515136
 21
5.0542573928833
 31
0.0
  0
LINE
  5
1D2
330
23
100
AcDbEntity
  8
TOP
  6
CONTINUOUS
 62
     7
100
AcDbLine
 10
8.385937690734863
 20
4.492785930633544
 30
0.0
 11
8.382530212402341
 21
4.481914043426513
 31
0.0
  0
LINE
  5
1D3
330
23
100
AcDbEntity
  8
TOP
  6
CONTINUOUS
 62
     7
100
AcDbLine
 10
7.90538215637207
 20
3.482659816741943
 30
0.0
 11
7.983951568603515
 21
3.510242223739623
 31
0.0
  0
LINE
  5
1D4
330
23
100
AcDbEntity
  8
TOP
  6
CONTINUOUS
 62
     7
100
AcDbLine
 10
2.805488348007202
 20
7.304257392883299
 30
0.0
 11
2.800540447235107
 21
7.304257392883299
 31
0.0
  0
LINE
  5
1D5
330
23
100
AcDbEntity
  8
TOP
  6
CONTINUOUS
 62
     7
100
AcDbLine
 10
6.516861915588378
 20
5.128257751464843
 30
0.0
 11
6.516861915588378
 21
5.105434417724609
 31
0.0
  0
LINE
  5
1D6
330
23
100
AcDbEntity
  8
TOP
  6
CONTINUOUS
 62
     7
100
AcDbLine
 10
9.639233589172365
 20
3.479252815246582
 30
0.0
 11
9.326276779174802
 21
3.383634567260742
 31
0.0
  0
LINE
  5
1D7
330
23
100
AcDbEntity
  8
TOP
  6
CONTINUOUS
 62
     7
100
AcDbLine
 10
5.832837104797363
 20
5.776757717132568
 30
0.0
 11
5.832837104797363
 21
5.859293460845947
 31
0.0
  0
LINE
  5
1D8
330
23
100
AcDbEntity
  8
TOP
  6
CONTINUOUS
 62
     7
100
AcDbLine
 10
1.730759978294372
 20
5.781221866607666
 30
0.0
 11
1.665488243103027
 21
5.719257354736328
 31
0.0
  0
LINE
  5
1D9
330
23
100
AcDbEntity
  8
TOP
  6
CONTINUOUS
 62
     7
100
AcDbLine
 10
9.689283370971679
 20
3.714839458465576
 30
0.0
 11
9.68587589263916
 21
3.723629236221313
 31
0.0
  0
LINE
  5
1DA
330
23
100
AcDbEntity
  8
TOP
  6
CONTINUOUS
 62
     7
100
AcDbLine
 10
8.179598808288574
 20
3.477541208267211
 30
0.0
 11
8.134632110595703
 21
3.5174822807312
 31
0.0
  0
LINE
  5
1DB
330
23
100
AcDbEntity
  8
TOP
  6
CONTINUOUS
 62
     7
100
AcDbLine
 10
4.756450176239013
 20
7.320257663726806
 30
0.0
 11
4.770540237426757
 21
7.320257663726806
 31
0.0
  0
LINE
  5
1DC
330
23
100
AcDbEntity
  8
TOP
  6
CONTINUOUS
 62
     7
100
AcDbLine
 10
6.524861812591552
 20
7.230257511138916
 30
0.0
 11
6.524861812591552
 21
7.282937049865721
 31
0.0
  0
LINE
  5
1DD
330
23
100
AcDbEntity
  8
TOP
  6
CONTINUOUS
 62
     7
100
AcDbLine
 10
10.30219841003418
 20
4.21496295928955
 30
0.0
 11
10.16017436981201
 21
4.28047752380371
 31
0.0
  0
LINE
  5
1DE
330
23
100
AcDbEntity
  8
TOP
  6
CONTINUOUS
 62
     7
100
AcDbLine
 10
5.306488037109375
 20
4.087037563323975
 30
0.0
 11
5.306488037109375
 21
4.065950393676757
 31
0.0
  0
LINE
  5
1DF
330
23
100
AcDbEntity
  8
TOP
  6
CONTINUOUS
 62
     7
100
AcDbLine
 10
5.216488361358642
 20
7.876772880554198
 30
0.0
 11
5.261703491210937
 21
7.876772880554198
 31
0.0
  0
LINE
  5
1E0
330
23
100
AcDbEntity
  8
TOP
  6
CONTINUOUS
 62
     7
100
AcDbLine
 10
9.372725486755372
 20
4.557274818420409
 30
0.0
 11
9.372725486755372
 21
4.281999111175537
 31
0.0
  0
LINE
  5
1E1
330
23
100
AcDbEntity
  8
TOP
  6
CONTINUOUS
 62
     7
100
AcDbLine
 10
3.540488243103027
 20
7.299864292144774
 30
0.0
 11
3.540488243103027
 21
7.289257526397705
 31
0.0
  0
LINE
  5
1E2
330
23
100
AcDbEntity
  8
TOP
  6
CONTINUOUS
 62
     7
100
AcDbLine
 10
8.32236099243164
 20
4.2569580078125
 30
0.0
 11
8.325659751892089
 21
4.2373628616333
 31
0.0
  0
LINE
  5
1E3
330
23
100
AcDbEntity
  8
TOP
  6
CONTINUOUS
 62
     7
100
AcDbLine
 10
8.721616744995117
 20
3.853005170822143
 30
0.0
 11
8.729673385620117
 21
3.856108903884888
 31
0.0
  0
LINE
  5
1E4
330
23
100
AcDbEntity
  8
TOP
  6
CONTINUOUS
 62
     7
100
AcDbLine
 10
8.096670150756835
 20
3.53666067123413
 30
0.0
 11
8.143394470214843
 21
3.551254987716674
 31
0.0
  0
LINE
  5
1E5
330
23
100
AcDbEntity
  8
TOP
  6
CONTINUOUS
 62
     7
100
AcDbLine
 10
6.512843132019042
 20
3.320075750350952
 30
0.0
 11
6.512843132019042
 21
3.289788484573364
 31
0.0
  0
LINE
  5
1E6
330
23
100
AcDbEntity
  8
TOP
  6
CONTINUOUS
 62
     7
100
AcDbLine
 10
5.800025463104247
 20
3.76607584953308
 30
0.0
 11
5.800025463104247
 21
3.758180856704711
 31
0.0
  0
LINE
  5
1E7
330
23
100
AcDbEntity
  8
TOP
  6
CONTINUOUS
 62
     7
100
AcDbLine
 10
8.723250389099121
 20
3.85916519165039
 30
0.0
 11
8.721484184265136
 21
3.850351572036743
 31
0.0
  0
LINE
  5
1E8
330
23
100
AcDbEntity
  8
TOP
  6
CONTINUOUS
 62
     7
100
AcDbLine
 10
5.216488361358642
 20
7.900772571563719
 30
0.0
 11
5.261703491210937
 21
7.900772571563719
 31
0.0
  0
LINE
  5
1E9
330
23
100
AcDbEntity
  8
TOP
  6
CONTINUOUS
 62
     7
100
AcDbLine
 10
1.364488244056701
 20
7.912772655487058
 30
0.0
 11
1.364057421684265
 21
7.912772655487058
 31
0.0
  0
LINE
  5
1EA
330
23
100
AcDbEntity
  8
TOP
  6
CONTINUOUS
 62
     7
100
AcDbLine
 10
5.12548828125
 20
5.544257640838623
 30
0.0
 11
5.12548828125
 21
5.494257450103759
 31
0.0
  0
LINE
  5
1EB
330
23
100
AcDbEntity
  8
TOP
  6
CONTINUOUS
 62
     7
100
AcDbLine
 10
6.863924503326416
 20
6.003323554992675
 30
0.0
 11
6.863924503326416
 21
6.172073364257812
 31
0.0
  0
LINE
  5
1EC
330
23
100
AcDbEntity
  8
TOP
  6
CONTINUOUS
 62
     7
100
AcDbLine
 10
8.585219383239746
 20
3.703177213668823
 30
0.0
 11
8.593253135681152
 21
3.694584608078002
 31
0.0
  0
LINE
  5
1ED
330
23
100
AcDbEntity
  8
TOP
  6
CONTINUOUS
 62
     7
100
AcDbLine
 10
10.12627792358398
 20
4.157084941864013
 30
0.0
 11
10.16339302062988
 21
4.164955139160156
 31
0.0
  0
LINE
  5
1EE
330
23
100
AcDbEntity
  8
TOP
  6
CONTINUOUS
 62
     7
100
AcDbLine
 10
1.810436010360717
 20
5.0542573928833
 30
0.0
 11
1.824526309967041
 21
5.0542573928833
 31
0.0
  0
LINE
  5
1EF
330
23
100
AcDbEntity
  8
TOP
  6
CONTINUOUS
 62
     7
100
AcDbLine
 10
5.822837352752685
 20
5.776757717132568
 30
0.0
 11
5.822837352752685
 21
5.821972846984863
 31
0.0
  0
LINE
  5
1F0
330
23
100
AcDbEntity
  8
TOP
  6
CONTINUOUS
 62
     7
100
AcDbLine
 10
8.129988670349121
 20
4.617566585540772
 30
0.0
 11
8.123929023742675
 21
4.620361804962158
 31
0.0
  0
LINE
  5
1F1
330
23
100
AcDbEntity
  8
TOP
  6
CONTINUOUS
 62
     7
100
AcDbLine
 10
6.520843029022216
 20
4.016075611114501
 30
0.0
 11
6.520843029022216
 21
4.07621955871582
 31
0.0
  0
LINE
  5
1F2
330
23
100
AcDbEntity
  8
TOP
  6
CONTINUOUS
 62
     7
100
AcDbLine
 10
8.414661407470703
 20
3.770880699157714
 30
0.0
 11
8.407215118408203
 21
3.768605709075928
 31
0.0
  0
LINE
  5
1F5
330
23
100
AcDbEntity
  8
TOP
  6
CONTINUOUS
 62
     7
100
AcDbLine
 10
1.90548825263977
 20
3.651075839996337
 30
0.0
 11
2.230488300323486
 21
3.651075839996337
 31
0.0
  0
LINE
  5
1F6
330
23
100
AcDbEntity
  8
TOP
  6
CONTINUOUS
 62
     7
100
AcDbLine
 10
1.730488181114196
 20
5.719257354736328
 30
0.0
 11
1.78048825263977
 21
5.719257354736328
 31
0.0
  0
LINE
  5
1F9
330
23
100
AcDbEntity
  8
TOP
  6
CONTINUOUS
 62
     7
100
AcDbLine
 10
9.031867027282713
 20
4.497626304626464
 30
0.0
 11
9.025172233581542
 21
4.504786968231201
 31
0.0
  0
LINE
  5
1FA
330
23
100
AcDbEntity
  8
TOP
  6
CONTINUOUS
 62
     7
100
AcDbLine
 10
7.686931133270262
 20
3.587749242782592
 30
0.0
 11
7.704072475433348
 21
3.549059152603149
 31
0.0
  0
LINE
  5
1FB
330
23
100
AcDbEntity
  8
TOP
  6
CONTINUOUS
 62
     7
100
AcDbLine
 10
1.290488243103027
 20
5.871705532073975
 30
0.0
 11
1.290488243103027
 21
5.8667573928833
 31
0.0
  0
LINE
  5
1FC
330
23
100
AcDbEntity
  8
TOP
  6
CONTINUOUS
 62
     7
100
AcDbLine
 10
9.162401199340818
 20
4.443121910095214
 30
0.0
 11
9.162503242492675
 21
4.44307518005371
 31
0.0
  0
LINE
  5
1FD
330
23
100
AcDbEntity
  8
TOP
  6
CONTINUOUS
 62
     7
100
AcDbLine
 10
2.202876329421996
 20
4.174968242645263
 30
0.0
 11
2.202678442001342
 21
4.174585819244384
 31
0.0
  0
LINE
  5
1FE
330
23
100
AcDbEntity
  8
TOP
  6
CONTINUOUS
 62
     7
100
AcDbLine
 10
5.846837043762207
 20
5.776757717132568
 30
0.0
 11
5.846837043762207
 21
5.821972846984863
 31
0.0
  0
LINE
  5
1FF
330
23
100
AcDbEntity
  8
TOP
  6
CONTINUOUS
 62
     7
100
AcDbLine
 10
2.355488300323486
 20
5.0542573928833
 30
0.0
 11
2.355488300323486
 21
5.050257682800292
 31
0.0
  0
LINE
  5
200
330
23
100
AcDbEntity
  8
TOP
  6
CONTINUOUS
 62
     7
100
AcDbLine
 10
8.154177665710449
 20
4.665750980377196
 30
0.0
 11
8.160237312316894
 21
4.66295576095581
 31
0.0
  0
LINE
  5
201
330
23
100
AcDbEntity
  8
TOP
  6
CONTINUOUS
 62
     7
100
AcDbLine
 10
8.424928665161132
 20
3.646280288696288
 30
0.0
 11
8.467446327209472
 21
3.654133081436156
 31
0.0
  0
LINE
  5
202
330
23
100
AcDbEntity
  8
TOP
  6
CONTINUOUS
 62
     7
100
AcDbLine
 10
5.306488037109375
 20
6.4917573928833
 30
0.0
 11
5.306488037109375
 21
6.486809730529785
 31
0.0
  0
LINE
  5
203
330
23
100
AcDbEntity
  8
TOP
  6
CONTINUOUS
 62
     7
100
AcDbLine
 10
6.808874607086181
 20
3.668185949325561
 30
0.0
 11
6.763874530792236
 21
3.668185949325561
 31
0.0
  0
LINE
  5
204
330
23
100
AcDbEntity
  8
TOP
  6
CONTINUOUS
 62
     7
100
AcDbLine
 10
8.423968315124509
 20
3.757040977478027
 30
0.0
 11
8.42164134979248
 21
3.756330013275146
 31
0.0
  0
LINE
  5
205
330
23
100
AcDbEntity
  8
TOP
  6
CONTINUOUS
 62
     7
100
AcDbLine
 10
8.901381492614746
 20
3.767366170883178
 30
0.0
 11
8.904459953308105
 21
3.757058143615722
 31
0.0
  0
LINE
  5
206
330
23
100
AcDbEntity
  8
TOP
  6
CONTINUOUS
 62
     7
100
AcDbLine
 10
3.070488214492797
 20
3.306075811386108
 30
0.0
 11
3.510488271713256
 21
3.306075811386108
 31
0.0
  0
LINE
  5
207
330
23
100
AcDbEntity
  8
TOP
  6
CONTINUOUS
 62
     7
100
AcDbLine
 10
10.08095359802246
 20
4.013690471649169
 30
0.0
 11
10.08839893341064
 21
4.015965461730957
 31
0.0
  0
LINE
  5
208
330
23
100
AcDbEntity
  8
TOP
  6
CONTINUOUS
 62
     7
100
AcDbLine
 10
5.599805831909179
 20
6.176745891571044
 30
0.0
 11
5.554805755615233
 21
6.176745891571044
 31
0.0
  0
LINE
  5
209
330
23
100
AcDbEntity
  8
TOP
  6
CONTINUOUS
 62
     7
100
AcDbLine
 10
8.188896179199216
 20
3.488008260726928
 30
0.0
 11
8.138348579406738
 21
3.532906055450439
 31
0.0
  0
LINE
  5
20A
330
23
100
AcDbEntity
  8
TOP
  6
CONTINUOUS
 62
     7
100
AcDbLine
 10
3.710488319396972
 20
7.320257663726806
 30
0.0
 11
2.870488166809082
 21
7.320257663726806
 31
0.0
  0
LINE
  5
20B
330
23
100
AcDbEntity
  8
TOP
  6
CONTINUOUS
 62
     7
100
AcDbLine
 10
6.542861938476562
 20
7.230257511138916
 30
0.0
 11
6.542861938476562
 21
7.290400981903075
 31
0.0
  0
LINE
  5
20C
330
23
100
AcDbEntity
  8
TOP
  6
CONTINUOUS
 62
     7
100
AcDbLine
 10
1.290488243103027
 20
4.106075763702392
 30
0.0
 11
1.290488243103027
 21
4.101128101348876
 31
0.0
  0
LINE
  5
20D
330
23
100
AcDbEntity
  8
TOP
  6
CONTINUOUS
 62
     7
100
AcDbLine
 10
5.275488376617431
 20
7.164257526397705
 30
0.0
 11
5.275488376617431
 21
6.4917573928833
 31
0.0
  0
LINE
  5
20E
330
23
100
AcDbEntity
  8
TOP
  6
CONTINUOUS
 62
     7
100
AcDbLine
 10
9.686119079589843
 20
4.141912460327148
 30
0.0
 11
9.740114212036131
 21
4.159358978271484
 31
0.0
  0
LINE
  5
20F
330
23
100
AcDbEntity
  8
TOP
  6
CONTINUOUS
 62
     7
100
AcDbLine
 10
9.469883918762207
 20
4.098545551300048
 30
0.0
 11
9.469173431396482
 21
4.093067646026611
 31
0.0
  0
LINE
  5
210
330
23
100
AcDbEntity
  8
TOP
  6
CONTINUOUS
 62
     7
100
AcDbLine
 10
5.275488376617431
 20
3.23007583618164
 30
0.0
 11
5.271228790283203
 21
3.23007583618164
 31
0.0
  0
LINE
  5
211
330
23
100
AcDbEntity
  8
TOP
  6
CONTINUOUS
 62
     7
100
AcDbLine
 10
1.455488204956054
 20
5.494257450103759
 30
0.0
 11
1.455488204956054
 21
5.544257640838623
 31
0.0
  0
LINE
  5
212
330
23
100
AcDbEntity
  8
TOP
  6
CONTINUOUS
 62
     7
100
AcDbLine
 10
7.585201263427734
 20
7.572760105133055
 30
0.0
 11
10.67520141601562
 21
7.572760105133055
 31
0.0
  0
LINE
  5
213
330
23
100
AcDbEntity
  8
TOP
  6
CONTINUOUS
 62
     7
100
AcDbLine
 10
4.62548828125
 20
5.694257736206055
 30
0.0
 11
4.62548828125
 21
5.719257354736328
 31
0.0
  0
LINE
  5
214
330
23
100
AcDbEntity
  8
TOP
  6
CONTINUOUS
 62
     7
100
AcDbLine
 10
10.52557277679443
 20
4.654081821441649
 30
0.0
 11
10.53487968444824
 21
4.656925201416015
 31
0.0
  0
LINE
  5
215
330
23
100
AcDbEntity
  8
TOP
  6
CONTINUOUS
 62
     7
100
AcDbLine
 10
3.770540475845336
 20
5.0542573928833
 30
0.0
 11
3.775488138198852
 21
5.0542573928833
 31
0.0
  0
LINE
  5
216
330
23
100
AcDbEntity
  8
TOP
  6
CONTINUOUS
 62
     7
100
AcDbLine
 10
6.534843444824218
 20
4.016075611114501
 30
0.0
 11
6.534843444824218
 21
4.083683490753173
 31
0.0
  0
LINE
  5
217
330
23
100
AcDbEntity
  8
TOP
  6
CONTINUOUS
 62
     7
100
AcDbLine
 10
5.834025382995605
 20
3.14007568359375
 30
0.0
 11
5.834025382995605
 21
3.185291051864623
 31
0.0
  0
LINE
  5
218
330
23
100
AcDbEntity
  8
TOP
  6
CONTINUOUS
 62
     7
100
AcDbLine
 10
7.984800815582275
 20
4.177714347839356
 30
0.0
 11
7.977355480194092
 21
4.175439357757568
 31
0.0
  0
LINE
  5
21A
330
23
100
AcDbEntity
  8
TOP
  6
CONTINUOUS
 62
     7
100
AcDbLine
 10
9.766291618347167
 20
4.416541099548339
 30
0.0
 11
9.772158622741699
 21
4.414876461029052
 31
0.0
  0
LINE
  5
21B
330
23
100
AcDbEntity
  8
TOP
  6
CONTINUOUS
 62
     7
100
AcDbLine
 10
1.955488204956054
 20
7.139257431030273
 30
0.0
 11
1.955488204956054
 21
7.1142578125
 31
0.0
  0
LINE
  5
21D
330
23
100
AcDbEntity
  8
TOP
  6
CONTINUOUS
 62
     7
100
AcDbLine
 10
9.064314842224119
 20
3.890917062759399
 30
0.0
 11
9.061016082763673
 21
3.910512208938598
 31
0.0
  0
LINE
  5
21E
330
23
100
AcDbEntity
  8
TOP
  6
CONTINUOUS
 62
     7
100
AcDbLine
 10
9.901056289672851
 20
4.124481678009033
 30
0.0
 11
9.907751083374023
 21
4.117321014404296
 31
0.0
  0
LINE
  5
21F
330
23
100
AcDbEntity
  8
TOP
  6
CONTINUOUS
 62
     7
100
AcDbLine
 10
9.348108291625976
 20
4.604778289794921
 30
0.0
 11
9.35555362701416
 21
4.607053279876708
 31
0.0
  0
LINE
  5
220
330
23
100
AcDbEntity
  8
TOP
  6
CONTINUOUS
 62
     7
100
AcDbLine
 10
3.815613746643065
 20
5.038257598876953
 30
0.0
 11
3.794526338577271
 21
5.038257598876953
 31
0.0
  0
LINE
  5
221
330
23
100
AcDbEntity
  8
TOP
  6
CONTINUOUS
 62
     7
100
AcDbLine
 10
9.775996208190917
 20
4.17253828048706
 30
0.0
 11
9.779074668884275
 21
4.162230491638183
 31
0.0
  0
LINE
  5
222
330
23
100
AcDbEntity
  8
TOP
  6
CONTINUOUS
 62
     7
100
AcDbLine
 10
2.160249233245849
 20
4.197034835815429
 30
0.0
 11
2.160051345825195
 21
4.19665241241455
 31
0.0
  0
LINE
  5
223
330
23
100
AcDbEntity
  8
TOP
  6
CONTINUOUS
 62
     7
100
AcDbLine
 10
1.53048825263977
 20
5.719257354736328
 30
0.0
 11
1.580488204956054
 21
5.719257354736328
 31
0.0
  0
LINE
  5
224
330
23
100
AcDbEntity
  8
TOP
  6
CONTINUOUS
 62
     7
100
AcDbLine
 10
9.299235343933103
 20
3.931438207626343
 30
0.0
 11
9.33966064453125
 21
3.955805540084839
 31
0.0
  0
LINE
  5
225
330
23
100
AcDbEntity
  8
TOP
  6
CONTINUOUS
 62
     7
100
AcDbLine
 10
5.290488243103027
 20
5.871705532073975
 30
0.0
 11
5.290488243103027
 21
5.885795593261719
 31
0.0
  0
LINE
  5
226
330
23
100
AcDbEntity
  8
TOP
  6
CONTINUOUS
 62
     7
100
AcDbLine
 10
9.628585815429687
 20
3.982431411743164
 30
0.0
 11
9.616462707519533
 21
3.984888076782226
 31
0.0
  0
LINE
  5
227
330
23
100
AcDbEntity
  8
TOP
  6
CONTINUOUS
 62
     7
100
AcDbLine
 10
10.08850193023681
 20
4.015918731689453
 30
0.0
 11
10.08860492706298
 21
4.015873908996582
 31
0.0
  0
LINE
  5
228
330
23
100
AcDbEntity
  8
TOP
  6
CONTINUOUS
 62
     7
100
AcDbLine
 10
5.832837104797363
 20
6.581757545471192
 30
0.0
 11
5.832837104797363
 21
6.499221801757812
 31
0.0
  0
LINE
  5
229
330
23
100
AcDbEntity
  8
TOP
  6
CONTINUOUS
 62
     7
100
AcDbLine
 10
8.168980598449707
 20
4.417356014251708
 30
0.0
 11
8.170465469360349
 21
4.417695999145507
 31
0.0
  0
LINE
  5
22B
330
23
100
AcDbEntity
  8
TOP
  6
CONTINUOUS
 62
     7
100
AcDbLine
 10
7.637893676757811
 20
3.542755842208862
 30
0.0
 11
7.77991771697998
 21
3.477241039276123
 31
0.0
  0
LINE
  5
22C
330
23
100
AcDbEntity
  8
TOP
  6
CONTINUOUS
 62
     7
100
AcDbLine
 10
7.585201263427734
 20
7.260260105133055
 30
0.0
 11
10.67520141601562
 21
7.260260105133055
 31
0.0
  0
LINE
  5
22D
330
23
100
AcDbEntity
  8
TOP
  6
CONTINUOUS
 62
     7
100
AcDbLine
 10
6.546862125396728
 20
5.128257751464843
 30
0.0
 11
6.546862125396728
 21
5.083042144775391
 31
0.0
  0
LINE
  5
22E
330
23
100
AcDbEntity
  8
TOP
  6
CONTINUOUS
 62
     7
100
AcDbLine
 10
7.811883926391601
 20
4.028708934783936
 30
0.0
 11
7.940793514251708
 21
3.969244003295897
 31
0.0
  0
LINE
  5
22F
330
23
100
AcDbEntity
  8
TOP
  6
CONTINUOUS
 62
     7
100
AcDbLine
 10
9.39247989654541
 20
4.247291564941406
 30
0.0
 11
9.404788970947263
 21
4.236770629882812
 31
0.0
  0
LINE
  5
230
330
23
100
AcDbEntity
  8
TOP
  6
CONTINUOUS
 62
     7
100
AcDbLine
 10
1.745906829833984
 20
5.765266895294189
 30
0.0
 11
1.74018120765686
 21
5.759830951690673
 31
0.0
  0
LINE
  5
231
330
23
100
AcDbEntity
  8
TOP
  6
CONTINUOUS
 62
     7
100
AcDbLine
 10
8.168896675109863
 20
3.465492486953735
 30
0.0
 11
8.200925827026367
 21
3.50155234336853
 31
0.0
  0
LINE
  5
232
330
23
100
AcDbEntity
  8
TOP
  6
CONTINUOUS
 62
     7
100
AcDbLine
 10
3.070488214492797
 20
7.254257678985594
 30
0.0
 11
3.510488271713256
 21
7.254257678985594
 31
0.0
  0
LINE
  5
233
330
23
100
AcDbEntity
  8
TOP
  6
CONTINUOUS
 62
     7
100
AcDbLine
 10
6.534862041473388
 20
7.320257663726806
 30
0.0
 11
6.510746479034423
 21
7.230257511138916
 31
0.0
  0
LINE
  5
234
330
23
100
AcDbEntity
  8
TOP
  6
CONTINUOUS
 62
     7
100
AcDbLine
 10
1.78048825263977
 20
5.219257354736328
 30
0.0
 11
1.730488181114196
 21
5.219257354736328
 31
0.0
  0
LINE
  5
235
330
23
100
AcDbEntity
  8
TOP
  6
CONTINUOUS
 62
     7
100
AcDbLine
 10
7.534100532531737
 20
3.698922157287597
 30
0.0
 11
7.543689250946046
 21
3.656989812850952
 31
0.0
  0
LINE
  5
236
330
23
100
AcDbEntity
  8
TOP
  6
CONTINUOUS
 62
     7
100
AcDbLine
 10
8.350276947021484
 20
3.914583921432495
 30
0.0
 11
8.342830657958984
 21
3.912308931350708
 31
0.0
  0
LINE
  5
237
330
23
100
AcDbEntity
  8
TOP
  6
CONTINUOUS
 62
     7
100
AcDbLine
 10
1.398135900497436
 20
3.23007583618164
 30
0.0
 11
1.367988228797912
 21
3.23007583618164
 31
0.0
  0
LINE
  5
238
330
23
100
AcDbEntity
  8
TOP
  6
CONTINUOUS
 62
     7
100
AcDbLine
 10
9.764712333679199
 20
4.412601470947265
 30
0.0
 11
9.75240421295166
 21
4.413436412811279
 31
0.0
  0
LINE
  5
239
330
23
100
AcDbEntity
  8
TOP
  6
CONTINUOUS
 62
     7
100
AcDbLine
 10
5.844837188720703
 20
6.581757545471192
 30
0.0
 11
5.844837188720703
 21
6.529078006744384
 31
0.0
  0
LINE
  5
23A
330
23
100
AcDbEntity
  8
TOP
  6
CONTINUOUS
 62
     7
100
AcDbLine
 10
4.800487995147705
 20
7.139257431030273
 30
0.0
 11
4.850488185882568
 21
7.139257431030273
 31
0.0
  0
LINE
  5
23B
330
23
100
AcDbEntity
  8
TOP
  6
CONTINUOUS
 62
     7
100
AcDbLine
 10
9.068462371826173
 20
3.912786960601806
 30
0.0
 11
9.071760177612304
 21
3.893192052841186
 31
0.0
  0
LINE
  5
23C
330
23
100
AcDbEntity
  8
TOP
  6
CONTINUOUS
 62
     7
100
AcDbLine
 10
8.170387268066406
 20
3.673306465148925
 30
0.0
 11
8.193755149841308
 21
3.680635452270507
 31
0.0
  0
LINE
  5
23D
330
23
100
AcDbEntity
  8
TOP
  6
CONTINUOUS
 62
     7
100
AcDbLine
 10
6.538843154907226
 20
3.320075750350952
 30
0.0
 11
6.538843154907226
 21
3.267396211624145
 31
0.0
  0
LINE
  5
23E
330
23
100
AcDbEntity
  8
TOP
  6
CONTINUOUS
 62
     7
100
AcDbLine
 10
5.838025569915772
 20
3.76607584953308
 30
0.0
 11
5.838025569915772
 21
3.735788583755492
 31
0.0
  0
LINE
  5
240
330
23
100
AcDbEntity
  8
TOP
  6
CONTINUOUS
 62
     7
100
AcDbLine
 10
1.364488244056701
 20
7.868772506713867
 30
0.0
 11
1.349129199981689
 21
7.868772506713867
 31
0.0
  0
LINE
  5
241
330
23
100
AcDbEntity
  8
TOP
  6
CONTINUOUS
 62
     7
100
AcDbLine
 10
1.455488204956054
 20
6.914257526397705
 30
0.0
 11
1.455488204956054
 21
6.964257717132568
 31
0.0
  0
LINE
  5
242
330
23
100
AcDbEntity
  8
TOP
  6
CONTINUOUS
 62
     7
100
AcDbLine
 10
5.814837455749511
 20
6.581757545471192
 30
0.0
 11
5.814837455749511
 21
6.566398620605468
 31
0.0
  0
LINE
  5
243
330
23
100
AcDbEntity
  8
TOP
  6
CONTINUOUS
 62
     7
100
AcDbLine
 10
8.318213462829589
 20
4.235088348388671
 30
0.0
 11
8.318213462829589
 21
3.95981216430664
 31
0.0
  0
LINE
  5
244
330
23
100
AcDbEntity
  8
TOP
  6
CONTINUOUS
 62
     7
100
AcDbLine
 10
9.469173431396482
 20
4.093067646026611
 30
0.0
 11
9.461727142333984
 21
4.090792655944824
 31
0.0
  0
LINE
  5
245
330
23
100
AcDbEntity
  8
TOP
  6
CONTINUOUS
 62
     7
100
AcDbLine
 10
9.164141654968259
 20
3.862783432006835
 30
0.0
 11
9.178292274475095
 21
3.867836713790893
 31
0.0
  0
LINE
  5
246
330
23
100
AcDbEntity
  8
TOP
  6
CONTINUOUS
 62
     7
100
AcDbLine
 10
2.765362739562988
 20
5.038257598876953
 30
0.0
 11
2.740488290786743
 21
5.038257598876953
 31
0.0
  0
LINE
  5
247
330
23
100
AcDbEntity
  8
TOP
  6
CONTINUOUS
 62
     7
100
AcDbLine
 10
9.367862701416015
 20
4.596532344818115
 30
0.0
 11
9.376873016357421
 21
4.579144954681396
 31
0.0
  0
LINE
  5
248
330
23
100
AcDbEntity
  8
TOP
  6
CONTINUOUS
 62
     7
100
AcDbLine
 10
6.504727840423583
 20
4.016075611114501
 30
0.0
 11
6.552958488464356
 21
4.016075611114501
 31
0.0
  0
LINE
  5
249
330
23
100
AcDbEntity
  8
TOP
  6
CONTINUOUS
 62
     7
100
AcDbLine
 10
9.014661788940429
 20
4.760198116302489
 30
0.0
 11
9.020190238952636
 21
4.760712146759033
 31
0.0
  0
LINE
  5
24A
330
23
100
AcDbEntity
  8
TOP
  6
CONTINUOUS
 62
     7
100
AcDbLine
 10
9.018611907958984
 20
4.756772518157958
 30
0.0
 11
9.006302833557128
 21
4.757607460021972
 31
0.0
  0
LINE
  5
24C
330
23
100
AcDbEntity
  8
TOP
  6
CONTINUOUS
 62
     7
100
AcDbLine
 10
1.580488204956054
 20
5.219257354736328
 30
0.0
 11
1.53048825263977
 21
5.219257354736328
 31
0.0
  0
LINE
  5
24D
330
23
100
AcDbEntity
  8
TOP
  6
CONTINUOUS
 62
     7
100
AcDbLine
 10
7.712099552154541
 20
3.557141065597534
 30
0.0
 11
7.73440933227539
 21
3.52585482597351
 31
0.0
  0
LINE
  5
24E
330
23
100
AcDbEntity
  8
TOP
  6
CONTINUOUS
 62
     7
100
AcDbLine
 10
1.2744882106781
 20
5.871705532073975
 30
0.0
 11
1.2744882106781
 21
5.885795593261719
 31
0.0
  0
LINE
  5
24F
330
23
100
AcDbEntity
  8
TOP
  6
CONTINUOUS
 62
     7
100
AcDbLine
 10
5.306488037109375
 20
4.106075763702392
 30
0.0
 11
5.306488037109375
 21
4.101128101348876
 31
0.0
  0
LINE
  5
250
330
23
100
AcDbEntity
  8
TOP
  6
CONTINUOUS
 62
     7
100
AcDbLine
 10
8.991950035095216
 20
4.291689872741699
 30
0.0
 11
8.993993759155273
 21
4.298213005065917
 31
0.0
  0
LINE
  5
251
330
23
100
AcDbEntity
  8
TOP
  6
CONTINUOUS
 62
     7
100
AcDbLine
 10
4.325488090515136
 20
5.042257785797119
 30
0.0
 11
4.325488090515136
 21
5.038257598876953
 31
0.0
  0
LINE
  5
252
330
23
100
AcDbEntity
  8
TOP
  6
CONTINUOUS
 62
     7
100
AcDbLine
 10
5.294488430023193
 20
6.416757583618164
 30
0.0
 11
5.290488243103027
 21
6.416757583618164
 31
0.0
  0
LINE
  5
253
330
23
100
AcDbEntity
  8
TOP
  6
CONTINUOUS
 62
     7
100
AcDbLine
 10
8.15721321105957
 20
3.566551208496093
 30
0.0
 11
8.197497367858886
 21
3.57827615737915
 31
0.0
  0
LINE
  5
254
330
23
100
AcDbEntity
  8
TOP
  6
CONTINUOUS
 62
     7
100
AcDbLine
 10
2.740488290786743
 20
7.304257392883299
 30
0.0
 11
1.870488286018371
 21
7.304257392883299
 31
0.0
  0
LINE
  5
255
330
23
100
AcDbEntity
  8
TOP
  6
CONTINUOUS
 62
     7
100
AcDbLine
 10
6.524861812591552
 20
5.128257751464843
 30
0.0
 11
6.524861812591552
 21
5.075578212738037
 31
0.0
  0
LINE
  5
256
330
23
100
AcDbEntity
  8
TOP
  6
CONTINUOUS
 62
     7
100
AcDbLine
 10
8.844989776611328
 20
4.353253364562988
 30
0.0
 11
8.987013816833496
 21
4.287738323211669
 31
0.0
  0
LINE
  5
257
330
23
100
AcDbEntity
  8
TOP
  6
CONTINUOUS
 62
     7
100
AcDbLine
 10
1.716990113258361
 20
5.795726776123046
 30
0.0
 11
1.705851197242736
 21
5.785152435302734
 31
0.0
  0
LINE
  5
258
330
23
100
AcDbEntity
  8
TOP
  6
CONTINUOUS
 62
     7
100
AcDbLine
 10
9.65502643585205
 20
3.935258626937865
 30
0.0
 11
9.65097427368164
 21
3.91594672203064
 31
0.0
  0
LINE
  5
259
330
23
100
AcDbEntity
  8
TOP
  6
CONTINUOUS
 62
     7
100
AcDbLine
 10
8.184910774230957
 20
3.483522415161132
 30
0.0
 11
8.117622375488281
 21
3.543290853500366
 31
0.0
  0
LINE
  5
25A
330
23
100
AcDbEntity
  8
TOP
  6
CONTINUOUS
 62
     7
100
AcDbLine
 10
1.824526309967041
 20
7.320257663726806
 30
0.0
 11
1.845613837242126
 21
7.320257663726806
 31
0.0
  0
LINE
  5
25B
330
23
100
AcDbEntity
  8
TOP
  6
CONTINUOUS
 62
     7
100
AcDbLine
 10
6.532862186431884
 20
7.230257511138916
 30
0.0
 11
6.532862186431884
 21
7.312793254852295
 31
0.0
  0
LINE
  5
25C
330
23
100
AcDbEntity
  8
TOP
  6
CONTINUOUS
 62
     7
100
AcDbLine
 10
10.1188268661499
 20
3.779335737228393
 30
0.0
 11
9.941818237304687
 21
3.8609881401062
 31
0.0
  0
LINE
  5
25D
330
23
100
AcDbEntity
  8
TOP
  6
CONTINUOUS
 62
     7
100
AcDbLine
 10
5.290488243103027
 20
4.087037563323975
 30
0.0
 11
5.290488243103027
 21
4.101128101348876
 31
0.0
  0
LINE
  5
25E
330
23
100
AcDbEntity
  8
TOP
  6
CONTINUOUS
 62
     7
100
AcDbLine
 10
9.348108291625976
 20
4.604778289794921
 30
0.0
 11
9.018611907958984
 21
4.756772518157958
 31
0.0
  0
LINE
  5
25F
330
23
100
AcDbEntity
  8
TOP
  6
CONTINUOUS
 62
     7
100
AcDbLine
 10
3.040488243103027
 20
5.058650970458984
 30
0.0
 11
3.040488243103027
 21
5.069257736206055
 31
0.0
  0
LINE
  5
260
330
23
100
AcDbEntity
  8
TOP
  6
CONTINUOUS
 62
     7
100
AcDbLine
 10
8.374303817749021
 20
4.503134250640869
 30
0.0
 11
8.176525115966798
 21
4.442706584930419
 31
0.0
  0
LINE
  5
261
330
23
100
AcDbEntity
  8
TOP
  6
CONTINUOUS
 62
     7
100
AcDbLine
 10
9.073039054870605
 20
3.954366445541381
 30
0.0
 11
9.096612930297853
 21
3.962045431137084
 31
0.0
  0
LINE
  5
262
330
23
100
AcDbEntity
  8
TOP
  6
CONTINUOUS
 62
     7
100
AcDbLine
 10
1.364488244056701
 20
7.864657402038574
 30
0.0
 11
1.364488244056701
 21
7.912888050079345
 31
0.0
  0
LINE
  5
263
330
23
100
AcDbEntity
  8
TOP
  6
CONTINUOUS
 62
     7
100
AcDbLine
 10
6.520843029022216
 20
3.320075750350952
 30
0.0
 11
6.520843029022216
 21
3.259932279586791
 31
0.0
  0
LINE
  5
264
330
23
100
AcDbEntity
  8
TOP
  6
CONTINUOUS
 62
     7
100
AcDbLine
 10
3.055488348007202
 20
3.246075868606567
 30
0.0
 11
3.070488214492797
 21
3.246075868606567
 31
0.0
  0
LINE
  5
265
330
23
100
AcDbEntity
  8
TOP
  6
CONTINUOUS
 62
     7
100
AcDbLine
 10
1.364488244056701
 20
7.90677261352539
 30
0.0
 11
1.341665148735046
 21
7.90677261352539
 31
0.0
  0
LINE
  5
266
330
23
100
AcDbEntity
  8
TOP
  6
CONTINUOUS
 62
     7
100
AcDbLine
 10
4.62548828125
 20
5.719257354736328
 30
0.0
 11
4.650488376617431
 21
5.719257354736328
 31
0.0
  0
LINE
  5
267
330
23
100
AcDbEntity
  8
TOP
  6
CONTINUOUS
 62
     7
100
AcDbLine
 10
6.534862041473388
 20
7.320257663726806
 30
0.0
 11
6.534862041473388
 21
6.414573669433593
 31
0.0
  0
LINE
  5
268
330
23
100
AcDbEntity
  8
TOP
  6
CONTINUOUS
 62
     7
100
AcDbLine
 10
10.26175689697265
 20
4.190974712371825
 30
0.0
 11
10.30219841003418
 21
4.203840732574462
 31
0.0
  0
LINE
  5
269
330
23
100
AcDbEntity
  8
TOP
  6
CONTINUOUS
 62
     7
100
AcDbLine
 10
2.765362739562988
 20
5.0542573928833
 30
0.0
 11
2.786450147628784
 21
5.0542573928833
 31
0.0
  0
LINE
  5
26A
330
23
100
AcDbEntity
  8
TOP
  6
CONTINUOUS
 62
     7
100
AcDbLine
 10
6.528843402862548
 20
4.016075611114501
 30
0.0
 11
6.528843402862548
 21
4.106075763702392
 31
0.0
  0
LINE
  5
26B
330
23
100
AcDbEntity
  8
TOP
  6
CONTINUOUS
 62
     7
100
AcDbLine
 10
5.816025257110595
 20
3.14007568359375
 30
0.0
 11
5.816025257110595
 21
3.207683563232421
 31
0.0
  0
LINE
  5
26C
330
23
100
AcDbEntity
  8
TOP
  6
CONTINUOUS
 62
     7
100
AcDbLine
 10
10.11552810668945
 20
4.232698917388916
 30
0.0
 11
10.10651779174804
 21
4.250086307525634
 31
0.0
  0
LINE
  5
26E
330
23
100
AcDbEntity
  8
TOP
  6
CONTINUOUS
 62
     7
100
AcDbLine
 10
8.164698600769042
 20
4.094728946685791
 30
0.0
 11
8.157252311706542
 21
4.092453956604003
 31
0.0
  0
LINE
  5
26F
330
23
100
AcDbEntity
  8
TOP
  6
CONTINUOUS
 62
     7
100
AcDbLine
 10
1.455488204956054
 20
5.294257640838623
 30
0.0
 11
1.455488204956054
 21
5.344257354736328
 31
0.0
  0
LINE
  5
270
330
23
100
AcDbEntity
  8
TOP
  6
CONTINUOUS
 62
     7
100
AcDbLine
 10
6.528861999511719
 20
5.128257751464843
 30
0.0
 11
6.528861999511719
 21
5.060649871826171
 31
0.0
  0
LINE
  5
271
330
23
100
AcDbEntity
  8
TOP
  6
CONTINUOUS
 62
     7
100
AcDbLine
 10
8.157252311706542
 20
4.092453956604003
 30
0.0
 11
8.280340194702146
 21
4.035674571990966
 31
0.0
  0
LINE
  5
272
330
23
100
AcDbEntity
  8
TOP
  6
CONTINUOUS
 62
     7
100
AcDbLine
 10
9.334852218627927
 20
4.385667324066161
 30
0.0
 11
9.211764335632322
 21
4.442446708679199
 31
0.0
  0
LINE
  5
273
330
23
100
AcDbEntity
  8
TOP
  6
CONTINUOUS
 62
     7
100
AcDbLine
 10
7.789239406585692
 20
3.473304510116576
 30
0.0
 11
7.825998306274414
 21
3.464051961898804
 31
0.0
  0
LINE
  5
274
330
23
100
AcDbEntity
  8
TOP
  6
CONTINUOUS
 62
     7
100
AcDbLine
 10
4.775488376617431
 20
5.058650970458984
 30
0.0
 11
4.775488376617431
 21
5.0542573928833
 31
0.0
  0
LINE
  5
275
330
23
100
AcDbEntity
  8
TOP
  6
CONTINUOUS
 62
     7
100
AcDbLine
 10
2.197548151016235
 20
4.177726745605468
 30
0.0
 11
2.187055826187133
 21
4.157458305358887
 31
0.0
  0
LINE
  5
276
330
23
100
AcDbEntity
  8
TOP
  6
CONTINUOUS
 62
     7
100
AcDbLine
 10
5.838837146759033
 20
5.776757717132568
 30
0.0
 11
5.838837146759033
 21
5.851829528808593
 31
0.0
  0
LINE
  5
277
330
23
100
AcDbEntity
  8
TOP
  6
CONTINUOUS
 62
     7
100
AcDbLine
 10
8.850796699523925
 20
3.782542467117309
 30
0.0
 11
8.855884552001953
 21
3.784502267837524
 31
0.0
  0
LINE
  5
278
330
23
100
AcDbEntity
  8
TOP
  6
CONTINUOUS
 62
     7
100
AcDbLine
 10
5.306488037109375
 20
6.4267578125
 30
0.0
 11
5.306488037109375
 21
5.931757450103759
 31
0.0
  0
LINE
  5
279
330
23
100
AcDbEntity
  8
TOP
  6
CONTINUOUS
 62
     7
100
AcDbLine
 10
6.528843402862548
 20
3.23007583618164
 30
0.0
 11
6.528843402862548
 21
3.436935901641845
 31
0.0
  0
LINE
  5
27A
330
23
100
AcDbEntity
  8
TOP
  6
CONTINUOUS
 62
     7
100
AcDbLine
 10
9.220765113830566
 20
3.387700080871582
 30
0.0
 11
9.24330997467041
 21
3.380695819854736
 31
0.0
  0
LINE
  5
27B
330
23
100
AcDbEntity
  8
TOP
  6
CONTINUOUS
 62
     7
100
AcDbLine
 10
5.810837268829345
 20
6.581757545471192
 30
0.0
 11
5.810837268829345
 21
6.581326961517333
 31
0.0
  0
LINE
  5
27C
330
23
100
AcDbEntity
  8
TOP
  6
CONTINUOUS
 62
     7
100
AcDbLine
 10
1.880488276481628
 20
7.308257579803465
 30
0.0
 11
1.880488276481628
 21
7.304257392883299
 31
0.0
  0
LINE
  5
27D
330
23
100
AcDbEntity
  8
TOP
  6
CONTINUOUS
 62
     7
100
AcDbLine
 10
8.426521301269531
 20
4.261700630187988
 30
0.0
 11
8.422504425048828
 21
4.265996932983398
 31
0.0
  0
LINE
  5
27E
330
23
100
AcDbEntity
  8
TOP
  6
CONTINUOUS
 62
     7
100
AcDbLine
 10
8.603216171264648
 20
3.660429000854492
 30
0.0
 11
9.070949554443359
 21
3.444666862487792
 31
0.0
  0
LINE
  5
27F
330
23
100
AcDbEntity
  8
TOP
  6
CONTINUOUS
 62
     7
100
AcDbLine
 10
1.870488286018371
 20
5.038257598876953
 30
0.0
 11
1.845613837242126
 21
5.038257598876953
 31
0.0
  0
LINE
  5
280
330
23
100
AcDbEntity
  8
TOP
  6
CONTINUOUS
 62
     7
100
AcDbLine
 10
6.534862041473388
 20
7.230257511138916
 30
0.0
 11
6.534862041473388
 21
7.320257663726806
 31
0.0
  0
LINE
  5
281
330
23
100
AcDbEntity
  8
TOP
  6
CONTINUOUS
 62
     7
100
AcDbLine
 10
6.554862022399902
 20
5.128257751464843
 30
0.0
 11
6.554862022399902
 21
5.112898826599121
 31
0.0
  0
LINE
  5
282
330
23
100
AcDbEntity
  8
TOP
  6
CONTINUOUS
 62
     7
100
AcDbLine
 10
1.2744882106781
 20
4.106075763702392
 30
0.0
 11
1.290488243103027
 21
4.106075763702392
 31
0.0
  0
LINE
  5
283
330
23
100
AcDbEntity
  8
TOP
  6
CONTINUOUS
 62
     7
100
AcDbLine
 10
9.75240421295166
 20
4.413436412811279
 30
0.0
 11
9.743392944335935
 21
4.404362201690673
 31
0.0
  0
LINE
  5
284
330
23
100
AcDbEntity
  8
TOP
  6
CONTINUOUS
 62
     7
100
AcDbLine
 10
10.16017436981201
 20
4.28047752380371
 30
0.0
 11
10.19896221160888
 21
4.296384334564208
 31
0.0
  0
LINE
  5
285
330
23
100
AcDbEntity
  8
TOP
  6
CONTINUOUS
 62
     7
100
AcDbLine
 10
5.212988376617431
 20
3.23007583618164
 30
0.0
 11
5.182840824127196
 21
3.23007583618164
 31
0.0
  0
LINE
  5
287
330
23
100
AcDbEntity
  8
TOP
  6
CONTINUOUS
 62
     7
100
AcDbLine
 10
6.534843444824218
 20
3.320075750350952
 30
0.0
 11
6.534843444824218
 21
3.252468109130859
 31
0.0
  0
LINE
  5
288
330
23
100
AcDbEntity
  8
TOP
  6
CONTINUOUS
 62
     7
100
AcDbLine
 10
5.216488361358642
 20
7.910772800445554
 30
0.0
 11
5.224382877349853
 21
7.910772800445554
 31
0.0
  0
LINE
  5
289
330
23
100
AcDbEntity
  8
TOP
  6
CONTINUOUS
 62
     7
100
AcDbLine
 10
4.850488185882568
 20
6.639257431030273
 30
0.0
 11
4.800487995147705
 21
6.639257431030273
 31
0.0
  0
LINE
  5
28A
330
23
100
AcDbEntity
  8
TOP
  6
CONTINUOUS
 62
     7
100
AcDbLine
 10
8.287786483764648
 20
4.037949562072753
 30
0.0
 11
8.287888526916503
 21
4.03790283203125
 31
0.0
  0
LINE
  5
28B
330
23
100
AcDbEntity
  8
TOP
  6
CONTINUOUS
 62
     7
100
AcDbLine
 10
7.722869396209715
 20
3.540269374847412
 30
0.0
 11
7.74302864074707
 21
3.543092727661132
 31
0.0
  0
LINE
  5
28C
330
23
100
AcDbEntity
  8
TOP
  6
CONTINUOUS
 62
     7
100
AcDbLine
 10
4.710488319396972
 20
4.106075763702392
 30
0.0
 11
3.840488195419311
 21
4.106075763702392
 31
0.0
  0
LINE
  5
28D
330
23
100
AcDbEntity
  8
TOP
  6
CONTINUOUS
 62
     7
100
AcDbLine
 10
8.195536613464355
 20
3.495484828948974
 30
0.0
 11
8.172892570495605
 21
3.51559829711914
 31
0.0
  0
LINE
  5
28E
330
23
100
AcDbEntity
  8
TOP
  6
CONTINUOUS
 62
     7
100
AcDbLine
 10
6.528843402862548
 20
3.23007583618164
 30
0.0
 11
6.552958488464356
 21
3.320075750350952
 31
0.0
  0
LINE
  5
28F
330
23
100
AcDbEntity
  8
TOP
  6
CONTINUOUS
 62
     7
100
AcDbLine
 10
5.826025485992431
 20
3.14007568359375
 30
0.0
 11
5.826025485992431
 21
3.215147495269775
 31
0.0
  0
LINE
  5
290
330
23
100
AcDbEntity
  8
TOP
  6
CONTINUOUS
 62
     7
100
AcDbLine
 10
5.828025341033936
 20
3.76607584953308
 30
0.0
 11
5.828025341033936
 21
3.698467969894408
 31
0.0
  0
LINE
  5
292
330
23
100
AcDbEntity
  8
TOP
  6
CONTINUOUS
 62
     7
100
AcDbLine
 10
1.955488204956054
 20
6.764257431030273
 30
0.0
 11
1.955488204956054
 21
6.714257717132568
 31
0.0
  0
LINE
  5
293
330
23
100
AcDbEntity
  8
TOP
  6
CONTINUOUS
 62
     7
100
AcDbLine
 10
8.710200309753417
 20
4.090414524078369
 30
0.0
 11
8.69789218902588
 21
4.091249942779541
 31
0.0
  0
LINE
  5
294
330
23
100
AcDbEntity
  8
TOP
  6
CONTINUOUS
 62
     7
100
AcDbLine
 10
9.777968406677246
 20
4.153455257415772
 30
0.0
 11
9.901056289672851
 21
4.096675872802734
 31
0.0
  0
LINE
  5
295
330
23
100
AcDbEntity
  8
TOP
  6
CONTINUOUS
 62
     7
100
AcDbLine
 10
8.35400390625
 20
3.611267328262328
 30
0.0
 11
8.369296073913574
 21
3.618202924728393
 31
0.0
  0
LINE
  5
296
330
23
100
AcDbEntity
  8
TOP
  6
CONTINUOUS
 62
     7
100
AcDbLine
 10
3.770540475845336
 20
5.038257598876953
 30
0.0
 11
3.756450176239013
 21
5.038257598876953
 31
0.0
  0
LINE
  5
298
330
23
100
AcDbEntity
  8
TOP
  6
CONTINUOUS
 62
     7
100
AcDbLine
 10
2.167353868484496
 20
4.193356990814208
 30
0.0
 11
2.153430223464965
 21
4.166460037231444
 31
0.0
  0
LINE
  5
299
330
23
100
AcDbEntity
  8
TOP
  6
CONTINUOUS
 62
     7
100
AcDbLine
 10
9.951170921325683
 20
4.097291946411132
 30
0.0
 11
9.957865715026855
 21
4.098275661468505
 31
0.0
  0
LINE
  5
29A
330
23
100
AcDbEntity
  8
TOP
  6
CONTINUOUS
 62
     7
100
AcDbLine
 10
1.930488228797912
 20
5.719257354736328
 30
0.0
 11
1.955488204956054
 21
5.719257354736328
 31
0.0
  0
LINE
  5
29B
330
23
100
AcDbEntity
  8
TOP
  6
CONTINUOUS
 62
     7
100
AcDbLine
 10
9.509607315063474
 20
3.999492883682251
 30
0.0
 11
9.572844505310056
 21
4.009448528289794
 31
0.0
  0
LINE
  5
29C
330
23
100
AcDbEntity
  8
TOP
  6
CONTINUOUS
 62
     7
100
AcDbLine
 10
1.294881582260131
 20
5.8667573928833
 30
0.0
 11
1.290488243103027
 21
5.8667573928833
 31
0.0
  0
LINE
  5
29D
330
23
100
AcDbEntity
  8
TOP
  6
CONTINUOUS
 62
     7
100
AcDbLine
 10
10.26343345642089
 20
3.664585113525391
 30
0.0
 11
10.24304103851318
 21
3.654837608337401
 31
0.0
  0
LINE
  5
29E
330
23
100
AcDbEntity
  8
TOP
  6
CONTINUOUS
 62
     7
100
AcDbLine
 10
5.858952522277832
 20
5.776757717132568
 30
0.0
 11
5.834837436676025
 21
5.8667573928833
 31
0.0
  0
LINE
  5
29F
330
23
100
AcDbEntity
  8
TOP
  6
CONTINUOUS
 62
     7
100
AcDbLine
 10
5.290488243103027
 20
5.941757678985595
 30
0.0
 11
5.294488430023193
 21
5.941757678985595
 31
0.0
  0
LINE
  5
2A1
330
23
100
AcDbEntity
  8
TOP
  6
CONTINUOUS
 62
     7
100
AcDbLine
 10
9.675162315368652
 20
3.964131355285644
 30
0.0
 11
9.905517578125
 21
4.034512042999267
 31
0.0
  0
LINE
  5
2A2
330
23
100
AcDbEntity
  8
TOP
  6
CONTINUOUS
 62
     7
100
AcDbLine
 10
6.538861751556396
 20
5.128257751464843
 30
0.0
 11
6.538861751556396
 21
5.053185939788817
 31
0.0
  0
LINE
  5
2A3
330
23
100
AcDbEntity
  8
TOP
  6
CONTINUOUS
 62
     7
100
AcDbLine
 10
9.772158622741699
 20
4.414876461029052
 30
0.0
 11
9.764712333679199
 21
4.412601470947265
 31
0.0
  0
LINE
  5
2A4
330
23
100
AcDbEntity
  8
TOP
  6
CONTINUOUS
 62
     7
100
AcDbLine
 10
9.895289421081542
 20
3.801514387130736
 30
0.0
 11
9.903515815734863
 21
3.79995584487915
 31
0.0
  0
LINE
  5
2A5
330
23
100
AcDbEntity
  8
TOP
  6
CONTINUOUS
 62
     7
100
AcDbLine
 10
8.170301437377929
 20
3.467074155807495
 30
0.0
 11
8.164398193359375
 21
3.472316980361938
 31
0.0
  0
LINE
  5
2A6
330
23
100
AcDbEntity
  8
TOP
  6
CONTINUOUS
 62
     7
100
AcDbLine
 10
1.805488228797912
 20
7.299864292144774
 30
0.0
 11
1.805488228797912
 21
7.304257392883299
 31
0.0
  0
LINE
  5
2A7
330
23
100
AcDbEntity
  8
TOP
  6
CONTINUOUS
 62
     7
100
AcDbLine
 10
6.510861873626708
 20
7.230257511138916
 30
0.0
 11
6.510861873626708
 21
7.230688571929931
 31
0.0
  0
LINE
  5
2A8
330
23
100
AcDbEntity
  8
TOP
  6
CONTINUOUS
 62
     7
100
AcDbLine
 10
7.607138156890869
 20
3.561524152755737
 30
0.0
 11
7.637892246246338
 21
3.5427565574646
 31
0.0
  0
LINE
  5
2A9
330
23
100
AcDbEntity
  8
TOP
  6
CONTINUOUS
 62
     7
100
AcDbLine
 10
1.309747457504272
 20
3.23007583618164
 30
0.0
 11
1.305488228797912
 21
3.23007583618164
 31
0.0
  0
LINE
  5
2AA
330
23
100
AcDbEntity
  8
TOP
  6
CONTINUOUS
 62
     7
100
AcDbLine
 10
3.84250783920288
 20
7.804397583007811
 30
0.0
 11
3.84250783920288
 21
7.973147869110107
 31
0.0
  0
LINE
  5
2AB
330
23
100
AcDbEntity
  8
TOP
  6
CONTINUOUS
 62
     7
100
AcDbLine
 10
4.62548828125
 20
6.639257431030273
 30
0.0
 11
4.62548828125
 21
6.664257526397705
 31
0.0
  0
LINE
  5
2AC
330
23
100
AcDbEntity
  8
TOP
  6
CONTINUOUS
 62
     7
100
AcDbLine
 10
9.675162315368652
 20
3.964131355285644
 30
0.0
 11
9.681222915649414
 21
3.961336135864257
 31
0.0
  0
LINE
  5
2AD
330
23
100
AcDbEntity
  8
TOP
  6
CONTINUOUS
 62
     7
100
AcDbLine
 10
7.960149765014648
 20
4.438011169433593
 30
0.0
 11
7.965678691864012
 21
4.438525676727294
 31
0.0
  0
LINE
  5
2AE
330
23
100
AcDbEntity
  8
TOP
  6
CONTINUOUS
 62
     7
100
AcDbLine
 10
8.241688728332517
 20
3.700938701629639
 30
0.0
 11
8.260242462158203
 21
3.706769704818725
 31
0.0
  0
LINE
  5
2AF
330
23
100
AcDbEntity
  8
TOP
  6
CONTINUOUS
 62
     7
100
AcDbLine
 10
3.756450176239013
 20
7.304257392883299
 30
0.0
 11
3.735362768173217
 21
7.304257392883299
 31
0.0
  0
LINE
  5
2B0
330
23
100
AcDbEntity
  8
TOP
  6
CONTINUOUS
 62
     7
100
AcDbLine
 10
5.830025672912597
 20
3.76607584953308
 30
0.0
 11
5.830025672912597
 21
3.705932140350341
 31
0.0
  0
LINE
  5
2B2
330
23
100
AcDbEntity
  8
TOP
  6
CONTINUOUS
 62
     7
100
AcDbLine
 10
1.364488244056701
 20
7.876772880554198
 30
0.0
 11
1.319272875785827
 21
7.876772880554198
 31
0.0
  0
LINE
  5
2B3
330
23
100
AcDbEntity
  8
TOP
  6
CONTINUOUS
 62
     7
100
AcDbLine
 10
5.050487995147705
 20
5.219257354736328
 30
0.0
 11
5.00048828125
 21
5.219257354736328
 31
0.0
  0
LINE
  5
2B4
330
23
100
AcDbEntity
  8
TOP
  6
CONTINUOUS
 62
     7
100
AcDbLine
 10
5.216488361358642
 20
7.884772777557372
 30
0.0
 11
5.291560173034667
 21
7.884772777557372
 31
0.0
  0
LINE
  5
2B5
330
23
100
AcDbEntity
  8
TOP
  6
CONTINUOUS
 62
     7
100
AcDbLine
 10
8.280340194702146
 20
4.063480377197265
 30
0.0
 11
8.287035942077634
 21
4.056319713592528
 31
0.0
  0
LINE
  5
2B6
330
23
100
AcDbEntity
  8
TOP
  6
CONTINUOUS
 62
     7
100
AcDbLine
 10
7.964099407196046
 20
4.434585571289063
 30
0.0
 11
7.951790809631346
 21
4.435420989990233
 31
0.0
  0
LINE
  5
2B7
330
23
100
AcDbEntity
  8
TOP
  6
CONTINUOUS
 62
     7
100
AcDbLine
 10
9.264012336730957
 20
3.897517919540404
 30
0.0
 11
9.307085990905759
 21
3.924957036972045
 31
0.0
  0
LINE
  5
2B8
330
23
100
AcDbEntity
  8
TOP
  6
CONTINUOUS
 62
     7
100
AcDbLine
 10
1.810436010360717
 20
5.038257598876953
 30
0.0
 11
1.805488228797912
 21
5.038257598876953
 31
0.0
  0
LINE
  5
2BA
330
23
100
AcDbEntity
  8
TOP
  6
CONTINUOUS
 62
     7
100
AcDbLine
 10
6.506843090057372
 20
4.016075611114501
 30
0.0
 11
6.506843090057372
 21
4.023970603942871
 31
0.0
  0
LINE
  5
2BB
330
23
100
AcDbEntity
  8
TOP
  6
CONTINUOUS
 62
     7
100
AcDbLine
 10
5.846140861511231
 20
3.14007568359375
 30
0.0
 11
5.822025299072265
 21
3.23007583618164
 31
0.0
  0
LINE
  5
2BC
330
23
100
AcDbEntity
  8
TOP
  6
CONTINUOUS
 62
     7
100
AcDbLine
 10
8.282903671264648
 20
3.711795091629027
 30
0.0
 11
8.325422286987304
 21
3.719647884368896
 31
0.0
  0
LINE
  5
2BE
330
23
100
AcDbEntity
  8
TOP
  6
CONTINUOUS
 62
     7
100
AcDbLine
 10
9.032974243164062
 20
4.506401538848876
 30
0.0
 11
9.039313316345216
 21
4.499901294708251
 31
0.0
  0
LINE
  5
2BF
330
23
100
AcDbEntity
  8
TOP
  6
CONTINUOUS
 62
     7
100
AcDbLine
 10
1.955488204956054
 20
5.544257640838623
 30
0.0
 11
1.955488204956054
 21
5.494257450103759
 31
0.0
  0
LINE
  5
2C0
330
23
100
AcDbEntity
  8
TOP
  6
CONTINUOUS
 62
     7
100
AcDbLine
 10
7.829037189483641
 20
3.475494861602783
 30
0.0
 11
7.866618156433105
 21
3.474907875061035
 31
0.0
  0
LINE
  5
2C1
330
23
100
AcDbEntity
  8
TOP
  6
CONTINUOUS
 62
     7
100
AcDbLine
 10
1.74039888381958
 20
5.771068572998046
 30
0.0
 11
1.713020086288451
 21
5.74507713317871
 31
0.0
  0
LINE
  5
2C2
330
23
100
AcDbEntity
  8
TOP
  6
CONTINUOUS
 62
     7
100
AcDbLine
 10
9.461721420288084
 20
4.082094669342041
 30
0.0
 11
9.461726188659667
 21
4.082273006439208
 31
0.0
  0
LINE
  5
2C4
330
23
100
AcDbEntity
  8
TOP
  6
CONTINUOUS
 62
     7
100
AcDbLine
 10
3.797507762908935
 20
7.804397583007811
 30
0.0
 11
3.84250783920288
 21
7.804397583007811
 31
0.0
  0
LINE
  5
2C5
330
23
100
AcDbEntity
  8
TOP
  6
CONTINUOUS
 62
     7
100
AcDbLine
 10
1.28648817539215
 20
5.941757678985595
 30
0.0
 11
1.290488243103027
 21
5.941757678985595
 31
0.0
  0
LINE
  5
2C6
330
23
100
AcDbEntity
  8
TOP
  6
CONTINUOUS
 62
     7
100
AcDbLine
 10
8.293641090393066
 20
3.603030204772948
 30
0.0
 11
8.312411308288574
 21
3.607791662216186
 31
0.0
  0
LINE
  5
2C7
330
23
100
AcDbEntity
  8
TOP
  6
CONTINUOUS
 62
     7
100
AcDbLine
 10
1.810436010360717
 20
7.304257392883299
 30
0.0
 11
1.805488228797912
 21
7.304257392883299
 31
0.0
  0
LINE
  5
2C8
330
23
100
AcDbEntity
  8
TOP
  6
CONTINUOUS
 62
     7
100
AcDbLine
 10
6.532862186431884
 20
5.128257751464843
 30
0.0
 11
6.532862186431884
 21
5.045721530914306
 31
0.0
  0
LINE
  5
2C9
330
23
100
AcDbEntity
  8
TOP
  6
CONTINUOUS
 62
     7
100
AcDbLine
 10
8.794476509094238
 20
4.363489627838134
 30
0.0
 11
8.765341758728027
 21
4.362457752227783
 31
0.0
  0
LINE
  5
2CA
330
23
100
AcDbEntity
  8
TOP
  6
CONTINUOUS
 62
     7
100
AcDbLine
 10
2.870488166809082
 20
3.481075763702392
 30
0.0
 11
3.710488319396972
 21
3.481075763702392
 31
0.0
  0
LINE
  5
2CB
330
23
100
AcDbEntity
  8
TOP
  6
CONTINUOUS
 62
     7
100
AcDbLine
 10
1.722498059272765
 20
5.789925098419189
 30
0.0
 11
1.689705967903137
 21
5.75879430770874
 31
0.0
  0
LINE
  5
2CC
330
23
100
AcDbEntity
  8
TOP
  6
CONTINUOUS
 62
     7
100
AcDbLine
 10
8.198193550109863
 20
3.498475313186645
 30
0.0
 11
8.186710357666013
 21
3.508675098419189
 31
0.0
  0
LINE
  5
2CD
330
23
100
AcDbEntity
  8
TOP
  6
CONTINUOUS
 62
     7
100
AcDbLine
 10
2.765362739562988
 20
7.320257663726806
 30
0.0
 11
2.786450147628784
 21
7.320257663726806
 31
0.0
  0
LINE
  5
2CE
330
23
100
AcDbEntity
  8
TOP
  6
CONTINUOUS
 62
     7
100
AcDbLine
 10
6.556861877441406
 20
7.230257511138916
 30
0.0
 11
6.556861877441406
 21
7.238152503967285
 31
0.0
  0
LINE
  5
2CF
330
23
100
AcDbEntity
  8
TOP
  6
CONTINUOUS
 62
     7
100
AcDbLine
 10
10.1118459701538
 20
3.768861293792724
 30
0.0
 11
9.941824913024902
 21
3.847290754318236
 31
0.0
  0
LINE
  5
2D0
330
23
100
AcDbEntity
  8
TOP
  6
CONTINUOUS
 62
     7
100
AcDbLine
 10
8.414661407470703
 20
3.762538909912108
 30
0.0
 11
8.414661407470703
 21
3.770880699157714
 31
0.0
  0
LINE
  5
2D1
330
23
100
AcDbEntity
  8
TOP
  6
CONTINUOUS
 62
     7
100
AcDbLine
 10
1.870488286018371
 20
5.0542573928833
 30
0.0
 11
2.740488290786743
 21
5.0542573928833
 31
0.0
  0
LINE
  5
2D2
330
23
100
AcDbEntity
  8
TOP
  6
CONTINUOUS
 62
     7
100
AcDbLine
 10
9.197635650634765
 20
4.021320343017577
 30
0.0
 11
9.246344566345216
 21
4.042333126068115
 31
0.0
  0
LINE
  5
2D3
330
23
100
AcDbEntity
  8
TOP
  6
CONTINUOUS
 62
     7
100
AcDbLine
 10
2.163801670074462
 20
4.195196151733398
 30
0.0
 11
2.156740665435791
 21
4.181556224822998
 31
0.0
  0
LINE
  5
2D4
330
23
100
AcDbEntity
  8
TOP
  6
CONTINUOUS
 62
     7
100
AcDbLine
 10
6.528843402862548
 20
3.320075750350952
 30
0.0
 11
6.528843402862548
 21
3.23007583618164
 31
0.0
  0
LINE
  5
2D5
330
23
100
AcDbEntity
  8
TOP
  6
CONTINUOUS
 62
     7
100
AcDbLine
 10
3.536468982696532
 20
3.246075868606567
 30
0.0
 11
3.540488243103027
 21
3.246075868606567
 31
0.0
  0
LINE
  5
2D6
330
23
100
AcDbEntity
  8
TOP
  6
CONTINUOUS
 62
     7
100
AcDbLine
 10
9.889229774475095
 20
3.776504039764403
 30
0.0
 11
9.897177696228029
 21
3.782683372497559
 31
0.0
  0
LINE
  5
2D7
330
23
100
AcDbEntity
  8
TOP
  6
CONTINUOUS
 62
     7
100
AcDbLine
 10
1.364488244056701
 20
7.898772716522217
 30
0.0
 11
1.311808705329895
 21
7.898772716522217
 31
0.0
  0
LINE
  5
2D8
330
23
100
AcDbEntity
  8
TOP
  6
CONTINUOUS
 62
     7
100
AcDbLine
 10
5.00048828125
 20
5.719257354736328
 30
0.0
 11
5.050487995147705
 21
5.719257354736328
 31
0.0
  0
LINE
  5
2D9
330
23
100
AcDbEntity
  8
TOP
  6
CONTINUOUS
 62
     7
100
AcDbLine
 10
9.033989906311036
 20
3.693732023239136
 30
0.0
 11
9.034092903137207
 21
3.693686962127685
 31
0.0
  0
LINE
  5
2DA
330
23
100
AcDbEntity
  8
TOP
  6
CONTINUOUS
 62
     7
100
AcDbLine
 10
10.41853904724121
 20
4.276638984680175
 30
0.0
 11
10.45176315307617
 21
4.314590454101562
 31
0.0
  0
LINE
  5
2DB
330
23
100
AcDbEntity
  8
TOP
  6
CONTINUOUS
 62
     7
100
AcDbLine
 10
2.810436010360717
 20
5.0542573928833
 30
0.0
 11
2.824526309967041
 21
5.0542573928833
 31
0.0
  0
LINE
  5
2DC
330
23
100
AcDbEntity
  8
TOP
  6
CONTINUOUS
 62
     7
100
AcDbLine
 10
6.548843383789063
 20
4.016075611114501
 30
0.0
 11
6.548843383789063
 21
4.031434535980224
 31
0.0
  0
LINE
  5
2DD
330
23
100
AcDbEntity
  8
TOP
  6
CONTINUOUS
 62
     7
100
AcDbLine
 10
5.846025466918944
 20
3.14007568359375
 30
0.0
 11
5.846025466918944
 21
3.140506505966186
 31
0.0
  0
LINE
  5
2DF
330
23
100
AcDbEntity
  8
TOP
  6
CONTINUOUS
 62
     7
100
AcDbLine
 10
1.455488204956054
 20
5.694257736206055
 30
0.0
 11
1.455488204956054
 21
5.719257354736328
 31
0.0
  0
LINE
  5
2E1
330
23
100
AcDbEntity
  8
TOP
  6
CONTINUOUS
 62
     7
100
AcDbLine
 10
9.341547966003417
 20
4.358845233917236
 30
0.0
 11
9.334852218627927
 21
4.357861518859863
 31
0.0
  0
LINE
  5
2E2
330
23
100
AcDbEntity
  8
TOP
  6
CONTINUOUS
 62
     7
100
AcDbLine
 10
7.978557109832762
 20
3.497251987457275
 30
0.0
 11
8.041989326477049
 21
3.518799543380737
 31
0.0
  0
LINE
  5
2E3
330
23
100
AcDbEntity
  8
TOP
  6
CONTINUOUS
 62
     7
100
AcDbLine
 10
1.805488228797912
 20
5.038257598876953
 30
0.0
 11
1.805488228797912
 21
5.0542573928833
 31
0.0
  0
LINE
  5
2E4
330
23
100
AcDbEntity
  8
TOP
  6
CONTINUOUS
 62
     7
100
AcDbLine
 10
2.190443515777587
 20
4.181404590606689
 30
0.0
 11
2.166225910186768
 21
4.134621620178223
 31
0.0
  0
LINE
  5
2E5
330
23
100
AcDbEntity
  8
TOP
  6
CONTINUOUS
 62
     7
100
AcDbLine
 10
9.342400550842285
 20
4.360089778900146
 30
0.0
 11
9.342503547668457
 21
4.360044956207275
 31
0.0
  0
LINE
  5
2E6
330
23
100
AcDbEntity
  8
TOP
  6
CONTINUOUS
 62
     7
100
AcDbLine
 10
5.541994094848632
 20
3.45036244392395
 30
0.0
 11
5.541994094848632
 21
3.281612396240234
 31
0.0
  0
LINE
  5
2E7
330
23
100
AcDbEntity
  8
TOP
  6
CONTINUOUS
 62
     7
100
AcDbLine
 10
1.955488204956054
 20
5.719257354736328
 30
0.0
 11
1.955488204956054
 21
5.694257736206055
 31
0.0
  0
LINE
  5
2E8
330
23
100
AcDbEntity
  8
TOP
  6
CONTINUOUS
 62
     7
100
AcDbLine
 10
1.367988228797912
 20
3.246075868606567
 30
0.0
 11
1.398135900497436
 21
3.246075868606567
 31
0.0
  0
LINE
  5
2E9
330
23
100
AcDbEntity
  8
TOP
  6
CONTINUOUS
 62
     7
100
AcDbLine
 10
5.306488037109375
 20
5.871705532073975
 30
0.0
 11
5.306488037109375
 21
5.8667573928833
 31
0.0
  0
LINE
  5
2EA
330
23
100
AcDbEntity
  8
TOP
  6
CONTINUOUS
 62
     7
100
AcDbLine
 10
9.639233589172365
 20
3.479252815246582
 30
0.0
 11
9.643896102905271
 21
3.480677366256713
 31
0.0
  0
LINE
  5
2EB
330
23
100
AcDbEntity
  8
TOP
  6
CONTINUOUS
 62
     7
100
AcDbLine
 10
7.822712898254393
 20
4.077218055725097
 30
0.0
 11
7.80405569076538
 21
4.068754196166992
 31
0.0
  0
LINE
  5
2EC
330
23
100
AcDbEntity
  8
TOP
  6
CONTINUOUS
 62
     7
100
AcDbLine
 10
3.770540475845336
 20
7.320257663726806
 30
0.0
 11
3.775488138198852
 21
7.320257663726806
 31
0.0
  0
LINE
  5
2ED
330
23
100
AcDbEntity
  8
TOP
  6
CONTINUOUS
 62
     7
100
AcDbLine
 10
5.81883716583252
 20
6.581757545471192
 30
0.0
 11
5.81883716583252
 21
6.551470279693604
 31
0.0
  0
LINE
  5
2EE
330
23
100
AcDbEntity
  8
TOP
  6
CONTINUOUS
 62
     7
100
AcDbLine
 10
4.225488185882568
 20
7.316257476806639
 30
0.0
 11
4.225488185882568
 21
7.320257663726806
 31
0.0
  0
LINE
  5
2EF
330
23
100
AcDbEntity
  8
TOP
  6
CONTINUOUS
 62
     7
100
AcDbLine
 10
5.834837436676025
 20
6.716757774353027
 30
0.0
 11
5.834837436676025
 21
6.4917573928833
 31
0.0
  0
LINE
  5
2F0
330
23
100
AcDbEntity
  8
TOP
  6
CONTINUOUS
 62
     7
100
AcDbLine
 10
10.27070045471191
 20
3.676675796508788
 30
0.0
 11
10.27070045471191
 21
3.685573577880859
 31
0.0
  0
LINE
  5
2F1
330
23
100
AcDbEntity
  8
TOP
  6
CONTINUOUS
 62
     7
100
AcDbLine
 10
3.815613746643065
 20
7.320257663726806
 30
0.0
 11
3.840488195419311
 21
7.320257663726806
 31
0.0
  0
LINE
  5
2F2
330
23
100
AcDbEntity
  8
TOP
  6
CONTINUOUS
 62
     7
100
AcDbLine
 10
6.55886173248291
 20
5.128257751464843
 30
0.0
 11
6.55886173248291
 21
5.127826690673828
 31
0.0
  0
LINE
  5
2F3
330
23
100
AcDbEntity
  8
TOP
  6
CONTINUOUS
 62
     7
100
AcDbLine
 10
5.842025279998779
 20
3.76607584953308
 30
0.0
 11
5.842025279998779
 21
3.750716686248779
 31
0.0
  0
LINE
  5
2F4
330
23
100
AcDbEntity
  8
TOP
  6
CONTINUOUS
 62
     7
100
AcDbLine
 10
3.540488243103027
 20
3.23007583618164
 30
0.0
 11
3.540488243103027
 21
3.234229087829589
 31
0.0
  0
LINE
  5
2F6
330
23
100
AcDbEntity
  8
TOP
  6
CONTINUOUS
 62
     7
100
AcDbLine
 10
9.149425506591796
 20
3.869078636169433
 30
0.0
 11
9.166250228881837
 21
3.874660730361938
 31
0.0
  0
LINE
  5
2F7
330
23
100
AcDbEntity
  8
TOP
  6
CONTINUOUS
 62
     7
100
AcDbLine
 10
7.978461742401122
 20
4.18421459197998
 30
0.0
 11
7.984800815582275
 21
4.177714347839356
 31
0.0
  0
LINE
  5
2F8
330
23
100
AcDbEntity
  8
TOP
  6
CONTINUOUS
 62
     7
100
AcDbLine
 10
10.30375671386718
 20
4.386797428131104
 30
0.0
 11
10.33128833770752
 21
4.428110599517822
 31
0.0
  0
LINE
  5
2F9
330
23
100
AcDbEntity
  8
TOP
  6
CONTINUOUS
 62
     7
100
AcDbLine
 10
5.050487995147705
 20
6.639257431030273
 30
0.0
 11
5.00048828125
 21
6.639257431030273
 31
0.0
  0
LINE
  5
2FA
330
23
100
AcDbEntity
  8
TOP
  6
CONTINUOUS
 62
     7
100
AcDbLine
 10
5.858837127685545
 20
6.581757545471192
 30
0.0
 11
5.858837127685545
 21
6.581326961517333
 31
0.0
  0
LINE
  5
2FB
330
23
100
AcDbEntity
  8
TOP
  6
CONTINUOUS
 62
     7
100
AcDbLine
 10
5.12548828125
 20
7.064257621765136
 30
0.0
 11
5.12548828125
 21
7.014257431030273
 31
0.0
  0
LINE
  5
2FC
330
23
100
AcDbEntity
  8
TOP
  6
CONTINUOUS
 62
     7
100
AcDbLine
 10
5.844025611877441
 20
3.14007568359375
 30
0.0
 11
5.844025611877441
 21
3.147970676422119
 31
0.0
  0
LINE
  5
2FD
330
23
100
AcDbEntity
  8
TOP
  6
CONTINUOUS
 62
     7
100
AcDbLine
 10
7.909418582916258
 20
3.598579168319702
 30
0.0
 11
7.966837406158446
 21
3.617172002792358
 31
0.0
  0
LINE
  5
2FE
330
23
100
AcDbEntity
  8
TOP
  6
CONTINUOUS
 62
     7
100
AcDbLine
 10
3.040488243103027
 20
5.042257785797119
 30
0.0
 11
3.040488243103027
 21
5.038257598876953
 31
0.0
  0
LINE
  5
2FF
330
23
100
AcDbEntity
  8
TOP
  6
CONTINUOUS
 62
     7
100
AcDbLine
 10
3.040488243103027
 20
3.261075735092163
 30
0.0
 11
3.040488243103027
 21
3.245575666427612
 31
0.0
  0
LINE
  5
301
330
23
100
AcDbEntity
  8
TOP
  6
CONTINUOUS
 62
     7
100
AcDbLine
 10
1.630488276481628
 20
7.139257431030273
 30
0.0
 11
1.680488228797912
 21
7.139257431030273
 31
0.0
  0
LINE
  5
302
330
23
100
AcDbEntity
  8
TOP
  6
CONTINUOUS
 62
     7
100
AcDbLine
 10
5.216488361358642
 20
7.864772796630859
 30
0.0
 11
5.2169189453125
 21
7.864772796630859
 31
0.0
  0
LINE
  5
303
330
23
100
AcDbEntity
  8
TOP
  6
CONTINUOUS
 62
     7
100
AcDbLine
 10
5.846140861511231
 20
3.76607584953308
 30
0.0
 11
5.797910213470458
 21
3.76607584953308
 31
0.0
  0
LINE
  5
304
330
23
100
AcDbEntity
  8
TOP
  6
CONTINUOUS
 62
     7
100
AcDbLine
 10
8.425073623657224
 20
3.635139942169189
 30
0.0
 11
8.45173168182373
 21
3.640077352523804
 31
0.0
  0
LINE
  5
305
330
23
100
AcDbEntity
  8
TOP
  6
CONTINUOUS
 62
     7
100
AcDbLine
 10
2.870488166809082
 20
5.038257598876953
 30
0.0
 11
2.845613718032836
 21
5.038257598876953
 31
0.0
  0
LINE
  5
306
330
23
100
AcDbEntity
  8
TOP
  6
CONTINUOUS
 62
     7
100
AcDbLine
 10
5.828837394714356
 20
6.581757545471192
 30
0.0
 11
5.828837394714356
 21
6.51414966583252
 31
0.0
  0
LINE
  5
307
330
23
100
AcDbEntity
  8
TOP
  6
CONTINUOUS
 62
     7
100
AcDbLine
 10
10.08839893341064
 20
4.015965461730957
 30
0.0
 11
9.96531105041504
 21
4.072744846343993
 31
0.0
  0
LINE
  5
308
330
23
100
AcDbEntity
  8
TOP
  6
CONTINUOUS
 62
     7
100
AcDbLine
 10
2.174458265304564
 20
4.189679145812988
 30
0.0
 11
2.146809339523315
 21
4.136268138885498
 31
0.0
  0
LINE
  5
309
330
23
100
AcDbEntity
  8
TOP
  6
CONTINUOUS
 62
     7
100
AcDbLine
 10
8.431493759155273
 20
3.749504089355468
 30
0.0
 11
8.423968315124509
 21
3.748143196105957
 31
0.0
  0
LINE
  5
30A
330
23
100
AcDbEntity
  8
TOP
  6
CONTINUOUS
 62
     7
100
AcDbLine
 10
1.455488204956054
 20
5.494257450103759
 30
0.0
 11
1.455488204956054
 21
5.544257640838623
 31
0.0
  0
LINE
  5
30B
330
23
100
AcDbEntity
  8
TOP
  6
CONTINUOUS
 62
     7
100
AcDbLine
 10
4.775488376617431
 20
7.289257526397705
 30
0.0
 11
5.150488376617431
 21
7.289257526397705
 31
0.0
  0
LINE
  5
30C
330
23
100
AcDbEntity
  8
TOP
  6
CONTINUOUS
 62
     7
100
AcDbLine
 10
10.14843559265136
 20
4.172913551330566
 30
0.0
 11
10.18566417694091
 21
4.18114948272705
 31
0.0
  0
LINE
  5
30D
330
23
100
AcDbEntity
  8
TOP
  6
CONTINUOUS
 62
     7
100
AcDbLine
 10
1.2744882106781
 20
6.4917573928833
 30
0.0
 11
1.290488243103027
 21
6.4917573928833
 31
0.0
  0
LINE
  5
30F
330
23
100
AcDbEntity
  8
TOP
  6
CONTINUOUS
 62
     7
100
AcDbLine
 10
5.814837455749511
 20
5.776757717132568
 30
0.0
 11
5.814837455749511
 21
5.792116641998291
 31
0.0
  0
LINE
  5
310
330
23
100
AcDbEntity
  8
TOP
  6
CONTINUOUS
 62
     7
100
AcDbLine
 10
3.850488185882568
 20
5.0542573928833
 30
0.0
 11
3.850488185882568
 21
5.050257682800292
 31
0.0
  0
LINE
  5
311
330
23
100
AcDbEntity
  8
TOP
  6
CONTINUOUS
 62
     7
100
AcDbLine
 10
10.4956464767456
 20
4.407534599304199
 30
0.0
 11
10.51210117340088
 21
4.454732418060303
 31
0.0
  0
LINE
  5
312
330
23
100
AcDbEntity
  8
TOP
  6
CONTINUOUS
 62
     7
100
AcDbLine
 10
2.845613718032836
 20
7.304257392883299
 30
0.0
 11
2.824526309967041
 21
7.304257392883299
 31
0.0
  0
LINE
  5
313
330
23
100
AcDbEntity
  8
TOP
  6
CONTINUOUS
 62
     7
100
AcDbLine
 10
7.970660209655761
 20
4.202261447906494
 30
0.0
 11
7.977355480194092
 21
4.203245162963867
 31
0.0
  0
LINE
  5
314
330
23
100
AcDbEntity
  8
TOP
  6
CONTINUOUS
 62
     7
100
AcDbLine
 10
6.510861873626708
 20
5.128257751464843
 30
0.0
 11
6.510861873626708
 21
5.127826690673828
 31
0.0
  0
LINE
  5
315
330
23
100
AcDbEntity
  8
TOP
  6
CONTINUOUS
 62
     7
100
AcDbLine
 10
5.828025341033936
 20
3.14007568359375
 30
0.0
 11
5.828025341033936
 21
3.207683563232421
 31
0.0
  0
LINE
  5
316
330
23
100
AcDbEntity
  8
TOP
  6
CONTINUOUS
 62
     7
100
AcDbLine
 10
9.697509765625
 20
3.713280916213988
 30
0.0
 11
9.895289421081542
 21
3.773708820343017
 31
0.0
  0
LINE
  5
317
330
23
100
AcDbEntity
  8
TOP
  6
CONTINUOUS
 62
     7
100
AcDbLine
 10
8.175614356994628
 20
3.473055362701416
 30
0.0
 11
8.147389411926269
 21
3.498125791549682
 31
0.0
  0
LINE
  5
318
330
23
100
AcDbEntity
  8
TOP
  6
CONTINUOUS
 62
     7
100
AcDbLine
 10
4.775488376617431
 20
7.320257663726806
 30
0.0
 11
4.775488376617431
 21
7.304257392883299
 31
0.0
  0
LINE
  5
319
330
23
100
AcDbEntity
  8
TOP
  6
CONTINUOUS
 62
     7
100
AcDbLine
 10
5.216488361358642
 20
7.90877294540405
 30
0.0
 11
5.231847286224365
 21
7.90877294540405
 31
0.0
  0
LINE
  5
31A
330
23
100
AcDbEntity
  8
TOP
  6
CONTINUOUS
 62
     7
100
AcDbLine
 10
6.518861770629882
 20
7.230257511138916
 30
0.0
 11
6.518861770629882
 21
7.260544776916503
 31
0.0
  0
LINE
  5
31B
330
23
100
AcDbEntity
  8
TOP
  6
CONTINUOUS
 62
     7
100
AcDbLine
 10
7.672898769378662
 20
3.743810892105102
 30
0.0
 11
7.530874729156494
 21
3.809325695037841
 31
0.0
  0
LINE
  5
31C
330
23
100
AcDbEntity
  8
TOP
  6
CONTINUOUS
 62
     7
100
AcDbLine
 10
8.853989601135253
 20
3.776763916015625
 30
0.0
 11
8.854092597961427
 21
3.7767174243927
 31
0.0
  0
LINE
  5
31D
330
23
100
AcDbEntity
  8
TOP
  6
CONTINUOUS
 62
     7
100
AcDbLine
 10
4.62548828125
 20
7.014257431030273
 30
0.0
 11
4.62548828125
 21
7.064257621765136
 31
0.0
  0
LINE
  5
31E
330
23
100
AcDbEntity
  8
TOP
  6
CONTINUOUS
 62
     7
100
AcDbLine
 10
3.040488243103027
 20
3.23007583618164
 30
0.0
 11
1.805488228797912
 21
3.23007583618164
 31
0.0
  0
LINE
  5
31F
330
23
100
AcDbEntity
  8
TOP
  6
CONTINUOUS
 62
     7
100
AcDbLine
 10
8.373602867126464
 20
3.729671239852904
 30
0.0
 11
8.465555191040039
 21
3.758716821670531
 31
0.0
  0
LINE
  5
321
330
23
100
AcDbEntity
  8
TOP
  6
CONTINUOUS
 62
     7
100
AcDbLine
 10
9.651093482971191
 20
3.995097875595092
 30
0.0
 11
9.651093482971191
 21
4.003439426422119
 31
0.0
  0
LINE
  5
322
330
23
100
AcDbEntity
  8
TOP
  6
CONTINUOUS
 62
     7
100
AcDbLine
 10
6.506843090057372
 20
3.320075750350952
 30
0.0
 11
6.506843090057372
 21
3.312180757522583
 31
0.0
  0
LINE
  5
323
330
23
100
AcDbEntity
  8
TOP
  6
CONTINUOUS
 62
     7
100
AcDbLine
 10
5.822025299072265
 20
3.76607584953308
 30
0.0
 11
5.822025299072265
 21
3.67607569694519
 31
0.0
  0
LINE
  5
324
330
23
100
AcDbEntity
  8
TOP
  6
CONTINUOUS
 62
     7
100
AcDbLine
 10
5.216488361358642
 20
7.90677261352539
 30
0.0
 11
5.239311218261719
 21
7.90677261352539
 31
0.0
  0
LINE
  5
325
330
23
100
AcDbEntity
  8
TOP
  6
CONTINUOUS
 62
     7
100
AcDbLine
 10
1.364488244056701
 20
7.884772777557372
 30
0.0
 11
1.289416432380676
 21
7.884772777557372
 31
0.0
  0
LINE
  5
326
330
23
100
AcDbEntity
  8
TOP
  6
CONTINUOUS
 62
     7
100
AcDbLine
 10
4.650488376617431
 20
5.219257354736328
 30
0.0
 11
4.62548828125
 21
5.219257354736328
 31
0.0
  0
LINE
  5
327
330
23
100
AcDbEntity
  8
TOP
  6
CONTINUOUS
 62
     7
100
AcDbLine
 10
6.20579957962036
 20
6.172073364257812
 30
0.0
 11
6.20579957962036
 21
6.003323554992675
 31
0.0
  0
LINE
  5
328
330
23
100
AcDbEntity
  8
TOP
  6
CONTINUOUS
 62
     7
100
AcDbLine
 10
9.418371200561523
 20
3.973768234252929
 30
0.0
 11
9.464573860168457
 21
3.9820818901062
 31
0.0
  0
LINE
  5
329
330
23
100
AcDbEntity
  8
TOP
  6
CONTINUOUS
 62
     7
100
AcDbLine
 10
4.756450176239013
 20
5.0542573928833
 30
0.0
 11
4.770540237426757
 21
5.0542573928833
 31
0.0
  0
LINE
  5
32A
330
23
100
AcDbEntity
  8
TOP
  6
CONTINUOUS
 62
     7
100
AcDbLine
 10
8.598347663879392
 20
3.665183544158935
 30
0.0
 11
8.59658145904541
 21
3.672910928726195
 31
0.0
  0
LINE
  5
32B
330
23
100
AcDbEntity
  8
TOP
  6
CONTINUOUS
 62
     7
100
AcDbLine
 10
6.514843463897705
 20
4.016075611114501
 30
0.0
 11
6.514843463897705
 21
4.053826808929443
 31
0.0
  0
LINE
  5
32C
330
23
100
AcDbEntity
  8
TOP
  6
CONTINUOUS
 62
     7
100
AcDbLine
 10
8.660965919494628
 20
3.76555585861206
 30
0.0
 11
8.668411254882812
 21
3.767830610275268
 31
0.0
  0
LINE
  5
32E
330
23
100
AcDbEntity
  8
TOP
  6
CONTINUOUS
 62
     7
100
AcDbLine
 10
1.455488204956054
 20
5.719257354736328
 30
0.0
 11
1.480488181114196
 21
5.719257354736328
 31
0.0
  0
LINE
  5
32F
330
23
100
AcDbEntity
  8
TOP
  6
CONTINUOUS
 62
     7
100
AcDbLine
 10
7.672898769378662
 20
3.678562879562377
 30
0.0
 11
7.672898769378662
 21
3.743810892105102
 31
0.0
  0
LINE
  5
330
330
23
100
AcDbEntity
  8
TOP
  6
CONTINUOUS
 62
     7
100
AcDbLine
 10
1.290488243103027
 20
5.931757450103759
 30
0.0
 11
1.290488243103027
 21
5.906883239746093
 31
0.0
  0
LINE
  5
331
330
23
100
AcDbEntity
  8
TOP
  6
CONTINUOUS
 62
     7
100
AcDbLine
 10
2.140188217163085
 20
4.106075763702392
 30
0.0
 11
2.20297884941101
 21
4.174915313720703
 31
0.0
  0
LINE
  5
332
330
23
100
AcDbEntity
  8
TOP
  6
CONTINUOUS
 62
     7
100
AcDbLine
 10
8.374303817749021
 20
4.475328445434569
 30
0.0
 11
8.368244171142578
 21
4.478123664855957
 31
0.0
  0
LINE
  5
333
330
23
100
AcDbEntity
  8
TOP
  6
CONTINUOUS
 62
     7
100
AcDbLine
 10
2.255488157272338
 20
5.050257682800292
 30
0.0
 11
2.255488157272338
 21
5.0542573928833
 31
0.0
  0
LINE
  5
334
330
23
100
AcDbEntity
  8
TOP
  6
CONTINUOUS
 62
     7
100
AcDbLine
 10
8.145112991333007
 20
4.653491973876953
 30
0.0
 11
8.134040832519531
 21
4.636878490447998
 31
0.0
  0
LINE
  5
335
330
23
100
AcDbEntity
  8
TOP
  6
CONTINUOUS
 62
     7
100
AcDbLine
 10
8.368210792541503
 20
3.628917932510376
 30
0.0
 11
8.383712768554685
 21
3.635423898696899
 31
0.0
  0
LINE
  5
336
330
23
100
AcDbEntity
  8
TOP
  6
CONTINUOUS
 62
     7
100
AcDbLine
 10
5.286094665527343
 20
5.8667573928833
 30
0.0
 11
5.290488243103027
 21
5.8667573928833
 31
0.0
  0
LINE
  5
337
330
23
100
AcDbEntity
  8
TOP
  6
CONTINUOUS
 62
     7
100
AcDbLine
 10
6.248812198638916
 20
3.499435901641845
 30
0.0
 11
6.293811798095703
 21
3.499435901641845
 31
0.0
  0
LINE
  5
338
330
23
100
AcDbEntity
  8
TOP
  6
CONTINUOUS
 62
     7
100
AcDbLine
 10
7.80405569076538
 20
4.068754196166992
 30
0.0
 11
7.795446395874022
 21
4.05825424194336
 31
0.0
  0
LINE
  5
339
330
23
100
AcDbEntity
  8
TOP
  6
CONTINUOUS
 62
     7
100
AcDbLine
 10
1.290488243103027
 20
4.065950393676757
 30
0.0
 11
1.290488243103027
 21
4.041075706481933
 31
0.0
  0
LINE
  5
33A
330
23
100
AcDbEntity
  8
TOP
  6
CONTINUOUS
 62
     7
100
AcDbLine
 10
1.72800600528717
 20
5.784122943878173
 30
0.0
 11
1.673560857772827
 21
5.732436656951904
 31
0.0
  0
LINE
  5
33B
330
23
100
AcDbEntity
  8
TOP
  6
CONTINUOUS
 62
     7
100
AcDbLine
 10
9.905517578125
 20
4.034512042999267
 30
0.0
 11
9.914029121398924
 21
4.035651683807373
 31
0.0
  0
LINE
  5
33C
330
23
100
AcDbEntity
  8
TOP
  6
CONTINUOUS
 62
     7
100
AcDbLine
 10
8.192880630493164
 20
3.492494106292724
 30
0.0
 11
8.159074783325195
 21
3.522521495819091
 31
0.0
  0
LINE
  5
33D
330
23
100
AcDbEntity
  8
TOP
  6
CONTINUOUS
 62
     7
100
AcDbLine
 10
2.810436010360717
 20
7.320257663726806
 30
0.0
 11
2.824526309967041
 21
7.320257663726806
 31
0.0
  0
LINE
  5
33E
330
23
100
AcDbEntity
  8
TOP
  6
CONTINUOUS
 62
     7
100
AcDbLine
 10
9.937772750854492
 20
4.021646499633789
 30
0.0
 11
9.926701545715332
 21
4.031494617462158
 31
0.0
  0
LINE
  5
33F
330
23
100
AcDbEntity
  8
TOP
  6
CONTINUOUS
 62
     7
100
AcDbLine
 10
8.407215118408203
 20
3.760263919830321
 30
0.0
 11
8.411440849304199
 21
3.749364852905273
 31
0.0
  0
LINE
  5
340
330
23
100
AcDbEntity
  8
TOP
  6
CONTINUOUS
 62
     7
100
AcDbLine
 10
1.2744882106781
 20
4.065950393676757
 30
0.0
 11
1.2744882106781
 21
4.087037563323975
 31
0.0
  0
LINE
  5
341
330
23
100
AcDbEntity
  8
TOP
  6
CONTINUOUS
 62
     7
100
AcDbLine
 10
3.840488195419311
 20
7.320257663726806
 30
0.0
 11
4.710488319396972
 21
7.320257663726806
 31
0.0
  0
LINE
  5
342
330
23
100
AcDbEntity
  8
TOP
  6
CONTINUOUS
 62
     7
100
AcDbLine
 10
3.815613746643065
 20
5.0542573928833
 30
0.0
 11
3.840488195419311
 21
5.0542573928833
 31
0.0
  0
LINE
  5
343
330
23
100
AcDbEntity
  8
TOP
  6
CONTINUOUS
 62
     7
100
AcDbLine
 10
9.430819511413574
 20
4.074963569641112
 30
0.0
 11
9.496487617492675
 21
4.091401100158691
 31
0.0
  0
LINE
  5
345
330
23
100
AcDbEntity
  8
TOP
  6
CONTINUOUS
 62
     7
100
AcDbLine
 10
8.778447151184082
 20
3.178378820419311
 30
0.0
 11
8.528447151184082
 21
3.178378820419311
 31
0.0
  0
LINE
  5
346
330
23
100
AcDbEntity
  8
TOP
  6
CONTINUOUS
 62
     7
100
AcDbLine
 10
3.540488243103027
 20
5.058650970458984
 30
0.0
 11
3.540488243103027
 21
5.0542573928833
 31
0.0
  0
LINE
  5
349
330
23
100
AcDbEntity
  8
TOP
  6
CONTINUOUS
 62
     7
100
AcDbLine
 10
4.62548828125
 20
5.394257545471192
 30
0.0
 11
4.62548828125
 21
5.444257736206055
 31
0.0
  0
LINE
  5
34A
330
23
100
AcDbEntity
  8
TOP
  6
CONTINUOUS
 62
     7
100
AcDbLine
 10
8.853989601135253
 20
3.776763916015625
 30
0.0
 11
8.730901718139648
 21
3.833543300628662
 31
0.0
  0
LINE
  5
34B
330
23
100
AcDbEntity
  8
TOP
  6
CONTINUOUS
 62
     7
100
AcDbLine
 10
10.52084732055664
 20
4.453600406646728
 30
0.0
 11
10.53134441375732
 21
4.503624439239501
 31
0.0
  0
LINE
  5
34C
330
23
100
AcDbEntity
  8
TOP
  6
CONTINUOUS
 62
     7
100
AcDbLine
 10
3.710488319396972
 20
5.0542573928833
 30
0.0
 11
3.735362768173217
 21
5.0542573928833
 31
0.0
  0
LINE
  5
34D
330
23
100
AcDbEntity
  8
TOP
  6
CONTINUOUS
 62
     7
100
AcDbLine
 10
6.54084300994873
 20
4.016075611114501
 30
0.0
 11
6.54084300994873
 21
4.061291217803955
 31
0.0
  0
LINE
  5
34E
330
23
100
AcDbEntity
  8
TOP
  6
CONTINUOUS
 62
     7
100
AcDbLine
 10
5.840025424957275
 20
3.14007568359375
 30
0.0
 11
5.840025424957275
 21
3.162898778915405
 31
0.0
  0
LINE
  5
351
330
23
100
AcDbEntity
  8
TOP
  6
CONTINUOUS
 62
     7
100
AcDbLine
 10
9.202296257019042
 20
4.432911396026611
 30
0.0
 11
9.205069541931152
 21
4.441462993621825
 31
0.0
  0
LINE
  5
352
330
23
100
AcDbEntity
  8
TOP
  6
CONTINUOUS
 62
     7
100
AcDbLine
 10
8.182955741882322
 20
3.563002347946166
 30
0.0
 11
8.21614933013916
 21
3.572322607040405
 31
0.0
  0
LINE
  5
353
330
23
100
AcDbEntity
  8
TOP
  6
CONTINUOUS
 62
     7
100
AcDbLine
 10
4.735362529754639
 20
5.038257598876953
 30
0.0
 11
4.710488319396972
 21
5.038257598876953
 31
0.0
  0
LINE
  5
354
330
23
100
AcDbEntity
  8
TOP
  6
CONTINUOUS
 62
     7
100
AcDbLine
 10
2.183339118957519
 20
4.185081958770751
 30
0.0
 11
2.145395755767822
 21
4.111784934997559
 31
0.0
  0
LINE
  5
355
330
23
100
AcDbEntity
  8
TOP
  6
CONTINUOUS
 62
     7
100
AcDbLine
 10
10.51210117340088
 20
4.454732418060303
 30
0.0
 11
10.52217864990234
 21
4.502755641937255
 31
0.0
  0
LINE
  5
356
330
23
100
AcDbEntity
  8
TOP
  6
CONTINUOUS
 62
     7
100
AcDbLine
 10
6.102056503295897
 20
3.45036244392395
 30
0.0
 11
6.057056903839111
 21
3.45036244392395
 31
0.0
  0
LINE
  5
357
330
23
100
AcDbEntity
  8
TOP
  6
CONTINUOUS
 62
     7
100
AcDbLine
 10
10.09042167663574
 20
4.023225784301757
 30
0.0
 11
10.08764839172363
 21
4.014674186706542
 31
0.0
  0
LINE
  5
358
330
23
100
AcDbEntity
  8
TOP
  6
CONTINUOUS
 62
     7
100
AcDbLine
 10
1.955488204956054
 20
5.344257354736328
 30
0.0
 11
1.955488204956054
 21
5.294257640838623
 31
0.0
  0
LINE
  5
359
330
23
100
AcDbEntity
  8
TOP
  6
CONTINUOUS
 62
     7
100
AcDbLine
 10
9.215063095092771
 20
3.888851642608642
 30
0.0
 11
9.238636970520019
 21
3.896530628204345
 31
0.0
  0
LINE
  5
35A
330
23
100
AcDbEntity
  8
TOP
  6
CONTINUOUS
 62
     7
100
AcDbLine
 10
5.290488243103027
 20
6.472719669342041
 30
0.0
 11
5.290488243103027
 21
6.486809730529785
 31
0.0
  0
LINE
  5
35B
330
23
100
AcDbEntity
  8
TOP
  6
CONTINUOUS
 62
     7
100
AcDbLine
 10
7.585201263427734
 20
7.88476037979126
 30
0.0
 11
10.67520141601562
 21
7.88476037979126
 31
0.0
  0
LINE
  5
35C
330
23
100
AcDbEntity
  8
TOP
  6
CONTINUOUS
 62
     7
100
AcDbLine
 10
8.100442886352539
 20
4.118659973144531
 30
0.0
 11
8.107889175415039
 21
4.120934963226318
 31
0.0
  0
LINE
  5
35D
330
23
100
AcDbEntity
  8
TOP
  6
CONTINUOUS
 62
     7
100
AcDbLine
 10
9.760762214660642
 20
4.416027069091796
 30
0.0
 11
9.766291618347167
 21
4.416541099548339
 31
0.0
  0
LINE
  5
35E
330
23
100
AcDbEntity
  8
TOP
  6
CONTINUOUS
 62
     7
100
AcDbLine
 10
10.26755905151367
 20
3.693636417388916
 30
0.0
 11
10.25387001037597
 21
3.703346490859985
 31
0.0
  0
LINE
  5
35F
330
23
100
AcDbEntity
  8
TOP
  6
CONTINUOUS
 62
     7
100
AcDbLine
 10
5.826837062835692
 20
6.581757545471192
 30
0.0
 11
5.826837062835692
 21
6.521614074707031
 31
0.0
  0
LINE
  5
360
330
23
100
AcDbEntity
  8
TOP
  6
CONTINUOUS
 62
     7
100
AcDbLine
 10
2.730488300323486
 20
7.316257476806639
 30
0.0
 11
2.730488300323486
 21
7.320257663726806
 31
0.0
  0
LINE
  5
361
330
23
100
AcDbEntity
  8
TOP
  6
CONTINUOUS
 62
     7
100
AcDbLine
 10
8.376193046569824
 20
4.484302997589111
 30
0.0
 11
8.379852294921875
 21
4.494649410247802
 31
0.0
  0
LINE
  5
362
330
23
100
AcDbEntity
  8
TOP
  6
CONTINUOUS
 62
     7
100
AcDbLine
 10
2.800540447235107
 20
5.038257598876953
 30
0.0
 11
2.786450147628784
 21
5.038257598876953
 31
0.0
  0
LINE
  5
363
330
23
100
AcDbEntity
  8
TOP
  6
CONTINUOUS
 62
     7
100
AcDbLine
 10
7.79505443572998
 20
4.05537986755371
 30
0.0
 11
7.79505443572998
 21
4.04648208618164
 31
0.0
  0
LINE
  5
365
330
23
100
AcDbEntity
  8
TOP
  6
CONTINUOUS
 62
     7
100
AcDbLine
 10
6.552862167358398
 20
5.128257751464843
 30
0.0
 11
6.552862167358398
 21
5.105434417724609
 31
0.0
  0
LINE
  5
366
330
23
100
AcDbEntity
  8
TOP
  6
CONTINUOUS
 62
     7
100
AcDbLine
 10
9.078741073608398
 20
3.453214883804321
 30
0.0
 11
9.078741073608398
 21
3.444317102432251
 31
0.0
  0
LINE
  5
367
330
23
100
AcDbEntity
  8
TOP
  6
CONTINUOUS
 62
     7
100
AcDbLine
 10
8.160237312316894
 20
4.66295576095581
 30
0.0
 11
8.145112991333007
 21
4.653491973876953
 31
0.0
  0
LINE
  5
368
330
23
100
AcDbEntity
  8
TOP
  6
CONTINUOUS
 62
     7
100
AcDbLine
 10
5.804025650024414
 20
3.14007568359375
 30
0.0
 11
5.804025650024414
 21
3.162898778915405
 31
0.0
  0
LINE
  5
369
330
23
100
AcDbEntity
  8
TOP
  6
CONTINUOUS
 62
     7
100
AcDbLine
 10
8.449291229248048
 20
3.756065130233764
 30
0.0
 11
8.449291229248048
 21
3.75258445739746
 31
0.0
  0
LINE
  5
36A
330
23
100
AcDbEntity
  8
TOP
  6
CONTINUOUS
 62
     7
100
AcDbLine
 10
1.714156746864318
 20
5.798711776733398
 30
0.0
 11
1.665488243103027
 21
5.719257354736328
 31
0.0
  0
LINE
  5
36B
330
23
100
AcDbEntity
  8
TOP
  6
CONTINUOUS
 62
     7
100
AcDbLine
 10
9.65097427368164
 20
3.91594672203064
 30
0.0
 11
9.644914627075197
 21
3.918742179870605
 31
0.0
  0
LINE
  5
36C
330
23
100
AcDbEntity
  8
TOP
  6
CONTINUOUS
 62
     7
100
AcDbLine
 10
10.38015460968017
 20
4.568270206451416
 30
0.0
 11
10.38354873657226
 21
4.615659713745117
 31
0.0
  0
LINE
  5
36D
330
23
100
AcDbEntity
  8
TOP
  6
CONTINUOUS
 62
     7
100
AcDbLine
 10
10.37859725952148
 20
4.254403114318847
 30
0.0
 11
10.41388511657714
 21
4.284849166870117
 31
0.0
  0
LINE
  5
36E
330
23
100
AcDbEntity
  8
TOP
  6
CONTINUOUS
 62
     7
100
AcDbLine
 10
3.055488348007202
 20
3.23007583618164
 30
0.0
 11
3.044507503509521
 21
3.23007583618164
 31
0.0
  0
LINE
  5
36F
330
23
100
AcDbEntity
  8
TOP
  6
CONTINUOUS
 62
     7
100
AcDbLine
 10
5.850837230682372
 20
6.581757545471192
 30
0.0
 11
5.850837230682372
 21
6.551470279693604
 31
0.0
  0
LINE
  5
370
330
23
100
AcDbEntity
  8
TOP
  6
CONTINUOUS
 62
     7
100
AcDbLine
 10
5.12548828125
 20
6.664257526397705
 30
0.0
 11
5.12548828125
 21
6.639257431030273
 31
0.0
  0
LINE
  5
371
330
23
100
AcDbEntity
  8
TOP
  6
CONTINUOUS
 62
     7
100
AcDbLine
 10
5.824837207794189
 20
6.581757545471192
 30
0.0
 11
5.824837207794189
 21
6.529078006744384
 31
0.0
  0
LINE
  5
372
330
23
100
AcDbEntity
  8
TOP
  6
CONTINUOUS
 62
     7
100
AcDbLine
 10
8.717646598815917
 20
4.092689514160156
 30
0.0
 11
9.04714298248291
 21
3.940695285797119
 31
0.0
  0
LINE
  5
373
330
23
100
AcDbEntity
  8
TOP
  6
CONTINUOUS
 62
     7
100
AcDbLine
 10
8.096020698547363
 20
3.65480089187622
 30
0.0
 11
8.127440452575683
 21
3.662711381912231
 31
0.0
  0
LINE
  5
374
330
23
100
AcDbEntity
  8
TOP
  6
CONTINUOUS
 62
     7
100
AcDbLine
 10
3.540488243103027
 20
7.316257476806639
 30
0.0
 11
3.540488243103027
 21
7.320257663726806
 31
0.0
  0
LINE
  5
375
330
23
100
AcDbEntity
  8
TOP
  6
CONTINUOUS
 62
     7
100
AcDbLine
 10
6.544843196868896
 20
3.320075750350952
 30
0.0
 11
6.544843196868896
 21
3.289788484573364
 31
0.0
  0
LINE
  5
376
330
23
100
AcDbEntity
  8
TOP
  6
CONTINUOUS
 62
     7
100
AcDbLine
 10
5.844025611877441
 20
3.76607584953308
 30
0.0
 11
5.844025611877441
 21
3.758180856704711
 31
0.0
  0
LINE
  5
378
330
23
100
AcDbEntity
  8
TOP
  6
CONTINUOUS
 62
     7
100
AcDbLine
 10
1.364488244056701
 20
7.864772796630859
 30
0.0
 11
1.364057421684265
 21
7.864772796630859
 31
0.0
  0
LINE
  5
379
330
23
100
AcDbEntity
  8
TOP
  6
CONTINUOUS
 62
     7
100
AcDbLine
 10
1.455488204956054
 20
6.639257431030273
 30
0.0
 11
1.455488204956054
 21
6.664257526397705
 31
0.0
  0
LINE
  5
37A
330
23
100
AcDbEntity
  8
TOP
  6
CONTINUOUS
 62
     7
100
AcDbLine
 10
9.08290100097656
 20
3.842046499252319
 30
0.0
 11
9.119271278381347
 21
3.850028991699218
 31
0.0
  0
LINE
  5
37B
330
23
100
AcDbEntity
  8
TOP
  6
CONTINUOUS
 62
     7
100
AcDbLine
 10
2.805488348007202
 20
5.038257598876953
 30
0.0
 11
2.800540447235107
 21
5.038257598876953
 31
0.0
  0
LINE
  5
37C
330
23
100
AcDbEntity
  8
TOP
  6
CONTINUOUS
 62
     7
100
AcDbLine
 10
9.471925735473632
 20
4.102684020996093
 30
0.0
 11
9.469883918762207
 21
4.098545551300048
 31
0.0
  0
LINE
  5
37D
330
23
100
AcDbEntity
  8
TOP
  6
CONTINUOUS
 62
     7
100
AcDbLine
 10
2.181562900543212
 20
4.186001777648925
 30
0.0
 11
2.140188217163085
 21
4.106075763702392
 31
0.0
  0
LINE
  5
37F
330
23
100
AcDbEntity
  8
TOP
  6
CONTINUOUS
 62
     7
100
AcDbLine
 10
1.880488276481628
 20
5.219257354736328
 30
0.0
 11
1.830488204956054
 21
5.219257354736328
 31
0.0
  0
LINE
  5
380
330
23
100
AcDbEntity
  8
TOP
  6
CONTINUOUS
 62
     7
100
AcDbLine
 10
8.716760635375976
 20
3.838428974151611
 30
0.0
 11
8.713988304138181
 21
3.849539041519165
 31
0.0
  0
LINE
  5
381
330
23
100
AcDbEntity
  8
TOP
  6
CONTINUOUS
 62
     7
100
AcDbLine
 10
7.68220615386963
 20
3.681406497955321
 30
0.0
 11
7.685595989227295
 21
3.636115550994873
 31
0.0
  0
LINE
  5
382
330
23
100
AcDbEntity
  8
TOP
  6
CONTINUOUS
 62
     7
100
AcDbLine
 10
1.2744882106781
 20
6.472719669342041
 30
0.0
 11
1.2744882106781
 21
6.486809730529785
 31
0.0
  0
LINE
  5
383
330
23
100
AcDbEntity
  8
TOP
  6
CONTINUOUS
 62
     7
100
AcDbLine
 10
7.811883926391601
 20
4.028708934783936
 30
0.0
 11
7.799386978149414
 21
4.037050724029541
 31
0.0
  0
LINE
  5
384
330
23
100
AcDbEntity
  8
TOP
  6
CONTINUOUS
 62
     7
100
AcDbLine
 10
9.957865715026855
 20
4.070469856262207
 30
0.0
 11
9.951170921325683
 21
4.077630519866944
 31
0.0
  0
LINE
  5
385
330
23
100
AcDbEntity
  8
TOP
  6
CONTINUOUS
 62
     7
100
AcDbLine
 10
1.290488243103027
 20
6.416757583618164
 30
0.0
 11
1.28648817539215
 21
6.416757583618164
 31
0.0
  0
LINE
  5
386
330
23
100
AcDbEntity
  8
TOP
  6
CONTINUOUS
 62
     7
100
AcDbLine
 10
8.382530212402341
 20
4.481914043426513
 30
0.0
 11
8.374303817749021
 21
4.475328445434569
 31
0.0
  0
LINE
  5
387
330
23
100
AcDbEntity
  8
TOP
  6
CONTINUOUS
 62
     7
100
AcDbLine
 10
7.983951568603515
 20
3.510242223739623
 30
0.0
 11
8.051443099975587
 21
3.533064365386962
 31
0.0
  0
LINE
  5
388
330
23
100
AcDbEntity
  8
TOP
  6
CONTINUOUS
 62
     7
100
AcDbLine
 10
2.800540447235107
 20
7.304257392883299
 30
0.0
 11
2.786450147628784
 21
7.304257392883299
 31
0.0
  0
LINE
  5
389
330
23
100
AcDbEntity
  8
TOP
  6
CONTINUOUS
 62
     7
100
AcDbLine
 10
6.518861770629882
 20
5.128257751464843
 30
0.0
 11
6.518861770629882
 21
5.097970485687255
 31
0.0
  0
LINE
  5
38A
330
23
100
AcDbEntity
  8
TOP
  6
CONTINUOUS
 62
     7
100
AcDbLine
 10
9.326276779174802
 20
3.383634567260742
 30
0.0
 11
9.326276779174802
 21
3.374736785888671
 31
0.0
  0
LINE
  5
38B
330
23
100
AcDbEntity
  8
TOP
  6
CONTINUOUS
 62
     7
100
AcDbLine
 10
1.90548825263977
 20
3.701075792312622
 30
0.0
 11
2.230488300323486
 21
3.701075792312622
 31
0.0
  0
LINE
  5
38C
330
23
100
AcDbEntity
  8
TOP
  6
CONTINUOUS
 62
     7
100
AcDbLine
 10
1.714236140251159
 20
5.798627853393554
 30
0.0
 11
1.713923692703247
 21
5.798331260681152
 31
0.0
  0
LINE
  5
38D
330
23
100
AcDbEntity
  8
TOP
  6
CONTINUOUS
 62
     7
100
AcDbLine
 10
8.180926322937011
 20
3.479036569595336
 30
0.0
 11
8.130379676818845
 21
3.523934364318848
 31
0.0
  0
LINE
  5
38E
330
23
100
AcDbEntity
  8
TOP
  6
CONTINUOUS
 62
     7
100
AcDbLine
 10
4.770540237426757
 20
7.320257663726806
 30
0.0
 11
4.775488376617431
 21
7.320257663726806
 31
0.0
  0
LINE
  5
38F
330
23
100
AcDbEntity
  8
TOP
  6
CONTINUOUS
 62
     7
100
AcDbLine
 10
6.526862144470214
 20
7.230257511138916
 30
0.0
 11
6.526862144470214
 21
7.290400981903075
 31
0.0
  0
LINE
  5
390
330
23
100
AcDbEntity
  8
TOP
  6
CONTINUOUS
 62
     7
100
AcDbLine
 10
10.52557277679443
 20
4.550145149230957
 30
0.0
 11
10.38354873657226
 21
4.615659713745117
 31
0.0
  0
LINE
  5
391
330
23
100
AcDbEntity
  8
TOP
  6
CONTINUOUS
 62
     7
100
AcDbLine
 10
5.306488037109375
 20
4.065950393676757
 30
0.0
 11
5.306488037109375
 21
4.041075706481933
 31
0.0
  0
LINE
  5
392
330
23
100
AcDbEntity
  8
TOP
  6
CONTINUOUS
 62
     7
100
AcDbLine
 10
9.372725486755372
 20
4.557274818420409
 30
0.0
 11
9.369427680969238
 21
4.576869964599609
 31
0.0
  0
LINE
  5
393
330
23
100
AcDbEntity
  8
TOP
  6
CONTINUOUS
 62
     7
100
AcDbLine
 10
4.775488376617431
 20
7.289257526397705
 30
0.0
 11
4.775488376617431
 21
7.299864292144774
 31
0.0
  0
LINE
  5
394
330
23
100
AcDbEntity
  8
TOP
  6
CONTINUOUS
 62
     7
100
AcDbLine
 10
9.037768363952636
 20
3.944989919662475
 30
0.0
 11
9.03809642791748
 21
3.945106744766235
 31
0.0
  0
LINE
  5
395
330
23
100
AcDbEntity
  8
TOP
  6
CONTINUOUS
 62
     7
100
AcDbLine
 10
6.514843463897705
 20
3.320075750350952
 30
0.0
 11
6.514843463897705
 21
3.28232455253601
 31
0.0
  0
LINE
  5
396
330
23
100
AcDbEntity
  8
TOP
  6
CONTINUOUS
 62
     7
100
AcDbLine
 10
1.398135900497436
 20
3.246075868606567
 30
0.0
 11
1.430488228797912
 21
3.246075868606567
 31
0.0
  0
LINE
  5
397
330
23
100
AcDbEntity
  8
TOP
  6
CONTINUOUS
 62
     7
100
AcDbLine
 10
5.216488361358642
 20
7.898772716522217
 30
0.0
 11
5.269167900085449
 21
7.898772716522217
 31
0.0
  0
LINE
  5
398
330
23
100
AcDbEntity
  8
TOP
  6
CONTINUOUS
 62
     7
100
AcDbLine
 10
1.364488244056701
 20
7.912772655487058
 30
0.0
 11
1.364057421684265
 21
7.912772655487058
 31
0.0
  0
LINE
  5
399
330
23
100
AcDbEntity
  8
TOP
  6
CONTINUOUS
 62
     7
100
AcDbLine
 10
6.863924503326416
 20
6.172073364257812
 30
0.0
 11
6.818924427032471
 21
6.172073364257812
 31
0.0
  0
LINE
  5
39A
330
23
100
AcDbEntity
  8
TOP
  6
CONTINUOUS
 62
     7
100
AcDbLine
 10
10.16339302062988
 20
4.164955139160156
 30
0.0
 11
10.19580841064453
 21
4.172465324401856
 31
0.0
  0
LINE
  5
39B
330
23
100
AcDbEntity
  8
TOP
  6
CONTINUOUS
 62
     7
100
AcDbLine
 10
1.824526309967041
 20
5.0542573928833
 30
0.0
 11
1.845613837242126
 21
5.0542573928833
 31
0.0
  0
LINE
  5
39C
330
23
100
AcDbEntity
  8
TOP
  6
CONTINUOUS
 62
     7
100
AcDbLine
 10
6.522843360900878
 20
4.016075611114501
 30
0.0
 11
6.522843360900878
 21
4.083683490753173
 31
0.0
  0
LINE
  5
39D
330
23
100
AcDbEntity
  8
TOP
  6
CONTINUOUS
 62
     7
100
AcDbLine
 10
9.726721763610841
 20
4.088698387145996
 30
0.0
 11
9.730429649353027
 21
4.088276386260985
 31
0.0
  0
LINE
  5
3A0
330
23
100
AcDbEntity
  8
TOP
  6
CONTINUOUS
 62
     7
100
AcDbLine
 10
1.830488204956054
 20
5.719257354736328
 30
0.0
 11
1.880488276481628
 21
5.719257354736328
 31
0.0
  0
LINE
  5
3A2
330
23
100
AcDbEntity
  8
TOP
  6
CONTINUOUS
 62
     7
100
AcDbLine
 10
9.025172233581542
 20
4.504786968231201
 30
0.0
 11
9.022398948669431
 21
4.515896797180175
 31
0.0
  0
LINE
  5
3A3
330
23
100
AcDbEntity
  8
TOP
  6
CONTINUOUS
 62
     7
100
AcDbLine
 10
7.704072475433348
 20
3.549059152603149
 30
0.0
 11
7.727335929870604
 21
3.516463756561279
 31
0.0
  0
LINE
  5
3A4
330
23
100
AcDbEntity
  8
TOP
  6
CONTINUOUS
 62
     7
100
AcDbLine
 10
3.775488138198852
 20
7.304257392883299
 30
0.0
 11
3.775488138198852
 21
7.320257663726806
 31
0.0
  0
LINE
  5
3A5
330
23
100
AcDbEntity
  8
TOP
  6
CONTINUOUS
 62
     7
100
AcDbLine
 10
9.162503242492675
 20
4.44307518005371
 30
0.0
 11
9.162606239318847
 21
4.443030357360839
 31
0.0
  0
LINE
  5
3A6
330
23
100
AcDbEntity
  8
TOP
  6
CONTINUOUS
 62
     7
100
AcDbLine
 10
2.202876329421996
 20
4.174968242645263
 30
0.0
 11
2.202678442001342
 21
4.174585819244384
 31
0.0
  0
LINE
  5
3A7
330
23
100
AcDbEntity
  8
TOP
  6
CONTINUOUS
 62
     7
100
AcDbLine
 10
5.844837188720703
 20
5.776757717132568
 30
0.0
 11
5.844837188720703
 21
5.829437255859375
 31
0.0
  0
LINE
  5
3A8
330
23
100
AcDbEntity
  8
TOP
  6
CONTINUOUS
 62
     7
100
AcDbLine
 10
2.355488300323486
 20
5.042257785797119
 30
0.0
 11
2.355488300323486
 21
5.038257598876953
 31
0.0
  0
LINE
  5
3A9
330
23
100
AcDbEntity
  8
TOP
  6
CONTINUOUS
 62
     7
100
AcDbLine
 10
9.71547794342041
 20
4.087742805480957
 30
0.0
 11
9.722923278808591
 21
4.090017318725585
 31
0.0
  0
LINE
  5
3AA
330
23
100
AcDbEntity
  8
TOP
  6
CONTINUOUS
 62
     7
100
AcDbLine
 10
8.467446327209472
 20
3.654133081436156
 30
0.0
 11
8.515627861022949
 21
3.664156436920166
 31
0.0
  0
LINE
  5
3AB
330
23
100
AcDbEntity
  8
TOP
  6
CONTINUOUS
 62
     7
100
AcDbLine
 10
5.306488037109375
 20
6.486809730529785
 30
0.0
 11
5.306488037109375
 21
6.472719669342041
 31
0.0
  0
LINE
  5
3AC
330
23
100
AcDbEntity
  8
TOP
  6
CONTINUOUS
 62
     7
100
AcDbLine
 10
5.368988037109375
 20
4.106075763702392
 30
0.0
 11
6.653843402862548
 21
4.106075763702392
 31
0.0
  0
LINE
  5
3AD
330
23
100
AcDbEntity
  8
TOP
  6
CONTINUOUS
 62
     7
100
AcDbLine
 10
8.423968315124509
 20
3.757040977478027
 30
0.0
 11
8.437168121337888
 21
3.758522033691406
 31
0.0
  0
LINE
  5
3AE
330
23
100
AcDbEntity
  8
TOP
  6
CONTINUOUS
 62
     7
100
AcDbLine
 10
5.836837291717528
 20
6.581757545471192
 30
0.0
 11
5.836837291717528
 21
6.499221801757812
 31
0.0
  0
LINE
  5
3AF
330
23
100
AcDbEntity
  8
TOP
  6
CONTINUOUS
 62
     7
100
AcDbLine
 10
5.554805755615233
 20
6.176745891571044
 30
0.0
 11
5.554805755615233
 21
6.00799560546875
 31
0.0
  0
LINE
  5
3B0
330
23
100
AcDbEntity
  8
TOP
  6
CONTINUOUS
 62
     7
100
AcDbLine
 10
9.660038948059082
 20
3.954667568206787
 30
0.0
 11
9.675162315368652
 21
3.964131355285644
 31
0.0
  0
LINE
  5
3B1
330
23
100
AcDbEntity
  8
TOP
  6
CONTINUOUS
 62
     7
100
AcDbLine
 10
8.187567710876464
 20
3.486512899398804
 30
0.0
 11
8.131440162658691
 21
3.536367654800415
 31
0.0
  0
LINE
  5
3B2
330
23
100
AcDbEntity
  8
TOP
  6
CONTINUOUS
 62
     7
100
AcDbLine
 10
3.710488319396972
 20
7.320257663726806
 30
0.0
 11
3.735362768173217
 21
7.320257663726806
 31
0.0
  0
LINE
  5
3B3
330
23
100
AcDbEntity
  8
TOP
  6
CONTINUOUS
 62
     7
100
AcDbLine
 10
6.540862083435058
 20
7.230257511138916
 30
0.0
 11
6.540862083435058
 21
7.297865390777588
 31
0.0
  0
LINE
  5
3B4
330
23
100
AcDbEntity
  8
TOP
  6
CONTINUOUS
 62
     7
100
AcDbLine
 10
8.154177665710449
 20
4.665750980377196
 30
0.0
 11
8.38453197479248
 21
4.73613166809082
 31
0.0
  0
LINE
  5
3B5
330
23
100
AcDbEntity
  8
TOP
  6
CONTINUOUS
 62
     7
100
AcDbLine
 10
1.290488243103027
 20
4.101128101348876
 30
0.0
 11
1.290488243103027
 21
4.087037563323975
 31
0.0
  0
LINE
  5
3B6
330
23
100
AcDbEntity
  8
TOP
  6
CONTINUOUS
 62
     7
100
AcDbLine
 10
9.026057243347167
 20
4.759047508239745
 30
0.0
 11
9.018611907958984
 21
4.756772518157958
 31
0.0
  0
LINE
  5
3B7
330
23
100
AcDbEntity
  8
TOP
  6
CONTINUOUS
 62
     7
100
AcDbLine
 10
5.275488376617431
 20
5.8667573928833
 30
0.0
 11
5.275488376617431
 21
5.194257736206055
 31
0.0
  0
LINE
  5
3B8
330
23
100
AcDbEntity
  8
TOP
  6
CONTINUOUS
 62
     7
100
AcDbLine
 10
9.776117324829101
 20
4.172621250152587
 30
0.0
 11
9.787593841552734
 21
4.176848888397216
 31
0.0
  0
LINE
  5
3B9
330
23
100
AcDbEntity
  8
TOP
  6
CONTINUOUS
 62
     7
100
AcDbLine
 10
5.271228790283203
 20
3.23007583618164
 30
0.0
 11
5.258741378784179
 21
3.23007583618164
 31
0.0
  0
LINE
  5
3BA
330
23
100
AcDbEntity
  8
TOP
  6
CONTINUOUS
 62
     7
100
AcDbLine
 10
5.216488361358642
 20
7.864657402038574
 30
0.0
 11
5.306488037109375
 21
7.888772964477539
 31
0.0
  0
LINE
  5
3BB
330
23
100
AcDbEntity
  8
TOP
  6
CONTINUOUS
 62
     7
100
AcDbLine
 10
5.12548828125
 20
6.639257431030273
 30
0.0
 11
5.100488185882568
 21
6.639257431030273
 31
0.0
  0
LINE
  5
3BC
330
23
100
AcDbEntity
  8
TOP
  6
CONTINUOUS
 62
     7
100
AcDbLine
 10
10.53487968444824
 20
4.656925201416015
 30
0.0
 11
10.39285564422607
 21
4.722440242767333
 31
0.0
  0
LINE
  5
3BD
330
23
100
AcDbEntity
  8
TOP
  6
CONTINUOUS
 62
     7
100
AcDbLine
 10
3.775488138198852
 20
5.0542573928833
 30
0.0
 11
3.780436038970947
 21
5.0542573928833
 31
0.0
  0
LINE
  5
3BE
330
23
100
AcDbEntity
  8
TOP
  6
CONTINUOUS
 62
     7
100
AcDbLine
 10
6.532843112945556
 20
4.016075611114501
 30
0.0
 11
6.532843112945556
 21
4.091147422790527
 31
0.0
  0
LINE
  5
3BF
330
23
100
AcDbEntity
  8
TOP
  6
CONTINUOUS
 62
     7
100
AcDbLine
 10
8.730901718139648
 20
3.833543300628662
 30
0.0
 11
8.723456382751464
 21
3.831268548965454
 31
0.0
  0
LINE
  5
3C1
330
23
100
AcDbEntity
  8
TOP
  6
CONTINUOUS
 62
     7
100
AcDbLine
 10
1.955488204956054
 20
7.064257621765136
 30
0.0
 11
1.955488204956054
 21
7.014257431030273
 31
0.0
  0
LINE
  5
3C3
330
23
100
AcDbEntity
  8
TOP
  6
CONTINUOUS
 62
     7
100
AcDbLine
 10
9.907751083374023
 20
4.117321014404296
 30
0.0
 11
9.910524368286131
 21
4.106211185455321
 31
0.0
  0
LINE
  5
3C4
330
23
100
AcDbEntity
  8
TOP
  6
CONTINUOUS
 62
     7
100
AcDbLine
 10
8.294197082519531
 20
3.592027187347412
 30
0.0
 11
8.310794830322265
 21
3.596226692199707
 31
0.0
  0
LINE
  5
3C5
330
23
100
AcDbEntity
  8
TOP
  6
CONTINUOUS
 62
     7
100
AcDbLine
 10
3.794526338577271
 20
5.038257598876953
 30
0.0
 11
3.780436038970947
 21
5.038257598876953
 31
0.0
  0
LINE
  5
3C6
330
23
100
AcDbEntity
  8
TOP
  6
CONTINUOUS
 62
     7
100
AcDbLine
 10
2.162025451660155
 20
4.196115493774414
 30
0.0
 11
2.158396005630492
 21
4.189104080200195
 31
0.0
  0
LINE
  5
3C7
330
23
100
AcDbEntity
  8
TOP
  6
CONTINUOUS
 62
     7
100
AcDbLine
 10
1.630488276481628
 20
5.719257354736328
 30
0.0
 11
1.680488228797912
 21
5.719257354736328
 31
0.0
  0
LINE
  5
3C8
330
23
100
AcDbEntity
  8
TOP
  6
CONTINUOUS
 62
     7
100
AcDbLine
 10
8.903353691101074
 20
3.748283147811889
 30
0.0
 11
8.896658897399902
 21
3.755443572998047
 31
0.0
  0
LINE
  5
3C9
330
23
100
AcDbEntity
  8
TOP
  6
CONTINUOUS
 62
     7
100
AcDbLine
 10
9.33966064453125
 20
3.955805540084839
 30
0.0
 11
9.388369560241699
 21
3.976818084716796
 31
0.0
  0
LINE
  5
3CA
330
23
100
AcDbEntity
  8
TOP
  6
CONTINUOUS
 62
     7
100
AcDbLine
 10
9.582431793212888
 20
4.000586509704589
 30
0.0
 11
9.616462707519533
 21
3.984888076782226
 31
0.0
  0
LINE
  5
3CB
330
23
100
AcDbEntity
  8
TOP
  6
CONTINUOUS
 62
     7
100
AcDbLine
 10
5.834837436676025
 20
6.581757545471192
 30
0.0
 11
5.834837436676025
 21
6.4917573928833
 31
0.0
  0
LINE
  5
3CC
330
23
100
AcDbEntity
  8
TOP
  6
CONTINUOUS
 62
     7
100
AcDbLine
 10
4.325488090515136
 20
7.308257579803465
 30
0.0
 11
4.325488090515136
 21
7.304257392883299
 31
0.0
  0
LINE
  5
3CD
330
23
100
AcDbEntity
  8
TOP
  6
CONTINUOUS
 62
     7
100
AcDbLine
 10
8.368244171142578
 20
4.478123664855957
 30
0.0
 11
8.170465469360349
 21
4.417695999145507
 31
0.0
  0
LINE
  5
3CE
330
23
100
AcDbEntity
  8
TOP
  6
CONTINUOUS
 62
     7
100
AcDbLine
 10
10.52557277679443
 20
4.550145149230957
 30
0.0
 11
10.52557277679443
 21
4.654081821441649
 31
0.0
  0
LINE
  5
3CF
330
23
100
AcDbEntity
  8
TOP
  6
CONTINUOUS
 62
     7
100
AcDbLine
 10
3.780436038970947
 20
7.304257392883299
 30
0.0
 11
3.775488138198852
 21
7.304257392883299
 31
0.0
  0
LINE
  5
3D1
330
23
100
AcDbEntity
  8
TOP
  6
CONTINUOUS
 62
     7
100
AcDbLine
 10
6.544861793518065
 20
5.128257751464843
 30
0.0
 11
6.544861793518065
 21
5.075578212738037
 31
0.0
  0
LINE
  5
3D2
330
23
100
AcDbEntity
  8
TOP
  6
CONTINUOUS
 62
     7
100
AcDbLine
 10
10.09420871734619
 20
4.260607242584228
 30
0.0
 11
9.764712333679199
 21
4.412601470947265
 31
0.0
  0
LINE
  5
3D3
330
23
100
AcDbEntity
  8
TOP
  6
CONTINUOUS
 62
     7
100
AcDbLine
 10
4.350488185882568
 20
3.651075839996337
 30
0.0
 11
4.675487995147705
 21
3.651075839996337
 31
0.0
  0
LINE
  5
3D4
330
23
100
AcDbEntity
  8
TOP
  6
CONTINUOUS
 62
     7
100
AcDbLine
 10
1.744529843330383
 20
5.766716957092285
 30
0.0
 11
1.733390927314758
 21
5.756142616271972
 31
0.0
  0
LINE
  5
3D5
330
23
100
AcDbEntity
  8
TOP
  6
CONTINUOUS
 62
     7
100
AcDbLine
 10
9.68587589263916
 20
3.723629236221313
 30
0.0
 11
9.689283370971679
 21
3.734501123428344
 31
0.0
  0
LINE
  5
3D6
330
23
100
AcDbEntity
  8
TOP
  6
CONTINUOUS
 62
     7
100
AcDbLine
 10
8.200925827026367
 20
3.50155234336853
 30
0.0
 11
8.117622375488281
 21
3.543290853500366
 31
0.0
  0
LINE
  5
3D7
330
23
100
AcDbEntity
  8
TOP
  6
CONTINUOUS
 62
     7
100
AcDbLine
 10
6.510746479034423
 20
7.230257511138916
 30
0.0
 11
6.558977603912353
 21
7.230257511138916
 31
0.0
  0
LINE
  5
3D8
330
23
100
AcDbEntity
  8
TOP
  6
CONTINUOUS
 62
     7
100
AcDbLine
 10
7.543689250946046
 20
3.656989812850952
 30
0.0
 11
7.559374332427977
 21
3.619443893432616
 31
0.0
  0
LINE
  5
3D9
330
23
100
AcDbEntity
  8
TOP
  6
CONTINUOUS
 62
     7
100
AcDbLine
 10
1.367988228797912
 20
3.23007583618164
 30
0.0
 11
1.342099905014038
 21
3.23007583618164
 31
0.0
  0
LINE
  5
3DA
330
23
100
AcDbEntity
  8
TOP
  6
CONTINUOUS
 62
     7
100
AcDbLine
 10
5.842837333679199
 20
6.581757545471192
 30
0.0
 11
5.842837333679199
 21
6.521614074707031
 31
0.0
  0
LINE
  5
3DB
330
23
100
AcDbEntity
  8
TOP
  6
CONTINUOUS
 62
     7
100
AcDbLine
 10
4.900488376617431
 20
7.139257431030273
 30
0.0
 11
4.950488090515136
 21
7.139257431030273
 31
0.0
  0
LINE
  5
3DC
330
23
100
AcDbEntity
  8
TOP
  6
CONTINUOUS
 62
     7
100
AcDbLine
 10
8.417413711547851
 20
3.780497074127196
 30
0.0
 11
8.415371894836425
 21
3.776358842849731
 31
0.0
  0
LINE
  5
3DD
330
23
100
AcDbEntity
  8
TOP
  6
CONTINUOUS
 62
     7
100
AcDbLine
 10
6.536843299865722
 20
3.320075750350952
 30
0.0
 11
6.536843299865722
 21
3.259932279586791
 31
0.0
  0
LINE
  5
3DE
330
23
100
AcDbEntity
  8
TOP
  6
CONTINUOUS
 62
     7
100
AcDbLine
 10
4.775488376617431
 20
3.23007583618164
 30
0.0
 11
5.150488376617431
 21
3.23007583618164
 31
0.0
  0
LINE
  5
3E0
330
23
100
AcDbEntity
  8
TOP
  6
CONTINUOUS
 62
     7
100
AcDbLine
 10
1.364488244056701
 20
7.870772838592529
 30
0.0
 11
1.341665148735046
 21
7.870772838592529
 31
0.0
  0
LINE
  5
3E1
330
23
100
AcDbEntity
  8
TOP
  6
CONTINUOUS
 62
     7
100
AcDbLine
 10
1.455488204956054
 20
7.014257431030273
 30
0.0
 11
1.455488204956054
 21
7.064257621765136
 31
0.0
  0
LINE
  5
3E2
330
23
100
AcDbEntity
  8
TOP
  6
CONTINUOUS
 62
     7
100
AcDbLine
 10
5.216488361358642
 20
7.878772735595702
 30
0.0
 11
5.269167900085449
 21
7.878772735595702
 31
0.0
  0
LINE
  5
3E3
330
23
100
AcDbEntity
  8
TOP
  6
CONTINUOUS
 62
     7
100
AcDbLine
 10
9.178292274475095
 20
3.867836713790893
 30
0.0
 11
9.200094223022462
 21
3.874038696289063
 31
0.0
  0
LINE
  5
3E4
330
23
100
AcDbEntity
  8
TOP
  6
CONTINUOUS
 62
     7
100
AcDbLine
 10
6.552958488464356
 20
4.016075611114501
 30
0.0
 11
6.528843402862548
 21
4.106075763702392
 31
0.0
  0
LINE
  5
3E5
330
23
100
AcDbEntity
  8
TOP
  6
CONTINUOUS
 62
     7
100
AcDbLine
 10
9.020190238952636
 20
4.760712146759033
 30
0.0
 11
9.026057243347167
 21
4.759047508239745
 31
0.0
  0
LINE
  5
3E7
330
23
100
AcDbEntity
  8
TOP
  6
CONTINUOUS
 62
     7
100
AcDbLine
 10
9.911577224731443
 20
4.03171682357788
 30
0.0
 11
9.905517578125
 21
4.034512042999267
 31
0.0
  0
LINE
  5
3E8
330
23
100
AcDbEntity
  8
TOP
  6
CONTINUOUS
 62
     7
100
AcDbLine
 10
1.480488181114196
 20
5.219257354736328
 30
0.0
 11
1.455488204956054
 21
5.219257354736328
 31
0.0
  0
LINE
  5
3E9
330
23
100
AcDbEntity
  8
TOP
  6
CONTINUOUS
 62
     7
100
AcDbLine
 10
8.84654426574707
 20
3.802294731140136
 30
0.0
 11
8.853239059448242
 21
3.795134305953979
 31
0.0
  0
LINE
  5
3EA
330
23
100
AcDbEntity
  8
TOP
  6
CONTINUOUS
 62
     7
100
AcDbLine
 10
7.73440933227539
 20
3.52585482597351
 30
0.0
 11
7.761913776397705
 21
3.501360893249512
 31
0.0
  0
LINE
  5
3EB
330
23
100
AcDbEntity
  8
TOP
  6
CONTINUOUS
 62
     7
100
AcDbLine
 10
1.2744882106781
 20
5.885795593261719
 30
0.0
 11
1.2744882106781
 21
5.906883239746093
 31
0.0
  0
LINE
  5
3EC
330
23
100
AcDbEntity
  8
TOP
  6
CONTINUOUS
 62
     7
100
AcDbLine
 10
5.830837249755859
 20
5.776757717132568
 30
0.0
 11
5.830837249755859
 21
5.851829528808593
 31
0.0
  0
LINE
  5
3ED
330
23
100
AcDbEntity
  8
TOP
  6
CONTINUOUS
 62
     7
100
AcDbLine
 10
4.225488185882568
 20
5.038257598876953
 30
0.0
 11
4.225488185882568
 21
5.042257785797119
 31
0.0
  0
LINE
  5
3EE
330
23
100
AcDbEntity
  8
TOP
  6
CONTINUOUS
 62
     7
100
AcDbLine
 10
8.16489028930664
 20
4.425249099731444
 30
0.0
 11
8.16829776763916
 21
4.436120986938476
 31
0.0
  0
LINE
  5
3EF
330
23
100
AcDbEntity
  8
TOP
  6
CONTINUOUS
 62
     7
100
AcDbLine
 10
8.197497367858886
 20
3.57827615737915
 30
0.0
 11
8.238045692443845
 21
3.589286088943481
 31
0.0
  0
LINE
  5
3F0
330
23
100
AcDbEntity
  8
TOP
  6
CONTINUOUS
 62
     7
100
AcDbLine
 10
1.870488286018371
 20
7.304257392883299
 30
0.0
 11
1.845613837242126
 21
7.304257392883299
 31
0.0
  0
LINE
  5
3F1
330
23
100
AcDbEntity
  8
TOP
  6
CONTINUOUS
 62
     7
100
AcDbLine
 10
6.526862144470214
 20
5.128257751464843
 30
0.0
 11
6.526862144470214
 21
5.068113803863524
 31
0.0
  0
LINE
  5
3F2
330
23
100
AcDbEntity
  8
TOP
  6
CONTINUOUS
 62
     7
100
AcDbLine
 10
10.1118459701538
 20
3.768861293792724
 30
0.0
 11
10.25387001037597
 21
3.703346490859985
 31
0.0
  0
LINE
  5
3F3
330
23
100
AcDbEntity
  8
TOP
  6
CONTINUOUS
 62
     7
100
AcDbLine
 10
1.718367099761962
 20
5.794276237487792
 30
0.0
 11
1.701814889907836
 21
5.778563022613524
 31
0.0
  0
LINE
  5
3F4
330
23
100
AcDbEntity
  8
TOP
  6
CONTINUOUS
 62
     7
100
AcDbLine
 10
9.68850517272949
 20
3.71562933921814
 30
0.0
 11
9.68996524810791
 21
3.715736389160155
 31
0.0
  0
LINE
  5
3F5
330
23
100
AcDbEntity
  8
TOP
  6
CONTINUOUS
 62
     7
100
AcDbLine
 10
8.200849533081054
 20
3.501466035842895
 30
0.0
 11
8.200527191162109
 21
3.501752138137817
 31
0.0
  0
LINE
  5
3F6
330
23
100
AcDbEntity
  8
TOP
  6
CONTINUOUS
 62
     7
100
AcDbLine
 10
1.845613837242126
 20
7.320257663726806
 30
0.0
 11
1.870488286018371
 21
7.320257663726806
 31
0.0
  0
LINE
  5
3F7
330
23
100
AcDbEntity
  8
TOP
  6
CONTINUOUS
 62
     7
100
AcDbLine
 10
6.534862041473388
 20
7.230257511138916
 30
0.0
 11
6.534862041473388
 21
7.320257663726806
 31
0.0
  0
LINE
  5
3F8
330
23
100
AcDbEntity
  8
TOP
  6
CONTINUOUS
 62
     7
100
AcDbLine
 10
9.701067924499511
 20
3.972044944763183
 30
0.0
 11
9.651093482971191
 21
3.995097875595092
 31
0.0
  0
LINE
  5
3F9
330
23
100
AcDbEntity
  8
TOP
  6
CONTINUOUS
 62
     7
100
AcDbLine
 10
5.290488243103027
 20
4.101128101348876
 30
0.0
 11
5.290488243103027
 21
4.106075763702392
 31
0.0
  0
LINE
  5
3FA
330
23
100
AcDbEntity
  8
TOP
  6
CONTINUOUS
 62
     7
100
AcDbLine
 10
1.805488228797912
 20
5.069257736206055
 30
0.0
 11
1.805488228797912
 21
5.058650970458984
 31
0.0
  0
LINE
  5
3FB
330
23
100
AcDbEntity
  8
TOP
  6
CONTINUOUS
 62
     7
100
AcDbLine
 10
9.096612930297853
 20
3.962045431137084
 30
0.0
 11
9.124041557312013
 21
3.975640296936035
 31
0.0
  0
LINE
  5
3FC
330
23
100
AcDbEntity
  8
TOP
  6
CONTINUOUS
 62
     7
100
AcDbLine
 10
6.522843360900878
 20
3.320075750350952
 30
0.0
 11
6.522843360900878
 21
3.252468109130859
 31
0.0
  0
LINE
  5
3FD
330
23
100
AcDbEntity
  8
TOP
  6
CONTINUOUS
 62
     7
100
AcDbLine
 10
3.510488271713256
 20
3.246075868606567
 30
0.0
 11
3.070488214492797
 21
3.246075868606567
 31
0.0
  0
LINE
  5
3FE
330
23
100
AcDbEntity
  8
TOP
  6
CONTINUOUS
 62
     7
100
AcDbLine
 10
1.364488244056701
 20
7.904772758483886
 30
0.0
 11
1.334201097488403
 21
7.904772758483886
 31
0.0
  0
LINE
  5
3FF
330
23
100
AcDbEntity
  8
TOP
  6
CONTINUOUS
 62
     7
100
AcDbLine
 10
4.700488090515136
 20
5.719257354736328
 30
0.0
 11
4.75048828125
 21
5.719257354736328
 31
0.0
  0
LINE
  5
400
330
23
100
AcDbEntity
  8
TOP
  6
CONTINUOUS
 62
     7
100
AcDbLine
 10
6.534862041473388
 20
5.038257598876953
 30
0.0
 11
6.534862041473388
 21
5.940823554992675
 31
0.0
  0
LINE
  5
401
330
23
100
AcDbEntity
  8
TOP
  6
CONTINUOUS
 62
     7
100
AcDbLine
 10
8.904459953308105
 20
3.757058143615722
 30
0.0
 11
8.910799026489257
 21
3.750557899475097
 31
0.0
  0
LINE
  5
402
330
23
100
AcDbEntity
  8
TOP
  6
CONTINUOUS
 62
     7
100
AcDbLine
 10
10.30219841003418
 20
4.203840732574462
 30
0.0
 11
10.34260272979736
 21
4.220409870147705
 31
0.0
  0
LINE
  5
403
330
23
100
AcDbEntity
  8
TOP
  6
CONTINUOUS
 62
     7
100
AcDbLine
 10
2.786450147628784
 20
5.0542573928833
 30
0.0
 11
2.800540447235107
 21
5.0542573928833
 31
0.0
  0
LINE
  5
404
330
23
100
AcDbEntity
  8
TOP
  6
CONTINUOUS
 62
     7
100
AcDbLine
 10
9.777968406677246
 20
4.153455257415772
 30
0.0
 11
9.771272659301756
 21
4.160615921020507
 31
0.0
  0
LINE
  5
405
330
23
100
AcDbEntity
  8
TOP
  6
CONTINUOUS
 62
     7
100
AcDbLine
 10
6.55284309387207
 20
4.016075611114501
 30
0.0
 11
6.55284309387207
 21
4.016506671905517
 31
0.0
  0
LINE
  5
406
330
23
100
AcDbEntity
  8
TOP
  6
CONTINUOUS
 62
     7
100
AcDbLine
 10
5.818025588989257
 20
3.14007568359375
 30
0.0
 11
5.818025588989257
 21
3.215147495269775
 31
0.0
  0
LINE
  5
408
330
23
100
AcDbEntity
  8
TOP
  6
CONTINUOUS
 62
     7
100
AcDbLine
 10
1.455488204956054
 20
5.394257545471192
 30
0.0
 11
1.455488204956054
 21
5.444257736206055
 31
0.0
  0
LINE
  5
409
330
23
100
AcDbEntity
  8
TOP
  6
CONTINUOUS
 62
     7
100
AcDbLine
 10
9.334852218627927
 20
4.385667324066161
 30
0.0
 11
9.341547966003417
 21
4.378506660461425
 31
0.0
  0
LINE
  5
40A
330
23
100
AcDbEntity
  8
TOP
  6
CONTINUOUS
 62
     7
100
AcDbLine
 10
7.825998306274414
 20
3.464051961898804
 30
0.0
 11
7.865175724029541
 21
3.463477134704589
 31
0.0
  0
LINE
  5
40B
330
23
100
AcDbEntity
  8
TOP
  6
CONTINUOUS
 62
     7
100
AcDbLine
 10
3.540488243103027
 20
5.069257736206055
 30
0.0
 11
3.540488243103027
 21
5.058650970458984
 31
0.0
  0
LINE
  5
40C
330
23
100
AcDbEntity
  8
TOP
  6
CONTINUOUS
 62
     7
100
AcDbLine
 10
9.162401199340818
 20
4.443121910095214
 30
0.0
 11
9.039313316345216
 21
4.499901294708251
 31
0.0
  0
LINE
  5
40D
330
23
100
AcDbEntity
  8
TOP
  6
CONTINUOUS
 62
     7
100
AcDbLine
 10
2.195771932601928
 20
4.178646087646484
 30
0.0
 11
2.181848287582397
 21
4.15174913406372
 31
0.0
  0
LINE
  5
40E
330
23
100
AcDbEntity
  8
TOP
  6
CONTINUOUS
 62
     7
100
AcDbLine
 10
5.836837291717528
 20
5.776757717132568
 30
0.0
 11
5.836837291717528
 21
5.859293460845947
 31
0.0
  0
LINE
  5
40F
330
23
100
AcDbEntity
  8
TOP
  6
CONTINUOUS
 62
     7
100
AcDbLine
 10
1.680488228797912
 20
5.219257354736328
 30
0.0
 11
1.630488276481628
 21
5.219257354736328
 31
0.0
  0
LINE
  5
410
330
23
100
AcDbEntity
  8
TOP
  6
CONTINUOUS
 62
     7
100
AcDbLine
 10
9.078741073608398
 20
3.453214883804321
 30
0.0
 11
9.073804855346679
 21
3.454149961471557
 31
0.0
  0
LINE
  5
411
330
23
100
AcDbEntity
  8
TOP
  6
CONTINUOUS
 62
     7
100
AcDbLine
 10
5.306488037109375
 20
5.931757450103759
 30
0.0
 11
5.306488037109375
 21
5.906883239746093
 31
0.0
  0
LINE
  5
412
330
23
100
AcDbEntity
  8
TOP
  6
CONTINUOUS
 62
     7
100
AcDbLine
 10
9.24330997467041
 20
3.380695819854736
 30
0.0
 11
9.271278381347656
 21
3.377463579177856
 31
0.0
  0
LINE
  5
413
330
23
100
AcDbEntity
  8
TOP
  6
CONTINUOUS
 62
     7
100
AcDbLine
 10
5.812837123870849
 20
6.581757545471192
 30
0.0
 11
5.812837123870849
 21
6.573862552642822
 31
0.0
  0
LINE
  5
415
330
23
100
AcDbEntity
  8
TOP
  6
CONTINUOUS
 62
     7
100
AcDbLine
 10
6.114868640899657
 20
6.176745891571044
 30
0.0
 11
6.069868564605712
 21
6.176745891571044
 31
0.0
  0
LINE
  5
416
330
23
100
AcDbEntity
  8
TOP
  6
CONTINUOUS
 62
     7
100
AcDbLine
 10
8.422504425048828
 20
4.265996932983398
 30
0.0
 11
8.420840263366699
 21
4.272662639617919
 31
0.0
  0
LINE
  5
417
330
23
100
AcDbEntity
  8
TOP
  6
CONTINUOUS
 62
     7
100
AcDbLine
 10
9.64466857910156
 20
3.469806194305419
 30
0.0
 11
9.935520172119138
 21
3.55867052078247
 31
0.0
  0
LINE
  5
418
330
23
100
AcDbEntity
  8
TOP
  6
CONTINUOUS
 62
     7
100
AcDbLine
 10
3.775488138198852
 20
7.320257663726806
 30
0.0
 11
3.780436038970947
 21
7.320257663726806
 31
0.0
  0
LINE
  5
419
330
23
100
AcDbEntity
  8
TOP
  6
CONTINUOUS
 62
     7
100
AcDbLine
 10
6.534862041473388
 20
5.038257598876953
 30
0.0
 11
6.558977603912353
 21
5.128257751464843
 31
0.0
  0
LINE
  5
41A
330
23
100
AcDbEntity
  8
TOP
  6
CONTINUOUS
 62
     7
100
AcDbLine
 10
1.342099905014038
 20
3.246075868606567
 30
0.0
 11
1.367988228797912
 21
3.246075868606567
 31
0.0
  0
LINE
  5
41B
330
23
100
AcDbEntity
  8
TOP
  6
CONTINUOUS
 62
     7
100
AcDbLine
 10
4.775488376617431
 20
3.23007583618164
 30
0.0
 11
4.775488376617431
 21
3.234229087829589
 31
0.0
  0
LINE
  5
41D
330
23
100
AcDbEntity
  8
TOP
  6
CONTINUOUS
 62
     7
100
AcDbLine
 10
9.647535324096679
 20
3.471574783325195
 30
0.0
 11
9.65097427368164
 21
3.482178688049316
 31
0.0
  0
LINE
  5
41E
330
23
100
AcDbEntity
  8
TOP
  6
CONTINUOUS
 62
     7
100
AcDbLine
 10
10.19896221160888
 20
4.296384334564208
 30
0.0
 11
10.236572265625
 21
4.319918155670166
 31
0.0
  0
LINE
  5
41F
330
23
100
AcDbEntity
  8
TOP
  6
CONTINUOUS
 62
     7
100
AcDbLine
 10
5.182840824127196
 20
3.23007583618164
 30
0.0
 11
5.150488376617431
 21
3.23007583618164
 31
0.0
  0
LINE
  5
420
330
23
100
AcDbEntity
  8
TOP
  6
CONTINUOUS
 62
     7
100
AcDbLine
 10
5.858952522277832
 20
6.581757545471192
 30
0.0
 11
5.81072187423706
 21
6.581757545471192
 31
0.0
  0
LINE
  5
421
330
23
100
AcDbEntity
  8
TOP
  6
CONTINUOUS
 62
     7
100
AcDbLine
 10
4.75048828125
 20
6.639257431030273
 30
0.0
 11
4.700488090515136
 21
6.639257431030273
 31
0.0
  0
LINE
  5
422
330
23
100
AcDbEntity
  8
TOP
  6
CONTINUOUS
 62
     7
100
AcDbLine
 10
7.74302864074707
 20
3.543092727661132
 30
0.0
 11
7.763358116149902
 21
3.548174619674682
 31
0.0
  0
LINE
  5
423
330
23
100
AcDbEntity
  8
TOP
  6
CONTINUOUS
 62
     7
100
AcDbLine
 10
2.805488348007202
 20
5.0542573928833
 30
0.0
 11
2.805488348007202
 21
5.038257598876953
 31
0.0
  0
LINE
  5
424
330
23
100
AcDbEntity
  8
TOP
  6
CONTINUOUS
 62
     7
100
AcDbLine
 10
6.552958488464356
 20
3.320075750350952
 30
0.0
 11
6.504727840423583
 21
3.320075750350952
 31
0.0
  0
LINE
  5
425
330
23
100
AcDbEntity
  8
TOP
  6
CONTINUOUS
 62
     7
100
AcDbLine
 10
5.824025630950927
 20
3.14007568359375
 30
0.0
 11
5.824025630950927
 21
3.222611665725708
 31
0.0
  0
LINE
  5
427
330
23
100
AcDbEntity
  8
TOP
  6
CONTINUOUS
 62
     7
100
AcDbLine
 10
1.955488204956054
 20
6.664257526397705
 30
0.0
 11
1.955488204956054
 21
6.639257431030273
 31
0.0
  0
LINE
  5
428
330
23
100
AcDbEntity
  8
TOP
  6
CONTINUOUS
 62
     7
100
AcDbLine
 10
8.369296073913574
 20
3.618202924728393
 30
0.0
 11
8.384426116943357
 21
3.624550342559815
 31
0.0
  0
LINE
  5
429
330
23
100
AcDbEntity
  8
TOP
  6
CONTINUOUS
 62
     7
100
AcDbLine
 10
3.756450176239013
 20
5.038257598876953
 30
0.0
 11
3.735362768173217
 21
5.038257598876953
 31
0.0
  0
LINE
  5
42A
330
23
100
AcDbEntity
  8
TOP
  6
CONTINUOUS
 62
     7
100
AcDbLine
 10
8.33796787261963
 20
3.925104618072509
 30
0.0
 11
8.350276947021484
 21
3.914583921432495
 31
0.0
  0
LINE
  5
42B
330
23
100
AcDbEntity
  8
TOP
  6
CONTINUOUS
 62
     7
100
AcDbLine
 10
5.848837375640869
 20
5.776757717132568
 30
0.0
 11
5.848837375640869
 21
5.814508914947509
 31
0.0
  0
LINE
  5
42C
330
23
100
AcDbEntity
  8
TOP
  6
CONTINUOUS
 62
     7
100
AcDbLine
 10
9.957659721374511
 20
4.098366737365722
 30
0.0
 11
9.955893516540527
 21
4.089552879333496
 31
0.0
  0
LINE
  5
42D
330
23
100
AcDbEntity
  8
TOP
  6
CONTINUOUS
 62
     7
100
AcDbLine
 10
2.169130086898804
 20
4.192437648773193
 30
0.0
 11
2.151775121688842
 21
4.158912181854248
 31
0.0
  0
LINE
  5
42F
330
23
100
AcDbEntity
  8
TOP
  6
CONTINUOUS
 62
     7
100
AcDbLine
 10
1.455488204956054
 20
5.219257354736328
 30
0.0
 11
1.455488204956054
 21
5.244257450103759
 31
0.0
  0
LINE
  5
430
330
23
100
AcDbEntity
  8
TOP
  6
CONTINUOUS
 62
     7
100
AcDbLine
 10
9.572844505310056
 20
4.009448528289794
 30
0.0
 11
9.638511657714845
 21
4.025886058807373
 31
0.0
  0
LINE
  5
431
330
23
100
AcDbEntity
  8
TOP
  6
CONTINUOUS
 62
     7
100
AcDbLine
 10
1.305488228797912
 20
6.4917573928833
 30
0.0
 11
1.294881582260131
 21
6.4917573928833
 31
0.0
  0
LINE
  5
432
330
23
100
AcDbEntity
  8
TOP
  6
CONTINUOUS
 62
     7
100
AcDbLine
 10
9.326276779174802
 20
3.374736785888671
 30
0.0
 11
9.300412178039552
 21
3.369597911834716
 31
0.0
  0
LINE
  5
433
330
23
100
AcDbEntity
  8
TOP
  6
CONTINUOUS
 62
     7
100
AcDbLine
 10
8.903353691101074
 20
3.776088714599609
 30
0.0
 11
9.026441574096679
 21
3.719309329986571
 31
0.0
  0
LINE
  5
434
330
23
100
AcDbEntity
  8
TOP
  6
CONTINUOUS
 62
     7
100
AcDbLine
 10
5.810837268829345
 20
5.776757717132568
 30
0.0
 11
5.810837268829345
 21
5.777188301086425
 31
0.0
  0
LINE
  5
435
330
23
100
AcDbEntity
  8
TOP
  6
CONTINUOUS
 62
     7
100
AcDbLine
 10
5.302488327026367
 20
5.941757678985595
 30
0.0
 11
5.306488037109375
 21
5.941757678985595
 31
0.0
  0
LINE
  5
436
330
23
100
AcDbEntity
  8
TOP
  6
CONTINUOUS
 62
     7
100
AcDbLine
 10
8.123929023742675
 20
4.620361804962158
 30
0.0
 11
8.127981185913085
 21
4.639673709869384
 31
0.0
  0
LINE
  5
437
330
23
100
AcDbEntity
  8
TOP
  6
CONTINUOUS
 62
     7
100
AcDbLine
 10
10.41388511657714
 20
4.284849166870117
 30
0.0
 11
10.44578075408935
 21
4.321282386779785
 31
0.0
  0
LINE
  5
438
330
23
100
AcDbEntity
  8
TOP
  6
CONTINUOUS
 62
     7
100
AcDbLine
 10
3.735362768173217
 20
7.304257392883299
 30
0.0
 11
3.710488319396972
 21
7.304257392883299
 31
0.0
  0
LINE
  5
439
330
23
100
AcDbEntity
  8
TOP
  6
CONTINUOUS
 62
     7
100
AcDbLine
 10
6.536861896514892
 20
5.128257751464843
 30
0.0
 11
6.536861896514892
 21
5.045721530914306
 31
0.0
  0
LINE
  5
43A
330
23
100
AcDbEntity
  8
TOP
  6
CONTINUOUS
 62
     7
100
AcDbLine
 10
7.822712898254393
 20
4.077218055725097
 30
0.0
 11
7.939485073089598
 21
4.112895488739013
 31
0.0
  0
LINE
  5
43B
330
23
100
AcDbEntity
  8
TOP
  6
CONTINUOUS
 62
     7
100
AcDbLine
 10
3.87548828125
 20
3.651075839996337
 30
0.0
 11
4.200488090515136
 21
3.651075839996337
 31
0.0
  0
LINE
  5
43C
330
23
100
AcDbEntity
  8
TOP
  6
CONTINUOUS
 62
     7
100
AcDbLine
 10
1.739021897315979
 20
5.7725191116333
 30
0.0
 11
1.70622980594635
 21
5.741388797760009
 31
0.0
  0
LINE
  5
43D
330
23
100
AcDbEntity
  8
TOP
  6
CONTINUOUS
 62
     7
100
AcDbLine
 10
9.903515815734863
 20
3.79995584487915
 30
0.0
 11
9.906923294067382
 21
3.791166305541992
 31
0.0
  0
LINE
  5
43E
330
23
100
AcDbEntity
  8
TOP
  6
CONTINUOUS
 62
     7
100
AcDbLine
 10
8.171628952026367
 20
3.46856951713562
 30
0.0
 11
8.160145759582517
 21
3.478769302368164
 31
0.0
  0
LINE
  5
43F
330
23
100
AcDbEntity
  8
TOP
  6
CONTINUOUS
 62
     7
100
AcDbLine
 10
3.040488243103027
 20
7.289257526397705
 30
0.0
 11
3.040488243103027
 21
7.299864292144774
 31
0.0
  0
LINE
  5
440
330
23
100
AcDbEntity
  8
TOP
  6
CONTINUOUS
 62
     7
100
AcDbLine
 10
6.512861728668212
 20
7.230257511138916
 30
0.0
 11
6.512861728668212
 21
7.238152503967285
 31
0.0
  0
LINE
  5
441
330
23
100
AcDbEntity
  8
TOP
  6
CONTINUOUS
 62
     7
100
AcDbLine
 10
7.530874729156494
 20
3.744077682495116
 30
0.0
 11
7.530874729156494
 21
3.809325695037841
 31
0.0
  0
LINE
  5
442
330
23
100
AcDbEntity
  8
TOP
  6
CONTINUOUS
 62
     7
100
AcDbLine
 10
9.736797332763673
 20
4.095981597900391
 30
0.0
 11
9.727786064147949
 21
4.086907386779785
 31
0.0
  0
LINE
  5
443
330
23
100
AcDbEntity
  8
TOP
  6
CONTINUOUS
 62
     7
100
AcDbLine
 10
4.62548828125
 20
6.714257717132568
 30
0.0
 11
4.62548828125
 21
6.764257431030273
 31
0.0
  0
LINE
  5
444
330
23
100
AcDbEntity
  8
TOP
  6
CONTINUOUS
 62
     7
100
AcDbLine
 10
8.260242462158203
 20
3.706769704818725
 30
0.0
 11
8.282903671264648
 21
3.711795091629027
 31
0.0
  0
LINE
  5
445
330
23
100
AcDbEntity
  8
TOP
  6
CONTINUOUS
 62
     7
100
AcDbLine
 10
6.528843402862548
 20
3.320075750350952
 30
0.0
 11
6.528843402862548
 21
3.23007583618164
 31
0.0
  0
LINE
  5
446
330
23
100
AcDbEntity
  8
TOP
  6
CONTINUOUS
 62
     7
100
AcDbLine
 10
1.305488228797912
 20
3.23007583618164
 30
0.0
 11
1.305488228797912
 21
3.246075868606567
 31
0.0
  0
LINE
  5
448
330
23
100
AcDbEntity
  8
TOP
  6
CONTINUOUS
 62
     7
100
AcDbLine
 10
1.364488244056701
 20
7.878772735595702
 30
0.0
 11
1.311808705329895
 21
7.878772735595702
 31
0.0
  0
LINE
  5
449
330
23
100
AcDbEntity
  8
TOP
  6
CONTINUOUS
 62
     7
100
AcDbLine
 10
4.950488090515136
 20
5.219257354736328
 30
0.0
 11
4.900488376617431
 21
5.219257354736328
 31
0.0
  0
LINE
  5
44A
330
23
100
AcDbEntity
  8
TOP
  6
CONTINUOUS
 62
     7
100
AcDbLine
 10
5.216488361358642
 20
7.886772632598877
 30
0.0
 11
5.299024105072021
 21
7.886772632598877
 31
0.0
  0
LINE
  5
44B
330
23
100
AcDbEntity
  8
TOP
  6
CONTINUOUS
 62
     7
100
AcDbLine
 10
9.307085990905759
 20
3.924957036972045
 30
0.0
 11
9.339189529418943
 21
3.944217205047607
 31
0.0
  0
LINE
  5
44C
330
23
100
AcDbEntity
  8
TOP
  6
CONTINUOUS
 62
     7
100
AcDbLine
 10
3.840488195419311
 20
5.0542573928833
 30
0.0
 11
4.710488319396972
 21
5.0542573928833
 31
0.0
  0
LINE
  5
44D
330
23
100
AcDbEntity
  8
TOP
  6
CONTINUOUS
 62
     7
100
AcDbLine
 10
6.508843421936035
 20
4.016075611114501
 30
0.0
 11
6.508843421936035
 21
4.031434535980224
 31
0.0
  0
LINE
  5
44E
330
23
100
AcDbEntity
  8
TOP
  6
CONTINUOUS
 62
     7
100
AcDbLine
 10
9.376873016357421
 20
4.579144954681396
 30
0.0
 11
9.380171775817872
 21
4.559549808502196
 31
0.0
  0
LINE
  5
44F
330
23
100
AcDbEntity
  8
TOP
  6
CONTINUOUS
 62
     7
100
AcDbLine
 10
10.67520141601562
 20
7.260260105133055
 30
0.0
 11
10.67520141601562
 21
7.88476037979126
 31
0.0
  0
LINE
  5
450
330
23
100
AcDbEntity
  8
TOP
  6
CONTINUOUS
 62
     7
100
AcDbLine
 10
1.955488204956054
 20
5.444257736206055
 30
0.0
 11
1.955488204956054
 21
5.394257545471192
 31
0.0
  0
LINE
  5
451
330
23
100
AcDbEntity
  8
TOP
  6
CONTINUOUS
 62
     7
100
AcDbLine
 10
8.723456382751464
 20
3.831268548965454
 30
0.0
 11
8.84654426574707
 21
3.774488925933837
 31
0.0
  0
LINE
  5
453
330
23
100
AcDbEntity
  8
TOP
  6
CONTINUOUS
 62
     7
100
AcDbLine
 10
7.866618156433105
 20
3.474907875061035
 30
0.0
 11
7.90538215637207
 21
3.482659816741943
 31
0.0
  0
LINE
  5
454
330
23
100
AcDbEntity
  8
TOP
  6
CONTINUOUS
 62
     7
100
AcDbLine
 10
1.290488243103027
 20
6.472719669342041
 30
0.0
 11
1.290488243103027
 21
6.451632022857666
 31
0.0
  0
LINE
  5
455
330
23
100
AcDbEntity
  8
TOP
  6
CONTINUOUS
 62
     7
100
AcDbLine
 10
9.771272659301756
 20
4.160615921020507
 30
0.0
 11
9.768500328063964
 21
4.171725749969481
 31
0.0
  0
LINE
  5
456
330
23
100
AcDbEntity
  8
TOP
  6
CONTINUOUS
 62
     7
100
AcDbLine
 10
9.461726188659667
 20
4.082273006439208
 30
0.0
 11
9.461727142333984
 21
4.082450866699218
 31
0.0
  0
LINE
  5
457
330
23
100
AcDbEntity
  8
TOP
  6
CONTINUOUS
 62
     7
100
AcDbLine
 10
5.858837127685545
 20
5.776757717132568
 30
0.0
 11
5.858837127685545
 21
5.777188301086425
 31
0.0
  0
LINE
  5
458
330
23
100
AcDbEntity
  8
TOP
  6
CONTINUOUS
 62
     7
100
AcDbLine
 10
1.880488276481628
 20
5.0542573928833
 30
0.0
 11
1.880488276481628
 21
5.050257682800292
 31
0.0
  0
LINE
  5
459
330
23
100
AcDbEntity
  8
TOP
  6
CONTINUOUS
 62
     7
100
AcDbLine
 10
8.405715942382812
 20
4.733114719390869
 30
0.0
 11
8.390591621398924
 21
4.733336448669433
 31
0.0
  0
LINE
  5
45A
330
23
100
AcDbEntity
  8
TOP
  6
CONTINUOUS
 62
     7
100
AcDbLine
 10
8.312411308288574
 20
3.607791662216186
 30
0.0
 11
8.335779190063474
 21
3.615120649337768
 31
0.0
  0
LINE
  5
45B
330
23
100
AcDbEntity
  8
TOP
  6
CONTINUOUS
 62
     7
100
AcDbLine
 10
5.275488376617431
 20
6.4917573928833
 30
0.0
 11
5.286094665527343
 21
6.4917573928833
 31
0.0
  0
LINE
  5
45C
330
23
100
AcDbEntity
  8
TOP
  6
CONTINUOUS
 62
     7
100
AcDbLine
 10
6.534862041473388
 20
5.128257751464843
 30
0.0
 11
6.534862041473388
 21
5.038257598876953
 31
0.0
  0
LINE
  5
45D
330
23
100
AcDbEntity
  8
TOP
  6
CONTINUOUS
 62
     7
100
AcDbLine
 10
8.765341758728027
 20
4.362457752227783
 30
0.0
 11
8.739477157592773
 21
4.357318401336669
 31
0.0
  0
LINE
  5
45E
330
23
100
AcDbEntity
  8
TOP
  6
CONTINUOUS
 62
     7
100
AcDbLine
 10
1.723875045776367
 20
5.788474559783936
 30
0.0
 11
1.685669660568237
 21
5.752204895019531
 31
0.0
  0
LINE
  5
45F
330
23
100
AcDbEntity
  8
TOP
  6
CONTINUOUS
 62
     7
100
AcDbLine
 10
8.196865081787109
 20
3.4969801902771
 30
0.0
 11
8.17980098724365
 21
3.512136697769165
 31
0.0
  0
LINE
  5
460
330
23
100
AcDbEntity
  8
TOP
  6
CONTINUOUS
 62
     7
100
AcDbLine
 10
2.786450147628784
 20
7.320257663726806
 30
0.0
 11
2.800540447235107
 21
7.320257663726806
 31
0.0
  0
LINE
  5
461
330
23
100
AcDbEntity
  8
TOP
  6
CONTINUOUS
 62
     7
100
AcDbLine
 10
5.12548828125
 20
5.444257736206055
 30
0.0
 11
5.12548828125
 21
5.394257545471192
 31
0.0
  0
LINE
  5
462
330
23
100
AcDbEntity
  8
TOP
  6
CONTINUOUS
 62
     7
100
AcDbLine
 10
6.554862022399902
 20
7.230257511138916
 30
0.0
 11
6.554862022399902
 21
7.245616436004638
 31
0.0
  0
LINE
  5
463
330
23
100
AcDbEntity
  8
TOP
  6
CONTINUOUS
 62
     7
100
AcDbLine
 10
9.691450119018552
 20
3.716076374053955
 30
0.0
 11
9.697509765625
 21
3.713280916213988
 31
0.0
  0
LINE
  5
464
330
23
100
AcDbEntity
  8
TOP
  6
CONTINUOUS
 62
     7
100
AcDbLine
 10
9.683212280273437
 20
3.96658706665039
 30
0.0
 11
9.644112586975095
 21
3.984623432159423
 31
0.0
  0
LINE
  5
465
330
23
100
AcDbEntity
  8
TOP
  6
CONTINUOUS
 62
     7
100
AcDbLine
 10
1.290488243103027
 20
3.261075735092163
 30
0.0
 11
1.290488243103027
 21
4.041075706481933
 31
0.0
  0
LINE
  5
466
330
23
100
AcDbEntity
  8
TOP
  6
CONTINUOUS
 62
     7
100
AcDbLine
 10
9.461727142333984
 20
4.090792655944824
 30
0.0
 11
9.465055465698242
 21
4.101054191589356
 31
0.0
  0
LINE
  5
467
330
23
100
AcDbEntity
  8
TOP
  6
CONTINUOUS
 62
     7
100
AcDbLine
 10
5.150488376617431
 20
5.069257736206055
 30
0.0
 11
4.775488376617431
 21
5.069257736206055
 31
0.0
  0
LINE
  5
468
330
23
100
AcDbEntity
  8
TOP
  6
CONTINUOUS
 62
     7
100
AcDbLine
 10
9.246344566345216
 20
4.042333126068115
 30
0.0
 11
9.302386283874511
 21
4.055570602416992
 31
0.0
  0
LINE
  5
469
330
23
100
AcDbEntity
  8
TOP
  6
CONTINUOUS
 62
     7
100
AcDbLine
 10
2.660200834274291
 20
4.62767505645752
 30
0.0
 11
2.410200834274291
 21
4.62767505645752
 31
0.0
  0
LINE
  5
46A
330
23
100
AcDbEntity
  8
TOP
  6
CONTINUOUS
 62
     7
100
AcDbLine
 10
5.150488376617431
 20
3.246075868606567
 30
0.0
 11
5.182840824127196
 21
3.246075868606567
 31
0.0
  0
LINE
  5
46B
330
23
100
AcDbEntity
  8
TOP
  6
CONTINUOUS
 62
     7
100
AcDbLine
 10
1.364488244056701
 20
7.896772861480713
 30
0.0
 11
1.304344654083251
 21
7.896772861480713
 31
0.0
  0
LINE
  5
46C
330
23
100
AcDbEntity
  8
TOP
  6
CONTINUOUS
 62
     7
100
AcDbLine
 10
5.100488185882568
 20
5.719257354736328
 30
0.0
 11
5.12548828125
 21
5.719257354736328
 31
0.0
  0
LINE
  5
46D
330
23
100
AcDbEntity
  8
TOP
  6
CONTINUOUS
 62
     7
100
AcDbLine
 10
10.45176315307617
 20
4.314590454101562
 30
0.0
 11
10.48044300079345
 21
4.357625007629394
 31
0.0
  0
LINE
  5
46E
330
23
100
AcDbEntity
  8
TOP
  6
CONTINUOUS
 62
     7
100
AcDbLine
 10
2.824526309967041
 20
5.0542573928833
 30
0.0
 11
2.845613718032836
 21
5.0542573928833
 31
0.0
  0
LINE
  5
46F
330
23
100
AcDbEntity
  8
TOP
  6
CONTINUOUS
 62
     7
100
AcDbLine
 10
6.5468430519104
 20
4.016075611114501
 30
0.0
 11
6.5468430519104
 21
4.038898944854736
 31
0.0
  0
LINE
  5
470
330
23
100
AcDbEntity
  8
TOP
  6
CONTINUOUS
 62
     7
100
AcDbLine
 10
5.846025466918944
 20
3.14007568359375
 30
0.0
 11
5.846025466918944
 21
3.140506505966186
 31
0.0
  0
LINE
  5
471
330
23
100
AcDbEntity
  8
TOP
  6
CONTINUOUS
 62
     7
100
AcDbLine
 10
7.585201263427734
 20
7.88476037979126
 30
0.0
 11
10.67520141601562
 21
7.88476037979126
 31
0.0
  0
LINE
  5
472
330
23
100
AcDbEntity
  8
TOP
  6
CONTINUOUS
 62
     7
100
AcDbLine
 10
1.955488204956054
 20
6.639257431030273
 30
0.0
 11
1.930488228797912
 21
6.639257431030273
 31
0.0
  0
LINE
  5
473
330
23
100
AcDbEntity
  8
TOP
  6
CONTINUOUS
 62
     7
100
AcDbLine
 10
9.211764335632322
 20
4.4146409034729
 30
0.0
 11
9.334852218627927
 21
4.357861518859863
 31
0.0
  0
LINE
  5
474
330
23
100
AcDbEntity
  8
TOP
  6
CONTINUOUS
 62
     7
100
AcDbLine
 10
8.041989326477049
 20
3.518799543380737
 30
0.0
 11
8.096670150756835
 21
3.53666067123413
 31
0.0
  0
LINE
  5
475
330
23
100
AcDbEntity
  8
TOP
  6
CONTINUOUS
 62
     7
100
AcDbLine
 10
4.775488376617431
 20
5.038257598876953
 30
0.0
 11
4.770540237426757
 21
5.038257598876953
 31
0.0
  0
LINE
  5
476
330
23
100
AcDbEntity
  8
TOP
  6
CONTINUOUS
 62
     7
100
AcDbLine
 10
9.209793090820312
 20
4.433723926544189
 30
0.0
 11
9.212871551513673
 21
4.423416137695312
 31
0.0
  0
LINE
  5
477
330
23
100
AcDbEntity
  8
TOP
  6
CONTINUOUS
 62
     7
100
AcDbLine
 10
2.188667297363281
 20
4.182323932647705
 30
0.0
 11
2.161018371582031
 21
4.128912448883056
 31
0.0
  0
LINE
  5
478
330
23
100
AcDbEntity
  8
TOP
  6
CONTINUOUS
 62
     7
100
AcDbLine
 10
5.541994094848632
 20
3.281612396240234
 30
0.0
 11
5.586994171142577
 21
3.281612396240234
 31
0.0
  0
LINE
  5
479
330
23
100
AcDbEntity
  8
TOP
  6
CONTINUOUS
 62
     7
100
AcDbLine
 10
1.955488204956054
 20
5.644257545471192
 30
0.0
 11
1.955488204956054
 21
5.594257354736328
 31
0.0
  0
LINE
  5
47A
330
23
100
AcDbEntity
  8
TOP
  6
CONTINUOUS
 62
     7
100
AcDbLine
 10
9.0685396194458
 20
3.446249723434447
 30
0.0
 11
9.064314842224119
 21
3.457148790359496
 31
0.0
  0
LINE
  5
47B
330
23
100
AcDbEntity
  8
TOP
  6
CONTINUOUS
 62
     7
100
AcDbLine
 10
9.166250228881837
 20
3.874660730361938
 30
0.0
 11
9.180121421813964
 21
3.879591941833496
 31
0.0
  0
LINE
  5
47C
330
23
100
AcDbEntity
  8
TOP
  6
CONTINUOUS
 62
     7
100
AcDbLine
 10
5.290488243103027
 20
5.931757450103759
 30
0.0
 11
5.290488243103027
 21
6.4267578125
 31
0.0
  0
LINE
  5
47D
330
23
100
AcDbEntity
  8
TOP
  6
CONTINUOUS
 62
     7
100
AcDbLine
 10
10.24304103851318
 20
3.663735389709472
 30
0.0
 11
10.26169872283935
 21
3.672199010848998
 31
0.0
  0
LINE
  5
47E
330
23
100
AcDbEntity
  8
TOP
  6
CONTINUOUS
 62
     7
100
AcDbLine
 10
5.290488243103027
 20
5.885795593261719
 30
0.0
 11
5.290488243103027
 21
5.906883239746093
 31
0.0
  0
LINE
  5
47F
330
23
100
AcDbEntity
  8
TOP
  6
CONTINUOUS
 62
     7
100
AcDbLine
 10
5.820837020874024
 20
6.581757545471192
 30
0.0
 11
5.820837020874024
 21
6.54400634765625
 31
0.0
  0
LINE
  5
480
330
23
100
AcDbEntity
  8
TOP
  6
CONTINUOUS
 62
     7
100
AcDbLine
 10
3.850488185882568
 20
7.320257663726806
 30
0.0
 11
3.850488185882568
 21
7.316257476806639
 31
0.0
  0
LINE
  5
481
330
23
100
AcDbEntity
  8
TOP
  6
CONTINUOUS
 62
     7
100
AcDbLine
 10
5.834837436676025
 20
5.641757488250732
 30
0.0
 11
5.834837436676025
 21
5.8667573928833
 31
0.0
  0
LINE
  5
482
330
23
100
AcDbEntity
  8
TOP
  6
CONTINUOUS
 62
     7
100
AcDbLine
 10
8.123929023742675
 20
4.366573810577392
 30
0.0
 11
8.123929023742675
 21
4.620361804962158
 31
0.0
  0
LINE
  5
483
330
23
100
AcDbEntity
  8
TOP
  6
CONTINUOUS
 62
     7
100
AcDbLine
 10
7.946117401123047
 20
3.963544130325317
 30
0.0
 11
8.413850784301756
 21
3.747781991958617
 31
0.0
  0
LINE
  5
484
330
23
100
AcDbEntity
  8
TOP
  6
CONTINUOUS
 62
     7
100
AcDbLine
 10
4.775488376617431
 20
7.304257392883299
 30
0.0
 11
4.770540237426757
 21
7.304257392883299
 31
0.0
  0
LINE
  5
485
330
23
100
AcDbEntity
  8
TOP
  6
CONTINUOUS
 62
     7
100
AcDbLine
 10
6.55886173248291
 20
5.128257751464843
 30
0.0
 11
6.55886173248291
 21
5.127826690673828
 31
0.0
  0
LINE
  5
486
330
23
100
AcDbEntity
  8
TOP
  6
CONTINUOUS
 62
     7
100
AcDbLine
 10
9.078741073608398
 20
3.444317102432251
 30
0.0
 11
9.220765113830566
 21
3.378802299499512
 31
0.0
  0
LINE
  5
487
330
23
100
AcDbEntity
  8
TOP
  6
CONTINUOUS
 62
     7
100
AcDbLine
 10
3.540488243103027
 20
3.234229087829589
 30
0.0
 11
3.540488243103027
 21
3.245575666427612
 31
0.0
  0
LINE
  5
488
330
23
100
AcDbEntity
  8
TOP
  6
CONTINUOUS
 62
     7
100
AcDbLine
 10
10.33128833770752
 20
4.428110599517822
 30
0.0
 11
10.35362148284912
 21
4.47304916381836
 31
0.0
  0
LINE
  5
489
330
23
100
AcDbEntity
  8
TOP
  6
CONTINUOUS
 62
     7
100
AcDbLine
 10
3.525488138198852
 20
3.23007583618164
 30
0.0
 11
3.510488271713256
 21
3.23007583618164
 31
0.0
  0
LINE
  5
48A
330
23
100
AcDbEntity
  8
TOP
  6
CONTINUOUS
 62
     7
100
AcDbLine
 10
5.856837272644042
 20
6.581757545471192
 30
0.0
 11
5.856837272644042
 21
6.573862552642822
 31
0.0
  0
LINE
  5
48B
330
23
100
AcDbEntity
  8
TOP
  6
CONTINUOUS
 62
     7
100
AcDbLine
 10
5.12548828125
 20
6.964257717132568
 30
0.0
 11
5.12548828125
 21
6.914257526397705
 31
0.0
  0
LINE
  5
48C
330
23
100
AcDbEntity
  8
TOP
  6
CONTINUOUS
 62
     7
100
AcDbLine
 10
8.390591621398924
 20
4.733336448669433
 30
0.0
 11
8.160237312316894
 21
4.66295576095581
 31
0.0
  0
LINE
  5
48D
330
23
100
AcDbEntity
  8
TOP
  6
CONTINUOUS
 62
     7
100
AcDbLine
 10
8.107889175415039
 20
4.120934963226318
 30
0.0
 11
7.984800815582275
 21
4.177714347839356
 31
0.0
  0
LINE
  5
48E
330
23
100
AcDbEntity
  8
TOP
  6
CONTINUOUS
 62
     7
100
AcDbLine
 10
7.966837406158446
 20
3.617172002792358
 30
0.0
 11
8.015188217163085
 21
3.632066011428833
 31
0.0
  0
LINE
  5
48F
330
23
100
AcDbEntity
  8
TOP
  6
CONTINUOUS
 62
     7
100
AcDbLine
 10
3.540488243103027
 20
5.038257598876953
 30
0.0
 11
3.540488243103027
 21
5.042257785797119
 31
0.0
  0
LINE
  5
490
330
23
100
AcDbEntity
  8
TOP
  6
CONTINUOUS
 62
     7
100
AcDbLine
 10
5.802025318145752
 20
3.14007568359375
 30
0.0
 11
5.802025318145752
 21
3.155434846878052
 31
0.0
  0
LINE
  5
491
330
23
100
AcDbEntity
  8
TOP
  6
CONTINUOUS
 62
     7
100
AcDbLine
 10
6.550843238830566
 20
3.320075750350952
 30
0.0
 11
6.550843238830566
 21
3.312180757522583
 31
0.0
  0
LINE
  5
493
330
23
100
AcDbEntity
  8
TOP
  6
CONTINUOUS
 62
     7
100
AcDbLine
 10
9.15495491027832
 20
4.468652725219727
 30
0.0
 11
9.031867027282713
 21
4.525432109832763
 31
0.0
  0
LINE
  5
494
330
23
100
AcDbEntity
  8
TOP
  6
CONTINUOUS
 62
     7
100
AcDbLine
 10
1.2744882106781
 20
7.888772964477539
 30
0.0
 11
1.364488244056701
 21
7.864657402038574
 31
0.0
  0
LINE
  5
495
330
23
100
AcDbEntity
  8
TOP
  6
CONTINUOUS
 62
     7
100
AcDbLine
 10
1.730488181114196
 20
7.139257431030273
 30
0.0
 11
1.78048825263977
 21
7.139257431030273
 31
0.0
  0
LINE
  5
496
330
23
100
AcDbEntity
  8
TOP
  6
CONTINUOUS
 62
     7
100
AcDbLine
 10
8.682285308837888
 20
3.773794889450072
 30
0.0
 11
8.673274040222167
 21
3.764720678329468
 31
0.0
  0
LINE
  5
497
330
23
100
AcDbEntity
  8
TOP
  6
CONTINUOUS
 62
     7
100
AcDbLine
 10
8.45173168182373
 20
3.640077352523804
 30
0.0
 11
8.481442451477049
 21
3.6456298828125
 31
0.0
  0
LINE
  5
498
330
23
100
AcDbEntity
  8
TOP
  6
CONTINUOUS
 62
     7
100
AcDbLine
 10
2.845613718032836
 20
5.038257598876953
 30
0.0
 11
2.824526309967041
 21
5.038257598876953
 31
0.0
  0
LINE
  5
499
330
23
100
AcDbEntity
  8
TOP
  6
CONTINUOUS
 62
     7
100
AcDbLine
 10
9.901056289672851
 20
4.096675872802734
 30
0.0
 11
9.908501625061036
 21
4.098950862884521
 31
0.0
  0
LINE
  5
49A
330
23
100
AcDbEntity
  8
TOP
  6
CONTINUOUS
 62
     7
100
AcDbLine
 10
10.10165500640869
 20
4.262882232666015
 30
0.0
 11
10.11396312713623
 21
4.252361297607421
 31
0.0
  0
LINE
  5
49B
330
23
100
AcDbEntity
  8
TOP
  6
CONTINUOUS
 62
     7
100
AcDbLine
 10
2.176234483718872
 20
4.188759803771972
 30
0.0
 11
2.145153999328613
 21
4.128719806671143
 31
0.0
  0
LINE
  5
49C
330
23
100
AcDbEntity
  8
TOP
  6
CONTINUOUS
 62
     7
100
AcDbLine
 10
7.941248893737792
 20
3.96829867362976
 30
0.0
 11
7.939482212066649
 21
3.976026058197021
 31
0.0
  0
LINE
  5
49E
330
23
100
AcDbEntity
  8
TOP
  6
CONTINUOUS
 62
     7
100
AcDbLine
 10
1.455488204956054
 20
5.594257354736328
 30
0.0
 11
1.455488204956054
 21
5.644257545471192
 31
0.0
  0
LINE
  5
49F
330
23
100
AcDbEntity
  8
TOP
  6
CONTINUOUS
 62
     7
100
AcDbLine
 10
10.18566417694091
 20
4.18114948272705
 30
0.0
 11
10.22050189971923
 21
4.190027713775634
 31
0.0
  0
LINE
  5
4A0
330
23
100
AcDbEntity
  8
TOP
  6
CONTINUOUS
 62
     7
100
AcDbLine
 10
1.2744882106781
 20
5.931757450103759
 30
0.0
 11
1.2744882106781
 21
6.4267578125
 31
0.0
  0
LINE
  5
4A2
330
23
100
AcDbEntity
  8
TOP
  6
CONTINUOUS
 62
     7
100
AcDbLine
 10
8.439845085144042
 20
3.749443531036376
 30
0.0
 11
8.431493759155273
 21
3.749504089355468
 31
0.0
  0
LINE
  5
4A3
330
23
100
AcDbEntity
  8
TOP
  6
CONTINUOUS
 62
     7
100
AcDbLine
 10
5.816837310791015
 20
5.776757717132568
 30
0.0
 11
5.816837310791015
 21
5.799580574035644
 31
0.0
  0
LINE
  5
4A4
330
23
100
AcDbEntity
  8
TOP
  6
CONTINUOUS
 62
     7
100
AcDbLine
 10
3.850488185882568
 20
5.042257785797119
 30
0.0
 11
3.850488185882568
 21
5.038257598876953
 31
0.0
  0
LINE
  5
4A5
330
23
100
AcDbEntity
  8
TOP
  6
CONTINUOUS
 62
     7
100
AcDbLine
 10
2.824526309967041
 20
7.304257392883299
 30
0.0
 11
2.810436010360717
 21
7.304257392883299
 31
0.0
  0
LINE
  5
4A6
330
23
100
AcDbEntity
  8
TOP
  6
CONTINUOUS
 62
     7
100
AcDbLine
 10
9.768500328063964
 20
4.171725749969481
 30
0.0
 11
9.771272659301756
 21
4.180277347564696
 31
0.0
  0
LINE
  5
4A7
330
23
100
AcDbEntity
  8
TOP
  6
CONTINUOUS
 62
     7
100
AcDbLine
 10
6.512861728668212
 20
5.128257751464843
 30
0.0
 11
6.512861728668212
 21
5.120362758636474
 31
0.0
  0
LINE
  5
4A8
330
23
100
AcDbEntity
  8
TOP
  6
CONTINUOUS
 62
     7
100
AcDbLine
 10
10.24304103851318
 20
3.654837608337401
 30
0.0
 11
10.24304103851318
 21
3.663735389709472
 31
0.0
  0
LINE
  5
4A9
330
23
100
AcDbEntity
  8
TOP
  6
CONTINUOUS
 62
     7
100
AcDbLine
 10
2.380488157272338
 20
3.651075839996337
 30
0.0
 11
2.705488204956054
 21
3.651075839996337
 31
0.0
  0
LINE
  5
4AA
330
23
100
AcDbEntity
  8
TOP
  6
CONTINUOUS
 62
     7
100
AcDbLine
 10
1.733513951301574
 20
5.778321266174316
 30
0.0
 11
1.679068803787231
 21
5.726634502410888
 31
0.0
  0
LINE
  5
4AB
330
23
100
AcDbEntity
  8
TOP
  6
CONTINUOUS
 62
     7
100
AcDbLine
 10
8.176941871643066
 20
3.474550724029541
 30
0.0
 11
8.143136978149414
 21
3.504577875137328
 31
0.0
  0
LINE
  5
4AC
330
23
100
AcDbEntity
  8
TOP
  6
CONTINUOUS
 62
     7
100
AcDbLine
 10
4.710488319396972
 20
7.320257663726806
 30
0.0
 11
4.735362529754639
 21
7.320257663726806
 31
0.0
  0
LINE
  5
4AD
330
23
100
AcDbEntity
  8
TOP
  6
CONTINUOUS
 62
     7
100
AcDbLine
 10
6.520862102508544
 20
7.230257511138916
 30
0.0
 11
6.520862102508544
 21
7.268008708953857
 31
0.0
  0
LINE
  5
4AE
330
23
100
AcDbEntity
  8
TOP
  6
CONTINUOUS
 62
     7
100
AcDbLine
 10
7.672898769378662
 20
3.678562879562377
 30
0.0
 11
7.530874729156494
 21
3.744077682495116
 31
0.0
  0
LINE
  5
4AF
330
23
100
AcDbEntity
  8
TOP
  6
CONTINUOUS
 62
     7
100
AcDbLine
 10
9.385034561157224
 20
4.245016574859619
 30
0.0
 11
9.376023292541505
 21
4.262403964996337
 31
0.0
  0
LINE
  5
4B0
330
23
100
AcDbEntity
  8
TOP
  6
CONTINUOUS
 62
     7
100
AcDbLine
 10
4.62548828125
 20
7.1142578125
 30
0.0
 11
4.62548828125
 21
7.139257431030273
 31
0.0
  0
LINE
  5
4B1
330
23
100
AcDbEntity
  8
TOP
  6
CONTINUOUS
 62
     7
100
AcDbLine
 10
8.325659751892089
 20
3.962087154388428
 30
0.0
 11
8.325659751892089
 21
4.2373628616333
 31
0.0
  0
LINE
  5
4B2
330
23
100
AcDbEntity
  8
TOP
  6
CONTINUOUS
 62
     7
100
AcDbLine
 10
8.589588165283203
 20
3.80409812927246
 30
0.0
 11
8.610266685485839
 21
3.811414003372192
 31
0.0
  0
LINE
  5
4B3
330
23
100
AcDbEntity
  8
TOP
  6
CONTINUOUS
 62
     7
100
AcDbLine
 10
6.508843421936035
 20
3.320075750350952
 30
0.0
 11
6.508843421936035
 21
3.304716825485229
 31
0.0
  0
LINE
  5
4B4
330
23
100
AcDbEntity
  8
TOP
  6
CONTINUOUS
 62
     7
100
AcDbLine
 10
5.798025608062744
 20
3.76607584953308
 30
0.0
 11
5.798025608062744
 21
3.765645027160644
 31
0.0
  0
LINE
  5
4B5
330
23
100
AcDbEntity
  8
TOP
  6
CONTINUOUS
 62
     7
100
AcDbLine
 10
5.216488361358642
 20
7.904772758483886
 30
0.0
 11
5.246775627136231
 21
7.904772758483886
 31
0.0
  0
LINE
  5
4B6
330
23
100
AcDbEntity
  8
TOP
  6
CONTINUOUS
 62
     7
100
AcDbLine
 10
1.364488244056701
 20
7.886772632598877
 30
0.0
 11
1.281952381134033
 21
7.886772632598877
 31
0.0
  0
LINE
  5
4B7
330
23
100
AcDbEntity
  8
TOP
  6
CONTINUOUS
 62
     7
100
AcDbLine
 10
5.12548828125
 20
5.719257354736328
 30
0.0
 11
5.12548828125
 21
5.694257736206055
 31
0.0
  0
LINE
  5
4B8
330
23
100
AcDbEntity
  8
TOP
  6
CONTINUOUS
 62
     7
100
AcDbLine
 10
6.20579957962036
 20
6.003323554992675
 30
0.0
 11
6.250799655914306
 21
6.003323554992675
 31
0.0
  0
LINE
  5
4B9
330
23
100
AcDbEntity
  8
TOP
  6
CONTINUOUS
 62
     7
100
AcDbLine
 10
4.770540237426757
 20
5.0542573928833
 30
0.0
 11
4.775488376617431
 21
5.0542573928833
 31
0.0
  0
LINE
  5
4BA
330
23
100
AcDbEntity
  8
TOP
  6
CONTINUOUS
 62
     7
100
AcDbLine
 10
6.516843318939208
 20
4.016075611114501
 30
0.0
 11
6.516843318939208
 21
4.061291217803955
 31
0.0
  0
LINE
  5
4BC
330
23
100
AcDbEntity
  8
TOP
  6
CONTINUOUS
 62
     7
100
AcDbLine
 10
1.53048825263977
 20
5.719257354736328
 30
0.0
 11
1.580488204956054
 21
5.719257354736328
 31
0.0
  0
LINE
  5
4BD
330
23
100
AcDbEntity
  8
TOP
  6
CONTINUOUS
 62
     7
100
AcDbLine
 10
9.16164970397949
 20
4.4418306350708
 30
0.0
 11
9.15495491027832
 21
4.440846920013427
 31
0.0
  0
LINE
  5
4BE
330
23
100
AcDbEntity
  8
TOP
  6
CONTINUOUS
 62
     7
100
AcDbLine
 10
7.672898769378662
 20
3.678562879562377
 30
0.0
 11
7.676433563232422
 21
3.631358861923217
 31
0.0
  0
LINE
  5
4BF
330
23
100
AcDbEntity
  8
TOP
  6
CONTINUOUS
 62
     7
100
AcDbLine
 10
1.290488243103027
 20
5.906883239746093
 30
0.0
 11
1.290488243103027
 21
5.885795593261719
 31
0.0
  0
LINE
  5
4C0
330
23
100
AcDbEntity
  8
TOP
  6
CONTINUOUS
 62
     7
100
AcDbLine
 10
10.12627220153808
 20
4.215378761291503
 30
0.0
 11
10.1188268661499
 21
4.213103771209716
 31
0.0
  0
LINE
  5
4C1
330
23
100
AcDbEntity
  8
TOP
  6
CONTINUOUS
 62
     7
100
AcDbLine
 10
2.20297884941101
 20
4.174915313720703
 30
0.0
 11
2.160146713256835
 21
4.19708776473999
 31
0.0
  0
LINE
  5
4C2
330
23
100
AcDbEntity
  8
TOP
  6
CONTINUOUS
 62
     7
100
AcDbLine
 10
5.850837230682372
 20
5.776757717132568
 30
0.0
 11
5.850837230682372
 21
5.807044982910156
 31
0.0
  0
LINE
  5
4C3
330
23
100
AcDbEntity
  8
TOP
  6
CONTINUOUS
 62
     7
100
AcDbLine
 10
2.730488300323486
 20
5.038257598876953
 30
0.0
 11
2.730488300323486
 21
5.042257785797119
 31
0.0
  0
LINE
  5
4C4
330
23
100
AcDbEntity
  8
TOP
  6
CONTINUOUS
 62
     7
100
AcDbLine
 10
8.134040832519531
 20
4.636878490447998
 30
0.0
 11
8.129988670349121
 21
4.617566585540772
 31
0.0
  0
LINE
  5
4C5
330
23
100
AcDbEntity
  8
TOP
  6
CONTINUOUS
 62
     7
100
AcDbLine
 10
8.383712768554685
 20
3.635423898696899
 30
0.0
 11
8.402266502380371
 21
3.641254901885985
 31
0.0
  0
LINE
  5
4C6
330
23
100
AcDbEntity
  8
TOP
  6
CONTINUOUS
 62
     7
100
AcDbLine
 10
5.290488243103027
 20
6.4917573928833
 30
0.0
 11
5.306488037109375
 21
6.4917573928833
 31
0.0
  0
LINE
  5
4C7
330
23
100
AcDbEntity
  8
TOP
  6
CONTINUOUS
 62
     7
100
AcDbLine
 10
6.763874530792236
 20
3.499435901641845
 30
0.0
 11
6.808874607086181
 21
3.499435901641845
 31
0.0
  0
LINE
  5
4C8
330
23
100
AcDbEntity
  8
TOP
  6
CONTINUOUS
 62
     7
100
AcDbLine
 10
7.795446395874022
 20
4.05825424194336
 30
0.0
 11
7.798195362091063
 21
4.047317028045654
 31
0.0
  0
LINE
  5
4C9
330
23
100
AcDbEntity
  8
TOP
  6
CONTINUOUS
 62
     7
100
AcDbLine
 10
5.216488361358642
 20
7.896772861480713
 30
0.0
 11
5.276631832122802
 21
7.896772861480713
 31
0.0
  0
LINE
  5
4CA
330
23
100
AcDbEntity
  8
TOP
  6
CONTINUOUS
 62
     7
100
AcDbLine
 10
3.040488243103027
 20
3.276075839996337
 30
0.0
 11
3.040488243103027
 21
3.261075735092163
 31
0.0
  0
LINE
  5
4CB
330
23
100
AcDbEntity
  8
TOP
  6
CONTINUOUS
 62
     7
100
AcDbLine
 10
1.729382991790771
 20
5.782672405242919
 30
0.0
 11
1.669524550437927
 21
5.725847244262695
 31
0.0
  0
LINE
  5
4CC
330
23
100
AcDbEntity
  8
TOP
  6
CONTINUOUS
 62
     7
100
AcDbLine
 10
9.914029121398924
 20
4.035651683807373
 30
0.0
 11
9.92185401916504
 21
4.033778190612792
 31
0.0
  0
LINE
  5
4CD
330
23
100
AcDbEntity
  8
TOP
  6
CONTINUOUS
 62
     7
100
AcDbLine
 10
8.19155216217041
 20
3.490998983383178
 30
0.0
 11
8.152166366577148
 21
3.525983095169067
 31
0.0
  0
LINE
  5
4CE
330
23
100
AcDbEntity
  8
TOP
  6
CONTINUOUS
 62
     7
100
AcDbLine
 10
2.824526309967041
 20
7.320257663726806
 30
0.0
 11
2.845613718032836
 21
7.320257663726806
 31
0.0
  0
LINE
  5
4CF
330
23
100
AcDbEntity
  8
TOP
  6
CONTINUOUS
 62
     7
100
AcDbLine
 10
6.546862125396728
 20
7.230257511138916
 30
0.0
 11
6.546862125396728
 21
7.27547311782837
 31
0.0
  0
LINE
  5
4D0
330
23
100
AcDbEntity
  8
TOP
  6
CONTINUOUS
 62
     7
100
AcDbLine
 10
8.411440849304199
 20
3.749364852905273
 30
0.0
 11
8.42164134979248
 21
3.747432231903076
 31
0.0
  0
LINE
  5
4D1
330
23
100
AcDbEntity
  8
TOP
  6
CONTINUOUS
 62
     7
100
AcDbLine
 10
1.2744882106781
 20
4.087037563323975
 30
0.0
 11
1.2744882106781
 21
4.101128101348876
 31
0.0
  0
LINE
  5
4D2
330
23
100
AcDbEntity
  8
TOP
  6
CONTINUOUS
 62
     7
100
AcDbLine
 10
9.647765159606931
 20
4.01677131652832
 30
0.0
 11
9.651093482971191
 21
4.003439426422119
 31
0.0
  0
LINE
  5
4D3
330
23
100
AcDbEntity
  8
TOP
  6
CONTINUOUS
 62
     7
100
AcDbLine
 10
9.637081146240234
 20
4.129578113555908
 30
0.0
 11
9.637874603271484
 21
4.12976598739624
 31
0.0
  0
LINE
  5
4D4
330
23
100
AcDbEntity
  8
TOP
  6
CONTINUOUS
 62
     7
100
AcDbLine
 10
8.117622375488281
 20
3.543290853500366
 30
0.0
 11
8.528447151184082
 21
3.178378820419311
 31
0.0
  0
LINE
  5
4D5
330
23
100
AcDbEntity
  8
TOP
  6
CONTINUOUS
 62
     7
100
AcDbLine
 10
1.364488244056701
 20
7.888772964477539
 30
0.0
 11
1.2744882106781
 21
7.888772964477539
 31
0.0
  0
LINE
  5
4D6
330
23
100
AcDbEntity
  8
TOP
  6
CONTINUOUS
 62
     7
100
AcDbLine
 10
4.62548828125
 20
5.494257450103759
 30
0.0
 11
4.62548828125
 21
5.544257640838623
 31
0.0
  0
LINE
  5
4D7
330
23
100
AcDbEntity
  8
TOP
  6
CONTINUOUS
 62
     7
100
AcDbLine
 10
10.53134441375732
 20
4.503624439239501
 30
0.0
 11
10.53487968444824
 21
4.552988529205321
 31
0.0
  0
LINE
  5
4D8
330
23
100
AcDbEntity
  8
TOP
  6
CONTINUOUS
 62
     7
100
AcDbLine
 10
3.735362768173217
 20
5.0542573928833
 30
0.0
 11
3.756450176239013
 21
5.0542573928833
 31
0.0
  0
LINE
  5
4D9
330
23
100
AcDbEntity
  8
TOP
  6
CONTINUOUS
 62
     7
100
AcDbLine
 10
6.538843154907226
 20
4.016075611114501
 30
0.0
 11
6.538843154907226
 21
4.068755149841308
 31
0.0
  0
LINE
  5
4DA
330
23
100
AcDbEntity
  8
TOP
  6
CONTINUOUS
 62
     7
100
AcDbLine
 10
5.838025569915772
 20
3.14007568359375
 30
0.0
 11
5.838025569915772
 21
3.170362949371337
 31
0.0
  0
LINE
  5
4DC
330
23
100
AcDbEntity
  8
TOP
  6
CONTINUOUS
 62
     7
100
AcDbLine
 10
1.580488204956054
 20
6.639257431030273
 30
0.0
 11
1.53048825263977
 21
6.639257431030273
 31
0.0
  0
LINE
  5
4DD
330
23
100
AcDbEntity
  8
TOP
  6
CONTINUOUS
 62
     7
100
AcDbLine
 10
8.10991096496582
 20
4.128195285797119
 30
0.0
 11
8.107137680053712
 21
4.119643688201904
 31
0.0
  0
LINE
  5
4DE
330
23
100
AcDbEntity
  8
TOP
  6
CONTINUOUS
 62
     7
100
AcDbLine
 10
9.205069541931152
 20
4.441462993621825
 30
0.0
 11
9.211764335632322
 21
4.442446708679199
 31
0.0
  0
LINE
  5
4DF
330
23
100
AcDbEntity
  8
TOP
  6
CONTINUOUS
 62
     7
100
AcDbLine
 10
8.21614933013916
 20
3.572322607040405
 30
0.0
 11
8.248173713684082
 21
3.5807626247406
 31
0.0
  0
LINE
  5
4E0
330
23
100
AcDbEntity
  8
TOP
  6
CONTINUOUS
 62
     7
100
AcDbLine
 10
4.710488319396972
 20
5.038257598876953
 30
0.0
 11
3.840488195419311
 21
5.038257598876953
 31
0.0
  0
LINE
  5
4E1
330
23
100
AcDbEntity
  8
TOP
  6
CONTINUOUS
 62
     7
100
AcDbLine
 10
9.908604621887207
 20
4.098904132843017
 30
0.0
 11
9.908706665039062
 21
4.098859310150146
 31
0.0
  0
LINE
  5
4E2
330
23
100
AcDbEntity
  8
TOP
  6
CONTINUOUS
 62
     7
100
AcDbLine
 10
2.181562900543212
 20
4.186001777648925
 30
0.0
 11
2.140188217163085
 21
4.106075763702392
 31
0.0
  0
LINE
  5
4E3
330
23
100
AcDbEntity
  8
TOP
  6
CONTINUOUS
 62
     7
100
AcDbLine
 10
1.955488204956054
 20
5.244257450103759
 30
0.0
 11
1.955488204956054
 21
5.219257354736328
 31
0.0
  0
LINE
  5
4E4
330
23
100
AcDbEntity
  8
TOP
  6
CONTINUOUS
 62
     7
100
AcDbLine
 10
5.290488243103027
 20
6.486809730529785
 30
0.0
 11
5.290488243103027
 21
6.4917573928833
 31
0.0
  0
LINE
  5
4E5
330
23
100
AcDbEntity
  8
TOP
  6
CONTINUOUS
 62
     7
100
AcDbLine
 10
9.641785621643066
 20
3.983912467956542
 30
0.0
 11
9.644112586975095
 21
3.984623432159423
 31
0.0
  0
LINE
  5
4E6
330
23
100
AcDbEntity
  8
TOP
  6
CONTINUOUS
 62
     7
100
AcDbLine
 10
2.355488300323486
 20
7.320257663726806
 30
0.0
 11
2.355488300323486
 21
7.316257476806639
 31
0.0
  0
LINE
  5
4E7
330
23
100
AcDbEntity
  8
TOP
  6
CONTINUOUS
 62
     7
100
AcDbLine
 10
8.379852294921875
 20
4.494649410247802
 30
0.0
 11
8.377248764038085
 21
4.503581047058105
 31
0.0
  0
LINE
  5
4E8
330
23
100
AcDbEntity
  8
TOP
  6
CONTINUOUS
 62
     7
100
AcDbLine
 10
8.406928062438963
 20
4.732602596282958
 30
0.0
 11
8.400868415832517
 21
4.735398292541503
 31
0.0
  0
LINE
  5
4E9
330
23
100
AcDbEntity
  8
TOP
  6
CONTINUOUS
 62
     7
100
AcDbLine
 10
3.840488195419311
 20
7.304257392883299
 30
0.0
 11
3.815613746643065
 21
7.304257392883299
 31
0.0
  0
LINE
  5
4EB
330
23
100
AcDbEntity
  8
TOP
  6
CONTINUOUS
 62
     7
100
AcDbLine
 10
2.255488157272338
 20
7.304257392883299
 30
0.0
 11
2.255488157272338
 21
7.308257579803465
 31
0.0
  0
LINE
  5
4EC
330
23
100
AcDbEntity
  8
TOP
  6
CONTINUOUS
 62
     7
100
AcDbLine
 10
6.550861835479736
 20
5.128257751464843
 30
0.0
 11
6.550861835479736
 21
5.097970485687255
 31
0.0
  0
LINE
  5
4ED
330
23
100
AcDbEntity
  8
TOP
  6
CONTINUOUS
 62
     7
100
AcDbLine
 10
7.939481735229491
 20
3.978746891021728
 30
0.0
 11
7.811883926391601
 21
4.037606716156005
 31
0.0
  0
LINE
  5
4EE
330
23
100
AcDbEntity
  8
TOP
  6
CONTINUOUS
 62
     7
100
AcDbLine
 10
8.157252311706542
 20
4.120259761810303
 30
0.0
 11
8.280340194702146
 21
4.063480377197265
 31
0.0
  0
LINE
  5
4EF
330
23
100
AcDbEntity
  8
TOP
  6
CONTINUOUS
 62
     7
100
AcDbLine
 10
1.747283816337585
 20
5.763816356658936
 30
0.0
 11
1.746971487998962
 21
5.763519763946533
 31
0.0
  0
LINE
  5
4F0
330
23
100
AcDbEntity
  8
TOP
  6
CONTINUOUS
 62
     7
100
AcDbLine
 10
9.644914627075197
 20
3.484973907470703
 30
0.0
 11
9.644914627075197
 21
3.918742179870605
 31
0.0
  0
LINE
  5
4F1
330
23
100
AcDbEntity
  8
TOP
  6
CONTINUOUS
 62
     7
100
AcDbLine
 10
9.771272659301756
 20
4.180277347564696
 30
0.0
 11
9.777968406677246
 21
4.18126106262207
 31
0.0
  0
LINE
  5
4F2
330
23
100
AcDbEntity
  8
TOP
  6
CONTINUOUS
 62
     7
100
AcDbLine
 10
10.38354873657226
 20
4.615659713745117
 30
0.0
 11
10.38354873657226
 21
4.71959638595581
 31
0.0
  0
LINE
  5
4F3
330
23
100
AcDbEntity
  8
TOP
  6
CONTINUOUS
 62
     7
100
AcDbLine
 10
5.802025318145752
 20
3.76607584953308
 30
0.0
 11
5.802025318145752
 21
3.750716686248779
 31
0.0
  0
LINE
  5
4F4
330
23
100
AcDbEntity
  8
TOP
  6
CONTINUOUS
 62
     7
100
AcDbLine
 10
3.044507503509521
 20
3.23007583618164
 30
0.0
 11
3.040488243103027
 21
3.23007583618164
 31
0.0
  0
LINE
  5
4F5
330
23
100
AcDbEntity
  8
TOP
  6
CONTINUOUS
 62
     7
100
AcDbLine
 10
9.951170921325683
 20
4.077630519866944
 30
0.0
 11
9.948397636413574
 21
4.088740348815917
 31
0.0
  0
LINE
  5
4F6
330
23
100
AcDbEntity
  8
TOP
  6
CONTINUOUS
 62
     7
100
AcDbLine
 10
5.848837375640869
 20
6.581757545471192
 30
0.0
 11
5.848837375640869
 21
6.54400634765625
 31
0.0
  0
LINE
  5
4F7
330
23
100
AcDbEntity
  8
TOP
  6
CONTINUOUS
 62
     7
100
AcDbLine
 10
4.62548828125
 20
7.139257431030273
 30
0.0
 11
4.650488376617431
 21
7.139257431030273
 31
0.0
  0
LINE
  5
4F8
330
23
100
AcDbEntity
  8
TOP
  6
CONTINUOUS
 62
     7
100
AcDbLine
 10
7.977355480194092
 20
4.203245162963867
 30
0.0
 11
8.100442886352539
 21
4.14646577835083
 31
0.0
  0
LINE
  5
4F9
330
23
100
AcDbEntity
  8
TOP
  6
CONTINUOUS
 62
     7
100
AcDbLine
 10
9.04714298248291
 20
3.940695285797119
 30
0.0
 11
9.059451103210447
 21
3.930174350738525
 31
0.0
  0
LINE
  5
4FA
330
23
100
AcDbEntity
  8
TOP
  6
CONTINUOUS
 62
     7
100
AcDbLine
 10
3.040488243103027
 20
7.320257663726806
 30
0.0
 11
3.040488243103027
 21
7.316257476806639
 31
0.0
  0
LINE
  5
4FB
330
23
100
AcDbEntity
  8
TOP
  6
CONTINUOUS
 62
     7
100
AcDbLine
 10
8.127440452575683
 20
3.662711381912231
 30
0.0
 11
8.151617050170898
 21
3.668545007705688
 31
0.0
  0
LINE
  5
4FC
330
23
100
AcDbEntity
  8
TOP
  6
CONTINUOUS
 62
     7
100
AcDbLine
 10
6.542843341827392
 20
3.320075750350952
 30
0.0
 11
6.542843341827392
 21
3.28232455253601
 31
0.0
  0
LINE
  5
4FD
330
23
100
AcDbEntity
  8
TOP
  6
CONTINUOUS
 62
     7
100
AcDbLine
 10
1.805488228797912
 20
3.245575666427612
 30
0.0
 11
1.805488228797912
 21
3.261075735092163
 31
0.0
  0
LINE
  5
4FF
330
23
100
AcDbEntity
  8
TOP
  6
CONTINUOUS
 62
     7
100
AcDbLine
 10
3.229382753372192
 20
7.973147869110107
 30
0.0
 11
3.184382915496826
 21
7.973147869110107
 31
0.0
  0
LINE
  5
500
330
23
100
AcDbEntity
  8
TOP
  6
CONTINUOUS
 62
     7
100
AcDbLine
 10
1.364488244056701
 20
7.864772796630859
 30
0.0
 11
1.364057421684265
 21
7.864772796630859
 31
0.0
  0
LINE
  5
501
330
23
100
AcDbEntity
  8
TOP
  6
CONTINUOUS
 62
     7
100
AcDbLine
 10
1.455488204956054
 20
6.714257717132568
 30
0.0
 11
1.455488204956054
 21
6.764257431030273
 31
0.0
  0
LINE
  5
502
330
23
100
AcDbEntity
  8
TOP
  6
CONTINUOUS
 62
     7
100
AcDbLine
 10
5.216488361358642
 20
7.872772693634033
 30
0.0
 11
5.246775627136231
 21
7.872772693634033
 31
0.0
  0
LINE
  5
503
330
23
100
AcDbEntity
  8
TOP
  6
CONTINUOUS
 62
     7
100
AcDbLine
 10
8.330522537231445
 20
3.922829627990722
 30
0.0
 11
8.32151126861572
 21
3.940217018127441
 31
0.0
  0
LINE
  5
504
330
23
100
AcDbEntity
  8
TOP
  6
CONTINUOUS
 62
     7
100
AcDbLine
 10
9.119271278381347
 20
3.850028991699218
 30
0.0
 11
9.145780563354492
 21
3.856870412826537
 31
0.0
  0
LINE
  5
505
330
23
100
AcDbEntity
  8
TOP
  6
CONTINUOUS
 62
     7
100
AcDbLine
 10
2.518625020980834
 20
6.291833400726318
 30
0.0
 11
2.268625020980834
 21
6.291833400726318
 31
0.0
  0
LINE
  5
506
330
23
100
AcDbEntity
  8
TOP
  6
CONTINUOUS
 62
     7
100
AcDbLine
 10
5.810025691986083
 20
3.76607584953308
 30
0.0
 11
5.810025691986083
 21
3.720860481262207
 31
0.0
  0
LINE
  5
508
330
23
100
AcDbEntity
  8
TOP
  6
CONTINUOUS
 62
     7
100
AcDbLine
 10
1.78048825263977
 20
5.219257354736328
 30
0.0
 11
1.730488181114196
 21
5.219257354736328
 31
0.0
  0
LINE
  5
509
330
23
100
AcDbEntity
  8
TOP
  6
CONTINUOUS
 62
     7
100
AcDbLine
 10
8.713988304138181
 20
3.849539041519165
 30
0.0
 11
8.716760635375976
 21
3.8580904006958
 31
0.0
  0
LINE
  5
50A
330
23
100
AcDbEntity
  8
TOP
  6
CONTINUOUS
 62
     7
100
AcDbLine
 10
7.685595989227295
 20
3.636115550994873
 30
0.0
 11
7.695662021636962
 21
3.5942702293396
 31
0.0
  0
LINE
  5
50B
330
23
100
AcDbEntity
  8
TOP
  6
CONTINUOUS
 62
     7
100
AcDbLine
 10
1.2744882106781
 20
6.486809730529785
 30
0.0
 11
1.2744882106781
 21
6.4917573928833
 31
0.0
  0
LINE
  5
50C
330
23
100
AcDbEntity
  8
TOP
  6
CONTINUOUS
 62
     7
100
AcDbLine
 10
7.799386978149414
 20
4.037050724029541
 30
0.0
 11
7.79505443572998
 21
4.04648208618164
 31
0.0
  0
LINE
  5
50D
330
23
100
AcDbEntity
  8
TOP
  6
CONTINUOUS
 62
     7
100
AcDbLine
 10
5.824837207794189
 20
5.776757717132568
 30
0.0
 11
5.824837207794189
 21
5.829437255859375
 31
0.0
  0
LINE
  5
50E
330
23
100
AcDbEntity
  8
TOP
  6
CONTINUOUS
 62
     7
100
AcDbLine
 10
1.278488278388977
 20
6.416757583618164
 30
0.0
 11
1.2744882106781
 21
6.416757583618164
 31
0.0
  0
LINE
  5
50F
330
23
100
AcDbEntity
  8
TOP
  6
CONTINUOUS
 62
     7
100
AcDbLine
 10
8.176525115966798
 20
4.414900779724121
 30
0.0
 11
8.374303817749021
 21
4.475328445434569
 31
0.0
  0
LINE
  5
510
330
23
100
AcDbEntity
  8
TOP
  6
CONTINUOUS
 62
     7
100
AcDbLine
 10
8.051443099975587
 20
3.533064365386962
 30
0.0
 11
8.108861923217773
 21
3.551657199859619
 31
0.0
  0
LINE
  5
511
330
23
100
AcDbEntity
  8
TOP
  6
CONTINUOUS
 62
     7
100
AcDbLine
 10
2.786450147628784
 20
7.304257392883299
 30
0.0
 11
2.765362739562988
 21
7.304257392883299
 31
0.0
  0
LINE
  5
512
330
23
100
AcDbEntity
  8
TOP
  6
CONTINUOUS
 62
     7
100
AcDbLine
 10
6.520862102508544
 20
5.128257751464843
 30
0.0
 11
6.520862102508544
 21
5.090506076812744
 31
0.0
  0
LINE
  5
513
330
23
100
AcDbEntity
  8
TOP
  6
CONTINUOUS
 62
     7
100
AcDbLine
 10
9.326276779174802
 20
3.374736785888671
 30
0.0
 11
9.639233589172365
 21
3.470355033874512
 31
0.0
  0
LINE
  5
514
330
23
100
AcDbEntity
  8
TOP
  6
CONTINUOUS
 62
     7
100
AcDbLine
 10
1.714236140251159
 20
5.798627853393554
 30
0.0
 11
1.713923692703247
 21
5.798331260681152
 31
0.0
  0
LINE
  5
515
330
23
100
AcDbEntity
  8
TOP
  6
CONTINUOUS
 62
     7
100
AcDbLine
 10
9.681222915649414
 20
3.961336135864257
 30
0.0
 11
9.666098594665527
 21
3.9518723487854
 31
0.0
  0
LINE
  5
516
330
23
100
AcDbEntity
  8
TOP
  6
CONTINUOUS
 62
     7
100
AcDbLine
 10
8.182254791259765
 20
3.480531930923461
 30
0.0
 11
8.126127243041992
 21
3.530386447906494
 31
0.0
  0
LINE
  5
517
330
23
100
AcDbEntity
  8
TOP
  6
CONTINUOUS
 62
     7
100
AcDbLine
 10
1.805488228797912
 20
7.320257663726806
 30
0.0
 11
1.810436010360717
 21
7.320257663726806
 31
0.0
  0
LINE
  5
518
330
23
100
AcDbEntity
  8
TOP
  6
CONTINUOUS
 62
     7
100
AcDbLine
 10
8.150557518005371
 20
4.119276046752929
 30
0.0
 11
8.157252311706542
 21
4.120259761810303
 31
0.0
  0
LINE
  5
519
330
23
100
AcDbEntity
  8
TOP
  6
CONTINUOUS
 62
     7
100
AcDbLine
 10
6.528861999511719
 20
7.230257511138916
 30
0.0
 11
6.528861999511719
 21
7.297865390777588
 31
0.0
  0
LINE
  5
51A
330
23
100
AcDbEntity
  8
TOP
  6
CONTINUOUS
 62
     7
100
AcDbLine
 10
5.216488361358642
 20
7.89477252960205
 30
0.0
 11
5.284095764160156
 21
7.89477252960205
 31
0.0
  0
LINE
  5
51B
330
23
100
AcDbEntity
  8
TOP
  6
CONTINUOUS
 62
     7
100
AcDbLine
 10
10.11976242065429
 20
3.765209674835204
 30
0.0
 11
10.1245412826538
 21
3.772892951965332
 31
0.0
  0
LINE
  5
51C
330
23
100
AcDbEntity
  8
TOP
  6
CONTINUOUS
 62
     7
100
AcDbLine
 10
5.290488243103027
 20
4.041075706481933
 30
0.0
 11
5.290488243103027
 21
4.065950393676757
 31
0.0
  0
LINE
  5
51D
330
23
100
AcDbEntity
  8
TOP
  6
CONTINUOUS
 62
     7
100
AcDbLine
 10
9.369427680969238
 20
4.576869964599609
 30
0.0
 11
9.360416412353517
 21
4.594257354736328
 31
0.0
  0
LINE
  5
51E
330
23
100
AcDbEntity
  8
TOP
  6
CONTINUOUS
 62
     7
100
AcDbLine
 10
4.775488376617431
 20
7.299864292144774
 30
0.0
 11
4.775488376617431
 21
7.304257392883299
 31
0.0
  0
LINE
  5
51F
330
23
100
AcDbEntity
  8
TOP
  6
CONTINUOUS
 62
     7
100
AcDbLine
 10
9.03809642791748
 20
3.945106744766235
 30
0.0
 11
9.0528564453125
 21
3.949431657791137
 31
0.0
  0
LINE
  5
520
330
23
100
AcDbEntity
  8
TOP
  6
CONTINUOUS
 62
     7
100
AcDbLine
 10
6.516843318939208
 20
3.320075750350952
 30
0.0
 11
6.516843318939208
 21
3.274860382080078
 31
0.0
  0
LINE
  5
521
330
23
100
AcDbEntity
  8
TOP
  6
CONTINUOUS
 62
     7
100
AcDbLine
 10
5.804025650024414
 20
3.76607584953308
 30
0.0
 11
5.804025650024414
 21
3.743252754211425
 31
0.0
  0
LINE
  5
522
330
23
100
AcDbEntity
  8
TOP
  6
CONTINUOUS
 62
     7
100
AcDbLine
 10
5.337988376617431
 20
3.23007583618164
 30
0.0
 11
5.947025299072265
 21
3.23007583618164
 31
0.0
  0
LINE
  5
523
330
23
100
AcDbEntity
  8
TOP
  6
CONTINUOUS
 62
     7
100
AcDbLine
 10
1.364488244056701
 20
7.910772800445554
 30
0.0
 11
1.356593370437622
 21
7.910772800445554
 31
0.0
  0
LINE
  5
524
330
23
100
AcDbEntity
  8
TOP
  6
CONTINUOUS
 62
     7
100
AcDbLine
 10
5.12548828125
 20
5.344257354736328
 30
0.0
 11
5.12548828125
 21
5.294257640838623
 31
0.0
  0
LINE
  5
525
330
23
100
AcDbEntity
  8
TOP
  6
CONTINUOUS
 62
     7
100
AcDbLine
 10
4.837988376617431
 20
7.320257663726806
 30
0.0
 11
6.659862041473388
 21
7.320257663726806
 31
0.0
  0
LINE
  5
526
330
23
100
AcDbEntity
  8
TOP
  6
CONTINUOUS
 62
     7
100
AcDbLine
 10
8.59658145904541
 20
3.681252717971801
 30
0.0
 11
8.59658145904541
 21
3.672910928726195
 31
0.0
  0
LINE
  5
527
330
23
100
AcDbEntity
  8
TOP
  6
CONTINUOUS
 62
     7
100
AcDbLine
 10
10.19580841064453
 20
4.172465324401856
 30
0.0
 11
10.22744464874267
 21
4.180827617645263
 31
0.0
  0
LINE
  5
528
330
23
100
AcDbEntity
  8
TOP
  6
CONTINUOUS
 62
     7
100
AcDbLine
 10
1.845613837242126
 20
5.0542573928833
 30
0.0
 11
1.870488286018371
 21
5.0542573928833
 31
0.0
  0
LINE
  5
52A
330
23
100
AcDbEntity
  8
TOP
  6
CONTINUOUS
 62
     7
100
AcDbLine
 10
6.524843215942382
 20
4.016075611114501
 30
0.0
 11
6.524843215942382
 21
4.091147422790527
 31
0.0
  0
LINE
  5
52B
330
23
100
AcDbEntity
  8
TOP
  6
CONTINUOUS
 62
     7
100
AcDbLine
 10
5.812025547027587
 20
3.14007568359375
 30
0.0
 11
5.812025547027587
 21
3.192755222320556
 31
0.0
  0
LINE
  5
52C
330
23
100
AcDbEntity
  8
TOP
  6
CONTINUOUS
 62
     7
100
AcDbLine
 10
7.585201263427734
 20
7.260260105133055
 30
0.0
 11
10.67520141601562
 21
7.260260105133055
 31
0.0
  0
LINE
  5
52D
330
23
100
AcDbEntity
  8
TOP
  6
CONTINUOUS
 62
     7
100
AcDbLine
 10
1.930488228797912
 20
5.719257354736328
 30
0.0
 11
1.955488204956054
 21
5.719257354736328
 31
0.0
  0
LINE
  5
52F
330
23
100
AcDbEntity
  8
TOP
  6
CONTINUOUS
 62
     7
100
AcDbLine
 10
7.727335929870604
 20
3.516463756561279
 30
0.0
 11
7.756015300750732
 21
3.490953922271728
 31
0.0
  0
LINE
  5
530
330
23
100
AcDbEntity
  8
TOP
  6
CONTINUOUS
 62
     7
100
AcDbLine
 10
2.805488348007202
 20
7.320257663726806
 30
0.0
 11
2.805488348007202
 21
7.304257392883299
 31
0.0
  0
LINE
  5
531
330
23
100
AcDbEntity
  8
TOP
  6
CONTINUOUS
 62
     7
100
AcDbLine
 10
9.031661987304687
 20
4.52552318572998
 30
0.0
 11
9.029895782470703
 21
4.516709804534912
 31
0.0
  0
LINE
  5
532
330
23
100
AcDbEntity
  8
TOP
  6
CONTINUOUS
 62
     7
100
AcDbLine
 10
2.201100349426269
 20
4.175887584686279
 30
0.0
 11
2.197470903396606
 21
4.168876647949218
 31
0.0
  0
LINE
  5
533
330
23
100
AcDbEntity
  8
TOP
  6
CONTINUOUS
 62
     7
100
AcDbLine
 10
5.842837333679199
 20
5.776757717132568
 30
0.0
 11
5.842837333679199
 21
5.836901187896728
 31
0.0
  0
LINE
  5
534
330
23
100
AcDbEntity
  8
TOP
  6
CONTINUOUS
 62
     7
100
AcDbLine
 10
1.955488204956054
 20
5.219257354736328
 30
0.0
 11
1.930488228797912
 21
5.219257354736328
 31
0.0
  0
LINE
  5
535
330
23
100
AcDbEntity
  8
TOP
  6
CONTINUOUS
 62
     7
100
AcDbLine
 10
8.515627861022949
 20
3.664156436920166
 30
0.0
 11
8.595459938049314
 21
3.688886404037476
 31
0.0
  0
LINE
  5
536
330
23
100
AcDbEntity
  8
TOP
  6
CONTINUOUS
 62
     7
100
AcDbLine
 10
5.306488037109375
 20
6.472719669342041
 30
0.0
 11
5.306488037109375
 21
6.451632022857666
 31
0.0
  0
LINE
  5
537
330
23
100
AcDbEntity
  8
TOP
  6
CONTINUOUS
 62
     7
100
AcDbLine
 10
5.337988376617431
 20
3.23007583618164
 30
0.0
 11
6.653843402862548
 21
3.23007583618164
 31
0.0
  0
LINE
  5
538
330
23
100
AcDbEntity
  8
TOP
  6
CONTINUOUS
 62
     7
100
AcDbLine
 10
8.437168121337888
 20
3.758522033691406
 30
0.0
 11
8.449291229248048
 21
3.756065130233764
 31
0.0
  0
LINE
  5
539
330
23
100
AcDbEntity
  8
TOP
  6
CONTINUOUS
 62
     7
100
AcDbLine
 10
5.834837436676025
 20
6.581757545471192
 30
0.0
 11
5.834837436676025
 21
6.4917573928833
 31
0.0
  0
LINE
  5
53A
330
23
100
AcDbEntity
  8
TOP
  6
CONTINUOUS
 62
     7
100
AcDbLine
 10
3.540488243103027
 20
3.276075839996337
 30
0.0
 11
3.540488243103027
 21
3.261075735092163
 31
0.0
  0
LINE
  5
53B
330
23
100
AcDbEntity
  8
TOP
  6
CONTINUOUS
 62
     7
100
AcDbLine
 10
5.554805755615233
 20
6.00799560546875
 30
0.0
 11
5.599805831909179
 21
6.00799560546875
 31
0.0
  0
LINE
  5
53C
330
23
100
AcDbEntity
  8
TOP
  6
CONTINUOUS
 62
     7
100
AcDbLine
 10
8.186239242553712
 20
3.485017776489257
 30
0.0
 11
8.124531745910642
 21
3.53982925415039
 31
0.0
  0
LINE
  5
53D
330
23
100
AcDbEntity
  8
TOP
  6
CONTINUOUS
 62
     7
100
AcDbLine
 10
3.735362768173217
 20
7.320257663726806
 30
0.0
 11
3.756450176239013
 21
7.320257663726806
 31
0.0
  0
LINE
  5
53E
330
23
100
AcDbEntity
  8
TOP
  6
CONTINUOUS
 62
     7
100
AcDbLine
 10
6.538861751556396
 20
7.230257511138916
 30
0.0
 11
6.538861751556396
 21
7.30532932281494
 31
0.0
  0
LINE
  5
540
330
23
100
AcDbEntity
  8
TOP
  6
CONTINUOUS
 62
     7
100
AcDbLine
 10
1.290488243103027
 20
4.087037563323975
 30
0.0
 11
1.290488243103027
 21
4.065950393676757
 31
0.0
  0
LINE
  5
541
330
23
100
AcDbEntity
  8
TOP
  6
CONTINUOUS
 62
     7
100
AcDbLine
 10
5.836025714874267
 20
3.76607584953308
 30
0.0
 11
5.836025714874267
 21
3.72832441329956
 31
0.0
  0
LINE
  5
542
330
23
100
AcDbEntity
  8
TOP
  6
CONTINUOUS
 62
     7
100
AcDbLine
 10
10.10237979888916
 20
4.262497425079345
 30
0.0
 11
10.1157112121582
 21
4.266376495361328
 31
0.0
  0
LINE
  5
543
330
23
100
AcDbEntity
  8
TOP
  6
CONTINUOUS
 62
     7
100
AcDbLine
 10
5.258741378784179
 20
3.246075868606567
 30
0.0
 11
5.271228790283203
 21
3.246075868606567
 31
0.0
  0
LINE
  5
544
330
23
100
AcDbEntity
  8
TOP
  6
CONTINUOUS
 62
     7
100
AcDbLine
 10
5.216488361358642
 20
7.912772655487058
 30
0.0
 11
5.2169189453125
 21
7.912772655487058
 31
0.0
  0
LINE
  5
545
330
23
100
AcDbEntity
  8
TOP
  6
CONTINUOUS
 62
     7
100
AcDbLine
 10
1.322235107421875
 20
3.246075868606567
 30
0.0
 11
1.342099905014038
 21
3.246075868606567
 31
0.0
  0
LINE
  5
546
330
23
100
AcDbEntity
  8
TOP
  6
CONTINUOUS
 62
     7
100
AcDbLine
 10
10.38354873657226
 20
4.71959638595581
 30
0.0
 11
10.39285564422607
 21
4.722440242767333
 31
0.0
  0
LINE
  5
547
330
23
100
AcDbEntity
  8
TOP
  6
CONTINUOUS
 62
     7
100
AcDbLine
 10
3.780436038970947
 20
5.0542573928833
 30
0.0
 11
3.794526338577271
 21
5.0542573928833
 31
0.0
  0
LINE
  5
549
330
23
100
AcDbEntity
  8
TOP
  6
CONTINUOUS
 62
     7
100
AcDbLine
 10
6.530843257904052
 20
4.016075611114501
 30
0.0
 11
6.530843257904052
 21
4.098611831665039
 31
0.0
  0
LINE
  5
54A
330
23
100
AcDbEntity
  8
TOP
  6
CONTINUOUS
 62
     7
100
AcDbLine
 10
5.830025672912597
 20
3.14007568359375
 30
0.0
 11
5.830025672912597
 21
3.200219392776489
 31
0.0
  0
LINE
  5
54B
330
23
100
AcDbEntity
  8
TOP
  6
CONTINUOUS
 62
     7
100
AcDbLine
 10
7.585201263427734
 20
7.260260105133055
 30
0.0
 11
7.585201263427734
 21
7.88476037979126
 31
0.0
  0
LINE
  5
54C
330
23
100
AcDbEntity
  8
TOP
  6
CONTINUOUS
 62
     7
100
AcDbLine
 10
1.955488204956054
 20
6.964257717132568
 30
0.0
 11
1.955488204956054
 21
6.914257526397705
 31
0.0
  0
LINE
  5
54D
330
23
100
AcDbEntity
  8
TOP
  6
CONTINUOUS
 62
     7
100
AcDbLine
 10
10.67520141601562
 20
7.260260105133055
 30
0.0
 11
10.67520141601562
 21
7.88476037979126
 31
0.0
  0
LINE
  5
54E
330
23
100
AcDbEntity
  8
TOP
  6
CONTINUOUS
 62
     7
100
AcDbLine
 10
9.910524368286131
 20
4.106211185455321
 30
0.0
 11
9.907751083374023
 21
4.097659587860107
 31
0.0
  0
LINE
  5
54F
330
23
100
AcDbEntity
  8
TOP
  6
CONTINUOUS
 62
     7
100
AcDbLine
 10
8.310794830322265
 20
3.596226692199707
 30
0.0
 11
8.335515022277832
 21
3.60389232635498
 31
0.0
  0
LINE
  5
550
330
23
100
AcDbEntity
  8
TOP
  6
CONTINUOUS
 62
     7
100
AcDbLine
 10
3.780436038970947
 20
5.038257598876953
 30
0.0
 11
3.775488138198852
 21
5.038257598876953
 31
0.0
  0
LINE
  5
551
330
23
100
AcDbEntity
  8
TOP
  6
CONTINUOUS
 62
     7
100
AcDbLine
 10
9.908501625061036
 20
4.098950862884521
 30
0.0
 11
9.785413742065427
 21
4.155730247497559
 31
0.0
  0
LINE
  5
553
330
23
100
AcDbEntity
  8
TOP
  6
CONTINUOUS
 62
     7
100
AcDbLine
 10
3.040488243103027
 20
3.245575666427612
 30
0.0
 11
3.040488243103027
 21
3.234229087829589
 31
0.0
  0
LINE
  5
554
330
23
100
AcDbEntity
  8
TOP
  6
CONTINUOUS
 62
     7
100
AcDbLine
 10
1.730488181114196
 20
5.719257354736328
 30
0.0
 11
1.78048825263977
 21
5.719257354736328
 31
0.0
  0
LINE
  5
555
330
23
100
AcDbEntity
  8
TOP
  6
CONTINUOUS
 62
     7
100
AcDbLine
 10
9.388369560241699
 20
3.976818084716796
 30
0.0
 11
9.444410324096679
 21
3.990056037902832
 31
0.0
  0
LINE
  5
556
330
23
100
AcDbEntity
  8
TOP
  6
CONTINUOUS
 62
     7
100
AcDbLine
 10
5.290488243103027
 20
5.906883239746093
 30
0.0
 11
5.290488243103027
 21
5.931757450103759
 31
0.0
  0
LINE
  5
557
330
23
100
AcDbEntity
  8
TOP
  6
CONTINUOUS
 62
     7
100
AcDbLine
 10
9.442709922790527
 20
4.077528953552246
 30
0.0
 11
8.987013816833496
 21
4.287738323211669
 31
0.0
  0
LINE
  5
558
330
23
100
AcDbEntity
  8
TOP
  6
CONTINUOUS
 62
     7
100
AcDbLine
 10
5.808025360107421
 20
3.76607584953308
 30
0.0
 11
5.808025360107421
 21
3.72832441329956
 31
0.0
  0
LINE
  5
559
330
23
100
AcDbEntity
  8
TOP
  6
CONTINUOUS
 62
     7
100
AcDbLine
 10
5.834837436676025
 20
5.8667573928833
 30
0.0
 11
5.81072187423706
 21
5.776757717132568
 31
0.0
  0
LINE
  5
55A
330
23
100
AcDbEntity
  8
TOP
  6
CONTINUOUS
 62
     7
100
AcDbLine
 10
4.700488090515136
 20
7.304257392883299
 30
0.0
 11
4.700488090515136
 21
7.308257579803465
 31
0.0
  0
LINE
  5
55B
330
23
100
AcDbEntity
  8
TOP
  6
CONTINUOUS
 62
     7
100
AcDbLine
 10
3.775488138198852
 20
4.041075706481933
 30
0.0
 11
3.775488138198852
 21
3.546075820922852
 31
0.0
  0
LINE
  5
55C
330
23
100
AcDbEntity
  8
TOP
  6
CONTINUOUS
 62
     7
100
AcDbLine
 10
10.30219841003418
 20
4.21496295928955
 30
0.0
 11
10.34098720550537
 21
4.23086929321289
 31
0.0
  0
LINE
  5
55D
330
23
100
AcDbEntity
  8
TOP
  6
CONTINUOUS
 62
     7
100
AcDbLine
 10
3.775488138198852
 20
7.304257392883299
 30
0.0
 11
3.770540475845336
 21
7.304257392883299
 31
0.0
  0
LINE
  5
55F
330
23
100
AcDbEntity
  8
TOP
  6
CONTINUOUS
 62
     7
100
AcDbLine
 10
10.09420871734619
 20
4.260607242584228
 30
0.0
 11
10.10165500640869
 21
4.262882232666015
 31
0.0
  0
LINE
  5
560
330
23
100
AcDbEntity
  8
TOP
  6
CONTINUOUS
 62
     7
100
AcDbLine
 10
1.743152856826782
 20
5.768167495727539
 30
0.0
 11
1.726600646972656
 21
5.752454280853272
 31
0.0
  0
LINE
  5
562
330
23
100
AcDbEntity
  8
TOP
  6
CONTINUOUS
 62
     7
100
AcDbLine
 10
3.040488243103027
 20
7.289257526397705
 30
0.0
 11
3.040488243103027
 21
7.284257411956787
 31
0.0
  0
LINE
  5
563
330
23
100
AcDbEntity
  8
TOP
  6
CONTINUOUS
 62
     7
100
AcDbLine
 10
6.558977603912353
 20
7.230257511138916
 30
0.0
 11
6.534862041473388
 21
7.320257663726806
 31
0.0
  0
LINE
  5
564
330
23
100
AcDbEntity
  8
TOP
  6
CONTINUOUS
 62
     7
100
AcDbLine
 10
7.559374332427977
 20
3.619443893432616
 30
0.0
 11
7.580721378326416
 21
3.587325096130371
 31
0.0
  0
LINE
  5
565
330
23
100
AcDbEntity
  8
TOP
  6
CONTINUOUS
 62
     7
100
AcDbLine
 10
9.743392944335935
 20
4.404362201690673
 30
0.0
 11
9.740095138549804
 21
4.387810230255126
 31
0.0
  0
LINE
  5
566
330
23
100
AcDbEntity
  8
TOP
  6
CONTINUOUS
 62
     7
100
AcDbLine
 10
5.840837001800537
 20
6.581757545471192
 30
0.0
 11
5.840837001800537
 21
6.51414966583252
 31
0.0
  0
LINE
  5
567
330
23
100
AcDbEntity
  8
TOP
  6
CONTINUOUS
 62
     7
100
AcDbLine
 10
5.00048828125
 20
7.139257431030273
 30
0.0
 11
5.050487995147705
 21
7.139257431030273
 31
0.0
  0
LINE
  5
568
330
23
100
AcDbEntity
  8
TOP
  6
CONTINUOUS
 62
     7
100
AcDbLine
 10
9.380171775817872
 20
4.559549808502196
 30
0.0
 11
9.372725486755372
 21
4.557274818420409
 31
0.0
  0
LINE
  5
569
330
23
100
AcDbEntity
  8
TOP
  6
CONTINUOUS
 62
     7
100
AcDbLine
 10
5.216488361358642
 20
7.892772674560546
 30
0.0
 11
5.291560173034667
 21
7.892772674560546
 31
0.0
  0
LINE
  5
56A
330
23
100
AcDbEntity
  8
TOP
  6
CONTINUOUS
 62
     7
100
AcDbLine
 10
8.415371894836425
 20
3.776358842849731
 30
0.0
 11
8.414661407470703
 21
3.770880699157714
 31
0.0
  0
LINE
  5
56B
330
23
100
AcDbEntity
  8
TOP
  6
CONTINUOUS
 62
     7
100
AcDbLine
 10
8.211245536804199
 20
3.68765115737915
 30
0.0
 11
8.226186752319335
 21
3.694432735443115
 31
0.0
  0
LINE
  5
56C
330
23
100
AcDbEntity
  8
TOP
  6
CONTINUOUS
 62
     7
100
AcDbLine
 10
5.150488376617431
 20
3.246075868606567
 30
0.0
 11
4.775488376617431
 21
3.246075868606567
 31
0.0
  0
LINE
  5
56D
330
23
100
AcDbEntity
  8
TOP
  6
CONTINUOUS
 62
     7
100
AcDbLine
 10
3.84250783920288
 20
7.973147869110107
 30
0.0
 11
3.797507762908935
 21
7.973147869110107
 31
0.0
  0
LINE
  5
56F
330
23
100
AcDbEntity
  8
TOP
  6
CONTINUOUS
 62
     7
100
AcDbLine
 10
5.216488361358642
 20
7.880772590637207
 30
0.0
 11
5.276631832122802
 21
7.880772590637207
 31
0.0
  0
LINE
  5
570
330
23
100
AcDbEntity
  8
TOP
  6
CONTINUOUS
 62
     7
100
AcDbLine
 10
8.314915657043457
 20
4.254683017730712
 30
0.0
 11
8.305904388427734
 21
4.272070407867431
 31
0.0
  0
LINE
  5
571
330
23
100
AcDbEntity
  8
TOP
  6
CONTINUOUS
 62
     7
100
AcDbLine
 10
9.200094223022462
 20
3.874038696289063
 30
0.0
 11
9.228528976440429
 21
3.881721735000609
 31
0.0
  0
LINE
  5
572
330
23
100
AcDbEntity
  8
TOP
  6
CONTINUOUS
 62
     7
100
AcDbLine
 10
1.845613837242126
 20
5.038257598876953
 30
0.0
 11
1.824526309967041
 21
5.038257598876953
 31
0.0
  0
LINE
  5
573
330
23
100
AcDbEntity
  8
TOP
  6
CONTINUOUS
 62
     7
100
AcDbLine
 10
6.504843235015869
 20
4.016075611114501
 30
0.0
 11
6.504843235015869
 21
4.016506671905517
 31
0.0
  0
LINE
  5
574
330
23
100
AcDbEntity
  8
TOP
  6
CONTINUOUS
 62
     7
100
AcDbLine
 10
9.026057243347167
 20
4.759047508239745
 30
0.0
 11
9.35555362701416
 21
4.607053279876708
 31
0.0
  0
LINE
  5
577
330
23
100
AcDbEntity
  8
TOP
  6
CONTINUOUS
 62
     7
100
AcDbLine
 10
9.639233589172365
 20
3.470355033874512
 30
0.0
 11
9.647535324096679
 21
3.471574783325195
 31
0.0
  0
LINE
  5
578
330
23
100
AcDbEntity
  8
TOP
  6
CONTINUOUS
 62
     7
100
AcDbLine
 10
8.853239059448242
 20
3.795134305953979
 30
0.0
 11
8.856012344360349
 21
3.784024238586425
 31
0.0
  0
LINE
  5
579
330
23
100
AcDbEntity
  8
TOP
  6
CONTINUOUS
 62
     7
100
AcDbLine
 10
7.761913776397705
 20
3.501360893249512
 30
0.0
 11
7.793778896331787
 21
3.484402656555175
 31
0.0
  0
LINE
  5
57A
330
23
100
AcDbEntity
  8
TOP
  6
CONTINUOUS
 62
     7
100
AcDbLine
 10
1.2744882106781
 20
5.906883239746093
 30
0.0
 11
1.2744882106781
 21
5.931757450103759
 31
0.0
  0
LINE
  5
57C
330
23
100
AcDbEntity
  8
TOP
  6
CONTINUOUS
 62
     7
100
AcDbLine
 10
9.469158172607421
 20
4.083927631378173
 30
0.0
 11
9.469169616699216
 21
4.084327697753905
 31
0.0
  0
LINE
  5
57E
330
23
100
AcDbEntity
  8
TOP
  6
CONTINUOUS
 62
     7
100
AcDbLine
 10
3.184382915496826
 20
7.973147869110107
 30
0.0
 11
3.184382915496826
 21
7.804397583007811
 31
0.0
  0
LINE
  5
57F
330
23
100
AcDbEntity
  8
TOP
  6
CONTINUOUS
 62
     7
100
AcDbLine
 10
4.225488185882568
 20
5.050257682800292
 30
0.0
 11
4.225488185882568
 21
5.0542573928833
 31
0.0
  0
LINE
  5
580
330
23
100
AcDbEntity
  8
TOP
  6
CONTINUOUS
 62
     7
100
AcDbLine
 10
10.08764839172363
 20
4.034335613250732
 30
0.0
 11
10.09042167663574
 21
4.023225784301757
 31
0.0
  0
LINE
  5
581
330
23
100
AcDbEntity
  8
TOP
  6
CONTINUOUS
 62
     7
100
AcDbLine
 10
9.689283370971679
 20
3.734501123428344
 30
0.0
 11
9.697509765625
 21
3.741086721420288
 31
0.0
  0
LINE
  5
582
330
23
100
AcDbEntity
  8
TOP
  6
CONTINUOUS
 62
     7
100
AcDbLine
 10
8.16829776763916
 20
4.436120986938476
 30
0.0
 11
8.176525115966798
 21
4.442706584930419
 31
0.0
  0
LINE
  5
583
330
23
100
AcDbEntity
  8
TOP
  6
CONTINUOUS
 62
     7
100
AcDbLine
 10
8.238045692443845
 20
3.589286088943481
 30
0.0
 11
8.269464492797851
 21
3.597196578979492
 31
0.0
  0
LINE
  5
584
330
23
100
AcDbEntity
  8
TOP
  6
CONTINUOUS
 62
     7
100
AcDbLine
 10
1.845613837242126
 20
7.304257392883299
 30
0.0
 11
1.824526309967041
 21
7.304257392883299
 31
0.0
  0
LINE
  5
585
330
23
100
AcDbEntity
  8
TOP
  6
CONTINUOUS
 62
     7
100
AcDbLine
 10
8.844989776611328
 20
4.353253364562988
 30
0.0
 11
8.822444915771484
 21
4.360257625579833
 31
0.0
  0
LINE
  5
586
330
23
100
AcDbEntity
  8
TOP
  6
CONTINUOUS
 62
     7
100
AcDbLine
 10
9.895289421081542
 20
3.773708820343017
 30
0.0
 11
9.889229774475095
 21
3.776504039764403
 31
0.0
  0
LINE
  5
587
330
23
100
AcDbEntity
  8
TOP
  6
CONTINUOUS
 62
     7
100
AcDbLine
 10
1.719744086265563
 20
5.792825698852539
 30
0.0
 11
1.697778582572936
 21
5.771973133087158
 31
0.0
  0
LINE
  5
588
330
23
100
AcDbEntity
  8
TOP
  6
CONTINUOUS
 62
     7
100
AcDbLine
 10
9.68996524810791
 20
3.715736389160155
 30
0.0
 11
9.691450119018552
 21
3.716076374053955
 31
0.0
  0
LINE
  5
58A
330
23
100
AcDbEntity
  8
TOP
  6
CONTINUOUS
 62
     7
100
AcDbLine
 10
1.870488286018371
 20
7.320257663726806
 30
0.0
 11
2.740488290786743
 21
7.320257663726806
 31
0.0
  0
LINE
  5
58B
330
23
100
AcDbEntity
  8
TOP
  6
CONTINUOUS
 62
     7
100
AcDbLine
 10
6.55886173248291
 20
7.230257511138916
 30
0.0
 11
6.55886173248291
 21
7.230688571929931
 31
0.0
  0
LINE
  5
58C
330
23
100
AcDbEntity
  8
TOP
  6
CONTINUOUS
 62
     7
100
AcDbLine
 10
9.651093482971191
 20
3.995097875595092
 30
0.0
 11
9.649048805236816
 21
3.988574504852295
 31
0.0
  0
LINE
  5
58D
330
23
100
AcDbEntity
  8
TOP
  6
CONTINUOUS
 62
     7
100
AcDbLine
 10
9.033886909484863
 20
3.69377851486206
 30
0.0
 11
8.910799026489257
 21
3.750557899475097
 31
0.0
  0
LINE
  5
58E
330
23
100
AcDbEntity
  8
TOP
  6
CONTINUOUS
 62
     7
100
AcDbLine
 10
5.290488243103027
 20
4.106075763702392
 30
0.0
 11
5.306488037109375
 21
4.106075763702392
 31
0.0
  0
LINE
  5
58F
330
23
100
AcDbEntity
  8
TOP
  6
CONTINUOUS
 62
     7
100
AcDbLine
 10
9.006302833557128
 20
4.757607460021972
 30
0.0
 11
8.99729251861572
 21
4.748533248901367
 31
0.0
  0
LINE
  5
590
330
23
100
AcDbEntity
  8
TOP
  6
CONTINUOUS
 62
     7
100
AcDbLine
 10
1.805488228797912
 20
5.058650970458984
 30
0.0
 11
1.805488228797912
 21
5.0542573928833
 31
0.0
  0
LINE
  5
591
330
23
100
AcDbEntity
  8
TOP
  6
CONTINUOUS
 62
     7
100
AcDbLine
 10
8.896658897399902
 20
3.775104999542235
 30
0.0
 11
8.903353691101074
 21
3.776088714599609
 31
0.0
  0
LINE
  5
592
330
23
100
AcDbEntity
  8
TOP
  6
CONTINUOUS
 62
     7
100
AcDbLine
 10
9.124041557312013
 20
3.975640296936035
 30
0.0
 11
9.157211303710935
 21
3.996953010559082
 31
0.0
  0
LINE
  5
593
330
23
100
AcDbEntity
  8
TOP
  6
CONTINUOUS
 62
     7
100
AcDbLine
 10
6.524843215942382
 20
3.320075750350952
 30
0.0
 11
6.524843215942382
 21
3.245003938674926
 31
0.0
  0
LINE
  5
594
330
23
100
AcDbEntity
  8
TOP
  6
CONTINUOUS
 62
     7
100
AcDbLine
 10
3.510488271713256
 20
3.246075868606567
 30
0.0
 11
3.525488138198852
 21
3.246075868606567
 31
0.0
  0
LINE
  5
595
330
23
100
AcDbEntity
  8
TOP
  6
CONTINUOUS
 62
     7
100
AcDbLine
 10
1.364488244056701
 20
7.902772903442383
 30
0.0
 11
1.32673692703247
 21
7.902772903442383
 31
0.0
  0
LINE
  5
596
330
23
100
AcDbEntity
  8
TOP
  6
CONTINUOUS
 62
     7
100
AcDbLine
 10
4.800487995147705
 20
5.719257354736328
 30
0.0
 11
4.850488185882568
 21
5.719257354736328
 31
0.0
  0
LINE
  5
597
330
23
100
AcDbEntity
  8
TOP
  6
CONTINUOUS
 62
     7
100
AcDbLine
 10
2.800540447235107
 20
5.0542573928833
 30
0.0
 11
2.805488348007202
 21
5.0542573928833
 31
0.0
  0
LINE
  5
598
330
23
100
AcDbEntity
  8
TOP
  6
CONTINUOUS
 62
     7
100
AcDbLine
 10
6.55284309387207
 20
4.016075611114501
 30
0.0
 11
6.55284309387207
 21
4.016506671905517
 31
0.0
  0
LINE
  5
59B
330
23
100
AcDbEntity
  8
TOP
  6
CONTINUOUS
 62
     7
100
AcDbLine
 10
7.977355480194092
 20
4.175439357757568
 30
0.0
 11
7.970660209655761
 21
4.182600021362304
 31
0.0
  0
LINE
  5
59C
330
23
100
AcDbEntity
  8
TOP
  6
CONTINUOUS
 62
     7
100
AcDbLine
 10
9.341547966003417
 20
4.378506660461425
 30
0.0
 11
9.34432029724121
 21
4.367396831512451
 31
0.0
  0
LINE
  5
59D
330
23
100
AcDbEntity
  8
TOP
  6
CONTINUOUS
 62
     7
100
AcDbLine
 10
7.865175724029541
 20
3.463477134704589
 30
0.0
 11
7.905580043792722
 21
3.471597909927368
 31
0.0
  0
LINE
  5
59E
330
23
100
AcDbEntity
  8
TOP
  6
CONTINUOUS
 62
     7
100
AcDbLine
 10
9.342298507690429
 20
4.360136508941649
 30
0.0
 11
9.342400550842285
 21
4.360089778900146
 31
0.0
  0
LINE
  5
59F
330
23
100
AcDbEntity
  8
TOP
  6
CONTINUOUS
 62
     7
100
AcDbLine
 10
2.193995714187622
 20
4.1795654296875
 30
0.0
 11
2.17664074897766
 21
4.146039962768554
 31
0.0
  0
LINE
  5
5A0
330
23
100
AcDbEntity
  8
TOP
  6
CONTINUOUS
 62
     7
100
AcDbLine
 10
5.834837436676025
 20
5.776757717132568
 30
0.0
 11
5.834837436676025
 21
5.8667573928833
 31
0.0
  0
LINE
  5
5A1
330
23
100
AcDbEntity
  8
TOP
  6
CONTINUOUS
 62
     7
100
AcDbLine
 10
1.580488204956054
 20
5.219257354736328
 30
0.0
 11
1.53048825263977
 21
5.219257354736328
 31
0.0
  0
LINE
  5
5A2
330
23
100
AcDbEntity
  8
TOP
  6
CONTINUOUS
 62
     7
100
AcDbLine
 10
9.740095138549804
 20
4.112534046173095
 30
0.0
 11
9.736797332763673
 21
4.095981597900391
 31
0.0
  0
LINE
  5
5A3
330
23
100
AcDbEntity
  8
TOP
  6
CONTINUOUS
 62
     7
100
AcDbLine
 10
9.073804855346679
 20
3.454149961471557
 30
0.0
 11
9.071760177612304
 21
3.459423780441284
 31
0.0
  0
LINE
  5
5A4
330
23
100
AcDbEntity
  8
TOP
  6
CONTINUOUS
 62
     7
100
AcDbLine
 10
9.091084480285644
 20
3.854962348937987
 30
0.0
 11
9.125323295593259
 21
3.862594842910766
 31
0.0
  0
LINE
  5
5A5
330
23
100
AcDbEntity
  8
TOP
  6
CONTINUOUS
 62
     7
100
AcDbLine
 10
5.306488037109375
 20
5.906883239746093
 30
0.0
 11
5.306488037109375
 21
5.885795593261719
 31
0.0
  0
LINE
  5
5A6
330
23
100
AcDbEntity
  8
TOP
  6
CONTINUOUS
 62
     7
100
AcDbLine
 10
5.820025444030761
 20
3.14007568359375
 30
0.0
 11
5.820025444030761
 21
3.222611665725708
 31
0.0
  0
LINE
  5
5A7
330
23
100
AcDbEntity
  8
TOP
  6
CONTINUOUS
 62
     7
100
AcDbLine
 10
9.271278381347656
 20
3.377463579177856
 30
0.0
 11
9.300412178039552
 21
3.378495693206787
 31
0.0
  0
LINE
  5
5A8
330
23
100
AcDbEntity
  8
TOP
  6
CONTINUOUS
 62
     7
100
AcDbLine
 10
6.530843257904052
 20
3.320075750350952
 30
0.0
 11
6.530843257904052
 21
3.237539768218994
 31
0.0
  0
LINE
  5
5A9
330
23
100
AcDbEntity
  8
TOP
  6
CONTINUOUS
 62
     7
100
AcDbLine
 10
1.430488228797912
 20
3.23007583618164
 30
0.0
 11
1.805488228797912
 21
3.23007583618164
 31
0.0
  0
LINE
  5
5AB
330
23
100
AcDbEntity
  8
TOP
  6
CONTINUOUS
 62
     7
100
AcDbLine
 10
2.255488157272338
 20
7.316257476806639
 30
0.0
 11
2.255488157272338
 21
7.320257663726806
 31
0.0
  0
LINE
  5
5AC
330
23
100
AcDbEntity
  8
TOP
  6
CONTINUOUS
 62
     7
100
AcDbLine
 10
5.368988037109375
 20
6.4917573928833
 30
0.0
 11
5.959837436676025
 21
6.4917573928833
 31
0.0
  0
LINE
  5
5AD
330
23
100
AcDbEntity
  8
TOP
  6
CONTINUOUS
 62
     7
100
AcDbLine
 10
9.927912712097167
 20
4.030982971191406
 30
0.0
 11
9.92185306549072
 21
4.033778190612792
 31
0.0
  0
LINE
  5
5AE
330
23
100
AcDbEntity
  8
TOP
  6
CONTINUOUS
 62
     7
100
AcDbLine
 10
3.780436038970947
 20
7.320257663726806
 30
0.0
 11
3.794526338577271
 21
7.320257663726806
 31
0.0
  0
LINE
  5
5AF
330
23
100
AcDbEntity
  8
TOP
  6
CONTINUOUS
 62
     7
100
AcDbLine
 10
6.558977603912353
 20
5.128257751464843
 30
0.0
 11
6.510746479034423
 21
5.128257751464843
 31
0.0
  0
LINE
  5
5B0
330
23
100
AcDbEntity
  8
TOP
  6
CONTINUOUS
 62
     7
100
AcDbLine
 10
8.293596267700195
 20
4.282591342926025
 30
0.0
 11
8.301041603088378
 21
4.284866333007812
 31
0.0
  0
LINE
  5
5B1
330
23
100
AcDbEntity
  8
TOP
  6
CONTINUOUS
 62
     7
100
AcDbLine
 10
4.775488376617431
 20
3.234229087829589
 30
0.0
 11
4.775488376617431
 21
3.245575666427612
 31
0.0
  0
LINE
  5
5B3
330
23
100
AcDbEntity
  8
TOP
  6
CONTINUOUS
 62
     7
100
AcDbLine
 10
9.65097427368164
 20
3.482178688049316
 30
0.0
 11
9.644914627075197
 21
3.484973907470703
 31
0.0
  0
LINE
  5
5B4
330
23
100
AcDbEntity
  8
TOP
  6
CONTINUOUS
 62
     7
100
AcDbLine
 10
3.040488243103027
 20
5.074257373809815
 30
0.0
 11
3.040488243103027
 21
5.069257736206055
 31
0.0
  0
LINE
  5
5B6
330
23
100
AcDbEntity
  8
TOP
  6
CONTINUOUS
 62
     7
100
AcDbLine
 10
10.236572265625
 20
4.319918155670166
 30
0.0
 11
10.27186107635498
 21
4.350364208221436
 31
0.0
  0
LINE
  5
5B7
330
23
100
AcDbEntity
  8
TOP
  6
CONTINUOUS
 62
     7
100
AcDbLine
 10
4.775488376617431
 20
3.23007583618164
 30
0.0
 11
3.540488243103027
 21
3.23007583618164
 31
0.0
  0
LINE
  5
5B8
330
23
100
AcDbEntity
  8
TOP
  6
CONTINUOUS
 62
     7
100
AcDbLine
 10
5.858837127685545
 20
5.776757717132568
 30
0.0
 11
5.858837127685545
 21
5.777188301086425
 31
0.0
  0
LINE
  5
5B9
330
23
100
AcDbEntity
  8
TOP
  6
CONTINUOUS
 62
     7
100
AcDbLine
 10
10.08764839172363
 20
4.014674186706542
 30
0.0
 11
10.08095359802246
 21
4.013690471649169
 31
0.0
  0
LINE
  5
5BA
330
23
100
AcDbEntity
  8
TOP
  6
CONTINUOUS
 62
     7
100
AcDbLine
 10
9.380171775817872
 20
4.559549808502196
 30
0.0
 11
9.380171775817872
 21
4.284274101257324
 31
0.0
  0
LINE
  5
5BB
330
23
100
AcDbEntity
  8
TOP
  6
CONTINUOUS
 62
     7
100
AcDbLine
 10
4.650488376617431
 20
6.639257431030273
 30
0.0
 11
4.62548828125
 21
6.639257431030273
 31
0.0
  0
LINE
  5
5BC
330
23
100
AcDbEntity
  8
TOP
  6
CONTINUOUS
 62
     7
100
AcDbLine
 10
7.977149963378905
 20
4.203336238861083
 30
0.0
 11
7.975383758544922
 21
4.194522857666015
 31
0.0
  0
LINE
  5
5BD
330
23
100
AcDbEntity
  8
TOP
  6
CONTINUOUS
 62
     7
100
AcDbLine
 10
3.775488138198852
 20
5.038257598876953
 30
0.0
 11
3.775488138198852
 21
5.0542573928833
 31
0.0
  0
LINE
  5
5BE
330
23
100
AcDbEntity
  8
TOP
  6
CONTINUOUS
 62
     7
100
AcDbLine
 10
6.504727840423583
 20
3.320075750350952
 30
0.0
 11
6.528843402862548
 21
3.23007583618164
 31
0.0
  0
LINE
  5
5BF
330
23
100
AcDbEntity
  8
TOP
  6
CONTINUOUS
 62
     7
100
AcDbLine
 10
5.822025299072265
 20
3.14007568359375
 30
0.0
 11
5.822025299072265
 21
3.23007583618164
 31
0.0
  0
LINE
  5
5C1
330
23
100
AcDbEntity
  8
TOP
  6
CONTINUOUS
 62
     7
100
AcDbLine
 10
5.216488361358642
 20
7.890772819519042
 30
0.0
 11
5.299024105072021
 21
7.890772819519042
 31
0.0
  0
LINE
  5
5C3
330
23
100
AcDbEntity
  8
TOP
  6
CONTINUOUS
 62
     7
100
AcDbLine
 10
8.688880920410156
 20
4.082175254821776
 30
0.0
 11
8.685583114624021
 21
4.065623283386231
 31
0.0
  0
LINE
  5
5C4
330
23
100
AcDbEntity
  8
TOP
  6
CONTINUOUS
 62
     7
100
AcDbLine
 10
8.384426116943357
 20
3.624550342559815
 30
0.0
 11
8.402418136596677
 21
3.630162715911864
 31
0.0
  0
LINE
  5
5C5
330
23
100
AcDbEntity
  8
TOP
  6
CONTINUOUS
 62
     7
100
AcDbLine
 10
3.735362768173217
 20
5.038257598876953
 30
0.0
 11
3.710488319396972
 21
5.038257598876953
 31
0.0
  0
LINE
  5
5C6
330
23
100
AcDbEntity
  8
TOP
  6
CONTINUOUS
 62
     7
100
AcDbLine
 10
2.170906066894531
 20
4.191518306732177
 30
0.0
 11
2.15011978149414
 21
4.151363849639892
 31
0.0
  0
LINE
  5
5C8
330
23
100
AcDbEntity
  8
TOP
  6
CONTINUOUS
 62
     7
100
AcDbLine
 10
1.455488204956054
 20
5.294257640838623
 30
0.0
 11
1.455488204956054
 21
5.344257354736328
 31
0.0
  0
LINE
  5
5C9
330
23
100
AcDbEntity
  8
TOP
  6
CONTINUOUS
 62
     7
100
AcDbLine
 10
9.461727142333984
 20
4.090792655944824
 30
0.0
 11
9.461727142333984
 21
4.082450866699218
 31
0.0
  0
LINE
  5
5CA
330
23
100
AcDbEntity
  8
TOP
  6
CONTINUOUS
 62
     7
100
AcDbLine
 10
9.026441574096679
 20
3.719309329986571
 30
0.0
 11
9.033136367797853
 21
3.712148904800415
 31
0.0
  0
LINE
  5
5CB
330
23
100
AcDbEntity
  8
TOP
  6
CONTINUOUS
 62
     7
100
AcDbLine
 10
9.903064727783203
 20
4.101552963256835
 30
0.0
 11
9.910228729248048
 21
4.104191780090332
 31
0.0
  0
LINE
  5
5CC
330
23
100
AcDbEntity
  8
TOP
  6
CONTINUOUS
 62
     7
100
AcDbLine
 10
1.294881582260131
 20
6.4917573928833
 30
0.0
 11
1.290488243103027
 21
6.4917573928833
 31
0.0
  0
LINE
  5
5CD
330
23
100
AcDbEntity
  8
TOP
  6
CONTINUOUS
 62
     7
100
AcDbLine
 10
9.300412178039552
 20
3.369597911834716
 30
0.0
 11
9.271278381347656
 21
3.368565797805786
 31
0.0
  0
LINE
  5
5CE
330
23
100
AcDbEntity
  8
TOP
  6
CONTINUOUS
 62
     7
100
AcDbLine
 10
5.816025257110595
 20
3.76607584953308
 30
0.0
 11
5.816025257110595
 21
3.698467969894408
 31
0.0
  0
LINE
  5
5CF
330
23
100
AcDbEntity
  8
TOP
  6
CONTINUOUS
 62
     7
100
AcDbLine
 10
5.810837268829345
 20
5.776757717132568
 30
0.0
 11
5.810837268829345
 21
5.777188301086425
 31
0.0
  0
LINE
  5
5D0
330
23
100
AcDbEntity
  8
TOP
  6
CONTINUOUS
 62
     7
100
AcDbLine
 10
5.306488037109375
 20
6.416757583618164
 30
0.0
 11
5.302488327026367
 21
6.416757583618164
 31
0.0
  0
LINE
  5
5D1
330
23
100
AcDbEntity
  8
TOP
  6
CONTINUOUS
 62
     7
100
AcDbLine
 10
8.127981185913085
 20
4.639673709869384
 30
0.0
 11
8.13905334472656
 21
4.656287193298339
 31
0.0
  0
LINE
  5
5D2
330
23
100
AcDbEntity
  8
TOP
  6
CONTINUOUS
 62
     7
100
AcDbLine
 10
10.44578075408935
 20
4.321282386779785
 30
0.0
 11
10.473313331604
 21
4.362596035003662
 31
0.0
  0
LINE
  5
5D3
330
23
100
AcDbEntity
  8
TOP
  6
CONTINUOUS
 62
     7
100
AcDbLine
 10
2.870488166809082
 20
7.304257392883299
 30
0.0
 11
3.710488319396972
 21
7.304257392883299
 31
0.0
  0
LINE
  5
5D4
330
23
100
AcDbEntity
  8
TOP
  6
CONTINUOUS
 62
     7
100
AcDbLine
 10
6.534862041473388
 20
5.128257751464843
 30
0.0
 11
6.534862041473388
 21
5.038257598876953
 31
0.0
  0
LINE
  5
5D5
330
23
100
AcDbEntity
  8
TOP
  6
CONTINUOUS
 62
     7
100
AcDbLine
 10
8.051274299621582
 20
4.147050380706787
 30
0.0
 11
8.080085754394531
 21
4.155853271484375
 31
0.0
  0
LINE
  5
5D6
330
23
100
AcDbEntity
  8
TOP
  6
CONTINUOUS
 62
     7
100
AcDbLine
 10
1.737644910812377
 20
5.773969650268554
 30
0.0
 11
1.699439525604248
 21
5.73769998550415
 31
0.0
  0
LINE
  5
5D7
330
23
100
AcDbEntity
  8
TOP
  6
CONTINUOUS
 62
     7
100
AcDbLine
 10
3.040488243103027
 20
7.299864292144774
 30
0.0
 11
3.040488243103027
 21
7.304257392883299
 31
0.0
  0
LINE
  5
5D8
330
23
100
AcDbEntity
  8
TOP
  6
CONTINUOUS
 62
     7
100
AcDbLine
 10
7.967886924743651
 20
4.193709850311279
 30
0.0
 11
7.970660209655761
 21
4.202261447906494
 31
0.0
  0
LINE
  5
5D9
330
23
100
AcDbEntity
  8
TOP
  6
CONTINUOUS
 62
     7
100
AcDbLine
 10
5.834025382995605
 20
3.76607584953308
 30
0.0
 11
5.834025382995605
 21
3.720860481262207
 31
0.0
  0
LINE
  5
5DA
330
23
100
AcDbEntity
  8
TOP
  6
CONTINUOUS
 62
     7
100
AcDbLine
 10
9.35555362701416
 20
4.607053279876708
 30
0.0
 11
9.367862701416015
 21
4.596532344818115
 31
0.0
  0
LINE
  5
5DB
330
23
100
AcDbEntity
  8
TOP
  6
CONTINUOUS
 62
     7
100
AcDbLine
 10
7.540181636810302
 20
3.812169313430785
 30
0.0
 11
7.530874729156494
 21
3.809325695037841
 31
0.0
  0
LINE
  5
5DC
330
23
100
AcDbEntity
  8
TOP
  6
CONTINUOUS
 62
     7
100
AcDbLine
 10
9.211559295654296
 20
4.442537784576416
 30
0.0
 11
9.209793090820312
 21
4.433723926544189
 31
0.0
  0
LINE
  5
5DD
330
23
100
AcDbEntity
  8
TOP
  6
CONTINUOUS
 62
     7
100
AcDbLine
 10
8.415290832519531
 20
3.759259700775146
 30
0.0
 11
8.42164134979248
 21
3.756330013275146
 31
0.0
  0
LINE
  5
5DE
330
23
100
AcDbEntity
  8
TOP
  6
CONTINUOUS
 62
     7
100
AcDbLine
 10
9.727786064147949
 20
4.086907386779785
 30
0.0
 11
9.71547794342041
 21
4.087742805480957
 31
0.0
  0
LINE
  5
5DF
330
23
100
AcDbEntity
  8
TOP
  6
CONTINUOUS
 62
     7
100
AcDbLine
 10
4.62548828125
 20
6.814257621765136
 30
0.0
 11
4.62548828125
 21
6.8642578125
 31
0.0
  0
LINE
  5
5E0
330
23
100
AcDbEntity
  8
TOP
  6
CONTINUOUS
 62
     7
100
AcDbLine
 10
9.078741073608398
 20
3.444317102432251
 30
0.0
 11
9.0685396194458
 21
3.446249723434447
 31
0.0
  0
LINE
  5
5E1
330
23
100
AcDbEntity
  8
TOP
  6
CONTINUOUS
 62
     7
100
AcDbLine
 10
5.275488376617431
 20
3.246075868606567
 30
0.0
 11
5.275488376617431
 21
3.23007583618164
 31
0.0
  0
LINE
  5
5E2
330
23
100
AcDbEntity
  8
TOP
  6
CONTINUOUS
 62
     7
100
AcDbLine
 10
5.834837436676025
 20
6.4917573928833
 30
0.0
 11
5.858952522277832
 21
6.581757545471192
 31
0.0
  0
LINE
  5
5E3
330
23
100
AcDbEntity
  8
TOP
  6
CONTINUOUS
 62
     7
100
AcDbLine
 10
1.364488244056701
 20
7.880772590637207
 30
0.0
 11
1.304344654083251
 21
7.880772590637207
 31
0.0
  0
LINE
  5
5E4
330
23
100
AcDbEntity
  8
TOP
  6
CONTINUOUS
 62
     7
100
AcDbLine
 10
4.850488185882568
 20
5.219257354736328
 30
0.0
 11
4.800487995147705
 21
5.219257354736328
 31
0.0
  0
LINE
  5
5E5
330
23
100
AcDbEntity
  8
TOP
  6
CONTINUOUS
 62
     7
100
AcDbLine
 10
5.216488361358642
 20
7.888772964477539
 30
0.0
 11
5.306488037109375
 21
7.888772964477539
 31
0.0
  0
LINE
  5
5E6
330
23
100
AcDbEntity
  8
TOP
  6
CONTINUOUS
 62
     7
100
AcDbLine
 10
7.942780017852782
 20
4.426346302032471
 30
0.0
 11
7.939482212066649
 21
4.409794330596923
 31
0.0
  0
LINE
  5
5E7
330
23
100
AcDbEntity
  8
TOP
  6
CONTINUOUS
 62
     7
100
AcDbLine
 10
9.339189529418943
 20
3.944217205047607
 30
0.0
 11
9.376105308532713
 21
3.961371660232543
 31
0.0
  0
LINE
  5
5E8
330
23
100
AcDbEntity
  8
TOP
  6
CONTINUOUS
 62
     7
100
AcDbLine
 10
4.710488319396972
 20
5.0542573928833
 30
0.0
 11
4.735362529754639
 21
5.0542573928833
 31
0.0
  0
LINE
  5
5E9
330
23
100
AcDbEntity
  8
TOP
  6
CONTINUOUS
 62
     7
100
AcDbLine
 10
6.510843276977539
 20
4.016075611114501
 30
0.0
 11
6.510843276977539
 21
4.038898944854736
 31
0.0
  0
LINE
  5
5EA
330
23
100
AcDbEntity
  8
TOP
  6
CONTINUOUS
 62
     7
100
AcDbLine
 10
8.318213462829589
 20
3.95981216430664
 30
0.0
 11
8.325659751892089
 21
3.962087154388428
 31
0.0
  0
LINE
  5
5EB
330
23
100
AcDbEntity
  8
TOP
  6
CONTINUOUS
 62
     7
100
AcDbLine
 10
9.643250465393066
 20
3.479842901229858
 30
0.0
 11
9.644914627075197
 21
3.484973907470703
 31
0.0
  0
LINE
  5
5EC
330
23
100
AcDbEntity
  8
TOP
  6
CONTINUOUS
 62
     7
100
AcDbLine
 10
3.510488271713256
 20
5.104257583618164
 30
0.0
 11
3.070488214492797
 21
5.104257583618164
 31
0.0
  0
LINE
  5
5ED
330
23
100
AcDbEntity
  8
TOP
  6
CONTINUOUS
 62
     7
100
AcDbLine
 10
8.157252311706542
 20
4.092453956604003
 30
0.0
 11
8.150557518005371
 21
4.09961462020874
 31
0.0
  0
LINE
  5
5EE
330
23
100
AcDbEntity
  8
TOP
  6
CONTINUOUS
 62
     7
100
AcDbLine
 10
9.15495491027832
 20
4.468652725219727
 30
0.0
 11
9.16164970397949
 21
4.46149206161499
 31
0.0
  0
LINE
  5
5EF
330
23
100
AcDbEntity
  8
TOP
  6
CONTINUOUS
 62
     7
100
AcDbLine
 10
7.68220615386963
 20
3.681406497955321
 30
0.0
 11
7.68220615386963
 21
3.746654510498047
 31
0.0
  0
LINE
  5
5F0
330
23
100
AcDbEntity
  8
TOP
  6
CONTINUOUS
 62
     7
100
AcDbLine
 10
1.290488243103027
 20
6.451632022857666
 30
0.0
 11
1.290488243103027
 21
6.4267578125
 31
0.0
  0
LINE
  5
5F1
330
23
100
AcDbEntity
  8
TOP
  6
CONTINUOUS
 62
     7
100
AcDbLine
 10
9.461727142333984
 20
4.082450866699218
 30
0.0
 11
8.993993759155273
 21
4.298213005065917
 31
0.0
  0
LINE
  5
5F2
330
23
100
AcDbEntity
  8
TOP
  6
CONTINUOUS
 62
     7
100
AcDbLine
 10
3.536468982696532
 20
3.23007583618164
 30
0.0
 11
3.525488138198852
 21
3.23007583618164
 31
0.0
  0
LINE
  5
5F3
330
23
100
AcDbEntity
  8
TOP
  6
CONTINUOUS
 62
     7
100
AcDbLine
 10
5.856837272644042
 20
5.776757717132568
 30
0.0
 11
5.856837272644042
 21
5.784652233123779
 31
0.0
  0
LINE
  5
5F4
330
23
100
AcDbEntity
  8
TOP
  6
CONTINUOUS
 62
     7
100
AcDbLine
 10
8.335779190063474
 20
3.615120649337768
 30
0.0
 11
8.353269577026367
 21
3.622136354446411
 31
0.0
  0
LINE
  5
5F5
330
23
100
AcDbEntity
  8
TOP
  6
CONTINUOUS
 62
     7
100
AcDbLine
 10
5.286094665527343
 20
6.4917573928833
 30
0.0
 11
5.290488243103027
 21
6.4917573928833
 31
0.0
  0
LINE
  5
5F6
330
23
100
AcDbEntity
  8
TOP
  6
CONTINUOUS
 62
     7
100
AcDbLine
 10
6.293811798095703
 20
3.668185949325561
 30
0.0
 11
6.248812198638916
 21
3.668185949325561
 31
0.0
  0
LINE
  5
5F7
330
23
100
AcDbEntity
  8
TOP
  6
CONTINUOUS
 62
     7
100
AcDbLine
 10
6.55284309387207
 20
3.320075750350952
 30
0.0
 11
6.55284309387207
 21
3.319644927978516
 31
0.0
  0
LINE
  5
5F8
330
23
100
AcDbEntity
  8
TOP
  6
CONTINUOUS
 62
     7
100
AcDbLine
 10
2.805488348007202
 20
4.041075706481933
 30
0.0
 11
2.805488348007202
 21
3.546075820922852
 31
0.0
  0
LINE
  5
5F9
330
23
100
AcDbEntity
  8
TOP
  6
CONTINUOUS
 62
     7
100
AcDbLine
 10
1.725252032279968
 20
5.787024021148681
 30
0.0
 11
1.681633353233337
 21
5.745615482330321
 31
0.0
  0
LINE
  5
5FA
330
23
100
AcDbEntity
  8
TOP
  6
CONTINUOUS
 62
     7
100
AcDbLine
 10
8.685583114624021
 20
3.790347337722777
 30
0.0
 11
8.682285308837888
 21
3.773794889450072
 31
0.0
  0
LINE
  5
5FB
330
23
100
AcDbEntity
  8
TOP
  6
CONTINUOUS
 62
     7
100
AcDbLine
 10
6.552862167358398
 20
7.230257511138916
 30
0.0
 11
6.552862167358398
 21
7.25308084487915
 31
0.0
  0
LINE
  5
5FC
330
23
100
AcDbEntity
  8
TOP
  6
CONTINUOUS
 62
     7
100
AcDbLine
 10
10.1118459701538
 20
3.768861293792724
 30
0.0
 11
10.11678218841552
 21
3.772812604904175
 31
0.0
  0
LINE
  5
5FD
330
23
100
AcDbEntity
  8
TOP
  6
CONTINUOUS
 62
     7
100
AcDbLine
 10
1.2744882106781
 20
3.261075735092163
 30
0.0
 11
1.2744882106781
 21
4.041075706481933
 31
0.0
  0
LINE
  5
5FE
330
23
100
AcDbEntity
  8
TOP
  6
CONTINUOUS
 62
     7
100
AcDbLine
 10
9.465055465698242
 20
4.101054191589356
 30
0.0
 11
9.473089218139648
 21
4.102234840393065
 31
0.0
  0
LINE
  5
5FF
330
23
100
AcDbEntity
  8
TOP
  6
CONTINUOUS
 62
     7
100
AcDbLine
 10
1.805488228797912
 20
5.069257736206055
 30
0.0
 11
1.430488228797912
 21
5.069257736206055
 31
0.0
  0
LINE
  5
600
330
23
100
AcDbEntity
  8
TOP
  6
CONTINUOUS
 62
     7
100
AcDbLine
 10
9.302386283874511
 20
4.055570602416992
 30
0.0
 11
9.367583274841308
 21
4.06500768661499
 31
0.0
  0
LINE
  5
602
330
23
100
AcDbEntity
  8
TOP
  6
CONTINUOUS
 62
     7
100
AcDbLine
 10
2.140188217163085
 20
4.106075763702392
 30
0.0
 11
2.410200834274291
 21
4.62767505645752
 31
0.0
  0
LINE
  5
603
330
23
100
AcDbEntity
  8
TOP
  6
CONTINUOUS
 62
     7
100
AcDbLine
 10
5.820025444030761
 20
3.76607584953308
 30
0.0
 11
5.820025444030761
 21
3.683539867401123
 31
0.0
  0
LINE
  5
604
330
23
100
AcDbEntity
  8
TOP
  6
CONTINUOUS
 62
     7
100
AcDbLine
 10
1.364488244056701
 20
7.89477252960205
 30
0.0
 11
1.296880483627319
 21
7.89477252960205
 31
0.0
  0
LINE
  5
605
330
23
100
AcDbEntity
  8
TOP
  6
CONTINUOUS
 62
     7
100
AcDbLine
 10
4.62548828125
 20
5.219257354736328
 30
0.0
 11
4.62548828125
 21
5.244257450103759
 31
0.0
  0
LINE
  5
606
330
23
100
AcDbEntity
  8
TOP
  6
CONTINUOUS
 62
     7
100
AcDbLine
 10
8.721484184265136
 20
3.850351572036743
 30
0.0
 11
8.724562644958496
 21
3.840043544769287
 31
0.0
  0
LINE
  5
607
330
23
100
AcDbEntity
  8
TOP
  6
CONTINUOUS
 62
     7
100
AcDbLine
 10
10.48044300079345
 20
4.357625007629394
 30
0.0
 11
10.50370597839355
 21
4.404436111450195
 31
0.0
  0
LINE
  5
608
330
23
100
AcDbEntity
  8
TOP
  6
CONTINUOUS
 62
     7
100
AcDbLine
 10
2.845613718032836
 20
5.0542573928833
 30
0.0
 11
2.870488166809082
 21
5.0542573928833
 31
0.0
  0
LINE
  5
609
330
23
100
AcDbEntity
  8
TOP
  6
CONTINUOUS
 62
     7
100
AcDbLine
 10
6.544843196868896
 20
4.016075611114501
 30
0.0
 11
6.544843196868896
 21
4.046362876892089
 31
0.0
  0
LINE
  5
60A
330
23
100
AcDbEntity
  8
TOP
  6
CONTINUOUS
 62
     7
100
AcDbLine
 10
9.039313316345216
 20
4.499901294708251
 30
0.0
 11
9.031867027282713
 21
4.497626304626464
 31
0.0
  0
LINE
  5
60B
330
23
100
AcDbEntity
  8
TOP
  6
CONTINUOUS
 62
     7
100
AcDbLine
 10
1.734890937805175
 20
5.776870727539063
 30
0.0
 11
1.685859084129333
 21
5.730323314666747
 31
0.0
  0
LINE
  5
60D
330
23
100
AcDbEntity
  8
TOP
  6
CONTINUOUS
 62
     7
100
AcDbLine
 10
9.211764335632322
 20
4.4146409034729
 30
0.0
 11
9.205069541931152
 21
4.421801567077636
 31
0.0
  0
LINE
  5
60E
330
23
100
AcDbEntity
  8
TOP
  6
CONTINUOUS
 62
     7
100
AcDbLine
 10
4.770540237426757
 20
5.038257598876953
 30
0.0
 11
4.756450176239013
 21
5.038257598876953
 31
0.0
  0
LINE
  5
60F
330
23
100
AcDbEntity
  8
TOP
  6
CONTINUOUS
 62
     7
100
AcDbLine
 10
9.212871551513673
 20
4.423416137695312
 30
0.0
 11
9.219210624694824
 21
4.416915893554688
 31
0.0
  0
LINE
  5
610
330
23
100
AcDbEntity
  8
TOP
  6
CONTINUOUS
 62
     7
100
AcDbLine
 10
2.186891317367553
 20
4.18324327468872
 30
0.0
 11
2.155810832977294
 21
4.12320327758789
 31
0.0
  0
LINE
  5
611
330
23
100
AcDbEntity
  8
TOP
  6
CONTINUOUS
 62
     7
100
AcDbLine
 10
5.290488243103027
 20
3.261075735092163
 30
0.0
 11
5.290488243103027
 21
4.041075706481933
 31
0.0
  0
LINE
  5
612
330
23
100
AcDbEntity
  8
TOP
  6
CONTINUOUS
 62
     7
100
AcDbLine
 10
6.057056903839111
 20
3.281612396240234
 30
0.0
 11
6.102056503295897
 21
3.281612396240234
 31
0.0
  0
LINE
  5
613
330
23
100
AcDbEntity
  8
TOP
  6
CONTINUOUS
 62
     7
100
AcDbLine
 10
1.955488204956054
 20
5.544257640838623
 30
0.0
 11
1.955488204956054
 21
5.494257450103759
 31
0.0
  0
LINE
  5
614
330
23
100
AcDbEntity
  8
TOP
  6
CONTINUOUS
 62
     7
100
AcDbLine
 10
9.397342681884765
 20
4.234495639801025
 30
0.0
 11
9.385034561157224
 21
4.245016574859619
 31
0.0
  0
LINE
  5
615
330
23
100
AcDbEntity
  8
TOP
  6
CONTINUOUS
 62
     7
100
AcDbLine
 10
8.603216171264648
 20
3.660429000854492
 30
0.0
 11
8.598347663879392
 21
3.665183544158935
 31
0.0
  0
LINE
  5
616
330
23
100
AcDbEntity
  8
TOP
  6
CONTINUOUS
 62
     7
100
AcDbLine
 10
9.180121421813964
 20
3.879591941833496
 30
0.0
 11
9.194880485534667
 21
3.883916854858398
 31
0.0
  0
LINE
  5
617
330
23
100
AcDbEntity
  8
TOP
  6
CONTINUOUS
 62
     7
100
AcDbLine
 10
5.290488243103027
 20
6.4267578125
 30
0.0
 11
5.290488243103027
 21
6.451632022857666
 31
0.0
  0
LINE
  5
618
330
23
100
AcDbEntity
  8
TOP
  6
CONTINUOUS
 62
     7
100
AcDbLine
 10
10.26169872283935
 20
3.672199010848998
 30
0.0
 11
10.27030849456787
 21
3.682698965072631
 31
0.0
  0
LINE
  5
619
330
23
100
AcDbEntity
  8
TOP
  6
CONTINUOUS
 62
     7
100
AcDbLine
 10
1.309747457504272
 20
3.246075868606567
 30
0.0
 11
1.322235107421875
 21
3.246075868606567
 31
0.0
  0
LINE
  5
61A
330
23
100
AcDbEntity
  8
TOP
  6
CONTINUOUS
 62
     7
100
AcDbLine
 10
5.822837352752685
 20
6.581757545471192
 30
0.0
 11
5.822837352752685
 21
6.536542415618896
 31
0.0
  0
LINE
  5
61B
330
23
100
AcDbEntity
  8
TOP
  6
CONTINUOUS
 62
     7
100
AcDbLine
 10
3.850488185882568
 20
7.308257579803465
 30
0.0
 11
3.850488185882568
 21
7.304257392883299
 31
0.0
  0
LINE
  5
61C
330
23
100
AcDbEntity
  8
TOP
  6
CONTINUOUS
 62
     7
100
AcDbLine
 10
9.760762214660642
 20
4.416027069091796
 30
0.0
 11
9.753316879272462
 21
4.413752079010009
 31
0.0
  0
LINE
  5
61D
330
23
100
AcDbEntity
  8
TOP
  6
CONTINUOUS
 62
     7
100
AcDbLine
 10
4.770540237426757
 20
7.304257392883299
 30
0.0
 11
4.756450176239013
 21
7.304257392883299
 31
0.0
  0
LINE
  5
61E
330
23
100
AcDbEntity
  8
TOP
  6
CONTINUOUS
 62
     7
100
AcDbLine
 10
8.407215118408203
 20
3.768605709075928
 30
0.0
 11
8.410543441772462
 21
3.778867483139038
 31
0.0
  0
LINE
  5
620
330
23
100
AcDbEntity
  8
TOP
  6
CONTINUOUS
 62
     7
100
AcDbLine
 10
9.220765113830566
 20
3.378802299499512
 30
0.0
 11
9.220765113830566
 21
3.387700080871582
 31
0.0
  0
LINE
  5
621
330
23
100
AcDbEntity
  8
TOP
  6
CONTINUOUS
 62
     7
100
AcDbLine
 10
9.383469581604005
 20
4.264678955078125
 30
0.0
 11
9.39247989654541
 21
4.247291564941406
 31
0.0
  0
LINE
  5
622
330
23
100
AcDbEntity
  8
TOP
  6
CONTINUOUS
 62
     7
100
AcDbLine
 10
3.540488243103027
 20
3.245575666427612
 30
0.0
 11
3.540488243103027
 21
3.261075735092163
 31
0.0
  0
LINE
  5
623
330
23
100
AcDbEntity
  8
TOP
  6
CONTINUOUS
 62
     7
100
AcDbLine
 10
1.665488243103027
 20
5.719257354736328
 30
0.0
 11
1.747363328933715
 21
5.763732433319091
 31
0.0
  0
LINE
  5
624
330
23
100
AcDbEntity
  8
TOP
  6
CONTINUOUS
 62
     7
100
AcDbLine
 10
9.941825866699216
 20
3.571043014526367
 30
0.0
 11
9.941825866699216
 21
4.004811286926269
 31
0.0
  0
LINE
  5
625
330
23
100
AcDbEntity
  8
TOP
  6
CONTINUOUS
 62
     7
100
AcDbLine
 10
3.540488243103027
 20
5.069257736206055
 30
0.0
 11
3.540488243103027
 21
5.074257373809815
 31
0.0
  0
LINE
  5
626
330
23
100
AcDbEntity
  8
TOP
  6
CONTINUOUS
 62
     7
100
AcDbLine
 10
9.164422988891599
 20
4.450382232666015
 30
0.0
 11
9.16164970397949
 21
4.4418306350708
 31
0.0
  0
LINE
  5
627
330
23
100
AcDbEntity
  8
TOP
  6
CONTINUOUS
 62
     7
100
AcDbLine
 10
10.35362148284912
 20
4.47304916381836
 30
0.0
 11
10.37007713317871
 21
4.520246982574462
 31
0.0
  0
LINE
  5
628
330
23
100
AcDbEntity
  8
TOP
  6
CONTINUOUS
 62
     7
100
AcDbLine
 10
10.12627220153808
 20
3.78161072731018
 30
0.0
 11
10.12627220153808
 21
4.215378761291503
 31
0.0
  0
LINE
  5
629
330
23
100
AcDbEntity
  8
TOP
  6
CONTINUOUS
 62
     7
100
AcDbLine
 10
3.070488214492797
 20
3.23007583618164
 30
0.0
 11
3.510488271713256
 21
3.23007583618164
 31
0.0
  0
LINE
  5
62A
330
23
100
AcDbEntity
  8
TOP
  6
CONTINUOUS
 62
     7
100
AcDbLine
 10
9.948397636413574
 20
4.088740348815917
 30
0.0
 11
9.951170921325683
 21
4.097291946411132
 31
0.0
  0
LINE
  5
62B
330
23
100
AcDbEntity
  8
TOP
  6
CONTINUOUS
 62
     7
100
AcDbLine
 10
5.854837417602539
 20
6.581757545471192
 30
0.0
 11
5.854837417602539
 21
6.566398620605468
 31
0.0
  0
LINE
  5
62C
330
23
100
AcDbEntity
  8
TOP
  6
CONTINUOUS
 62
     7
100
AcDbLine
 10
5.12548828125
 20
6.8642578125
 30
0.0
 11
5.12548828125
 21
6.814257621765136
 31
0.0
  0
LINE
  5
62E
330
23
100
AcDbEntity
  8
TOP
  6
CONTINUOUS
 62
     7
100
AcDbLine
 10
3.540488243103027
 20
5.050257682800292
 30
0.0
 11
3.540488243103027
 21
5.0542573928833
 31
0.0
  0
LINE
  5
62F
330
23
100
AcDbEntity
  8
TOP
  6
CONTINUOUS
 62
     7
100
AcDbLine
 10
9.342298507690429
 20
4.360136508941649
 30
0.0
 11
9.219210624694824
 21
4.416915893554688
 31
0.0
  0
LINE
  5
630
330
23
100
AcDbEntity
  8
TOP
  6
CONTINUOUS
 62
     7
100
AcDbLine
 10
6.548843383789063
 20
3.320075750350952
 30
0.0
 11
6.548843383789063
 21
3.304716825485229
 31
0.0
  0
LINE
  5
631
330
23
100
AcDbEntity
  8
TOP
  6
CONTINUOUS
 62
     7
100
AcDbLine
 10
3.040488243103027
 20
3.234229087829589
 30
0.0
 11
3.040488243103027
 21
3.23007583618164
 31
0.0
  0
LINE
  5
632
330
23
100
AcDbEntity
  8
TOP
  6
CONTINUOUS
 62
     7
100
AcDbLine
 10
9.085201263427734
 20
7.260260105133055
 30
0.0
 11
9.085201263427734
 21
7.88476037979126
 31
0.0
  0
LINE
  5
634
330
23
100
AcDbEntity
  8
TOP
  6
CONTINUOUS
 62
     7
100
AcDbLine
 10
8.481442451477049
 20
3.6456298828125
 30
0.0
 11
8.596543312072755
 21
3.678184509277344
 31
0.0
  0
LINE
  5
635
330
23
100
AcDbEntity
  8
TOP
  6
CONTINUOUS
 62
     7
100
AcDbLine
 10
2.824526309967041
 20
5.038257598876953
 30
0.0
 11
2.810436010360717
 21
5.038257598876953
 31
0.0
  0
LINE
  5
636
330
23
100
AcDbEntity
  8
TOP
  6
CONTINUOUS
 62
     7
100
AcDbLine
 10
6.548861980438232
 20
7.230257511138916
 30
0.0
 11
6.548861980438232
 21
7.268008708953857
 31
0.0
  0
LINE
  5
637
330
23
100
AcDbEntity
  8
TOP
  6
CONTINUOUS
 62
     7
100
AcDbLine
 10
10.11396312713623
 20
4.252361297607421
 30
0.0
 11
10.12297439575195
 21
4.234973907470703
 31
0.0
  0
LINE
  5
638
330
23
100
AcDbEntity
  8
TOP
  6
CONTINUOUS
 62
     7
100
AcDbLine
 10
2.178010702133178
 20
4.187840461730957
 30
0.0
 11
2.143498659133911
 21
4.121171951293944
 31
0.0
  0
LINE
  5
639
330
23
100
AcDbEntity
  8
TOP
  6
CONTINUOUS
 62
     7
100
AcDbLine
 10
1.455488204956054
 20
5.694257736206055
 30
0.0
 11
1.455488204956054
 21
5.719257354736328
 31
0.0
  0
LINE
  5
63A
330
23
100
AcDbEntity
  8
TOP
  6
CONTINUOUS
 62
     7
100
AcDbLine
 10
9.639731407165527
 20
4.02536392211914
 30
0.0
 11
9.647765159606931
 21
4.01677131652832
 31
0.0
  0
LINE
  5
63B
330
23
100
AcDbEntity
  8
TOP
  6
CONTINUOUS
 62
     7
100
AcDbLine
 10
8.368244171142578
 20
4.478123664855957
 30
0.0
 11
8.376193046569824
 21
4.484302997589111
 31
0.0
  0
LINE
  5
63C
330
23
100
AcDbEntity
  8
TOP
  6
CONTINUOUS
 62
     7
100
AcDbLine
 10
4.756450176239013
 20
7.304257392883299
 30
0.0
 11
4.735362529754639
 21
7.304257392883299
 31
0.0
  0
LINE
  5
63D
330
23
100
AcDbEntity
  8
TOP
  6
CONTINUOUS
 62
     7
100
AcDbLine
 10
8.410543441772462
 20
3.778867483139038
 30
0.0
 11
8.418577194213867
 21
3.780047893524169
 31
0.0
  0
LINE
  5
63E
330
23
100
AcDbEntity
  8
TOP
  6
CONTINUOUS
 62
     7
100
AcDbLine
 10
9.464573860168457
 20
3.9820818901062
 30
0.0
 11
9.512337684631347
 21
3.988622903823852
 31
0.0
  0
LINE
  5
640
330
23
100
AcDbEntity
  8
TOP
  6
CONTINUOUS
 62
     7
100
AcDbLine
 10
5.238876342773437
 20
3.246075868606567
 30
0.0
 11
5.258741378784179
 21
3.246075868606567
 31
0.0
  0
LINE
  5
641
330
23
100
AcDbEntity
  8
TOP
  6
CONTINUOUS
 62
     7
100
AcDbLine
 10
5.81883716583252
 20
5.776757717132568
 30
0.0
 11
5.81883716583252
 21
5.807044982910156
 31
0.0
  0
LINE
  5
642
330
23
100
AcDbEntity
  8
TOP
  6
CONTINUOUS
 62
     7
100
AcDbLine
 10
4.700488090515136
 20
5.038257598876953
 30
0.0
 11
4.700488090515136
 21
5.042257785797119
 31
0.0
  0
LINE
  5
644
330
23
100
AcDbEntity
  8
TOP
  6
CONTINUOUS
 62
     7
100
AcDbLine
 10
2.810436010360717
 20
7.304257392883299
 30
0.0
 11
2.805488348007202
 21
7.304257392883299
 31
0.0
  0
LINE
  5
645
330
23
100
AcDbEntity
  8
TOP
  6
CONTINUOUS
 62
     7
100
AcDbLine
 10
6.514862060546875
 20
5.128257751464843
 30
0.0
 11
6.514862060546875
 21
5.112898826599121
 31
0.0
  0
LINE
  5
646
330
23
100
AcDbEntity
  8
TOP
  6
CONTINUOUS
 62
     7
100
AcDbLine
 10
8.402266502380371
 20
3.641254901885985
 30
0.0
 11
8.424928665161132
 21
3.646280288696288
 31
0.0
  0
LINE
  5
647
330
23
100
AcDbEntity
  8
TOP
  6
CONTINUOUS
 62
     7
100
AcDbLine
 10
1.680488228797912
 20
6.639257431030273
 30
0.0
 11
1.630488276481628
 21
6.639257431030273
 31
0.0
  0
LINE
  5
648
330
23
100
AcDbEntity
  8
TOP
  6
CONTINUOUS
 62
     7
100
AcDbLine
 10
1.732136964797973
 20
5.779771327972412
 30
0.0
 11
1.672278523445129
 21
5.722946166992188
 31
0.0
  0
LINE
  5
649
330
23
100
AcDbEntity
  8
TOP
  6
CONTINUOUS
 62
     7
100
AcDbLine
 10
4.735362529754639
 20
7.320257663726806
 30
0.0
 11
4.756450176239013
 21
7.320257663726806
 31
0.0
  0
LINE
  5
64A
330
23
100
AcDbEntity
  8
TOP
  6
CONTINUOUS
 62
     7
100
AcDbLine
 10
8.107137680053712
 20
4.139305114746093
 30
0.0
 11
8.10991096496582
 21
4.128195285797119
 31
0.0
  0
LINE
  5
64B
330
23
100
AcDbEntity
  8
TOP
  6
CONTINUOUS
 62
     7
100
AcDbLine
 10
1.805488228797912
 20
3.234229087829589
 30
0.0
 11
1.805488228797912
 21
3.245575666427612
 31
0.0
  0
LINE
  5
64C
330
23
100
AcDbEntity
  8
TOP
  6
CONTINUOUS
 62
     7
100
AcDbLine
 10
6.522861957550048
 20
7.230257511138916
 30
0.0
 11
6.522861957550048
 21
7.27547311782837
 31
0.0
  0
LINE
  5
64D
330
23
100
AcDbEntity
  8
TOP
  6
CONTINUOUS
 62
     7
100
AcDbLine
 10
5.216488361358642
 20
7.912888050079345
 30
0.0
 11
5.216488361358642
 21
7.864657402038574
 31
0.0
  0
LINE
  5
64E
330
23
100
AcDbEntity
  8
TOP
  6
CONTINUOUS
 62
     7
100
AcDbLine
 10
9.908501625061036
 20
4.098950862884521
 30
0.0
 11
9.908604621887207
 21
4.098904132843017
 31
0.0
  0
LINE
  5
64F
330
23
100
AcDbEntity
  8
TOP
  6
CONTINUOUS
 62
     7
100
AcDbLine
 10
5.846025466918944
 20
3.76607584953308
 30
0.0
 11
5.846025466918944
 21
3.765645027160644
 31
0.0
  0
LINE
  5
650
330
23
100
AcDbEntity
  8
TOP
  6
CONTINUOUS
 62
     7
100
AcDbLine
 10
5.306488037109375
 20
4.101128101348876
 30
0.0
 11
5.306488037109375
 21
4.087037563323975
 31
0.0
  0
LINE
  5
651
330
23
100
AcDbEntity
  8
TOP
  6
CONTINUOUS
 62
     7
100
AcDbLine
 10
9.376023292541505
 20
4.262403964996337
 30
0.0
 11
9.372725486755372
 21
4.281999111175537
 31
0.0
  0
LINE
  5
652
330
23
100
AcDbEntity
  8
TOP
  6
CONTINUOUS
 62
     7
100
AcDbLine
 10
1.930488228797912
 20
7.139257431030273
 30
0.0
 11
1.955488204956054
 21
7.139257431030273
 31
0.0
  0
LINE
  5
653
330
23
100
AcDbEntity
  8
TOP
  6
CONTINUOUS
 62
     7
100
AcDbLine
 10
3.540488243103027
 20
7.304257392883299
 30
0.0
 11
3.540488243103027
 21
7.299864292144774
 31
0.0
  0
LINE
  5
654
330
23
100
AcDbEntity
  8
TOP
  6
CONTINUOUS
 62
     7
100
AcDbLine
 10
9.071760177612304
 20
3.459423780441284
 30
0.0
 11
9.071760177612304
 21
3.893192052841186
 31
0.0
  0
LINE
  5
655
330
23
100
AcDbEntity
  8
TOP
  6
CONTINUOUS
 62
     7
100
AcDbLine
 10
8.610266685485839
 20
3.811414003372192
 30
0.0
 11
8.68557071685791
 21
3.839075565338135
 31
0.0
  0
LINE
  5
656
330
23
100
AcDbEntity
  8
TOP
  6
CONTINUOUS
 62
     7
100
AcDbLine
 10
6.510843276977539
 20
3.320075750350952
 30
0.0
 11
6.510843276977539
 21
3.297252655029296
 31
0.0
  0
LINE
  5
658
330
23
100
AcDbEntity
  8
TOP
  6
CONTINUOUS
 62
     7
100
AcDbLine
 10
5.216488361358642
 20
7.902772903442383
 30
0.0
 11
5.254239559173583
 21
7.902772903442383
 31
0.0
  0
LINE
  5
65A
330
23
100
AcDbEntity
  8
TOP
  6
CONTINUOUS
 62
     7
100
AcDbLine
 10
6.818924427032471
 20
6.003323554992675
 30
0.0
 11
6.863924503326416
 21
6.003323554992675
 31
0.0
  0
LINE
  5
65B
330
23
100
AcDbEntity
  8
TOP
  6
CONTINUOUS
 62
     7
100
AcDbLine
 10
4.735362529754639
 20
7.304257392883299
 30
0.0
 11
4.710488319396972
 21
7.304257392883299
 31
0.0
  0
LINE
  5
65C
330
23
100
AcDbEntity
  8
TOP
  6
CONTINUOUS
 62
     7
100
AcDbLine
 10
10.25773525238037
 20
4.200861930847167
 30
0.0
 11
10.30219841003418
 21
4.214964389801025
 31
0.0
  0
LINE
  5
65D
330
23
100
AcDbEntity
  8
TOP
  6
CONTINUOUS
 62
     7
100
AcDbLine
 10
9.512337684631347
 20
3.988622903823852
 30
0.0
 11
9.64735412597656
 21
4.017437458038329
 31
0.0
  0
LINE
  5
65E
330
23
100
AcDbEntity
  8
TOP
  6
CONTINUOUS
 62
     7
100
AcDbLine
 10
1.805488228797912
 20
5.0542573928833
 30
0.0
 11
1.810436010360717
 21
5.0542573928833
 31
0.0
  0
LINE
  5
65F
330
23
100
AcDbEntity
  8
TOP
  6
CONTINUOUS
 62
     7
100
AcDbLine
 10
8.423968315124509
 20
3.748143196105957
 30
0.0
 11
8.423968315124509
 21
3.757040977478027
 31
0.0
  0
LINE
  5
660
330
23
100
AcDbEntity
  8
TOP
  6
CONTINUOUS
 62
     7
100
AcDbLine
 10
5.798025608062744
 20
3.76607584953308
 30
0.0
 11
5.798025608062744
 21
3.765645027160644
 31
0.0
  0
LINE
  5
663
330
23
100
AcDbEntity
  8
TOP
  6
CONTINUOUS
 62
     7
100
AcDbLine
 10
9.031867027282713
 20
4.497626304626464
 30
0.0
 11
9.15495491027832
 21
4.440846920013427
 31
0.0
  0
LINE
  5
664
330
23
100
AcDbEntity
  8
TOP
  6
CONTINUOUS
 62
     7
100
AcDbLine
 10
1.290488243103027
 20
5.885795593261719
 30
0.0
 11
1.290488243103027
 21
5.871705532073975
 31
0.0
  0
LINE
  5
665
330
23
100
AcDbEntity
  8
TOP
  6
CONTINUOUS
 62
     7
100
AcDbLine
 10
10.1188268661499
 20
3.779335737228393
 30
0.0
 11
10.1188268661499
 21
4.213103771209716
 31
0.0
  0
LINE
  5
666
330
23
100
AcDbEntity
  8
TOP
  6
CONTINUOUS
 62
     7
100
AcDbLine
 10
2.160146713256835
 20
4.19708776473999
 30
0.0
 11
2.140188217163085
 21
4.106075763702392
 31
0.0
  0
LINE
  5
667
330
23
100
AcDbEntity
  8
TOP
  6
CONTINUOUS
 62
     7
100
AcDbLine
 10
8.280340194702146
 20
4.035674571990966
 30
0.0
 11
8.287786483764648
 21
4.037949562072753
 31
0.0
  0
LINE
  5
668
330
23
100
AcDbEntity
  8
TOP
  6
CONTINUOUS
 62
     7
100
AcDbLine
 10
5.306488037109375
 20
7.888772964477539
 30
0.0
 11
3.90500783920288
 21
7.888772964477539
 31
0.0
  0
LINE
  5
669
330
23
100
AcDbEntity
  8
TOP
  6
CONTINUOUS
 62
     7
100
AcDbLine
 10
2.730488300323486
 20
5.050257682800292
 30
0.0
 11
2.730488300323486
 21
5.0542573928833
 31
0.0
  0
LINE
  5
66A
330
23
100
AcDbEntity
  8
TOP
  6
CONTINUOUS
 62
     7
100
AcDbLine
 10
8.390591621398924
 20
4.733336448669433
 30
0.0
 11
8.38453197479248
 21
4.73613166809082
 31
0.0
  0
LINE
  5
66B
330
23
100
AcDbEntity
  8
TOP
  6
CONTINUOUS
 62
     7
100
AcDbLine
 10
5.306488037109375
 20
5.8667573928833
 30
0.0
 11
5.290488243103027
 21
5.8667573928833
 31
0.0
  0
LINE
  5
66C
330
23
100
AcDbEntity
  8
TOP
  6
CONTINUOUS
 62
     7
100
AcDbLine
 10
6.808874607086181
 20
3.499435901641845
 30
0.0
 11
6.808874607086181
 21
3.668185949325561
 31
0.0
  0
LINE
  5
66D
330
23
100
AcDbEntity
  8
TOP
  6
CONTINUOUS
 62
     7
100
AcDbLine
 10
7.798195362091063
 20
4.047317028045654
 30
0.0
 11
7.811883926391601
 21
4.037606716156005
 31
0.0
  0
LINE
  5
66E
330
23
100
AcDbEntity
  8
TOP
  6
CONTINUOUS
 62
     7
100
AcDbLine
 10
9.071760177612304
 20
3.893192052841186
 30
0.0
 11
9.064314842224119
 21
3.890917062759399
 31
0.0
  0
LINE
  5
66F
330
23
100
AcDbEntity
  8
TOP
  6
CONTINUOUS
 62
     7
100
AcDbLine
 10
2.845613718032836
 20
7.320257663726806
 30
0.0
 11
2.870488166809082
 21
7.320257663726806
 31
0.0
  0
LINE
  5
670
330
23
100
AcDbEntity
  8
TOP
  6
CONTINUOUS
 62
     7
100
AcDbLine
 10
8.342830657958984
 20
3.912308931350708
 30
0.0
 11
8.330522537231445
 21
3.922829627990722
 31
0.0
  0
LINE
  5
671
330
23
100
AcDbEntity
  8
TOP
  6
CONTINUOUS
 62
     7
100
AcDbLine
 10
1.630488276481628
 20
5.719257354736328
 30
0.0
 11
1.680488228797912
 21
5.719257354736328
 31
0.0
  0
LINE
  5
672
330
23
100
AcDbEntity
  8
TOP
  6
CONTINUOUS
 62
     7
100
AcDbLine
 10
8.328957557678222
 20
3.942492008209228
 30
0.0
 11
8.33796787261963
 21
3.925104618072509
 31
0.0
  0
LINE
  5
673
330
23
100
AcDbEntity
  8
TOP
  6
CONTINUOUS
 62
     7
100
AcDbLine
 10
6.544861793518065
 20
7.230257511138916
 30
0.0
 11
6.544861793518065
 21
7.282937049865721
 31
0.0
  0
LINE
  5
674
330
23
100
AcDbEntity
  8
TOP
  6
CONTINUOUS
 62
     7
100
AcDbLine
 10
8.289808273315429
 20
4.045209884643554
 30
0.0
 11
8.287035942077634
 21
4.036658287048339
 31
0.0
  0
LINE
  5
675
330
23
100
AcDbEntity
  8
TOP
  6
CONTINUOUS
 62
     7
100
AcDbLine
 10
10.24304103851318
 20
3.663735389709472
 30
0.0
 11
9.941825866699216
 21
3.571704387664794
 31
0.0
  0
LINE
  5
676
330
23
100
AcDbEntity
  8
TOP
  6
CONTINUOUS
 62
     7
100
AcDbLine
 10
8.717646598815917
 20
4.092689514160156
 30
0.0
 11
8.710200309753417
 21
4.090414524078369
 31
0.0
  0
LINE
  5
677
330
23
100
AcDbEntity
  8
TOP
  6
CONTINUOUS
 62
     7
100
AcDbLine
 10
9.722923278808591
 20
4.090017318725585
 30
0.0
 11
9.726721763610841
 21
4.088698387145996
 31
0.0
  0
LINE
  5
678
330
23
100
AcDbEntity
  8
TOP
  6
CONTINUOUS
 62
     7
100
AcDbLine
 10
8.382530212402341
 20
4.501575469970703
 30
0.0
 11
8.385937690734863
 21
4.492785930633544
 31
0.0
  0
LINE
  5
67A
330
23
100
AcDbEntity
  8
TOP
  6
CONTINUOUS
 62
     7
100
AcDbLine
 10
3.540488243103027
 20
7.284257411956787
 30
0.0
 11
3.540488243103027
 21
7.289257526397705
 31
0.0
  0
LINE
  5
67B
330
23
100
AcDbEntity
  8
TOP
  6
CONTINUOUS
 62
     7
100
AcDbLine
 10
9.911577224731443
 20
4.03171682357788
 30
0.0
 11
9.681222915649414
 21
3.961336135864257
 31
0.0
  0
LINE
  5
67C
330
23
100
AcDbEntity
  8
TOP
  6
CONTINUOUS
 62
     7
100
AcDbLine
 10
5.216488361358642
 20
7.866772651672363
 30
0.0
 11
5.224382877349853
 21
7.866772651672363
 31
0.0
  0
LINE
  5
67D
330
23
100
AcDbEntity
  8
TOP
  6
CONTINUOUS
 62
     7
100
AcDbLine
 10
9.648966789245603
 20
3.938053846359252
 30
0.0
 11
9.660038948059082
 21
3.954667568206787
 31
0.0
  0
LINE
  5
67E
330
23
100
AcDbEntity
  8
TOP
  6
CONTINUOUS
 62
     7
100
AcDbLine
 10
7.946117401123047
 20
3.963544130325317
 30
0.0
 11
7.941248893737792
 21
3.96829867362976
 31
0.0
  0
LINE
  5
67F
330
23
100
AcDbEntity
  8
TOP
  6
CONTINUOUS
 62
     7
100
AcDbLine
 10
8.593253135681152
 20
3.694584608078002
 30
0.0
 11
8.59658145904541
 21
3.681252717971801
 31
0.0
  0
LINE
  5
680
330
23
100
AcDbEntity
  8
TOP
  6
CONTINUOUS
 62
     7
100
AcDbLine
 10
5.810025691986083
 20
3.14007568359375
 30
0.0
 11
5.810025691986083
 21
3.185291051864623
 31
0.0
  0
LINE
  5
681
330
23
100
AcDbEntity
  8
TOP
  6
CONTINUOUS
 62
     7
100
AcDbLine
 10
10.22050189971923
 20
4.190027713775634
 30
0.0
 11
10.25773525238037
 21
4.200861930847167
 31
0.0
  0
LINE
  5
682
330
23
100
AcDbEntity
  8
TOP
  6
CONTINUOUS
 62
     7
100
AcDbLine
 10
8.325659751892089
 20
4.2373628616333
 30
0.0
 11
8.318213462829589
 21
4.235088348388671
 31
0.0
  0
LINE
  5
683
330
23
100
AcDbEntity
  8
TOP
  6
CONTINUOUS
 62
     7
100
AcDbLine
 10
8.157047271728515
 20
4.12035083770752
 30
0.0
 11
8.155281066894531
 21
4.111537456512451
 31
0.0
  0
LINE
  5
684
330
23
100
AcDbEntity
  8
TOP
  6
CONTINUOUS
 62
     7
100
AcDbLine
 10
8.84654426574707
 20
3.774488925933837
 30
0.0
 11
8.853989601135253
 21
3.776763916015625
 31
0.0
  0
LINE
  5
685
330
23
100
AcDbEntity
  8
TOP
  6
CONTINUOUS
 62
     7
100
AcDbLine
 10
7.676433563232422
 20
3.631358861923217
 30
0.0
 11
7.686931133270262
 21
3.587749242782592
 31
0.0
  0
LINE
  5
686
330
23
100
AcDbEntity
  8
TOP
  6
CONTINUOUS
 62
     7
100
AcDbLine
 10
8.273756980895996
 20
3.587101697921752
 30
0.0
 11
8.294197082519531
 21
3.592027187347412
 31
0.0
  0
LINE
  5
687
330
23
100
AcDbEntity
  8
TOP
  6
CONTINUOUS
 62
     7
100
AcDbLine
 10
5.822025299072265
 20
3.005075693130492
 30
0.0
 11
5.822025299072265
 21
3.23007583618164
 31
0.0
  0
LINE
  5
688
330
23
100
AcDbEntity
  8
TOP
  6
CONTINUOUS
 62
     7
100
AcDbLine
 10
7.939482212066649
 20
3.976026058197021
 30
0.0
 11
7.939482212066649
 21
4.409794330596923
 31
0.0
  0
LINE
  5
689
330
23
100
AcDbEntity
  8
TOP
  6
CONTINUOUS
 62
     7
100
AcDbLine
 10
8.668411254882812
 20
3.767830610275268
 30
0.0
 11
8.350276947021484
 21
3.914583921432495
 31
0.0
  0
LINE
  5
68A
330
23
100
AcDbEntity
  8
TOP
  6
CONTINUOUS
 62
     7
100
AcDbLine
 10
4.325488090515136
 20
7.320257663726806
 30
0.0
 11
4.325488090515136
 21
7.316257476806639
 31
0.0
  0
LINE
  5
68B
330
23
100
AcDbEntity
  8
TOP
  6
CONTINUOUS
 62
     7
100
AcDbLine
 10
8.301041603088378
 20
4.284866333007812
 30
0.0
 11
8.313350677490234
 21
4.274345397949218
 31
0.0
  0
LINE
  5
68C
330
23
100
AcDbEntity
  8
TOP
  6
CONTINUOUS
 62
     7
100
AcDbLine
 10
1.880488276481628
 20
5.042257785797119
 30
0.0
 11
1.880488276481628
 21
5.038257598876953
 31
0.0
  0
LINE
  5
68D
330
23
100
AcDbEntity
  8
TOP
  6
CONTINUOUS
 62
     7
100
AcDbLine
 10
9.903515815734863
 20
3.780294179916381
 30
0.0
 11
9.895289421081542
 21
3.773708820343017
 31
0.0
  0
LINE
  5
68E
330
23
100
AcDbEntity
  8
TOP
  6
CONTINUOUS
 62
     7
100
AcDbLine
 10
5.832025527954101
 20
3.14007568359375
 30
0.0
 11
5.832025527954101
 21
3.192755222320556
 31
0.0
  0
LINE
  5
68F
330
23
100
AcDbEntity
  8
TOP
  6
CONTINUOUS
 62
     7
100
AcDbLine
 10
7.68220615386963
 20
3.746654510498047
 30
0.0
 11
7.540181636810302
 21
3.812169313430785
 31
0.0
  0
LINE
  5
690
330
23
100
AcDbEntity
  8
TOP
  6
CONTINUOUS
 62
     7
100
AcDbLine
 10
9.900837898254392
 20
3.79302978515625
 30
0.0
 11
9.898234367370605
 21
3.801961183547973
 31
0.0
  0
LINE
  5
691
330
23
100
AcDbEntity
  8
TOP
  6
CONTINUOUS
 62
     7
100
AcDbLine
 10
9.779074668884275
 20
4.162230491638183
 30
0.0
 11
9.785413742065427
 21
4.155730247497559
 31
0.0
  0
LINE
  5
692
330
23
100
AcDbEntity
  8
TOP
  6
CONTINUOUS
 62
     7
100
AcDbLine
 10
8.313350677490234
 20
4.274345397949218
 30
0.0
 11
8.32236099243164
 21
4.2569580078125
 31
0.0
  0
LINE
  5
693
330
23
100
AcDbEntity
  8
TOP
  6
CONTINUOUS
 62
     7
100
AcDbLine
 10
8.414661407470703
 20
3.762538909912108
 30
0.0
 11
8.416706085205078
 21
3.757265090942383
 31
0.0
  0
LINE
  5
694
330
23
100
AcDbEntity
  8
TOP
  6
CONTINUOUS
 62
     7
100
AcDbLine
 10
6.518843173980712
 20
3.320075750350952
 30
0.0
 11
6.518843173980712
 21
3.267396211624145
 31
0.0
  0
LINE
  5
695
330
23
100
AcDbEntity
  8
TOP
  6
CONTINUOUS
 62
     7
100
AcDbLine
 10
8.407215118408203
 20
3.768605709075928
 30
0.0
 11
8.407215118408203
 21
3.760263919830321
 31
0.0
  0
LINE
  5
696
330
23
100
AcDbEntity
  8
TOP
  6
CONTINUOUS
 62
     7
100
AcDbLine
 10
9.935520172119138
 20
3.55867052078247
 30
0.0
 11
9.940126419067382
 21
3.562893152236938
 31
0.0
  0
LINE
  5
697
330
23
100
AcDbEntity
  8
TOP
  6
CONTINUOUS
 62
     7
100
AcDbLine
 10
1.430488228797912
 20
7.289257526397705
 30
0.0
 11
1.805488228797912
 21
7.289257526397705
 31
0.0
  0
LINE
  5
698
330
23
100
AcDbEntity
  8
TOP
  6
CONTINUOUS
 62
     7
100
AcDbLine
 10
5.800025463104247
 20
3.14007568359375
 30
0.0
 11
5.800025463104247
 21
3.147970676422119
 31
0.0
  0
LINE
  5
699
330
23
100
AcDbEntity
  8
TOP
  6
CONTINUOUS
 62
     7
100
AcDbLine
 10
8.723456382751464
 20
3.859074115753173
 30
0.0
 11
8.84654426574707
 21
3.802294731140136
 31
0.0
  0
LINE
  5
69A
330
23
100
AcDbEntity
  8
TOP
  6
CONTINUOUS
 62
     7
100
AcDbLine
 10
10.22744464874267
 20
4.180827617645263
 30
0.0
 11
10.26175689697265
 21
4.190974712371825
 31
0.0
  0
LINE
  5
69B
330
23
100
AcDbEntity
  8
TOP
  6
CONTINUOUS
 62
     7
100
AcDbLine
 10
9.941825866699216
 20
3.571043014526367
 30
0.0
 11
9.65097427368164
 21
3.482178688049316
 31
0.0
  0
LINE
  5
69C
330
23
100
AcDbEntity
  8
TOP
  6
CONTINUOUS
 62
     7
100
AcDbLine
 10
5.828837394714356
 20
5.776757717132568
 30
0.0
 11
5.828837394714356
 21
5.844365119934082
 31
0.0
  0
LINE
  5
69D
330
23
100
AcDbEntity
  8
TOP
  6
CONTINUOUS
 62
     7
100
AcDbLine
 10
8.287035942077634
 20
4.036658287048339
 30
0.0
 11
8.280340194702146
 21
4.035674571990966
 31
0.0
  0
LINE
  5
69E
330
23
100
AcDbEntity
  8
TOP
  6
CONTINUOUS
 62
     7
100
AcDbLine
 10
8.158359527587888
 20
4.101229190826416
 30
0.0
 11
8.164698600769042
 21
4.094728946685791
 31
0.0
  0
LINE
  5
6A0
330
23
100
AcDbEntity
  8
TOP
  6
CONTINUOUS
 62
     7
100
AcDbLine
 10
5.797910213470458
 20
3.76607584953308
 30
0.0
 11
5.822025299072265
 21
3.67607569694519
 31
0.0
  0
LINE
  5
6A1
330
23
100
AcDbEntity
  8
TOP
  6
CONTINUOUS
 62
     7
100
AcDbLine
 10
8.420840263366699
 20
4.272662639617919
 30
0.0
 11
8.420840263366699
 21
4.706430912017822
 31
0.0
  0
LINE
  5
6A2
330
23
100
AcDbEntity
  8
TOP
  6
CONTINUOUS
 62
     7
100
AcDbLine
 10
9.033136367797853
 20
3.692487239837647
 30
0.0
 11
9.026441574096679
 21
3.691503524780273
 31
0.0
  0
LINE
  5
6A3
330
23
100
AcDbEntity
  8
TOP
  6
CONTINUOUS
 62
     7
100
AcDbLine
 10
6.556861877441406
 20
5.128257751464843
 30
0.0
 11
6.556861877441406
 21
5.120362758636474
 31
0.0
  0
LINE
  5
6A4
330
23
100
AcDbEntity
  8
TOP
  6
CONTINUOUS
 62
     7
100
AcDbLine
 10
9.367583274841308
 20
4.06500768661499
 30
0.0
 11
9.430819511413574
 21
4.074963569641112
 31
0.0
  0
LINE
  5
6A6
330
23
100
AcDbEntity
  8
TOP
  6
CONTINUOUS
 62
     7
100
AcDbLine
 10
9.96531105041504
 20
4.072744846343993
 30
0.0
 11
9.957865715026855
 21
4.070469856262207
 31
0.0
  0
LINE
  5
6A7
330
23
100
AcDbEntity
  8
TOP
  6
CONTINUOUS
 62
     7
100
AcDbLine
 10
5.238876342773437
 20
3.23007583618164
 30
0.0
 11
5.212988376617431
 21
3.23007583618164
 31
0.0
  0
LINE
  5
6A8
330
23
100
AcDbEntity
  8
TOP
  6
CONTINUOUS
 62
     7
100
AcDbLine
 10
8.724562644958496
 20
3.840043544769287
 30
0.0
 11
8.730901718139648
 21
3.833543300628662
 31
0.0
  0
LINE
  5
6A9
330
23
100
AcDbEntity
  8
TOP
  6
CONTINUOUS
 62
     7
100
AcDbLine
 10
8.168972969055174
 20
3.46557879447937
 30
0.0
 11
8.16865062713623
 21
3.465864896774291
 31
0.0
  0
LINE
  5
6AA
330
23
100
AcDbEntity
  8
TOP
  6
CONTINUOUS
 62
     7
100
AcDbLine
 10
6.542843341827392
 20
4.016075611114501
 30
0.0
 11
6.542843341827392
 21
4.053826808929443
 31
0.0
  0
LINE
  5
6AB
330
23
100
AcDbEntity
  8
TOP
  6
CONTINUOUS
 62
     7
100
AcDbLine
 10
5.842025279998779
 20
3.14007568359375
 30
0.0
 11
5.842025279998779
 21
3.155434846878052
 31
0.0
  0
LINE
  5
6AC
330
23
100
AcDbEntity
  8
TOP
  6
CONTINUOUS
 62
     7
100
AcDbLine
 10
8.287786483764648
 20
4.037949562072753
 30
0.0
 11
8.164698600769042
 21
4.094728946685791
 31
0.0
  0
LINE
  5
6AD
330
23
100
AcDbEntity
  8
TOP
  6
CONTINUOUS
 62
     7
100
AcDbLine
 10
9.941825866699216
 20
4.004811286926269
 30
0.0
 11
9.937772750854492
 21
4.021646499633789
 31
0.0
  0
LINE
  5
6AE
330
23
100
AcDbEntity
  8
TOP
  6
CONTINUOUS
 62
     7
100
AcDbLine
 10
1.342099905014038
 20
3.23007583618164
 30
0.0
 11
1.322235107421875
 21
3.23007583618164
 31
0.0
  0
LINE
  5
6AF
330
23
100
AcDbEntity
  8
TOP
  6
CONTINUOUS
 62
     7
100
AcDbLine
 10
8.107889175415039
 20
4.120934963226318
 30
0.0
 11
8.107991218566894
 21
4.120888233184815
 31
0.0
  0
LINE
  5
6B0
330
23
100
AcDbEntity
  8
TOP
  6
CONTINUOUS
 62
     7
100
AcDbLine
 10
8.015188217163085
 20
3.632066011428833
 30
0.0
 11
8.055473327636718
 21
3.643790960311889
 31
0.0
  0
LINE
  5
6B1
330
23
100
AcDbEntity
  8
TOP
  6
CONTINUOUS
 62
     7
100
AcDbLine
 10
5.846025466918944
 20
3.76607584953308
 30
0.0
 11
5.846025466918944
 21
3.765645027160644
 31
0.0
  0
LINE
  5
6B2
330
23
100
AcDbEntity
  8
TOP
  6
CONTINUOUS
 62
     7
100
AcDbLine
 10
8.190223693847656
 20
3.489503622055053
 30
0.0
 11
8.145257949829101
 21
3.529444694519042
 31
0.0
  0
LINE
  5
6B3
330
23
100
AcDbEntity
  8
TOP
  6
CONTINUOUS
 62
     7
100
AcDbLine
 10
8.673274040222167
 20
3.764720678329468
 30
0.0
 11
8.660965919494628
 21
3.76555585861206
 31
0.0
  0
LINE
  5
6B4
330
23
100
AcDbEntity
  8
TOP
  6
CONTINUOUS
 62
     7
100
AcDbLine
 10
1.455488204956054
 20
7.1142578125
 30
0.0
 11
1.455488204956054
 21
7.139257431030273
 31
0.0
  0
LINE
  5
6B5
330
23
100
AcDbEntity
  8
TOP
  6
CONTINUOUS
 62
     7
100
AcDbLine
 10
9.444410324096679
 20
3.990056037902832
 30
0.0
 11
9.509607315063474
 21
3.999492883682251
 31
0.0
  0
LINE
  5
6B6
330
23
100
AcDbEntity
  8
TOP
  6
CONTINUOUS
 62
     7
100
AcDbLine
 10
2.740488290786743
 20
4.106075763702392
 30
0.0
 11
1.870488286018371
 21
4.106075763702392
 31
0.0
  0
LINE
  5
6B7
330
23
100
AcDbEntity
  8
TOP
  6
CONTINUOUS
 62
     7
100
AcDbLine
 10
8.903353691101074
 20
3.748283147811889
 30
0.0
 11
9.026441574096679
 21
3.691503524780273
 31
0.0
  0
LINE
  5
6B8
330
23
100
AcDbEntity
  8
TOP
  6
CONTINUOUS
 62
     7
100
AcDbLine
 10
1.2744882106781
 20
6.4267578125
 30
0.0
 11
1.2744882106781
 21
6.451632022857666
 31
0.0
  0
LINE
  5
6B9
330
23
100
AcDbEntity
  8
TOP
  6
CONTINUOUS
 62
     7
100
AcDbLine
 10
9.639731407165527
 20
4.02536392211914
 30
0.0
 11
9.473089218139648
 21
4.102234840393065
 31
0.0
  0
LINE
  5
6BA
330
23
100
AcDbEntity
  8
TOP
  6
CONTINUOUS
 62
     7
100
AcDbLine
 10
1.955488204956054
 20
5.719257354736328
 30
0.0
 11
1.955488204956054
 21
5.694257736206055
 31
0.0
  0
LINE
  5
6BB
330
23
100
AcDbEntity
  8
TOP
  6
CONTINUOUS
 62
     7
100
AcDbLine
 10
8.16829776763916
 20
4.416459560394287
 30
0.0
 11
8.16489028930664
 21
4.425249099731444
 31
0.0
  0
LINE
  5
6BC
330
23
100
AcDbEntity
  8
TOP
  6
CONTINUOUS
 62
     7
100
AcDbLine
 10
8.99729251861572
 20
4.748533248901367
 30
0.0
 11
8.993993759155273
 21
4.73198127746582
 31
0.0
  0
LINE
  5
6BD
330
23
100
AcDbEntity
  8
TOP
  6
CONTINUOUS
 62
     7
100
AcDbLine
 10
8.420840263366699
 20
4.272662639617919
 30
0.0
 11
8.325318336486816
 21
4.243477821350097
 31
0.0
  0
LINE
  5
6BE
330
23
100
AcDbEntity
  8
TOP
  6
CONTINUOUS
 62
     7
100
AcDbLine
 10
3.525488138198852
 20
3.246075868606567
 30
0.0
 11
3.536468982696532
 21
3.246075868606567
 31
0.0
  0
LINE
  5
6BF
330
23
100
AcDbEntity
  8
TOP
  6
CONTINUOUS
 62
     7
100
AcDbLine
 10
5.808025360107421
 20
3.14007568359375
 30
0.0
 11
5.808025360107421
 21
3.17782711982727
 31
0.0
  0
LINE
  5
6C0
330
23
100
AcDbEntity
  8
TOP
  6
CONTINUOUS
 62
     7
100
AcDbLine
 10
5.822025299072265
 20
3.14007568359375
 30
0.0
 11
5.822025299072265
 21
3.23007583618164
 31
0.0
  0
LINE
  5
6C2
330
23
100
AcDbEntity
  8
TOP
  6
CONTINUOUS
 62
     7
100
AcDbLine
 10
5.81072187423706
 20
6.581757545471192
 30
0.0
 11
5.834837436676025
 21
6.4917573928833
 31
0.0
  0
LINE
  5
6C4
330
23
100
AcDbEntity
  8
TOP
  6
CONTINUOUS
 62
     7
100
AcDbLine
 10
7.970660209655761
 20
4.182600021362304
 30
0.0
 11
7.967886924743651
 21
4.193709850311279
 31
0.0
  0
LINE
  5
6C5
330
23
100
AcDbEntity
  8
TOP
  6
CONTINUOUS
 62
     7
100
AcDbLine
 10
1.455488204956054
 20
7.139257431030273
 30
0.0
 11
1.480488181114196
 21
7.139257431030273
 31
0.0
  0
LINE
  5
6C7
330
23
100
AcDbEntity
  8
TOP
  6
CONTINUOUS
 62
     7
100
AcDbLine
 10
9.955893516540527
 20
4.089552879333496
 30
0.0
 11
9.958971977233886
 21
4.079245090484619
 31
0.0
  0
LINE
  5
6C8
330
23
100
AcDbEntity
  8
TOP
  6
CONTINUOUS
 62
     7
100
AcDbLine
 10
10.08095359802246
 20
4.041496276855468
 30
0.0
 11
10.08764839172363
 21
4.034335613250732
 31
0.0
  0
LINE
  5
6CA
330
23
100
AcDbEntity
  8
TOP
  6
CONTINUOUS
 62
     7
100
AcDbLine
 10
4.225488185882568
 20
7.304257392883299
 30
0.0
 11
4.225488185882568
 21
7.308257579803465
 31
0.0
  0
LINE
  5
6CB
330
23
100
AcDbEntity
  8
TOP
  6
CONTINUOUS
 62
     7
100
AcDbLine
 10
8.129988670349121
 20
4.363778114318847
 30
0.0
 11
8.129988670349121
 21
4.617566585540772
 31
0.0
  0
LINE
  5
6CC
330
23
100
AcDbEntity
  8
TOP
  6
CONTINUOUS
 62
     7
100
AcDbLine
 10
7.951790809631346
 20
4.435420989990233
 30
0.0
 11
7.942780017852782
 21
4.426346302032471
 31
0.0
  0
LINE
  5
6CD
330
23
100
AcDbEntity
  8
TOP
  6
CONTINUOUS
 62
     7
100
AcDbLine
 10
5.798025608062744
 20
3.14007568359375
 30
0.0
 11
5.798025608062744
 21
3.140506505966186
 31
0.0
  0
LINE
  5
6CE
330
23
100
AcDbEntity
  8
TOP
  6
CONTINUOUS
 62
     7
100
AcDbLine
 10
5.858837127685545
 20
6.581757545471192
 30
0.0
 11
5.858837127685545
 21
6.581326961517333
 31
0.0
  0
LINE
  5
6CF
330
23
100
AcDbEntity
  8
TOP
  6
CONTINUOUS
 62
     7
100
AcDbLine
 10
8.172957420349121
 20
3.470064640045166
 30
0.0
 11
8.15589427947998
 21
3.48522138595581
 31
0.0
  0
LINE
  5
6D0
330
23
100
AcDbEntity
  8
TOP
  6
CONTINUOUS
 62
     7
100
AcDbLine
 10
7.841927051544188
 20
3.575757026672363
 30
0.0
 11
7.909418582916258
 21
3.598579168319702
 31
0.0
  0
LINE
  5
6D1
330
23
100
AcDbEntity
  8
TOP
  6
CONTINUOUS
 62
     7
100
AcDbLine
 10
5.822025299072265
 20
3.23007583618164
 30
0.0
 11
5.797910213470458
 21
3.14007568359375
 31
0.0
  0
LINE
  5
6D2
330
23
100
AcDbEntity
  8
TOP
  6
CONTINUOUS
 62
     7
100
AcDbLine
 10
1.805488228797912
 20
3.246075868606567
 30
0.0
 11
1.430488228797912
 21
3.246075868606567
 31
0.0
  0
LINE
  5
6D4
330
23
100
AcDbEntity
  8
TOP
  6
CONTINUOUS
 62
     7
100
AcDbLine
 10
1.364488244056701
 20
7.888772964477539
 30
0.0
 11
1.2744882106781
 21
7.888772964477539
 31
0.0
  0
LINE
  5
6D5
330
23
100
AcDbEntity
  8
TOP
  6
CONTINUOUS
 62
     7
100
AcDbLine
 10
10.52217864990234
 20
4.502755641937255
 30
0.0
 11
10.52557277679443
 21
4.550145149230957
 31
0.0
  0
LINE
  5
6D6
330
23
100
AcDbEntity
  8
TOP
  6
CONTINUOUS
 62
     7
100
AcDbLine
 10
6.504843235015869
 20
3.320075750350952
 30
0.0
 11
6.504843235015869
 21
3.319644927978516
 31
0.0
  0
LINE
  5
6D7
330
23
100
AcDbEntity
  8
TOP
  6
CONTINUOUS
 62
     7
100
AcDbLine
 10
5.826025485992431
 20
3.76607584953308
 30
0.0
 11
5.826025485992431
 21
3.691004037857056
 31
0.0
  0
LINE
  5
6D8
330
23
100
AcDbEntity
  8
TOP
  6
CONTINUOUS
 62
     7
100
AcDbLine
 10
7.977355480194092
 20
4.175439357757568
 30
0.0
 11
8.100442886352539
 21
4.118659973144531
 31
0.0
  0
LINE
  5
6D9
330
23
100
AcDbEntity
  8
TOP
  6
CONTINUOUS
 62
     7
100
AcDbLine
 10
9.740095138549804
 20
4.112534046173095
 30
0.0
 11
9.740095138549804
 21
4.387810230255126
 31
0.0
  0
LINE
  5
6DA
330
23
100
AcDbEntity
  8
TOP
  6
CONTINUOUS
 62
     7
100
AcDbLine
 10
8.200849533081054
 20
3.501466035842895
 30
0.0
 11
8.200527191162109
 21
3.501752138137817
 31
0.0
  0
LINE
  5
6DB
330
23
100
AcDbEntity
  8
TOP
  6
CONTINUOUS
 62
     7
100
AcDbLine
 10
8.13905334472656
 20
4.656287193298339
 30
0.0
 11
8.154177665710449
 21
4.665750980377196
 31
0.0
  0
LINE
  5
6DC
330
23
100
AcDbEntity
  8
TOP
  6
CONTINUOUS
 62
     7
100
AcDbLine
 10
5.182840824127196
 20
3.246075868606567
 30
0.0
 11
5.212988376617431
 21
3.246075868606567
 31
0.0
  0
LINE
  5
6DD
330
23
100
AcDbEntity
  8
TOP
  6
CONTINUOUS
 62
     7
100
AcDbLine
 10
5.838837146759033
 20
6.581757545471192
 30
0.0
 11
5.838837146759033
 21
6.506685733795166
 31
0.0
  0
LINE
  5
6DE
330
23
100
AcDbEntity
  8
TOP
  6
CONTINUOUS
 62
     7
100
AcDbLine
 10
8.325659751892089
 20
3.962087154388428
 30
0.0
 11
8.328957557678222
 21
3.942492008209228
 31
0.0
  0
LINE
  5
6DF
330
23
100
AcDbEntity
  8
TOP
  6
CONTINUOUS
 62
     7
100
AcDbLine
 10
9.15495491027832
 20
4.440846920013427
 30
0.0
 11
9.162401199340818
 21
4.443121910095214
 31
0.0
  0
LINE
  5
6E0
330
23
100
AcDbEntity
  8
TOP
  6
CONTINUOUS
 62
     7
100
AcDbLine
 10
7.965678691864012
 20
4.438525676727294
 30
0.0
 11
7.971545219421385
 21
4.436860561370849
 31
0.0
  0
LINE
  5
6E1
330
23
100
AcDbEntity
  8
TOP
  6
CONTINUOUS
 62
     7
100
AcDbLine
 10
8.293596267700195
 20
4.282591342926025
 30
0.0
 11
7.964099407196046
 21
4.434585571289063
 31
0.0
  0
LINE
  5
6E2
330
23
100
AcDbEntity
  8
TOP
  6
CONTINUOUS
 62
     7
100
AcDbLine
 10
5.797910213470458
 20
3.14007568359375
 30
0.0
 11
5.846140861511231
 21
3.14007568359375
 31
0.0
  0
LINE
  5
6E3
330
23
100
AcDbEntity
  8
TOP
  6
CONTINUOUS
 62
     7
100
AcDbLine
 10
5.812025547027587
 20
3.76607584953308
 30
0.0
 11
5.812025547027587
 21
3.713396310806273
 31
0.0
  0
LINE
  5
6E4
330
23
100
AcDbEntity
  8
TOP
  6
CONTINUOUS
 62
     7
100
AcDbLine
 10
8.418577194213867
 20
3.780047893524169
 30
0.0
 11
8.585219383239746
 21
3.703177213668823
 31
0.0
  0
LINE
  5
6E5
330
23
100
AcDbEntity
  8
TOP
  6
CONTINUOUS
 62
     7
100
AcDbLine
 10
6.518843173980712
 20
4.016075611114501
 30
0.0
 11
6.518843173980712
 21
4.068755149841308
 31
0.0
  0
LINE
  5
6E6
330
23
100
AcDbEntity
  8
TOP
  6
CONTINUOUS
 62
     7
100
AcDbLine
 10
5.806025505065917
 20
3.14007568359375
 30
0.0
 11
5.806025505065917
 21
3.170362949371337
 31
0.0
  0
LINE
  5
6E7
330
23
100
AcDbEntity
  8
TOP
  6
CONTINUOUS
 62
     7
100
AcDbLine
 10
8.856012344360349
 20
3.784024238586425
 30
0.0
 11
8.853239059448242
 21
3.77547264099121
 31
0.0
  0
LINE
  5
6E8
330
23
100
AcDbEntity
  8
TOP
  6
CONTINUOUS
 62
     7
100
AcDbLine
 10
1.805488228797912
 20
3.261075735092163
 30
0.0
 11
1.805488228797912
 21
4.041075706481933
 31
0.0
  0
LINE
  5
6EA
330
23
100
AcDbEntity
  8
TOP
  6
CONTINUOUS
 62
     7
100
AcDbLine
 10
9.785413742065427
 20
4.155730247497559
 30
0.0
 11
9.777968406677246
 21
4.153455257415772
 31
0.0
  0
LINE
  5
6EB
330
23
100
AcDbEntity
  8
TOP
  6
CONTINUOUS
 62
     7
100
AcDbLine
 10
5.834837436676025
 20
5.776757717132568
 30
0.0
 11
5.834837436676025
 21
5.8667573928833
 31
0.0
  0
LINE
  5
6EC
330
23
100
AcDbEntity
  8
TOP
  6
CONTINUOUS
 62
     7
100
AcDbLine
 10
1.2744882106781
 20
5.941757678985595
 30
0.0
 11
1.278488278388977
 21
5.941757678985595
 31
0.0
  0
LINE
  5
6ED
330
23
100
AcDbEntity
  8
TOP
  6
CONTINUOUS
 62
     7
100
AcDbLine
 10
5.818025588989257
 20
3.76607584953308
 30
0.0
 11
5.818025588989257
 21
3.691004037857056
 31
0.0
  0
LINE
  5
6EF
330
23
100
AcDbEntity
  8
TOP
  6
CONTINUOUS
 62
     7
100
AcDbLine
 10
8.69789218902588
 20
4.091249942779541
 30
0.0
 11
8.688880920410156
 21
4.082175254821776
 31
0.0
  0
ARC
  5
6F0
330
23
100
AcDbEntity
  8
TOP
  6
CONTINUOUS
 62
     7
100
AcDbCircle
 10
3.510488271713256
 20
7.284257411956787
 30
0.0
 40
0.0299999993294477
100
AcDbArc
 50
270.0
 51
360.0
  0
ARC
  5
6F1
330
23
100
AcDbEntity
  8
TOP
  6
CONTINUOUS
 62
     7
100
AcDbCircle
 10
4.710488319396972
 20
4.041075706481933
 30
0.0
 40
0.0649999976158142
100
AcDbArc
 50
0.0
 51
90.0
  0
ARC
  5
6F2
330
23
100
AcDbEntity
  8
TOP
  6
CONTINUOUS
 62
     7
100
AcDbCircle
 10
3.710488319396972
 20
3.546075820922852
 30
0.0
 40
0.0649999976158142
100
AcDbArc
 50
270.0
 51
360.0
  0
ARC
  5
6F3
330
23
100
AcDbEntity
  8
TOP
  6
CONTINUOUS
 62
     7
100
AcDbCircle
 10
1.305488228797912
 20
3.261075735092163
 30
0.0
 40
0.0149999996647239
100
AcDbArc
 50
180.0
 51
270.0
  0
ARC
  5
6F4
330
23
100
AcDbEntity
  8
TOP
  6
CONTINUOUS
 62
     7
100
AcDbCircle
 10
3.070488214492797
 20
5.074257373809815
 30
0.0
 40
0.0299999993294477
100
AcDbArc
 50
90.0
 51
180.0
  0
ARC
  5
6F5
330
23
100
AcDbEntity
  8
TOP
  6
CONTINUOUS
 62
     7
100
AcDbCircle
 10
2.740488290786743
 20
4.041075706481933
 30
0.0
 40
0.0649999976158142
100
AcDbArc
 50
0.0
 51
90.0
  0
ARC
  5
6F6
330
23
100
AcDbEntity
  8
TOP
  6
CONTINUOUS
 62
     7
100
AcDbCircle
 10
5.150488376617431
 20
5.194257736206055
 30
0.0
 40
0.125
100
AcDbArc
 50
270.0
 51
360.0
  0
ARC
  5
6F7
330
23
100
AcDbEntity
  8
TOP
  6
CONTINUOUS
 62
     7
100
AcDbCircle
 10
1.90548825263977
 20
3.67607569694519
 30
0.0
 40
0.025000000372529
100
AcDbArc
 50
90.0
 51
270.0
  0
ARC
  5
6F8
330
23
100
AcDbEntity
  8
TOP
  6
CONTINUOUS
 62
     7
100
AcDbCircle
 10
4.675487995147705
 20
3.67607569694519
 30
0.0
 40
0.025000000372529
100
AcDbArc
 50
270.0
 51
90.0
  0
ARC
  5
6F9
330
23
100
AcDbEntity
  8
TOP
  6
CONTINUOUS
 62
     7
100
AcDbCircle
 10
1.430488228797912
 20
7.164257526397705
 30
0.0
 40
0.125
100
AcDbArc
 50
90.0
 51
180.0
  0
ARC
  5
6FA
330
23
100
AcDbEntity
  8
TOP
  6
CONTINUOUS
 62
     7
100
AcDbCircle
 10
4.200488090515136
 20
3.67607569694519
 30
0.0
 40
0.025000000372529
100
AcDbArc
 50
270.0
 51
90.0
  0
ARC
  5
6FB
330
23
100
AcDbEntity
  8
TOP
  6
CONTINUOUS
 62
     7
100
AcDbCircle
 10
1.870488286018371
 20
4.041075706481933
 30
0.0
 40
0.0649999976158142
100
AcDbArc
 50
90.0
 51
180.0
  0
ARC
  5
6FC
330
23
100
AcDbEntity
  8
TOP
  6
CONTINUOUS
 62
     7
100
AcDbCircle
 10
1.305488228797912
 20
3.261075735092163
 30
0.0
 40
0.0309999994933605
100
AcDbArc
 50
180.0
 51
270.0
  0
ARC
  5
6FD
330
23
100
AcDbEntity
  8
TOP
  6
CONTINUOUS
 62
     7
100
AcDbCircle
 10
2.705488204956054
 20
3.67607569694519
 30
0.0
 40
0.025000000372529
100
AcDbArc
 50
270.0
 51
90.0
  0
ARC
  5
6FE
330
23
100
AcDbEntity
  8
TOP
  6
CONTINUOUS
 62
     7
100
AcDbCircle
 10
5.150488376617431
 20
7.164257526397705
 30
0.0
 40
0.125
100
AcDbArc
 50
0.0
 51
90.0
  0
ARC
  5
6FF
330
23
100
AcDbEntity
  8
TOP
  6
CONTINUOUS
 62
     7
100
AcDbCircle
 10
3.510488271713256
 20
3.276075839996337
 30
0.0
 40
0.0299999993294477
100
AcDbArc
 50
0.0
 51
90.0
  0
ARC
  5
700
330
23
100
AcDbEntity
  8
TOP
  6
CONTINUOUS
 62
     7
100
AcDbCircle
 10
3.070488214492797
 20
7.284257411956787
 30
0.0
 40
0.0299999993294477
100
AcDbArc
 50
180.0
 51
270.0
  0
ARC
  5
701
330
23
100
AcDbEntity
  8
TOP
  6
CONTINUOUS
 62
     7
100
AcDbCircle
 10
3.840488195419311
 20
4.041075706481933
 30
0.0
 40
0.0649999976158142
100
AcDbArc
 50
90.0
 51
180.0
  0
ARC
  5
702
330
23
100
AcDbEntity
  8
TOP
  6
CONTINUOUS
 62
     7
100
AcDbCircle
 10
1.430488228797912
 20
5.194257736206055
 30
0.0
 40
0.125
100
AcDbArc
 50
180.0
 51
270.0
  0
ARC
  5
703
330
23
100
AcDbEntity
  8
TOP
  6
CONTINUOUS
 62
     7
100
AcDbCircle
 10
5.275488376617431
 20
3.261075735092163
 30
0.0
 40
0.0309999994933605
100
AcDbArc
 50
270.0
 51
360.0
  0
ARC
  5
704
330
23
100
AcDbEntity
  8
TOP
  6
CONTINUOUS
 62
     7
100
AcDbCircle
 10
2.870488166809082
 20
3.546075820922852
 30
0.0
 40
0.0649999976158142
100
AcDbArc
 50
180.0
 51
270.0
  0
ARC
  5
705
330
23
100
AcDbEntity
  8
TOP
  6
CONTINUOUS
 62
     7
100
AcDbCircle
 10
3.510488271713256
 20
5.074257373809815
 30
0.0
 40
0.0299999993294477
100
AcDbArc
 50
0.0
 51
90.0
  0
ARC
  5
706
330
23
100
AcDbEntity
  8
TOP
  6
CONTINUOUS
 62
     7
100
AcDbCircle
 10
4.350488185882568
 20
3.67607569694519
 30
0.0
 40
0.025000000372529
100
AcDbArc
 50
90.0
 51
270.0
  0
ARC
  5
707
330
23
100
AcDbEntity
  8
TOP
  6
CONTINUOUS
 62
     7
100
AcDbCircle
 10
2.230488300323486
 20
3.67607569694519
 30
0.0
 40
0.025000000372529
100
AcDbArc
 50
270.0
 51
90.0
  0
ARC
  5
708
330
23
100
AcDbEntity
  8
TOP
  6
CONTINUOUS
 62
     7
100
AcDbCircle
 10
3.87548828125
 20
3.67607569694519
 30
0.0
 40
0.025000000372529
100
AcDbArc
 50
90.0
 51
270.0
  0
ARC
  5
709
330
23
100
AcDbEntity
  8
TOP
  6
CONTINUOUS
 62
     7
100
AcDbCircle
 10
2.380488157272338
 20
3.67607569694519
 30
0.0
 40
0.025000000372529
100
AcDbArc
 50
90.0
 51
270.0
  0
ARC
  5
70A
330
23
100
AcDbEntity
  8
TOP
  6
CONTINUOUS
 62
     7
100
AcDbCircle
 10
5.275488376617431
 20
3.261075735092163
 30
0.0
 40
0.0149999996647239
100
AcDbArc
 50
270.0
 51
360.0
  0
ARC
  5
70B
330
23
100
AcDbEntity
  8
TOP
  6
CONTINUOUS
 62
     7
100
AcDbCircle
 10
3.070488214492797
 20
3.276075839996337
 30
0.0
 40
0.0299999993294477
100
AcDbArc
 50
90.0
 51
180.0
  0
TEXT
  5
70C
330
23
100
AcDbEntity
  8
TOP
  6
CONTINUOUS
 62
     7
100
AcDbText
 10
7.131561756134032
 20
7.059591047465801
 30
0.0
 40
0.09
  1
NOTES:
 41
1.136029456906461
100
AcDbText
  0
TEXT
  5
70D
330
23
100
AcDbEntity
  8
TOP
  6
CONTINUOUS
 62
     7
100
AcDbText
 10
8.840947151184082
 20
3.133378975093364
 30
0.0
 40
0.09
  1
VELCRO WRAP
 41
1.114257856776619
100
AcDbText
  0
TEXT
  5
711
330
23
100
AcDbEntity
  8
TOP
  6
CONTINUOUS
 62
     7
100
AcDbText
 10
7.131561756134032
 20
6.519591085612773
 30
0.0
 40
0.09
  1
   MOUNTING PADS
 41
1.106383022687111
100
AcDbText
  0
TEXT
  5
713
330
23
100
AcDbEntity
  8
TOP
  6
CONTINUOUS
 62
     7
100
AcDbText
 10
9.387233734130861
 20
7.439712278544902
 30
0.0
 40
0.09
  1
.15 LB/1 PC
 41
1.114257856776619
100
AcDbText
  0
TEXT
  5
714
330
23
100
AcDbEntity
  8
TOP
  6
CONTINUOUS
 62
     7
100
AcDbText
 10
9.387233734130861
 20
7.304712049663066
 30
0.0
 40
0.09
  1
(68 g/1 PC)
 41
1.114257856776619
100
AcDbText
  0
TEXT
  5
715
330
23
100
AcDbEntity
  8
TOP
  6
CONTINUOUS
 62
     7
100
AcDbText
 10
2.581125020980834
 20
6.111833326518535
 30
0.0
 40
0.09
  1
CUSTOMER APPLIED
 41
1.106383022687116
100
AcDbText
  0
TEXT
  5
717
330
23
100
AcDbEntity
  8
TOP
  6
CONTINUOUS
 62
     7
100
AcDbText
 10
9.544499397277832
 20
7.683253996074198
 30
0.0
 40
0.09
  1
WEIGHT
 41
1.13602945690645
100
AcDbText
  0
TEXT
  5
718
330
23
100
AcDbEntity
  8
TOP
  6
CONTINUOUS
 62
     7
100
AcDbText
 10
7.779753684997558
 20
7.691891424357889
 30
0.0
 40
0.09
  1
PANDUIT P/N
 41
1.114257856776621
100
AcDbText
  0
TEXT
  5
71A
330
23
100
AcDbEntity
  8
TOP
  6
CONTINUOUS
 62
     7
100
AcDbText
 10
5.594368457794189
 20
6.047370664775372
 30
0.0
 40
0.09
  1
31.75
 41
1.145982188394383
100
AcDbText
  0
TEXT
  5
71C
330
23
100
AcDbEntity
  8
TOP
  6
CONTINUOUS
 62
     7
100
AcDbText
 10
2.722700834274291
 20
4.582675211131572
 30
0.0
 40
0.09
  1
BENDABLE TABS FOR LOW PROFILE
 41
1.098764578544702
100
AcDbText
  0
TEXT
  5
71D
330
23
100
AcDbEntity
  8
TOP
  6
CONTINUOUS
 62
     7
100
AcDbText
 10
7.131561756134032
 20
6.879590742290019
 30
0.0
 40
0.09
  1
1. SPLICE TRAY HOLDER IS SUPPLIED WITH
 41
1.09657084003398
100
AcDbText
  0
TEXT
  5
71E
330
23
100
AcDbEntity
  8
TOP
  6
CONTINUOUS
 62
     7
100
AcDbText
 10
7.131561756134032
 20
5.439590685069561
 30
0.0
 40
0.09
  1
4. SPLICE TRAY HOLDER WILL ACCOMMODATE
 41
1.09657084003398
100
AcDbText
  0
TEXT
  5
722
330
23
100
AcDbEntity
  8
TOP
  6
CONTINUOUS
 62
     7
100
AcDbText
 10
2.581125020980834
 20
6.246833555400372
 30
0.0
 40
0.09
  1
ADHESIVE PADS SUPPLIED
 41
1.101730813009618
100
AcDbText
  0
TEXT
  5
723
330
23
100
AcDbEntity
  8
TOP
  6
CONTINUOUS
 62
     7
100
AcDbText
 10
5.421562730040198
 20
1.884320013225078
 30
0.0
 40
0.09
  1
(FSTHE)
 41
1.129062544864904
100
AcDbText
  0
TEXT
  5
724
330
23
100
AcDbEntity
  8
TOP
  6
CONTINUOUS
 62
     7
100
AcDbText
 10
6.245174407958984
 20
6.042698614299296
 30
0.0
 40
0.09
  1
115.93
 41
1.136029456906461
100
AcDbText
  0
TEXT
  5
725
330
23
100
AcDbEntity
  8
TOP
  6
CONTINUOUS
 62
     7
100
AcDbText
 10
7.131561756134032
 20
6.159590952098369
 30
0.0
 40
0.09
  1
   PARTS APPLICABLE FOR USE WITH THIS
 41
1.096761407217739
100
AcDbText
  0
TEXT
  5
726
330
23
100
AcDbEntity
  8
TOP
  6
CONTINUOUS
 62
     7
100
AcDbText
 10
9.351358413696287
 20
1.310518380254507
 30
0.0
 40
0.0450000017881393
  1
 
 41
1.634374999999987
100
AcDbText
  0
TEXT
  5
72E
330
23
100
AcDbEntity
  8
TOP
  6
CONTINUOUS
 62
     7
100
AcDbText
 10
7.131561756134032
 20
5.619590990245342
 30
0.0
 40
0.09
  1
   METRIC.
 41
1.116810389205643
100
AcDbText
  0
TEXT
  5
735
330
23
100
AcDbEntity
  8
TOP
  6
CONTINUOUS
 62
     7
100
AcDbText
 10
3.223757743835448
 20
7.843772642314433
 30
0.0
 40
0.09
  1
204.83
 41
1.136029456906461
100
AcDbText
  0
TEXT
  5
738
330
23
100
AcDbEntity
  8
TOP
  6
CONTINUOUS
 62
     7
100
AcDbText
 10
9.351358413696287
 20
1.445518370717763
 30
0.0
 40
0.0450000017881393
  1
 
 41
1.634374999999987
100
AcDbText
  0
TEXT
  5
73A
330
23
100
AcDbEntity
  8
TOP
  6
CONTINUOUS
 62
     7
100
AcDbText
 10
4.636875687803872
 20
2.019320003688335
 30
0.0
 40
0.09
  1
SPLICE TRAY HOLDER UNIT
 41
1.101194896698719
100
AcDbText
  0
TEXT
  5
73F
330
23
100
AcDbEntity
  8
TOP
  6
CONTINUOUS
 62
     7
100
AcDbText
 10
6.33759307861328
 20
3.758185856044292
 30
0.0
 40
0.09
  1
1.75
 41
1.161363682512083
100
AcDbText
  0
TEXT
  5
742
330
23
100
AcDbEntity
  8
TOP
  6
CONTINUOUS
 62
     7
100
AcDbText
 10
5.581556797027587
 20
3.320987455546855
 30
0.0
 40
0.09
  1
22.66
 41
1.145982188394383
100
AcDbText
  0
TEXT
  5
743
330
23
100
AcDbEntity
  8
TOP
  6
CONTINUOUS
 62
     7
100
AcDbText
 10
7.131561756134032
 20
6.699590913951396
 30
0.0
 40
0.09
  1
   1 VELCRO WRAP AND 1 SET OF ADHESIVE
 41
1.09657084003398
100
AcDbText
  0
TEXT
  5
745
330
23
100
AcDbEntity
  8
TOP
  6
CONTINUOUS
 62
     7
100
AcDbText
 10
7.131561756134032
 20
5.259590856730938
 30
0.0
 40
0.09
  1
   UP TO (4) FOUR SPLICE TRAYS.
 41
1.098165804506746
100
AcDbText
  0
TEXT
  5
749
330
23
100
AcDbEntity
  8
TOP
  6
CONTINUOUS
 62
     7
100
AcDbText
 10
7.131561756134032
 20
5.979591123759746
 30
0.0
 40
0.09
  1
   PART.
 41
1.123913088138555
100
AcDbText
  0
TEXT
  5
74B
330
23
100
AcDbEntity
  8
TOP
  6
CONTINUOUS
 62
     7
100
AcDbText
 10
7.131561756134032
 20
5.799590818583964
 30
0.0
 40
0.09
  1
3. DIMENSIONS IN PARENTHESES ARE IN
 41
1.097175524367061
100
AcDbText
  0
TEXT
  5
750
330
23
100
AcDbEntity
  8
TOP
  6
CONTINUOUS
 62
     7
100
AcDbText
 10
2.722700834274291
 20
4.447674982249736
 30
0.0
 40
0.09
  1
SPLICE TRAY HOLDER OPTION
 41
1.100253422098521
100
AcDbText
  0
TEXT
  5
751
330
23
100
AcDbEntity
  8
TOP
  6
CONTINUOUS
 62
     7
100
AcDbText
 10
6.343612194061279
 20
6.262073747813701
 30
0.0
 40
0.09
  1
4.56
 41
1.161363682512083
100
AcDbText
  0
TEXT
  5
754
330
23
100
AcDbEntity
  8
TOP
  6
CONTINUOUS
 62
     7
100
AcDbText
 10
7.131561756134032
 20
6.339590780436992
 30
0.0
 40
0.09
  1
2. SEE CATALOG FOR COMPLETE LIST OF
 41
1.097175524367061
100
AcDbText
  0
TEXT
  5
755
330
23
100
AcDbEntity
  8
TOP
  6
CONTINUOUS
 62
     7
100
AcDbText
 10
7.987383365631104
 20
7.397629015147686
 30
0.0
 40
0.09
  1
FSTHE
 41
1.145982188394375
100
AcDbText
  0
TEXT
  5
758
330
23
100
AcDbEntity
  8
TOP
  6
CONTINUOUS
 62
     7
100
AcDbText
 10
5.643587112426757
 20
6.266745798289775
 30
0.0
 40
0.09
  1
1.25
 41
1.161363682512083
100
AcDbText
  0
TEXT
  5
75B
330
23
100
AcDbEntity
  8
TOP
  6
CONTINUOUS
 62
     7
100
AcDbText
 10
2.71150779724121
 20
7.843772642314433
 30
0.0
 40
0.09
  1
8.06
 41
1.161363682512083
100
AcDbText
  0
TEXT
  5
75C
330
23
100
AcDbEntity
  8
TOP
  6
CONTINUOUS
 62
     7
100
AcDbText
 10
7.131561756134032
 20
5.079591028392314
 30
0.0
 40
0.09
  1
5. MATERIAL: ALUMINUM
 41
1.102318592189296
100
AcDbText
  0
TEXT
  5
75D
330
23
100
AcDbEntity
  8
TOP
  6
CONTINUOUS
 62
     7
100
AcDbText
 10
5.679994106292724
 20
3.54036235064268
 30
0.0
 40
0.09
  1
.89
 41
1.188281297218056
100
AcDbText
  0
TEXT
  5
75E
330
23
100
AcDbEntity
  8
TOP
  6
CONTINUOUS
 62
     7
100
AcDbText
 10
6.288374423980712
 20
3.538810722529888
 30
0.0
 40
0.09
  1
44.50
 41
1.145982188394383
100
AcDbText
  0
VIEWPORT
  5
763
330
24
100
AcDbEntity
 67
     1
  8
0
100
AcDbViewport
 10
6.000000027939678
 20
4.500000020954758
 30
0.0
 40
13.21799406824606
 41
9.067634156032283
 68
     1
 69
     1
1001
ACAD
1000
MVIEW
1002
{
1070
    16
1010
0.0
1020
0.0
1030
0.0
1010
0.0
1020
0.0
1030
1.0
1040
0.0
1040
9.067634156032283
1040
6.000000027939678
1040
4.500000020954758
1040
50.0
1040
0.0
1040
0.0
1070
     0
1070
   100
1070
     1
1070
     1
1070
     0
1070
     0
1070
     0
1070
     0
1040
0.0
1040
0.0
1040
0.0
1040
1.0
1040
1.0
1040
0.0
1040
0.0
1070
     0
1002
{
1002
}
1002
}
  0
VIEWPORT
  5
764
330
24
100
AcDbEntity
 67
     1
  8
0
100
AcDbViewport
 10
6.0
 20
4.5
 30
0.0
 40
12.0
 41
9.0
 68
     2
 69
     2
1001
ACAD
1000
MVIEW
1002
{
1070
    16
1010
0.0
1020
0.0
1030
0.0
1010
0.0
1020
0.0
1030
1.0
1040
0.0
1040
7.640255905511811
1040
5.903735890984535
1040
4.356249792501329
1040
56.5964619460975
1040
0.0
1040
0.0
1070
    16
1070
   100
1070
     1
1070
     0
1070
     0
1070
     0
1070
     0
1070
     0
1040
0.0
1040
0.0
1040
0.0
1040
1.0
1040
1.0
1040
0.0
1040
0.0
1070
     0
1002
{
1002
}
1002
}
  0
ENDSEC
  0
SECTION
  2
OBJECTS
  0
DICTIONARY
  5
765
330
0
100
AcDbDictionary
  3
ACAD_GROUP
350
766
  3
ACAD_LAYOUT
350
772
  3
ACAD_MLINESTYLE
350
767
  3
ACAD_PLOTSETTINGS
350
773
  3
ACAD_PLOTSTYLENAME
350
770
  3
ACDBHEADERROUNDTRIPXREC
350
7D9
  0
DICTIONARY
  5
7F9
330
23
100
AcDbDictionary
280
     1
  3
ACAD_LAYOUTSELFREF
360
7FA
  0
DICTIONARY
  5
7FB
330
24
100
AcDbDictionary
280
     1
  3
ACAD_LAYOUTSELFREF
360
7FC
  0
DICTIONARY
  5
766
102
{ACAD_REACTORS
330
765
102
}
330
765
100
AcDbDictionary
  0
DICTIONARY
  5
772
102
{ACAD_REACTORS
330
765
102
}
330
765
100
AcDbDictionary
  0
DICTIONARY
  5
767
102
{ACAD_REACTORS
330
765
102
}
330
765
100
AcDbDictionary
  3
STANDARD
350
768
  0
DICTIONARY
  5
773
102
{ACAD_REACTORS
330
765
102
}
330
765
100
AcDbDictionary
  0
ACDBDICTIONARYWDFLT
  5
770
102
{ACAD_REACTORS
330
765
102
}
330
765
100
AcDbDictionary
281
     1
  3
Normal
350
771
100
AcDbDictionaryWithDefault
340
771
  0
DICTIONARY
  5
7D9
102
{ACAD_REACTORS
330
765
102
}
330
765
100
AcDbDictionary
  3
CEPSNTYPE
350
7E3
  3
FINGERPRINTGUID
350
7E4
  3
HYPERLINKBASE
350
7DC
  3
INSUNITS
350
7E2
  3
LAYOUTDICT
350
7DE
  3
LWETCUNION
350
7E1
  3
PLOTSETDICT
350
7DF
  3
PLOTSTYLNAMDICT
350
7E0
  3
PSVPSCALE
350
7E6
  3
PUCSBASE
350
7E9
  3
PUCSORGBACK
350
7EF
  3
PUCSORGBOTTOM
350
7EB
  3
PUCSORGFRONT
350
7EE
  3
PUCSORGLEFT
350
7EC
  3
PUCSORGRIGHT
350
7ED
  3
PUCSORGTOP
350
7EA
  3
PUCSORTHOREF
350
7E7
  3
PUCSORTHOVIEW
350
7E8
  3
STYLESHEET
350
7DD
  3
TSTACKALIGN
350
7DA
  3
TSTACKSIZE
350
7DB
  3
UCSBASE
350
7F2
  3
UCSORGBACK
350
7F8
  3
UCSORGBOTTOM
350
7F4
  3
UCSORGFRONT
350
7F7
  3
UCSORGLEFT
350
7F5
  3
UCSORGRIGHT
350
7F6
  3
UCSORGTOP
350
7F3
  3
UCSORTHOREF
350
7F0
  3
UCSORTHOVIEW
350
7F1
  3
VERSIONGUID
350
7E5
  0
XRECORD
  5
7FA
102
{ACAD_REACTORS
330
7F9
102
}
330
7F9
100
AcDbXrecord
340
23
  0
XRECORD
  5
7FC
102
{ACAD_REACTORS
330
7FB
102
}
330
7FB
100
AcDbXrecord
340
24
  0
MLINESTYLE
  5
768
102
{ACAD_REACTORS
330
767
102
}
330
767
100
AcDbMlineStyle
  2
STANDARD
 70
     0
  3

 62
     0
 51
90.0
 52
90.0
 71
     2
 49
0.5
 62
   256
  6
BYLAYER
 49
-0.5
 62
   256
  6
BYLAYER
  0
ACDBPLACEHOLDER
  5
771
102
{ACAD_REACTORS
330
770
102
}
330
770
100
AcDbPlaceHolder
280
     0
  0
XRECORD
  5
7E3
102
{ACAD_REACTORS
330
7D9
102
}
330
7D9
100
AcDbXrecord
 90
        0
  0
XRECORD
  5
7E4
102
{ACAD_REACTORS
330
7D9
102
}
330
7D9
100
AcDbXrecord
  1
{56AEE089-A781-11D5-B718-00B0D0207C23}
  0
XRECORD
  5
7DC
102
{ACAD_REACTORS
330
7D9
102
}
330
7D9
100
AcDbXrecord
  1

  0
XRECORD
  5
7E2
102
{ACAD_REACTORS
330
7D9
102
}
330
7D9
100
AcDbXrecord
 90
        0
  0
XRECORD
  5
7DE
102
{ACAD_REACTORS
330
7D9
102
}
330
7D9
100
AcDbXrecord
340
772
  0
XRECORD
  5
7E1
102
{ACAD_REACTORS
330
7D9
102
}
330
7D9
100
AcDbXrecord
 90
    10781
  0
XRECORD
  5
7DF
102
{ACAD_REACTORS
330
7D9
102
}
330
7D9
100
AcDbXrecord
340
773
  0
XRECORD
  5
7E0
102
{ACAD_REACTORS
330
7D9
102
}
330
7D9
100
AcDbXrecord
340
770
  0
XRECORD
  5
7E6
102
{ACAD_REACTORS
330
7D9
102
}
330
7D9
100
AcDbXrecord
 40
0.0
  0
XRECORD
  5
7E9
102
{ACAD_REACTORS
330
7D9
102
}
330
7D9
100
AcDbXrecord
340
0
  0
XRECORD
  5
7EF
102
{ACAD_REACTORS
330
7D9
102
}
330
7D9
100
AcDbXrecord
 10
0.0
 20
0.0
 30
0.0
  0
XRECORD
  5
7EB
102
{ACAD_REACTORS
330
7D9
102
}
330
7D9
100
AcDbXrecord
 10
0.0
 20
0.0
 30
0.0
  0
XRECORD
  5
7EE
102
{ACAD_REACTORS
330
7D9
102
}
330
7D9
100
AcDbXrecord
 10
0.0
 20
0.0
 30
0.0
  0
XRECORD
  5
7EC
102
{ACAD_REACTORS
330
7D9
102
}
330
7D9
100
AcDbXrecord
 10
0.0
 20
0.0
 30
0.0
  0
XRECORD
  5
7ED
102
{ACAD_REACTORS
330
7D9
102
}
330
7D9
100
AcDbXrecord
 10
0.0
 20
0.0
 30
0.0
  0
XRECORD
  5
7EA
102
{ACAD_REACTORS
330
7D9
102
}
330
7D9
100
AcDbXrecord
 10
0.0
 20
0.0
 30
0.0
  0
XRECORD
  5
7E7
102
{ACAD_REACTORS
330
7D9
102
}
330
7D9
100
AcDbXrecord
340
0
  0
XRECORD
  5
7E8
102
{ACAD_REACTORS
330
7D9
102
}
330
7D9
100
AcDbXrecord
 70
     0
  0
XRECORD
  5
7DD
102
{ACAD_REACTORS
330
7D9
102
}
330
7D9
100
AcDbXrecord
  1

  0
XRECORD
  5
7DA
102
{ACAD_REACTORS
330
7D9
102
}
330
7D9
100
AcDbXrecord
 90
        1
  0
XRECORD
  5
7DB
102
{ACAD_REACTORS
330
7D9
102
}
330
7D9
100
AcDbXrecord
 90
       70
  0
XRECORD
  5
7F2
102
{ACAD_REACTORS
330
7D9
102
}
330
7D9
100
AcDbXrecord
340
0
  0
XRECORD
  5
7F8
102
{ACAD_REACTORS
330
7D9
102
}
330
7D9
100
AcDbXrecord
 10
0.0
 20
0.0
 30
0.0
  0
XRECORD
  5
7F4
102
{ACAD_REACTORS
330
7D9
102
}
330
7D9
100
AcDbXrecord
 10
0.0
 20
0.0
 30
0.0
  0
XRECORD
  5
7F7
102
{ACAD_REACTORS
330
7D9
102
}
330
7D9
100
AcDbXrecord
 10
0.0
 20
0.0
 30
0.0
  0
XRECORD
  5
7F5
102
{ACAD_REACTORS
330
7D9
102
}
330
7D9
100
AcDbXrecord
 10
0.0
 20
0.0
 30
0.0
  0
XRECORD
  5
7F6
102
{ACAD_REACTORS
330
7D9
102
}
330
7D9
100
AcDbXrecord
 10
0.0
 20
0.0
 30
0.0
  0
XRECORD
  5
7F3
102
{ACAD_REACTORS
330
7D9
102
}
330
7D9
100
AcDbXrecord
 10
0.0
 20
0.0
 30
0.0
  0
XRECORD
  5
7F0
102
{ACAD_REACTORS
330
7D9
102
}
330
7D9
100
AcDbXrecord
340
0
  0
XRECORD
  5
7F1
102
{ACAD_REACTORS
330
7D9
102
}
330
7D9
100
AcDbXrecord
 70
     0
  0
XRECORD
  5
7E5
102
{ACAD_REACTORS
330
7D9
102
}
330
7D9
100
AcDbXrecord
  1
{56AEE08B-A781-11D5-B718-00B0D0207C23}
  0
ENDSEC
  0
EOF
