  0
SECTION
  2
HEADER
  9
$ACADVER
  1
AC1012
  9
$DWGCODEPAGE
  3
ANSI_1252
  9
$INSBASE
 10
0.0
 20
0.0
 30
0.0
  9
$EXTMIN
 10
-1.45239255187613
 20
3.746749903246236
 30
-0.0015258207003583
  9
$EXTMAX
 10
3.039184587820415
 20
5.427658097850692
 30
0.0000000349246037
  9
$LIMMIN
 10
0.0
 20
0.0
  9
$LIMMAX
 10
12.0
 20
9.0
  9
$ORTHOMODE
 70
     0
  9
$REGENMODE
 70
     1
  9
$FILLMODE
 70
     1
  9
$QTEXTMODE
 70
     0
  9
$MIRRTEXT
 70
     1
  9
$DRAGMODE
 70
     2
  9
$LTSCALE
 40
1.0
  9
$OSMODE
 70
    33
  9
$ATTMODE
 70
     1
  9
$TEXTSIZE
 40
0.2
  9
$TRACEWID
 40
0.05
  9
$TEXTSTYLE
  7
STANDARD
  9
$CLAYER
  8
0
  9
$CELTYPE
  6
BYLAYER
  9
$CECOLOR
 62
   256
  9
$CELTSCALE
 40
1.0
  9
$DELOBJ
 70
     1
  9
$DISPSILH
 70
     0
  9
$DIMSCALE
 40
1.0
  9
$DIMASZ
 40
0.18
  9
$DIMEXO
 40
0.0625
  9
$DIMDLI
 40
0.38
  9
$DIMRND
 40
0.0
  9
$DIMDLE
 40
0.0
  9
$DIMEXE
 40
0.18
  9
$DIMTP
 40
0.0
  9
$DIMTM
 40
0.0
  9
$DIMTXT
 40
0.18
  9
$DIMCEN
 40
0.09
  9
$DIMTSZ
 40
0.0
  9
$DIMTOL
 70
     0
  9
$DIMLIM
 70
     0
  9
$DIMTIH
 70
     1
  9
$DIMTOH
 70
     1
  9
$DIMSE1
 70
     0
  9
$DIMSE2
 70
     0
  9
$DIMTAD
 70
     0
  9
$DIMZIN
 70
     0
  9
$DIMBLK
  1

  9
$DIMASO
 70
     1
  9
$DIMSHO
 70
     1
  9
$DIMPOST
  1

  9
$DIMAPOST
  1

  9
$DIMALT
 70
     0
  9
$DIMALTD
 70
     2
  9
$DIMALTF
 40
25.4
  9
$DIMLFAC
 40
1.0
  9
$DIMTOFL
 70
     0
  9
$DIMTVP
 40
0.0
  9
$DIMTIX
 70
     0
  9
$DIMSOXD
 70
     0
  9
$DIMSAH
 70
     0
  9
$DIMBLK1
  1

  9
$DIMBLK2
  1

  9
$DIMSTYLE
  2
STANDARD
  9
$DIMCLRD
 70
     0
  9
$DIMCLRE
 70
     0
  9
$DIMCLRT
 70
     0
  9
$DIMTFAC
 40
1.0
  9
$DIMGAP
 40
0.09
  9
$DIMJUST
 70
     0
  9
$DIMSD1
 70
     0
  9
$DIMSD2
 70
     0
  9
$DIMTOLJ
 70
     1
  9
$DIMTZIN
 70
     0
  9
$DIMALTZ
 70
     0
  9
$DIMALTTZ
 70
     0
  9
$DIMFIT
 70
     5
  9
$DIMUPT
 70
     0
  9
$DIMUNIT
 70
     2
  9
$DIMDEC
 70
     4
  9
$DIMTDEC
 70
     4
  9
$DIMALTU
 70
     2
  9
$DIMALTTD
 70
     2
  9
$DIMTXSTY
  7
STANDARD
  9
$DIMAUNIT
 70
     0
  9
$LUNITS
 70
     2
  9
$LUPREC
 70
     4
  9
$SKETCHINC
 40
0.1
  9
$FILLETRAD
 40
0.0
  9
$AUNITS
 70
     0
  9
$AUPREC
 70
     0
  9
$MENU
  1
acad
  9
$ELEVATION
 40
0.0
  9
$PELEVATION
 40
0.0
  9
$THICKNESS
 40
0.0
  9
$LIMCHECK
 70
     0
  9
$BLIPMODE
 70
     0
  9
$CHAMFERA
 40
0.0
  9
$CHAMFERB
 40
0.0
  9
$CHAMFERC
 40
0.0
  9
$CHAMFERD
 40
0.0
  9
$SKPOLY
 70
     0
  9
$TDCREATE
 40
2452650.543020833
  9
$TDUPDATE
 40
2452650.555014618
  9
$TDINDWG
 40
0.0004025579
  9
$TDUSRTIMER
 40
0.0004025579
  9
$USRTIMER
 70
     1
  9
$ANGBASE
 50
0.0
  9
$ANGDIR
 70
     0
  9
$PDMODE
 70
     0
  9
$PDSIZE
 40
0.0
  9
$PLINEWID
 40
0.0
  9
$COORDS
 70
     2
  9
$SPLFRAME
 70
     0
  9
$SPLINETYPE
 70
     6
  9
$SPLINESEGS
 70
     8
  9
$ATTDIA
 70
     0
  9
$ATTREQ
 70
     1
  9
$HANDLING
 70
  4097
  9
$HANDSEED
  5
489D
  9
$SURFTAB1
 70
     6
  9
$SURFTAB2
 70
     6
  9
$SURFTYPE
 70
     6
  9
$SURFU
 70
     6
  9
$SURFV
 70
     6
  9
$UCSNAME
  2

  9
$UCSORG
 10
0.0
 20
0.0
 30
0.0
  9
$UCSXDIR
 10
1.0
 20
0.0
 30
0.0
  9
$UCSYDIR
 10
0.0
 20
1.0
 30
0.0
  9
$PUCSNAME
  2

  9
$PUCSORG
 10
0.0
 20
0.0
 30
0.0
  9
$PUCSXDIR
 10
1.0
 20
0.0
 30
0.0
  9
$PUCSYDIR
 10
0.0
 20
1.0
 30
0.0
  9
$USERI1
 70
     0
  9
$USERI2
 70
     0
  9
$USERI3
 70
     0
  9
$USERI4
 70
     0
  9
$USERI5
 70
     0
  9
$USERR1
 40
0.0
  9
$USERR2
 40
0.0
  9
$USERR3
 40
0.0
  9
$USERR4
 40
0.0
  9
$USERR5
 40
0.0
  9
$WORLDVIEW
 70
     1
  9
$SHADEDGE
 70
     3
  9
$SHADEDIF
 70
    70
  9
$TILEMODE
 70
     1
  9
$MAXACTVP
 70
    16
  9
$PINSBASE
 10
0.0
 20
0.0
 30
0.0
  9
$PLIMCHECK
 70
     0
  9
$PEXTMIN
 10
1.000000000000000E+20
 20
1.000000000000000E+20
 30
1.000000000000000E+20
  9
$PEXTMAX
 10
-1.000000000000000E+20
 20
-1.000000000000000E+20
 30
-1.000000000000000E+20
  9
$PLIMMIN
 10
0.0
 20
0.0
  9
$PLIMMAX
 10
12.0
 20
9.0
  9
$UNITMODE
 70
     0
  9
$VISRETAIN
 70
     0
  9
$PLINEGEN
 70
     0
  9
$PSLTSCALE
 70
     1
  9
$TREEDEPTH
 70
  3020
  9
$PICKSTYLE
 70
     1
  9
$CMLSTYLE
  2
STANDARD
  9
$CMLJUST
 70
     0
  9
$CMLSCALE
 40
1.0
  9
$SAVEIMAGES
 70
     1
  0
ENDSEC
  0
SECTION
  2
CLASSES
  0
CLASS
  1
ACDBDICTIONARYWDFLT
  2
AcDbDictionaryWithDefault
  3
AutoCAD 2000
 90
    32768
280
     0
281
     0
  0
CLASS
  1
ACDBPLACEHOLDER
  2
AcDbPlaceHolder
  3
AutoCAD 2000
 90
    32768
280
     0
281
     0
  0
CLASS
  1
LAYOUT
  2
AcDbLayout
  3
AutoCAD 2000
 90
    32768
280
     0
281
     0
  0
CLASS
  1
LONG_TRANSACTION
  2
AcDbLongTransaction
  3
AutoCAD 2000
 90
    32768
280
     0
281
     0
  0
CLASS
  1
LWPOLYLINE
  2
AcDbPolyline
  3
AutoCAD 2000
 90
    32768
280
     0
281
     1
  0
CLASS
  1
HATCH
  2
AcDbHatch
  3
AutoCAD 2000
 90
    32768
280
     0
281
     1
  0
CLASS
  1
XRECORD
  2
AcDbXrecord
  3
AutoCAD 2000
 90
    32768
280
     0
281
     0
  0
ENDSEC
  0
SECTION
  2
TABLES
  0
TABLE
  2
VPORT
  5
8
330
0
100
AcDbSymbolTable
 70
     3
  0
VPORT
  5
4898
330
8
100
AcDbSymbolTableRecord
100
AcDbViewportTableRecord
  2
*ACTIVE
 70
     0
 10
0.0
 20
0.0
 11
1.0
 21
1.0
 12
0.7933960179721425
 22
4.587204000548464
 13
0.0
 23
0.0
 14
1.0
 24
1.0
 15
0.0
 25
0.0
 16
0.0
 26
0.0
 36
1.0
 17
0.0
 27
0.0
 37
0.0
 40
2.770149247920252
 41
1.62928759894459
 42
50.0
 43
0.0
 44
0.0
 50
0.0
 51
0.0
 71
     0
 72
   100
 73
     1
 74
     1
 75
     0
 76
     0
 77
     0
 78
     0
  0
ENDTAB
  0
TABLE
  2
LTYPE
  5
5
330
0
100
AcDbSymbolTable
 70
    25
  0
LTYPE
  5
13
330
5
100
AcDbSymbolTableRecord
100
AcDbLinetypeTableRecord
  2
BYBLOCK
 70
     0
  3

 72
    65
 73
     0
 40
0.0
  0
LTYPE
  5
14
330
5
100
AcDbSymbolTableRecord
100
AcDbLinetypeTableRecord
  2
BYLAYER
 70
     0
  3

 72
    65
 73
     0
 40
0.0
  0
LTYPE
  5
15
330
5
100
AcDbSymbolTableRecord
100
AcDbLinetypeTableRecord
  2
CONTINUOUS
 70
     0
  3
Solid line
 72
    65
 73
     0
 40
0.0
  0
LTYPE
  5
22
330
5
100
AcDbSymbolTableRecord
100
AcDbLinetypeTableRecord
  2
BORDER
 70
     0
  3
__ __ . __ __ . __ __ . __ __ . __ __ . __ __ .
 72
    65
 73
     6
 40
1.75
 49
0.5
 74
     0
 49
-0.25
 74
     0
 49
0.5
 74
     0
 49
-0.25
 74
     0
 49
0.5
 74
     0
 49
-0.25
 74
     0
  0
LTYPE
  5
23
330
5
100
AcDbSymbolTableRecord
100
AcDbLinetypeTableRecord
  2
BORDER2
 70
     0
  3
__.__.__.__.__.__.__.__.__.__.__.__.__.__.__.__
 72
    65
 73
     6
 40
0.875
 49
0.25
 74
     0
 49
-0.125
 74
     0
 49
0.25
 74
     0
 49
-0.125
 74
     0
 49
0.25
 74
     0
 49
-0.125
 74
     0
  0
LTYPE
  5
24
330
5
100
AcDbSymbolTableRecord
100
AcDbLinetypeTableRecord
  2
BORDERX2
 70
     0
  3
____  ____  .  ____  ____  .  
 72
    65
 73
     6
 40
3.5
 49
1.0
 74
     0
 49
-0.5
 74
     0
 49
1.0
 74
     0
 49
-0.5
 74
     0
 49
1.0
 74
     0
 49
-0.5
 74
     0
  0
LTYPE
  5
25
330
5
100
AcDbSymbolTableRecord
100
AcDbLinetypeTableRecord
  2
CENTER
 70
     0
  3
____ _ ____ _ ____ _ ____ _ ____ _ ____ _ ____
 72
    65
 73
     4
 40
2.0
 49
1.25
 74
     0
 49
-0.25
 74
     0
 49
0.25
 74
     0
 49
-0.25
 74
     0
  0
LTYPE
  5
26
330
5
100
AcDbSymbolTableRecord
100
AcDbLinetypeTableRecord
  2
CENTER2
 70
     0
  3
____ _ ____ _ ____ _ ____ _ ____ _ ____ _ ____
 72
    65
 73
     4
 40
1.125
 49
0.75
 74
     0
 49
-0.125
 74
     0
 49
0.125
 74
     0
 49
-0.125
 74
     0
  0
LTYPE
  5
27
330
5
100
AcDbSymbolTableRecord
100
AcDbLinetypeTableRecord
  2
CENTERX2
 70
     0
  3
________  __  ________  __  ________  __  
 72
    65
 73
     4
 40
4.0
 49
2.5
 74
     0
 49
-0.5
 74
     0
 49
0.5
 74
     0
 49
-0.5
 74
     0
  0
LTYPE
  5
28
330
5
100
AcDbSymbolTableRecord
100
AcDbLinetypeTableRecord
  2
DASHDOT
 70
     0
  3
__ . __ . __ . __ . __ . __ . __ . 
 72
    65
 73
     4
 40
1.0
 49
0.5
 74
     0
 49
-0.25
 74
     0
 49
0.0
 74
     0
 49
-0.25
 74
     0
  0
LTYPE
  5
29
330
5
100
AcDbSymbolTableRecord
100
AcDbLinetypeTableRecord
  2
DASHDOT2
 70
     0
  3
_._._._._._._._._._._._._._._._.
 72
    65
 73
     4
 40
0.5
 49
0.25
 74
     0
 49
-0.125
 74
     0
 49
0.0
 74
     0
 49
-0.125
 74
     0
  0
LTYPE
  5
2A
330
5
100
AcDbSymbolTableRecord
100
AcDbLinetypeTableRecord
  2
DASHDOTX2
 70
     0
  3
____  .  ____  .  ____  .  ____  .  
 72
    65
 73
     4
 40
2.0
 49
1.0
 74
     0
 49
-0.5
 74
     0
 49
0.0
 74
     0
 49
-0.5
 74
     0
  0
LTYPE
  5
2B
330
5
100
AcDbSymbolTableRecord
100
AcDbLinetypeTableRecord
  2
DASHED
 70
     0
  3
__ __ __ __ __ __ __ __ __ __ __ __ 
 72
    65
 73
     2
 40
0.75
 49
0.5
 74
     0
 49
-0.25
 74
     0
  0
LTYPE
  5
2C
330
5
100
AcDbSymbolTableRecord
100
AcDbLinetypeTableRecord
  2
DASHED2
 70
     0
  3
_ _ _ _ _ _ _ _ _ _ _ _ _ _ _ _ _ _ 
 72
    65
 73
     2
 40
0.375
 49
0.25
 74
     0
 49
-0.125
 74
     0
  0
LTYPE
  5
2D
330
5
100
AcDbSymbolTableRecord
100
AcDbLinetypeTableRecord
  2
DASHEDX2
 70
     0
  3
____  ____  ____  ____  ____  ____  
 72
    65
 73
     2
 40
1.5
 49
1.0
 74
     0
 49
-0.5
 74
     0
  0
LTYPE
  5
2E
330
5
100
AcDbSymbolTableRecord
100
AcDbLinetypeTableRecord
  2
DIVIDE
 70
     0
  3
____ . . ____ . . ____ . . ____ . . 
 72
    65
 73
     6
 40
1.25
 49
0.5
 74
     0
 49
-0.25
 74
     0
 49
0.0
 74
     0
 49
-0.25
 74
     0
 49
0.0
 74
     0
 49
-0.25
 74
     0
  0
LTYPE
  5
2F
330
5
100
AcDbSymbolTableRecord
100
AcDbLinetypeTableRecord
  2
DIVIDE2
 70
     0
  3
__..__..__..__..__..__..__..__..__..
 72
    65
 73
     6
 40
0.625
 49
0.25
 74
     0
 49
-0.125
 74
     0
 49
0.0
 74
     0
 49
-0.125
 74
     0
 49
0.0
 74
     0
 49
-0.125
 74
     0
  0
LTYPE
  5
30
330
5
100
AcDbSymbolTableRecord
100
AcDbLinetypeTableRecord
  2
DIVIDEX2
 70
     0
  3
________  .  .  ________  .  .  ________  .  . 
 72
    65
 73
     6
 40
2.5
 49
1.0
 74
     0
 49
-0.5
 74
     0
 49
0.0
 74
     0
 49
-0.5
 74
     0
 49
0.0
 74
     0
 49
-0.5
 74
     0
  0
LTYPE
  5
31
330
5
100
AcDbSymbolTableRecord
100
AcDbLinetypeTableRecord
  2
DOT
 70
     0
  3
. . . . . . . . . . . . . . . . . . 
 72
    65
 73
     2
 40
0.25
 49
0.0
 74
     0
 49
-0.25
 74
     0
  0
LTYPE
  5
32
330
5
100
AcDbSymbolTableRecord
100
AcDbLinetypeTableRecord
  2
DOT2
 70
     0
  3
....................................
 72
    65
 73
     2
 40
0.125
 49
0.0
 74
     0
 49
-0.125
 74
     0
  0
LTYPE
  5
33
330
5
100
AcDbSymbolTableRecord
100
AcDbLinetypeTableRecord
  2
DOTX2
 70
     0
  3
.  .  .  .  .  .  .  .  .  .  .  .  .  
 72
    65
 73
     2
 40
0.5
 49
0.0
 74
     0
 49
-0.5
 74
     0
  0
LTYPE
  5
34
330
5
100
AcDbSymbolTableRecord
100
AcDbLinetypeTableRecord
  2
HIDDEN
 70
     0
  3
__ __ __ __ __ __ __ __ __ __ __ __ 
 72
    65
 73
     2
 40
0.375
 49
0.25
 74
     0
 49
-0.125
 74
     0
  0
LTYPE
  5
35
330
5
100
AcDbSymbolTableRecord
100
AcDbLinetypeTableRecord
  2
HIDDEN2
 70
     0
  3
_ _ _ _ _ _ _ _ _ _ _ _ _ _ _ _ _ _ 
 72
    65
 73
     2
 40
0.1875
 49
0.125
 74
     0
 49
-0.0625
 74
     0
  0
LTYPE
  5
36
330
5
100
AcDbSymbolTableRecord
100
AcDbLinetypeTableRecord
  2
HIDDENX2
 70
     0
  3
____ ____ ____ ____ ____ ____ ____ 
 72
    65
 73
     2
 40
0.75
 49
0.5
 74
     0
 49
-0.25
 74
     0
  0
LTYPE
  5
37
330
5
100
AcDbSymbolTableRecord
100
AcDbLinetypeTableRecord
  2
PHANTOM
 70
     0
  3
______  __  __  ______  __  __  
 72
    65
 73
     6
 40
2.5
 49
1.25
 74
     0
 49
-0.25
 74
     0
 49
0.25
 74
     0
 49
-0.25
 74
     0
 49
0.25
 74
     0
 49
-0.25
 74
     0
  0
LTYPE
  5
38
330
5
100
AcDbSymbolTableRecord
100
AcDbLinetypeTableRecord
  2
PHANTOM2
 70
     0
  3
___ _ _ ___ _ _ ___ _ _ ___ _ _ 
 72
    65
 73
     6
 40
1.25
 49
0.625
 74
     0
 49
-0.125
 74
     0
 49
0.125
 74
     0
 49
-0.125
 74
     0
 49
0.125
 74
     0
 49
-0.125
 74
     0
  0
LTYPE
  5
39
330
5
100
AcDbSymbolTableRecord
100
AcDbLinetypeTableRecord
  2
PHANTOMX2
 70
     0
  3
___ _ _ ___ _ _ ___ _ _ ___ _ _ 
 72
    65
 73
     6
 40
5.0
 49
2.5
 74
     0
 49
-0.5
 74
     0
 49
0.5
 74
     0
 49
-0.5
 74
     0
 49
0.5
 74
     0
 49
-0.5
 74
     0
  0
ENDTAB
  0
TABLE
  2
LAYER
  5
2
330
0
100
AcDbSymbolTable
 70
   256
  0
LAYER
  5
10
330
2
100
AcDbSymbolTableRecord
100
AcDbLayerTableRecord
  2
0
 70
     0
 62
     7
  6
CONTINUOUS
  0
LAYER
  5
3A
330
2
100
AcDbSymbolTableRecord
100
AcDbLayerTableRecord
  2
1
 70
     0
 62
     1
  6
CONTINUOUS
  0
LAYER
  5
3B
330
2
100
AcDbSymbolTableRecord
100
AcDbLayerTableRecord
  2
2
 70
     0
 62
     2
  6
CONTINUOUS
  0
LAYER
  5
3C
330
2
100
AcDbSymbolTableRecord
100
AcDbLayerTableRecord
  2
3
 70
     0
 62
     3
  6
CONTINUOUS
  0
LAYER
  5
3D
330
2
100
AcDbSymbolTableRecord
100
AcDbLayerTableRecord
  2
4
 70
     0
 62
     4
  6
CONTINUOUS
  0
LAYER
  5
3E
330
2
100
AcDbSymbolTableRecord
100
AcDbLayerTableRecord
  2
5
 70
     0
 62
     5
  6
CONTINUOUS
  0
LAYER
  5
3F
330
2
100
AcDbSymbolTableRecord
100
AcDbLayerTableRecord
  2
6
 70
     0
 62
     6
  6
CONTINUOUS
  0
LAYER
  5
40
330
2
100
AcDbSymbolTableRecord
100
AcDbLayerTableRecord
  2
7
 70
     0
 62
     7
  6
CONTINUOUS
  0
LAYER
  5
41
330
2
100
AcDbSymbolTableRecord
100
AcDbLayerTableRecord
  2
8
 70
     0
 62
     8
  6
CONTINUOUS
  0
LAYER
  5
42
330
2
100
AcDbSymbolTableRecord
100
AcDbLayerTableRecord
  2
9
 70
     0
 62
     9
  6
CONTINUOUS
  0
LAYER
  5
43
330
2
100
AcDbSymbolTableRecord
100
AcDbLayerTableRecord
  2
10
 70
     0
 62
    10
  6
CONTINUOUS
  0
LAYER
  5
44
330
2
100
AcDbSymbolTableRecord
100
AcDbLayerTableRecord
  2
11
 70
     0
 62
    11
  6
CONTINUOUS
  0
LAYER
  5
45
330
2
100
AcDbSymbolTableRecord
100
AcDbLayerTableRecord
  2
12
 70
     0
 62
    12
  6
CONTINUOUS
  0
LAYER
  5
46
330
2
100
AcDbSymbolTableRecord
100
AcDbLayerTableRecord
  2
13
 70
     0
 62
    13
  6
CONTINUOUS
  0
LAYER
  5
47
330
2
100
AcDbSymbolTableRecord
100
AcDbLayerTableRecord
  2
14
 70
     0
 62
    14
  6
CONTINUOUS
  0
LAYER
  5
48
330
2
100
AcDbSymbolTableRecord
100
AcDbLayerTableRecord
  2
15
 70
     0
 62
    15
  6
CONTINUOUS
  0
LAYER
  5
49
330
2
100
AcDbSymbolTableRecord
100
AcDbLayerTableRecord
  2
16
 70
     0
 62
    16
  6
CONTINUOUS
  0
LAYER
  5
4A
330
2
100
AcDbSymbolTableRecord
100
AcDbLayerTableRecord
  2
17
 70
     0
 62
    17
  6
CONTINUOUS
  0
LAYER
  5
4B
330
2
100
AcDbSymbolTableRecord
100
AcDbLayerTableRecord
  2
18
 70
     0
 62
    18
  6
CONTINUOUS
  0
LAYER
  5
4C
330
2
100
AcDbSymbolTableRecord
100
AcDbLayerTableRecord
  2
19
 70
     0
 62
    19
  6
CONTINUOUS
  0
LAYER
  5
4D
330
2
100
AcDbSymbolTableRecord
100
AcDbLayerTableRecord
  2
20
 70
     0
 62
    20
  6
CONTINUOUS
  0
LAYER
  5
4E
330
2
100
AcDbSymbolTableRecord
100
AcDbLayerTableRecord
  2
21
 70
     0
 62
    21
  6
CONTINUOUS
  0
LAYER
  5
4F
330
2
100
AcDbSymbolTableRecord
100
AcDbLayerTableRecord
  2
22
 70
     0
 62
    22
  6
CONTINUOUS
  0
LAYER
  5
50
330
2
100
AcDbSymbolTableRecord
100
AcDbLayerTableRecord
  2
23
 70
     0
 62
    23
  6
CONTINUOUS
  0
LAYER
  5
51
330
2
100
AcDbSymbolTableRecord
100
AcDbLayerTableRecord
  2
24
 70
     0
 62
    24
  6
CONTINUOUS
  0
LAYER
  5
52
330
2
100
AcDbSymbolTableRecord
100
AcDbLayerTableRecord
  2
25
 70
     0
 62
    25
  6
CONTINUOUS
  0
LAYER
  5
53
330
2
100
AcDbSymbolTableRecord
100
AcDbLayerTableRecord
  2
26
 70
     0
 62
    26
  6
CONTINUOUS
  0
LAYER
  5
54
330
2
100
AcDbSymbolTableRecord
100
AcDbLayerTableRecord
  2
27
 70
     0
 62
    27
  6
CONTINUOUS
  0
LAYER
  5
55
330
2
100
AcDbSymbolTableRecord
100
AcDbLayerTableRecord
  2
28
 70
     0
 62
    28
  6
CONTINUOUS
  0
LAYER
  5
56
330
2
100
AcDbSymbolTableRecord
100
AcDbLayerTableRecord
  2
29
 70
     0
 62
    29
  6
CONTINUOUS
  0
LAYER
  5
57
330
2
100
AcDbSymbolTableRecord
100
AcDbLayerTableRecord
  2
30
 70
     0
 62
    30
  6
CONTINUOUS
  0
LAYER
  5
58
330
2
100
AcDbSymbolTableRecord
100
AcDbLayerTableRecord
  2
31
 70
     0
 62
    31
  6
CONTINUOUS
  0
LAYER
  5
59
330
2
100
AcDbSymbolTableRecord
100
AcDbLayerTableRecord
  2
32
 70
     0
 62
    32
  6
CONTINUOUS
  0
LAYER
  5
5A
330
2
100
AcDbSymbolTableRecord
100
AcDbLayerTableRecord
  2
33
 70
     0
 62
    33
  6
CONTINUOUS
  0
LAYER
  5
5B
330
2
100
AcDbSymbolTableRecord
100
AcDbLayerTableRecord
  2
34
 70
     0
 62
    34
  6
CONTINUOUS
  0
LAYER
  5
5C
330
2
100
AcDbSymbolTableRecord
100
AcDbLayerTableRecord
  2
35
 70
     0
 62
    35
  6
CONTINUOUS
  0
LAYER
  5
5D
330
2
100
AcDbSymbolTableRecord
100
AcDbLayerTableRecord
  2
36
 70
     0
 62
    36
  6
CONTINUOUS
  0
LAYER
  5
5E
330
2
100
AcDbSymbolTableRecord
100
AcDbLayerTableRecord
  2
37
 70
     0
 62
    37
  6
CONTINUOUS
  0
LAYER
  5
5F
330
2
100
AcDbSymbolTableRecord
100
AcDbLayerTableRecord
  2
38
 70
     0
 62
    38
  6
CONTINUOUS
  0
LAYER
  5
60
330
2
100
AcDbSymbolTableRecord
100
AcDbLayerTableRecord
  2
39
 70
     0
 62
    39
  6
CONTINUOUS
  0
LAYER
  5
61
330
2
100
AcDbSymbolTableRecord
100
AcDbLayerTableRecord
  2
40
 70
     0
 62
    40
  6
CONTINUOUS
  0
LAYER
  5
62
330
2
100
AcDbSymbolTableRecord
100
AcDbLayerTableRecord
  2
41
 70
     0
 62
    41
  6
CONTINUOUS
  0
LAYER
  5
63
330
2
100
AcDbSymbolTableRecord
100
AcDbLayerTableRecord
  2
42
 70
     0
 62
    42
  6
CONTINUOUS
  0
LAYER
  5
64
330
2
100
AcDbSymbolTableRecord
100
AcDbLayerTableRecord
  2
43
 70
     0
 62
    43
  6
CONTINUOUS
  0
LAYER
  5
65
330
2
100
AcDbSymbolTableRecord
100
AcDbLayerTableRecord
  2
44
 70
     0
 62
    44
  6
CONTINUOUS
  0
LAYER
  5
66
330
2
100
AcDbSymbolTableRecord
100
AcDbLayerTableRecord
  2
45
 70
     0
 62
    45
  6
CONTINUOUS
  0
LAYER
  5
67
330
2
100
AcDbSymbolTableRecord
100
AcDbLayerTableRecord
  2
46
 70
     0
 62
    46
  6
CONTINUOUS
  0
LAYER
  5
68
330
2
100
AcDbSymbolTableRecord
100
AcDbLayerTableRecord
  2
47
 70
     0
 62
    47
  6
CONTINUOUS
  0
LAYER
  5
69
330
2
100
AcDbSymbolTableRecord
100
AcDbLayerTableRecord
  2
48
 70
     0
 62
    48
  6
CONTINUOUS
  0
LAYER
  5
6A
330
2
100
AcDbSymbolTableRecord
100
AcDbLayerTableRecord
  2
49
 70
     0
 62
    49
  6
CONTINUOUS
  0
LAYER
  5
6B
330
2
100
AcDbSymbolTableRecord
100
AcDbLayerTableRecord
  2
50
 70
     0
 62
    50
  6
CONTINUOUS
  0
LAYER
  5
6C
330
2
100
AcDbSymbolTableRecord
100
AcDbLayerTableRecord
  2
51
 70
     0
 62
    51
  6
CONTINUOUS
  0
LAYER
  5
6D
330
2
100
AcDbSymbolTableRecord
100
AcDbLayerTableRecord
  2
52
 70
     0
 62
    52
  6
CONTINUOUS
  0
LAYER
  5
6E
330
2
100
AcDbSymbolTableRecord
100
AcDbLayerTableRecord
  2
53
 70
     0
 62
    53
  6
CONTINUOUS
  0
LAYER
  5
6F
330
2
100
AcDbSymbolTableRecord
100
AcDbLayerTableRecord
  2
54
 70
     0
 62
    54
  6
CONTINUOUS
  0
LAYER
  5
70
330
2
100
AcDbSymbolTableRecord
100
AcDbLayerTableRecord
  2
55
 70
     0
 62
    55
  6
CONTINUOUS
  0
LAYER
  5
71
330
2
100
AcDbSymbolTableRecord
100
AcDbLayerTableRecord
  2
56
 70
     0
 62
    56
  6
CONTINUOUS
  0
LAYER
  5
72
330
2
100
AcDbSymbolTableRecord
100
AcDbLayerTableRecord
  2
57
 70
     0
 62
    57
  6
CONTINUOUS
  0
LAYER
  5
73
330
2
100
AcDbSymbolTableRecord
100
AcDbLayerTableRecord
  2
58
 70
     0
 62
    58
  6
CONTINUOUS
  0
LAYER
  5
74
330
2
100
AcDbSymbolTableRecord
100
AcDbLayerTableRecord
  2
59
 70
     0
 62
    59
  6
CONTINUOUS
  0
LAYER
  5
75
330
2
100
AcDbSymbolTableRecord
100
AcDbLayerTableRecord
  2
60
 70
     0
 62
    60
  6
CONTINUOUS
  0
LAYER
  5
76
330
2
100
AcDbSymbolTableRecord
100
AcDbLayerTableRecord
  2
61
 70
     0
 62
    61
  6
CONTINUOUS
  0
LAYER
  5
77
330
2
100
AcDbSymbolTableRecord
100
AcDbLayerTableRecord
  2
62
 70
     0
 62
    62
  6
CONTINUOUS
  0
LAYER
  5
78
330
2
100
AcDbSymbolTableRecord
100
AcDbLayerTableRecord
  2
63
 70
     0
 62
    63
  6
CONTINUOUS
  0
LAYER
  5
79
330
2
100
AcDbSymbolTableRecord
100
AcDbLayerTableRecord
  2
64
 70
     0
 62
    64
  6
CONTINUOUS
  0
LAYER
  5
7A
330
2
100
AcDbSymbolTableRecord
100
AcDbLayerTableRecord
  2
65
 70
     0
 62
    65
  6
CONTINUOUS
  0
LAYER
  5
7B
330
2
100
AcDbSymbolTableRecord
100
AcDbLayerTableRecord
  2
66
 70
     0
 62
    66
  6
CONTINUOUS
  0
LAYER
  5
7C
330
2
100
AcDbSymbolTableRecord
100
AcDbLayerTableRecord
  2
67
 70
     0
 62
    67
  6
CONTINUOUS
  0
LAYER
  5
7D
330
2
100
AcDbSymbolTableRecord
100
AcDbLayerTableRecord
  2
68
 70
     0
 62
    68
  6
CONTINUOUS
  0
LAYER
  5
7E
330
2
100
AcDbSymbolTableRecord
100
AcDbLayerTableRecord
  2
69
 70
     0
 62
    69
  6
CONTINUOUS
  0
LAYER
  5
7F
330
2
100
AcDbSymbolTableRecord
100
AcDbLayerTableRecord
  2
70
 70
     0
 62
    70
  6
CONTINUOUS
  0
LAYER
  5
80
330
2
100
AcDbSymbolTableRecord
100
AcDbLayerTableRecord
  2
71
 70
     0
 62
    71
  6
CONTINUOUS
  0
LAYER
  5
81
330
2
100
AcDbSymbolTableRecord
100
AcDbLayerTableRecord
  2
72
 70
     0
 62
    72
  6
CONTINUOUS
  0
LAYER
  5
82
330
2
100
AcDbSymbolTableRecord
100
AcDbLayerTableRecord
  2
73
 70
     0
 62
    73
  6
CONTINUOUS
  0
LAYER
  5
83
330
2
100
AcDbSymbolTableRecord
100
AcDbLayerTableRecord
  2
74
 70
     0
 62
    74
  6
CONTINUOUS
  0
LAYER
  5
84
330
2
100
AcDbSymbolTableRecord
100
AcDbLayerTableRecord
  2
75
 70
     0
 62
    75
  6
CONTINUOUS
  0
LAYER
  5
85
330
2
100
AcDbSymbolTableRecord
100
AcDbLayerTableRecord
  2
76
 70
     0
 62
    76
  6
CONTINUOUS
  0
LAYER
  5
86
330
2
100
AcDbSymbolTableRecord
100
AcDbLayerTableRecord
  2
77
 70
     0
 62
    77
  6
CONTINUOUS
  0
LAYER
  5
87
330
2
100
AcDbSymbolTableRecord
100
AcDbLayerTableRecord
  2
78
 70
     0
 62
    78
  6
CONTINUOUS
  0
LAYER
  5
88
330
2
100
AcDbSymbolTableRecord
100
AcDbLayerTableRecord
  2
79
 70
     0
 62
    79
  6
CONTINUOUS
  0
LAYER
  5
89
330
2
100
AcDbSymbolTableRecord
100
AcDbLayerTableRecord
  2
80
 70
     0
 62
    80
  6
CONTINUOUS
  0
LAYER
  5
8A
330
2
100
AcDbSymbolTableRecord
100
AcDbLayerTableRecord
  2
81
 70
     0
 62
    81
  6
CONTINUOUS
  0
LAYER
  5
8B
330
2
100
AcDbSymbolTableRecord
100
AcDbLayerTableRecord
  2
82
 70
     0
 62
    82
  6
CONTINUOUS
  0
LAYER
  5
8C
330
2
100
AcDbSymbolTableRecord
100
AcDbLayerTableRecord
  2
83
 70
     0
 62
    83
  6
CONTINUOUS
  0
LAYER
  5
8D
330
2
100
AcDbSymbolTableRecord
100
AcDbLayerTableRecord
  2
84
 70
     0
 62
    84
  6
CONTINUOUS
  0
LAYER
  5
8E
330
2
100
AcDbSymbolTableRecord
100
AcDbLayerTableRecord
  2
85
 70
     0
 62
    85
  6
CONTINUOUS
  0
LAYER
  5
8F
330
2
100
AcDbSymbolTableRecord
100
AcDbLayerTableRecord
  2
86
 70
     0
 62
    86
  6
CONTINUOUS
  0
LAYER
  5
90
330
2
100
AcDbSymbolTableRecord
100
AcDbLayerTableRecord
  2
87
 70
     0
 62
    87
  6
CONTINUOUS
  0
LAYER
  5
91
330
2
100
AcDbSymbolTableRecord
100
AcDbLayerTableRecord
  2
88
 70
     0
 62
    88
  6
CONTINUOUS
  0
LAYER
  5
92
330
2
100
AcDbSymbolTableRecord
100
AcDbLayerTableRecord
  2
89
 70
     0
 62
    89
  6
CONTINUOUS
  0
LAYER
  5
93
330
2
100
AcDbSymbolTableRecord
100
AcDbLayerTableRecord
  2
90
 70
     0
 62
    90
  6
CONTINUOUS
  0
LAYER
  5
94
330
2
100
AcDbSymbolTableRecord
100
AcDbLayerTableRecord
  2
91
 70
     0
 62
    91
  6
CONTINUOUS
  0
LAYER
  5
95
330
2
100
AcDbSymbolTableRecord
100
AcDbLayerTableRecord
  2
92
 70
     0
 62
    92
  6
CONTINUOUS
  0
LAYER
  5
96
330
2
100
AcDbSymbolTableRecord
100
AcDbLayerTableRecord
  2
93
 70
     0
 62
    93
  6
CONTINUOUS
  0
LAYER
  5
97
330
2
100
AcDbSymbolTableRecord
100
AcDbLayerTableRecord
  2
94
 70
     0
 62
    94
  6
CONTINUOUS
  0
LAYER
  5
98
330
2
100
AcDbSymbolTableRecord
100
AcDbLayerTableRecord
  2
95
 70
     0
 62
    95
  6
CONTINUOUS
  0
LAYER
  5
99
330
2
100
AcDbSymbolTableRecord
100
AcDbLayerTableRecord
  2
96
 70
     0
 62
    96
  6
CONTINUOUS
  0
LAYER
  5
9A
330
2
100
AcDbSymbolTableRecord
100
AcDbLayerTableRecord
  2
97
 70
     0
 62
    97
  6
CONTINUOUS
  0
LAYER
  5
9B
330
2
100
AcDbSymbolTableRecord
100
AcDbLayerTableRecord
  2
98
 70
     0
 62
    98
  6
CONTINUOUS
  0
LAYER
  5
9C
330
2
100
AcDbSymbolTableRecord
100
AcDbLayerTableRecord
  2
99
 70
     0
 62
    99
  6
CONTINUOUS
  0
LAYER
  5
9D
330
2
100
AcDbSymbolTableRecord
100
AcDbLayerTableRecord
  2
100
 70
     0
 62
   100
  6
CONTINUOUS
  0
LAYER
  5
9E
330
2
100
AcDbSymbolTableRecord
100
AcDbLayerTableRecord
  2
101
 70
     0
 62
   101
  6
CONTINUOUS
  0
LAYER
  5
9F
330
2
100
AcDbSymbolTableRecord
100
AcDbLayerTableRecord
  2
102
 70
     0
 62
   102
  6
CONTINUOUS
  0
LAYER
  5
A0
330
2
100
AcDbSymbolTableRecord
100
AcDbLayerTableRecord
  2
103
 70
     0
 62
   103
  6
CONTINUOUS
  0
LAYER
  5
A1
330
2
100
AcDbSymbolTableRecord
100
AcDbLayerTableRecord
  2
104
 70
     0
 62
   104
  6
CONTINUOUS
  0
LAYER
  5
A2
330
2
100
AcDbSymbolTableRecord
100
AcDbLayerTableRecord
  2
105
 70
     0
 62
   105
  6
CONTINUOUS
  0
LAYER
  5
A3
330
2
100
AcDbSymbolTableRecord
100
AcDbLayerTableRecord
  2
106
 70
     0
 62
   106
  6
CONTINUOUS
  0
LAYER
  5
A4
330
2
100
AcDbSymbolTableRecord
100
AcDbLayerTableRecord
  2
107
 70
     0
 62
   107
  6
CONTINUOUS
  0
LAYER
  5
A5
330
2
100
AcDbSymbolTableRecord
100
AcDbLayerTableRecord
  2
108
 70
     0
 62
   108
  6
CONTINUOUS
  0
LAYER
  5
A6
330
2
100
AcDbSymbolTableRecord
100
AcDbLayerTableRecord
  2
109
 70
     0
 62
   109
  6
CONTINUOUS
  0
LAYER
  5
A7
330
2
100
AcDbSymbolTableRecord
100
AcDbLayerTableRecord
  2
110
 70
     0
 62
   110
  6
CONTINUOUS
  0
LAYER
  5
A8
330
2
100
AcDbSymbolTableRecord
100
AcDbLayerTableRecord
  2
111
 70
     0
 62
   111
  6
CONTINUOUS
  0
LAYER
  5
A9
330
2
100
AcDbSymbolTableRecord
100
AcDbLayerTableRecord
  2
112
 70
     0
 62
   112
  6
CONTINUOUS
  0
LAYER
  5
AA
330
2
100
AcDbSymbolTableRecord
100
AcDbLayerTableRecord
  2
113
 70
     0
 62
   113
  6
CONTINUOUS
  0
LAYER
  5
AB
330
2
100
AcDbSymbolTableRecord
100
AcDbLayerTableRecord
  2
114
 70
     0
 62
   114
  6
CONTINUOUS
  0
LAYER
  5
AC
330
2
100
AcDbSymbolTableRecord
100
AcDbLayerTableRecord
  2
115
 70
     0
 62
   115
  6
CONTINUOUS
  0
LAYER
  5
AD
330
2
100
AcDbSymbolTableRecord
100
AcDbLayerTableRecord
  2
116
 70
     0
 62
   116
  6
CONTINUOUS
  0
LAYER
  5
AE
330
2
100
AcDbSymbolTableRecord
100
AcDbLayerTableRecord
  2
117
 70
     0
 62
   117
  6
CONTINUOUS
  0
LAYER
  5
AF
330
2
100
AcDbSymbolTableRecord
100
AcDbLayerTableRecord
  2
118
 70
     0
 62
   118
  6
CONTINUOUS
  0
LAYER
  5
B0
330
2
100
AcDbSymbolTableRecord
100
AcDbLayerTableRecord
  2
119
 70
     0
 62
   119
  6
CONTINUOUS
  0
LAYER
  5
B1
330
2
100
AcDbSymbolTableRecord
100
AcDbLayerTableRecord
  2
120
 70
     0
 62
   120
  6
CONTINUOUS
  0
LAYER
  5
B2
330
2
100
AcDbSymbolTableRecord
100
AcDbLayerTableRecord
  2
121
 70
     0
 62
   121
  6
CONTINUOUS
  0
LAYER
  5
B3
330
2
100
AcDbSymbolTableRecord
100
AcDbLayerTableRecord
  2
122
 70
     0
 62
   122
  6
CONTINUOUS
  0
LAYER
  5
B4
330
2
100
AcDbSymbolTableRecord
100
AcDbLayerTableRecord
  2
123
 70
     0
 62
   123
  6
CONTINUOUS
  0
LAYER
  5
B5
330
2
100
AcDbSymbolTableRecord
100
AcDbLayerTableRecord
  2
124
 70
     0
 62
   124
  6
CONTINUOUS
  0
LAYER
  5
B6
330
2
100
AcDbSymbolTableRecord
100
AcDbLayerTableRecord
  2
125
 70
     0
 62
   125
  6
CONTINUOUS
  0
LAYER
  5
B7
330
2
100
AcDbSymbolTableRecord
100
AcDbLayerTableRecord
  2
126
 70
     0
 62
   126
  6
CONTINUOUS
  0
LAYER
  5
B8
330
2
100
AcDbSymbolTableRecord
100
AcDbLayerTableRecord
  2
127
 70
     0
 62
   127
  6
CONTINUOUS
  0
LAYER
  5
B9
330
2
100
AcDbSymbolTableRecord
100
AcDbLayerTableRecord
  2
128
 70
     0
 62
   128
  6
CONTINUOUS
  0
LAYER
  5
BA
330
2
100
AcDbSymbolTableRecord
100
AcDbLayerTableRecord
  2
129
 70
     0
 62
   129
  6
CONTINUOUS
  0
LAYER
  5
BB
330
2
100
AcDbSymbolTableRecord
100
AcDbLayerTableRecord
  2
130
 70
     0
 62
   130
  6
CONTINUOUS
  0
LAYER
  5
BC
330
2
100
AcDbSymbolTableRecord
100
AcDbLayerTableRecord
  2
131
 70
     0
 62
   131
  6
CONTINUOUS
  0
LAYER
  5
BD
330
2
100
AcDbSymbolTableRecord
100
AcDbLayerTableRecord
  2
132
 70
     0
 62
   132
  6
CONTINUOUS
  0
LAYER
  5
BE
330
2
100
AcDbSymbolTableRecord
100
AcDbLayerTableRecord
  2
133
 70
     0
 62
   133
  6
CONTINUOUS
  0
LAYER
  5
BF
330
2
100
AcDbSymbolTableRecord
100
AcDbLayerTableRecord
  2
134
 70
     0
 62
   134
  6
CONTINUOUS
  0
LAYER
  5
C0
330
2
100
AcDbSymbolTableRecord
100
AcDbLayerTableRecord
  2
135
 70
     0
 62
   135
  6
CONTINUOUS
  0
LAYER
  5
C1
330
2
100
AcDbSymbolTableRecord
100
AcDbLayerTableRecord
  2
136
 70
     0
 62
   136
  6
CONTINUOUS
  0
LAYER
  5
C2
330
2
100
AcDbSymbolTableRecord
100
AcDbLayerTableRecord
  2
137
 70
     0
 62
   137
  6
CONTINUOUS
  0
LAYER
  5
C3
330
2
100
AcDbSymbolTableRecord
100
AcDbLayerTableRecord
  2
138
 70
     0
 62
   138
  6
CONTINUOUS
  0
LAYER
  5
C4
330
2
100
AcDbSymbolTableRecord
100
AcDbLayerTableRecord
  2
139
 70
     0
 62
   139
  6
CONTINUOUS
  0
LAYER
  5
C5
330
2
100
AcDbSymbolTableRecord
100
AcDbLayerTableRecord
  2
140
 70
     0
 62
   140
  6
CONTINUOUS
  0
LAYER
  5
C6
330
2
100
AcDbSymbolTableRecord
100
AcDbLayerTableRecord
  2
141
 70
     0
 62
   141
  6
CONTINUOUS
  0
LAYER
  5
C7
330
2
100
AcDbSymbolTableRecord
100
AcDbLayerTableRecord
  2
142
 70
     0
 62
   142
  6
CONTINUOUS
  0
LAYER
  5
C8
330
2
100
AcDbSymbolTableRecord
100
AcDbLayerTableRecord
  2
143
 70
     0
 62
   143
  6
CONTINUOUS
  0
LAYER
  5
C9
330
2
100
AcDbSymbolTableRecord
100
AcDbLayerTableRecord
  2
144
 70
     0
 62
   144
  6
CONTINUOUS
  0
LAYER
  5
CA
330
2
100
AcDbSymbolTableRecord
100
AcDbLayerTableRecord
  2
145
 70
     0
 62
   145
  6
CONTINUOUS
  0
LAYER
  5
CB
330
2
100
AcDbSymbolTableRecord
100
AcDbLayerTableRecord
  2
146
 70
     0
 62
   146
  6
CONTINUOUS
  0
LAYER
  5
CC
330
2
100
AcDbSymbolTableRecord
100
AcDbLayerTableRecord
  2
147
 70
     0
 62
   147
  6
CONTINUOUS
  0
LAYER
  5
CD
330
2
100
AcDbSymbolTableRecord
100
AcDbLayerTableRecord
  2
148
 70
     0
 62
   148
  6
CONTINUOUS
  0
LAYER
  5
CE
330
2
100
AcDbSymbolTableRecord
100
AcDbLayerTableRecord
  2
149
 70
     0
 62
   149
  6
CONTINUOUS
  0
LAYER
  5
CF
330
2
100
AcDbSymbolTableRecord
100
AcDbLayerTableRecord
  2
150
 70
     0
 62
   150
  6
CONTINUOUS
  0
LAYER
  5
D0
330
2
100
AcDbSymbolTableRecord
100
AcDbLayerTableRecord
  2
151
 70
     0
 62
   151
  6
CONTINUOUS
  0
LAYER
  5
D1
330
2
100
AcDbSymbolTableRecord
100
AcDbLayerTableRecord
  2
152
 70
     0
 62
   152
  6
CONTINUOUS
  0
LAYER
  5
D2
330
2
100
AcDbSymbolTableRecord
100
AcDbLayerTableRecord
  2
153
 70
     0
 62
   153
  6
CONTINUOUS
  0
LAYER
  5
D3
330
2
100
AcDbSymbolTableRecord
100
AcDbLayerTableRecord
  2
154
 70
     0
 62
   154
  6
CONTINUOUS
  0
LAYER
  5
D4
330
2
100
AcDbSymbolTableRecord
100
AcDbLayerTableRecord
  2
155
 70
     0
 62
   155
  6
CONTINUOUS
  0
LAYER
  5
D5
330
2
100
AcDbSymbolTableRecord
100
AcDbLayerTableRecord
  2
156
 70
     0
 62
   156
  6
CONTINUOUS
  0
LAYER
  5
D6
330
2
100
AcDbSymbolTableRecord
100
AcDbLayerTableRecord
  2
157
 70
     0
 62
   157
  6
CONTINUOUS
  0
LAYER
  5
D7
330
2
100
AcDbSymbolTableRecord
100
AcDbLayerTableRecord
  2
158
 70
     0
 62
   158
  6
CONTINUOUS
  0
LAYER
  5
D8
330
2
100
AcDbSymbolTableRecord
100
AcDbLayerTableRecord
  2
159
 70
     0
 62
   159
  6
CONTINUOUS
  0
LAYER
  5
D9
330
2
100
AcDbSymbolTableRecord
100
AcDbLayerTableRecord
  2
160
 70
     0
 62
   160
  6
CONTINUOUS
  0
LAYER
  5
DA
330
2
100
AcDbSymbolTableRecord
100
AcDbLayerTableRecord
  2
161
 70
     0
 62
   161
  6
CONTINUOUS
  0
LAYER
  5
DB
330
2
100
AcDbSymbolTableRecord
100
AcDbLayerTableRecord
  2
162
 70
     0
 62
   162
  6
CONTINUOUS
  0
LAYER
  5
DC
330
2
100
AcDbSymbolTableRecord
100
AcDbLayerTableRecord
  2
163
 70
     0
 62
   163
  6
CONTINUOUS
  0
LAYER
  5
DD
330
2
100
AcDbSymbolTableRecord
100
AcDbLayerTableRecord
  2
164
 70
     0
 62
   164
  6
CONTINUOUS
  0
LAYER
  5
DE
330
2
100
AcDbSymbolTableRecord
100
AcDbLayerTableRecord
  2
165
 70
     0
 62
   165
  6
CONTINUOUS
  0
LAYER
  5
DF
330
2
100
AcDbSymbolTableRecord
100
AcDbLayerTableRecord
  2
166
 70
     0
 62
   166
  6
CONTINUOUS
  0
LAYER
  5
E0
330
2
100
AcDbSymbolTableRecord
100
AcDbLayerTableRecord
  2
167
 70
     0
 62
   167
  6
CONTINUOUS
  0
LAYER
  5
E1
330
2
100
AcDbSymbolTableRecord
100
AcDbLayerTableRecord
  2
168
 70
     0
 62
   168
  6
CONTINUOUS
  0
LAYER
  5
E2
330
2
100
AcDbSymbolTableRecord
100
AcDbLayerTableRecord
  2
169
 70
     0
 62
   169
  6
CONTINUOUS
  0
LAYER
  5
E3
330
2
100
AcDbSymbolTableRecord
100
AcDbLayerTableRecord
  2
170
 70
     0
 62
   170
  6
CONTINUOUS
  0
LAYER
  5
E4
330
2
100
AcDbSymbolTableRecord
100
AcDbLayerTableRecord
  2
171
 70
     0
 62
   171
  6
CONTINUOUS
  0
LAYER
  5
E5
330
2
100
AcDbSymbolTableRecord
100
AcDbLayerTableRecord
  2
172
 70
     0
 62
   172
  6
CONTINUOUS
  0
LAYER
  5
E6
330
2
100
AcDbSymbolTableRecord
100
AcDbLayerTableRecord
  2
173
 70
     0
 62
   173
  6
CONTINUOUS
  0
LAYER
  5
E7
330
2
100
AcDbSymbolTableRecord
100
AcDbLayerTableRecord
  2
174
 70
     0
 62
   174
  6
CONTINUOUS
  0
LAYER
  5
E8
330
2
100
AcDbSymbolTableRecord
100
AcDbLayerTableRecord
  2
175
 70
     0
 62
   175
  6
CONTINUOUS
  0
LAYER
  5
E9
330
2
100
AcDbSymbolTableRecord
100
AcDbLayerTableRecord
  2
176
 70
     0
 62
   176
  6
CONTINUOUS
  0
LAYER
  5
EA
330
2
100
AcDbSymbolTableRecord
100
AcDbLayerTableRecord
  2
177
 70
     0
 62
   177
  6
CONTINUOUS
  0
LAYER
  5
EB
330
2
100
AcDbSymbolTableRecord
100
AcDbLayerTableRecord
  2
178
 70
     0
 62
   178
  6
CONTINUOUS
  0
LAYER
  5
EC
330
2
100
AcDbSymbolTableRecord
100
AcDbLayerTableRecord
  2
179
 70
     0
 62
   179
  6
CONTINUOUS
  0
LAYER
  5
ED
330
2
100
AcDbSymbolTableRecord
100
AcDbLayerTableRecord
  2
180
 70
     0
 62
   180
  6
CONTINUOUS
  0
LAYER
  5
EE
330
2
100
AcDbSymbolTableRecord
100
AcDbLayerTableRecord
  2
181
 70
     0
 62
   181
  6
CONTINUOUS
  0
LAYER
  5
EF
330
2
100
AcDbSymbolTableRecord
100
AcDbLayerTableRecord
  2
182
 70
     0
 62
   182
  6
CONTINUOUS
  0
LAYER
  5
F0
330
2
100
AcDbSymbolTableRecord
100
AcDbLayerTableRecord
  2
183
 70
     0
 62
   183
  6
CONTINUOUS
  0
LAYER
  5
F1
330
2
100
AcDbSymbolTableRecord
100
AcDbLayerTableRecord
  2
184
 70
     0
 62
   184
  6
CONTINUOUS
  0
LAYER
  5
F2
330
2
100
AcDbSymbolTableRecord
100
AcDbLayerTableRecord
  2
185
 70
     0
 62
   185
  6
CONTINUOUS
  0
LAYER
  5
F3
330
2
100
AcDbSymbolTableRecord
100
AcDbLayerTableRecord
  2
186
 70
     0
 62
   186
  6
CONTINUOUS
  0
LAYER
  5
F4
330
2
100
AcDbSymbolTableRecord
100
AcDbLayerTableRecord
  2
187
 70
     0
 62
   187
  6
CONTINUOUS
  0
LAYER
  5
F5
330
2
100
AcDbSymbolTableRecord
100
AcDbLayerTableRecord
  2
188
 70
     0
 62
   188
  6
CONTINUOUS
  0
LAYER
  5
F6
330
2
100
AcDbSymbolTableRecord
100
AcDbLayerTableRecord
  2
189
 70
     0
 62
   189
  6
CONTINUOUS
  0
LAYER
  5
F7
330
2
100
AcDbSymbolTableRecord
100
AcDbLayerTableRecord
  2
190
 70
     0
 62
   190
  6
CONTINUOUS
  0
LAYER
  5
F8
330
2
100
AcDbSymbolTableRecord
100
AcDbLayerTableRecord
  2
191
 70
     0
 62
   191
  6
CONTINUOUS
  0
LAYER
  5
F9
330
2
100
AcDbSymbolTableRecord
100
AcDbLayerTableRecord
  2
192
 70
     0
 62
   192
  6
CONTINUOUS
  0
LAYER
  5
FA
330
2
100
AcDbSymbolTableRecord
100
AcDbLayerTableRecord
  2
193
 70
     0
 62
   193
  6
CONTINUOUS
  0
LAYER
  5
FB
330
2
100
AcDbSymbolTableRecord
100
AcDbLayerTableRecord
  2
194
 70
     0
 62
   194
  6
CONTINUOUS
  0
LAYER
  5
FC
330
2
100
AcDbSymbolTableRecord
100
AcDbLayerTableRecord
  2
195
 70
     0
 62
   195
  6
CONTINUOUS
  0
LAYER
  5
FD
330
2
100
AcDbSymbolTableRecord
100
AcDbLayerTableRecord
  2
196
 70
     0
 62
   196
  6
CONTINUOUS
  0
LAYER
  5
FE
330
2
100
AcDbSymbolTableRecord
100
AcDbLayerTableRecord
  2
197
 70
     0
 62
   197
  6
CONTINUOUS
  0
LAYER
  5
FF
330
2
100
AcDbSymbolTableRecord
100
AcDbLayerTableRecord
  2
198
 70
     0
 62
   198
  6
CONTINUOUS
  0
LAYER
  5
100
330
2
100
AcDbSymbolTableRecord
100
AcDbLayerTableRecord
  2
199
 70
     0
 62
   199
  6
CONTINUOUS
  0
LAYER
  5
101
330
2
100
AcDbSymbolTableRecord
100
AcDbLayerTableRecord
  2
200
 70
     0
 62
   200
  6
CONTINUOUS
  0
LAYER
  5
102
330
2
100
AcDbSymbolTableRecord
100
AcDbLayerTableRecord
  2
201
 70
     0
 62
   201
  6
CONTINUOUS
  0
LAYER
  5
103
330
2
100
AcDbSymbolTableRecord
100
AcDbLayerTableRecord
  2
202
 70
     0
 62
   202
  6
CONTINUOUS
  0
LAYER
  5
104
330
2
100
AcDbSymbolTableRecord
100
AcDbLayerTableRecord
  2
203
 70
     0
 62
   203
  6
CONTINUOUS
  0
LAYER
  5
105
330
2
100
AcDbSymbolTableRecord
100
AcDbLayerTableRecord
  2
204
 70
     0
 62
   204
  6
CONTINUOUS
  0
LAYER
  5
106
330
2
100
AcDbSymbolTableRecord
100
AcDbLayerTableRecord
  2
205
 70
     0
 62
   205
  6
CONTINUOUS
  0
LAYER
  5
107
330
2
100
AcDbSymbolTableRecord
100
AcDbLayerTableRecord
  2
206
 70
     0
 62
   206
  6
CONTINUOUS
  0
LAYER
  5
108
330
2
100
AcDbSymbolTableRecord
100
AcDbLayerTableRecord
  2
207
 70
     0
 62
   207
  6
CONTINUOUS
  0
LAYER
  5
109
330
2
100
AcDbSymbolTableRecord
100
AcDbLayerTableRecord
  2
208
 70
     0
 62
   208
  6
CONTINUOUS
  0
LAYER
  5
10A
330
2
100
AcDbSymbolTableRecord
100
AcDbLayerTableRecord
  2
209
 70
     0
 62
   209
  6
CONTINUOUS
  0
LAYER
  5
10B
330
2
100
AcDbSymbolTableRecord
100
AcDbLayerTableRecord
  2
210
 70
     0
 62
   210
  6
CONTINUOUS
  0
LAYER
  5
10C
330
2
100
AcDbSymbolTableRecord
100
AcDbLayerTableRecord
  2
211
 70
     0
 62
   211
  6
CONTINUOUS
  0
LAYER
  5
10D
330
2
100
AcDbSymbolTableRecord
100
AcDbLayerTableRecord
  2
212
 70
     0
 62
   212
  6
CONTINUOUS
  0
LAYER
  5
10E
330
2
100
AcDbSymbolTableRecord
100
AcDbLayerTableRecord
  2
213
 70
     0
 62
   213
  6
CONTINUOUS
  0
LAYER
  5
10F
330
2
100
AcDbSymbolTableRecord
100
AcDbLayerTableRecord
  2
214
 70
     0
 62
   214
  6
CONTINUOUS
  0
LAYER
  5
110
330
2
100
AcDbSymbolTableRecord
100
AcDbLayerTableRecord
  2
215
 70
     0
 62
   215
  6
CONTINUOUS
  0
LAYER
  5
111
330
2
100
AcDbSymbolTableRecord
100
AcDbLayerTableRecord
  2
216
 70
     0
 62
   216
  6
CONTINUOUS
  0
LAYER
  5
112
330
2
100
AcDbSymbolTableRecord
100
AcDbLayerTableRecord
  2
217
 70
     0
 62
   217
  6
CONTINUOUS
  0
LAYER
  5
113
330
2
100
AcDbSymbolTableRecord
100
AcDbLayerTableRecord
  2
218
 70
     0
 62
   218
  6
CONTINUOUS
  0
LAYER
  5
114
330
2
100
AcDbSymbolTableRecord
100
AcDbLayerTableRecord
  2
219
 70
     0
 62
   219
  6
CONTINUOUS
  0
LAYER
  5
115
330
2
100
AcDbSymbolTableRecord
100
AcDbLayerTableRecord
  2
220
 70
     0
 62
   220
  6
CONTINUOUS
  0
LAYER
  5
116
330
2
100
AcDbSymbolTableRecord
100
AcDbLayerTableRecord
  2
221
 70
     0
 62
   221
  6
CONTINUOUS
  0
LAYER
  5
117
330
2
100
AcDbSymbolTableRecord
100
AcDbLayerTableRecord
  2
222
 70
     0
 62
   222
  6
CONTINUOUS
  0
LAYER
  5
118
330
2
100
AcDbSymbolTableRecord
100
AcDbLayerTableRecord
  2
223
 70
     0
 62
   223
  6
CONTINUOUS
  0
LAYER
  5
119
330
2
100
AcDbSymbolTableRecord
100
AcDbLayerTableRecord
  2
224
 70
     0
 62
   224
  6
CONTINUOUS
  0
LAYER
  5
11A
330
2
100
AcDbSymbolTableRecord
100
AcDbLayerTableRecord
  2
225
 70
     0
 62
   225
  6
CONTINUOUS
  0
LAYER
  5
11B
330
2
100
AcDbSymbolTableRecord
100
AcDbLayerTableRecord
  2
226
 70
     0
 62
   226
  6
CONTINUOUS
  0
LAYER
  5
11C
330
2
100
AcDbSymbolTableRecord
100
AcDbLayerTableRecord
  2
227
 70
     0
 62
   227
  6
CONTINUOUS
  0
LAYER
  5
11D
330
2
100
AcDbSymbolTableRecord
100
AcDbLayerTableRecord
  2
228
 70
     0
 62
   228
  6
CONTINUOUS
  0
LAYER
  5
11E
330
2
100
AcDbSymbolTableRecord
100
AcDbLayerTableRecord
  2
229
 70
     0
 62
   229
  6
CONTINUOUS
  0
LAYER
  5
11F
330
2
100
AcDbSymbolTableRecord
100
AcDbLayerTableRecord
  2
230
 70
     0
 62
   230
  6
CONTINUOUS
  0
LAYER
  5
120
330
2
100
AcDbSymbolTableRecord
100
AcDbLayerTableRecord
  2
231
 70
     0
 62
   231
  6
CONTINUOUS
  0
LAYER
  5
121
330
2
100
AcDbSymbolTableRecord
100
AcDbLayerTableRecord
  2
232
 70
     0
 62
   232
  6
CONTINUOUS
  0
LAYER
  5
122
330
2
100
AcDbSymbolTableRecord
100
AcDbLayerTableRecord
  2
233
 70
     0
 62
   233
  6
CONTINUOUS
  0
LAYER
  5
123
330
2
100
AcDbSymbolTableRecord
100
AcDbLayerTableRecord
  2
234
 70
     0
 62
   234
  6
CONTINUOUS
  0
LAYER
  5
124
330
2
100
AcDbSymbolTableRecord
100
AcDbLayerTableRecord
  2
235
 70
     0
 62
   235
  6
CONTINUOUS
  0
LAYER
  5
125
330
2
100
AcDbSymbolTableRecord
100
AcDbLayerTableRecord
  2
236
 70
     0
 62
   236
  6
CONTINUOUS
  0
LAYER
  5
126
330
2
100
AcDbSymbolTableRecord
100
AcDbLayerTableRecord
  2
237
 70
     0
 62
   237
  6
CONTINUOUS
  0
LAYER
  5
127
330
2
100
AcDbSymbolTableRecord
100
AcDbLayerTableRecord
  2
238
 70
     0
 62
   238
  6
CONTINUOUS
  0
LAYER
  5
128
330
2
100
AcDbSymbolTableRecord
100
AcDbLayerTableRecord
  2
239
 70
     0
 62
   239
  6
CONTINUOUS
  0
LAYER
  5
129
330
2
100
AcDbSymbolTableRecord
100
AcDbLayerTableRecord
  2
240
 70
     0
 62
   240
  6
CONTINUOUS
  0
LAYER
  5
12A
330
2
100
AcDbSymbolTableRecord
100
AcDbLayerTableRecord
  2
241
 70
     0
 62
   241
  6
CONTINUOUS
  0
LAYER
  5
12B
330
2
100
AcDbSymbolTableRecord
100
AcDbLayerTableRecord
  2
242
 70
     0
 62
   242
  6
CONTINUOUS
  0
LAYER
  5
12C
330
2
100
AcDbSymbolTableRecord
100
AcDbLayerTableRecord
  2
243
 70
     0
 62
   243
  6
CONTINUOUS
  0
LAYER
  5
12D
330
2
100
AcDbSymbolTableRecord
100
AcDbLayerTableRecord
  2
244
 70
     0
 62
   244
  6
CONTINUOUS
  0
LAYER
  5
12E
330
2
100
AcDbSymbolTableRecord
100
AcDbLayerTableRecord
  2
245
 70
     0
 62
   245
  6
CONTINUOUS
  0
LAYER
  5
12F
330
2
100
AcDbSymbolTableRecord
100
AcDbLayerTableRecord
  2
246
 70
     0
 62
   246
  6
CONTINUOUS
  0
LAYER
  5
130
330
2
100
AcDbSymbolTableRecord
100
AcDbLayerTableRecord
  2
247
 70
     0
 62
   247
  6
CONTINUOUS
  0
LAYER
  5
131
330
2
100
AcDbSymbolTableRecord
100
AcDbLayerTableRecord
  2
248
 70
     0
 62
   248
  6
CONTINUOUS
  0
LAYER
  5
132
330
2
100
AcDbSymbolTableRecord
100
AcDbLayerTableRecord
  2
249
 70
     0
 62
   249
  6
CONTINUOUS
  0
LAYER
  5
133
330
2
100
AcDbSymbolTableRecord
100
AcDbLayerTableRecord
  2
250
 70
     0
 62
   250
  6
CONTINUOUS
  0
LAYER
  5
134
330
2
100
AcDbSymbolTableRecord
100
AcDbLayerTableRecord
  2
251
 70
     0
 62
   251
  6
CONTINUOUS
  0
LAYER
  5
135
330
2
100
AcDbSymbolTableRecord
100
AcDbLayerTableRecord
  2
252
 70
     0
 62
   252
  6
CONTINUOUS
  0
LAYER
  5
136
330
2
100
AcDbSymbolTableRecord
100
AcDbLayerTableRecord
  2
253
 70
     0
 62
   253
  6
CONTINUOUS
  0
LAYER
  5
137
330
2
100
AcDbSymbolTableRecord
100
AcDbLayerTableRecord
  2
254
 70
     0
 62
   254
  6
CONTINUOUS
  0
LAYER
  5
138
330
2
100
AcDbSymbolTableRecord
100
AcDbLayerTableRecord
  2
255
 70
     0
 62
   255
  6
CONTINUOUS
  0
ENDTAB
  0
TABLE
  2
STYLE
  5
3
330
0
100
AcDbSymbolTable
 70
     1
  0
STYLE
  5
11
330
3
100
AcDbSymbolTableRecord
100
AcDbTextStyleTableRecord
  2
STANDARD
 70
     0
 40
0.0
 41
1.0
 50
0.0
 71
     0
 42
0.2
  3
monotxt
  4

  0
ENDTAB
  0
TABLE
  2
VIEW
  5
6
330
0
100
AcDbSymbolTable
 70
     0
  0
ENDTAB
  0
TABLE
  2
UCS
  5
7
330
0
100
AcDbSymbolTable
 70
     0
  0
ENDTAB
  0
TABLE
  2
APPID
  5
9
330
0
100
AcDbSymbolTable
 70
     1
  0
APPID
  5
12
330
9
100
AcDbSymbolTableRecord
100
AcDbRegAppTableRecord
  2
ACAD
 70
     0
  0
ENDTAB
  0
TABLE
  2
DIMSTYLE
  5
A
330
0
100
AcDbSymbolTable
 70
     1
  0
DIMSTYLE
105
3525
330
A
100
AcDbSymbolTableRecord
100
AcDbDimStyleTableRecord
  2
STANDARD
 70
     0
  3

  4

  5

  6

  7

 40
1.0
 41
0.18
 42
0.0625
 43
0.38
 44
0.18
 45
0.0
 46
0.0
 47
0.0
 48
0.0
140
0.18
141
0.09
142
0.0
143
25.4
144
1.0
145
0.0
146
1.0
147
0.09
 71
     0
 72
     0
 73
     1
 74
     1
 75
     0
 76
     0
 77
     0
 78
     0
170
     0
171
     2
172
     0
173
     0
174
     0
175
     0
176
     0
177
     0
178
     0
270
     2
271
     4
272
     4
273
     2
274
     2
340
11
275
     0
280
     0
281
     0
282
     0
283
     1
284
     0
285
     0
286
     0
287
     3
288
     0
  0
ENDTAB
  0
TABLE
  2
BLOCK_RECORD
  5
1
330
0
100
AcDbSymbolTable
 70
     0
  0
BLOCK_RECORD
  5
1E
102
{ACAD_XDICTIONARY
360
489B
102
}
330
1
100
AcDbSymbolTableRecord
100
AcDbBlockTableRecord
  2
*MODEL_SPACE
  0
BLOCK_RECORD
  5
1A
102
{ACAD_XDICTIONARY
360
4899
102
}
330
1
100
AcDbSymbolTableRecord
100
AcDbBlockTableRecord
  2
*PAPER_SPACE
  0
ENDTAB
  0
ENDSEC
  0
SECTION
  2
BLOCKS
  0
BLOCK
  5
13B
330
1E
100
AcDbEntity
  8
0
100
AcDbBlockBegin
  2
*MODEL_SPACE
 70
     0
 10
0.0
 20
0.0
 30
0.0
  3
*MODEL_SPACE
  1

  0
ENDBLK
  5
13C
330
1E
100
AcDbEntity
  8
0
100
AcDbBlockEnd
  0
BLOCK
  5
139
330
1A
100
AcDbEntity
 67
     1
  8
0
100
AcDbBlockBegin
  2
*PAPER_SPACE
 70
     0
 10
0.0
 20
0.0
 30
0.0
  3
*PAPER_SPACE
  1

  0
ENDBLK
  5
13A
330
1A
100
AcDbEntity
 67
     1
  8
0
100
AcDbBlockEnd
  0
ENDSEC
  0
SECTION
  2
ENTITIES
  0
LINE
  5
2E1F
330
1E
100
AcDbEntity
  8
7
100
AcDbLine
 10
-1.037401574803149
 20
4.922244094488188
 30
0.0
 11
-1.037401574803149
 21
4.893700787401574
 31
0.0
  0
LINE
  5
2E31
330
1E
100
AcDbEntity
  8
7
100
AcDbLine
 10
0.8681102362204725
 20
4.922244094488188
 30
0.0
 11
0.8681102362204725
 21
4.893700787401574
 31
0.0
  0
LINE
  5
2E37
330
1E
100
AcDbEntity
  8
7
100
AcDbLine
 10
-0.8484251968503935
 20
5.100393700787401
 30
0.0
 11
-0.8484251968503935
 21
5.127952755905512
 31
0.0
  0
LINE
  5
2E38
330
1E
100
AcDbEntity
  8
7
100
AcDbLine
 10
-0.4153543307086612
 20
5.100393700787401
 30
0.0
 11
-0.8484251968503935
 21
5.100393700787401
 31
0.0
  0
LINE
  5
2E39
330
1E
100
AcDbEntity
  8
7
100
AcDbLine
 10
-0.4153543307086612
 20
5.127952755905512
 30
0.0
 11
-0.4153543307086612
 21
5.100393700787401
 31
0.0
  0
LINE
  5
2E3A
330
1E
100
AcDbEntity
  8
7
100
AcDbLine
 10
0.4212598425196852
 20
5.100393700787401
 30
0.0
 11
0.4212598425196852
 21
5.127952755905512
 31
0.0
  0
LINE
  5
2E3B
330
1E
100
AcDbEntity
  8
7
100
AcDbLine
 10
0.8553149606299212
 20
5.100393700787401
 30
0.0
 11
0.4212598425196852
 21
5.100393700787401
 31
0.0
  0
LINE
  5
2E3C
330
1E
100
AcDbEntity
  8
7
100
AcDbLine
 10
0.8553149606299212
 20
5.127952755905512
 30
0.0
 11
0.8553149606299212
 21
5.100393700787401
 31
0.0
  0
LINE
  5
2E3D
330
1E
100
AcDbEntity
  8
7
100
AcDbLine
 10
-0.4015748031496061
 20
4.922244094488188
 30
0.0
 11
-0.4015748031496061
 21
4.893700787401574
 31
0.0
  0
LINE
  5
2E4F
330
1E
100
AcDbEntity
  8
7
100
AcDbLine
 10
0.2332677165354333
 20
4.922244094488188
 30
0.0
 11
0.2332677165354333
 21
4.893700787401574
 31
0.0
  0
LINE
  5
2E6D
330
1E
100
AcDbEntity
  8
7
100
AcDbLine
 10
0.4980314960629922
 20
3.807086614173228
 30
0.0
 11
0.4980314960629922
 21
3.876968503937008
 31
0.0
  0
LINE
  5
2E6E
330
1E
100
AcDbEntity
  8
7
100
AcDbLine
 10
0.5580708661417324
 20
3.807086614173228
 30
0.0
 11
0.4980314960629922
 21
3.807086614173228
 31
0.0
  0
LINE
  5
2E6F
330
1E
100
AcDbEntity
  8
7
100
AcDbLine
 10
0.5580708661417324
 20
3.876968503937008
 30
0.0
 11
0.5580708661417324
 21
3.807086614173228
 31
0.0
  0
LINE
  5
2E70
330
1E
100
AcDbEntity
  8
7
100
AcDbLine
 10
0.7175196850393704
 20
3.807086614173228
 30
0.0
 11
0.7175196850393704
 21
3.876968503937008
 31
0.0
  0
LINE
  5
2E71
330
1E
100
AcDbEntity
  8
7
100
AcDbLine
 10
0.7775590551181102
 20
3.807086614173228
 30
0.0
 11
0.7175196850393704
 21
3.807086614173228
 31
0.0
  0
LINE
  5
2E72
330
1E
100
AcDbEntity
  8
7
100
AcDbLine
 10
0.7775590551181102
 20
3.876968503937008
 30
0.0
 11
0.7775590551181102
 21
3.807086614173228
 31
0.0
  0
LINE
  5
2E79
330
1E
100
AcDbEntity
  8
7
100
AcDbLine
 10
-1.451771653543306
 20
5.39763779527559
 30
0.0
 11
-1.451771653543306
 21
3.77755905511811
 31
0.0
  0
LINE
  5
2E80
330
1E
100
AcDbEntity
  8
7
100
AcDbLine
 10
1.428149606299212
 20
5.427165354330709
 30
0.0
 11
-1.422244094488188
 21
5.427165354330709
 31
0.0
  0
LINE
  5
2E87
330
1E
100
AcDbEntity
  8
7
100
AcDbLine
 10
1.457677165354331
 20
3.77755905511811
 30
0.0
 11
1.457677165354331
 21
5.39763779527559
 31
0.0
  0
LINE
  5
2E8E
330
1E
100
AcDbEntity
  8
7
100
AcDbLine
 10
-1.422244094488188
 20
3.747047244094487
 30
0.0
 11
1.428149606299212
 21
3.747047244094487
 31
0.0
  0
LINE
  5
2E95
330
1E
100
AcDbEntity
  8
7
100
AcDbLine
 10
-0.8090551181102361
 20
5.183070866141732
 30
0.0
 11
-0.8218503937007872
 21
5.183070866141732
 31
0.0
  0
LINE
  5
2E96
330
1E
100
AcDbEntity
  8
7
100
AcDbLine
 10
-0.4429133858267713
 20
5.183070866141732
 30
0.0
 11
-0.4547244094488186
 21
5.183070866141732
 31
0.0
  0
LINE
  5
2EA3
330
1E
100
AcDbEntity
  8
7
100
AcDbLine
 10
0.4616141732283468
 20
5.183070866141732
 30
0.0
 11
0.4488188976377954
 21
5.183070866141732
 31
0.0
  0
LINE
  5
2EA4
330
1E
100
AcDbEntity
  8
7
100
AcDbLine
 10
0.8277559055118111
 20
5.183070866141732
 30
0.0
 11
0.8149606299212601
 21
5.183070866141732
 31
0.0
  0
LINE
  5
2EAB
330
1E
100
AcDbEntity
  8
7
100
AcDbLine
 10
1.423228346456693
 20
3.766732283464566
 30
0.0
 11
1.434055118110236
 21
3.771653543307087
 31
0.0
  0
LINE
  5
2EBA
330
1E
100
AcDbEntity
  8
7
100
AcDbLine
 10
0.7834645669291338
 20
3.881889763779527
 30
0.0
 11
0.7125984251968505
 21
3.881889763779527
 31
0.0
  0
LINE
  5
2EBB
330
1E
100
AcDbEntity
  8
7
100
AcDbLine
 10
0.7834645669291338
 20
3.802165354330709
 30
0.0
 11
0.7834645669291338
 21
3.881889763779527
 31
0.0
  0
LINE
  5
2EBC
330
1E
100
AcDbEntity
  8
7
100
AcDbLine
 10
0.7125984251968505
 20
3.802165354330709
 30
0.0
 11
0.7834645669291338
 21
3.802165354330709
 31
0.0
  0
LINE
  5
2EBD
330
1E
100
AcDbEntity
  8
7
100
AcDbLine
 10
0.7125984251968505
 20
3.881889763779527
 30
0.0
 11
0.7125984251968505
 21
3.802165354330709
 31
0.0
  0
LINE
  5
2EBE
330
1E
100
AcDbEntity
  8
7
100
AcDbLine
 10
0.5629921259842523
 20
3.881889763779527
 30
0.0
 11
0.4921259842519686
 21
3.881889763779527
 31
0.0
  0
LINE
  5
2EBF
330
1E
100
AcDbEntity
  8
7
100
AcDbLine
 10
0.5629921259842523
 20
3.802165354330709
 30
0.0
 11
0.5629921259842523
 21
3.881889763779527
 31
0.0
  0
LINE
  5
2EC0
330
1E
100
AcDbEntity
  8
7
100
AcDbLine
 10
0.4921259842519686
 20
3.802165354330709
 30
0.0
 11
0.5629921259842523
 21
3.802165354330709
 31
0.0
  0
LINE
  5
2EC1
330
1E
100
AcDbEntity
  8
7
100
AcDbLine
 10
0.4921259842519686
 20
3.881889763779527
 30
0.0
 11
0.4921259842519686
 21
3.802165354330709
 31
0.0
  0
LINE
  5
2EC9
330
1E
100
AcDbEntity
  8
7
100
AcDbLine
 10
-1.268700787401574
 20
5.134842519685039
 30
0.0
 11
-1.268700787401574
 21
5.083661417322835
 31
0.0
  0
LINE
  5
2ECA
330
1E
100
AcDbEntity
  8
7
100
AcDbLine
 10
-1.295275590551181
 20
5.134842519685039
 30
0.0
 11
-1.268700787401574
 21
5.134842519685039
 31
0.0
  0
LINE
  5
2ECB
330
1E
100
AcDbEntity
  8
7
100
AcDbLine
 10
-1.295275590551181
 20
5.276574803149606
 30
0.0
 11
-1.295275590551181
 21
5.134842519685039
 31
0.0
  0
LINE
  5
2ECC
330
1E
100
AcDbEntity
  8
7
100
AcDbLine
 10
-1.268700787401574
 20
5.276574803149606
 30
0.0
 11
-1.295275590551181
 21
5.276574803149606
 31
0.0
  0
LINE
  5
2ECD
330
1E
100
AcDbEntity
  8
7
100
AcDbLine
 10
-1.268700787401574
 20
5.327755905511811
 30
0.0
 11
-1.268700787401574
 21
5.276574803149606
 31
0.0
  0
LINE
  5
2ECE
330
1E
100
AcDbEntity
  8
7
100
AcDbLine
 10
1.274606299212598
 20
5.327755905511811
 30
0.0
 11
-1.268700787401574
 21
5.327755905511811
 31
0.0
  0
LINE
  5
2ECF
330
1E
100
AcDbEntity
  8
7
100
AcDbLine
 10
1.274606299212598
 20
5.276574803149606
 30
0.0
 11
1.274606299212598
 21
5.327755905511811
 31
0.0
  0
LINE
  5
2ED0
330
1E
100
AcDbEntity
  8
7
100
AcDbLine
 10
1.301181102362205
 20
5.276574803149606
 30
0.0
 11
1.274606299212598
 21
5.276574803149606
 31
0.0
  0
LINE
  5
2ED1
330
1E
100
AcDbEntity
  8
7
100
AcDbLine
 10
1.301181102362205
 20
5.134842519685039
 30
0.0
 11
1.301181102362205
 21
5.276574803149606
 31
0.0
  0
LINE
  5
2ED2
330
1E
100
AcDbEntity
  8
7
100
AcDbLine
 10
1.274606299212598
 20
5.134842519685039
 30
0.0
 11
1.301181102362205
 21
5.134842519685039
 31
0.0
  0
LINE
  5
2ED3
330
1E
100
AcDbEntity
  8
7
100
AcDbLine
 10
1.274606299212598
 20
5.083661417322835
 30
0.0
 11
1.274606299212598
 21
5.134842519685039
 31
0.0
  0
LINE
  5
2ED4
330
1E
100
AcDbEntity
  8
7
100
AcDbLine
 10
-1.268700787401574
 20
5.083661417322835
 30
0.0
 11
1.274606299212598
 21
5.083661417322835
 31
0.0
  0
LINE
  5
2EE8
330
1E
100
AcDbEntity
  8
7
100
AcDbLine
 10
0.7096456692913389
 20
4.214566929133858
 30
0.0
 11
0.7096456692913389
 21
4.271653543307087
 31
0.0
  0
LINE
  5
2EE9
330
1E
100
AcDbEntity
  8
7
100
AcDbLine
 10
0.5659448818897639
 20
4.271653543307087
 30
0.0
 11
0.7096456692913389
 21
4.271653543307087
 31
0.0
  0
LINE
  5
2EEA
330
1E
100
AcDbEntity
  8
7
100
AcDbLine
 10
0.5659448818897639
 20
4.214566929133858
 30
0.0
 11
0.5659448818897639
 21
4.271653543307087
 31
0.0
  0
LINE
  5
2EF0
330
1E
100
AcDbEntity
  8
7
100
AcDbLine
 10
0.082677165354331
 20
4.205708661417323
 30
0.0
 11
0.5580708661417324
 21
4.205708661417323
 31
0.0
  0
LINE
  5
2EF1
330
1E
100
AcDbEntity
  8
7
100
AcDbLine
 10
0.082677165354331
 20
4.205708661417323
 30
0.0
 11
0.0767716535433074
 21
4.208661417322835
 31
0.0
  0
LINE
  5
2EF2
330
1E
100
AcDbEntity
  8
7
100
AcDbLine
 10
0.0767716535433074
 20
4.208661417322835
 30
0.0
 11
0.0748031496062995
 21
4.214566929133858
 31
0.0
  0
LINE
  5
2EF3
330
1E
100
AcDbEntity
  8
7
100
AcDbLine
 10
0.0748031496062995
 20
4.271653543307087
 30
0.0
 11
0.0748031496062995
 21
4.214566929133858
 31
0.0
  0
LINE
  5
2F14
330
1E
100
AcDbEntity
  8
7
100
AcDbLine
 10
-0.701771653543307
 20
5.281496062992125
 30
0.0
 11
-0.701771653543307
 21
5.220472440944882
 31
0.0
  0
LINE
  5
2F15
330
1E
100
AcDbEntity
  8
7
100
AcDbLine
 10
-0.5620078740157477
 20
5.220472440944882
 30
0.0
 11
-0.5620078740157477
 21
5.281496062992125
 31
0.0
  0
LINE
  5
2F16
330
1E
100
AcDbEntity
  8
7
100
AcDbLine
 10
-0.542322834645669
 20
5.281496062992125
 30
0.0
 11
-0.542322834645669
 21
5.18503937007874
 31
0.0
  0
LINE
  5
2F17
330
1E
100
AcDbEntity
  8
7
100
AcDbLine
 10
-0.542322834645669
 20
5.281496062992125
 30
0.0
 11
-0.5620078740157477
 21
5.281496062992125
 31
0.0
  0
LINE
  5
2F18
330
1E
100
AcDbEntity
  8
7
100
AcDbLine
 10
-0.701771653543307
 20
5.220472440944882
 30
0.0
 11
-0.5620078740157477
 21
5.220472440944882
 31
0.0
  0
LINE
  5
2F19
330
1E
100
AcDbEntity
  8
7
100
AcDbLine
 10
-0.701771653543307
 20
5.281496062992125
 30
0.0
 11
-0.7224409448818899
 21
5.281496062992125
 31
0.0
  0
LINE
  5
2F1A
330
1E
100
AcDbEntity
  8
7
100
AcDbLine
 10
-0.7224409448818899
 20
5.18503937007874
 30
0.0
 11
-0.7224409448818899
 21
5.281496062992125
 31
0.0
  0
LINE
  5
2F1B
330
1E
100
AcDbEntity
  8
7
100
AcDbLine
 10
-0.7224409448818899
 20
5.18503937007874
 30
0.0
 11
-0.542322834645669
 21
5.18503937007874
 31
0.0
  0
LINE
  5
2F1C
330
1E
100
AcDbEntity
  8
7
100
AcDbLine
 10
0.5679133858267718
 20
5.281496062992125
 30
0.0
 11
0.5679133858267718
 21
5.220472440944882
 31
0.0
  0
LINE
  5
2F1D
330
1E
100
AcDbEntity
  8
7
100
AcDbLine
 10
0.707677165354331
 20
5.220472440944882
 30
0.0
 11
0.707677165354331
 21
5.281496062992125
 31
0.0
  0
LINE
  5
2F1E
330
1E
100
AcDbEntity
  8
7
100
AcDbLine
 10
0.7283464566929135
 20
5.281496062992125
 30
0.0
 11
0.7283464566929135
 21
5.18503937007874
 31
0.0
  0
LINE
  5
2F1F
330
1E
100
AcDbEntity
  8
7
100
AcDbLine
 10
0.7283464566929135
 20
5.281496062992125
 30
0.0
 11
0.707677165354331
 21
5.281496062992125
 31
0.0
  0
LINE
  5
2F20
330
1E
100
AcDbEntity
  8
7
100
AcDbLine
 10
0.5679133858267718
 20
5.220472440944882
 30
0.0
 11
0.707677165354331
 21
5.220472440944882
 31
0.0
  0
LINE
  5
2F21
330
1E
100
AcDbEntity
  8
7
100
AcDbLine
 10
0.5679133858267718
 20
5.281496062992125
 30
0.0
 11
0.5482283464566931
 21
5.281496062992125
 31
0.0
  0
LINE
  5
2F22
330
1E
100
AcDbEntity
  8
7
100
AcDbLine
 10
0.5482283464566931
 20
5.18503937007874
 30
0.0
 11
0.5482283464566931
 21
5.281496062992125
 31
0.0
  0
LINE
  5
2F23
330
1E
100
AcDbEntity
  8
7
100
AcDbLine
 10
0.5482283464566931
 20
5.18503937007874
 30
0.0
 11
0.7283464566929135
 21
5.18503937007874
 31
0.0
  0
LINE
  5
2F24
330
1E
100
AcDbEntity
  8
7
100
AcDbLine
 10
0.5433070866141736
 20
5.184055118110236
 30
0.0
 11
0.5482283464566931
 21
5.18503937007874
 31
0.0
  0
LINE
  5
2F25
330
1E
100
AcDbEntity
  8
7
100
AcDbLine
 10
0.7322834645669292
 20
5.184055118110236
 30
0.0
 11
0.5433070866141736
 21
5.184055118110236
 31
0.0
  0
LINE
  5
2F26
330
1E
100
AcDbEntity
  8
7
100
AcDbLine
 10
0.7322834645669292
 20
5.184055118110236
 30
0.0
 11
0.7283464566929135
 21
5.18503937007874
 31
0.0
  0
LINE
  5
2F27
330
1E
100
AcDbEntity
  8
7
100
AcDbLine
 10
0.4881889763779528
 20
5.14763779527559
 30
0.0
 11
0.4881889763779528
 21
5.264763779527559
 31
0.0
  0
LINE
  5
2F2F
330
1E
100
AcDbEntity
  8
7
100
AcDbLine
 10
0.5433070866141736
 20
5.264763779527559
 30
0.0
 11
0.5433070866141736
 21
5.184055118110236
 31
0.0
  0
LINE
  5
2F30
330
1E
100
AcDbEntity
  8
7
100
AcDbLine
 10
0.5433070866141736
 20
5.264763779527559
 30
0.0
 11
0.4881889763779528
 21
5.264763779527559
 31
0.0
  0
LINE
  5
2F36
330
1E
100
AcDbEntity
  8
7
100
AcDbLine
 10
0.7883858267716537
 20
5.264763779527559
 30
0.0
 11
0.7913385826771653
 21
5.267716535433071
 31
0.0
  0
LINE
  5
2F3C
330
1E
100
AcDbEntity
  8
7
100
AcDbLine
 10
0.7913385826771653
 20
5.267716535433071
 30
0.0
 11
0.7913385826771653
 21
5.297244094488188
 31
0.0
  0
LINE
  5
2F3D
330
1E
100
AcDbEntity
  8
7
100
AcDbLine
 10
0.7293307086614176
 20
5.297244094488188
 30
0.0
 11
0.7303149606299213
 21
5.297244094488188
 31
0.0
  0
LINE
  5
2F44
330
1E
100
AcDbEntity
  8
7
100
AcDbLine
 10
0.7283464566929135
 20
5.281496062992125
 30
0.0
 11
0.7293307086614176
 21
5.297244094488188
 31
0.0
  0
LINE
  5
2F45
330
1E
100
AcDbEntity
  8
7
100
AcDbLine
 10
-0.7824803149606299
 20
5.14763779527559
 30
0.0
 11
-0.7824803149606299
 21
5.264763779527559
 31
0.0
  0
LINE
  5
2F4D
330
1E
100
AcDbEntity
  8
7
100
AcDbLine
 10
-0.5374015748031496
 20
5.184055118110236
 30
0.0
 11
-0.7263779527559056
 21
5.184055118110236
 31
0.0
  0
LINE
  5
2F4E
330
1E
100
AcDbEntity
  8
7
100
AcDbLine
 10
-0.7263779527559056
 20
5.264763779527559
 30
0.0
 11
-0.7263779527559056
 21
5.184055118110236
 31
0.0
  0
LINE
  5
2F4F
330
1E
100
AcDbEntity
  8
7
100
AcDbLine
 10
-0.7263779527559056
 20
5.264763779527559
 30
0.0
 11
-0.7824803149606299
 21
5.264763779527559
 31
0.0
  0
LINE
  5
2F55
330
1E
100
AcDbEntity
  8
7
100
AcDbLine
 10
-0.4822834645669292
 20
5.264763779527559
 30
0.0
 11
-0.4793307086614172
 21
5.267716535433071
 31
0.0
  0
LINE
  5
2F5B
330
1E
100
AcDbEntity
  8
7
100
AcDbLine
 10
-0.4793307086614172
 20
5.267716535433071
 30
0.0
 11
-0.4793307086614172
 21
5.297244094488188
 31
0.0
  0
LINE
  5
2F63
330
1E
100
AcDbEntity
  8
7
100
AcDbLine
 10
-0.542322834645669
 20
5.281496062992125
 30
0.0
 11
-0.5403543307086612
 21
5.297244094488188
 31
0.0
  0
LINE
  5
2F69
330
1E
100
AcDbEntity
  8
7
100
AcDbLine
 10
0.8149606299212601
 20
5.183070866141732
 30
0.0
 11
0.8149606299212601
 21
5.131889763779527
 31
0.0
  0
LINE
  5
2F6F
330
1E
100
AcDbEntity
  8
7
100
AcDbLine
 10
-0.4547244094488186
 20
5.183070866141732
 30
0.0
 11
-0.4547244094488186
 21
5.131889763779527
 31
0.0
  0
LINE
  5
2F80
330
1E
100
AcDbEntity
  8
7
100
AcDbLine
 10
0.4763779527559056
 20
5.131889763779527
 30
0.0
 11
0.4872047244094491
 21
5.127952755905512
 31
0.0
  0
LINE
  5
2F86
330
1E
100
AcDbEntity
  8
7
100
AcDbLine
 10
0.4488188976377954
 20
5.131889763779527
 30
0.0
 11
0.4616141732283468
 21
5.131889763779527
 31
0.0
  0
LINE
  5
2F9A
330
1E
100
AcDbEntity
  8
7
100
AcDbLine
 10
-0.7942913385826771
 20
5.131889763779527
 30
0.0
 11
-0.7834645669291338
 21
5.127952755905512
 31
0.0
  0
LINE
  5
2FA0
330
1E
100
AcDbEntity
  8
7
100
AcDbLine
 10
-0.8218503937007872
 20
5.131889763779527
 30
0.0
 11
-0.8090551181102361
 21
5.131889763779527
 31
0.0
  0
LINE
  5
2FBD
330
1E
100
AcDbEntity
  8
7
100
AcDbLine
 10
0.8582677165354333
 20
5.312007874015748
 30
0.0
 11
0.8582677165354333
 21
5.097440944881889
 31
0.0
  0
LINE
  5
2FC4
330
1E
100
AcDbEntity
  8
7
100
AcDbLine
 10
-0.7263779527559056
 20
5.184055118110236
 30
0.0
 11
-0.7224409448818899
 21
5.18503937007874
 31
0.0
  0
LINE
  5
2FC5
330
1E
100
AcDbEntity
  8
7
100
AcDbLine
 10
-0.5374015748031496
 20
5.184055118110236
 30
0.0
 11
-0.542322834645669
 21
5.18503937007874
 31
0.0
  0
LINE
  5
2FC6
330
1E
100
AcDbEntity
  8
7
100
AcDbLine
 10
-1.26771653543307
 20
5.135826771653543
 30
0.0
 11
-1.26771653543307
 21
5.083661417322835
 31
0.0
  0
LINE
  5
2FC7
330
1E
100
AcDbEntity
  8
7
100
AcDbLine
 10
-1.26771653543307
 20
5.135826771653543
 30
0.0
 11
-1.268700787401574
 21
5.134842519685039
 31
0.0
  0
LINE
  5
2FC8
330
1E
100
AcDbEntity
  8
7
100
AcDbLine
 10
-1.26771653543307
 20
5.083661417322835
 30
0.0
 11
-1.268700787401574
 21
5.083661417322835
 31
0.0
  0
LINE
  5
2FC9
330
1E
100
AcDbEntity
  8
7
100
AcDbLine
 10
-1.295275590551181
 20
5.135826771653543
 30
0.0
 11
-1.26771653543307
 21
5.135826771653543
 31
0.0
  0
LINE
  5
2FCA
330
1E
100
AcDbEntity
  8
7
100
AcDbLine
 10
-1.295275590551181
 20
5.135826771653543
 30
0.0
 11
-1.295275590551181
 21
5.134842519685039
 31
0.0
  0
LINE
  5
2FCB
330
1E
100
AcDbEntity
  8
7
100
AcDbLine
 10
-1.26771653543307
 20
5.326771653543307
 30
0.0
 11
-1.26771653543307
 21
5.275590551181102
 31
0.0
  0
LINE
  5
2FCC
330
1E
100
AcDbEntity
  8
7
100
AcDbLine
 10
-1.26771653543307
 20
5.326771653543307
 30
0.0
 11
-1.268700787401574
 21
5.327755905511811
 31
0.0
  0
LINE
  5
2FCD
330
1E
100
AcDbEntity
  8
7
100
AcDbLine
 10
-1.26771653543307
 20
5.275590551181102
 30
0.0
 11
-1.268700787401574
 21
5.276574803149606
 31
0.0
  0
LINE
  5
2FD3
330
1E
100
AcDbEntity
  8
7
100
AcDbLine
 10
1.301181102362205
 20
5.275590551181102
 30
0.0
 11
1.273622047244094
 21
5.275590551181102
 31
0.0
  0
LINE
  5
2FD4
330
1E
100
AcDbEntity
  8
7
100
AcDbLine
 10
1.301181102362205
 20
5.275590551181102
 30
0.0
 11
1.301181102362205
 21
5.276574803149606
 31
0.0
  0
LINE
  5
2FD5
330
1E
100
AcDbEntity
  8
7
100
AcDbLine
 10
1.273622047244094
 20
5.275590551181102
 30
0.0
 11
1.274606299212598
 21
5.276574803149606
 31
0.0
  0
LINE
  5
2FDB
330
1E
100
AcDbEntity
  8
7
100
AcDbLine
 10
0.8681102362204725
 20
4.932086614173228
 30
0.0
 11
0.4084645669291338
 21
4.932086614173228
 31
0.0
  0
LINE
  5
2FDC
330
1E
100
AcDbEntity
  8
7
100
AcDbLine
 10
0.2332677165354333
 20
4.932086614173228
 30
0.0
 11
-0.2273622047244093
 21
4.932086614173228
 31
0.0
  0
LINE
  5
2FDD
330
1E
100
AcDbEntity
  8
7
100
AcDbLine
 10
-0.4015748031496061
 20
4.932086614173228
 30
0.0
 11
-0.8622047244094485
 21
4.932086614173228
 31
0.0
  0
LINE
  5
2FDE
330
1E
100
AcDbEntity
  8
7
100
AcDbLine
 10
-1.037401574803149
 20
4.932086614173228
 30
0.0
 11
-1.253937007874015
 21
4.932086614173228
 31
0.0
  0
LINE
  5
2FDF
330
1E
100
AcDbEntity
  8
7
100
AcDbLine
 10
0.7185039370078741
 20
4.20767716535433
 30
0.0
 11
0.8307086614173231
 21
4.20767716535433
 31
0.0
  0
LINE
  5
2FE0
330
1E
100
AcDbEntity
  8
7
100
AcDbLine
 10
0.1958661417322838
 20
4.20767716535433
 30
0.0
 11
0.0836614173228347
 21
4.20767716535433
 31
0.0
  0
LINE
  5
2FE1
330
1E
100
AcDbEntity
  8
7
100
AcDbLine
 10
-0.5511811023622047
 20
4.20767716535433
 30
0.0
 11
-0.4399606299212598
 21
4.20767716535433
 31
0.0
  0
LINE
  5
2FE2
330
1E
100
AcDbEntity
  8
7
100
AcDbLine
 10
-1.186023622047243
 20
4.20767716535433
 30
0.0
 11
-1.074803149606299
 21
4.20767716535433
 31
0.0
  0
LINE
  5
2FFB
330
1E
100
AcDbEntity
  8
7
100
AcDbLine
 10
1.268700787401574
 20
4.9251968503937
 30
0.0
 11
1.26771653543307
 21
4.924212598425197
 31
0.0
  0
LINE
  5
2FFC
330
1E
100
AcDbEntity
  8
7
100
AcDbLine
 10
1.26771653543307
 20
4.280511811023622
 30
0.0
 11
1.26771653543307
 21
4.924212598425197
 31
0.0
  0
LINE
  5
2FFD
330
1E
100
AcDbEntity
  8
7
100
AcDbLine
 10
1.26771653543307
 20
4.280511811023622
 30
0.0
 11
1.268700787401574
 21
4.279527559055118
 31
0.0
  0
LINE
  5
2FFE
330
1E
100
AcDbEntity
  8
7
100
AcDbLine
 10
1.259842519685039
 20
4.932086614173228
 30
0.0
 11
1.043307086614173
 21
4.932086614173228
 31
0.0
  0
LINE
  5
2FFF
330
1E
100
AcDbEntity
  8
7
100
AcDbLine
 10
1.259842519685039
 20
4.932086614173228
 30
0.0
 11
1.260826771653543
 21
4.933070866141732
 31
0.0
  0
LINE
  5
3000
330
1E
100
AcDbEntity
  8
7
100
AcDbLine
 10
-1.254921259842519
 20
4.933070866141732
 30
0.0
 11
-1.253937007874015
 21
4.932086614173228
 31
0.0
  0
LINE
  5
3001
330
1E
100
AcDbEntity
  8
7
100
AcDbLine
 10
-1.037401574803149
 20
4.933070866141732
 30
0.0
 11
-0.8622047244094485
 21
4.933070866141732
 31
0.0
  0
LINE
  5
3002
330
1E
100
AcDbEntity
  8
7
100
AcDbLine
 10
-0.4015748031496061
 20
4.933070866141732
 30
0.0
 11
-0.2273622047244093
 21
4.933070866141732
 31
0.0
  0
LINE
  5
3003
330
1E
100
AcDbEntity
  8
7
100
AcDbLine
 10
0.2332677165354333
 20
4.933070866141732
 30
0.0
 11
0.4084645669291338
 21
4.933070866141732
 31
0.0
  0
LINE
  5
3004
330
1E
100
AcDbEntity
  8
7
100
AcDbLine
 10
0.8681102362204725
 20
4.933070866141732
 30
0.0
 11
1.043307086614173
 21
4.933070866141732
 31
0.0
  0
LINE
  5
3005
330
1E
100
AcDbEntity
  8
7
100
AcDbLine
 10
-1.26279527559055
 20
4.279527559055118
 30
0.0
 11
-1.261811023622047
 21
4.280511811023622
 31
0.0
  0
LINE
  5
3006
330
1E
100
AcDbEntity
  8
7
100
AcDbLine
 10
-1.261811023622047
 20
4.924212598425197
 30
0.0
 11
-1.261811023622047
 21
4.280511811023622
 31
0.0
  0
LINE
  5
3007
330
1E
100
AcDbEntity
  8
7
100
AcDbLine
 10
-1.261811023622047
 20
4.924212598425197
 30
0.0
 11
-1.26279527559055
 21
4.9251968503937
 31
0.0
  0
LINE
  5
3008
330
1E
100
AcDbEntity
  8
7
100
AcDbLine
 10
-1.253937007874015
 20
4.27263779527559
 30
0.0
 11
-1.194881889763779
 21
4.27263779527559
 31
0.0
  0
LINE
  5
3009
330
1E
100
AcDbEntity
  8
7
100
AcDbLine
 10
-1.253937007874015
 20
4.27263779527559
 30
0.0
 11
-1.254921259842519
 21
4.271653543307087
 31
0.0
  0
LINE
  5
300A
330
1E
100
AcDbEntity
  8
7
100
AcDbLine
 10
-1.195866141732283
 20
4.271653543307087
 30
0.0
 11
-1.194881889763779
 21
4.27263779527559
 31
0.0
  0
LINE
  5
300B
330
1E
100
AcDbEntity
  8
7
100
AcDbLine
 10
-1.195866141732283
 20
4.214566929133858
 30
0.0
 11
-1.194881889763779
 21
4.215551181102362
 31
0.0
  0
LINE
  5
300C
330
1E
100
AcDbEntity
  8
7
100
AcDbLine
 10
-1.194881889763779
 20
4.27263779527559
 30
0.0
 11
-1.194881889763779
 21
4.215551181102362
 31
0.0
  0
LINE
  5
300D
330
1E
100
AcDbEntity
  8
7
100
AcDbLine
 10
-0.7116141732283463
 20
4.205708661417323
 30
0.0
 11
-0.7125984251968501
 21
4.20767716535433
 31
0.0
  0
LINE
  5
300E
330
1E
100
AcDbEntity
  8
7
100
AcDbLine
 10
-0.824803149606299
 20
4.20767716535433
 30
0.0
 11
-0.7125984251968501
 21
4.20767716535433
 31
0.0
  0
LINE
  5
3014
330
1E
100
AcDbEntity
  8
7
100
AcDbLine
 10
-1.074803149606299
 20
4.20767716535433
 30
0.0
 11
-1.0501968503937
 21
4.219488188976377
 31
0.0
  0
LINE
  5
3015
330
1E
100
AcDbEntity
  8
7
100
AcDbLine
 10
-1.186023622047243
 20
4.20767716535433
 30
0.0
 11
-1.187007874015747
 21
4.205708661417323
 31
0.0
  0
LINE
  5
3016
330
1E
100
AcDbEntity
  8
7
100
AcDbLine
 10
-0.7047244094488186
 20
4.215551181102362
 30
0.0
 11
-0.7037401574803149
 21
4.214566929133858
 31
0.0
  0
LINE
  5
3017
330
1E
100
AcDbEntity
  8
7
100
AcDbLine
 10
-0.7037401574803149
 20
4.271653543307087
 30
0.0
 11
-0.7047244094488186
 21
4.27263779527559
 31
0.0
  0
LINE
  5
3018
330
1E
100
AcDbEntity
  8
7
100
AcDbLine
 10
-0.7047244094488186
 20
4.215551181102362
 30
0.0
 11
-0.7047244094488186
 21
4.27263779527559
 31
0.0
  0
LINE
  5
3019
330
1E
100
AcDbEntity
  8
7
100
AcDbLine
 10
-0.5600393700787399
 20
4.271653543307087
 30
0.0
 11
-0.5590551181102362
 21
4.27263779527559
 31
0.0
  0
LINE
  5
301A
330
1E
100
AcDbEntity
  8
7
100
AcDbLine
 10
-0.7047244094488186
 20
4.27263779527559
 30
0.0
 11
-0.5590551181102362
 21
4.27263779527559
 31
0.0
  0
LINE
  5
301B
330
1E
100
AcDbEntity
  8
7
100
AcDbLine
 10
-0.5600393700787399
 20
4.214566929133858
 30
0.0
 11
-0.5590551181102362
 21
4.215551181102362
 31
0.0
  0
LINE
  5
301C
330
1E
100
AcDbEntity
  8
7
100
AcDbLine
 10
-0.5590551181102362
 20
4.27263779527559
 30
0.0
 11
-0.5590551181102362
 21
4.215551181102362
 31
0.0
  0
LINE
  5
301D
330
1E
100
AcDbEntity
  8
7
100
AcDbLine
 10
-0.076771653543307
 20
4.205708661417323
 30
0.0
 11
-0.0777559055118107
 21
4.20767716535433
 31
0.0
  0
LINE
  5
301E
330
1E
100
AcDbEntity
  8
7
100
AcDbLine
 10
-0.1899606299212597
 20
4.20767716535433
 30
0.0
 11
-0.0777559055118107
 21
4.20767716535433
 31
0.0
  0
LINE
  5
3024
330
1E
100
AcDbEntity
  8
7
100
AcDbLine
 10
-0.4399606299212598
 20
4.20767716535433
 30
0.0
 11
-0.4153543307086612
 21
4.219488188976377
 31
0.0
  0
LINE
  5
3025
330
1E
100
AcDbEntity
  8
7
100
AcDbLine
 10
-0.5511811023622047
 20
4.20767716535433
 30
0.0
 11
-0.5521653543307084
 21
4.205708661417323
 31
0.0
  0
LINE
  5
3026
330
1E
100
AcDbEntity
  8
7
100
AcDbLine
 10
-0.0698818897637792
 20
4.215551181102362
 30
0.0
 11
-0.0688976377952755
 21
4.214566929133858
 31
0.0
  0
LINE
  5
3027
330
1E
100
AcDbEntity
  8
7
100
AcDbLine
 10
-0.0688976377952755
 20
4.271653543307087
 30
0.0
 11
-0.0698818897637792
 21
4.27263779527559
 31
0.0
  0
LINE
  5
3028
330
1E
100
AcDbEntity
  8
7
100
AcDbLine
 10
-0.0698818897637792
 20
4.215551181102362
 30
0.0
 11
-0.0698818897637792
 21
4.27263779527559
 31
0.0
  0
LINE
  5
3029
330
1E
100
AcDbEntity
  8
7
100
AcDbLine
 10
0.0748031496062995
 20
4.271653543307087
 30
0.0
 11
0.0757874015748032
 21
4.27263779527559
 31
0.0
  0
LINE
  5
302A
330
1E
100
AcDbEntity
  8
7
100
AcDbLine
 10
-0.0698818897637792
 20
4.27263779527559
 30
0.0
 11
0.0757874015748032
 21
4.27263779527559
 31
0.0
  0
LINE
  5
303A
330
1E
100
AcDbEntity
  8
7
100
AcDbLine
 10
0.1958661417322838
 20
4.20767716535433
 30
0.0
 11
0.2194881889763782
 21
4.219488188976377
 31
0.0
  0
LINE
  5
303B
330
1E
100
AcDbEntity
  8
7
100
AcDbLine
 10
0.0836614173228347
 20
4.20767716535433
 30
0.0
 11
0.082677165354331
 21
4.205708661417323
 31
0.0
  0
LINE
  5
3041
330
1E
100
AcDbEntity
  8
7
100
AcDbLine
 10
0.5659448818897639
 20
4.271653543307087
 30
0.0
 11
0.5659448818897639
 21
4.27263779527559
 31
0.0
  0
LINE
  5
3047
330
1E
100
AcDbEntity
  8
7
100
AcDbLine
 10
0.7096456692913389
 20
4.214566929133858
 30
0.0
 11
0.7106299212598426
 21
4.215551181102362
 31
0.0
  0
LINE
  5
3048
330
1E
100
AcDbEntity
  8
7
100
AcDbLine
 10
0.7106299212598426
 20
4.27263779527559
 30
0.0
 11
0.7106299212598426
 21
4.215551181102362
 31
0.0
  0
LINE
  5
3049
330
1E
100
AcDbEntity
  8
7
100
AcDbLine
 10
1.193897637795275
 20
4.205708661417323
 30
0.0
 11
1.192913385826771
 21
4.20767716535433
 31
0.0
  0
LINE
  5
304A
330
1E
100
AcDbEntity
  8
7
100
AcDbLine
 10
1.080708661417323
 20
4.20767716535433
 30
0.0
 11
1.192913385826771
 21
4.20767716535433
 31
0.0
  0
LINE
  5
304B
330
1E
100
AcDbEntity
  8
7
100
AcDbLine
 10
1.080708661417323
 20
4.20767716535433
 30
0.0
 11
1.056102362204724
 21
4.219488188976377
 31
0.0
  0
LINE
  5
304C
330
1E
100
AcDbEntity
  8
7
100
AcDbLine
 10
1.056102362204724
 20
4.219488188976377
 30
0.0
 11
0.8543307086614175
 21
4.219488188976377
 31
0.0
  0
LINE
  5
304D
330
1E
100
AcDbEntity
  8
7
100
AcDbLine
 10
0.8307086614173231
 20
4.20767716535433
 30
0.0
 11
0.8543307086614175
 21
4.219488188976377
 31
0.0
  0
LINE
  5
304E
330
1E
100
AcDbEntity
  8
7
100
AcDbLine
 10
0.7185039370078741
 20
4.20767716535433
 30
0.0
 11
0.7175196850393704
 21
4.205708661417323
 31
0.0
  0
LINE
  5
304F
330
1E
100
AcDbEntity
  8
7
100
AcDbLine
 10
1.200787401574803
 20
4.215551181102362
 30
0.0
 11
1.200787401574803
 21
4.27263779527559
 31
0.0
  0
LINE
  5
3050
330
1E
100
AcDbEntity
  8
7
100
AcDbLine
 10
1.200787401574803
 20
4.215551181102362
 30
0.0
 11
1.201771653543307
 21
4.214566929133858
 31
0.0
  0
LINE
  5
3051
330
1E
100
AcDbEntity
  8
7
100
AcDbLine
 10
1.201771653543307
 20
4.271653543307087
 30
0.0
 11
1.200787401574803
 21
4.27263779527559
 31
0.0
  0
LINE
  5
3052
330
1E
100
AcDbEntity
  8
7
100
AcDbLine
 10
1.260826771653543
 20
4.271653543307087
 30
0.0
 11
1.259842519685039
 21
4.27263779527559
 31
0.0
  0
LINE
  5
3053
330
1E
100
AcDbEntity
  8
7
100
AcDbLine
 10
1.200787401574803
 20
4.27263779527559
 30
0.0
 11
1.259842519685039
 21
4.27263779527559
 31
0.0
  0
LINE
  5
3054
330
1E
100
AcDbEntity
  8
7
100
AcDbLine
 10
-1.0501968503937
 20
4.234251968503937
 30
0.0
 11
-1.0501968503937
 21
4.250984251968503
 31
0.0
  0
LINE
  5
305A
330
1E
100
AcDbEntity
  8
7
100
AcDbLine
 10
-0.8494094488188974
 20
4.250984251968503
 30
0.0
 11
-1.0501968503937
 21
4.250984251968503
 31
0.0
  0
LINE
  5
3066
330
1E
100
AcDbEntity
  8
7
100
AcDbLine
 10
-1.0501968503937
 20
4.286417322834646
 30
0.0
 11
-1.0501968503937
 21
4.30511811023622
 31
0.0
  0
LINE
  5
306D
330
1E
100
AcDbEntity
  8
7
100
AcDbLine
 10
-0.8484251968503935
 20
4.286417322834646
 30
0.0
 11
-0.8484251968503935
 21
4.283464566929134
 31
0.0
  0
LINE
  5
3073
330
1E
100
AcDbEntity
  8
7
100
AcDbLine
 10
-1.0501968503937
 20
4.283464566929134
 30
0.0
 11
-1.0501968503937
 21
4.286417322834646
 31
0.0
  0
LINE
  5
3079
330
1E
100
AcDbEntity
  8
7
100
AcDbLine
 10
-0.4143700787401574
 20
4.234251968503937
 30
0.0
 11
-0.4143700787401574
 21
4.250984251968503
 31
0.0
  0
LINE
  5
308B
330
1E
100
AcDbEntity
  8
7
100
AcDbLine
 10
-0.4153543307086612
 20
4.286417322834646
 30
0.0
 11
-0.4153543307086612
 21
4.30511811023622
 31
0.0
  0
LINE
  5
3092
330
1E
100
AcDbEntity
  8
7
100
AcDbLine
 10
-0.2135826771653542
 20
4.286417322834646
 30
0.0
 11
-0.2135826771653542
 21
4.283464566929134
 31
0.0
  0
LINE
  5
3098
330
1E
100
AcDbEntity
  8
7
100
AcDbLine
 10
-0.4153543307086612
 20
4.283464566929134
 30
0.0
 11
-0.4153543307086612
 21
4.286417322834646
 31
0.0
  0
LINE
  5
309E
330
1E
100
AcDbEntity
  8
7
100
AcDbLine
 10
0.2204724409448819
 20
4.234251968503937
 30
0.0
 11
0.2204724409448819
 21
4.250984251968503
 31
0.0
  0
LINE
  5
30B0
330
1E
100
AcDbEntity
  8
7
100
AcDbLine
 10
0.2194881889763782
 20
4.286417322834646
 30
0.0
 11
0.2194881889763782
 21
4.30511811023622
 31
0.0
  0
LINE
  5
30B7
330
1E
100
AcDbEntity
  8
7
100
AcDbLine
 10
0.4212598425196852
 20
4.286417322834646
 30
0.0
 11
0.4212598425196852
 21
4.283464566929134
 31
0.0
  0
LINE
  5
30BD
330
1E
100
AcDbEntity
  8
7
100
AcDbLine
 10
0.2194881889763782
 20
4.283464566929134
 30
0.0
 11
0.2194881889763782
 21
4.286417322834646
 31
0.0
  0
LINE
  5
30C3
330
1E
100
AcDbEntity
  8
7
100
AcDbLine
 10
0.8553149606299212
 20
4.234251968503937
 30
0.0
 11
0.8553149606299212
 21
4.250984251968503
 31
0.0
  0
LINE
  5
30D0
330
1E
100
AcDbEntity
  8
7
100
AcDbLine
 10
0.8553149606299212
 20
4.250984251968503
 30
0.0
 11
0.8553149606299212
 21
4.268700787401574
 31
0.0
  0
LINE
  5
30D1
330
1E
100
AcDbEntity
  8
7
100
AcDbLine
 10
0.8553149606299212
 20
4.268700787401574
 30
0.0
 11
0.8543307086614175
 21
4.283464566929134
 31
0.0
  0
LINE
  5
30D2
330
1E
100
AcDbEntity
  8
7
100
AcDbLine
 10
0.8543307086614175
 20
4.286417322834646
 30
0.0
 11
0.8543307086614175
 21
4.30511811023622
 31
0.0
  0
LINE
  5
30D9
330
1E
100
AcDbEntity
  8
7
100
AcDbLine
 10
1.056102362204724
 20
4.286417322834646
 30
0.0
 11
1.056102362204724
 21
4.283464566929134
 31
0.0
  0
LINE
  5
30DF
330
1E
100
AcDbEntity
  8
7
100
AcDbLine
 10
0.8543307086614175
 20
4.283464566929134
 30
0.0
 11
0.8543307086614175
 21
4.286417322834646
 31
0.0
  0
LINE
  5
30E5
330
1E
100
AcDbEntity
  8
7
100
AcDbLine
 10
-0.8622047244094485
 20
4.922244094488188
 30
0.0
 11
-1.037401574803149
 21
4.922244094488188
 31
0.0
  0
LINE
  5
30E6
330
1E
100
AcDbEntity
  8
7
100
AcDbLine
 10
-0.8622047244094485
 20
4.893700787401574
 30
0.0
 11
-1.037401574803149
 21
4.893700787401574
 31
0.0
  0
LINE
  5
30E7
330
1E
100
AcDbEntity
  8
7
100
AcDbLine
 10
-0.2273622047244093
 20
4.922244094488188
 30
0.0
 11
-0.4015748031496061
 21
4.922244094488188
 31
0.0
  0
LINE
  5
30E8
330
1E
100
AcDbEntity
  8
7
100
AcDbLine
 10
-0.2273622047244093
 20
4.893700787401574
 30
0.0
 11
-0.4015748031496061
 21
4.893700787401574
 31
0.0
  0
LINE
  5
30E9
330
1E
100
AcDbEntity
  8
7
100
AcDbLine
 10
0.4084645669291338
 20
4.922244094488188
 30
0.0
 11
0.2332677165354333
 21
4.922244094488188
 31
0.0
  0
LINE
  5
30EA
330
1E
100
AcDbEntity
  8
7
100
AcDbLine
 10
0.4084645669291338
 20
4.893700787401574
 30
0.0
 11
0.2332677165354333
 21
4.893700787401574
 31
0.0
  0
LINE
  5
30EB
330
1E
100
AcDbEntity
  8
7
100
AcDbLine
 10
1.043307086614173
 20
4.922244094488188
 30
0.0
 11
0.8681102362204725
 21
4.922244094488188
 31
0.0
  0
LINE
  5
30EC
330
1E
100
AcDbEntity
  8
7
100
AcDbLine
 10
1.043307086614173
 20
4.893700787401574
 30
0.0
 11
0.8681102362204725
 21
4.893700787401574
 31
0.0
  0
LINE
  5
30ED
330
1E
100
AcDbEntity
  8
7
100
AcDbLine
 10
1.271653543307086
 20
5.084645669291338
 30
0.0
 11
1.273622047244094
 21
5.083661417322835
 31
0.0
  0
LINE
  5
30EE
330
1E
100
AcDbEntity
  8
7
100
AcDbLine
 10
-1.265748031496062
 20
5.084645669291338
 30
0.0
 11
-1.26771653543307
 21
5.083661417322835
 31
0.0
  0
LINE
  5
30EF
330
1E
100
AcDbEntity
  8
7
100
AcDbLine
 10
1.273622047244094
 20
5.083661417322835
 30
0.0
 11
1.274606299212598
 21
5.083661417322835
 31
0.0
  0
LINE
  5
30F0
330
1E
100
AcDbEntity
  8
7
100
AcDbLine
 10
1.273622047244094
 20
5.135826771653543
 30
0.0
 11
1.274606299212598
 21
5.134842519685039
 31
0.0
  0
LINE
  5
30F1
330
1E
100
AcDbEntity
  8
7
100
AcDbLine
 10
1.273622047244094
 20
5.083661417322835
 30
0.0
 11
1.273622047244094
 21
5.135826771653543
 31
0.0
  0
LINE
  5
30F2
330
1E
100
AcDbEntity
  8
7
100
AcDbLine
 10
1.301181102362205
 20
5.135826771653543
 30
0.0
 11
1.301181102362205
 21
5.134842519685039
 31
0.0
  0
LINE
  5
30F3
330
1E
100
AcDbEntity
  8
7
100
AcDbLine
 10
1.273622047244094
 20
5.135826771653543
 30
0.0
 11
1.301181102362205
 21
5.135826771653543
 31
0.0
  0
LINE
  5
30F4
330
1E
100
AcDbEntity
  8
7
100
AcDbLine
 10
1.300196850393701
 20
5.273622047244094
 30
0.0
 11
1.301181102362205
 21
5.275590551181102
 31
0.0
  0
LINE
  5
30F5
330
1E
100
AcDbEntity
  8
7
100
AcDbLine
 10
1.300196850393701
 20
5.13779527559055
 30
0.0
 11
1.301181102362205
 21
5.135826771653543
 31
0.0
  0
LINE
  5
30F6
330
1E
100
AcDbEntity
  8
7
100
AcDbLine
 10
-1.265748031496062
 20
5.326771653543307
 30
0.0
 11
-1.26771653543307
 21
5.326771653543307
 31
0.0
  0
LINE
  5
30F7
330
1E
100
AcDbEntity
  8
7
100
AcDbLine
 10
1.271653543307086
 20
5.326771653543307
 30
0.0
 11
1.273622047244094
 21
5.326771653543307
 31
0.0
  0
LINE
  5
30F8
330
1E
100
AcDbEntity
  8
7
100
AcDbLine
 10
-1.294291338582677
 20
5.13779527559055
 30
0.0
 11
-1.295275590551181
 21
5.135826771653543
 31
0.0
  0
LINE
  5
30F9
330
1E
100
AcDbEntity
  8
7
100
AcDbLine
 10
-1.294291338582677
 20
5.273622047244094
 30
0.0
 11
-1.295275590551181
 21
5.275590551181102
 31
0.0
  0
LINE
  5
30FA
330
1E
100
AcDbEntity
  8
7
100
AcDbLine
 10
-0.4153543307086612
 20
5.100393700787401
 30
0.0
 11
-0.4124015748031496
 21
5.097440944881889
 31
0.0
  0
LINE
  5
30FB
330
1E
100
AcDbEntity
  8
7
100
AcDbLine
 10
-0.8484251968503935
 20
5.100393700787401
 30
0.0
 11
-0.8523622047244092
 21
5.097440944881889
 31
0.0
  0
LINE
  5
30FC
330
1E
100
AcDbEntity
  8
7
100
AcDbLine
 10
-0.8366141732283463
 20
5.131889763779527
 30
0.0
 11
-0.8366141732283463
 21
5.183070866141732
 31
0.0
  0
LINE
  5
30FD
330
1E
100
AcDbEntity
  8
7
100
AcDbLine
 10
-0.8503937007874014
 20
5.31003937007874
 30
0.0
 11
-0.8523622047244092
 21
5.312007874015748
 31
0.0
  0
LINE
  5
30FE
330
1E
100
AcDbEntity
  8
7
100
AcDbLine
 10
-0.4143700787401574
 20
5.31003937007874
 30
0.0
 11
-0.4124015748031496
 21
5.312007874015748
 31
0.0
  0
LINE
  5
30FF
330
1E
100
AcDbEntity
  8
7
100
AcDbLine
 10
-0.4271653543307084
 20
5.183070866141732
 30
0.0
 11
-0.4271653543307084
 21
5.131889763779527
 31
0.0
  0
LINE
  5
3100
330
1E
100
AcDbEntity
  8
7
100
AcDbLine
 10
-0.8090551181102361
 20
5.131889763779527
 30
0.0
 11
-0.8090551181102361
 21
5.183070866141732
 31
0.0
  0
LINE
  5
3101
330
1E
100
AcDbEntity
  8
7
100
AcDbLine
 10
-0.8218503937007872
 20
5.183070866141732
 30
0.0
 11
-0.8218503937007872
 21
5.131889763779527
 31
0.0
  0
LINE
  5
3102
330
1E
100
AcDbEntity
  8
7
100
AcDbLine
 10
0.8553149606299212
 20
5.100393700787401
 30
0.0
 11
0.8582677165354333
 21
5.097440944881889
 31
0.0
  0
LINE
  5
3103
330
1E
100
AcDbEntity
  8
7
100
AcDbLine
 10
0.4212598425196852
 20
5.100393700787401
 30
0.0
 11
0.4183070866141736
 21
5.097440944881889
 31
0.0
  0
LINE
  5
3104
330
1E
100
AcDbEntity
  8
7
100
AcDbLine
 10
0.4330708661417324
 20
5.131889763779527
 30
0.0
 11
0.4330708661417324
 21
5.183070866141732
 31
0.0
  0
LINE
  5
3105
330
1E
100
AcDbEntity
  8
7
100
AcDbLine
 10
0.4202755905511815
 20
5.31003937007874
 30
0.0
 11
0.4183070866141736
 21
5.312007874015748
 31
0.0
  0
LINE
  5
3106
330
1E
100
AcDbEntity
  8
7
100
AcDbLine
 10
0.8562992125984255
 20
5.31003937007874
 30
0.0
 11
0.8582677165354333
 21
5.312007874015748
 31
0.0
  0
LINE
  5
3107
330
1E
100
AcDbEntity
  8
7
100
AcDbLine
 10
0.8425196850393703
 20
5.183070866141732
 30
0.0
 11
0.8425196850393703
 21
5.131889763779527
 31
0.0
  0
LINE
  5
3108
330
1E
100
AcDbEntity
  8
7
100
AcDbLine
 10
0.4616141732283468
 20
5.131889763779527
 30
0.0
 11
0.4616141732283468
 21
5.183070866141732
 31
0.0
  0
LINE
  5
3109
330
1E
100
AcDbEntity
  8
7
100
AcDbLine
 10
0.4488188976377954
 20
5.183070866141732
 30
0.0
 11
0.4488188976377954
 21
5.131889763779527
 31
0.0
  0
LINE
  5
310A
330
1E
100
AcDbEntity
  8
7
100
AcDbLine
 10
-0.7234251968503936
 20
5.267716535433071
 30
0.0
 11
-0.7263779527559056
 21
5.264763779527559
 31
0.0
  0
LINE
  5
310B
330
1E
100
AcDbEntity
  8
7
100
AcDbLine
 10
-0.7234251968503936
 20
5.267716535433071
 30
0.0
 11
-0.7844488188976378
 21
5.267716535433071
 31
0.0
  0
LINE
  5
310C
330
1E
100
AcDbEntity
  8
7
100
AcDbLine
 10
-0.7824803149606299
 20
5.264763779527559
 30
0.0
 11
-0.7844488188976378
 21
5.267716535433071
 31
0.0
  0
LINE
  5
310D
330
1E
100
AcDbEntity
  8
7
100
AcDbLine
 10
-0.7234251968503936
 20
5.297244094488188
 30
0.0
 11
-0.7234251968503936
 21
5.267716535433071
 31
0.0
  0
LINE
  5
310E
330
1E
100
AcDbEntity
  8
7
100
AcDbLine
 10
-0.7234251968503936
 20
5.297244094488188
 30
0.0
 11
-0.7844488188976378
 21
5.297244094488188
 31
0.0
  0
LINE
  5
310F
330
1E
100
AcDbEntity
  8
7
100
AcDbLine
 10
-0.7844488188976378
 20
5.267716535433071
 30
0.0
 11
-0.7844488188976378
 21
5.297244094488188
 31
0.0
  0
LINE
  5
3110
330
1E
100
AcDbEntity
  8
7
100
AcDbLine
 10
-0.7844488188976378
 20
5.297244094488188
 30
0.0
 11
-0.7854330708661417
 21
5.297244094488188
 31
0.0
  0
LINE
  5
3116
330
1E
100
AcDbEntity
  8
7
100
AcDbLine
 10
-0.7854330708661417
 20
5.297244094488188
 30
0.0
 11
-0.7942913385826771
 21
5.191929133858267
 31
0.0
  0
LINE
  5
3117
330
1E
100
AcDbEntity
  8
7
100
AcDbLine
 10
-0.7224409448818899
 20
5.281496062992125
 30
0.0
 11
-0.7234251968503936
 21
5.297244094488188
 31
0.0
  0
LINE
  5
3118
330
1E
100
AcDbEntity
  8
7
100
AcDbLine
 10
-0.4822834645669292
 20
5.14763779527559
 30
0.0
 11
-0.481299212598425
 21
5.127952755905512
 31
0.0
  0
LINE
  5
3119
330
1E
100
AcDbEntity
  8
7
100
AcDbLine
 10
-0.470472440944882
 20
5.131889763779527
 30
0.0
 11
-0.470472440944882
 21
5.191929133858267
 31
0.0
  0
LINE
  5
311A
330
1E
100
AcDbEntity
  8
7
100
AcDbLine
 10
-0.7834645669291338
 20
5.127952755905512
 30
0.0
 11
-0.7824803149606299
 21
5.14763779527559
 31
0.0
  0
LINE
  5
311B
330
1E
100
AcDbEntity
  8
7
100
AcDbLine
 10
-0.7942913385826771
 20
5.191929133858267
 30
0.0
 11
-0.7942913385826771
 21
5.131889763779527
 31
0.0
  0
LINE
  5
311C
330
1E
100
AcDbEntity
  8
7
100
AcDbLine
 10
0.5462598425196852
 20
5.267716535433071
 30
0.0
 11
0.5433070866141736
 21
5.264763779527559
 31
0.0
  0
LINE
  5
311D
330
1E
100
AcDbEntity
  8
7
100
AcDbLine
 10
0.5462598425196852
 20
5.267716535433071
 30
0.0
 11
0.4852362204724412
 21
5.267716535433071
 31
0.0
  0
LINE
  5
311E
330
1E
100
AcDbEntity
  8
7
100
AcDbLine
 10
0.4881889763779528
 20
5.264763779527559
 30
0.0
 11
0.4852362204724412
 21
5.267716535433071
 31
0.0
  0
LINE
  5
311F
330
1E
100
AcDbEntity
  8
7
100
AcDbLine
 10
0.5462598425196852
 20
5.297244094488188
 30
0.0
 11
0.5462598425196852
 21
5.267716535433071
 31
0.0
  0
LINE
  5
3120
330
1E
100
AcDbEntity
  8
7
100
AcDbLine
 10
0.5462598425196852
 20
5.297244094488188
 30
0.0
 11
0.4852362204724412
 21
5.297244094488188
 31
0.0
  0
LINE
  5
3121
330
1E
100
AcDbEntity
  8
7
100
AcDbLine
 10
0.4852362204724412
 20
5.267716535433071
 30
0.0
 11
0.4852362204724412
 21
5.297244094488188
 31
0.0
  0
LINE
  5
3122
330
1E
100
AcDbEntity
  8
7
100
AcDbLine
 10
0.4852362204724412
 20
5.297244094488188
 30
0.0
 11
0.4842519685039371
 21
5.297244094488188
 31
0.0
  0
LINE
  5
3128
330
1E
100
AcDbEntity
  8
7
100
AcDbLine
 10
0.4842519685039371
 20
5.297244094488188
 30
0.0
 11
0.4763779527559056
 21
5.191929133858267
 31
0.0
  0
LINE
  5
3129
330
1E
100
AcDbEntity
  8
7
100
AcDbLine
 10
0.5482283464566931
 20
5.281496062992125
 30
0.0
 11
0.5462598425196852
 21
5.297244094488188
 31
0.0
  0
LINE
  5
312A
330
1E
100
AcDbEntity
  8
7
100
AcDbLine
 10
0.7883858267716537
 20
5.14763779527559
 30
0.0
 11
0.7893700787401574
 21
5.127952755905512
 31
0.0
  0
LINE
  5
312B
330
1E
100
AcDbEntity
  8
7
100
AcDbLine
 10
0.8001968503937009
 20
5.131889763779527
 30
0.0
 11
0.8001968503937009
 21
5.191929133858267
 31
0.0
  0
LINE
  5
312C
330
1E
100
AcDbEntity
  8
7
100
AcDbLine
 10
0.4872047244094491
 20
5.127952755905512
 30
0.0
 11
0.4881889763779528
 21
5.14763779527559
 31
0.0
  0
LINE
  5
312D
330
1E
100
AcDbEntity
  8
7
100
AcDbLine
 10
0.4763779527559056
 20
5.191929133858267
 30
0.0
 11
0.4763779527559056
 21
5.131889763779527
 31
0.0
  0
LINE
  5
3133
330
1E
100
AcDbEntity
  8
7
100
AcDbLine
 10
-0.7116141732283463
 20
3.876968503937008
 30
0.0
 11
-0.7155511811023621
 21
3.873031496062992
 31
0.0
  0
LINE
  5
3134
330
1E
100
AcDbEntity
  8
7
100
AcDbLine
 10
-0.7116141732283463
 20
3.876968503937008
 30
0.0
 11
-0.7066929133858264
 21
3.881889763779527
 31
0.0
  0
LINE
  5
3135
330
1E
100
AcDbEntity
  8
7
100
AcDbLine
 10
-0.7716535433070863
 20
3.876968503937008
 30
0.0
 11
-0.77755905511811
 21
3.881889763779527
 31
0.0
  0
LINE
  5
3136
330
1E
100
AcDbEntity
  8
7
100
AcDbLine
 10
-0.7165354330708658
 20
3.853346456692913
 30
0.0
 11
-0.71751968503937
 21
3.812007874015748
 31
0.0
  0
LINE
  5
314C
330
1E
100
AcDbEntity
  8
7
100
AcDbLine
 10
0.5580708661417324
 20
3.876968503937008
 30
0.0
 11
0.5551181102362209
 21
3.873031496062992
 31
0.0
  0
LINE
  5
314D
330
1E
100
AcDbEntity
  8
7
100
AcDbLine
 10
0.5580708661417324
 20
3.876968503937008
 30
0.0
 11
0.5629921259842523
 21
3.881889763779527
 31
0.0
  0
LINE
  5
314E
330
1E
100
AcDbEntity
  8
7
100
AcDbLine
 10
0.4980314960629922
 20
3.876968503937008
 30
0.0
 11
0.4921259842519686
 21
3.881889763779527
 31
0.0
  0
LINE
  5
314F
330
1E
100
AcDbEntity
  8
7
100
AcDbLine
 10
0.553149606299213
 20
3.853346456692913
 30
0.0
 11
0.553149606299213
 21
3.812007874015748
 31
0.0
  0
LINE
  5
3160
330
1E
100
AcDbEntity
  8
7
100
AcDbLine
 10
-0.497047244094488
 20
3.812007874015748
 30
0.0
 11
-0.5462598425196848
 21
3.812007874015748
 31
0.0
  0
LINE
  5
3166
330
1E
100
AcDbEntity
  8
7
100
AcDbLine
 10
-0.4921259842519686
 20
3.876968503937008
 30
0.0
 11
-0.4950787401574801
 21
3.873031496062992
 31
0.0
  0
LINE
  5
3167
330
1E
100
AcDbEntity
  8
7
100
AcDbLine
 10
-0.4921259842519686
 20
3.876968503937008
 30
0.0
 11
-0.4862204724409449
 21
3.881889763779527
 31
0.0
  0
LINE
  5
3168
330
1E
100
AcDbEntity
  8
7
100
AcDbLine
 10
-0.5521653543307084
 20
3.876968503937008
 30
0.0
 11
-0.5570866141732283
 21
3.881889763779527
 31
0.0
  0
LINE
  5
3169
330
1E
100
AcDbEntity
  8
7
100
AcDbLine
 10
-0.4960629921259843
 20
3.853346456692913
 30
0.0
 11
-0.497047244094488
 21
3.812007874015748
 31
0.0
  0
LINE
  5
3179
330
1E
100
AcDbEntity
  8
7
100
AcDbLine
 10
0.7726377952755908
 20
3.812007874015748
 30
0.0
 11
0.723425196850394
 21
3.812007874015748
 31
0.0
  0
LINE
  5
317F
330
1E
100
AcDbEntity
  8
7
100
AcDbLine
 10
0.7775590551181102
 20
3.876968503937008
 30
0.0
 11
0.7746062992125986
 21
3.873031496062992
 31
0.0
  0
LINE
  5
3180
330
1E
100
AcDbEntity
  8
7
100
AcDbLine
 10
0.7775590551181102
 20
3.876968503937008
 30
0.0
 11
0.7834645669291338
 21
3.881889763779527
 31
0.0
  0
LINE
  5
3181
330
1E
100
AcDbEntity
  8
7
100
AcDbLine
 10
0.7175196850393704
 20
3.876968503937008
 30
0.0
 11
0.7125984251968505
 21
3.881889763779527
 31
0.0
  0
LINE
  5
3182
330
1E
100
AcDbEntity
  8
7
100
AcDbLine
 10
0.7736220472440945
 20
3.853346456692913
 30
0.0
 11
0.7726377952755908
 21
3.812007874015748
 31
0.0
  0
LINE
  5
3192
330
1E
100
AcDbEntity
  8
7
100
AcDbLine
 10
-0.7716535433070863
 20
3.807086614173228
 30
0.0
 11
-0.77755905511811
 21
3.802165354330709
 31
0.0
  0
LINE
  5
3193
330
1E
100
AcDbEntity
  8
7
100
AcDbLine
 10
-0.7116141732283463
 20
3.807086614173228
 30
0.0
 11
-0.7066929133858264
 21
3.802165354330709
 31
0.0
  0
LINE
  5
3194
330
1E
100
AcDbEntity
  8
7
100
AcDbLine
 10
-0.5521653543307084
 20
3.807086614173228
 30
0.0
 11
-0.5570866141732283
 21
3.802165354330709
 31
0.0
  0
LINE
  5
3195
330
1E
100
AcDbEntity
  8
7
100
AcDbLine
 10
-0.4921259842519686
 20
3.807086614173228
 30
0.0
 11
-0.4862204724409449
 21
3.802165354330709
 31
0.0
  0
LINE
  5
3196
330
1E
100
AcDbEntity
  8
7
100
AcDbLine
 10
0.4980314960629922
 20
3.807086614173228
 30
0.0
 11
0.4921259842519686
 21
3.802165354330709
 31
0.0
  0
LINE
  5
3197
330
1E
100
AcDbEntity
  8
7
100
AcDbLine
 10
0.5580708661417324
 20
3.807086614173228
 30
0.0
 11
0.5629921259842523
 21
3.802165354330709
 31
0.0
  0
LINE
  5
3198
330
1E
100
AcDbEntity
  8
7
100
AcDbLine
 10
0.7175196850393704
 20
3.807086614173228
 30
0.0
 11
0.7125984251968505
 21
3.802165354330709
 31
0.0
  0
LINE
  5
3199
330
1E
100
AcDbEntity
  8
7
100
AcDbLine
 10
0.7775590551181102
 20
3.807086614173228
 30
0.0
 11
0.7834645669291338
 21
3.802165354330709
 31
0.0
  0
LINE
  5
31EE
330
1E
100
AcDbEntity
  8
7
100
AcDbLine
 10
-0.5590551181102362
 20
4.21259842519685
 30
0.0
 11
-0.5590551181102362
 21
4.215551181102362
 31
0.0
  0
LINE
  5
3237
330
1E
100
AcDbEntity
  8
7
100
AcDbLine
 10
2.384842519685039
 20
3.77755905511811
 30
0.0
 11
2.384842519685039
 21
5.39763779527559
 31
0.0
  0
LINE
  5
323E
330
1E
100
AcDbEntity
  8
7
100
AcDbLine
 10
2.785433070866142
 20
5.18011811023622
 30
0.0
 11
2.384842519685039
 21
5.187007874015748
 31
0.0
  0
LINE
  5
3247
330
1E
100
AcDbEntity
  8
7
100
AcDbLine
 10
2.785433070866142
 20
3.938976377952756
 30
0.0
 11
2.384842519685039
 21
3.932086614173228
 31
0.0
  0
LINE
  5
3248
330
1E
100
AcDbEntity
  8
7
100
AcDbLine
 10
2.415354330708661
 20
5.232283464566929
 30
0.0
 11
2.415354330708661
 21
5.264763779527559
 31
0.0
  0
LINE
  5
3252
330
1E
100
AcDbEntity
  8
7
100
AcDbLine
 10
2.384842519685039
 20
3.747047244094487
 30
0.0
 11
2.295275590551181
 21
3.751968503937008
 31
0.0
  0
LINE
  5
3253
330
1E
100
AcDbEntity
  8
7
100
AcDbLine
 10
2.295275590551181
 20
5.423228346456693
 30
0.0
 11
2.384842519685039
 21
5.427165354330709
 31
0.0
  0
LINE
  5
3254
330
1E
100
AcDbEntity
  8
7
100
AcDbLine
 10
2.384842519685039
 20
5.39763779527559
 30
0.0
 11
2.295275590551181
 21
5.392716535433071
 31
0.0
  0
LINE
  5
325A
330
1E
100
AcDbEntity
  8
7
100
AcDbLine
 10
2.783464566929133
 20
4.219488188976377
 30
0.0
 11
2.790354330708661
 21
4.219488188976377
 31
0.0
  0
LINE
  5
325B
330
1E
100
AcDbEntity
  8
7
100
AcDbLine
 10
3.038385826771653
 20
4.195866141732283
 30
0.0
 11
3.038385826771653
 21
4.176181102362204
 31
0.0
  0
LINE
  5
325C
330
1E
100
AcDbEntity
  8
7
100
AcDbLine
 10
3.024606299212598
 20
4.160433070866141
 30
0.0
 11
2.785433070866142
 21
4.143700787401574
 31
0.0
  0
LINE
  5
3268
330
1E
100
AcDbEntity
  8
7
100
AcDbLine
 10
2.852362204724409
 20
4.285433070866141
 30
0.0
 11
2.90255905511811
 21
4.23523622047244
 31
0.0
  0
LINE
  5
3269
330
1E
100
AcDbEntity
  8
7
100
AcDbLine
 10
2.939960629921259
 20
4.21751968503937
 30
0.0
 11
3.024606299212598
 21
4.210629921259842
 31
0.0
  0
LINE
  5
326A
330
1E
100
AcDbEntity
  8
7
100
AcDbLine
 10
2.792322834645668
 20
4.286417322834646
 30
0.0
 11
2.793307086614173
 21
4.283464566929134
 31
0.0
  0
LINE
  5
3284
330
1E
100
AcDbEntity
  8
7
100
AcDbLine
 10
2.571850393700787
 20
5.009842519685039
 30
0.0
 11
2.384842519685039
 21
5.013779527559055
 31
0.0
  0
LINE
  5
3285
330
1E
100
AcDbEntity
  8
7
100
AcDbLine
 10
2.785433070866142
 20
5.133858267716535
 30
0.0
 11
2.785433070866142
 21
5.18011811023622
 31
0.0
  0
LINE
  5
328B
330
1E
100
AcDbEntity
  8
7
100
AcDbLine
 10
2.571850393700787
 20
5.009842519685039
 30
0.0
 11
2.785433070866142
 21
4.21259842519685
 31
0.0
  0
LINE
  5
328C
330
1E
100
AcDbEntity
  8
7
100
AcDbLine
 10
2.785433070866142
 20
4.149606299212598
 30
0.0
 11
2.785433070866142
 21
4.21259842519685
 31
0.0
  0
LINE
  5
328D
330
1E
100
AcDbEntity
  8
7
100
AcDbLine
 10
2.785433070866142
 20
5.133858267716535
 30
0.0
 11
2.571850393700787
 21
5.009842519685039
 31
0.0
  0
LINE
  5
328E
330
1E
100
AcDbEntity
  8
7
100
AcDbLine
 10
2.641732283464567
 20
5.183070866141732
 30
0.0
 11
2.641732283464567
 21
5.191929133858267
 31
0.0
  0
LINE
  5
3294
330
1E
100
AcDbEntity
  8
7
100
AcDbLine
 10
2.384842519685039
 20
3.876968503937008
 30
0.0
 11
2.445866141732283
 21
3.873031496062992
 31
0.0
  0
LINE
  5
3295
330
1E
100
AcDbEntity
  8
7
100
AcDbLine
 10
2.47244094488189
 20
3.853346456692913
 30
0.0
 11
2.487204724409448
 21
3.812007874015748
 31
0.0
  0
LINE
  5
3592
330
1E
100
AcDbEntity
  8
7
100
AcDbLine
 10
2.281496062992126
 20
3.78248031496063
 30
0.0
 11
2.285433070866142
 21
3.78248031496063
 31
0.0
  0
LINE
  5
3593
330
1E
100
AcDbEntity
  8
7
100
AcDbLine
 10
2.285433070866142
 20
3.78248031496063
 30
0.0
 11
2.295275590551181
 21
3.78248031496063
 31
0.0
  0
LINE
  5
3594
330
1E
100
AcDbEntity
  8
7
100
AcDbLine
 10
2.295275590551181
 20
5.392716535433071
 30
0.0
 11
2.285433070866142
 21
5.392716535433071
 31
0.0
  0
LINE
  5
3595
330
1E
100
AcDbEntity
  8
7
100
AcDbLine
 10
2.285433070866142
 20
5.392716535433071
 30
0.0
 11
2.281496062992126
 21
5.392716535433071
 31
0.0
  0
LINE
  5
3596
330
1E
100
AcDbEntity
  8
7
100
AcDbLine
 10
2.281496062992126
 20
3.766732283464566
 30
0.0
 11
2.285433070866142
 21
3.756889763779527
 31
0.0
  0
LINE
  5
3597
330
1E
100
AcDbEntity
  8
7
100
AcDbLine
 10
2.285433070866142
 20
3.756889763779527
 30
0.0
 11
2.295275590551181
 21
3.751968503937008
 31
0.0
  0
LINE
  5
3598
330
1E
100
AcDbEntity
  8
7
100
AcDbLine
 10
2.295275590551181
 20
5.422244094488188
 30
0.0
 11
2.285433070866142
 21
5.417322834645669
 31
0.0
  0
LINE
  5
3599
330
1E
100
AcDbEntity
  8
7
100
AcDbLine
 10
2.285433070866142
 20
5.417322834645669
 30
0.0
 11
2.281496062992126
 21
5.407480314960629
 31
0.0
  0
LINE
  5
359A
330
1E
100
AcDbEntity
  8
7
100
AcDbLine
 10
2.384842519685039
 20
5.232283464566929
 30
0.0
 11
2.475393700787401
 21
5.231299212598425
 31
0.0
  0
LINE
  5
359B
330
1E
100
AcDbEntity
  8
7
100
AcDbLine
 10
2.475393700787401
 20
5.231299212598425
 30
0.0
 11
2.519685039370079
 21
5.18503937007874
 31
0.0
  0
LINE
  5
359C
330
1E
100
AcDbEntity
  8
7
100
AcDbLine
 10
2.295275590551181
 20
5.423228346456693
 30
0.0
 11
2.295275590551181
 21
5.418307086614173
 31
0.0
  0
LINE
  5
359D
330
1E
100
AcDbEntity
  8
7
100
AcDbLine
 10
2.295275590551181
 20
5.418307086614173
 30
0.0
 11
2.295275590551181
 21
5.407480314960629
 31
0.0
  0
LINE
  5
359E
330
1E
100
AcDbEntity
  8
7
100
AcDbLine
 10
2.295275590551181
 20
5.407480314960629
 30
0.0
 11
2.295275590551181
 21
5.392716535433071
 31
0.0
  0
LINE
  5
359F
330
1E
100
AcDbEntity
  8
7
100
AcDbLine
 10
2.295275590551181
 20
3.78248031496063
 30
0.0
 11
2.295275590551181
 21
3.766732283464566
 31
0.0
  0
LINE
  5
35A0
330
1E
100
AcDbEntity
  8
7
100
AcDbLine
 10
2.295275590551181
 20
3.766732283464566
 30
0.0
 11
2.295275590551181
 21
3.755905511811024
 31
0.0
  0
LINE
  5
35A1
330
1E
100
AcDbEntity
  8
7
100
AcDbLine
 10
2.295275590551181
 20
3.755905511811024
 30
0.0
 11
2.295275590551181
 21
3.751968503937008
 31
0.0
  0
LINE
  5
35A2
330
1E
100
AcDbEntity
  8
7
100
AcDbLine
 10
2.445866141732283
 20
3.873031496062992
 30
0.0
 11
2.461614173228346
 21
3.868110236220472
 31
0.0
  0
LINE
  5
35A3
330
1E
100
AcDbEntity
  8
7
100
AcDbLine
 10
2.461614173228346
 20
3.868110236220472
 30
0.0
 11
2.47244094488189
 21
3.853346456692913
 31
0.0
  0
LINE
  5
35A4
330
1E
100
AcDbEntity
  8
7
100
AcDbLine
 10
2.487204724409448
 20
3.812007874015748
 30
0.0
 11
2.537401574803149
 21
3.812007874015748
 31
0.0
  0
LINE
  5
35A5
330
1E
100
AcDbEntity
  8
7
100
AcDbLine
 10
2.537401574803149
 20
3.812007874015748
 30
0.0
 11
2.537401574803149
 21
3.93503937007874
 31
0.0
  0
LINE
  5
35A6
330
1E
100
AcDbEntity
  8
7
100
AcDbLine
 10
2.785433070866142
 20
3.938976377952756
 30
0.0
 11
2.785433070866142
 21
4.149606299212598
 31
0.0
  0
LINE
  5
35A7
330
1E
100
AcDbEntity
  8
7
100
AcDbLine
 10
2.785433070866142
 20
4.149606299212598
 30
0.0
 11
2.384842519685039
 21
4.142716535433071
 31
0.0
  0
LINE
  5
35A8
330
1E
100
AcDbEntity
  8
7
100
AcDbLine
 10
2.852362204724409
 20
4.285433070866141
 30
0.0
 11
2.835629921259842
 21
4.297244094488188
 31
0.0
  0
LINE
  5
35A9
330
1E
100
AcDbEntity
  8
7
100
AcDbLine
 10
2.835629921259842
 20
4.297244094488188
 30
0.0
 11
2.815944881889764
 21
4.303149606299212
 31
0.0
  0
LINE
  5
35AA
330
1E
100
AcDbEntity
  8
7
100
AcDbLine
 10
2.939960629921259
 20
4.21751968503937
 30
0.0
 11
2.920275590551181
 21
4.223425196850393
 31
0.0
  0
LINE
  5
35AB
330
1E
100
AcDbEntity
  8
7
100
AcDbLine
 10
2.920275590551181
 20
4.223425196850393
 30
0.0
 11
2.90255905511811
 21
4.23523622047244
 31
0.0
  0
LINE
  5
35AC
330
1E
100
AcDbEntity
  8
7
100
AcDbLine
 10
3.038385826771653
 20
4.195866141732283
 30
0.0
 11
3.034448818897637
 21
4.205708661417323
 31
0.0
  0
LINE
  5
35AD
330
1E
100
AcDbEntity
  8
7
100
AcDbLine
 10
3.034448818897637
 20
4.205708661417323
 30
0.0
 11
3.024606299212598
 21
4.210629921259842
 31
0.0
  0
LINE
  5
35AE
330
1E
100
AcDbEntity
  8
7
100
AcDbLine
 10
3.024606299212598
 20
4.160433070866141
 30
0.0
 11
3.034448818897637
 21
4.165354330708662
 31
0.0
  0
LINE
  5
35AF
330
1E
100
AcDbEntity
  8
7
100
AcDbLine
 10
3.034448818897637
 20
4.165354330708662
 30
0.0
 11
3.038385826771653
 21
4.176181102362204
 31
0.0
  0
LINE
  5
35B0
330
1E
100
AcDbEntity
  8
7
100
AcDbLine
 10
2.80511811023622
 20
4.234251968503937
 30
0.0
 11
2.801181102362205
 21
4.224409448818898
 31
0.0
  0
LINE
  5
35B1
330
1E
100
AcDbEntity
  8
7
100
AcDbLine
 10
2.801181102362205
 20
4.224409448818898
 30
0.0
 11
2.790354330708661
 21
4.219488188976377
 31
0.0
  0
LINE
  5
35B2
330
1E
100
AcDbEntity
  8
7
100
AcDbLine
 10
2.792322834645668
 20
4.286417322834646
 30
0.0
 11
2.792322834645668
 21
4.30511811023622
 31
0.0
  0
LINE
  5
35B3
330
1E
100
AcDbEntity
  8
7
100
AcDbLine
 10
2.792322834645668
 20
4.30511811023622
 30
0.0
 11
2.815944881889764
 21
4.303149606299212
 31
0.0
  0
LINE
  5
35B4
330
1E
100
AcDbEntity
  8
7
100
AcDbLine
 10
2.80511811023622
 20
4.234251968503937
 30
0.0
 11
2.80511811023622
 21
4.250984251968503
 31
0.0
  0
LINE
  5
35B5
330
1E
100
AcDbEntity
  8
7
100
AcDbLine
 10
2.80511811023622
 20
4.250984251968503
 30
0.0
 11
2.802165354330708
 21
4.268700787401574
 31
0.0
  0
LINE
  5
35B6
330
1E
100
AcDbEntity
  8
7
100
AcDbLine
 10
2.802165354330708
 20
4.268700787401574
 30
0.0
 11
2.793307086614173
 21
4.283464566929134
 31
0.0
  0
LINE
  5
35B7
330
1E
100
AcDbEntity
  8
7
100
AcDbLine
 10
2.295275590551181
 20
5.392716535433071
 30
0.0
 11
2.295275590551181
 21
3.78248031496063
 31
0.0
  0
LINE
  5
35B8
330
1E
100
AcDbEntity
  8
7
100
AcDbLine
 10
2.295275590551181
 20
3.78248031496063
 30
0.0
 11
2.384842519685039
 21
3.77755905511811
 31
0.0
  0
LINE
  5
35B9
330
1E
100
AcDbEntity
  8
7
100
AcDbLine
 10
2.415354330708661
 20
5.264763779527559
 30
0.0
 11
2.470472440944881
 21
5.267716535433071
 31
0.0
  0
LINE
  5
35BA
330
1E
100
AcDbEntity
  8
7
100
AcDbLine
 10
2.470472440944881
 20
5.267716535433071
 30
0.0
 11
2.470472440944881
 21
5.297244094488188
 31
0.0
  0
LINE
  5
35BB
330
1E
100
AcDbEntity
  8
7
100
AcDbLine
 10
2.470472440944881
 20
5.297244094488188
 30
0.0
 11
2.480314960629921
 21
5.297244094488188
 31
0.0
  0
LINE
  5
35BC
330
1E
100
AcDbEntity
  8
7
100
AcDbLine
 10
2.480314960629921
 20
5.297244094488188
 30
0.0
 11
2.641732283464567
 21
5.191929133858267
 31
0.0
  0
LINE
  5
35BD
330
1E
100
AcDbEntity
  8
7
100
AcDbLine
 10
2.641732283464567
 20
5.191929133858267
 30
0.0
 11
2.65255905511811
 21
5.18503937007874
 31
0.0
  0
LINE
  5
35BE
330
1E
100
AcDbEntity
  8
7
100
AcDbLine
 10
2.65255905511811
 20
5.18503937007874
 30
0.0
 11
2.656496062992126
 21
5.183070866141732
 31
0.0
  0
LINE
  5
35BF
330
1E
100
AcDbEntity
  8
7
100
AcDbLine
 10
2.281496062992126
 20
3.766732283464566
 30
0.0
 11
2.281496062992126
 21
3.771653543307087
 31
0.0
  0
LINE
  5
35C0
330
1E
100
AcDbEntity
  8
7
100
AcDbLine
 10
2.281496062992126
 20
3.771653543307087
 30
0.0
 11
2.281496062992126
 21
3.78248031496063
 31
0.0
  0
LINE
  5
35C1
330
1E
100
AcDbEntity
  8
7
100
AcDbLine
 10
2.281496062992126
 20
3.78248031496063
 30
0.0
 11
2.281496062992126
 21
5.392716535433071
 31
0.0
  0
LINE
  5
35C2
330
1E
100
AcDbEntity
  8
7
100
AcDbLine
 10
2.281496062992126
 20
5.392716535433071
 30
0.0
 11
2.281496062992126
 21
5.403543307086613
 31
0.0
  0
LINE
  5
35C3
330
1E
100
AcDbEntity
  8
7
100
AcDbLine
 10
2.281496062992126
 20
5.403543307086613
 30
0.0
 11
2.281496062992126
 21
5.407480314960629
 31
0.0
  0
LINE
  5
35C4
330
1E
100
AcDbEntity
  8
7
100
AcDbLine
 10
2.384842519685039
 20
3.77755905511811
 30
0.0
 11
2.384842519685039
 21
3.76279527559055
 31
0.0
  0
LINE
  5
35C5
330
1E
100
AcDbEntity
  8
7
100
AcDbLine
 10
2.384842519685039
 20
3.76279527559055
 30
0.0
 11
2.384842519685039
 21
3.751968503937008
 31
0.0
  0
LINE
  5
35C6
330
1E
100
AcDbEntity
  8
7
100
AcDbLine
 10
2.384842519685039
 20
3.751968503937008
 30
0.0
 11
2.384842519685039
 21
3.747047244094487
 31
0.0
  0
LINE
  5
35C7
330
1E
100
AcDbEntity
  8
7
100
AcDbLine
 10
2.384842519685039
 20
5.427165354330709
 30
0.0
 11
2.384842519685039
 21
5.423228346456693
 31
0.0
  0
LINE
  5
35C8
330
1E
100
AcDbEntity
  8
7
100
AcDbLine
 10
2.384842519685039
 20
5.423228346456693
 30
0.0
 11
2.384842519685039
 21
5.412401574803149
 31
0.0
  0
LINE
  5
35C9
330
1E
100
AcDbEntity
  8
7
100
AcDbLine
 10
2.384842519685039
 20
5.412401574803149
 30
0.0
 11
2.384842519685039
 21
5.39763779527559
 31
0.0
  0
LINE
  5
35CA
330
1E
100
AcDbEntity
  8
7
100
AcDbLine
 10
1.437992125984252
 20
3.78248031496063
 30
0.0
 11
1.448818897637795
 21
3.78248031496063
 31
0.0
  0
LINE
  5
35CB
330
1E
100
AcDbEntity
  8
7
100
AcDbLine
 10
1.448818897637795
 20
3.78248031496063
 30
0.0
 11
1.453740157480315
 21
3.78248031496063
 31
0.0
  0
LINE
  5
35CC
330
1E
100
AcDbEntity
  8
7
100
AcDbLine
 10
1.453740157480315
 20
5.392716535433071
 30
0.0
 11
1.448818897637795
 21
5.392716535433071
 31
0.0
  0
LINE
  5
35CD
330
1E
100
AcDbEntity
  8
7
100
AcDbLine
 10
1.448818897637795
 20
5.392716535433071
 30
0.0
 11
1.437992125984252
 21
5.392716535433071
 31
0.0
  0
LINE
  5
35CE
330
1E
100
AcDbEntity
  8
7
100
AcDbLine
 10
1.423228346456693
 20
3.766732283464566
 30
0.0
 11
1.423228346456693
 21
3.756889763779527
 31
0.0
  0
LINE
  5
35CF
330
1E
100
AcDbEntity
  8
7
100
AcDbLine
 10
1.423228346456693
 20
3.756889763779527
 30
0.0
 11
1.423228346456693
 21
3.751968503937008
 31
0.0
  0
LINE
  5
35D0
330
1E
100
AcDbEntity
  8
7
100
AcDbLine
 10
1.423228346456693
 20
5.423228346456693
 30
0.0
 11
1.423228346456693
 21
5.418307086614173
 31
0.0
  0
LINE
  5
35D1
330
1E
100
AcDbEntity
  8
7
100
AcDbLine
 10
1.423228346456693
 20
5.418307086614173
 30
0.0
 11
1.423228346456693
 21
5.407480314960629
 31
0.0
  0
LINE
  5
35D2
330
1E
100
AcDbEntity
  8
7
100
AcDbLine
 10
-1.417322834645669
 20
3.766732283464566
 30
0.0
 11
-1.417322834645669
 21
3.756889763779527
 31
0.0
  0
LINE
  5
35D3
330
1E
100
AcDbEntity
  8
7
100
AcDbLine
 10
-1.417322834645669
 20
3.756889763779527
 30
0.0
 11
-1.417322834645669
 21
3.751968503937008
 31
0.0
  0
LINE
  5
35D4
330
1E
100
AcDbEntity
  8
7
100
AcDbLine
 10
-1.417322834645669
 20
5.423228346456693
 30
0.0
 11
-1.417322834645669
 21
5.418307086614173
 31
0.0
  0
LINE
  5
35D5
330
1E
100
AcDbEntity
  8
7
100
AcDbLine
 10
-1.417322834645669
 20
5.418307086614173
 30
0.0
 11
-1.417322834645669
 21
5.407480314960629
 31
0.0
  0
LINE
  5
35D6
330
1E
100
AcDbEntity
  8
7
100
AcDbLine
 10
-1.446850393700787
 20
5.392716535433071
 30
0.0
 11
-1.442913385826771
 21
5.392716535433071
 31
0.0
  0
LINE
  5
35D7
330
1E
100
AcDbEntity
  8
7
100
AcDbLine
 10
-1.442913385826771
 20
5.392716535433071
 30
0.0
 11
-1.432086614173228
 21
5.392716535433071
 31
0.0
  0
LINE
  5
35D8
330
1E
100
AcDbEntity
  8
7
100
AcDbLine
 10
-1.432086614173228
 20
3.78248031496063
 30
0.0
 11
-1.442913385826771
 21
3.78248031496063
 31
0.0
  0
LINE
  5
35D9
330
1E
100
AcDbEntity
  8
7
100
AcDbLine
 10
-1.442913385826771
 20
3.78248031496063
 30
0.0
 11
-1.446850393700787
 21
3.78248031496063
 31
0.0
  0
LINE
  5
35DA
330
1E
100
AcDbEntity
  8
7
100
AcDbLine
 10
-1.253937007874015
 20
4.932086614173228
 30
0.0
 11
-1.259842519685039
 21
4.93011811023622
 31
0.0
  0
LINE
  5
35DB
330
1E
100
AcDbEntity
  8
7
100
AcDbLine
 10
-1.259842519685039
 20
4.93011811023622
 30
0.0
 11
-1.261811023622047
 21
4.924212598425197
 31
0.0
  0
LINE
  5
35DC
330
1E
100
AcDbEntity
  8
7
100
AcDbLine
 10
-1.261811023622047
 20
4.280511811023622
 30
0.0
 11
-1.259842519685039
 21
4.274606299212598
 31
0.0
  0
LINE
  5
35DD
330
1E
100
AcDbEntity
  8
7
100
AcDbLine
 10
-1.259842519685039
 20
4.274606299212598
 30
0.0
 11
-1.253937007874015
 21
4.27263779527559
 31
0.0
  0
LINE
  5
35DE
330
1E
100
AcDbEntity
  8
7
100
AcDbLine
 10
-1.186023622047243
 20
4.20767716535433
 30
0.0
 11
-1.187992125984251
 21
4.20767716535433
 31
0.0
  0
LINE
  5
35DF
330
1E
100
AcDbEntity
  8
7
100
AcDbLine
 10
-1.187992125984251
 20
4.20767716535433
 30
0.0
 11
-1.190944881889763
 21
4.208661417322835
 31
0.0
  0
LINE
  5
35E0
330
1E
100
AcDbEntity
  8
7
100
AcDbLine
 10
-1.190944881889763
 20
4.208661417322835
 30
0.0
 11
-1.192913385826771
 21
4.210629921259842
 31
0.0
  0
LINE
  5
35E1
330
1E
100
AcDbEntity
  8
7
100
AcDbLine
 10
-1.192913385826771
 20
4.210629921259842
 30
0.0
 11
-1.193897637795275
 21
4.21259842519685
 31
0.0
  0
LINE
  5
35E2
330
1E
100
AcDbEntity
  8
7
100
AcDbLine
 10
-1.193897637795275
 20
4.21259842519685
 30
0.0
 11
-1.194881889763779
 21
4.215551181102362
 31
0.0
  0
LINE
  5
35E3
330
1E
100
AcDbEntity
  8
7
100
AcDbLine
 10
-0.7125984251968501
 20
4.20767716535433
 30
0.0
 11
-0.7106299212598422
 21
4.20767716535433
 31
0.0
  0
LINE
  5
35E4
330
1E
100
AcDbEntity
  8
7
100
AcDbLine
 10
-0.7106299212598422
 20
4.20767716535433
 30
0.0
 11
-0.7086614173228343
 21
4.208661417322835
 31
0.0
  0
LINE
  5
35E5
330
1E
100
AcDbEntity
  8
7
100
AcDbLine
 10
-0.7086614173228343
 20
4.208661417322835
 30
0.0
 11
-0.7066929133858264
 21
4.210629921259842
 31
0.0
  0
LINE
  5
35E6
330
1E
100
AcDbEntity
  8
7
100
AcDbLine
 10
-0.7066929133858264
 20
4.210629921259842
 30
0.0
 11
-0.7047244094488186
 21
4.21259842519685
 31
0.0
  0
LINE
  5
35E7
330
1E
100
AcDbEntity
  8
7
100
AcDbLine
 10
-0.7047244094488186
 20
4.21259842519685
 30
0.0
 11
-0.7047244094488186
 21
4.215551181102362
 31
0.0
  0
LINE
  5
35E8
330
1E
100
AcDbEntity
  8
7
100
AcDbLine
 10
-0.5511811023622047
 20
4.20767716535433
 30
0.0
 11
-0.5531496062992125
 21
4.20767716535433
 31
0.0
  0
LINE
  5
35E9
330
1E
100
AcDbEntity
  8
7
100
AcDbLine
 10
-0.5531496062992125
 20
4.20767716535433
 30
0.0
 11
-0.5561023622047241
 21
4.208661417322835
 31
0.0
  0
LINE
  5
35EA
330
1E
100
AcDbEntity
  8
7
100
AcDbLine
 10
-0.5561023622047241
 20
4.208661417322835
 30
0.0
 11
-0.558070866141732
 21
4.210629921259842
 31
0.0
  0
LINE
  5
35EB
330
1E
100
AcDbEntity
  8
7
100
AcDbLine
 10
-0.558070866141732
 20
4.210629921259842
 30
0.0
 11
-0.5590551181102362
 21
4.21259842519685
 31
0.0
  0
LINE
  5
35EC
330
1E
100
AcDbEntity
  8
7
100
AcDbLine
 10
-0.0777559055118107
 20
4.20767716535433
 30
0.0
 11
-0.0757874015748028
 21
4.20767716535433
 31
0.0
  0
LINE
  5
35ED
330
1E
100
AcDbEntity
  8
7
100
AcDbLine
 10
-0.0757874015748028
 20
4.20767716535433
 30
0.0
 11
-0.0728346456692912
 21
4.208661417322835
 31
0.0
  0
LINE
  5
35EE
330
1E
100
AcDbEntity
  8
7
100
AcDbLine
 10
-0.0728346456692912
 20
4.208661417322835
 30
0.0
 11
-0.0708661417322834
 21
4.210629921259842
 31
0.0
  0
LINE
  5
35EF
330
1E
100
AcDbEntity
  8
7
100
AcDbLine
 10
-0.0708661417322834
 20
4.210629921259842
 30
0.0
 11
-0.0698818897637792
 21
4.21259842519685
 31
0.0
  0
LINE
  5
35F0
330
1E
100
AcDbEntity
  8
7
100
AcDbLine
 10
-0.0698818897637792
 20
4.21259842519685
 30
0.0
 11
-0.0698818897637792
 21
4.215551181102362
 31
0.0
  0
LINE
  5
35F1
330
1E
100
AcDbEntity
  8
7
100
AcDbLine
 10
0.0836614173228347
 20
4.20767716535433
 30
0.0
 11
0.0816929133858269
 21
4.20767716535433
 31
0.0
  0
LINE
  5
35F2
330
1E
100
AcDbEntity
  8
7
100
AcDbLine
 10
0.0816929133858269
 20
4.20767716535433
 30
0.0
 11
0.0787401574803153
 21
4.208661417322835
 31
0.0
  0
LINE
  5
35F3
330
1E
100
AcDbEntity
  8
7
100
AcDbLine
 10
0.0787401574803153
 20
4.208661417322835
 30
0.0
 11
0.0767716535433074
 21
4.210629921259842
 31
0.0
  0
LINE
  5
35F4
330
1E
100
AcDbEntity
  8
7
100
AcDbLine
 10
0.0767716535433074
 20
4.210629921259842
 30
0.0
 11
0.0757874015748032
 21
4.21259842519685
 31
0.0
  0
LINE
  5
35F5
330
1E
100
AcDbEntity
  8
7
100
AcDbLine
 10
0.0757874015748032
 20
4.21259842519685
 30
0.0
 11
0.0757874015748032
 21
4.215551181102362
 31
0.0
  0
LINE
  5
35F6
330
1E
100
AcDbEntity
  8
7
100
AcDbLine
 10
0.5659448818897639
 20
4.215551181102362
 30
0.0
 11
0.5649606299212602
 21
4.213582677165354
 31
0.0
  0
LINE
  5
35F7
330
1E
100
AcDbEntity
  8
7
100
AcDbLine
 10
0.5649606299212602
 20
4.213582677165354
 30
0.0
 11
0.5639763779527561
 21
4.211614173228346
 31
0.0
  0
LINE
  5
35F8
330
1E
100
AcDbEntity
  8
7
100
AcDbLine
 10
0.5639763779527561
 20
4.211614173228346
 30
0.0
 11
0.5629921259842523
 21
4.209645669291338
 31
0.0
  0
LINE
  5
35F9
330
1E
100
AcDbEntity
  8
7
100
AcDbLine
 10
0.5629921259842523
 20
4.209645669291338
 30
0.0
 11
0.5600393700787403
 21
4.20767716535433
 31
0.0
  0
LINE
  5
35FA
330
1E
100
AcDbEntity
  8
7
100
AcDbLine
 10
0.5600393700787403
 20
4.20767716535433
 30
0.0
 11
0.5570866141732287
 21
4.20767716535433
 31
0.0
  0
LINE
  5
35FB
330
1E
100
AcDbEntity
  8
7
100
AcDbLine
 10
0.7185039370078741
 20
4.20767716535433
 30
0.0
 11
0.7165354330708662
 21
4.20767716535433
 31
0.0
  0
LINE
  5
35FC
330
1E
100
AcDbEntity
  8
7
100
AcDbLine
 10
0.7165354330708662
 20
4.20767716535433
 30
0.0
 11
0.7145669291338584
 21
4.208661417322835
 31
0.0
  0
LINE
  5
35FD
330
1E
100
AcDbEntity
  8
7
100
AcDbLine
 10
0.7145669291338584
 20
4.208661417322835
 30
0.0
 11
0.7125984251968505
 21
4.210629921259842
 31
0.0
  0
LINE
  5
35FE
330
1E
100
AcDbEntity
  8
7
100
AcDbLine
 10
0.7125984251968505
 20
4.210629921259842
 30
0.0
 11
0.7106299212598426
 21
4.21259842519685
 31
0.0
  0
LINE
  5
35FF
330
1E
100
AcDbEntity
  8
7
100
AcDbLine
 10
0.7106299212598426
 20
4.21259842519685
 30
0.0
 11
0.7106299212598426
 21
4.215551181102362
 31
0.0
  0
LINE
  5
3600
330
1E
100
AcDbEntity
  8
7
100
AcDbLine
 10
1.198818897637795
 20
4.211614173228346
 30
0.0
 11
1.197834645669291
 21
4.209645669291338
 31
0.0
  0
LINE
  5
3601
330
1E
100
AcDbEntity
  8
7
100
AcDbLine
 10
1.197834645669291
 20
4.209645669291338
 30
0.0
 11
1.194881889763779
 21
4.20767716535433
 31
0.0
  0
LINE
  5
3602
330
1E
100
AcDbEntity
  8
7
100
AcDbLine
 10
1.194881889763779
 20
4.20767716535433
 30
0.0
 11
1.192913385826771
 21
4.20767716535433
 31
0.0
  0
LINE
  5
3603
330
1E
100
AcDbEntity
  8
7
100
AcDbLine
 10
1.200787401574803
 20
4.215551181102362
 30
0.0
 11
1.200787401574803
 21
4.213582677165354
 31
0.0
  0
LINE
  5
3604
330
1E
100
AcDbEntity
  8
7
100
AcDbLine
 10
1.200787401574803
 20
4.213582677165354
 30
0.0
 11
1.198818897637795
 21
4.211614173228346
 31
0.0
  0
LINE
  5
3605
330
1E
100
AcDbEntity
  8
7
100
AcDbLine
 10
1.259842519685039
 20
4.27263779527559
 30
0.0
 11
1.265748031496062
 21
4.274606299212598
 31
0.0
  0
LINE
  5
3606
330
1E
100
AcDbEntity
  8
7
100
AcDbLine
 10
1.265748031496062
 20
4.274606299212598
 30
0.0
 11
1.26771653543307
 21
4.280511811023622
 31
0.0
  0
LINE
  5
3607
330
1E
100
AcDbEntity
  8
7
100
AcDbLine
 10
1.26771653543307
 20
4.924212598425197
 30
0.0
 11
1.265748031496062
 21
4.93011811023622
 31
0.0
  0
LINE
  5
3608
330
1E
100
AcDbEntity
  8
7
100
AcDbLine
 10
1.265748031496062
 20
4.93011811023622
 30
0.0
 11
1.259842519685039
 21
4.932086614173228
 31
0.0
  0
LINE
  5
3609
330
1E
100
AcDbEntity
  8
7
100
AcDbLine
 10
-1.417322834645669
 20
3.751968503937008
 30
0.0
 11
-1.432086614173228
 21
3.755905511811024
 31
0.0
  0
LINE
  5
360A
330
1E
100
AcDbEntity
  8
7
100
AcDbLine
 10
-1.432086614173228
 20
3.755905511811024
 30
0.0
 11
-1.442913385826771
 21
3.766732283464566
 31
0.0
  0
LINE
  5
360B
330
1E
100
AcDbEntity
  8
7
100
AcDbLine
 10
-1.442913385826771
 20
3.766732283464566
 30
0.0
 11
-1.446850393700787
 21
3.78248031496063
 31
0.0
  0
LINE
  5
360C
330
1E
100
AcDbEntity
  8
7
100
AcDbLine
 10
-1.446850393700787
 20
5.392716535433071
 30
0.0
 11
-1.442913385826771
 21
5.407480314960629
 31
0.0
  0
LINE
  5
360D
330
1E
100
AcDbEntity
  8
7
100
AcDbLine
 10
-1.442913385826771
 20
5.407480314960629
 30
0.0
 11
-1.432086614173228
 21
5.418307086614173
 31
0.0
  0
LINE
  5
360E
330
1E
100
AcDbEntity
  8
7
100
AcDbLine
 10
-1.432086614173228
 20
5.418307086614173
 30
0.0
 11
-1.417322834645669
 21
5.423228346456693
 31
0.0
  0
LINE
  5
360F
330
1E
100
AcDbEntity
  8
7
100
AcDbLine
 10
1.423228346456693
 20
5.423228346456693
 30
0.0
 11
1.437992125984252
 21
5.418307086614173
 31
0.0
  0
LINE
  5
3610
330
1E
100
AcDbEntity
  8
7
100
AcDbLine
 10
1.437992125984252
 20
5.418307086614173
 30
0.0
 11
1.448818897637795
 21
5.407480314960629
 31
0.0
  0
LINE
  5
3611
330
1E
100
AcDbEntity
  8
7
100
AcDbLine
 10
1.448818897637795
 20
5.407480314960629
 30
0.0
 11
1.453740157480315
 21
5.392716535433071
 31
0.0
  0
LINE
  5
3612
330
1E
100
AcDbEntity
  8
7
100
AcDbLine
 10
1.453740157480315
 20
3.78248031496063
 30
0.0
 11
1.448818897637795
 21
3.766732283464566
 31
0.0
  0
LINE
  5
3613
330
1E
100
AcDbEntity
  8
7
100
AcDbLine
 10
1.448818897637795
 20
3.766732283464566
 30
0.0
 11
1.437992125984252
 21
3.755905511811024
 31
0.0
  0
LINE
  5
3614
330
1E
100
AcDbEntity
  8
7
100
AcDbLine
 10
1.437992125984252
 20
3.755905511811024
 30
0.0
 11
1.423228346456693
 21
3.751968503937008
 31
0.0
  0
LINE
  5
3615
330
1E
100
AcDbEntity
  8
7
100
AcDbLine
 10
0.7224409448818899
 20
3.853346456692913
 30
0.0
 11
0.7224409448818899
 21
3.868110236220472
 31
0.0
  0
LINE
  5
3616
330
1E
100
AcDbEntity
  8
7
100
AcDbLine
 10
0.7224409448818899
 20
3.868110236220472
 30
0.0
 11
0.7214566929133861
 21
3.873031496062992
 31
0.0
  0
LINE
  5
3617
330
1E
100
AcDbEntity
  8
7
100
AcDbLine
 10
0.7746062992125986
 20
3.873031496062992
 30
0.0
 11
0.7736220472440945
 21
3.868110236220472
 31
0.0
  0
LINE
  5
3618
330
1E
100
AcDbEntity
  8
7
100
AcDbLine
 10
0.7736220472440945
 20
3.868110236220472
 30
0.0
 11
0.7736220472440945
 21
3.853346456692913
 31
0.0
  0
LINE
  5
3619
330
1E
100
AcDbEntity
  8
7
100
AcDbLine
 10
0.7736220472440945
 20
3.853346456692913
 30
0.0
 11
0.7224409448818899
 21
3.853346456692913
 31
0.0
  0
LINE
  5
361A
330
1E
100
AcDbEntity
  8
7
100
AcDbLine
 10
0.7224409448818899
 20
3.853346456692913
 30
0.0
 11
0.723425196850394
 21
3.812007874015748
 31
0.0
  0
LINE
  5
361B
330
1E
100
AcDbEntity
  8
7
100
AcDbLine
 10
0.7175196850393704
 20
3.876968503937008
 30
0.0
 11
0.7214566929133861
 21
3.873031496062992
 31
0.0
  0
LINE
  5
361C
330
1E
100
AcDbEntity
  8
7
100
AcDbLine
 10
0.7214566929133861
 20
3.873031496062992
 30
0.0
 11
0.7746062992125986
 21
3.873031496062992
 31
0.0
  0
LINE
  5
361D
330
1E
100
AcDbEntity
  8
7
100
AcDbLine
 10
-0.5472440944881889
 20
3.853346456692913
 30
0.0
 11
-0.5482283464566926
 21
3.868110236220472
 31
0.0
  0
LINE
  5
361E
330
1E
100
AcDbEntity
  8
7
100
AcDbLine
 10
-0.5482283464566926
 20
3.868110236220472
 30
0.0
 11
-0.5492125984251968
 21
3.873031496062992
 31
0.0
  0
LINE
  5
361F
330
1E
100
AcDbEntity
  8
7
100
AcDbLine
 10
-0.4950787401574801
 20
3.873031496062992
 30
0.0
 11
-0.4960629921259843
 21
3.868110236220472
 31
0.0
  0
LINE
  5
3620
330
1E
100
AcDbEntity
  8
7
100
AcDbLine
 10
-0.4960629921259843
 20
3.868110236220472
 30
0.0
 11
-0.4960629921259843
 21
3.853346456692913
 31
0.0
  0
LINE
  5
3621
330
1E
100
AcDbEntity
  8
7
100
AcDbLine
 10
-0.4960629921259843
 20
3.853346456692913
 30
0.0
 11
-0.5472440944881889
 21
3.853346456692913
 31
0.0
  0
LINE
  5
3622
330
1E
100
AcDbEntity
  8
7
100
AcDbLine
 10
-0.5472440944881889
 20
3.853346456692913
 30
0.0
 11
-0.5462598425196848
 21
3.812007874015748
 31
0.0
  0
LINE
  5
3623
330
1E
100
AcDbEntity
  8
7
100
AcDbLine
 10
-0.5521653543307084
 20
3.876968503937008
 30
0.0
 11
-0.5492125984251968
 21
3.873031496062992
 31
0.0
  0
LINE
  5
3624
330
1E
100
AcDbEntity
  8
7
100
AcDbLine
 10
-0.5492125984251968
 20
3.873031496062992
 30
0.0
 11
-0.4950787401574801
 21
3.873031496062992
 31
0.0
  0
LINE
  5
3625
330
1E
100
AcDbEntity
  8
7
100
AcDbLine
 10
0.5551181102362209
 20
3.873031496062992
 30
0.0
 11
0.5541338582677167
 21
3.868110236220472
 31
0.0
  0
LINE
  5
3626
330
1E
100
AcDbEntity
  8
7
100
AcDbLine
 10
0.5541338582677167
 20
3.868110236220472
 30
0.0
 11
0.553149606299213
 21
3.853346456692913
 31
0.0
  0
LINE
  5
3627
330
1E
100
AcDbEntity
  8
7
100
AcDbLine
 10
0.5029527559055121
 20
3.853346456692913
 30
0.0
 11
0.5019685039370079
 21
3.868110236220472
 31
0.0
  0
LINE
  5
3628
330
1E
100
AcDbEntity
  8
7
100
AcDbLine
 10
0.5019685039370079
 20
3.868110236220472
 30
0.0
 11
0.5009842519685042
 21
3.873031496062992
 31
0.0
  0
LINE
  5
3629
330
1E
100
AcDbEntity
  8
7
100
AcDbLine
 10
0.553149606299213
 20
3.853346456692913
 30
0.0
 11
0.5029527559055121
 21
3.853346456692913
 31
0.0
  0
LINE
  5
362A
330
1E
100
AcDbEntity
  8
7
100
AcDbLine
 10
0.5029527559055121
 20
3.853346456692913
 30
0.0
 11
0.5029527559055121
 21
3.812007874015748
 31
0.0
  0
LINE
  5
362B
330
1E
100
AcDbEntity
  8
7
100
AcDbLine
 10
0.5029527559055121
 20
3.812007874015748
 30
0.0
 11
0.553149606299213
 21
3.812007874015748
 31
0.0
  0
LINE
  5
362C
330
1E
100
AcDbEntity
  8
7
100
AcDbLine
 10
0.4980314960629922
 20
3.876968503937008
 30
0.0
 11
0.5009842519685042
 21
3.873031496062992
 31
0.0
  0
LINE
  5
362D
330
1E
100
AcDbEntity
  8
7
100
AcDbLine
 10
0.5009842519685042
 20
3.873031496062992
 30
0.0
 11
0.5551181102362209
 21
3.873031496062992
 31
0.0
  0
LINE
  5
362E
330
1E
100
AcDbEntity
  8
7
100
AcDbLine
 10
-0.7155511811023621
 20
3.873031496062992
 30
0.0
 11
-0.7155511811023621
 21
3.868110236220472
 31
0.0
  0
LINE
  5
362F
330
1E
100
AcDbEntity
  8
7
100
AcDbLine
 10
-0.7155511811023621
 20
3.868110236220472
 30
0.0
 11
-0.7165354330708658
 21
3.853346456692913
 31
0.0
  0
LINE
  5
3630
330
1E
100
AcDbEntity
  8
7
100
AcDbLine
 10
-0.7677165354330706
 20
3.853346456692913
 30
0.0
 11
-0.7677165354330706
 21
3.868110236220472
 31
0.0
  0
LINE
  5
3631
330
1E
100
AcDbEntity
  8
7
100
AcDbLine
 10
-0.7677165354330706
 20
3.868110236220472
 30
0.0
 11
-0.7687007874015746
 21
3.873031496062992
 31
0.0
  0
LINE
  5
3632
330
1E
100
AcDbEntity
  8
7
100
AcDbLine
 10
-0.7165354330708658
 20
3.853346456692913
 30
0.0
 11
-0.7677165354330706
 21
3.853346456692913
 31
0.0
  0
LINE
  5
3633
330
1E
100
AcDbEntity
  8
7
100
AcDbLine
 10
-0.7677165354330706
 20
3.853346456692913
 30
0.0
 11
-0.7667322834645667
 21
3.812007874015748
 31
0.0
  0
LINE
  5
3634
330
1E
100
AcDbEntity
  8
7
100
AcDbLine
 10
-0.7667322834645667
 20
3.812007874015748
 30
0.0
 11
-0.71751968503937
 21
3.812007874015748
 31
0.0
  0
LINE
  5
3635
330
1E
100
AcDbEntity
  8
7
100
AcDbLine
 10
-0.7716535433070863
 20
3.876968503937008
 30
0.0
 11
-0.7687007874015746
 21
3.873031496062992
 31
0.0
  0
LINE
  5
3636
330
1E
100
AcDbEntity
  8
7
100
AcDbLine
 10
-0.7687007874015746
 20
3.873031496062992
 30
0.0
 11
-0.7155511811023621
 21
3.873031496062992
 31
0.0
  0
LINE
  5
3637
330
1E
100
AcDbEntity
  8
7
100
AcDbLine
 10
0.4616141732283468
 20
5.183070866141732
 30
0.0
 11
0.4714566929133861
 21
5.18503937007874
 31
0.0
  0
LINE
  5
3638
330
1E
100
AcDbEntity
  8
7
100
AcDbLine
 10
0.4714566929133861
 20
5.18503937007874
 30
0.0
 11
0.4763779527559056
 21
5.191929133858267
 31
0.0
  0
LINE
  5
3639
330
1E
100
AcDbEntity
  8
7
100
AcDbLine
 10
-0.8090551181102361
 20
5.183070866141732
 30
0.0
 11
-0.7982283464566928
 21
5.18503937007874
 31
0.0
  0
LINE
  5
363A
330
1E
100
AcDbEntity
  8
7
100
AcDbLine
 10
-0.7982283464566928
 20
5.18503937007874
 30
0.0
 11
-0.7942913385826771
 21
5.191929133858267
 31
0.0
  0
LINE
  5
363B
330
1E
100
AcDbEntity
  8
7
100
AcDbLine
 10
0.8543307086614175
 20
4.219488188976377
 30
0.0
 11
0.8553149606299212
 21
4.224409448818898
 31
0.0
  0
LINE
  5
363C
330
1E
100
AcDbEntity
  8
7
100
AcDbLine
 10
0.8553149606299212
 20
4.224409448818898
 30
0.0
 11
0.8553149606299212
 21
4.234251968503937
 31
0.0
  0
LINE
  5
363D
330
1E
100
AcDbEntity
  8
7
100
AcDbLine
 10
1.056102362204724
 20
4.234251968503937
 30
0.0
 11
1.056102362204724
 21
4.224409448818898
 31
0.0
  0
LINE
  5
363E
330
1E
100
AcDbEntity
  8
7
100
AcDbLine
 10
1.056102362204724
 20
4.224409448818898
 30
0.0
 11
1.056102362204724
 21
4.219488188976377
 31
0.0
  0
LINE
  5
363F
330
1E
100
AcDbEntity
  8
7
100
AcDbLine
 10
0.8543307086614175
 20
4.286417322834646
 30
0.0
 11
1.056102362204724
 21
4.286417322834646
 31
0.0
  0
LINE
  5
3640
330
1E
100
AcDbEntity
  8
7
100
AcDbLine
 10
1.056102362204724
 20
4.286417322834646
 30
0.0
 11
1.056102362204724
 21
4.30511811023622
 31
0.0
  0
LINE
  5
3641
330
1E
100
AcDbEntity
  8
7
100
AcDbLine
 10
1.056102362204724
 20
4.30511811023622
 30
0.0
 11
0.8543307086614175
 21
4.30511811023622
 31
0.0
  0
LINE
  5
3642
330
1E
100
AcDbEntity
  8
7
100
AcDbLine
 10
1.056102362204724
 20
4.250984251968503
 30
0.0
 11
1.056102362204724
 21
4.268700787401574
 31
0.0
  0
LINE
  5
3643
330
1E
100
AcDbEntity
  8
7
100
AcDbLine
 10
1.056102362204724
 20
4.268700787401574
 30
0.0
 11
1.056102362204724
 21
4.283464566929134
 31
0.0
  0
LINE
  5
3644
330
1E
100
AcDbEntity
  8
7
100
AcDbLine
 10
1.056102362204724
 20
4.283464566929134
 30
0.0
 11
0.8543307086614175
 21
4.283464566929134
 31
0.0
  0
LINE
  5
3645
330
1E
100
AcDbEntity
  8
7
100
AcDbLine
 10
0.8553149606299212
 20
4.234251968503937
 30
0.0
 11
1.056102362204724
 21
4.234251968503937
 31
0.0
  0
LINE
  5
3646
330
1E
100
AcDbEntity
  8
7
100
AcDbLine
 10
1.056102362204724
 20
4.234251968503937
 30
0.0
 11
1.056102362204724
 21
4.250984251968503
 31
0.0
  0
LINE
  5
3647
330
1E
100
AcDbEntity
  8
7
100
AcDbLine
 10
1.056102362204724
 20
4.250984251968503
 30
0.0
 11
0.8553149606299212
 21
4.250984251968503
 31
0.0
  0
LINE
  5
3648
330
1E
100
AcDbEntity
  8
7
100
AcDbLine
 10
0.2194881889763782
 20
4.219488188976377
 30
0.0
 11
0.2204724409448819
 21
4.224409448818898
 31
0.0
  0
LINE
  5
3649
330
1E
100
AcDbEntity
  8
7
100
AcDbLine
 10
0.2204724409448819
 20
4.224409448818898
 30
0.0
 11
0.2204724409448819
 21
4.234251968503937
 31
0.0
  0
LINE
  5
364A
330
1E
100
AcDbEntity
  8
7
100
AcDbLine
 10
0.4202755905511815
 20
4.234251968503937
 30
0.0
 11
0.4212598425196852
 21
4.224409448818898
 31
0.0
  0
LINE
  5
364B
330
1E
100
AcDbEntity
  8
7
100
AcDbLine
 10
0.4212598425196852
 20
4.224409448818898
 30
0.0
 11
0.4212598425196852
 21
4.219488188976377
 31
0.0
  0
LINE
  5
364C
330
1E
100
AcDbEntity
  8
7
100
AcDbLine
 10
0.2194881889763782
 20
4.286417322834646
 30
0.0
 11
0.4212598425196852
 21
4.286417322834646
 31
0.0
  0
LINE
  5
364D
330
1E
100
AcDbEntity
  8
7
100
AcDbLine
 10
0.4212598425196852
 20
4.286417322834646
 30
0.0
 11
0.4212598425196852
 21
4.30511811023622
 31
0.0
  0
LINE
  5
364E
330
1E
100
AcDbEntity
  8
7
100
AcDbLine
 10
0.4212598425196852
 20
4.30511811023622
 30
0.0
 11
0.2194881889763782
 21
4.30511811023622
 31
0.0
  0
LINE
  5
364F
330
1E
100
AcDbEntity
  8
7
100
AcDbLine
 10
0.2204724409448819
 20
4.250984251968503
 30
0.0
 11
0.2204724409448819
 21
4.268700787401574
 31
0.0
  0
LINE
  5
3650
330
1E
100
AcDbEntity
  8
7
100
AcDbLine
 10
0.2204724409448819
 20
4.268700787401574
 30
0.0
 11
0.2194881889763782
 21
4.283464566929134
 31
0.0
  0
LINE
  5
3651
330
1E
100
AcDbEntity
  8
7
100
AcDbLine
 10
0.4202755905511815
 20
4.250984251968503
 30
0.0
 11
0.4212598425196852
 21
4.268700787401574
 31
0.0
  0
LINE
  5
3652
330
1E
100
AcDbEntity
  8
7
100
AcDbLine
 10
0.4212598425196852
 20
4.268700787401574
 30
0.0
 11
0.4212598425196852
 21
4.283464566929134
 31
0.0
  0
LINE
  5
3653
330
1E
100
AcDbEntity
  8
7
100
AcDbLine
 10
0.4212598425196852
 20
4.283464566929134
 30
0.0
 11
0.2194881889763782
 21
4.283464566929134
 31
0.0
  0
LINE
  5
3654
330
1E
100
AcDbEntity
  8
7
100
AcDbLine
 10
0.2204724409448819
 20
4.234251968503937
 30
0.0
 11
0.4202755905511815
 21
4.234251968503937
 31
0.0
  0
LINE
  5
3655
330
1E
100
AcDbEntity
  8
7
100
AcDbLine
 10
0.4202755905511815
 20
4.234251968503937
 30
0.0
 11
0.4202755905511815
 21
4.250984251968503
 31
0.0
  0
LINE
  5
3656
330
1E
100
AcDbEntity
  8
7
100
AcDbLine
 10
0.4202755905511815
 20
4.250984251968503
 30
0.0
 11
0.2204724409448819
 21
4.250984251968503
 31
0.0
  0
LINE
  5
3657
330
1E
100
AcDbEntity
  8
7
100
AcDbLine
 10
-0.4153543307086612
 20
4.219488188976377
 30
0.0
 11
-0.4153543307086612
 21
4.224409448818898
 31
0.0
  0
LINE
  5
3658
330
1E
100
AcDbEntity
  8
7
100
AcDbLine
 10
-0.4153543307086612
 20
4.224409448818898
 30
0.0
 11
-0.4143700787401574
 21
4.234251968503937
 31
0.0
  0
LINE
  5
3659
330
1E
100
AcDbEntity
  8
7
100
AcDbLine
 10
-0.2145669291338583
 20
4.234251968503937
 30
0.0
 11
-0.2135826771653542
 21
4.224409448818898
 31
0.0
  0
LINE
  5
365A
330
1E
100
AcDbEntity
  8
7
100
AcDbLine
 10
-0.2135826771653542
 20
4.224409448818898
 30
0.0
 11
-0.2135826771653542
 21
4.219488188976377
 31
0.0
  0
LINE
  5
365B
330
1E
100
AcDbEntity
  8
7
100
AcDbLine
 10
-0.4153543307086612
 20
4.286417322834646
 30
0.0
 11
-0.2135826771653542
 21
4.286417322834646
 31
0.0
  0
LINE
  5
365C
330
1E
100
AcDbEntity
  8
7
100
AcDbLine
 10
-0.2135826771653542
 20
4.286417322834646
 30
0.0
 11
-0.2135826771653542
 21
4.30511811023622
 31
0.0
  0
LINE
  5
365D
330
1E
100
AcDbEntity
  8
7
100
AcDbLine
 10
-0.2135826771653542
 20
4.30511811023622
 30
0.0
 11
-0.4153543307086612
 21
4.30511811023622
 31
0.0
  0
LINE
  5
365E
330
1E
100
AcDbEntity
  8
7
100
AcDbLine
 10
-0.4143700787401574
 20
4.250984251968503
 30
0.0
 11
-0.4153543307086612
 21
4.268700787401574
 31
0.0
  0
LINE
  5
365F
330
1E
100
AcDbEntity
  8
7
100
AcDbLine
 10
-0.4153543307086612
 20
4.268700787401574
 30
0.0
 11
-0.4153543307086612
 21
4.283464566929134
 31
0.0
  0
LINE
  5
3660
330
1E
100
AcDbEntity
  8
7
100
AcDbLine
 10
-0.2145669291338583
 20
4.250984251968503
 30
0.0
 11
-0.2145669291338583
 21
4.268700787401574
 31
0.0
  0
LINE
  5
3661
330
1E
100
AcDbEntity
  8
7
100
AcDbLine
 10
-0.2145669291338583
 20
4.268700787401574
 30
0.0
 11
-0.2135826771653542
 21
4.283464566929134
 31
0.0
  0
LINE
  5
3662
330
1E
100
AcDbEntity
  8
7
100
AcDbLine
 10
-0.2135826771653542
 20
4.283464566929134
 30
0.0
 11
-0.4153543307086612
 21
4.283464566929134
 31
0.0
  0
LINE
  5
3663
330
1E
100
AcDbEntity
  8
7
100
AcDbLine
 10
-0.4143700787401574
 20
4.234251968503937
 30
0.0
 11
-0.2145669291338583
 21
4.234251968503937
 31
0.0
  0
LINE
  5
3664
330
1E
100
AcDbEntity
  8
7
100
AcDbLine
 10
-0.2145669291338583
 20
4.234251968503937
 30
0.0
 11
-0.2145669291338583
 21
4.250984251968503
 31
0.0
  0
LINE
  5
3665
330
1E
100
AcDbEntity
  8
7
100
AcDbLine
 10
-0.2145669291338583
 20
4.250984251968503
 30
0.0
 11
-0.4143700787401574
 21
4.250984251968503
 31
0.0
  0
LINE
  5
3666
330
1E
100
AcDbEntity
  8
7
100
AcDbLine
 10
-1.0501968503937
 20
4.219488188976377
 30
0.0
 11
-1.0501968503937
 21
4.224409448818898
 31
0.0
  0
LINE
  5
3667
330
1E
100
AcDbEntity
  8
7
100
AcDbLine
 10
-1.0501968503937
 20
4.224409448818898
 30
0.0
 11
-1.0501968503937
 21
4.234251968503937
 31
0.0
  0
LINE
  5
3668
330
1E
100
AcDbEntity
  8
7
100
AcDbLine
 10
-0.8494094488188974
 20
4.234251968503937
 30
0.0
 11
-0.8494094488188974
 21
4.224409448818898
 31
0.0
  0
LINE
  5
3669
330
1E
100
AcDbEntity
  8
7
100
AcDbLine
 10
-0.8494094488188974
 20
4.224409448818898
 30
0.0
 11
-0.8484251968503935
 21
4.219488188976377
 31
0.0
  0
LINE
  5
366A
330
1E
100
AcDbEntity
  8
7
100
AcDbLine
 10
-1.0501968503937
 20
4.286417322834646
 30
0.0
 11
-0.8484251968503935
 21
4.286417322834646
 31
0.0
  0
LINE
  5
366B
330
1E
100
AcDbEntity
  8
7
100
AcDbLine
 10
-0.8484251968503935
 20
4.286417322834646
 30
0.0
 11
-0.8484251968503935
 21
4.30511811023622
 31
0.0
  0
LINE
  5
366C
330
1E
100
AcDbEntity
  8
7
100
AcDbLine
 10
-0.8484251968503935
 20
4.30511811023622
 30
0.0
 11
-1.0501968503937
 21
4.30511811023622
 31
0.0
  0
LINE
  5
366D
330
1E
100
AcDbEntity
  8
7
100
AcDbLine
 10
-1.0501968503937
 20
4.250984251968503
 30
0.0
 11
-1.0501968503937
 21
4.268700787401574
 31
0.0
  0
LINE
  5
366E
330
1E
100
AcDbEntity
  8
7
100
AcDbLine
 10
-1.0501968503937
 20
4.268700787401574
 30
0.0
 11
-1.0501968503937
 21
4.283464566929134
 31
0.0
  0
LINE
  5
366F
330
1E
100
AcDbEntity
  8
7
100
AcDbLine
 10
-0.8494094488188974
 20
4.250984251968503
 30
0.0
 11
-0.8494094488188974
 21
4.268700787401574
 31
0.0
  0
LINE
  5
3670
330
1E
100
AcDbEntity
  8
7
100
AcDbLine
 10
-0.8494094488188974
 20
4.268700787401574
 30
0.0
 11
-0.8484251968503935
 21
4.283464566929134
 31
0.0
  0
LINE
  5
3671
330
1E
100
AcDbEntity
  8
7
100
AcDbLine
 10
-0.8484251968503935
 20
4.283464566929134
 30
0.0
 11
-1.0501968503937
 21
4.283464566929134
 31
0.0
  0
LINE
  5
3672
330
1E
100
AcDbEntity
  8
7
100
AcDbLine
 10
-1.0501968503937
 20
4.234251968503937
 30
0.0
 11
-0.8494094488188974
 21
4.234251968503937
 31
0.0
  0
LINE
  5
3673
330
1E
100
AcDbEntity
  8
7
100
AcDbLine
 10
-0.8494094488188974
 20
4.234251968503937
 30
0.0
 11
-0.8494094488188974
 21
4.250984251968503
 31
0.0
  0
LINE
  5
3674
330
1E
100
AcDbEntity
  8
7
100
AcDbLine
 10
0.7096456692913389
 20
4.271653543307087
 30
0.0
 11
0.7106299212598426
 21
4.27263779527559
 31
0.0
  0
LINE
  5
3675
330
1E
100
AcDbEntity
  8
7
100
AcDbLine
 10
0.7106299212598426
 20
4.27263779527559
 30
0.0
 11
0.5659448818897639
 21
4.27263779527559
 31
0.0
  0
LINE
  5
3676
330
1E
100
AcDbEntity
  8
7
100
AcDbLine
 10
0.5659448818897639
 20
4.27263779527559
 30
0.0
 11
0.5659448818897639
 21
4.215551181102362
 31
0.0
  0
LINE
  5
3677
330
1E
100
AcDbEntity
  8
7
100
AcDbLine
 10
0.5659448818897639
 20
4.215551181102362
 30
0.0
 11
0.5659448818897639
 21
4.214566929133858
 31
0.0
  0
LINE
  5
3678
330
1E
100
AcDbEntity
  8
7
100
AcDbLine
 10
0.4458661417322838
 20
4.20767716535433
 30
0.0
 11
0.4212598425196852
 21
4.219488188976377
 31
0.0
  0
LINE
  5
3679
330
1E
100
AcDbEntity
  8
7
100
AcDbLine
 10
0.4212598425196852
 20
4.219488188976377
 30
0.0
 11
0.2194881889763782
 21
4.219488188976377
 31
0.0
  0
LINE
  5
367A
330
1E
100
AcDbEntity
  8
7
100
AcDbLine
 10
0.5580708661417324
 20
4.205708661417323
 30
0.0
 11
0.5570866141732287
 21
4.20767716535433
 31
0.0
  0
LINE
  5
367B
330
1E
100
AcDbEntity
  8
7
100
AcDbLine
 10
0.5570866141732287
 20
4.20767716535433
 30
0.0
 11
0.4458661417322838
 21
4.20767716535433
 31
0.0
  0
LINE
  5
367C
330
1E
100
AcDbEntity
  8
7
100
AcDbLine
 10
0.0748031496062995
 20
4.214566929133858
 30
0.0
 11
0.0757874015748032
 21
4.215551181102362
 31
0.0
  0
LINE
  5
367D
330
1E
100
AcDbEntity
  8
7
100
AcDbLine
 10
0.0757874015748032
 20
4.215551181102362
 30
0.0
 11
0.0757874015748032
 21
4.27263779527559
 31
0.0
  0
LINE
  5
367E
330
1E
100
AcDbEntity
  8
7
100
AcDbLine
 10
-0.1899606299212597
 20
4.20767716535433
 30
0.0
 11
-0.2135826771653542
 21
4.219488188976377
 31
0.0
  0
LINE
  5
367F
330
1E
100
AcDbEntity
  8
7
100
AcDbLine
 10
-0.2135826771653542
 20
4.219488188976377
 30
0.0
 11
-0.4153543307086612
 21
4.219488188976377
 31
0.0
  0
LINE
  5
3680
330
1E
100
AcDbEntity
  8
7
100
AcDbLine
 10
-0.824803149606299
 20
4.20767716535433
 30
0.0
 11
-0.8484251968503935
 21
4.219488188976377
 31
0.0
  0
LINE
  5
3681
330
1E
100
AcDbEntity
  8
7
100
AcDbLine
 10
-0.8484251968503935
 20
4.219488188976377
 30
0.0
 11
-1.0501968503937
 21
4.219488188976377
 31
0.0
  0
LINE
  5
3682
330
1E
100
AcDbEntity
  8
7
100
AcDbLine
 10
1.457677165354331
 20
5.39763779527559
 30
0.0
 11
1.453740157480315
 21
5.392716535433071
 31
0.0
  0
LINE
  5
3683
330
1E
100
AcDbEntity
  8
7
100
AcDbLine
 10
1.453740157480315
 20
5.392716535433071
 30
0.0
 11
1.453740157480315
 21
3.78248031496063
 31
0.0
  0
LINE
  5
3684
330
1E
100
AcDbEntity
  8
7
100
AcDbLine
 10
1.453740157480315
 20
3.78248031496063
 30
0.0
 11
1.457677165354331
 21
3.77755905511811
 31
0.0
  0
LINE
  5
3685
330
1E
100
AcDbEntity
  8
7
100
AcDbLine
 10
-1.422244094488188
 20
5.427165354330709
 30
0.0
 11
-1.417322834645669
 21
5.423228346456693
 31
0.0
  0
LINE
  5
3686
330
1E
100
AcDbEntity
  8
7
100
AcDbLine
 10
-1.417322834645669
 20
5.423228346456693
 30
0.0
 11
1.423228346456693
 21
5.423228346456693
 31
0.0
  0
LINE
  5
3687
330
1E
100
AcDbEntity
  8
7
100
AcDbLine
 10
1.423228346456693
 20
5.423228346456693
 30
0.0
 11
1.428149606299212
 21
5.427165354330709
 31
0.0
  0
LINE
  5
3688
330
1E
100
AcDbEntity
  8
7
100
AcDbLine
 10
-1.451771653543306
 20
3.77755905511811
 30
0.0
 11
-1.446850393700787
 21
3.78248031496063
 31
0.0
  0
LINE
  5
3689
330
1E
100
AcDbEntity
  8
7
100
AcDbLine
 10
-1.446850393700787
 20
3.78248031496063
 30
0.0
 11
-1.446850393700787
 21
5.392716535433071
 31
0.0
  0
LINE
  5
368A
330
1E
100
AcDbEntity
  8
7
100
AcDbLine
 10
-1.446850393700787
 20
5.392716535433071
 30
0.0
 11
-1.451771653543306
 21
5.39763779527559
 31
0.0
  0
LINE
  5
368B
330
1E
100
AcDbEntity
  8
7
100
AcDbLine
 10
1.428149606299212
 20
3.747047244094487
 30
0.0
 11
1.423228346456693
 21
3.751968503937008
 31
0.0
  0
LINE
  5
368C
330
1E
100
AcDbEntity
  8
7
100
AcDbLine
 10
1.423228346456693
 20
3.751968503937008
 30
0.0
 11
-1.417322834645669
 21
3.751968503937008
 31
0.0
  0
LINE
  5
368D
330
1E
100
AcDbEntity
  8
7
100
AcDbLine
 10
-1.417322834645669
 20
3.751968503937008
 30
0.0
 11
-1.422244094488188
 21
3.747047244094487
 31
0.0
  0
LINE
  5
368E
330
1E
100
AcDbEntity
  8
7
100
AcDbLine
 10
1.273622047244094
 20
5.275590551181102
 30
0.0
 11
1.273622047244094
 21
5.326771653543307
 31
0.0
  0
LINE
  5
368F
330
1E
100
AcDbEntity
  8
7
100
AcDbLine
 10
1.273622047244094
 20
5.326771653543307
 30
0.0
 11
1.274606299212598
 21
5.327755905511811
 31
0.0
  0
LINE
  5
3690
330
1E
100
AcDbEntity
  8
7
100
AcDbLine
 10
-1.26771653543307
 20
5.275590551181102
 30
0.0
 11
-1.295275590551181
 21
5.275590551181102
 31
0.0
  0
LINE
  5
3691
330
1E
100
AcDbEntity
  8
7
100
AcDbLine
 10
-1.295275590551181
 20
5.275590551181102
 30
0.0
 11
-1.295275590551181
 21
5.276574803149606
 31
0.0
  0
LINE
  5
3692
330
1E
100
AcDbEntity
  8
7
100
AcDbLine
 10
0.8582677165354333
 20
5.097440944881889
 30
0.0
 11
0.4183070866141736
 21
5.097440944881889
 31
0.0
  0
LINE
  5
3693
330
1E
100
AcDbEntity
  8
7
100
AcDbLine
 10
0.4183070866141736
 20
5.097440944881889
 30
0.0
 11
0.4183070866141736
 21
5.312007874015748
 31
0.0
  0
LINE
  5
3694
330
1E
100
AcDbEntity
  8
7
100
AcDbLine
 10
0.4183070866141736
 20
5.312007874015748
 30
0.0
 11
0.8582677165354333
 21
5.312007874015748
 31
0.0
  0
LINE
  5
3695
330
1E
100
AcDbEntity
  8
7
100
AcDbLine
 10
-1.265748031496062
 20
5.13779527559055
 30
0.0
 11
-1.265748031496062
 21
5.084645669291338
 31
0.0
  0
LINE
  5
3696
330
1E
100
AcDbEntity
  8
7
100
AcDbLine
 10
-1.265748031496062
 20
5.084645669291338
 30
0.0
 11
1.271653543307086
 21
5.084645669291338
 31
0.0
  0
LINE
  5
3697
330
1E
100
AcDbEntity
  8
7
100
AcDbLine
 10
1.271653543307086
 20
5.084645669291338
 30
0.0
 11
1.271653543307086
 21
5.13779527559055
 31
0.0
  0
LINE
  5
3698
330
1E
100
AcDbEntity
  8
7
100
AcDbLine
 10
1.271653543307086
 20
5.13779527559055
 30
0.0
 11
1.300196850393701
 21
5.13779527559055
 31
0.0
  0
LINE
  5
3699
330
1E
100
AcDbEntity
  8
7
100
AcDbLine
 10
1.300196850393701
 20
5.13779527559055
 30
0.0
 11
1.300196850393701
 21
5.273622047244094
 31
0.0
  0
LINE
  5
369A
330
1E
100
AcDbEntity
  8
7
100
AcDbLine
 10
1.300196850393701
 20
5.273622047244094
 30
0.0
 11
1.271653543307086
 21
5.273622047244094
 31
0.0
  0
LINE
  5
369B
330
1E
100
AcDbEntity
  8
7
100
AcDbLine
 10
1.271653543307086
 20
5.273622047244094
 30
0.0
 11
1.271653543307086
 21
5.326771653543307
 31
0.0
  0
LINE
  5
369C
330
1E
100
AcDbEntity
  8
7
100
AcDbLine
 10
1.271653543307086
 20
5.326771653543307
 30
0.0
 11
-1.265748031496062
 21
5.326771653543307
 31
0.0
  0
LINE
  5
369D
330
1E
100
AcDbEntity
  8
7
100
AcDbLine
 10
-1.265748031496062
 20
5.326771653543307
 30
0.0
 11
-1.265748031496062
 21
5.273622047244094
 31
0.0
  0
LINE
  5
369E
330
1E
100
AcDbEntity
  8
7
100
AcDbLine
 10
-1.265748031496062
 20
5.273622047244094
 30
0.0
 11
-1.294291338582677
 21
5.273622047244094
 31
0.0
  0
LINE
  5
369F
330
1E
100
AcDbEntity
  8
7
100
AcDbLine
 10
-1.294291338582677
 20
5.273622047244094
 30
0.0
 11
-1.294291338582677
 21
5.13779527559055
 31
0.0
  0
LINE
  5
36A0
330
1E
100
AcDbEntity
  8
7
100
AcDbLine
 10
-1.294291338582677
 20
5.13779527559055
 30
0.0
 11
-1.265748031496062
 21
5.13779527559055
 31
0.0
  0
LINE
  5
36A1
330
1E
100
AcDbEntity
  8
7
100
AcDbLine
 10
-0.4124015748031496
 20
5.312007874015748
 30
0.0
 11
-0.4124015748031496
 21
5.097440944881889
 31
0.0
  0
LINE
  5
36A2
330
1E
100
AcDbEntity
  8
7
100
AcDbLine
 10
-0.4124015748031496
 20
5.097440944881889
 30
0.0
 11
-0.8523622047244092
 21
5.097440944881889
 31
0.0
  0
LINE
  5
36A3
330
1E
100
AcDbEntity
  8
7
100
AcDbLine
 10
-0.8523622047244092
 20
5.097440944881889
 30
0.0
 11
-0.8523622047244092
 21
5.312007874015748
 31
0.0
  0
LINE
  5
36A4
330
1E
100
AcDbEntity
  8
7
100
AcDbLine
 10
-0.8523622047244092
 20
5.312007874015748
 30
0.0
 11
-0.4124015748031496
 21
5.312007874015748
 31
0.0
  0
LINE
  5
36A5
330
1E
100
AcDbEntity
  8
7
100
AcDbLine
 10
-0.8218503937007872
 20
5.131889763779527
 30
0.0
 11
-0.8316929133858266
 21
5.131889763779527
 31
0.0
  0
LINE
  5
36A6
330
1E
100
AcDbEntity
  8
7
100
AcDbLine
 10
-0.8316929133858266
 20
5.131889763779527
 30
0.0
 11
-0.8366141732283463
 21
5.131889763779527
 31
0.0
  0
LINE
  5
36A7
330
1E
100
AcDbEntity
  8
7
100
AcDbLine
 10
-0.8366141732283463
 20
5.131889763779527
 30
0.0
 11
-0.8484251968503935
 21
5.127952755905512
 31
0.0
  0
LINE
  5
36A8
330
1E
100
AcDbEntity
  8
7
100
AcDbLine
 10
-0.7942913385826771
 20
5.131889763779527
 30
0.0
 11
-0.7982283464566928
 21
5.131889763779527
 31
0.0
  0
LINE
  5
36A9
330
1E
100
AcDbEntity
  8
7
100
AcDbLine
 10
-0.7982283464566928
 20
5.131889763779527
 30
0.0
 11
-0.8090551181102361
 21
5.131889763779527
 31
0.0
  0
LINE
  5
36AA
330
1E
100
AcDbEntity
  8
7
100
AcDbLine
 10
-0.4547244094488186
 20
5.131889763779527
 30
0.0
 11
-0.4655511811023621
 21
5.131889763779527
 31
0.0
  0
LINE
  5
36AB
330
1E
100
AcDbEntity
  8
7
100
AcDbLine
 10
-0.4655511811023621
 20
5.131889763779527
 30
0.0
 11
-0.470472440944882
 21
5.131889763779527
 31
0.0
  0
LINE
  5
36AC
330
1E
100
AcDbEntity
  8
7
100
AcDbLine
 10
-0.470472440944882
 20
5.131889763779527
 30
0.0
 11
-0.481299212598425
 21
5.127952755905512
 31
0.0
  0
LINE
  5
36AD
330
1E
100
AcDbEntity
  8
7
100
AcDbLine
 10
-0.481299212598425
 20
5.127952755905512
 30
0.0
 11
-0.7834645669291338
 21
5.127952755905512
 31
0.0
  0
LINE
  5
36AE
330
1E
100
AcDbEntity
  8
7
100
AcDbLine
 10
-0.4153543307086612
 20
5.127952755905512
 30
0.0
 11
-0.4271653543307084
 21
5.131889763779527
 31
0.0
  0
LINE
  5
36AF
330
1E
100
AcDbEntity
  8
7
100
AcDbLine
 10
-0.4271653543307084
 20
5.131889763779527
 30
0.0
 11
-0.4320866141732283
 21
5.131889763779527
 31
0.0
  0
LINE
  5
36B0
330
1E
100
AcDbEntity
  8
7
100
AcDbLine
 10
-0.4320866141732283
 20
5.131889763779527
 30
0.0
 11
-0.4429133858267713
 21
5.131889763779527
 31
0.0
  0
LINE
  5
36B1
330
1E
100
AcDbEntity
  8
7
100
AcDbLine
 10
0.4488188976377954
 20
5.131889763779527
 30
0.0
 11
0.4379921259842523
 21
5.131889763779527
 31
0.0
  0
LINE
  5
36B2
330
1E
100
AcDbEntity
  8
7
100
AcDbLine
 10
0.4379921259842523
 20
5.131889763779527
 30
0.0
 11
0.4330708661417324
 21
5.131889763779527
 31
0.0
  0
LINE
  5
36B3
330
1E
100
AcDbEntity
  8
7
100
AcDbLine
 10
0.4330708661417324
 20
5.131889763779527
 30
0.0
 11
0.4212598425196852
 21
5.127952755905512
 31
0.0
  0
LINE
  5
36B4
330
1E
100
AcDbEntity
  8
7
100
AcDbLine
 10
0.4763779527559056
 20
5.131889763779527
 30
0.0
 11
0.4714566929133861
 21
5.131889763779527
 31
0.0
  0
LINE
  5
36B5
330
1E
100
AcDbEntity
  8
7
100
AcDbLine
 10
0.4714566929133861
 20
5.131889763779527
 30
0.0
 11
0.4616141732283468
 21
5.131889763779527
 31
0.0
  0
LINE
  5
36B6
330
1E
100
AcDbEntity
  8
7
100
AcDbLine
 10
0.8001968503937009
 20
5.131889763779527
 30
0.0
 11
0.7893700787401574
 21
5.127952755905512
 31
0.0
  0
LINE
  5
36B7
330
1E
100
AcDbEntity
  8
7
100
AcDbLine
 10
0.7893700787401574
 20
5.127952755905512
 30
0.0
 11
0.4872047244094491
 21
5.127952755905512
 31
0.0
  0
LINE
  5
36B8
330
1E
100
AcDbEntity
  8
7
100
AcDbLine
 10
0.8149606299212601
 20
5.131889763779527
 30
0.0
 11
0.8041338582677166
 21
5.131889763779527
 31
0.0
  0
LINE
  5
36B9
330
1E
100
AcDbEntity
  8
7
100
AcDbLine
 10
0.8041338582677166
 20
5.131889763779527
 30
0.0
 11
0.8001968503937009
 21
5.131889763779527
 31
0.0
  0
LINE
  5
36BA
330
1E
100
AcDbEntity
  8
7
100
AcDbLine
 10
0.8553149606299212
 20
5.127952755905512
 30
0.0
 11
0.8425196850393703
 21
5.131889763779527
 31
0.0
  0
LINE
  5
36BB
330
1E
100
AcDbEntity
  8
7
100
AcDbLine
 10
0.8425196850393703
 20
5.131889763779527
 30
0.0
 11
0.8375984251968503
 21
5.131889763779527
 31
0.0
  0
LINE
  5
36BC
330
1E
100
AcDbEntity
  8
7
100
AcDbLine
 10
0.8375984251968503
 20
5.131889763779527
 30
0.0
 11
0.8277559055118111
 21
5.131889763779527
 31
0.0
  0
LINE
  5
36BD
330
1E
100
AcDbEntity
  8
7
100
AcDbLine
 10
-0.4547244094488186
 20
5.131889763779527
 30
0.0
 11
-0.4429133858267713
 21
5.131889763779527
 31
0.0
  0
LINE
  5
36BE
330
1E
100
AcDbEntity
  8
7
100
AcDbLine
 10
-0.4429133858267713
 20
5.131889763779527
 30
0.0
 11
-0.4429133858267713
 21
5.183070866141732
 31
0.0
  0
LINE
  5
36BF
330
1E
100
AcDbEntity
  8
7
100
AcDbLine
 10
0.8149606299212601
 20
5.131889763779527
 30
0.0
 11
0.8277559055118111
 21
5.131889763779527
 31
0.0
  0
LINE
  5
36C0
330
1E
100
AcDbEntity
  8
7
100
AcDbLine
 10
0.8277559055118111
 20
5.131889763779527
 30
0.0
 11
0.8277559055118111
 21
5.183070866141732
 31
0.0
  0
LINE
  5
36C1
330
1E
100
AcDbEntity
  8
7
100
AcDbLine
 10
-0.4793307086614172
 20
5.297244094488188
 30
0.0
 11
-0.4783464566929135
 21
5.297244094488188
 31
0.0
  0
LINE
  5
36C2
330
1E
100
AcDbEntity
  8
7
100
AcDbLine
 10
-0.4783464566929135
 20
5.297244094488188
 30
0.0
 11
-0.470472440944882
 21
5.191929133858267
 31
0.0
  0
LINE
  5
36C3
330
1E
100
AcDbEntity
  8
7
100
AcDbLine
 10
-0.470472440944882
 20
5.191929133858267
 30
0.0
 11
-0.4655511811023621
 21
5.18503937007874
 31
0.0
  0
LINE
  5
36C4
330
1E
100
AcDbEntity
  8
7
100
AcDbLine
 10
-0.4655511811023621
 20
5.18503937007874
 30
0.0
 11
-0.4547244094488186
 21
5.183070866141732
 31
0.0
  0
LINE
  5
36C5
330
1E
100
AcDbEntity
  8
7
100
AcDbLine
 10
-0.4793307086614172
 20
5.297244094488188
 30
0.0
 11
-0.5403543307086612
 21
5.297244094488188
 31
0.0
  0
LINE
  5
36C6
330
1E
100
AcDbEntity
  8
7
100
AcDbLine
 10
-0.5403543307086612
 20
5.297244094488188
 30
0.0
 11
-0.5403543307086612
 21
5.267716535433071
 31
0.0
  0
LINE
  5
36C7
330
1E
100
AcDbEntity
  8
7
100
AcDbLine
 10
-0.4793307086614172
 20
5.267716535433071
 30
0.0
 11
-0.5403543307086612
 21
5.267716535433071
 31
0.0
  0
LINE
  5
36C8
330
1E
100
AcDbEntity
  8
7
100
AcDbLine
 10
-0.5403543307086612
 20
5.267716535433071
 30
0.0
 11
-0.5374015748031496
 21
5.264763779527559
 31
0.0
  0
LINE
  5
36C9
330
1E
100
AcDbEntity
  8
7
100
AcDbLine
 10
-0.7824803149606299
 20
5.14763779527559
 30
0.0
 11
-0.4822834645669292
 21
5.14763779527559
 31
0.0
  0
LINE
  5
36CA
330
1E
100
AcDbEntity
  8
7
100
AcDbLine
 10
-0.4822834645669292
 20
5.14763779527559
 30
0.0
 11
-0.4822834645669292
 21
5.264763779527559
 31
0.0
  0
LINE
  5
36CB
330
1E
100
AcDbEntity
  8
7
100
AcDbLine
 10
-0.4822834645669292
 20
5.264763779527559
 30
0.0
 11
-0.5374015748031496
 21
5.264763779527559
 31
0.0
  0
LINE
  5
36CC
330
1E
100
AcDbEntity
  8
7
100
AcDbLine
 10
-0.5374015748031496
 20
5.264763779527559
 30
0.0
 11
-0.5374015748031496
 21
5.184055118110236
 31
0.0
  0
LINE
  5
36CD
330
1E
100
AcDbEntity
  8
7
100
AcDbLine
 10
0.7913385826771653
 20
5.297244094488188
 30
0.0
 11
0.8001968503937009
 21
5.191929133858267
 31
0.0
  0
LINE
  5
36CE
330
1E
100
AcDbEntity
  8
7
100
AcDbLine
 10
0.8001968503937009
 20
5.191929133858267
 30
0.0
 11
0.8041338582677166
 21
5.18503937007874
 31
0.0
  0
LINE
  5
36CF
330
1E
100
AcDbEntity
  8
7
100
AcDbLine
 10
0.8041338582677166
 20
5.18503937007874
 30
0.0
 11
0.8149606299212601
 21
5.183070866141732
 31
0.0
  0
LINE
  5
36D0
330
1E
100
AcDbEntity
  8
7
100
AcDbLine
 10
0.7913385826771653
 20
5.297244094488188
 30
0.0
 11
0.7303149606299213
 21
5.297244094488188
 31
0.0
  0
LINE
  5
36D1
330
1E
100
AcDbEntity
  8
7
100
AcDbLine
 10
0.7303149606299213
 20
5.297244094488188
 30
0.0
 11
0.7303149606299213
 21
5.267716535433071
 31
0.0
  0
LINE
  5
36D2
330
1E
100
AcDbEntity
  8
7
100
AcDbLine
 10
0.7913385826771653
 20
5.267716535433071
 30
0.0
 11
0.7303149606299213
 21
5.267716535433071
 31
0.0
  0
LINE
  5
36D3
330
1E
100
AcDbEntity
  8
7
100
AcDbLine
 10
0.7303149606299213
 20
5.267716535433071
 30
0.0
 11
0.7322834645669292
 21
5.264763779527559
 31
0.0
  0
LINE
  5
36D4
330
1E
100
AcDbEntity
  8
7
100
AcDbLine
 10
0.4881889763779528
 20
5.14763779527559
 30
0.0
 11
0.7883858267716537
 21
5.14763779527559
 31
0.0
  0
LINE
  5
36D5
330
1E
100
AcDbEntity
  8
7
100
AcDbLine
 10
0.7883858267716537
 20
5.14763779527559
 30
0.0
 11
0.7883858267716537
 21
5.264763779527559
 31
0.0
  0
LINE
  5
36D6
330
1E
100
AcDbEntity
  8
7
100
AcDbLine
 10
0.7883858267716537
 20
5.264763779527559
 30
0.0
 11
0.7322834645669292
 21
5.264763779527559
 31
0.0
  0
LINE
  5
36D7
330
1E
100
AcDbEntity
  8
7
100
AcDbLine
 10
0.7322834645669292
 20
5.264763779527559
 30
0.0
 11
0.7322834645669292
 21
5.184055118110236
 31
0.0
  0
LINE
  5
36D8
330
1E
100
AcDbEntity
  8
7
100
AcDbLine
 10
-0.4862204724409449
 20
3.802165354330709
 30
0.0
 11
-0.5570866141732283
 21
3.802165354330709
 31
0.0
  0
LINE
  5
36D9
330
1E
100
AcDbEntity
  8
7
100
AcDbLine
 10
-0.5570866141732283
 20
3.802165354330709
 30
0.0
 11
-0.5570866141732283
 21
3.881889763779527
 31
0.0
  0
LINE
  5
36DA
330
1E
100
AcDbEntity
  8
7
100
AcDbLine
 10
-0.5570866141732283
 20
3.881889763779527
 30
0.0
 11
-0.4862204724409449
 21
3.881889763779527
 31
0.0
  0
LINE
  5
36DB
330
1E
100
AcDbEntity
  8
7
100
AcDbLine
 10
-0.4862204724409449
 20
3.881889763779527
 30
0.0
 11
-0.4862204724409449
 21
3.802165354330709
 31
0.0
  0
LINE
  5
36DC
330
1E
100
AcDbEntity
  8
7
100
AcDbLine
 10
-0.7057086614173227
 20
4.208661417322835
 30
0.0
 11
-0.7116141732283463
 21
4.205708661417323
 31
0.0
  0
LINE
  5
36DD
330
1E
100
AcDbEntity
  8
7
100
AcDbLine
 10
-0.7116141732283463
 20
4.205708661417323
 30
0.0
 11
-1.187007874015747
 21
4.205708661417323
 31
0.0
  0
LINE
  5
36DE
330
1E
100
AcDbEntity
  8
7
100
AcDbLine
 10
-1.187007874015747
 20
4.205708661417323
 30
0.0
 11
-1.192913385826771
 21
4.208661417322835
 31
0.0
  0
LINE
  5
36DF
330
1E
100
AcDbEntity
  8
7
100
AcDbLine
 10
-1.192913385826771
 20
4.208661417322835
 30
0.0
 11
-1.195866141732283
 21
4.214566929133858
 31
0.0
  0
LINE
  5
36E0
330
1E
100
AcDbEntity
  8
7
100
AcDbLine
 10
-1.195866141732283
 20
4.214566929133858
 30
0.0
 11
-1.195866141732283
 21
4.271653543307087
 31
0.0
  0
LINE
  5
36E1
330
1E
100
AcDbEntity
  8
7
100
AcDbLine
 10
-1.195866141732283
 20
4.271653543307087
 30
0.0
 11
-1.254921259842519
 21
4.271653543307087
 31
0.0
  0
LINE
  5
36E2
330
1E
100
AcDbEntity
  8
7
100
AcDbLine
 10
-1.254921259842519
 20
4.271653543307087
 30
0.0
 11
-1.260826771653543
 21
4.273622047244094
 31
0.0
  0
LINE
  5
36E3
330
1E
100
AcDbEntity
  8
7
100
AcDbLine
 10
-1.260826771653543
 20
4.273622047244094
 30
0.0
 11
-1.26279527559055
 21
4.279527559055118
 31
0.0
  0
LINE
  5
36E4
330
1E
100
AcDbEntity
  8
7
100
AcDbLine
 10
0.0748031496062995
 20
4.271653543307087
 30
0.0
 11
-0.0688976377952755
 21
4.271653543307087
 31
0.0
  0
LINE
  5
36E5
330
1E
100
AcDbEntity
  8
7
100
AcDbLine
 10
-0.0688976377952755
 20
4.271653543307087
 30
0.0
 11
-0.0688976377952755
 21
4.214566929133858
 31
0.0
  0
LINE
  5
36E6
330
1E
100
AcDbEntity
  8
7
100
AcDbLine
 10
-0.0688976377952755
 20
4.214566929133858
 30
0.0
 11
-0.0708661417322834
 21
4.208661417322835
 31
0.0
  0
LINE
  5
36E7
330
1E
100
AcDbEntity
  8
7
100
AcDbLine
 10
-0.0708661417322834
 20
4.208661417322835
 30
0.0
 11
-0.076771653543307
 21
4.205708661417323
 31
0.0
  0
LINE
  5
36E8
330
1E
100
AcDbEntity
  8
7
100
AcDbLine
 10
-0.076771653543307
 20
4.205708661417323
 30
0.0
 11
-0.5521653543307084
 21
4.205708661417323
 31
0.0
  0
LINE
  5
36E9
330
1E
100
AcDbEntity
  8
7
100
AcDbLine
 10
-0.5521653543307084
 20
4.205708661417323
 30
0.0
 11
-0.558070866141732
 21
4.208661417322835
 31
0.0
  0
LINE
  5
36EA
330
1E
100
AcDbEntity
  8
7
100
AcDbLine
 10
-0.558070866141732
 20
4.208661417322835
 30
0.0
 11
-0.5600393700787399
 21
4.214566929133858
 31
0.0
  0
LINE
  5
36EB
330
1E
100
AcDbEntity
  8
7
100
AcDbLine
 10
-0.5600393700787399
 20
4.214566929133858
 30
0.0
 11
-0.5600393700787399
 21
4.271653543307087
 31
0.0
  0
LINE
  5
36EC
330
1E
100
AcDbEntity
  8
7
100
AcDbLine
 10
-0.5600393700787399
 20
4.271653543307087
 30
0.0
 11
-0.7037401574803149
 21
4.271653543307087
 31
0.0
  0
LINE
  5
36ED
330
1E
100
AcDbEntity
  8
7
100
AcDbLine
 10
-0.7037401574803149
 20
4.271653543307087
 30
0.0
 11
-0.7037401574803149
 21
4.214566929133858
 31
0.0
  0
LINE
  5
36EE
330
1E
100
AcDbEntity
  8
7
100
AcDbLine
 10
-0.7037401574803149
 20
4.214566929133858
 30
0.0
 11
-0.7057086614173227
 21
4.208661417322835
 31
0.0
  0
LINE
  5
36EF
330
1E
100
AcDbEntity
  8
7
100
AcDbLine
 10
0.5659448818897639
 20
4.214566929133858
 30
0.0
 11
0.5639763779527561
 21
4.208661417322835
 31
0.0
  0
LINE
  5
36F0
330
1E
100
AcDbEntity
  8
7
100
AcDbLine
 10
0.5639763779527561
 20
4.208661417322835
 30
0.0
 11
0.5580708661417324
 21
4.205708661417323
 31
0.0
  0
LINE
  5
36F1
330
1E
100
AcDbEntity
  8
7
100
AcDbLine
 10
-1.26279527559055
 20
4.279527559055118
 30
0.0
 11
-1.26279527559055
 21
4.9251968503937
 31
0.0
  0
LINE
  5
36F2
330
1E
100
AcDbEntity
  8
7
100
AcDbLine
 10
-1.26279527559055
 20
4.9251968503937
 30
0.0
 11
-1.260826771653543
 21
4.931102362204724
 31
0.0
  0
LINE
  5
36F3
330
1E
100
AcDbEntity
  8
7
100
AcDbLine
 10
-1.260826771653543
 20
4.931102362204724
 30
0.0
 11
-1.254921259842519
 21
4.933070866141732
 31
0.0
  0
LINE
  5
36F4
330
1E
100
AcDbEntity
  8
7
100
AcDbLine
 10
-1.254921259842519
 20
4.933070866141732
 30
0.0
 11
1.260826771653543
 21
4.933070866141732
 31
0.0
  0
LINE
  5
36F5
330
1E
100
AcDbEntity
  8
7
100
AcDbLine
 10
1.260826771653543
 20
4.933070866141732
 30
0.0
 11
1.266732283464567
 21
4.931102362204724
 31
0.0
  0
LINE
  5
36F6
330
1E
100
AcDbEntity
  8
7
100
AcDbLine
 10
1.266732283464567
 20
4.931102362204724
 30
0.0
 11
1.268700787401574
 21
4.9251968503937
 31
0.0
  0
LINE
  5
36F7
330
1E
100
AcDbEntity
  8
7
100
AcDbLine
 10
1.268700787401574
 20
4.9251968503937
 30
0.0
 11
1.268700787401574
 21
4.279527559055118
 31
0.0
  0
LINE
  5
36F8
330
1E
100
AcDbEntity
  8
7
100
AcDbLine
 10
1.268700787401574
 20
4.279527559055118
 30
0.0
 11
1.266732283464567
 21
4.273622047244094
 31
0.0
  0
LINE
  5
36F9
330
1E
100
AcDbEntity
  8
7
100
AcDbLine
 10
1.266732283464567
 20
4.273622047244094
 30
0.0
 11
1.260826771653543
 21
4.271653543307087
 31
0.0
  0
LINE
  5
36FA
330
1E
100
AcDbEntity
  8
7
100
AcDbLine
 10
1.260826771653543
 20
4.271653543307087
 30
0.0
 11
1.201771653543307
 21
4.271653543307087
 31
0.0
  0
LINE
  5
36FB
330
1E
100
AcDbEntity
  8
7
100
AcDbLine
 10
1.201771653543307
 20
4.271653543307087
 30
0.0
 11
1.201771653543307
 21
4.214566929133858
 31
0.0
  0
LINE
  5
36FC
330
1E
100
AcDbEntity
  8
7
100
AcDbLine
 10
1.201771653543307
 20
4.214566929133858
 30
0.0
 11
1.198818897637795
 21
4.208661417322835
 31
0.0
  0
LINE
  5
36FD
330
1E
100
AcDbEntity
  8
7
100
AcDbLine
 10
1.198818897637795
 20
4.208661417322835
 30
0.0
 11
1.193897637795275
 21
4.205708661417323
 31
0.0
  0
LINE
  5
36FE
330
1E
100
AcDbEntity
  8
7
100
AcDbLine
 10
1.193897637795275
 20
4.205708661417323
 30
0.0
 11
0.7175196850393704
 21
4.205708661417323
 31
0.0
  0
LINE
  5
36FF
330
1E
100
AcDbEntity
  8
7
100
AcDbLine
 10
0.7175196850393704
 20
4.205708661417323
 30
0.0
 11
0.7116141732283468
 21
4.208661417322835
 31
0.0
  0
LINE
  5
3700
330
1E
100
AcDbEntity
  8
7
100
AcDbLine
 10
0.7116141732283468
 20
4.208661417322835
 30
0.0
 11
0.7096456692913389
 21
4.214566929133858
 31
0.0
  0
LINE
  5
3701
330
1E
100
AcDbEntity
  8
7
100
AcDbLine
 10
-0.7066929133858264
 20
3.802165354330709
 30
0.0
 11
-0.77755905511811
 21
3.802165354330709
 31
0.0
  0
LINE
  5
3702
330
1E
100
AcDbEntity
  8
7
100
AcDbLine
 10
-0.77755905511811
 20
3.802165354330709
 30
0.0
 11
-0.77755905511811
 21
3.881889763779527
 31
0.0
  0
LINE
  5
3703
330
1E
100
AcDbEntity
  8
7
100
AcDbLine
 10
-0.77755905511811
 20
3.881889763779527
 30
0.0
 11
-0.7066929133858264
 21
3.881889763779527
 31
0.0
  0
LINE
  5
3704
330
1E
100
AcDbEntity
  8
7
100
AcDbLine
 10
-0.7066929133858264
 20
3.881889763779527
 30
0.0
 11
-0.7066929133858264
 21
3.802165354330709
 31
0.0
  0
LINE
  5
3705
330
1E
100
AcDbEntity
  8
7
100
AcDbLine
 10
1.434055118110236
 20
3.771653543307087
 30
0.0
 11
1.437992125984252
 21
3.78248031496063
 31
0.0
  0
LINE
  5
3706
330
1E
100
AcDbEntity
  8
7
100
AcDbLine
 10
1.437992125984252
 20
3.78248031496063
 30
0.0
 11
1.437992125984252
 21
5.392716535433071
 31
0.0
  0
LINE
  5
3707
330
1E
100
AcDbEntity
  8
7
100
AcDbLine
 10
1.437992125984252
 20
5.392716535433071
 30
0.0
 11
1.434055118110236
 21
5.403543307086613
 31
0.0
  0
LINE
  5
3708
330
1E
100
AcDbEntity
  8
7
100
AcDbLine
 10
1.434055118110236
 20
5.403543307086613
 30
0.0
 11
1.423228346456693
 21
5.407480314960629
 31
0.0
  0
LINE
  5
3709
330
1E
100
AcDbEntity
  8
7
100
AcDbLine
 10
1.423228346456693
 20
5.407480314960629
 30
0.0
 11
-1.417322834645669
 21
5.407480314960629
 31
0.0
  0
LINE
  5
370A
330
1E
100
AcDbEntity
  8
7
100
AcDbLine
 10
-1.417322834645669
 20
5.407480314960629
 30
0.0
 11
-1.428149606299212
 21
5.403543307086613
 31
0.0
  0
LINE
  5
370B
330
1E
100
AcDbEntity
  8
7
100
AcDbLine
 10
-1.428149606299212
 20
5.403543307086613
 30
0.0
 11
-1.432086614173228
 21
5.392716535433071
 31
0.0
  0
LINE
  5
370C
330
1E
100
AcDbEntity
  8
7
100
AcDbLine
 10
-1.432086614173228
 20
5.392716535433071
 30
0.0
 11
-1.432086614173228
 21
3.78248031496063
 31
0.0
  0
LINE
  5
370D
330
1E
100
AcDbEntity
  8
7
100
AcDbLine
 10
-1.432086614173228
 20
3.78248031496063
 30
0.0
 11
-1.428149606299212
 21
3.771653543307087
 31
0.0
  0
LINE
  5
370E
330
1E
100
AcDbEntity
  8
7
100
AcDbLine
 10
-1.428149606299212
 20
3.771653543307087
 30
0.0
 11
-1.417322834645669
 21
3.766732283464566
 31
0.0
  0
LINE
  5
370F
330
1E
100
AcDbEntity
  8
7
100
AcDbLine
 10
-1.417322834645669
 20
3.766732283464566
 30
0.0
 11
1.423228346456693
 21
3.766732283464566
 31
0.0
  0
LINE
  5
3710
330
1E
100
AcDbEntity
  8
7
100
AcDbLine
 10
0.8277559055118111
 20
5.183070866141732
 30
0.0
 11
0.8375984251968503
 21
5.183070866141732
 31
0.0
  0
LINE
  5
3711
330
1E
100
AcDbEntity
  8
7
100
AcDbLine
 10
0.8375984251968503
 20
5.183070866141732
 30
0.0
 11
0.8425196850393703
 21
5.183070866141732
 31
0.0
  0
LINE
  5
3712
330
1E
100
AcDbEntity
  8
7
100
AcDbLine
 10
0.8425196850393703
 20
5.183070866141732
 30
0.0
 11
0.8562992125984255
 21
5.187007874015748
 31
0.0
  0
LINE
  5
3713
330
1E
100
AcDbEntity
  8
7
100
AcDbLine
 10
0.4202755905511815
 20
5.187007874015748
 30
0.0
 11
0.4330708661417324
 21
5.183070866141732
 31
0.0
  0
LINE
  5
3714
330
1E
100
AcDbEntity
  8
7
100
AcDbLine
 10
0.4330708661417324
 20
5.183070866141732
 30
0.0
 11
0.4379921259842523
 21
5.183070866141732
 31
0.0
  0
LINE
  5
3715
330
1E
100
AcDbEntity
  8
7
100
AcDbLine
 10
0.4379921259842523
 20
5.183070866141732
 30
0.0
 11
0.4488188976377954
 21
5.183070866141732
 31
0.0
  0
LINE
  5
3716
330
1E
100
AcDbEntity
  8
7
100
AcDbLine
 10
-0.4429133858267713
 20
5.183070866141732
 30
0.0
 11
-0.4320866141732283
 21
5.183070866141732
 31
0.0
  0
LINE
  5
3717
330
1E
100
AcDbEntity
  8
7
100
AcDbLine
 10
-0.4320866141732283
 20
5.183070866141732
 30
0.0
 11
-0.4271653543307084
 21
5.183070866141732
 31
0.0
  0
LINE
  5
3718
330
1E
100
AcDbEntity
  8
7
100
AcDbLine
 10
-0.4271653543307084
 20
5.183070866141732
 30
0.0
 11
-0.4143700787401574
 21
5.187007874015748
 31
0.0
  0
LINE
  5
3719
330
1E
100
AcDbEntity
  8
7
100
AcDbLine
 10
-0.8503937007874014
 20
5.187007874015748
 30
0.0
 11
-0.8366141732283463
 21
5.183070866141732
 31
0.0
  0
LINE
  5
371A
330
1E
100
AcDbEntity
  8
7
100
AcDbLine
 10
-0.8366141732283463
 20
5.183070866141732
 30
0.0
 11
-0.8316929133858266
 21
5.183070866141732
 31
0.0
  0
LINE
  5
371B
330
1E
100
AcDbEntity
  8
7
100
AcDbLine
 10
-0.8316929133858266
 20
5.183070866141732
 30
0.0
 11
-0.8218503937007872
 21
5.183070866141732
 31
0.0
  0
LINE
  5
371C
330
1E
100
AcDbEntity
  8
7
100
AcDbLine
 10
1.457677165354331
 20
3.77755905511811
 30
0.0
 11
1.453740157480315
 21
3.76279527559055
 31
0.0
  0
LINE
  5
371D
330
1E
100
AcDbEntity
  8
7
100
AcDbLine
 10
1.453740157480315
 20
3.76279527559055
 30
0.0
 11
1.442913385826771
 21
3.751968503937008
 31
0.0
  0
LINE
  5
371E
330
1E
100
AcDbEntity
  8
7
100
AcDbLine
 10
1.442913385826771
 20
3.751968503937008
 30
0.0
 11
1.428149606299212
 21
3.747047244094487
 31
0.0
  0
LINE
  5
371F
330
1E
100
AcDbEntity
  8
7
100
AcDbLine
 10
1.428149606299212
 20
5.427165354330709
 30
0.0
 11
1.442913385826771
 21
5.423228346456693
 31
0.0
  0
LINE
  5
3720
330
1E
100
AcDbEntity
  8
7
100
AcDbLine
 10
1.442913385826771
 20
5.423228346456693
 30
0.0
 11
1.453740157480315
 21
5.412401574803149
 31
0.0
  0
LINE
  5
3721
330
1E
100
AcDbEntity
  8
7
100
AcDbLine
 10
1.453740157480315
 20
5.412401574803149
 30
0.0
 11
1.457677165354331
 21
5.39763779527559
 31
0.0
  0
LINE
  5
3722
330
1E
100
AcDbEntity
  8
7
100
AcDbLine
 10
-1.451771653543306
 20
5.39763779527559
 30
0.0
 11
-1.447834645669291
 21
5.412401574803149
 31
0.0
  0
LINE
  5
3723
330
1E
100
AcDbEntity
  8
7
100
AcDbLine
 10
-1.447834645669291
 20
5.412401574803149
 30
0.0
 11
-1.437007874015747
 21
5.423228346456693
 31
0.0
  0
LINE
  5
3724
330
1E
100
AcDbEntity
  8
7
100
AcDbLine
 10
-1.437007874015747
 20
5.423228346456693
 30
0.0
 11
-1.422244094488188
 21
5.427165354330709
 31
0.0
  0
LINE
  5
3725
330
1E
100
AcDbEntity
  8
7
100
AcDbLine
 10
-1.422244094488188
 20
3.747047244094487
 30
0.0
 11
-1.437007874015747
 21
3.751968503937008
 31
0.0
  0
LINE
  5
3726
330
1E
100
AcDbEntity
  8
7
100
AcDbLine
 10
-1.437007874015747
 20
3.751968503937008
 30
0.0
 11
-1.447834645669291
 21
3.76279527559055
 31
0.0
  0
LINE
  5
3727
330
1E
100
AcDbEntity
  8
7
100
AcDbLine
 10
-1.447834645669291
 20
3.76279527559055
 30
0.0
 11
-1.451771653543306
 21
3.77755905511811
 31
0.0
  0
LINE
  5
3728
330
1E
100
AcDbEntity
  8
7
100
AcDbLine
 10
-0.5521653543307084
 20
3.876968503937008
 30
0.0
 11
-0.5521653543307084
 21
3.807086614173228
 31
0.0
  0
LINE
  5
3729
330
1E
100
AcDbEntity
  8
7
100
AcDbLine
 10
-0.5521653543307084
 20
3.807086614173228
 30
0.0
 11
-0.4921259842519686
 21
3.807086614173228
 31
0.0
  0
LINE
  5
372A
330
1E
100
AcDbEntity
  8
7
100
AcDbLine
 10
-0.4921259842519686
 20
3.807086614173228
 30
0.0
 11
-0.4921259842519686
 21
3.876968503937008
 31
0.0
  0
LINE
  5
372B
330
1E
100
AcDbEntity
  8
7
100
AcDbLine
 10
-0.7716535433070863
 20
3.876968503937008
 30
0.0
 11
-0.7716535433070863
 21
3.807086614173228
 31
0.0
  0
LINE
  5
372C
330
1E
100
AcDbEntity
  8
7
100
AcDbLine
 10
-0.7716535433070863
 20
3.807086614173228
 30
0.0
 11
-0.7116141732283463
 21
3.807086614173228
 31
0.0
  0
LINE
  5
372D
330
1E
100
AcDbEntity
  8
7
100
AcDbLine
 10
-0.7116141732283463
 20
3.807086614173228
 30
0.0
 11
-0.7116141732283463
 21
3.876968503937008
 31
0.0
  0
LINE
  5
372E
330
1E
100
AcDbEntity
  8
7
100
AcDbLine
 10
-0.4143700787401574
 20
5.187007874015748
 30
0.0
 11
-0.4143700787401574
 21
5.31003937007874
 31
0.0
  0
LINE
  5
372F
330
1E
100
AcDbEntity
  8
7
100
AcDbLine
 10
-0.4143700787401574
 20
5.31003937007874
 30
0.0
 11
-0.8503937007874014
 21
5.31003937007874
 31
0.0
  0
LINE
  5
3730
330
1E
100
AcDbEntity
  8
7
100
AcDbLine
 10
-0.8503937007874014
 20
5.31003937007874
 30
0.0
 11
-0.8503937007874014
 21
5.187007874015748
 31
0.0
  0
LINE
  5
3731
330
1E
100
AcDbEntity
  8
7
100
AcDbLine
 10
0.8562992125984255
 20
5.187007874015748
 30
0.0
 11
0.8562992125984255
 21
5.31003937007874
 31
0.0
  0
LINE
  5
3732
330
1E
100
AcDbEntity
  8
7
100
AcDbLine
 10
0.8562992125984255
 20
5.31003937007874
 30
0.0
 11
0.4202755905511815
 21
5.31003937007874
 31
0.0
  0
LINE
  5
3733
330
1E
100
AcDbEntity
  8
7
100
AcDbLine
 10
0.4202755905511815
 20
5.31003937007874
 30
0.0
 11
0.4202755905511815
 21
5.187007874015748
 31
0.0
  0
LINE
  5
3734
330
1E
100
AcDbEntity
  8
7
100
AcDbLine
 10
0.2332677165354333
 20
4.922244094488188
 30
0.0
 11
0.2332677165354333
 21
4.93011811023622
 31
0.0
  0
LINE
  5
3735
330
1E
100
AcDbEntity
  8
7
100
AcDbLine
 10
0.2332677165354333
 20
4.93011811023622
 30
0.0
 11
0.2332677165354333
 21
4.933070866141732
 31
0.0
  0
LINE
  5
3736
330
1E
100
AcDbEntity
  8
7
100
AcDbLine
 10
-0.2273622047244093
 20
4.933070866141732
 30
0.0
 11
-0.2273622047244093
 21
4.93011811023622
 31
0.0
  0
LINE
  5
3737
330
1E
100
AcDbEntity
  8
7
100
AcDbLine
 10
-0.2273622047244093
 20
4.93011811023622
 30
0.0
 11
-0.2273622047244093
 21
4.922244094488188
 31
0.0
  0
LINE
  5
3738
330
1E
100
AcDbEntity
  8
7
100
AcDbLine
 10
-0.2273622047244093
 20
4.922244094488188
 30
0.0
 11
-0.2273622047244093
 21
4.893700787401574
 31
0.0
  0
LINE
  5
3739
330
1E
100
AcDbEntity
  8
7
100
AcDbLine
 10
0.4084645669291338
 20
4.933070866141732
 30
0.0
 11
0.4084645669291338
 21
4.93011811023622
 31
0.0
  0
LINE
  5
373A
330
1E
100
AcDbEntity
  8
7
100
AcDbLine
 10
0.4084645669291338
 20
4.93011811023622
 30
0.0
 11
0.4084645669291338
 21
4.922244094488188
 31
0.0
  0
LINE
  5
373B
330
1E
100
AcDbEntity
  8
7
100
AcDbLine
 10
0.4084645669291338
 20
4.922244094488188
 30
0.0
 11
0.4084645669291338
 21
4.893700787401574
 31
0.0
  0
LINE
  5
373C
330
1E
100
AcDbEntity
  8
7
100
AcDbLine
 10
-0.4015748031496061
 20
4.922244094488188
 30
0.0
 11
-0.4015748031496061
 21
4.93011811023622
 31
0.0
  0
LINE
  5
373D
330
1E
100
AcDbEntity
  8
7
100
AcDbLine
 10
-0.4015748031496061
 20
4.93011811023622
 30
0.0
 11
-0.4015748031496061
 21
4.933070866141732
 31
0.0
  0
LINE
  5
373E
330
1E
100
AcDbEntity
  8
7
100
AcDbLine
 10
0.8681102362204725
 20
4.922244094488188
 30
0.0
 11
0.8681102362204725
 21
4.93011811023622
 31
0.0
  0
LINE
  5
373F
330
1E
100
AcDbEntity
  8
7
100
AcDbLine
 10
0.8681102362204725
 20
4.93011811023622
 30
0.0
 11
0.8681102362204725
 21
4.933070866141732
 31
0.0
  0
LINE
  5
3740
330
1E
100
AcDbEntity
  8
7
100
AcDbLine
 10
-0.8622047244094485
 20
4.933070866141732
 30
0.0
 11
-0.8622047244094485
 21
4.93011811023622
 31
0.0
  0
LINE
  5
3741
330
1E
100
AcDbEntity
  8
7
100
AcDbLine
 10
-0.8622047244094485
 20
4.93011811023622
 30
0.0
 11
-0.8622047244094485
 21
4.922244094488188
 31
0.0
  0
LINE
  5
3742
330
1E
100
AcDbEntity
  8
7
100
AcDbLine
 10
-0.8622047244094485
 20
4.922244094488188
 30
0.0
 11
-0.8622047244094485
 21
4.893700787401574
 31
0.0
  0
LINE
  5
3743
330
1E
100
AcDbEntity
  8
7
100
AcDbLine
 10
1.043307086614173
 20
4.933070866141732
 30
0.0
 11
1.043307086614173
 21
4.93011811023622
 31
0.0
  0
LINE
  5
3744
330
1E
100
AcDbEntity
  8
7
100
AcDbLine
 10
1.043307086614173
 20
4.93011811023622
 30
0.0
 11
1.043307086614173
 21
4.922244094488188
 31
0.0
  0
LINE
  5
3745
330
1E
100
AcDbEntity
  8
7
100
AcDbLine
 10
1.043307086614173
 20
4.922244094488188
 30
0.0
 11
1.043307086614173
 21
4.893700787401574
 31
0.0
  0
LINE
  5
3746
330
1E
100
AcDbEntity
  8
7
100
AcDbLine
 10
-1.037401574803149
 20
4.922244094488188
 30
0.0
 11
-1.037401574803149
 21
4.93011811023622
 31
0.0
  0
LINE
  5
3747
330
1E
100
AcDbEntity
  8
7
100
AcDbLine
 10
-1.037401574803149
 20
4.93011811023622
 30
0.0
 11
-1.037401574803149
 21
4.933070866141732
 31
0.0
  0
ENDSEC
  0
SECTION
  2
OBJECTS
  0
DICTIONARY
  5
C
330
0
100
AcDbDictionary
  3
ACAD_GROUP
350
D
  3
ACAD_MLINESTYLE
350
16
  3
ACAD_PLOTSETTINGS
350
18
  3
ACAD_LAYOUT
350
19
1001
ACAD
1000
TREAT_AS_HARD
1070
     0
  0
DICTIONARY
  5
489B
330
1E
100
AcDbDictionary
  3
ACAD_LAYOUTSELFREF
350
489C
  0
DICTIONARY
  5
4899
330
1A
100
AcDbDictionary
  3
ACAD_LAYOUTSELFREF
350
489A
  0
DICTIONARY
  5
D
102
{ACAD_REACTORS
330
C
102
}
330
C
100
AcDbDictionary
1001
ACAD
1000
TREAT_AS_HARD
1070
     0
  0
DICTIONARY
  5
16
102
{ACAD_REACTORS
330
C
102
}
330
C
100
AcDbDictionary
  3
STANDARD
350
17
1001
ACAD
1000
TREAT_AS_HARD
1070
     0
  0
DICTIONARY
  5
18
102
{ACAD_REACTORS
330
C
102
}
330
C
100
AcDbDictionary
1001
ACAD
1000
TREAT_AS_HARD
1070
     0
  0
DICTIONARY
  5
19
102
{ACAD_REACTORS
330
C
102
}
330
C
100
AcDbDictionary
1001
ACAD
1000
TREAT_AS_HARD
1070
     0
  0
XRECORD
  5
489C
102
{ACAD_REACTORS
330
489B
102
}
330
489B
100
AcDbXrecord
340
1E
  0
XRECORD
  5
489A
102
{ACAD_REACTORS
330
4899
102
}
330
4899
100
AcDbXrecord
340
1A
  0
MLINESTYLE
  5
17
102
{ACAD_REACTORS
330
16
102
}
330
16
100
AcDbMlineStyle
  2
STANDARD
 70
     0
  3

 62
   256
 51
90.0
 52
90.0
 71
     2
 49
0.5
 62
   256
  6
BYLAYER
 49
-0.5
 62
   256
  6
BYLAYER
  0
ENDSEC
  0
EOF
