  0
SECTION
  2
HEADER
  9
$ACADVER
  1
AC1012
  9
$DWGCODEPAGE
  3
ANSI_1252
  9
$INSBASE
 10
0.0
 20
0.0
 30
0.0
  9
$EXTMIN
 10
1.189819365262309
 20
4.049560572544066
 30
-0.0000000000112498
  9
$EXTMAX
 10
5.977111837334362
 20
5.843765276069479
 30
0.0000000000002956
  9
$LIMMIN
 10
0.0
 20
0.0
  9
$LIMMAX
 10
12.0
 20
9.0
  9
$ORTHOMODE
 70
     0
  9
$REGENMODE
 70
     1
  9
$FILLMODE
 70
     1
  9
$QTEXTMODE
 70
     0
  9
$MIRRTEXT
 70
     1
  9
$DRAGMODE
 70
     2
  9
$LTSCALE
 40
1.0
  9
$OSMODE
 70
    33
  9
$ATTMODE
 70
     1
  9
$TEXTSIZE
 40
0.2
  9
$TRACEWID
 40
0.05
  9
$TEXTSTYLE
  7
STANDARD
  9
$CLAYER
  8
0
  9
$CELTYPE
  6
BYLAYER
  9
$CECOLOR
 62
   256
  9
$CELTSCALE
 40
1.0
  9
$DELOBJ
 70
     1
  9
$DISPSILH
 70
     0
  9
$DIMSCALE
 40
1.0
  9
$DIMASZ
 40
0.18
  9
$DIMEXO
 40
0.0625
  9
$DIMDLI
 40
0.38
  9
$DIMRND
 40
0.0
  9
$DIMDLE
 40
0.0
  9
$DIMEXE
 40
0.18
  9
$DIMTP
 40
0.0
  9
$DIMTM
 40
0.0
  9
$DIMTXT
 40
0.18
  9
$DIMCEN
 40
0.09
  9
$DIMTSZ
 40
0.0
  9
$DIMTOL
 70
     0
  9
$DIMLIM
 70
     0
  9
$DIMTIH
 70
     1
  9
$DIMTOH
 70
     1
  9
$DIMSE1
 70
     0
  9
$DIMSE2
 70
     0
  9
$DIMTAD
 70
     0
  9
$DIMZIN
 70
     0
  9
$DIMBLK
  1

  9
$DIMASO
 70
     1
  9
$DIMSHO
 70
     1
  9
$DIMPOST
  1

  9
$DIMAPOST
  1

  9
$DIMALT
 70
     0
  9
$DIMALTD
 70
     2
  9
$DIMALTF
 40
25.4
  9
$DIMLFAC
 40
1.0
  9
$DIMTOFL
 70
     0
  9
$DIMTVP
 40
0.0
  9
$DIMTIX
 70
     0
  9
$DIMSOXD
 70
     0
  9
$DIMSAH
 70
     0
  9
$DIMBLK1
  1

  9
$DIMBLK2
  1

  9
$DIMSTYLE
  2
STANDARD
  9
$DIMCLRD
 70
     0
  9
$DIMCLRE
 70
     0
  9
$DIMCLRT
 70
     0
  9
$DIMTFAC
 40
1.0
  9
$DIMGAP
 40
0.09
  9
$DIMJUST
 70
     0
  9
$DIMSD1
 70
     0
  9
$DIMSD2
 70
     0
  9
$DIMTOLJ
 70
     1
  9
$DIMTZIN
 70
     0
  9
$DIMALTZ
 70
     0
  9
$DIMALTTZ
 70
     0
  9
$DIMFIT
 70
     5
  9
$DIMUPT
 70
     0
  9
$DIMUNIT
 70
     2
  9
$DIMDEC
 70
     4
  9
$DIMTDEC
 70
     4
  9
$DIMALTU
 70
     2
  9
$DIMALTTD
 70
     2
  9
$DIMTXSTY
  7
STANDARD
  9
$DIMAUNIT
 70
     0
  9
$LUNITS
 70
     2
  9
$LUPREC
 70
     4
  9
$SKETCHINC
 40
0.1
  9
$FILLETRAD
 40
0.0
  9
$AUNITS
 70
     0
  9
$AUPREC
 70
     0
  9
$MENU
  1
acad
  9
$ELEVATION
 40
0.0
  9
$PELEVATION
 40
0.0
  9
$THICKNESS
 40
0.0
  9
$LIMCHECK
 70
     0
  9
$BLIPMODE
 70
     0
  9
$CHAMFERA
 40
0.0
  9
$CHAMFERB
 40
0.0
  9
$CHAMFERC
 40
0.0
  9
$CHAMFERD
 40
0.0
  9
$SKPOLY
 70
     0
  9
$TDCREATE
 40
2452152.339328704
  9
$TDUPDATE
 40
2452338.584133981
  9
$TDINDWG
 40
0.0011812731
  9
$TDUSRTIMER
 40
0.0011812731
  9
$USRTIMER
 70
     1
  9
$ANGBASE
 50
0.0
  9
$ANGDIR
 70
     0
  9
$PDMODE
 70
     0
  9
$PDSIZE
 40
0.0
  9
$PLINEWID
 40
0.0
  9
$COORDS
 70
     2
  9
$SPLFRAME
 70
     0
  9
$SPLINETYPE
 70
     6
  9
$SPLINESEGS
 70
     8
  9
$ATTDIA
 70
     0
  9
$ATTREQ
 70
     1
  9
$HANDLING
 70
  4097
  9
$HANDSEED
  5
4FA6
  9
$SURFTAB1
 70
     6
  9
$SURFTAB2
 70
     6
  9
$SURFTYPE
 70
     6
  9
$SURFU
 70
     6
  9
$SURFV
 70
     6
  9
$UCSNAME
  2

  9
$UCSORG
 10
0.0
 20
0.0
 30
0.0
  9
$UCSXDIR
 10
1.0
 20
0.0
 30
0.0
  9
$UCSYDIR
 10
0.0
 20
1.0
 30
0.0
  9
$PUCSNAME
  2

  9
$PUCSORG
 10
0.0
 20
0.0
 30
0.0
  9
$PUCSXDIR
 10
1.0
 20
0.0
 30
0.0
  9
$PUCSYDIR
 10
0.0
 20
1.0
 30
0.0
  9
$USERI1
 70
     0
  9
$USERI2
 70
     0
  9
$USERI3
 70
     0
  9
$USERI4
 70
     0
  9
$USERI5
 70
     0
  9
$USERR1
 40
0.0
  9
$USERR2
 40
0.0
  9
$USERR3
 40
0.0
  9
$USERR4
 40
0.0
  9
$USERR5
 40
0.0
  9
$WORLDVIEW
 70
     1
  9
$SHADEDGE
 70
     3
  9
$SHADEDIF
 70
    70
  9
$TILEMODE
 70
     1
  9
$MAXACTVP
 70
    16
  9
$PINSBASE
 10
0.0
 20
0.0
 30
0.0
  9
$PLIMCHECK
 70
     0
  9
$PEXTMIN
 10
1.000000000000000E+20
 20
1.000000000000000E+20
 30
1.000000000000000E+20
  9
$PEXTMAX
 10
-1.000000000000000E+20
 20
-1.000000000000000E+20
 30
-1.000000000000000E+20
  9
$PLIMMIN
 10
0.0
 20
0.0
  9
$PLIMMAX
 10
12.0
 20
9.0
  9
$UNITMODE
 70
     0
  9
$VISRETAIN
 70
     0
  9
$PLINEGEN
 70
     0
  9
$PSLTSCALE
 70
     1
  9
$TREEDEPTH
 70
  3020
  9
$PICKSTYLE
 70
     1
  9
$CMLSTYLE
  2
STANDARD
  9
$CMLJUST
 70
     0
  9
$CMLSCALE
 40
1.0
  9
$SAVEIMAGES
 70
     1
  0
ENDSEC
  0
SECTION
  2
CLASSES
  0
CLASS
  1
ACDBDICTIONARYWDFLT
  2
AcDbDictionaryWithDefault
  3
AutoCAD 2000
 90
    32768
280
     0
281
     0
  0
CLASS
  1
ACDBPLACEHOLDER
  2
AcDbPlaceHolder
  3
AutoCAD 2000
 90
    32768
280
     0
281
     0
  0
CLASS
  1
LAYOUT
  2
AcDbLayout
  3
AutoCAD 2000
 90
    32768
280
     0
281
     0
  0
CLASS
  1
LONG_TRANSACTION
  2
AcDbLongTransaction
  3
AutoCAD 2000
 90
    32768
280
     0
281
     0
  0
CLASS
  1
LWPOLYLINE
  2
AcDbPolyline
  3
AutoCAD 2000
 90
    32768
280
     0
281
     1
  0
CLASS
  1
HATCH
  2
AcDbHatch
  3
AutoCAD 2000
 90
    32768
280
     0
281
     1
  0
CLASS
  1
XRECORD
  2
AcDbXrecord
  3
AutoCAD 2000
 90
    32768
280
     0
281
     0
  0
CLASS
  1
LONG_TRANSACTION
  2
AcDbLongTransaction
  3
AutoCAD 2000
 90
    32768
280
     0
281
     0
  0
CLASS
  1
LWPOLYLINE
  2
AcDbPolyline
  3
AutoCAD 2000
 90
    32768
280
     0
281
     1
  0
CLASS
  1
HATCH
  2
AcDbHatch
  3
AutoCAD 2000
 90
    32768
280
     0
281
     1
  0
CLASS
  1
XRECORD
  2
AcDbXrecord
  3
AutoCAD 2000
 90
    32768
280
     0
281
     0
  0
CLASS
  1
LONG_TRANSACTION
  2
AcDbLongTransaction
  3
AutoCAD 2000
 90
    32768
280
     0
281
     0
  0
CLASS
  1
LWPOLYLINE
  2
AcDbPolyline
  3
AutoCAD 2000
 90
    32768
280
     0
281
     1
  0
CLASS
  1
HATCH
  2
AcDbHatch
  3
AutoCAD 2000
 90
    32768
280
     0
281
     1
  0
CLASS
  1
XRECORD
  2
AcDbXrecord
  3
AutoCAD 2000
 90
    32768
280
     0
281
     0
  0
ENDSEC
  0
SECTION
  2
TABLES
  0
TABLE
  2
VPORT
  5
8
330
0
100
AcDbSymbolTable
 70
     3
  0
VPORT
  5
4FA3
330
8
100
AcDbSymbolTableRecord
100
AcDbViewportTableRecord
  2
*ACTIVE
 70
     0
 10
0.0
 20
0.0
 11
1.0
 21
1.0
 12
3.583465601298335
 22
4.946662924306773
 13
0.0
 23
0.0
 14
1.0
 24
1.0
 15
0.0
 25
0.0
 16
0.0
 26
0.0
 36
1.0
 17
0.0
 27
0.0
 37
0.0
 40
3.003312360632448
 41
1.601839684625492
 42
50.0
 43
0.0
 44
0.0
 50
0.0
 51
0.0
 71
     0
 72
   100
 73
     1
 74
     1
 75
     0
 76
     0
 77
     0
 78
     0
  0
ENDTAB
  0
TABLE
  2
LTYPE
  5
5
330
0
100
AcDbSymbolTable
 70
    25
  0
LTYPE
  5
13
330
5
100
AcDbSymbolTableRecord
100
AcDbLinetypeTableRecord
  2
BYBLOCK
 70
     0
  3

 72
    65
 73
     0
 40
0.0
  0
LTYPE
  5
14
330
5
100
AcDbSymbolTableRecord
100
AcDbLinetypeTableRecord
  2
BYLAYER
 70
     0
  3

 72
    65
 73
     0
 40
0.0
  0
LTYPE
  5
15
330
5
100
AcDbSymbolTableRecord
100
AcDbLinetypeTableRecord
  2
CONTINUOUS
 70
     0
  3
Solid line
 72
    65
 73
     0
 40
0.0
  0
LTYPE
  5
22
330
5
100
AcDbSymbolTableRecord
100
AcDbLinetypeTableRecord
  2
BORDER
 70
     0
  3
__ __ . __ __ . __ __ . __ __ . __ __ . __ __ .
 72
    65
 73
     6
 40
1.75
 49
0.5
 74
     0
 49
-0.25
 74
     0
 49
0.5
 74
     0
 49
-0.25
 74
     0
 49
0.5
 74
     0
 49
-0.25
 74
     0
  0
LTYPE
  5
23
330
5
100
AcDbSymbolTableRecord
100
AcDbLinetypeTableRecord
  2
BORDER2
 70
     0
  3
__.__.__.__.__.__.__.__.__.__.__.__.__.__.__.__
 72
    65
 73
     6
 40
0.875
 49
0.25
 74
     0
 49
-0.125
 74
     0
 49
0.25
 74
     0
 49
-0.125
 74
     0
 49
0.25
 74
     0
 49
-0.125
 74
     0
  0
LTYPE
  5
24
330
5
100
AcDbSymbolTableRecord
100
AcDbLinetypeTableRecord
  2
BORDERX2
 70
     0
  3
____  ____  .  ____  ____  .  
 72
    65
 73
     6
 40
3.5
 49
1.0
 74
     0
 49
-0.5
 74
     0
 49
1.0
 74
     0
 49
-0.5
 74
     0
 49
1.0
 74
     0
 49
-0.5
 74
     0
  0
LTYPE
  5
25
330
5
100
AcDbSymbolTableRecord
100
AcDbLinetypeTableRecord
  2
CENTER
 70
     0
  3
____ _ ____ _ ____ _ ____ _ ____ _ ____ _ ____
 72
    65
 73
     4
 40
2.0
 49
1.25
 74
     0
 49
-0.25
 74
     0
 49
0.25
 74
     0
 49
-0.25
 74
     0
  0
LTYPE
  5
26
330
5
100
AcDbSymbolTableRecord
100
AcDbLinetypeTableRecord
  2
CENTER2
 70
     0
  3
____ _ ____ _ ____ _ ____ _ ____ _ ____ _ ____
 72
    65
 73
     4
 40
1.125
 49
0.75
 74
     0
 49
-0.125
 74
     0
 49
0.125
 74
     0
 49
-0.125
 74
     0
  0
LTYPE
  5
27
330
5
100
AcDbSymbolTableRecord
100
AcDbLinetypeTableRecord
  2
CENTERX2
 70
     0
  3
________  __  ________  __  ________  __  
 72
    65
 73
     4
 40
4.0
 49
2.5
 74
     0
 49
-0.5
 74
     0
 49
0.5
 74
     0
 49
-0.5
 74
     0
  0
LTYPE
  5
28
330
5
100
AcDbSymbolTableRecord
100
AcDbLinetypeTableRecord
  2
DASHDOT
 70
     0
  3
__ . __ . __ . __ . __ . __ . __ . 
 72
    65
 73
     4
 40
1.0
 49
0.5
 74
     0
 49
-0.25
 74
     0
 49
0.0
 74
     0
 49
-0.25
 74
     0
  0
LTYPE
  5
29
330
5
100
AcDbSymbolTableRecord
100
AcDbLinetypeTableRecord
  2
DASHDOT2
 70
     0
  3
_._._._._._._._._._._._._._._._.
 72
    65
 73
     4
 40
0.5
 49
0.25
 74
     0
 49
-0.125
 74
     0
 49
0.0
 74
     0
 49
-0.125
 74
     0
  0
LTYPE
  5
2A
330
5
100
AcDbSymbolTableRecord
100
AcDbLinetypeTableRecord
  2
DASHDOTX2
 70
     0
  3
____  .  ____  .  ____  .  ____  .  
 72
    65
 73
     4
 40
2.0
 49
1.0
 74
     0
 49
-0.5
 74
     0
 49
0.0
 74
     0
 49
-0.5
 74
     0
  0
LTYPE
  5
2B
330
5
100
AcDbSymbolTableRecord
100
AcDbLinetypeTableRecord
  2
DASHED
 70
     0
  3
__ __ __ __ __ __ __ __ __ __ __ __ 
 72
    65
 73
     2
 40
0.75
 49
0.5
 74
     0
 49
-0.25
 74
     0
  0
LTYPE
  5
2C
330
5
100
AcDbSymbolTableRecord
100
AcDbLinetypeTableRecord
  2
DASHED2
 70
     0
  3
_ _ _ _ _ _ _ _ _ _ _ _ _ _ _ _ _ _ 
 72
    65
 73
     2
 40
0.375
 49
0.25
 74
     0
 49
-0.125
 74
     0
  0
LTYPE
  5
2D
330
5
100
AcDbSymbolTableRecord
100
AcDbLinetypeTableRecord
  2
DASHEDX2
 70
     0
  3
____  ____  ____  ____  ____  ____  
 72
    65
 73
     2
 40
1.5
 49
1.0
 74
     0
 49
-0.5
 74
     0
  0
LTYPE
  5
2E
330
5
100
AcDbSymbolTableRecord
100
AcDbLinetypeTableRecord
  2
DIVIDE
 70
     0
  3
____ . . ____ . . ____ . . ____ . . 
 72
    65
 73
     6
 40
1.25
 49
0.5
 74
     0
 49
-0.25
 74
     0
 49
0.0
 74
     0
 49
-0.25
 74
     0
 49
0.0
 74
     0
 49
-0.25
 74
     0
  0
LTYPE
  5
2F
330
5
100
AcDbSymbolTableRecord
100
AcDbLinetypeTableRecord
  2
DIVIDE2
 70
     0
  3
__..__..__..__..__..__..__..__..__..
 72
    65
 73
     6
 40
0.625
 49
0.25
 74
     0
 49
-0.125
 74
     0
 49
0.0
 74
     0
 49
-0.125
 74
     0
 49
0.0
 74
     0
 49
-0.125
 74
     0
  0
LTYPE
  5
30
330
5
100
AcDbSymbolTableRecord
100
AcDbLinetypeTableRecord
  2
DIVIDEX2
 70
     0
  3
________  .  .  ________  .  .  ________  .  . 
 72
    65
 73
     6
 40
2.5
 49
1.0
 74
     0
 49
-0.5
 74
     0
 49
0.0
 74
     0
 49
-0.5
 74
     0
 49
0.0
 74
     0
 49
-0.5
 74
     0
  0
LTYPE
  5
31
330
5
100
AcDbSymbolTableRecord
100
AcDbLinetypeTableRecord
  2
DOT
 70
     0
  3
. . . . . . . . . . . . . . . . . . 
 72
    65
 73
     2
 40
0.25
 49
0.0
 74
     0
 49
-0.25
 74
     0
  0
LTYPE
  5
32
330
5
100
AcDbSymbolTableRecord
100
AcDbLinetypeTableRecord
  2
DOT2
 70
     0
  3
....................................
 72
    65
 73
     2
 40
0.125
 49
0.0
 74
     0
 49
-0.125
 74
     0
  0
LTYPE
  5
33
330
5
100
AcDbSymbolTableRecord
100
AcDbLinetypeTableRecord
  2
DOTX2
 70
     0
  3
.  .  .  .  .  .  .  .  .  .  .  .  .  
 72
    65
 73
     2
 40
0.5
 49
0.0
 74
     0
 49
-0.5
 74
     0
  0
LTYPE
  5
34
330
5
100
AcDbSymbolTableRecord
100
AcDbLinetypeTableRecord
  2
HIDDEN
 70
     0
  3
__ __ __ __ __ __ __ __ __ __ __ __ 
 72
    65
 73
     2
 40
0.375
 49
0.25
 74
     0
 49
-0.125
 74
     0
  0
LTYPE
  5
35
330
5
100
AcDbSymbolTableRecord
100
AcDbLinetypeTableRecord
  2
HIDDEN2
 70
     0
  3
_ _ _ _ _ _ _ _ _ _ _ _ _ _ _ _ _ _ 
 72
    65
 73
     2
 40
0.1875
 49
0.125
 74
     0
 49
-0.0625
 74
     0
  0
LTYPE
  5
36
330
5
100
AcDbSymbolTableRecord
100
AcDbLinetypeTableRecord
  2
HIDDENX2
 70
     0
  3
____ ____ ____ ____ ____ ____ ____ 
 72
    65
 73
     2
 40
0.75
 49
0.5
 74
     0
 49
-0.25
 74
     0
  0
LTYPE
  5
37
330
5
100
AcDbSymbolTableRecord
100
AcDbLinetypeTableRecord
  2
PHANTOM
 70
     0
  3
______  __  __  ______  __  __  
 72
    65
 73
     6
 40
2.5
 49
1.25
 74
     0
 49
-0.25
 74
     0
 49
0.25
 74
     0
 49
-0.25
 74
     0
 49
0.25
 74
     0
 49
-0.25
 74
     0
  0
LTYPE
  5
38
330
5
100
AcDbSymbolTableRecord
100
AcDbLinetypeTableRecord
  2
PHANTOM2
 70
     0
  3
___ _ _ ___ _ _ ___ _ _ ___ _ _ 
 72
    65
 73
     6
 40
1.25
 49
0.625
 74
     0
 49
-0.125
 74
     0
 49
0.125
 74
     0
 49
-0.125
 74
     0
 49
0.125
 74
     0
 49
-0.125
 74
     0
  0
LTYPE
  5
39
330
5
100
AcDbSymbolTableRecord
100
AcDbLinetypeTableRecord
  2
PHANTOMX2
 70
     0
  3
___ _ _ ___ _ _ ___ _ _ ___ _ _ 
 72
    65
 73
     6
 40
5.0
 49
2.5
 74
     0
 49
-0.5
 74
     0
 49
0.5
 74
     0
 49
-0.5
 74
     0
 49
0.5
 74
     0
 49
-0.5
 74
     0
  0
ENDTAB
  0
TABLE
  2
LAYER
  5
2
330
0
100
AcDbSymbolTable
 70
   257
  0
LAYER
  5
10
330
2
100
AcDbSymbolTableRecord
100
AcDbLayerTableRecord
  2
0
 70
     0
 62
     7
  6
CONTINUOUS
  0
LAYER
  5
3A
330
2
100
AcDbSymbolTableRecord
100
AcDbLayerTableRecord
  2
1
 70
     0
 62
     1
  6
CONTINUOUS
  0
LAYER
  5
3B
330
2
100
AcDbSymbolTableRecord
100
AcDbLayerTableRecord
  2
2
 70
     0
 62
     2
  6
CONTINUOUS
  0
LAYER
  5
3C
330
2
100
AcDbSymbolTableRecord
100
AcDbLayerTableRecord
  2
3
 70
     0
 62
     3
  6
CONTINUOUS
  0
LAYER
  5
3D
330
2
100
AcDbSymbolTableRecord
100
AcDbLayerTableRecord
  2
4
 70
     0
 62
     4
  6
CONTINUOUS
  0
LAYER
  5
3E
330
2
100
AcDbSymbolTableRecord
100
AcDbLayerTableRecord
  2
5
 70
     0
 62
     5
  6
CONTINUOUS
  0
LAYER
  5
3F
330
2
100
AcDbSymbolTableRecord
100
AcDbLayerTableRecord
  2
6
 70
     0
 62
     6
  6
CONTINUOUS
  0
LAYER
  5
40
330
2
100
AcDbSymbolTableRecord
100
AcDbLayerTableRecord
  2
7
 70
     0
 62
     7
  6
CONTINUOUS
  0
LAYER
  5
41
330
2
100
AcDbSymbolTableRecord
100
AcDbLayerTableRecord
  2
8
 70
     0
 62
     8
  6
CONTINUOUS
  0
LAYER
  5
42
330
2
100
AcDbSymbolTableRecord
100
AcDbLayerTableRecord
  2
9
 70
     0
 62
     9
  6
CONTINUOUS
  0
LAYER
  5
43
330
2
100
AcDbSymbolTableRecord
100
AcDbLayerTableRecord
  2
10
 70
     0
 62
    10
  6
CONTINUOUS
  0
LAYER
  5
44
330
2
100
AcDbSymbolTableRecord
100
AcDbLayerTableRecord
  2
11
 70
     0
 62
    11
  6
CONTINUOUS
  0
LAYER
  5
45
330
2
100
AcDbSymbolTableRecord
100
AcDbLayerTableRecord
  2
12
 70
     0
 62
    12
  6
CONTINUOUS
  0
LAYER
  5
46
330
2
100
AcDbSymbolTableRecord
100
AcDbLayerTableRecord
  2
13
 70
     0
 62
    13
  6
CONTINUOUS
  0
LAYER
  5
47
330
2
100
AcDbSymbolTableRecord
100
AcDbLayerTableRecord
  2
14
 70
     0
 62
    14
  6
CONTINUOUS
  0
LAYER
  5
48
330
2
100
AcDbSymbolTableRecord
100
AcDbLayerTableRecord
  2
15
 70
     0
 62
    15
  6
CONTINUOUS
  0
LAYER
  5
49
330
2
100
AcDbSymbolTableRecord
100
AcDbLayerTableRecord
  2
16
 70
     0
 62
    16
  6
CONTINUOUS
  0
LAYER
  5
4A
330
2
100
AcDbSymbolTableRecord
100
AcDbLayerTableRecord
  2
17
 70
     0
 62
    17
  6
CONTINUOUS
  0
LAYER
  5
4B
330
2
100
AcDbSymbolTableRecord
100
AcDbLayerTableRecord
  2
18
 70
     0
 62
    18
  6
CONTINUOUS
  0
LAYER
  5
4C
330
2
100
AcDbSymbolTableRecord
100
AcDbLayerTableRecord
  2
19
 70
     0
 62
    19
  6
CONTINUOUS
  0
LAYER
  5
4D
330
2
100
AcDbSymbolTableRecord
100
AcDbLayerTableRecord
  2
20
 70
     0
 62
    20
  6
CONTINUOUS
  0
LAYER
  5
4E
330
2
100
AcDbSymbolTableRecord
100
AcDbLayerTableRecord
  2
21
 70
     0
 62
    21
  6
CONTINUOUS
  0
LAYER
  5
4F
330
2
100
AcDbSymbolTableRecord
100
AcDbLayerTableRecord
  2
22
 70
     0
 62
    22
  6
CONTINUOUS
  0
LAYER
  5
50
330
2
100
AcDbSymbolTableRecord
100
AcDbLayerTableRecord
  2
23
 70
     0
 62
    23
  6
CONTINUOUS
  0
LAYER
  5
51
330
2
100
AcDbSymbolTableRecord
100
AcDbLayerTableRecord
  2
24
 70
     0
 62
    24
  6
CONTINUOUS
  0
LAYER
  5
52
330
2
100
AcDbSymbolTableRecord
100
AcDbLayerTableRecord
  2
25
 70
     0
 62
    25
  6
CONTINUOUS
  0
LAYER
  5
53
330
2
100
AcDbSymbolTableRecord
100
AcDbLayerTableRecord
  2
26
 70
     0
 62
    26
  6
CONTINUOUS
  0
LAYER
  5
54
330
2
100
AcDbSymbolTableRecord
100
AcDbLayerTableRecord
  2
27
 70
     0
 62
    27
  6
CONTINUOUS
  0
LAYER
  5
55
330
2
100
AcDbSymbolTableRecord
100
AcDbLayerTableRecord
  2
28
 70
     0
 62
    28
  6
CONTINUOUS
  0
LAYER
  5
56
330
2
100
AcDbSymbolTableRecord
100
AcDbLayerTableRecord
  2
29
 70
     0
 62
    29
  6
CONTINUOUS
  0
LAYER
  5
57
330
2
100
AcDbSymbolTableRecord
100
AcDbLayerTableRecord
  2
30
 70
     0
 62
    30
  6
CONTINUOUS
  0
LAYER
  5
58
330
2
100
AcDbSymbolTableRecord
100
AcDbLayerTableRecord
  2
31
 70
     0
 62
    31
  6
CONTINUOUS
  0
LAYER
  5
59
330
2
100
AcDbSymbolTableRecord
100
AcDbLayerTableRecord
  2
32
 70
     0
 62
    32
  6
CONTINUOUS
  0
LAYER
  5
5A
330
2
100
AcDbSymbolTableRecord
100
AcDbLayerTableRecord
  2
33
 70
     0
 62
    33
  6
CONTINUOUS
  0
LAYER
  5
5B
330
2
100
AcDbSymbolTableRecord
100
AcDbLayerTableRecord
  2
34
 70
     0
 62
    34
  6
CONTINUOUS
  0
LAYER
  5
5C
330
2
100
AcDbSymbolTableRecord
100
AcDbLayerTableRecord
  2
35
 70
     0
 62
    35
  6
CONTINUOUS
  0
LAYER
  5
5D
330
2
100
AcDbSymbolTableRecord
100
AcDbLayerTableRecord
  2
36
 70
     0
 62
    36
  6
CONTINUOUS
  0
LAYER
  5
5E
330
2
100
AcDbSymbolTableRecord
100
AcDbLayerTableRecord
  2
37
 70
     0
 62
    37
  6
CONTINUOUS
  0
LAYER
  5
5F
330
2
100
AcDbSymbolTableRecord
100
AcDbLayerTableRecord
  2
38
 70
     0
 62
    38
  6
CONTINUOUS
  0
LAYER
  5
60
330
2
100
AcDbSymbolTableRecord
100
AcDbLayerTableRecord
  2
39
 70
     0
 62
    39
  6
CONTINUOUS
  0
LAYER
  5
61
330
2
100
AcDbSymbolTableRecord
100
AcDbLayerTableRecord
  2
40
 70
     0
 62
    40
  6
CONTINUOUS
  0
LAYER
  5
62
330
2
100
AcDbSymbolTableRecord
100
AcDbLayerTableRecord
  2
41
 70
     0
 62
    41
  6
CONTINUOUS
  0
LAYER
  5
63
330
2
100
AcDbSymbolTableRecord
100
AcDbLayerTableRecord
  2
42
 70
     0
 62
    42
  6
CONTINUOUS
  0
LAYER
  5
64
330
2
100
AcDbSymbolTableRecord
100
AcDbLayerTableRecord
  2
43
 70
     0
 62
    43
  6
CONTINUOUS
  0
LAYER
  5
65
330
2
100
AcDbSymbolTableRecord
100
AcDbLayerTableRecord
  2
44
 70
     0
 62
    44
  6
CONTINUOUS
  0
LAYER
  5
66
330
2
100
AcDbSymbolTableRecord
100
AcDbLayerTableRecord
  2
45
 70
     0
 62
    45
  6
CONTINUOUS
  0
LAYER
  5
67
330
2
100
AcDbSymbolTableRecord
100
AcDbLayerTableRecord
  2
46
 70
     0
 62
    46
  6
CONTINUOUS
  0
LAYER
  5
68
330
2
100
AcDbSymbolTableRecord
100
AcDbLayerTableRecord
  2
47
 70
     0
 62
    47
  6
CONTINUOUS
  0
LAYER
  5
69
330
2
100
AcDbSymbolTableRecord
100
AcDbLayerTableRecord
  2
48
 70
     0
 62
    48
  6
CONTINUOUS
  0
LAYER
  5
6A
330
2
100
AcDbSymbolTableRecord
100
AcDbLayerTableRecord
  2
49
 70
     0
 62
    49
  6
CONTINUOUS
  0
LAYER
  5
6B
330
2
100
AcDbSymbolTableRecord
100
AcDbLayerTableRecord
  2
50
 70
     0
 62
    50
  6
CONTINUOUS
  0
LAYER
  5
6C
330
2
100
AcDbSymbolTableRecord
100
AcDbLayerTableRecord
  2
51
 70
     0
 62
    51
  6
CONTINUOUS
  0
LAYER
  5
6D
330
2
100
AcDbSymbolTableRecord
100
AcDbLayerTableRecord
  2
52
 70
     0
 62
    52
  6
CONTINUOUS
  0
LAYER
  5
6E
330
2
100
AcDbSymbolTableRecord
100
AcDbLayerTableRecord
  2
53
 70
     0
 62
    53
  6
CONTINUOUS
  0
LAYER
  5
6F
330
2
100
AcDbSymbolTableRecord
100
AcDbLayerTableRecord
  2
54
 70
     0
 62
    54
  6
CONTINUOUS
  0
LAYER
  5
70
330
2
100
AcDbSymbolTableRecord
100
AcDbLayerTableRecord
  2
55
 70
     0
 62
    55
  6
CONTINUOUS
  0
LAYER
  5
71
330
2
100
AcDbSymbolTableRecord
100
AcDbLayerTableRecord
  2
56
 70
     0
 62
    56
  6
CONTINUOUS
  0
LAYER
  5
72
330
2
100
AcDbSymbolTableRecord
100
AcDbLayerTableRecord
  2
57
 70
     0
 62
    57
  6
CONTINUOUS
  0
LAYER
  5
73
330
2
100
AcDbSymbolTableRecord
100
AcDbLayerTableRecord
  2
58
 70
     0
 62
    58
  6
CONTINUOUS
  0
LAYER
  5
74
330
2
100
AcDbSymbolTableRecord
100
AcDbLayerTableRecord
  2
59
 70
     0
 62
    59
  6
CONTINUOUS
  0
LAYER
  5
75
330
2
100
AcDbSymbolTableRecord
100
AcDbLayerTableRecord
  2
60
 70
     0
 62
    60
  6
CONTINUOUS
  0
LAYER
  5
76
330
2
100
AcDbSymbolTableRecord
100
AcDbLayerTableRecord
  2
61
 70
     0
 62
    61
  6
CONTINUOUS
  0
LAYER
  5
77
330
2
100
AcDbSymbolTableRecord
100
AcDbLayerTableRecord
  2
62
 70
     0
 62
    62
  6
CONTINUOUS
  0
LAYER
  5
78
330
2
100
AcDbSymbolTableRecord
100
AcDbLayerTableRecord
  2
63
 70
     0
 62
    63
  6
CONTINUOUS
  0
LAYER
  5
79
330
2
100
AcDbSymbolTableRecord
100
AcDbLayerTableRecord
  2
64
 70
     0
 62
    64
  6
CONTINUOUS
  0
LAYER
  5
7A
330
2
100
AcDbSymbolTableRecord
100
AcDbLayerTableRecord
  2
65
 70
     0
 62
    65
  6
CONTINUOUS
  0
LAYER
  5
7B
330
2
100
AcDbSymbolTableRecord
100
AcDbLayerTableRecord
  2
66
 70
     0
 62
    66
  6
CONTINUOUS
  0
LAYER
  5
7C
330
2
100
AcDbSymbolTableRecord
100
AcDbLayerTableRecord
  2
67
 70
     0
 62
    67
  6
CONTINUOUS
  0
LAYER
  5
7D
330
2
100
AcDbSymbolTableRecord
100
AcDbLayerTableRecord
  2
68
 70
     0
 62
    68
  6
CONTINUOUS
  0
LAYER
  5
7E
330
2
100
AcDbSymbolTableRecord
100
AcDbLayerTableRecord
  2
69
 70
     0
 62
    69
  6
CONTINUOUS
  0
LAYER
  5
7F
330
2
100
AcDbSymbolTableRecord
100
AcDbLayerTableRecord
  2
70
 70
     0
 62
    70
  6
CONTINUOUS
  0
LAYER
  5
80
330
2
100
AcDbSymbolTableRecord
100
AcDbLayerTableRecord
  2
71
 70
     0
 62
    71
  6
CONTINUOUS
  0
LAYER
  5
81
330
2
100
AcDbSymbolTableRecord
100
AcDbLayerTableRecord
  2
72
 70
     0
 62
    72
  6
CONTINUOUS
  0
LAYER
  5
82
330
2
100
AcDbSymbolTableRecord
100
AcDbLayerTableRecord
  2
73
 70
     0
 62
    73
  6
CONTINUOUS
  0
LAYER
  5
83
330
2
100
AcDbSymbolTableRecord
100
AcDbLayerTableRecord
  2
74
 70
     0
 62
    74
  6
CONTINUOUS
  0
LAYER
  5
84
330
2
100
AcDbSymbolTableRecord
100
AcDbLayerTableRecord
  2
75
 70
     0
 62
    75
  6
CONTINUOUS
  0
LAYER
  5
85
330
2
100
AcDbSymbolTableRecord
100
AcDbLayerTableRecord
  2
76
 70
     0
 62
    76
  6
CONTINUOUS
  0
LAYER
  5
86
330
2
100
AcDbSymbolTableRecord
100
AcDbLayerTableRecord
  2
77
 70
     0
 62
    77
  6
CONTINUOUS
  0
LAYER
  5
87
330
2
100
AcDbSymbolTableRecord
100
AcDbLayerTableRecord
  2
78
 70
     0
 62
    78
  6
CONTINUOUS
  0
LAYER
  5
88
330
2
100
AcDbSymbolTableRecord
100
AcDbLayerTableRecord
  2
79
 70
     0
 62
    79
  6
CONTINUOUS
  0
LAYER
  5
89
330
2
100
AcDbSymbolTableRecord
100
AcDbLayerTableRecord
  2
80
 70
     0
 62
    80
  6
CONTINUOUS
  0
LAYER
  5
8A
330
2
100
AcDbSymbolTableRecord
100
AcDbLayerTableRecord
  2
81
 70
     0
 62
    81
  6
CONTINUOUS
  0
LAYER
  5
8B
330
2
100
AcDbSymbolTableRecord
100
AcDbLayerTableRecord
  2
82
 70
     0
 62
    82
  6
CONTINUOUS
  0
LAYER
  5
8C
330
2
100
AcDbSymbolTableRecord
100
AcDbLayerTableRecord
  2
83
 70
     0
 62
    83
  6
CONTINUOUS
  0
LAYER
  5
8D
330
2
100
AcDbSymbolTableRecord
100
AcDbLayerTableRecord
  2
84
 70
     0
 62
    84
  6
CONTINUOUS
  0
LAYER
  5
8E
330
2
100
AcDbSymbolTableRecord
100
AcDbLayerTableRecord
  2
85
 70
     0
 62
    85
  6
CONTINUOUS
  0
LAYER
  5
8F
330
2
100
AcDbSymbolTableRecord
100
AcDbLayerTableRecord
  2
86
 70
     0
 62
    86
  6
CONTINUOUS
  0
LAYER
  5
90
330
2
100
AcDbSymbolTableRecord
100
AcDbLayerTableRecord
  2
87
 70
     0
 62
    87
  6
CONTINUOUS
  0
LAYER
  5
91
330
2
100
AcDbSymbolTableRecord
100
AcDbLayerTableRecord
  2
88
 70
     0
 62
    88
  6
CONTINUOUS
  0
LAYER
  5
92
330
2
100
AcDbSymbolTableRecord
100
AcDbLayerTableRecord
  2
89
 70
     0
 62
    89
  6
CONTINUOUS
  0
LAYER
  5
93
330
2
100
AcDbSymbolTableRecord
100
AcDbLayerTableRecord
  2
90
 70
     0
 62
    90
  6
CONTINUOUS
  0
LAYER
  5
94
330
2
100
AcDbSymbolTableRecord
100
AcDbLayerTableRecord
  2
91
 70
     0
 62
    91
  6
CONTINUOUS
  0
LAYER
  5
95
330
2
100
AcDbSymbolTableRecord
100
AcDbLayerTableRecord
  2
92
 70
     0
 62
    92
  6
CONTINUOUS
  0
LAYER
  5
96
330
2
100
AcDbSymbolTableRecord
100
AcDbLayerTableRecord
  2
93
 70
     0
 62
    93
  6
CONTINUOUS
  0
LAYER
  5
97
330
2
100
AcDbSymbolTableRecord
100
AcDbLayerTableRecord
  2
94
 70
     0
 62
    94
  6
CONTINUOUS
  0
LAYER
  5
98
330
2
100
AcDbSymbolTableRecord
100
AcDbLayerTableRecord
  2
95
 70
     0
 62
    95
  6
CONTINUOUS
  0
LAYER
  5
99
330
2
100
AcDbSymbolTableRecord
100
AcDbLayerTableRecord
  2
96
 70
     0
 62
    96
  6
CONTINUOUS
  0
LAYER
  5
9A
330
2
100
AcDbSymbolTableRecord
100
AcDbLayerTableRecord
  2
97
 70
     0
 62
    97
  6
CONTINUOUS
  0
LAYER
  5
9B
330
2
100
AcDbSymbolTableRecord
100
AcDbLayerTableRecord
  2
98
 70
     0
 62
    98
  6
CONTINUOUS
  0
LAYER
  5
9C
330
2
100
AcDbSymbolTableRecord
100
AcDbLayerTableRecord
  2
99
 70
     0
 62
    99
  6
CONTINUOUS
  0
LAYER
  5
9D
330
2
100
AcDbSymbolTableRecord
100
AcDbLayerTableRecord
  2
100
 70
     0
 62
   100
  6
CONTINUOUS
  0
LAYER
  5
9E
330
2
100
AcDbSymbolTableRecord
100
AcDbLayerTableRecord
  2
101
 70
     0
 62
   101
  6
CONTINUOUS
  0
LAYER
  5
9F
330
2
100
AcDbSymbolTableRecord
100
AcDbLayerTableRecord
  2
102
 70
     0
 62
   102
  6
CONTINUOUS
  0
LAYER
  5
A0
330
2
100
AcDbSymbolTableRecord
100
AcDbLayerTableRecord
  2
103
 70
     0
 62
   103
  6
CONTINUOUS
  0
LAYER
  5
A1
330
2
100
AcDbSymbolTableRecord
100
AcDbLayerTableRecord
  2
104
 70
     0
 62
   104
  6
CONTINUOUS
  0
LAYER
  5
A2
330
2
100
AcDbSymbolTableRecord
100
AcDbLayerTableRecord
  2
105
 70
     0
 62
   105
  6
CONTINUOUS
  0
LAYER
  5
A3
330
2
100
AcDbSymbolTableRecord
100
AcDbLayerTableRecord
  2
106
 70
     0
 62
   106
  6
CONTINUOUS
  0
LAYER
  5
A4
330
2
100
AcDbSymbolTableRecord
100
AcDbLayerTableRecord
  2
107
 70
     0
 62
   107
  6
CONTINUOUS
  0
LAYER
  5
A5
330
2
100
AcDbSymbolTableRecord
100
AcDbLayerTableRecord
  2
108
 70
     0
 62
   108
  6
CONTINUOUS
  0
LAYER
  5
A6
330
2
100
AcDbSymbolTableRecord
100
AcDbLayerTableRecord
  2
109
 70
     0
 62
   109
  6
CONTINUOUS
  0
LAYER
  5
A7
330
2
100
AcDbSymbolTableRecord
100
AcDbLayerTableRecord
  2
110
 70
     0
 62
   110
  6
CONTINUOUS
  0
LAYER
  5
A8
330
2
100
AcDbSymbolTableRecord
100
AcDbLayerTableRecord
  2
111
 70
     0
 62
   111
  6
CONTINUOUS
  0
LAYER
  5
A9
330
2
100
AcDbSymbolTableRecord
100
AcDbLayerTableRecord
  2
112
 70
     0
 62
   112
  6
CONTINUOUS
  0
LAYER
  5
AA
330
2
100
AcDbSymbolTableRecord
100
AcDbLayerTableRecord
  2
113
 70
     0
 62
   113
  6
CONTINUOUS
  0
LAYER
  5
AB
330
2
100
AcDbSymbolTableRecord
100
AcDbLayerTableRecord
  2
114
 70
     0
 62
   114
  6
CONTINUOUS
  0
LAYER
  5
AC
330
2
100
AcDbSymbolTableRecord
100
AcDbLayerTableRecord
  2
115
 70
     0
 62
   115
  6
CONTINUOUS
  0
LAYER
  5
AD
330
2
100
AcDbSymbolTableRecord
100
AcDbLayerTableRecord
  2
116
 70
     0
 62
   116
  6
CONTINUOUS
  0
LAYER
  5
AE
330
2
100
AcDbSymbolTableRecord
100
AcDbLayerTableRecord
  2
117
 70
     0
 62
   117
  6
CONTINUOUS
  0
LAYER
  5
AF
330
2
100
AcDbSymbolTableRecord
100
AcDbLayerTableRecord
  2
118
 70
     0
 62
   118
  6
CONTINUOUS
  0
LAYER
  5
B0
330
2
100
AcDbSymbolTableRecord
100
AcDbLayerTableRecord
  2
119
 70
     0
 62
   119
  6
CONTINUOUS
  0
LAYER
  5
B1
330
2
100
AcDbSymbolTableRecord
100
AcDbLayerTableRecord
  2
120
 70
     0
 62
   120
  6
CONTINUOUS
  0
LAYER
  5
B2
330
2
100
AcDbSymbolTableRecord
100
AcDbLayerTableRecord
  2
121
 70
     0
 62
   121
  6
CONTINUOUS
  0
LAYER
  5
B3
330
2
100
AcDbSymbolTableRecord
100
AcDbLayerTableRecord
  2
122
 70
     0
 62
   122
  6
CONTINUOUS
  0
LAYER
  5
B4
330
2
100
AcDbSymbolTableRecord
100
AcDbLayerTableRecord
  2
123
 70
     0
 62
   123
  6
CONTINUOUS
  0
LAYER
  5
B5
330
2
100
AcDbSymbolTableRecord
100
AcDbLayerTableRecord
  2
124
 70
     0
 62
   124
  6
CONTINUOUS
  0
LAYER
  5
B6
330
2
100
AcDbSymbolTableRecord
100
AcDbLayerTableRecord
  2
125
 70
     0
 62
   125
  6
CONTINUOUS
  0
LAYER
  5
B7
330
2
100
AcDbSymbolTableRecord
100
AcDbLayerTableRecord
  2
126
 70
     0
 62
   126
  6
CONTINUOUS
  0
LAYER
  5
B8
330
2
100
AcDbSymbolTableRecord
100
AcDbLayerTableRecord
  2
127
 70
     0
 62
   127
  6
CONTINUOUS
  0
LAYER
  5
B9
330
2
100
AcDbSymbolTableRecord
100
AcDbLayerTableRecord
  2
128
 70
     0
 62
   128
  6
CONTINUOUS
  0
LAYER
  5
BA
330
2
100
AcDbSymbolTableRecord
100
AcDbLayerTableRecord
  2
129
 70
     0
 62
   129
  6
CONTINUOUS
  0
LAYER
  5
BB
330
2
100
AcDbSymbolTableRecord
100
AcDbLayerTableRecord
  2
130
 70
     0
 62
   130
  6
CONTINUOUS
  0
LAYER
  5
BC
330
2
100
AcDbSymbolTableRecord
100
AcDbLayerTableRecord
  2
131
 70
     0
 62
   131
  6
CONTINUOUS
  0
LAYER
  5
BD
330
2
100
AcDbSymbolTableRecord
100
AcDbLayerTableRecord
  2
132
 70
     0
 62
   132
  6
CONTINUOUS
  0
LAYER
  5
BE
330
2
100
AcDbSymbolTableRecord
100
AcDbLayerTableRecord
  2
133
 70
     0
 62
   133
  6
CONTINUOUS
  0
LAYER
  5
BF
330
2
100
AcDbSymbolTableRecord
100
AcDbLayerTableRecord
  2
134
 70
     0
 62
   134
  6
CONTINUOUS
  0
LAYER
  5
C0
330
2
100
AcDbSymbolTableRecord
100
AcDbLayerTableRecord
  2
135
 70
     0
 62
   135
  6
CONTINUOUS
  0
LAYER
  5
C1
330
2
100
AcDbSymbolTableRecord
100
AcDbLayerTableRecord
  2
136
 70
     0
 62
   136
  6
CONTINUOUS
  0
LAYER
  5
C2
330
2
100
AcDbSymbolTableRecord
100
AcDbLayerTableRecord
  2
137
 70
     0
 62
   137
  6
CONTINUOUS
  0
LAYER
  5
C3
330
2
100
AcDbSymbolTableRecord
100
AcDbLayerTableRecord
  2
138
 70
     0
 62
   138
  6
CONTINUOUS
  0
LAYER
  5
C4
330
2
100
AcDbSymbolTableRecord
100
AcDbLayerTableRecord
  2
139
 70
     0
 62
   139
  6
CONTINUOUS
  0
LAYER
  5
C5
330
2
100
AcDbSymbolTableRecord
100
AcDbLayerTableRecord
  2
140
 70
     0
 62
   140
  6
CONTINUOUS
  0
LAYER
  5
C6
330
2
100
AcDbSymbolTableRecord
100
AcDbLayerTableRecord
  2
141
 70
     0
 62
   141
  6
CONTINUOUS
  0
LAYER
  5
C7
330
2
100
AcDbSymbolTableRecord
100
AcDbLayerTableRecord
  2
142
 70
     0
 62
   142
  6
CONTINUOUS
  0
LAYER
  5
C8
330
2
100
AcDbSymbolTableRecord
100
AcDbLayerTableRecord
  2
143
 70
     0
 62
   143
  6
CONTINUOUS
  0
LAYER
  5
C9
330
2
100
AcDbSymbolTableRecord
100
AcDbLayerTableRecord
  2
144
 70
     0
 62
   144
  6
CONTINUOUS
  0
LAYER
  5
CA
330
2
100
AcDbSymbolTableRecord
100
AcDbLayerTableRecord
  2
145
 70
     0
 62
   145
  6
CONTINUOUS
  0
LAYER
  5
CB
330
2
100
AcDbSymbolTableRecord
100
AcDbLayerTableRecord
  2
146
 70
     0
 62
   146
  6
CONTINUOUS
  0
LAYER
  5
CC
330
2
100
AcDbSymbolTableRecord
100
AcDbLayerTableRecord
  2
147
 70
     0
 62
   147
  6
CONTINUOUS
  0
LAYER
  5
CD
330
2
100
AcDbSymbolTableRecord
100
AcDbLayerTableRecord
  2
148
 70
     0
 62
   148
  6
CONTINUOUS
  0
LAYER
  5
CE
330
2
100
AcDbSymbolTableRecord
100
AcDbLayerTableRecord
  2
149
 70
     0
 62
   149
  6
CONTINUOUS
  0
LAYER
  5
CF
330
2
100
AcDbSymbolTableRecord
100
AcDbLayerTableRecord
  2
150
 70
     0
 62
   150
  6
CONTINUOUS
  0
LAYER
  5
D0
330
2
100
AcDbSymbolTableRecord
100
AcDbLayerTableRecord
  2
151
 70
     0
 62
   151
  6
CONTINUOUS
  0
LAYER
  5
D1
330
2
100
AcDbSymbolTableRecord
100
AcDbLayerTableRecord
  2
152
 70
     0
 62
   152
  6
CONTINUOUS
  0
LAYER
  5
D2
330
2
100
AcDbSymbolTableRecord
100
AcDbLayerTableRecord
  2
153
 70
     0
 62
   153
  6
CONTINUOUS
  0
LAYER
  5
D3
330
2
100
AcDbSymbolTableRecord
100
AcDbLayerTableRecord
  2
154
 70
     0
 62
   154
  6
CONTINUOUS
  0
LAYER
  5
D4
330
2
100
AcDbSymbolTableRecord
100
AcDbLayerTableRecord
  2
155
 70
     0
 62
   155
  6
CONTINUOUS
  0
LAYER
  5
D5
330
2
100
AcDbSymbolTableRecord
100
AcDbLayerTableRecord
  2
156
 70
     0
 62
   156
  6
CONTINUOUS
  0
LAYER
  5
D6
330
2
100
AcDbSymbolTableRecord
100
AcDbLayerTableRecord
  2
157
 70
     0
 62
   157
  6
CONTINUOUS
  0
LAYER
  5
D7
330
2
100
AcDbSymbolTableRecord
100
AcDbLayerTableRecord
  2
158
 70
     0
 62
   158
  6
CONTINUOUS
  0
LAYER
  5
D8
330
2
100
AcDbSymbolTableRecord
100
AcDbLayerTableRecord
  2
159
 70
     0
 62
   159
  6
CONTINUOUS
  0
LAYER
  5
D9
330
2
100
AcDbSymbolTableRecord
100
AcDbLayerTableRecord
  2
160
 70
     0
 62
   160
  6
CONTINUOUS
  0
LAYER
  5
DA
330
2
100
AcDbSymbolTableRecord
100
AcDbLayerTableRecord
  2
161
 70
     0
 62
   161
  6
CONTINUOUS
  0
LAYER
  5
DB
330
2
100
AcDbSymbolTableRecord
100
AcDbLayerTableRecord
  2
162
 70
     0
 62
   162
  6
CONTINUOUS
  0
LAYER
  5
DC
330
2
100
AcDbSymbolTableRecord
100
AcDbLayerTableRecord
  2
163
 70
     0
 62
   163
  6
CONTINUOUS
  0
LAYER
  5
DD
330
2
100
AcDbSymbolTableRecord
100
AcDbLayerTableRecord
  2
164
 70
     0
 62
   164
  6
CONTINUOUS
  0
LAYER
  5
DE
330
2
100
AcDbSymbolTableRecord
100
AcDbLayerTableRecord
  2
165
 70
     0
 62
   165
  6
CONTINUOUS
  0
LAYER
  5
DF
330
2
100
AcDbSymbolTableRecord
100
AcDbLayerTableRecord
  2
166
 70
     0
 62
   166
  6
CONTINUOUS
  0
LAYER
  5
E0
330
2
100
AcDbSymbolTableRecord
100
AcDbLayerTableRecord
  2
167
 70
     0
 62
   167
  6
CONTINUOUS
  0
LAYER
  5
E1
330
2
100
AcDbSymbolTableRecord
100
AcDbLayerTableRecord
  2
168
 70
     0
 62
   168
  6
CONTINUOUS
  0
LAYER
  5
E2
330
2
100
AcDbSymbolTableRecord
100
AcDbLayerTableRecord
  2
169
 70
     0
 62
   169
  6
CONTINUOUS
  0
LAYER
  5
E3
330
2
100
AcDbSymbolTableRecord
100
AcDbLayerTableRecord
  2
170
 70
     0
 62
   170
  6
CONTINUOUS
  0
LAYER
  5
E4
330
2
100
AcDbSymbolTableRecord
100
AcDbLayerTableRecord
  2
171
 70
     0
 62
   171
  6
CONTINUOUS
  0
LAYER
  5
E5
330
2
100
AcDbSymbolTableRecord
100
AcDbLayerTableRecord
  2
172
 70
     0
 62
   172
  6
CONTINUOUS
  0
LAYER
  5
E6
330
2
100
AcDbSymbolTableRecord
100
AcDbLayerTableRecord
  2
173
 70
     0
 62
   173
  6
CONTINUOUS
  0
LAYER
  5
E7
330
2
100
AcDbSymbolTableRecord
100
AcDbLayerTableRecord
  2
174
 70
     0
 62
   174
  6
CONTINUOUS
  0
LAYER
  5
E8
330
2
100
AcDbSymbolTableRecord
100
AcDbLayerTableRecord
  2
175
 70
     0
 62
   175
  6
CONTINUOUS
  0
LAYER
  5
E9
330
2
100
AcDbSymbolTableRecord
100
AcDbLayerTableRecord
  2
176
 70
     0
 62
   176
  6
CONTINUOUS
  0
LAYER
  5
EA
330
2
100
AcDbSymbolTableRecord
100
AcDbLayerTableRecord
  2
177
 70
     0
 62
   177
  6
CONTINUOUS
  0
LAYER
  5
EB
330
2
100
AcDbSymbolTableRecord
100
AcDbLayerTableRecord
  2
178
 70
     0
 62
   178
  6
CONTINUOUS
  0
LAYER
  5
EC
330
2
100
AcDbSymbolTableRecord
100
AcDbLayerTableRecord
  2
179
 70
     0
 62
   179
  6
CONTINUOUS
  0
LAYER
  5
ED
330
2
100
AcDbSymbolTableRecord
100
AcDbLayerTableRecord
  2
180
 70
     0
 62
   180
  6
CONTINUOUS
  0
LAYER
  5
EE
330
2
100
AcDbSymbolTableRecord
100
AcDbLayerTableRecord
  2
181
 70
     0
 62
   181
  6
CONTINUOUS
  0
LAYER
  5
EF
330
2
100
AcDbSymbolTableRecord
100
AcDbLayerTableRecord
  2
182
 70
     0
 62
   182
  6
CONTINUOUS
  0
LAYER
  5
F0
330
2
100
AcDbSymbolTableRecord
100
AcDbLayerTableRecord
  2
183
 70
     0
 62
   183
  6
CONTINUOUS
  0
LAYER
  5
F1
330
2
100
AcDbSymbolTableRecord
100
AcDbLayerTableRecord
  2
184
 70
     0
 62
   184
  6
CONTINUOUS
  0
LAYER
  5
F2
330
2
100
AcDbSymbolTableRecord
100
AcDbLayerTableRecord
  2
185
 70
     0
 62
   185
  6
CONTINUOUS
  0
LAYER
  5
F3
330
2
100
AcDbSymbolTableRecord
100
AcDbLayerTableRecord
  2
186
 70
     0
 62
   186
  6
CONTINUOUS
  0
LAYER
  5
F4
330
2
100
AcDbSymbolTableRecord
100
AcDbLayerTableRecord
  2
187
 70
     0
 62
   187
  6
CONTINUOUS
  0
LAYER
  5
F5
330
2
100
AcDbSymbolTableRecord
100
AcDbLayerTableRecord
  2
188
 70
     0
 62
   188
  6
CONTINUOUS
  0
LAYER
  5
F6
330
2
100
AcDbSymbolTableRecord
100
AcDbLayerTableRecord
  2
189
 70
     0
 62
   189
  6
CONTINUOUS
  0
LAYER
  5
F7
330
2
100
AcDbSymbolTableRecord
100
AcDbLayerTableRecord
  2
190
 70
     0
 62
   190
  6
CONTINUOUS
  0
LAYER
  5
F8
330
2
100
AcDbSymbolTableRecord
100
AcDbLayerTableRecord
  2
191
 70
     0
 62
   191
  6
CONTINUOUS
  0
LAYER
  5
F9
330
2
100
AcDbSymbolTableRecord
100
AcDbLayerTableRecord
  2
192
 70
     0
 62
   192
  6
CONTINUOUS
  0
LAYER
  5
FA
330
2
100
AcDbSymbolTableRecord
100
AcDbLayerTableRecord
  2
193
 70
     0
 62
   193
  6
CONTINUOUS
  0
LAYER
  5
FB
330
2
100
AcDbSymbolTableRecord
100
AcDbLayerTableRecord
  2
194
 70
     0
 62
   194
  6
CONTINUOUS
  0
LAYER
  5
FC
330
2
100
AcDbSymbolTableRecord
100
AcDbLayerTableRecord
  2
195
 70
     0
 62
   195
  6
CONTINUOUS
  0
LAYER
  5
FD
330
2
100
AcDbSymbolTableRecord
100
AcDbLayerTableRecord
  2
196
 70
     0
 62
   196
  6
CONTINUOUS
  0
LAYER
  5
FE
330
2
100
AcDbSymbolTableRecord
100
AcDbLayerTableRecord
  2
197
 70
     0
 62
   197
  6
CONTINUOUS
  0
LAYER
  5
FF
330
2
100
AcDbSymbolTableRecord
100
AcDbLayerTableRecord
  2
198
 70
     0
 62
   198
  6
CONTINUOUS
  0
LAYER
  5
100
330
2
100
AcDbSymbolTableRecord
100
AcDbLayerTableRecord
  2
199
 70
     0
 62
   199
  6
CONTINUOUS
  0
LAYER
  5
101
330
2
100
AcDbSymbolTableRecord
100
AcDbLayerTableRecord
  2
200
 70
     0
 62
   200
  6
CONTINUOUS
  0
LAYER
  5
102
330
2
100
AcDbSymbolTableRecord
100
AcDbLayerTableRecord
  2
201
 70
     0
 62
   201
  6
CONTINUOUS
  0
LAYER
  5
103
330
2
100
AcDbSymbolTableRecord
100
AcDbLayerTableRecord
  2
202
 70
     0
 62
   202
  6
CONTINUOUS
  0
LAYER
  5
104
330
2
100
AcDbSymbolTableRecord
100
AcDbLayerTableRecord
  2
203
 70
     0
 62
   203
  6
CONTINUOUS
  0
LAYER
  5
105
330
2
100
AcDbSymbolTableRecord
100
AcDbLayerTableRecord
  2
204
 70
     0
 62
   204
  6
CONTINUOUS
  0
LAYER
  5
106
330
2
100
AcDbSymbolTableRecord
100
AcDbLayerTableRecord
  2
205
 70
     0
 62
   205
  6
CONTINUOUS
  0
LAYER
  5
107
330
2
100
AcDbSymbolTableRecord
100
AcDbLayerTableRecord
  2
206
 70
     0
 62
   206
  6
CONTINUOUS
  0
LAYER
  5
108
330
2
100
AcDbSymbolTableRecord
100
AcDbLayerTableRecord
  2
207
 70
     0
 62
   207
  6
CONTINUOUS
  0
LAYER
  5
109
330
2
100
AcDbSymbolTableRecord
100
AcDbLayerTableRecord
  2
208
 70
     0
 62
   208
  6
CONTINUOUS
  0
LAYER
  5
10A
330
2
100
AcDbSymbolTableRecord
100
AcDbLayerTableRecord
  2
209
 70
     0
 62
   209
  6
CONTINUOUS
  0
LAYER
  5
10B
330
2
100
AcDbSymbolTableRecord
100
AcDbLayerTableRecord
  2
210
 70
     0
 62
   210
  6
CONTINUOUS
  0
LAYER
  5
10C
330
2
100
AcDbSymbolTableRecord
100
AcDbLayerTableRecord
  2
211
 70
     0
 62
   211
  6
CONTINUOUS
  0
LAYER
  5
10D
330
2
100
AcDbSymbolTableRecord
100
AcDbLayerTableRecord
  2
212
 70
     0
 62
   212
  6
CONTINUOUS
  0
LAYER
  5
10E
330
2
100
AcDbSymbolTableRecord
100
AcDbLayerTableRecord
  2
213
 70
     0
 62
   213
  6
CONTINUOUS
  0
LAYER
  5
10F
330
2
100
AcDbSymbolTableRecord
100
AcDbLayerTableRecord
  2
214
 70
     0
 62
   214
  6
CONTINUOUS
  0
LAYER
  5
110
330
2
100
AcDbSymbolTableRecord
100
AcDbLayerTableRecord
  2
215
 70
     0
 62
   215
  6
CONTINUOUS
  0
LAYER
  5
111
330
2
100
AcDbSymbolTableRecord
100
AcDbLayerTableRecord
  2
216
 70
     0
 62
   216
  6
CONTINUOUS
  0
LAYER
  5
112
330
2
100
AcDbSymbolTableRecord
100
AcDbLayerTableRecord
  2
217
 70
     0
 62
   217
  6
CONTINUOUS
  0
LAYER
  5
113
330
2
100
AcDbSymbolTableRecord
100
AcDbLayerTableRecord
  2
218
 70
     0
 62
   218
  6
CONTINUOUS
  0
LAYER
  5
114
330
2
100
AcDbSymbolTableRecord
100
AcDbLayerTableRecord
  2
219
 70
     0
 62
   219
  6
CONTINUOUS
  0
LAYER
  5
115
330
2
100
AcDbSymbolTableRecord
100
AcDbLayerTableRecord
  2
220
 70
     0
 62
   220
  6
CONTINUOUS
  0
LAYER
  5
116
330
2
100
AcDbSymbolTableRecord
100
AcDbLayerTableRecord
  2
221
 70
     0
 62
   221
  6
CONTINUOUS
  0
LAYER
  5
117
330
2
100
AcDbSymbolTableRecord
100
AcDbLayerTableRecord
  2
222
 70
     0
 62
   222
  6
CONTINUOUS
  0
LAYER
  5
118
330
2
100
AcDbSymbolTableRecord
100
AcDbLayerTableRecord
  2
223
 70
     0
 62
   223
  6
CONTINUOUS
  0
LAYER
  5
119
330
2
100
AcDbSymbolTableRecord
100
AcDbLayerTableRecord
  2
224
 70
     0
 62
   224
  6
CONTINUOUS
  0
LAYER
  5
11A
330
2
100
AcDbSymbolTableRecord
100
AcDbLayerTableRecord
  2
225
 70
     0
 62
   225
  6
CONTINUOUS
  0
LAYER
  5
11B
330
2
100
AcDbSymbolTableRecord
100
AcDbLayerTableRecord
  2
226
 70
     0
 62
   226
  6
CONTINUOUS
  0
LAYER
  5
11C
330
2
100
AcDbSymbolTableRecord
100
AcDbLayerTableRecord
  2
227
 70
     0
 62
   227
  6
CONTINUOUS
  0
LAYER
  5
11D
330
2
100
AcDbSymbolTableRecord
100
AcDbLayerTableRecord
  2
228
 70
     0
 62
   228
  6
CONTINUOUS
  0
LAYER
  5
11E
330
2
100
AcDbSymbolTableRecord
100
AcDbLayerTableRecord
  2
229
 70
     0
 62
   229
  6
CONTINUOUS
  0
LAYER
  5
11F
330
2
100
AcDbSymbolTableRecord
100
AcDbLayerTableRecord
  2
230
 70
     0
 62
   230
  6
CONTINUOUS
  0
LAYER
  5
120
330
2
100
AcDbSymbolTableRecord
100
AcDbLayerTableRecord
  2
231
 70
     0
 62
   231
  6
CONTINUOUS
  0
LAYER
  5
121
330
2
100
AcDbSymbolTableRecord
100
AcDbLayerTableRecord
  2
232
 70
     0
 62
   232
  6
CONTINUOUS
  0
LAYER
  5
122
330
2
100
AcDbSymbolTableRecord
100
AcDbLayerTableRecord
  2
233
 70
     0
 62
   233
  6
CONTINUOUS
  0
LAYER
  5
123
330
2
100
AcDbSymbolTableRecord
100
AcDbLayerTableRecord
  2
234
 70
     0
 62
   234
  6
CONTINUOUS
  0
LAYER
  5
124
330
2
100
AcDbSymbolTableRecord
100
AcDbLayerTableRecord
  2
235
 70
     0
 62
   235
  6
CONTINUOUS
  0
LAYER
  5
125
330
2
100
AcDbSymbolTableRecord
100
AcDbLayerTableRecord
  2
236
 70
     0
 62
   236
  6
CONTINUOUS
  0
LAYER
  5
126
330
2
100
AcDbSymbolTableRecord
100
AcDbLayerTableRecord
  2
237
 70
     0
 62
   237
  6
CONTINUOUS
  0
LAYER
  5
127
330
2
100
AcDbSymbolTableRecord
100
AcDbLayerTableRecord
  2
238
 70
     0
 62
   238
  6
CONTINUOUS
  0
LAYER
  5
128
330
2
100
AcDbSymbolTableRecord
100
AcDbLayerTableRecord
  2
239
 70
     0
 62
   239
  6
CONTINUOUS
  0
LAYER
  5
129
330
2
100
AcDbSymbolTableRecord
100
AcDbLayerTableRecord
  2
240
 70
     0
 62
   240
  6
CONTINUOUS
  0
LAYER
  5
12A
330
2
100
AcDbSymbolTableRecord
100
AcDbLayerTableRecord
  2
241
 70
     0
 62
   241
  6
CONTINUOUS
  0
LAYER
  5
12B
330
2
100
AcDbSymbolTableRecord
100
AcDbLayerTableRecord
  2
242
 70
     0
 62
   242
  6
CONTINUOUS
  0
LAYER
  5
12C
330
2
100
AcDbSymbolTableRecord
100
AcDbLayerTableRecord
  2
243
 70
     0
 62
   243
  6
CONTINUOUS
  0
LAYER
  5
12D
330
2
100
AcDbSymbolTableRecord
100
AcDbLayerTableRecord
  2
244
 70
     0
 62
   244
  6
CONTINUOUS
  0
LAYER
  5
12E
330
2
100
AcDbSymbolTableRecord
100
AcDbLayerTableRecord
  2
245
 70
     0
 62
   245
  6
CONTINUOUS
  0
LAYER
  5
12F
330
2
100
AcDbSymbolTableRecord
100
AcDbLayerTableRecord
  2
246
 70
     0
 62
   246
  6
CONTINUOUS
  0
LAYER
  5
130
330
2
100
AcDbSymbolTableRecord
100
AcDbLayerTableRecord
  2
247
 70
     0
 62
   247
  6
CONTINUOUS
  0
LAYER
  5
131
330
2
100
AcDbSymbolTableRecord
100
AcDbLayerTableRecord
  2
248
 70
     0
 62
   248
  6
CONTINUOUS
  0
LAYER
  5
132
330
2
100
AcDbSymbolTableRecord
100
AcDbLayerTableRecord
  2
249
 70
     0
 62
   249
  6
CONTINUOUS
  0
LAYER
  5
133
330
2
100
AcDbSymbolTableRecord
100
AcDbLayerTableRecord
  2
250
 70
     0
 62
   250
  6
CONTINUOUS
  0
LAYER
  5
134
330
2
100
AcDbSymbolTableRecord
100
AcDbLayerTableRecord
  2
251
 70
     0
 62
   251
  6
CONTINUOUS
  0
LAYER
  5
135
330
2
100
AcDbSymbolTableRecord
100
AcDbLayerTableRecord
  2
252
 70
     0
 62
   252
  6
CONTINUOUS
  0
LAYER
  5
136
330
2
100
AcDbSymbolTableRecord
100
AcDbLayerTableRecord
  2
253
 70
     0
 62
   253
  6
CONTINUOUS
  0
LAYER
  5
137
330
2
100
AcDbSymbolTableRecord
100
AcDbLayerTableRecord
  2
254
 70
     0
 62
   254
  6
CONTINUOUS
  0
LAYER
  5
138
330
2
100
AcDbSymbolTableRecord
100
AcDbLayerTableRecord
  2
255
 70
     0
 62
   255
  6
CONTINUOUS
  0
LAYER
  5
4F57
330
2
100
AcDbSymbolTableRecord
100
AcDbLayerTableRecord
  2
DEFPOINTS
 70
     0
 62
     7
  6
CONTINUOUS
  0
ENDTAB
  0
TABLE
  2
STYLE
  5
3
330
0
100
AcDbSymbolTable
 70
     1
  0
STYLE
  5
11
330
3
100
AcDbSymbolTableRecord
100
AcDbTextStyleTableRecord
  2
STANDARD
 70
     0
 40
0.0
 41
1.0
 50
0.0
 71
     0
 42
0.2
  3
monotxt
  4

  0
ENDTAB
  0
TABLE
  2
VIEW
  5
6
330
0
100
AcDbSymbolTable
 70
     0
  0
ENDTAB
  0
TABLE
  2
UCS
  5
7
330
0
100
AcDbSymbolTable
 70
     0
  0
ENDTAB
  0
TABLE
  2
APPID
  5
9
330
0
100
AcDbSymbolTable
 70
     1
  0
APPID
  5
12
330
9
100
AcDbSymbolTableRecord
100
AcDbRegAppTableRecord
  2
ACAD
 70
     0
  0
ENDTAB
  0
TABLE
  2
DIMSTYLE
  5
A
330
0
100
AcDbSymbolTable
 70
     1
  0
DIMSTYLE
105
2E70
102
{ACAD_REACTORS
330
4F56
102
}
330
A
100
AcDbSymbolTableRecord
100
AcDbDimStyleTableRecord
  2
STANDARD
 70
     0
  3

  4

  5

  6

  7

 40
1.0
 41
0.18
 42
0.0625
 43
0.38
 44
0.18
 45
0.0
 46
0.0
 47
0.0
 48
0.0
140
0.18
141
0.09
142
0.0
143
25.4
144
1.0
145
0.0
146
1.0
147
0.09
 71
     0
 72
     0
 73
     1
 74
     1
 75
     0
 76
     0
 77
     0
 78
     0
170
     0
171
     2
172
     0
173
     0
174
     0
175
     0
176
     0
177
     0
178
     0
270
     2
271
     4
272
     4
273
     2
274
     2
340
11
275
     0
280
     0
281
     0
282
     0
283
     1
284
     0
285
     0
286
     0
287
     3
288
     0
  0
ENDTAB
  0
TABLE
  2
BLOCK_RECORD
  5
1
330
0
100
AcDbSymbolTable
 70
     1
  0
BLOCK_RECORD
  5
1E
102
{ACAD_XDICTIONARY
360
2E74
102
}
330
1
100
AcDbSymbolTableRecord
100
AcDbBlockTableRecord
  2
*MODEL_SPACE
  0
BLOCK_RECORD
  5
1A
102
{ACAD_XDICTIONARY
360
2E76
102
}
330
1
100
AcDbSymbolTableRecord
100
AcDbBlockTableRecord
  2
*PAPER_SPACE
  0
BLOCK_RECORD
  5
4F58
330
1
100
AcDbSymbolTableRecord
100
AcDbBlockTableRecord
  2
*D0
  0
ENDTAB
  0
ENDSEC
  0
SECTION
  2
BLOCKS
  0
BLOCK
  5
13B
330
1E
100
AcDbEntity
  8
0
100
AcDbBlockBegin
  2
*MODEL_SPACE
 70
     0
 10
0.0
 20
0.0
 30
0.0
  3
*MODEL_SPACE
  1

  0
ENDBLK
  5
13C
330
1E
100
AcDbEntity
  8
0
100
AcDbBlockEnd
  0
BLOCK
  5
139
330
1A
100
AcDbEntity
 67
     1
  8
0
100
AcDbBlockBegin
  2
*PAPER_SPACE
 70
     0
 10
0.0
 20
0.0
 30
0.0
  3
*PAPER_SPACE
  1

  0
ENDBLK
  5
13A
330
1A
100
AcDbEntity
 67
     1
  8
0
100
AcDbBlockEnd
  0
BLOCK
  5
4F63
330
4F58
100
AcDbEntity
  8
0
100
AcDbBlockBegin
  2
*D0
 70
     1
 10
0.0
 20
0.0
 30
0.0
  3
*D0
  1

  0
LINE
  5
4F65
330
4F58
100
AcDbEntity
  8
0
 62
     0
100
AcDbLine
 10
1.189960629921259
 20
5.805610236220472
 30
0.0
 11
1.189960629921259
 21
6.7075315050692
 31
0.0
  0
LINE
  5
4F66
330
4F58
100
AcDbEntity
  8
0
 62
     0
100
AcDbLine
 10
4.090551181102362
 20
5.805610236220472
 30
0.0
 11
4.090551181102362
 21
6.7075315050692
 31
0.0
  0
LINE
  5
4F67
330
4F58
100
AcDbEntity
  8
0
 62
     0
100
AcDbLine
 10
1.369960629921259
 20
6.5275315050692
 30
0.0
 11
2.040255905511811
 21
6.5275315050692
 31
0.0
  0
LINE
  5
4F68
330
4F58
100
AcDbEntity
  8
0
 62
     0
100
AcDbLine
 10
3.910551181102361
 20
6.5275315050692
 30
0.0
 11
3.240255905511811
 21
6.5275315050692
 31
0.0
  0
SOLID
  5
4F69
330
4F58
100
AcDbEntity
  8
0
 62
     0
100
AcDbTrace
 10
1.369960629921259
 20
6.5575315050692
 30
0.0
 11
1.369960629921259
 21
6.4975315050692
 31
0.0
 12
1.189960629921259
 22
6.5275315050692
 32
0.0
 13
1.189960629921259
 23
6.5275315050692
 33
0.0
  0
SOLID
  5
4F6A
330
4F58
100
AcDbEntity
  8
0
 62
     0
100
AcDbTrace
 10
3.910551181102361
 20
6.5575315050692
 30
0.0
 11
3.910551181102361
 21
6.4975315050692
 31
0.0
 12
4.090551181102362
 22
6.5275315050692
 32
0.0
 13
4.090551181102362
 23
6.5275315050692
 33
0.0
  0
MTEXT
  5
4F6B
330
4F58
100
AcDbEntity
  8
0
 62
     0
100
AcDbMText
 10
2.640255905511811
 20
6.5275315050692
 30
0.0
 40
0.18
 41
0.0
 71
     5
 72
     1
  1
\A1;2.9006
1001
ACAD
1000
MTEXTBEGIN
1070
    73
1070
     1
1070
    44
1040
1.0
1070
    74
1070
     0
1000
MTEXTEND
  0
POINT
  5
4F6C
330
4F58
100
AcDbEntity
  8
DEFPOINTS
 62
     0
100
AcDbPoint
 10
1.189960629921259
 20
5.743110236220472
 30
0.0
  0
POINT
  5
4F6D
330
4F58
100
AcDbEntity
  8
DEFPOINTS
 62
     0
100
AcDbPoint
 10
4.090551181102362
 20
5.743110236220472
 30
0.0
  0
POINT
  5
4F6E
330
4F58
100
AcDbEntity
  8
DEFPOINTS
 62
     0
100
AcDbPoint
 10
4.090551181102362
 20
6.5275315050692
 30
0.0
  0
ENDBLK
  5
4F64
330
4F58
100
AcDbEntity
  8
0
100
AcDbBlockEnd
  0
ENDSEC
  0
SECTION
  2
ENTITIES
  0
LINE
  5
28BF
330
1E
100
AcDbEntity
  8
7
100
AcDbLine
 10
2.727362204724409
 20
4.148622047244094
 30
0.0
 11
3.054133858267716
 21
4.148622047244094
 31
0.0
  0
LINE
  5
28C6
330
1E
100
AcDbEntity
  8
7
100
AcDbLine
 10
2.226377952755905
 20
4.148622047244094
 30
0.0
 11
2.553149606299212
 21
4.148622047244094
 31
0.0
  0
LINE
  5
28C7
330
1E
100
AcDbEntity
  8
7
100
AcDbLine
 10
1.290354330708661
 20
4.13779527559055
 30
0.0
 11
2.225393700787401
 21
4.13779527559055
 31
0.0
  0
LINE
  5
28DB
330
1E
100
AcDbEntity
  8
7
100
AcDbLine
 10
3.99015748031496
 20
5.843503937007874
 30
0.0
 11
1.290354330708661
 21
5.843503937007874
 31
0.0
  0
LINE
  5
28E5
330
1E
100
AcDbEntity
  8
7
100
AcDbLine
 10
4.090551181102362
 20
4.238188976377952
 30
0.0
 11
4.090551181102362
 21
5.743110236220472
 31
0.0
  0
LINE
  5
28F8
330
1E
100
AcDbEntity
  8
7
100
AcDbLine
 10
4.079724409448819
 20
5.732283464566928
 30
0.0
 11
4.079724409448819
 21
4.249015748031496
 31
0.0
  0
LINE
  5
2901
330
1E
100
AcDbEntity
  8
7
100
AcDbLine
 10
3.979330708661417
 20
4.249015748031496
 30
0.0
 11
3.979330708661417
 21
5.732283464566928
 31
0.0
  0
LINE
  5
2902
330
1E
100
AcDbEntity
  8
7
100
AcDbLine
 10
4.079724409448819
 20
4.249015748031496
 30
0.0
 11
4.090551181102362
 21
4.238188976377952
 31
0.0
  0
LINE
  5
2903
330
1E
100
AcDbEntity
  8
7
100
AcDbLine
 10
4.090551181102362
 20
5.743110236220472
 30
0.0
 11
4.079724409448819
 21
5.732283464566928
 31
0.0
  0
LINE
  5
2904
330
1E
100
AcDbEntity
  8
7
100
AcDbLine
 10
3.979330708661417
 20
5.83267716535433
 30
0.0
 11
3.99015748031496
 21
5.843503937007874
 31
0.0
  0
LINE
  5
2915
330
1E
100
AcDbEntity
  8
7
100
AcDbLine
 10
1.200787401574803
 20
5.732283464566928
 30
0.0
 11
1.189960629921259
 21
5.743110236220472
 31
0.0
  0
LINE
  5
292E
330
1E
100
AcDbEntity
  8
7
100
AcDbLine
 10
3.979330708661417
 20
5.732283464566928
 30
0.0
 11
1.301181102362204
 21
5.732283464566928
 31
0.0
  0
LINE
  5
2937
330
1E
100
AcDbEntity
  8
7
100
AcDbLine
 10
1.200787401574803
 20
4.249015748031496
 30
0.0
 11
1.200787401574803
 21
5.732283464566928
 31
0.0
  0
LINE
  5
2943
330
1E
100
AcDbEntity
  8
7
100
AcDbLine
 10
1.301181102362204
 20
5.732283464566928
 30
0.0
 11
1.301181102362204
 21
4.249015748031496
 31
0.0
  0
LINE
  5
2965
330
1E
100
AcDbEntity
  8
7
100
AcDbLine
 10
2.178149606299212
 20
4.148622047244094
 30
0.0
 11
1.301181102362204
 21
4.148622047244094
 31
0.0
  0
LINE
  5
2966
330
1E
100
AcDbEntity
  8
7
100
AcDbLine
 10
2.226377952755905
 20
4.148622047244094
 30
0.0
 11
2.178149606299212
 21
4.148622047244094
 31
0.0
  0
LINE
  5
296E
330
1E
100
AcDbEntity
  8
7
100
AcDbLine
 10
2.729330708661417
 20
4.199803149606299
 30
0.0
 11
2.551181102362204
 21
4.199803149606299
 31
0.0
  0
LINE
  5
2976
330
1E
100
AcDbEntity
  8
7
100
AcDbLine
 10
3.102362204724409
 20
4.148622047244094
 30
0.0
 11
3.054133858267716
 21
4.148622047244094
 31
0.0
  0
LINE
  5
2977
330
1E
100
AcDbEntity
  8
7
100
AcDbLine
 10
3.979330708661417
 20
4.148622047244094
 30
0.0
 11
3.102362204724409
 21
4.148622047244094
 31
0.0
  0
LINE
  5
2978
330
1E
100
AcDbEntity
  8
7
100
AcDbLine
 10
1.301181102362204
 20
4.249015748031496
 30
0.0
 11
3.979330708661417
 21
4.249015748031496
 31
0.0
  0
LINE
  5
2979
330
1E
100
AcDbEntity
  8
7
100
AcDbLine
 10
2.727362204724409
 20
4.198818897637795
 30
0.0
 11
2.729330708661417
 21
4.199803149606299
 31
0.0
  0
LINE
  5
297A
330
1E
100
AcDbEntity
  8
7
100
AcDbLine
 10
2.553149606299212
 20
4.198818897637795
 30
0.0
 11
2.551181102362204
 21
4.199803149606299
 31
0.0
  0
LINE
  5
297B
330
1E
100
AcDbEntity
  8
7
100
AcDbLine
 10
3.135826771653543
 20
4.630905511811023
 30
0.0
 11
3.253937007874015
 21
4.630905511811023
 31
0.0
  0
LINE
  5
297C
330
1E
100
AcDbEntity
  8
7
100
AcDbLine
 10
3.112204724409448
 20
4.64271653543307
 30
0.0
 11
3.135826771653543
 21
4.630905511811023
 31
0.0
  0
LINE
  5
297D
330
1E
100
AcDbEntity
  8
7
100
AcDbLine
 10
2.905511811023621
 20
4.64271653543307
 30
0.0
 11
3.112204724409448
 21
4.64271653543307
 31
0.0
  0
LINE
  5
297E
330
1E
100
AcDbEntity
  8
7
100
AcDbLine
 10
2.905511811023621
 20
4.64271653543307
 30
0.0
 11
2.881889763779527
 21
4.630905511811023
 31
0.0
  0
LINE
  5
297F
330
1E
100
AcDbEntity
  8
7
100
AcDbLine
 10
2.763779527559055
 20
4.630905511811023
 30
0.0
 11
2.881889763779527
 21
4.630905511811023
 31
0.0
  0
LINE
  5
2980
330
1E
100
AcDbEntity
  8
7
100
AcDbLine
 10
2.76279527559055
 20
4.629921259842519
 30
0.0
 11
2.763779527559055
 21
4.630905511811023
 31
0.0
  0
LINE
  5
2981
330
1E
100
AcDbEntity
  8
7
100
AcDbLine
 10
3.254921259842519
 20
4.629921259842519
 30
0.0
 11
2.76279527559055
 21
4.629921259842519
 31
0.0
  0
LINE
  5
2982
330
1E
100
AcDbEntity
  8
7
100
AcDbLine
 10
3.253937007874015
 20
4.630905511811023
 30
0.0
 11
3.254921259842519
 21
4.629921259842519
 31
0.0
  0
LINE
  5
2983
330
1E
100
AcDbEntity
  8
7
100
AcDbLine
 10
3.111220472440944
 20
4.74015748031496
 30
0.0
 11
3.111220472440944
 21
4.710629921259842
 31
0.0
  0
LINE
  5
2984
330
1E
100
AcDbEntity
  8
7
100
AcDbLine
 10
3.111220472440944
 20
4.704724409448818
 30
0.0
 11
3.111220472440944
 21
4.710629921259842
 31
0.0
  0
LINE
  5
298A
330
1E
100
AcDbEntity
  8
7
100
AcDbLine
 10
3.111220472440944
 20
4.669291338582676
 30
0.0
 11
3.111220472440944
 21
4.658464566929134
 31
0.0
  0
LINE
  5
2995
330
1E
100
AcDbEntity
  8
7
100
AcDbLine
 10
2.906496062992125
 20
4.669291338582676
 30
0.0
 11
2.906496062992125
 21
4.658464566929134
 31
0.0
  0
LINE
  5
299B
330
1E
100
AcDbEntity
  8
7
100
AcDbLine
 10
2.905511811023621
 20
4.710629921259842
 30
0.0
 11
2.905511811023621
 21
4.704724409448818
 31
0.0
  0
LINE
  5
299C
330
1E
100
AcDbEntity
  8
7
100
AcDbLine
 10
2.905511811023621
 20
4.74015748031496
 30
0.0
 11
2.905511811023621
 21
4.710629921259842
 31
0.0
  0
LINE
  5
299D
330
1E
100
AcDbEntity
  8
7
100
AcDbLine
 10
3.253937007874015
 20
4.630905511811023
 30
0.0
 11
3.253937007874015
 21
4.695866141732283
 31
0.0
  0
LINE
  5
299E
330
1E
100
AcDbEntity
  8
7
100
AcDbLine
 10
3.398622047244094
 20
4.695866141732283
 30
0.0
 11
3.253937007874015
 21
4.695866141732283
 31
0.0
  0
LINE
  5
29B0
330
1E
100
AcDbEntity
  8
7
100
AcDbLine
 10
3.770669291338582
 20
4.630905511811023
 30
0.0
 11
3.888779527559055
 21
4.630905511811023
 31
0.0
  0
LINE
  5
29C0
330
1E
100
AcDbEntity
  8
7
100
AcDbLine
 10
3.541338582677165
 20
4.669291338582676
 30
0.0
 11
3.541338582677165
 21
4.658464566929134
 31
0.0
  0
LINE
  5
29C7
330
1E
100
AcDbEntity
  8
7
100
AcDbLine
 10
3.540354330708661
 20
4.74015748031496
 30
0.0
 11
3.540354330708661
 21
4.710629921259842
 31
0.0
  0
LINE
  5
29C8
330
1E
100
AcDbEntity
  8
7
100
AcDbLine
 10
3.888779527559055
 20
4.630905511811023
 30
0.0
 11
3.888779527559055
 21
4.695866141732283
 31
0.0
  0
LINE
  5
29C9
330
1E
100
AcDbEntity
  8
7
100
AcDbLine
 10
3.955708661417322
 20
4.695866141732283
 30
0.0
 11
3.888779527559055
 21
4.695866141732283
 31
0.0
  0
LINE
  5
29CA
330
1E
100
AcDbEntity
  8
7
100
AcDbLine
 10
3.955708661417322
 20
5.356299212598425
 30
0.0
 11
3.955708661417322
 21
4.695866141732283
 31
0.0
  0
LINE
  5
29CB
330
1E
100
AcDbEntity
  8
7
100
AcDbLine
 10
3.955708661417322
 20
5.356299212598425
 30
0.0
 11
3.731299212598425
 21
5.356299212598425
 31
0.0
  0
LINE
  5
29CC
330
1E
100
AcDbEntity
  8
7
100
AcDbLine
 10
3.731299212598425
 20
5.317913385826771
 30
0.0
 11
3.556102362204724
 21
5.317913385826771
 31
0.0
  0
LINE
  5
29D3
330
1E
100
AcDbEntity
  8
7
100
AcDbLine
 10
3.556102362204724
 20
5.346456692913386
 30
0.0
 11
3.556102362204724
 21
5.317913385826771
 31
0.0
  0
LINE
  5
29DA
330
1E
100
AcDbEntity
  8
7
100
AcDbLine
 10
3.096456692913385
 20
5.317913385826771
 30
0.0
 11
2.921259842519684
 21
5.317913385826771
 31
0.0
  0
LINE
  5
29E1
330
1E
100
AcDbEntity
  8
7
100
AcDbLine
 10
2.921259842519684
 20
5.346456692913386
 30
0.0
 11
2.921259842519684
 21
5.317913385826771
 31
0.0
  0
LINE
  5
29E8
330
1E
100
AcDbEntity
  8
7
100
AcDbLine
 10
2.695866141732283
 20
4.695866141732283
 30
0.0
 11
2.695866141732283
 21
5.356299212598425
 31
0.0
  0
LINE
  5
29E9
330
1E
100
AcDbEntity
  8
7
100
AcDbLine
 10
2.763779527559055
 20
4.695866141732283
 30
0.0
 11
2.695866141732283
 21
4.695866141732283
 31
0.0
  0
LINE
  5
29EA
330
1E
100
AcDbEntity
  8
7
100
AcDbLine
 10
2.763779527559055
 20
4.695866141732283
 30
0.0
 11
2.763779527559055
 21
4.630905511811023
 31
0.0
  0
LINE
  5
29EB
330
1E
100
AcDbEntity
  8
7
100
AcDbLine
 10
2.398622047244094
 20
4.630905511811023
 30
0.0
 11
2.516732283464566
 21
4.630905511811023
 31
0.0
  0
LINE
  5
29F1
330
1E
100
AcDbEntity
  8
7
100
AcDbLine
 10
2.144685039370078
 20
4.630905511811023
 30
0.0
 11
2.168307086614173
 21
4.64271653543307
 31
0.0
  0
LINE
  5
29F2
330
1E
100
AcDbEntity
  8
7
100
AcDbLine
 10
2.026574803149606
 20
4.630905511811023
 30
0.0
 11
2.144685039370078
 21
4.630905511811023
 31
0.0
  0
LINE
  5
2A0B
330
1E
100
AcDbEntity
  8
7
100
AcDbLine
 10
2.169291338582676
 20
4.669291338582676
 30
0.0
 11
2.169291338582676
 21
4.658464566929134
 31
0.0
  0
LINE
  5
2A12
330
1E
100
AcDbEntity
  8
7
100
AcDbLine
 10
2.168307086614173
 20
4.74015748031496
 30
0.0
 11
2.168307086614173
 21
4.710629921259842
 31
0.0
  0
LINE
  5
2A13
330
1E
100
AcDbEntity
  8
7
100
AcDbLine
 10
2.516732283464566
 20
4.630905511811023
 30
0.0
 11
2.516732283464566
 21
4.695866141732283
 31
0.0
  0
LINE
  5
2A14
330
1E
100
AcDbEntity
  8
7
100
AcDbLine
 10
2.584645669291338
 20
4.695866141732283
 30
0.0
 11
2.516732283464566
 21
4.695866141732283
 31
0.0
  0
LINE
  5
2A15
330
1E
100
AcDbEntity
  8
7
100
AcDbLine
 10
2.584645669291338
 20
5.356299212598425
 30
0.0
 11
2.584645669291338
 21
4.695866141732283
 31
0.0
  0
LINE
  5
2A16
330
1E
100
AcDbEntity
  8
7
100
AcDbLine
 10
2.584645669291338
 20
5.356299212598425
 30
0.0
 11
2.359251968503936
 21
5.356299212598425
 31
0.0
  0
LINE
  5
2A17
330
1E
100
AcDbEntity
  8
7
100
AcDbLine
 10
2.359251968503936
 20
5.317913385826771
 30
0.0
 11
2.184055118110236
 21
5.317913385826771
 31
0.0
  0
LINE
  5
2A1D
330
1E
100
AcDbEntity
  8
7
100
AcDbLine
 10
2.359251968503936
 20
5.346456692913386
 30
0.0
 11
2.359251968503936
 21
5.317913385826771
 31
0.0
  0
LINE
  5
2A1E
330
1E
100
AcDbEntity
  8
7
100
AcDbLine
 10
2.184055118110236
 20
5.346456692913386
 30
0.0
 11
2.184055118110236
 21
5.317913385826771
 31
0.0
  0
LINE
  5
2A25
330
1E
100
AcDbEntity
  8
7
100
AcDbLine
 10
1.724409448818897
 20
5.317913385826771
 30
0.0
 11
1.549212598425197
 21
5.317913385826771
 31
0.0
  0
LINE
  5
2A2C
330
1E
100
AcDbEntity
  8
7
100
AcDbLine
 10
1.549212598425197
 20
5.346456692913386
 30
0.0
 11
1.549212598425197
 21
5.317913385826771
 31
0.0
  0
LINE
  5
2A33
330
1E
100
AcDbEntity
  8
7
100
AcDbLine
 10
1.324803149606299
 20
4.695866141732283
 30
0.0
 11
1.324803149606299
 21
5.356299212598425
 31
0.0
  0
LINE
  5
2A34
330
1E
100
AcDbEntity
  8
7
100
AcDbLine
 10
1.391732283464566
 20
4.695866141732283
 30
0.0
 11
1.324803149606299
 21
4.695866141732283
 31
0.0
  0
LINE
  5
2A3A
330
1E
100
AcDbEntity
  8
7
100
AcDbLine
 10
1.763779527559055
 20
4.630905511811023
 30
0.0
 11
1.74015748031496
 21
4.64271653543307
 31
0.0
  0
LINE
  5
2A3B
330
1E
100
AcDbEntity
  8
7
100
AcDbLine
 10
1.533464566929133
 20
4.64271653543307
 30
0.0
 11
1.74015748031496
 21
4.64271653543307
 31
0.0
  0
LINE
  5
2A3C
330
1E
100
AcDbEntity
  8
7
100
AcDbLine
 10
1.533464566929133
 20
4.64271653543307
 30
0.0
 11
1.509842519685039
 21
4.630905511811023
 31
0.0
  0
LINE
  5
2A3D
330
1E
100
AcDbEntity
  8
7
100
AcDbLine
 10
1.390748031496062
 20
4.629921259842519
 30
0.0
 11
1.391732283464566
 21
4.630905511811023
 31
0.0
  0
LINE
  5
2A3E
330
1E
100
AcDbEntity
  8
7
100
AcDbLine
 10
1.882874015748031
 20
4.629921259842519
 30
0.0
 11
1.390748031496062
 21
4.629921259842519
 31
0.0
  0
LINE
  5
2A3F
330
1E
100
AcDbEntity
  8
7
100
AcDbLine
 10
1.881889763779527
 20
4.630905511811023
 30
0.0
 11
1.882874015748031
 21
4.629921259842519
 31
0.0
  0
LINE
  5
2A40
330
1E
100
AcDbEntity
  8
7
100
AcDbLine
 10
1.763779527559055
 20
4.630905511811023
 30
0.0
 11
1.881889763779527
 21
4.630905511811023
 31
0.0
  0
LINE
  5
2A41
330
1E
100
AcDbEntity
  8
7
100
AcDbLine
 10
1.74015748031496
 20
4.74015748031496
 30
0.0
 11
1.74015748031496
 21
4.710629921259842
 31
0.0
  0
LINE
  5
2A42
330
1E
100
AcDbEntity
  8
7
100
AcDbLine
 10
1.74015748031496
 20
4.704724409448818
 30
0.0
 11
1.74015748031496
 21
4.710629921259842
 31
0.0
  0
LINE
  5
2A48
330
1E
100
AcDbEntity
  8
7
100
AcDbLine
 10
1.739173228346456
 20
4.669291338582676
 30
0.0
 11
1.739173228346456
 21
4.658464566929134
 31
0.0
  0
LINE
  5
2A53
330
1E
100
AcDbEntity
  8
7
100
AcDbLine
 10
1.534448818897637
 20
4.669291338582676
 30
0.0
 11
1.534448818897637
 21
4.658464566929134
 31
0.0
  0
LINE
  5
2A59
330
1E
100
AcDbEntity
  8
7
100
AcDbLine
 10
1.533464566929133
 20
4.710629921259842
 30
0.0
 11
1.533464566929133
 21
4.704724409448818
 31
0.0
  0
LINE
  5
2A5A
330
1E
100
AcDbEntity
  8
7
100
AcDbLine
 10
1.533464566929133
 20
4.74015748031496
 30
0.0
 11
1.533464566929133
 21
4.710629921259842
 31
0.0
  0
LINE
  5
2A5B
330
1E
100
AcDbEntity
  8
7
100
AcDbLine
 10
1.881889763779527
 20
4.630905511811023
 30
0.0
 11
1.881889763779527
 21
4.695866141732283
 31
0.0
  0
LINE
  5
2A5C
330
1E
100
AcDbEntity
  8
7
100
AcDbLine
 10
2.026574803149606
 20
4.695866141732283
 30
0.0
 11
1.881889763779527
 21
4.695866141732283
 31
0.0
  0
LINE
  5
2A5D
330
1E
100
AcDbEntity
  8
7
100
AcDbLine
 10
2.026574803149606
 20
4.695866141732283
 30
0.0
 11
2.026574803149606
 21
4.630905511811023
 31
0.0
  0
LINE
  5
2A5E
330
1E
100
AcDbEntity
  8
7
100
AcDbLine
 10
2.025590551181102
 20
4.694881889763779
 30
0.0
 11
2.025590551181102
 21
4.629921259842519
 31
0.0
  0
LINE
  5
2A5F
330
1E
100
AcDbEntity
  8
7
100
AcDbLine
 10
2.025590551181102
 20
4.694881889763779
 30
0.0
 11
1.882874015748031
 21
4.694881889763779
 31
0.0
  0
LINE
  5
2A60
330
1E
100
AcDbEntity
  8
7
100
AcDbLine
 10
1.882874015748031
 20
4.694881889763779
 30
0.0
 11
1.882874015748031
 21
4.629921259842519
 31
0.0
  0
LINE
  5
2A66
330
1E
100
AcDbEntity
  8
7
100
AcDbLine
 10
1.323818897637795
 20
5.357283464566928
 30
0.0
 11
1.323818897637795
 21
4.694881889763779
 31
0.0
  0
LINE
  5
2A6C
330
1E
100
AcDbEntity
  8
7
100
AcDbLine
 10
2.51771653543307
 20
4.694881889763779
 30
0.0
 11
2.585629921259842
 21
4.694881889763779
 31
0.0
  0
LINE
  5
2A6D
330
1E
100
AcDbEntity
  8
7
100
AcDbLine
 10
2.51771653543307
 20
4.629921259842519
 30
0.0
 11
2.51771653543307
 21
4.694881889763779
 31
0.0
  0
LINE
  5
2A6E
330
1E
100
AcDbEntity
  8
7
100
AcDbLine
 10
3.39763779527559
 20
4.694881889763779
 30
0.0
 11
3.39763779527559
 21
4.629921259842519
 31
0.0
  0
LINE
  5
2A79
330
1E
100
AcDbEntity
  8
7
100
AcDbLine
 10
2.694881889763779
 20
5.357283464566928
 30
0.0
 11
2.694881889763779
 21
4.694881889763779
 31
0.0
  0
LINE
  5
2A7F
330
1E
100
AcDbEntity
  8
7
100
AcDbLine
 10
3.889763779527558
 20
4.694881889763779
 30
0.0
 11
3.956692913385826
 21
4.694881889763779
 31
0.0
  0
LINE
  5
2A80
330
1E
100
AcDbEntity
  8
7
100
AcDbLine
 10
3.889763779527558
 20
4.629921259842519
 30
0.0
 11
3.889763779527558
 21
4.694881889763779
 31
0.0
  0
LINE
  5
2A81
330
1E
100
AcDbEntity
  8
7
100
AcDbLine
 10
1.390748031496062
 20
4.694881889763779
 30
0.0
 11
1.391732283464566
 21
4.695866141732283
 31
0.0
  0
LINE
  5
2A82
330
1E
100
AcDbEntity
  8
7
100
AcDbLine
 10
1.882874015748031
 20
4.694881889763779
 30
0.0
 11
1.881889763779527
 21
4.695866141732283
 31
0.0
  0
LINE
  5
2A83
330
1E
100
AcDbEntity
  8
7
100
AcDbLine
 10
2.025590551181102
 20
4.694881889763779
 30
0.0
 11
2.026574803149606
 21
4.695866141732283
 31
0.0
  0
LINE
  5
2A84
330
1E
100
AcDbEntity
  8
7
100
AcDbLine
 10
2.51771653543307
 20
4.694881889763779
 30
0.0
 11
2.516732283464566
 21
4.695866141732283
 31
0.0
  0
LINE
  5
2A85
330
1E
100
AcDbEntity
  8
7
100
AcDbLine
 10
2.76279527559055
 20
4.694881889763779
 30
0.0
 11
2.763779527559055
 21
4.695866141732283
 31
0.0
  0
LINE
  5
2A86
330
1E
100
AcDbEntity
  8
7
100
AcDbLine
 10
3.254921259842519
 20
4.694881889763779
 30
0.0
 11
3.253937007874015
 21
4.695866141732283
 31
0.0
  0
LINE
  5
2A87
330
1E
100
AcDbEntity
  8
7
100
AcDbLine
 10
3.39763779527559
 20
4.694881889763779
 30
0.0
 11
3.398622047244094
 21
4.695866141732283
 31
0.0
  0
LINE
  5
2A88
330
1E
100
AcDbEntity
  8
7
100
AcDbLine
 10
3.889763779527558
 20
4.694881889763779
 30
0.0
 11
3.888779527559055
 21
4.695866141732283
 31
0.0
  0
LINE
  5
2A89
330
1E
100
AcDbEntity
  8
7
100
AcDbLine
 10
2.359251968503936
 20
5.346456692913386
 30
0.0
 11
2.184055118110236
 21
5.346456692913386
 31
0.0
  0
LINE
  5
2A8A
330
1E
100
AcDbEntity
  8
7
100
AcDbLine
 10
1.724409448818897
 20
5.346456692913386
 30
0.0
 11
1.549212598425197
 21
5.346456692913386
 31
0.0
  0
LINE
  5
2A8B
330
1E
100
AcDbEntity
  8
7
100
AcDbLine
 10
3.731299212598425
 20
5.346456692913386
 30
0.0
 11
3.556102362204724
 21
5.346456692913386
 31
0.0
  0
LINE
  5
2A8C
330
1E
100
AcDbEntity
  8
7
100
AcDbLine
 10
3.096456692913385
 20
5.346456692913386
 30
0.0
 11
2.921259842519684
 21
5.346456692913386
 31
0.0
  0
LINE
  5
2A8D
330
1E
100
AcDbEntity
  8
7
100
AcDbLine
 10
3.955708661417322
 20
4.695866141732283
 30
0.0
 11
3.956692913385826
 21
4.694881889763779
 31
0.0
  0
LINE
  5
2A8E
330
1E
100
AcDbEntity
  8
7
100
AcDbLine
 10
3.956692913385826
 20
5.357283464566928
 30
0.0
 11
3.955708661417322
 21
5.356299212598425
 31
0.0
  0
LINE
  5
2A8F
330
1E
100
AcDbEntity
  8
7
100
AcDbLine
 10
3.556102362204724
 20
5.356299212598425
 30
0.0
 11
3.731299212598425
 21
5.356299212598425
 31
0.0
  0
LINE
  5
2A90
330
1E
100
AcDbEntity
  8
7
100
AcDbLine
 10
2.694881889763779
 20
5.357283464566928
 30
0.0
 11
2.695866141732283
 21
5.356299212598425
 31
0.0
  0
LINE
  5
2A91
330
1E
100
AcDbEntity
  8
7
100
AcDbLine
 10
2.921259842519684
 20
5.356299212598425
 30
0.0
 11
3.096456692913385
 21
5.356299212598425
 31
0.0
  0
LINE
  5
2A92
330
1E
100
AcDbEntity
  8
7
100
AcDbLine
 10
2.695866141732283
 20
4.695866141732283
 30
0.0
 11
2.694881889763779
 21
4.694881889763779
 31
0.0
  0
LINE
  5
2A93
330
1E
100
AcDbEntity
  8
7
100
AcDbLine
 10
2.584645669291338
 20
4.695866141732283
 30
0.0
 11
2.585629921259842
 21
4.694881889763779
 31
0.0
  0
LINE
  5
2A94
330
1E
100
AcDbEntity
  8
7
100
AcDbLine
 10
2.585629921259842
 20
5.357283464566928
 30
0.0
 11
2.584645669291338
 21
5.356299212598425
 31
0.0
  0
LINE
  5
2A95
330
1E
100
AcDbEntity
  8
7
100
AcDbLine
 10
2.184055118110236
 20
5.356299212598425
 30
0.0
 11
2.359251968503936
 21
5.356299212598425
 31
0.0
  0
LINE
  5
2A96
330
1E
100
AcDbEntity
  8
7
100
AcDbLine
 10
1.323818897637795
 20
5.357283464566928
 30
0.0
 11
1.324803149606299
 21
5.356299212598425
 31
0.0
  0
LINE
  5
2A97
330
1E
100
AcDbEntity
  8
7
100
AcDbLine
 10
1.549212598425197
 20
5.356299212598425
 30
0.0
 11
1.724409448818897
 21
5.356299212598425
 31
0.0
  0
LINE
  5
2A98
330
1E
100
AcDbEntity
  8
7
100
AcDbLine
 10
1.324803149606299
 20
4.695866141732283
 30
0.0
 11
1.323818897637795
 21
4.694881889763779
 31
0.0
  0
LINE
  5
2A99
330
1E
100
AcDbEntity
  8
7
100
AcDbLine
 10
1.74015748031496
 20
4.74015748031496
 30
0.0
 11
1.533464566929133
 21
4.74015748031496
 31
0.0
  0
LINE
  5
2A9A
330
1E
100
AcDbEntity
  8
7
100
AcDbLine
 10
1.74015748031496
 20
4.710629921259842
 30
0.0
 11
1.533464566929133
 21
4.710629921259842
 31
0.0
  0
LINE
  5
2A9B
330
1E
100
AcDbEntity
  8
7
100
AcDbLine
 10
1.533464566929133
 20
4.704724409448818
 30
0.0
 11
1.74015748031496
 21
4.704724409448818
 31
0.0
  0
LINE
  5
2A9C
330
1E
100
AcDbEntity
  8
7
100
AcDbLine
 10
1.739173228346456
 20
4.669291338582676
 30
0.0
 11
1.534448818897637
 21
4.669291338582676
 31
0.0
  0
LINE
  5
2A9D
330
1E
100
AcDbEntity
  8
7
100
AcDbLine
 10
1.739173228346456
 20
4.658464566929134
 30
0.0
 11
1.534448818897637
 21
4.658464566929134
 31
0.0
  0
LINE
  5
2A9E
330
1E
100
AcDbEntity
  8
7
100
AcDbLine
 10
1.301181102362204
 20
4.148622047244094
 30
0.0
 11
1.290354330708661
 21
4.13779527559055
 31
0.0
  0
LINE
  5
2A9F
330
1E
100
AcDbEntity
  8
7
100
AcDbLine
 10
2.226377952755905
 20
4.148622047244094
 30
0.0
 11
2.225393700787401
 21
4.13779527559055
 31
0.0
  0
LINE
  5
2AA0
330
1E
100
AcDbEntity
  8
7
100
AcDbLine
 10
2.178149606299212
 20
4.148622047244094
 30
0.0
 11
2.226377952755905
 21
4.148622047244094
 31
0.0
  0
LINE
  5
2AA1
330
1E
100
AcDbEntity
  8
7
100
AcDbLine
 10
2.456692913385826
 20
4.0501968503937
 30
0.0
 11
2.445866141732283
 21
4.148622047244094
 31
0.0
  0
LINE
  5
2AA2
330
1E
100
AcDbEntity
  8
7
100
AcDbLine
 10
2.834645669291338
 20
4.148622047244094
 30
0.0
 11
2.823818897637794
 21
4.0501968503937
 31
0.0
  0
LINE
  5
2AA8
330
1E
100
AcDbEntity
  8
7
100
AcDbLine
 10
2.455708661417322
 20
4.148622047244094
 30
0.0
 11
2.465551181102362
 21
4.060039370078739
 31
0.0
  0
LINE
  5
2AA9
330
1E
100
AcDbEntity
  8
7
100
AcDbLine
 10
2.814960629921259
 20
4.060039370078739
 30
0.0
 11
2.824803149606299
 21
4.148622047244094
 31
0.0
  0
LINE
  5
2AAF
330
1E
100
AcDbEntity
  8
7
100
AcDbLine
 10
2.715551181102362
 20
4.060039370078739
 30
0.0
 11
2.814960629921259
 21
4.060039370078739
 31
0.0
  0
LINE
  5
2ABE
330
1E
100
AcDbEntity
  8
7
100
AcDbLine
 10
3.05511811023622
 20
4.13779527559055
 30
0.0
 11
3.054133858267716
 21
4.148622047244094
 31
0.0
  0
LINE
  5
2ABF
330
1E
100
AcDbEntity
  8
7
100
AcDbLine
 10
2.168307086614173
 20
4.74015748031496
 30
0.0
 11
2.375
 21
4.74015748031496
 31
0.0
  0
LINE
  5
2AC0
330
1E
100
AcDbEntity
  8
7
100
AcDbLine
 10
2.168307086614173
 20
4.710629921259842
 30
0.0
 11
2.375
 21
4.710629921259842
 31
0.0
  0
LINE
  5
2AC1
330
1E
100
AcDbEntity
  8
7
100
AcDbLine
 10
2.375
 20
4.704724409448818
 30
0.0
 11
2.169291338582676
 21
4.704724409448818
 31
0.0
  0
LINE
  5
2AC2
330
1E
100
AcDbEntity
  8
7
100
AcDbLine
 10
2.169291338582676
 20
4.669291338582676
 30
0.0
 11
2.374015748031495
 21
4.669291338582676
 31
0.0
  0
LINE
  5
2AC3
330
1E
100
AcDbEntity
  8
7
100
AcDbLine
 10
2.169291338582676
 20
4.658464566929134
 30
0.0
 11
2.374015748031495
 21
4.658464566929134
 31
0.0
  0
LINE
  5
2AC4
330
1E
100
AcDbEntity
  8
7
100
AcDbLine
 10
3.111220472440944
 20
4.74015748031496
 30
0.0
 11
2.905511811023621
 21
4.74015748031496
 31
0.0
  0
LINE
  5
2AC5
330
1E
100
AcDbEntity
  8
7
100
AcDbLine
 10
3.111220472440944
 20
4.710629921259842
 30
0.0
 11
2.905511811023621
 21
4.710629921259842
 31
0.0
  0
LINE
  5
2AC6
330
1E
100
AcDbEntity
  8
7
100
AcDbLine
 10
2.905511811023621
 20
4.704724409448818
 30
0.0
 11
3.111220472440944
 21
4.704724409448818
 31
0.0
  0
LINE
  5
2AC7
330
1E
100
AcDbEntity
  8
7
100
AcDbLine
 10
3.111220472440944
 20
4.669291338582676
 30
0.0
 11
2.906496062992125
 21
4.669291338582676
 31
0.0
  0
LINE
  5
2AC8
330
1E
100
AcDbEntity
  8
7
100
AcDbLine
 10
3.111220472440944
 20
4.658464566929134
 30
0.0
 11
2.906496062992125
 21
4.658464566929134
 31
0.0
  0
LINE
  5
2AC9
330
1E
100
AcDbEntity
  8
7
100
AcDbLine
 10
3.541338582677165
 20
4.658464566929134
 30
0.0
 11
3.746062992125983
 21
4.658464566929134
 31
0.0
  0
LINE
  5
2ACA
330
1E
100
AcDbEntity
  8
7
100
AcDbLine
 10
3.541338582677165
 20
4.669291338582676
 30
0.0
 11
3.746062992125983
 21
4.669291338582676
 31
0.0
  0
LINE
  5
2ACB
330
1E
100
AcDbEntity
  8
7
100
AcDbLine
 10
3.747047244094487
 20
4.704724409448818
 30
0.0
 11
3.540354330708661
 21
4.704724409448818
 31
0.0
  0
LINE
  5
2ACC
330
1E
100
AcDbEntity
  8
7
100
AcDbLine
 10
3.540354330708661
 20
4.710629921259842
 30
0.0
 11
3.747047244094487
 21
4.710629921259842
 31
0.0
  0
LINE
  5
2ACD
330
1E
100
AcDbEntity
  8
7
100
AcDbLine
 10
3.540354330708661
 20
4.74015748031496
 30
0.0
 11
3.747047244094487
 21
4.74015748031496
 31
0.0
  0
LINE
  5
2ACE
330
1E
100
AcDbEntity
  8
7
100
AcDbLine
 10
3.99015748031496
 20
4.13779527559055
 30
0.0
 11
3.979330708661417
 21
4.148622047244094
 31
0.0
  0
LINE
  5
2ACF
330
1E
100
AcDbEntity
  8
7
100
AcDbLine
 10
3.054133858267716
 20
4.148622047244094
 30
0.0
 11
3.102362204724409
 21
4.148622047244094
 31
0.0
  0
LINE
  5
2AD0
330
1E
100
AcDbEntity
  8
7
100
AcDbLine
 10
2.823818897637794
 20
4.0501968503937
 30
0.0
 11
2.725393700787401
 21
4.0501968503937
 31
0.0
  0
LINE
  5
2AD1
330
1E
100
AcDbEntity
  8
7
100
AcDbLine
 10
2.55511811023622
 20
4.0501968503937
 30
0.0
 11
2.456692913385826
 21
4.0501968503937
 31
0.0
  0
LINE
  5
2AE5
330
1E
100
AcDbEntity
  8
7
100
AcDbLine
 10
5.493110236220472
 20
4.238188976377952
 30
0.0
 11
5.493110236220472
 21
5.743110236220472
 31
0.0
  0
LINE
  5
2AF6
330
1E
100
AcDbEntity
  8
7
100
AcDbLine
 10
5.159448818897637
 20
4.249015748031496
 30
0.0
 11
5.18996062992126
 21
4.249015748031496
 31
0.0
  0
LINE
  5
2AF7
330
1E
100
AcDbEntity
  8
7
100
AcDbLine
 10
5.18996062992126
 20
5.732283464566928
 30
0.0
 11
5.18996062992126
 21
4.249015748031496
 31
0.0
  0
LINE
  5
2B00
330
1E
100
AcDbEntity
  8
7
100
AcDbLine
 10
5.093503937007874
 20
4.249015748031496
 30
0.0
 11
5.093503937007874
 21
5.732283464566928
 31
0.0
  0
LINE
  5
2B01
330
1E
100
AcDbEntity
  8
7
100
AcDbLine
 10
5.18996062992126
 20
4.249015748031496
 30
0.0
 11
5.493110236220472
 21
4.238188976377952
 31
0.0
  0
LINE
  5
2B02
330
1E
100
AcDbEntity
  8
7
100
AcDbLine
 10
5.493110236220472
 20
5.743110236220472
 30
0.0
 11
5.18996062992126
 21
5.732283464566928
 31
0.0
  0
LINE
  5
2B0C
330
1E
100
AcDbEntity
  8
7
100
AcDbLine
 10
5.18996062992126
 20
5.83267716535433
 30
0.0
 11
5.493110236220472
 21
5.843503937007874
 31
0.0
  0
LINE
  5
2B15
330
1E
100
AcDbEntity
  8
7
100
AcDbLine
 10
5.683070866141732
 20
5.76279527559055
 30
0.0
 11
5.683070866141732
 21
5.589566929133858
 31
0.0
  0
LINE
  5
2B21
330
1E
100
AcDbEntity
  8
7
100
AcDbLine
 10
5.493110236220472
 20
5.586614173228346
 30
0.0
 11
5.683070866141732
 21
5.589566929133858
 31
0.0
  0
LINE
  5
2B35
330
1E
100
AcDbEntity
  8
7
100
AcDbLine
 10
5.493110236220472
 20
4.639763779527559
 30
0.0
 11
5.602362204724409
 21
4.64271653543307
 31
0.0
  0
LINE
  5
2B36
330
1E
100
AcDbEntity
  8
7
100
AcDbLine
 10
5.75
 20
4.576771653543307
 30
0.0
 11
5.583661417322835
 21
4.56496062992126
 31
0.0
  0
LINE
  5
2B3E
330
1E
100
AcDbEntity
  8
7
100
AcDbLine
 10
5.768700787401574
 20
4.625984251968503
 30
0.0
 11
5.686023622047244
 21
4.709645669291338
 31
0.0
  0
LINE
  5
2B44
330
1E
100
AcDbEntity
  8
7
100
AcDbLine
 10
5.605314960629921
 20
4.74015748031496
 30
0.0
 11
5.624015748031496
 21
4.738188976377952
 31
0.0
  0
LINE
  5
2B59
330
1E
100
AcDbEntity
  8
7
100
AcDbLine
 10
5.403543307086614
 20
4.141732283464566
 30
0.0
 11
5.406496062992125
 21
4.0501968503937
 31
0.0
  0
LINE
  5
2B5A
330
1E
100
AcDbEntity
  8
7
100
AcDbLine
 10
5.4251968503937
 20
4.0501968503937
 30
0.0
 11
5.406496062992125
 21
4.0501968503937
 31
0.0
  0
LINE
  5
2B5B
330
1E
100
AcDbEntity
  8
7
100
AcDbLine
 10
5.4251968503937
 20
4.0501968503937
 30
0.0
 11
5.433070866141732
 21
4.139763779527559
 31
0.0
  0
LINE
  5
2B5C
330
1E
100
AcDbEntity
  8
7
100
AcDbLine
 10
5.443897637795275
 20
4.139763779527559
 30
0.0
 11
5.436023622047244
 21
4.059055118110236
 31
0.0
  0
LINE
  5
2B5D
330
1E
100
AcDbEntity
  8
7
100
AcDbLine
 10
5.426181102362204
 20
4.0501968503937
 30
0.0
 11
5.4251968503937
 21
4.0501968503937
 31
0.0
  0
LINE
  5
2B63
330
1E
100
AcDbEntity
  8
7
100
AcDbLine
 10
5.498031496062992
 20
4.254921259842519
 30
0.0
 11
5.493110236220472
 21
4.282480314960629
 31
0.0
  0
LINE
  5
2B64
330
1E
100
AcDbEntity
  8
7
100
AcDbLine
 10
5.841535433070866
 20
4.37007874015748
 30
0.0
 11
5.662401574803149
 21
4.220472440944881
 31
0.0
  0
LINE
  5
2B88
330
1E
100
AcDbEntity
  8
7
100
AcDbLine
 10
5.874015748031496
 20
4.37007874015748
 30
0.0
 11
5.668307086614173
 21
4.37007874015748
 31
0.0
  0
LINE
  5
2B8F
330
1E
100
AcDbEntity
  8
7
100
AcDbLine
 10
5.687992125984251
 20
4.389763779527559
 30
0.0
 11
5.828740157480314
 21
4.389763779527559
 31
0.0
  0
LINE
  5
2B90
330
1E
100
AcDbEntity
  8
7
100
AcDbLine
 10
5.976377952755905
 20
4.441929133858267
 30
0.0
 11
5.976377952755905
 21
4.423228346456692
 31
0.0
  0
LINE
  5
2B9A
330
1E
100
AcDbEntity
  8
7
100
AcDbLine
 10
5.828740157480314
 20
4.389763779527559
 30
0.0
 11
5.828740157480314
 21
4.441929133858267
 31
0.0
  0
LINE
  5
2B9B
330
1E
100
AcDbEntity
  8
7
100
AcDbLine
 10
5.662401574803149
 20
4.220472440944881
 30
0.0
 11
5.634842519685039
 21
4.220472440944881
 31
0.0
  0
LINE
  5
2B9C
330
1E
100
AcDbEntity
  8
7
100
AcDbLine
 10
5.396653543307087
 20
4.060039370078739
 30
0.0
 11
5.393700787401574
 21
4.141732283464566
 31
0.0
  0
LINE
  5
2BA2
330
1E
100
AcDbEntity
  8
7
100
AcDbLine
 10
5.635826771653543
 20
4.33759842519685
 30
0.0
 11
5.575787401574803
 21
4.33759842519685
 31
0.0
  0
LINE
  5
2BA3
330
1E
100
AcDbEntity
  8
7
100
AcDbLine
 10
5.635826771653543
 20
4.33759842519685
 30
0.0
 11
5.687992125984251
 21
4.389763779527559
 31
0.0
  0
LINE
  5
2BA4
330
1E
100
AcDbEntity
  8
7
100
AcDbLine
 10
5.828740157480314
 20
4.441929133858267
 30
0.0
 11
5.493110236220472
 21
4.441929133858267
 31
0.0
  0
LINE
  5
2BA5
330
1E
100
AcDbEntity
  8
7
100
AcDbLine
 10
5.493110236220472
 20
4.13779527559055
 30
0.0
 11
5.18996062992126
 21
4.148622047244094
 31
0.0
  0
LINE
  5
2BA6
330
1E
100
AcDbEntity
  8
7
100
AcDbLine
 10
5.186023622047244
 20
4.148622047244094
 30
0.0
 11
5.18996062992126
 21
4.148622047244094
 31
0.0
  0
LINE
  5
2BA7
330
1E
100
AcDbEntity
  8
7
100
AcDbLine
 10
5.583661417322835
 20
4.347440944881889
 30
0.0
 11
5.583661417322835
 21
4.417322834645669
 31
0.0
  0
LINE
  5
2BA8
330
1E
100
AcDbEntity
  8
7
100
AcDbLine
 10
5.573818897637795
 20
4.427165354330708
 30
0.0
 11
5.493110236220472
 21
4.429133858267716
 31
0.0
  0
LINE
  5
2BA9
330
1E
100
AcDbEntity
  8
7
100
AcDbLine
 10
5.513779527559055
 20
4.33759842519685
 30
0.0
 11
5.573818897637795
 21
4.33759842519685
 31
0.0
  0
LINE
  5
2BAA
330
1E
100
AcDbEntity
  8
7
100
AcDbLine
 10
5.583661417322835
 20
4.417322834645669
 30
0.0
 11
5.580708661417323
 21
4.424212598425197
 31
0.0
  0
LINE
  5
2BAB
330
1E
100
AcDbEntity
  8
7
100
AcDbLine
 10
5.580708661417323
 20
4.424212598425197
 30
0.0
 11
5.573818897637795
 21
4.427165354330708
 31
0.0
  0
LINE
  5
2BB6
330
1E
100
AcDbEntity
  8
7
100
AcDbLine
 10
5.583661417322835
 20
4.583661417322834
 30
0.0
 11
5.583661417322835
 21
4.537401574803149
 31
0.0
  0
LINE
  5
2BB7
330
1E
100
AcDbEntity
  8
7
100
AcDbLine
 10
5.573818897637795
 20
4.537401574803149
 30
0.0
 11
5.513779527559055
 21
4.536417322834645
 31
0.0
  0
LINE
  5
2BB8
330
1E
100
AcDbEntity
  8
7
100
AcDbLine
 10
5.573818897637795
 20
4.537401574803149
 30
0.0
 11
5.573818897637795
 21
4.583661417322834
 31
0.0
  0
LINE
  5
4B6F
330
1E
100
AcDbEntity
  8
7
100
AcDbLine
 10
5.573818897637795
 20
4.583661417322834
 30
0.0
 11
5.580708661417323
 21
4.583661417322834
 31
0.0
  0
LINE
  5
4B70
330
1E
100
AcDbEntity
  8
7
100
AcDbLine
 10
5.580708661417323
 20
4.583661417322834
 30
0.0
 11
5.583661417322835
 21
4.583661417322834
 31
0.0
  0
LINE
  5
4B71
330
1E
100
AcDbEntity
  8
7
100
AcDbLine
 10
5.493110236220472
 20
4.584645669291338
 30
0.0
 11
5.499015748031496
 21
4.584645669291338
 31
0.0
  0
LINE
  5
4B72
330
1E
100
AcDbEntity
  8
7
100
AcDbLine
 10
5.499015748031496
 20
4.584645669291338
 30
0.0
 11
5.513779527559055
 21
4.584645669291338
 31
0.0
  0
LINE
  5
4B73
330
1E
100
AcDbEntity
  8
7
100
AcDbLine
 10
5.513779527559055
 20
4.536417322834645
 30
0.0
 11
5.499015748031496
 21
4.535433070866141
 31
0.0
  0
LINE
  5
4B74
330
1E
100
AcDbEntity
  8
7
100
AcDbLine
 10
5.499015748031496
 20
4.535433070866141
 30
0.0
 11
5.493110236220472
 21
4.535433070866141
 31
0.0
  0
LINE
  5
4B75
330
1E
100
AcDbEntity
  8
7
100
AcDbLine
 10
5.583661417322835
 20
4.537401574803149
 30
0.0
 11
5.580708661417323
 21
4.537401574803149
 31
0.0
  0
LINE
  5
4B76
330
1E
100
AcDbEntity
  8
7
100
AcDbLine
 10
5.580708661417323
 20
4.537401574803149
 30
0.0
 11
5.573818897637795
 21
4.537401574803149
 31
0.0
  0
LINE
  5
4B77
330
1E
100
AcDbEntity
  8
7
100
AcDbLine
 10
5.573818897637795
 20
4.583661417322834
 30
0.0
 11
5.513779527559055
 21
4.584645669291338
 31
0.0
  0
LINE
  5
4B78
330
1E
100
AcDbEntity
  8
7
100
AcDbLine
 10
5.513779527559055
 20
4.584645669291338
 30
0.0
 11
5.513779527559055
 21
4.536417322834645
 31
0.0
  0
LINE
  5
4B79
330
1E
100
AcDbEntity
  8
7
100
AcDbLine
 10
5.573818897637795
 20
4.33759842519685
 30
0.0
 11
5.580708661417323
 21
4.340551181102362
 31
0.0
  0
LINE
  5
4B7A
330
1E
100
AcDbEntity
  8
7
100
AcDbLine
 10
5.580708661417323
 20
4.340551181102362
 30
0.0
 11
5.583661417322835
 21
4.347440944881889
 31
0.0
  0
LINE
  5
4B7B
330
1E
100
AcDbEntity
  8
7
100
AcDbLine
 10
5.493110236220472
 20
4.316929133858267
 30
0.0
 11
5.499015748031496
 21
4.331692913385826
 31
0.0
  0
LINE
  5
4B7C
330
1E
100
AcDbEntity
  8
7
100
AcDbLine
 10
5.499015748031496
 20
4.331692913385826
 30
0.0
 11
5.513779527559055
 21
4.33759842519685
 31
0.0
  0
LINE
  5
4B7D
330
1E
100
AcDbEntity
  8
7
100
AcDbLine
 10
5.396653543307087
 20
4.060039370078739
 30
0.0
 11
5.399606299212599
 21
4.053149606299212
 31
0.0
  0
LINE
  5
4B7E
330
1E
100
AcDbEntity
  8
7
100
AcDbLine
 10
5.399606299212599
 20
4.053149606299212
 30
0.0
 11
5.406496062992125
 21
4.0501968503937
 31
0.0
  0
LINE
  5
4B7F
330
1E
100
AcDbEntity
  8
7
100
AcDbLine
 10
5.828740157480314
 20
4.441929133858267
 30
0.0
 11
5.867125984251968
 21
4.441929133858267
 31
0.0
  0
LINE
  5
4B80
330
1E
100
AcDbEntity
  8
7
100
AcDbLine
 10
5.867125984251968
 20
4.441929133858267
 30
0.0
 11
5.90255905511811
 21
4.441929133858267
 31
0.0
  0
LINE
  5
4B81
330
1E
100
AcDbEntity
  8
7
100
AcDbLine
 10
5.90255905511811
 20
4.441929133858267
 30
0.0
 11
5.933070866141732
 21
4.441929133858267
 31
0.0
  0
LINE
  5
4B82
330
1E
100
AcDbEntity
  8
7
100
AcDbLine
 10
5.933070866141732
 20
4.441929133858267
 30
0.0
 11
5.956692913385826
 21
4.441929133858267
 31
0.0
  0
LINE
  5
4B83
330
1E
100
AcDbEntity
  8
7
100
AcDbLine
 10
5.956692913385826
 20
4.441929133858267
 30
0.0
 11
5.971456692913386
 21
4.441929133858267
 31
0.0
  0
LINE
  5
4B84
330
1E
100
AcDbEntity
  8
7
100
AcDbLine
 10
5.971456692913386
 20
4.441929133858267
 30
0.0
 11
5.976377952755905
 21
4.441929133858267
 31
0.0
  0
LINE
  5
4B85
330
1E
100
AcDbEntity
  8
7
100
AcDbLine
 10
5.828740157480314
 20
4.389763779527559
 30
0.0
 11
5.829724409448819
 21
4.389763779527559
 31
0.0
  0
LINE
  5
4B86
330
1E
100
AcDbEntity
  8
7
100
AcDbLine
 10
5.829724409448819
 20
4.389763779527559
 30
0.0
 11
5.845472440944882
 21
4.383858267716535
 31
0.0
  0
LINE
  5
4B87
330
1E
100
AcDbEntity
  8
7
100
AcDbLine
 10
5.845472440944882
 20
4.383858267716535
 30
0.0
 11
5.854330708661417
 21
4.380905511811023
 31
0.0
  0
LINE
  5
4B88
330
1E
100
AcDbEntity
  8
7
100
AcDbLine
 10
5.947834645669291
 20
4.398622047244094
 30
0.0
 11
5.93011811023622
 21
4.391732283464566
 31
0.0
  0
LINE
  5
4B89
330
1E
100
AcDbEntity
  8
7
100
AcDbLine
 10
5.93011811023622
 20
4.391732283464566
 30
0.0
 11
5.905511811023622
 21
4.381889763779527
 31
0.0
  0
LINE
  5
4B8A
330
1E
100
AcDbEntity
  8
7
100
AcDbLine
 10
5.905511811023622
 20
4.381889763779527
 30
0.0
 11
5.876968503937008
 21
4.37007874015748
 31
0.0
  0
LINE
  5
4B8B
330
1E
100
AcDbEntity
  8
7
100
AcDbLine
 10
5.963582677165354
 20
4.405511811023622
 30
0.0
 11
5.959645669291338
 21
4.403543307086613
 31
0.0
  0
LINE
  5
4B8C
330
1E
100
AcDbEntity
  8
7
100
AcDbLine
 10
5.959645669291338
 20
4.403543307086613
 30
0.0
 11
5.947834645669291
 21
4.398622047244094
 31
0.0
  0
LINE
  5
4B8D
330
1E
100
AcDbEntity
  8
7
100
AcDbLine
 10
5.876968503937008
 20
4.37007874015748
 30
0.0
 11
5.875984251968503
 21
4.37007874015748
 31
0.0
  0
LINE
  5
4B8E
330
1E
100
AcDbEntity
  8
7
100
AcDbLine
 10
5.875984251968503
 20
4.37007874015748
 30
0.0
 11
5.874015748031496
 21
4.37007874015748
 31
0.0
  0
LINE
  5
4B8F
330
1E
100
AcDbEntity
  8
7
100
AcDbLine
 10
5.874015748031496
 20
4.37007874015748
 30
0.0
 11
5.869094488188976
 21
4.372047244094487
 31
0.0
  0
LINE
  5
4B90
330
1E
100
AcDbEntity
  8
7
100
AcDbLine
 10
5.869094488188976
 20
4.372047244094487
 30
0.0
 11
5.863188976377952
 21
4.375984251968503
 31
0.0
  0
LINE
  5
4B91
330
1E
100
AcDbEntity
  8
7
100
AcDbLine
 10
5.863188976377952
 20
4.375984251968503
 30
0.0
 11
5.856299212598425
 21
4.380905511811023
 31
0.0
  0
LINE
  5
4B92
330
1E
100
AcDbEntity
  8
7
100
AcDbLine
 10
5.856299212598425
 20
4.380905511811023
 30
0.0
 11
5.854330708661417
 21
4.380905511811023
 31
0.0
  0
LINE
  5
4B93
330
1E
100
AcDbEntity
  8
7
100
AcDbLine
 10
5.941929133858267
 20
4.411417322834645
 30
0.0
 11
5.960629921259842
 21
4.418307086614173
 31
0.0
  0
LINE
  5
4B94
330
1E
100
AcDbEntity
  8
7
100
AcDbLine
 10
5.960629921259842
 20
4.418307086614173
 30
0.0
 11
5.972440944881889
 21
4.422244094488188
 31
0.0
  0
LINE
  5
4B95
330
1E
100
AcDbEntity
  8
7
100
AcDbLine
 10
5.972440944881889
 20
4.422244094488188
 30
0.0
 11
5.976377952755905
 21
4.423228346456692
 31
0.0
  0
LINE
  5
4B96
330
1E
100
AcDbEntity
  8
7
100
AcDbLine
 10
5.854330708661417
 20
4.380905511811023
 30
0.0
 11
5.886811023622047
 21
4.39271653543307
 31
0.0
  0
LINE
  5
4B97
330
1E
100
AcDbEntity
  8
7
100
AcDbLine
 10
5.886811023622047
 20
4.39271653543307
 30
0.0
 11
5.917322834645669
 21
4.40255905511811
 31
0.0
  0
LINE
  5
4B98
330
1E
100
AcDbEntity
  8
7
100
AcDbLine
 10
5.917322834645669
 20
4.40255905511811
 30
0.0
 11
5.941929133858267
 21
4.411417322834645
 31
0.0
  0
LINE
  5
4B99
330
1E
100
AcDbEntity
  8
7
100
AcDbLine
 10
5.426181102362204
 20
4.0501968503937
 30
0.0
 11
5.433070866141732
 21
4.053149606299212
 31
0.0
  0
LINE
  5
4B9A
330
1E
100
AcDbEntity
  8
7
100
AcDbLine
 10
5.433070866141732
 20
4.053149606299212
 30
0.0
 11
5.436023622047244
 21
4.059055118110236
 31
0.0
  0
LINE
  5
4B9B
330
1E
100
AcDbEntity
  8
7
100
AcDbLine
 10
5.634842519685039
 20
4.220472440944881
 30
0.0
 11
5.616141732283464
 21
4.24507874015748
 31
0.0
  0
LINE
  5
4B9C
330
1E
100
AcDbEntity
  8
7
100
AcDbLine
 10
5.616141732283464
 20
4.24507874015748
 30
0.0
 11
5.498031496062992
 21
4.254921259842519
 31
0.0
  0
LINE
  5
4B9D
330
1E
100
AcDbEntity
  8
7
100
AcDbLine
 10
5.963582677165354
 20
4.404527559055118
 30
0.0
 11
5.973425196850393
 21
4.412401574803149
 31
0.0
  0
LINE
  5
4B9E
330
1E
100
AcDbEntity
  8
7
100
AcDbLine
 10
5.973425196850393
 20
4.412401574803149
 30
0.0
 11
5.976377952755905
 21
4.423228346456692
 31
0.0
  0
LINE
  5
4B9F
330
1E
100
AcDbEntity
  8
7
100
AcDbLine
 10
5.605314960629921
 20
4.74015748031496
 30
0.0
 11
5.605314960629921
 21
4.710629921259842
 31
0.0
  0
LINE
  5
4BA0
330
1E
100
AcDbEntity
  8
7
100
AcDbLine
 10
5.605314960629921
 20
4.710629921259842
 30
0.0
 11
5.606299212598425
 21
4.704724409448818
 31
0.0
  0
LINE
  5
4BA1
330
1E
100
AcDbEntity
  8
7
100
AcDbLine
 10
5.606299212598425
 20
4.704724409448818
 30
0.0
 11
5.615157480314961
 21
4.687992125984251
 31
0.0
  0
LINE
  5
4BA2
330
1E
100
AcDbEntity
  8
7
100
AcDbLine
 10
5.615157480314961
 20
4.687992125984251
 30
0.0
 11
5.617125984251968
 21
4.669291338582676
 31
0.0
  0
LINE
  5
4BA3
330
1E
100
AcDbEntity
  8
7
100
AcDbLine
 10
5.617125984251968
 20
4.669291338582676
 30
0.0
 11
5.617125984251968
 21
4.658464566929134
 31
0.0
  0
LINE
  5
4BA4
330
1E
100
AcDbEntity
  8
7
100
AcDbLine
 10
5.617125984251968
 20
4.658464566929134
 30
0.0
 11
5.613188976377952
 21
4.64763779527559
 31
0.0
  0
LINE
  5
4BA5
330
1E
100
AcDbEntity
  8
7
100
AcDbLine
 10
5.613188976377952
 20
4.64763779527559
 30
0.0
 11
5.602362204724409
 21
4.64271653543307
 31
0.0
  0
LINE
  5
4BA6
330
1E
100
AcDbEntity
  8
7
100
AcDbLine
 10
5.624015748031496
 20
4.738188976377952
 30
0.0
 11
5.65748031496063
 21
4.729330708661417
 31
0.0
  0
LINE
  5
4BA7
330
1E
100
AcDbEntity
  8
7
100
AcDbLine
 10
5.65748031496063
 20
4.729330708661417
 30
0.0
 11
5.686023622047244
 21
4.709645669291338
 31
0.0
  0
LINE
  5
4BA8
330
1E
100
AcDbEntity
  8
7
100
AcDbLine
 10
5.768700787401574
 20
4.625984251968503
 30
0.0
 11
5.776574803149606
 21
4.611220472440944
 31
0.0
  0
LINE
  5
4BA9
330
1E
100
AcDbEntity
  8
7
100
AcDbLine
 10
5.776574803149606
 20
4.611220472440944
 30
0.0
 11
5.775590551181102
 21
4.595472440944881
 31
0.0
  0
LINE
  5
4BAA
330
1E
100
AcDbEntity
  8
7
100
AcDbLine
 10
5.775590551181102
 20
4.595472440944881
 30
0.0
 11
5.765748031496062
 21
4.581692913385826
 31
0.0
  0
LINE
  5
4BAB
330
1E
100
AcDbEntity
  8
7
100
AcDbLine
 10
5.765748031496062
 20
4.581692913385826
 30
0.0
 11
5.75
 21
4.576771653543307
 31
0.0
  0
LINE
  5
4BAC
330
1E
100
AcDbEntity
  8
7
100
AcDbLine
 10
5.18996062992126
 20
4.148622047244094
 30
0.0
 11
5.188976377952756
 21
4.153543307086613
 31
0.0
  0
LINE
  5
4BAD
330
1E
100
AcDbEntity
  8
7
100
AcDbLine
 10
5.188976377952756
 20
4.153543307086613
 30
0.0
 11
5.188976377952756
 21
4.168307086614173
 31
0.0
  0
LINE
  5
4BAE
330
1E
100
AcDbEntity
  8
7
100
AcDbLine
 10
5.188976377952756
 20
4.168307086614173
 30
0.0
 11
5.188976377952756
 21
4.18996062992126
 31
0.0
  0
LINE
  5
4BAF
330
1E
100
AcDbEntity
  8
7
100
AcDbLine
 10
5.188976377952756
 20
4.18996062992126
 30
0.0
 11
5.188976377952756
 21
4.21751968503937
 31
0.0
  0
LINE
  5
4BB0
330
1E
100
AcDbEntity
  8
7
100
AcDbLine
 10
5.188976377952756
 20
4.21751968503937
 30
0.0
 11
5.18996062992126
 21
4.249015748031496
 31
0.0
  0
LINE
  5
4BB1
330
1E
100
AcDbEntity
  8
7
100
AcDbLine
 10
5.133858267716535
 20
4.170275590551181
 30
0.0
 11
5.160433070866141
 21
4.155511811023622
 31
0.0
  0
LINE
  5
4BB2
330
1E
100
AcDbEntity
  8
7
100
AcDbLine
 10
5.160433070866141
 20
4.155511811023622
 30
0.0
 11
5.18996062992126
 21
4.149606299212598
 31
0.0
  0
LINE
  5
4BB3
330
1E
100
AcDbEntity
  8
7
100
AcDbLine
 10
5.094488188976377
 20
4.249015748031496
 30
0.0
 11
5.099409448818898
 21
4.218503937007874
 31
0.0
  0
LINE
  5
4BB4
330
1E
100
AcDbEntity
  8
7
100
AcDbLine
 10
5.099409448818898
 20
4.218503937007874
 30
0.0
 11
5.112204724409449
 21
4.191929133858267
 31
0.0
  0
LINE
  5
4BB5
330
1E
100
AcDbEntity
  8
7
100
AcDbLine
 10
5.112204724409449
 20
4.191929133858267
 30
0.0
 11
5.133858267716535
 21
4.170275590551181
 31
0.0
  0
LINE
  5
4BB6
330
1E
100
AcDbEntity
  8
7
100
AcDbLine
 10
5.133858267716535
 20
5.811023622047244
 30
0.0
 11
5.112204724409449
 21
5.789370078740157
 31
0.0
  0
LINE
  5
4BB7
330
1E
100
AcDbEntity
  8
7
100
AcDbLine
 10
5.112204724409449
 20
5.789370078740157
 30
0.0
 11
5.099409448818898
 21
5.76279527559055
 31
0.0
  0
LINE
  5
4BB8
330
1E
100
AcDbEntity
  8
7
100
AcDbLine
 10
5.099409448818898
 20
5.76279527559055
 30
0.0
 11
5.094488188976377
 21
5.732283464566928
 31
0.0
  0
LINE
  5
4BB9
330
1E
100
AcDbEntity
  8
7
100
AcDbLine
 10
5.18996062992126
 20
5.831692913385826
 30
0.0
 11
5.160433070866141
 21
5.825787401574802
 31
0.0
  0
LINE
  5
4BBA
330
1E
100
AcDbEntity
  8
7
100
AcDbLine
 10
5.160433070866141
 20
5.825787401574802
 30
0.0
 11
5.133858267716535
 21
5.811023622047244
 31
0.0
  0
LINE
  5
4BBB
330
1E
100
AcDbEntity
  8
7
100
AcDbLine
 10
5.18996062992126
 20
5.732283464566928
 30
0.0
 11
5.188976377952756
 21
5.763779527559054
 31
0.0
  0
LINE
  5
4BBC
330
1E
100
AcDbEntity
  8
7
100
AcDbLine
 10
5.188976377952756
 20
5.763779527559054
 30
0.0
 11
5.188976377952756
 21
5.791338582677165
 31
0.0
  0
LINE
  5
4BBD
330
1E
100
AcDbEntity
  8
7
100
AcDbLine
 10
5.188976377952756
 20
5.791338582677165
 30
0.0
 11
5.188976377952756
 21
5.812992125984251
 31
0.0
  0
LINE
  5
4BBE
330
1E
100
AcDbEntity
  8
7
100
AcDbLine
 10
5.188976377952756
 20
5.812992125984251
 30
0.0
 11
5.188976377952756
 21
5.827755905511811
 31
0.0
  0
LINE
  5
4BBF
330
1E
100
AcDbEntity
  8
7
100
AcDbLine
 10
5.188976377952756
 20
5.827755905511811
 30
0.0
 11
5.18996062992126
 21
5.83267716535433
 31
0.0
  0
LINE
  5
4BC0
330
1E
100
AcDbEntity
  8
7
100
AcDbLine
 10
5.683070866141732
 20
5.76279527559055
 30
0.0
 11
5.624015748031496
 21
5.76279527559055
 31
0.0
  0
LINE
  5
4BC1
330
1E
100
AcDbEntity
  8
7
100
AcDbLine
 10
5.624015748031496
 20
5.76279527559055
 30
0.0
 11
5.601377952755905
 21
5.678149606299212
 31
0.0
  0
LINE
  5
4BC2
330
1E
100
AcDbEntity
  8
7
100
AcDbLine
 10
5.601377952755905
 20
5.678149606299212
 30
0.0
 11
5.593503937007874
 21
5.672244094488188
 31
0.0
  0
LINE
  5
4BC3
330
1E
100
AcDbEntity
  8
7
100
AcDbLine
 10
5.593503937007874
 20
5.672244094488188
 30
0.0
 11
5.501968503937008
 21
5.672244094488188
 31
0.0
  0
LINE
  5
4BC4
330
1E
100
AcDbEntity
  8
7
100
AcDbLine
 10
5.501968503937008
 20
5.672244094488188
 30
0.0
 11
5.496062992125984
 21
5.6751968503937
 31
0.0
  0
LINE
  5
4BC5
330
1E
100
AcDbEntity
  8
7
100
AcDbLine
 10
5.496062992125984
 20
5.6751968503937
 30
0.0
 11
5.493110236220472
 21
5.68011811023622
 31
0.0
  0
LINE
  5
4BC6
330
1E
100
AcDbEntity
  8
7
100
AcDbLine
 10
5.093503937007874
 20
5.732283464566928
 30
0.0
 11
5.098425196850393
 21
5.732283464566928
 31
0.0
  0
LINE
  5
4BC7
330
1E
100
AcDbEntity
  8
7
100
AcDbLine
 10
5.098425196850393
 20
5.732283464566928
 30
0.0
 11
5.112204724409449
 21
5.732283464566928
 31
0.0
  0
LINE
  5
4BC8
330
1E
100
AcDbEntity
  8
7
100
AcDbLine
 10
5.112204724409449
 20
5.732283464566928
 30
0.0
 11
5.132874015748031
 21
5.732283464566928
 31
0.0
  0
LINE
  5
4BC9
330
1E
100
AcDbEntity
  8
7
100
AcDbLine
 10
5.132874015748031
 20
5.732283464566928
 30
0.0
 11
5.159448818897637
 21
5.732283464566928
 31
0.0
  0
LINE
  5
4BCA
330
1E
100
AcDbEntity
  8
7
100
AcDbLine
 10
5.159448818897637
 20
5.732283464566928
 30
0.0
 11
5.18996062992126
 21
5.732283464566928
 31
0.0
  0
LINE
  5
4BCB
330
1E
100
AcDbEntity
  8
7
100
AcDbLine
 10
5.093503937007874
 20
4.249015748031496
 30
0.0
 11
5.098425196850393
 21
4.249015748031496
 31
0.0
  0
LINE
  5
4BCC
330
1E
100
AcDbEntity
  8
7
100
AcDbLine
 10
5.098425196850393
 20
4.249015748031496
 30
0.0
 11
5.112204724409449
 21
4.249015748031496
 31
0.0
  0
LINE
  5
4BCD
330
1E
100
AcDbEntity
  8
7
100
AcDbLine
 10
5.112204724409449
 20
4.249015748031496
 30
0.0
 11
5.132874015748031
 21
4.249015748031496
 31
0.0
  0
LINE
  5
4BCE
330
1E
100
AcDbEntity
  8
7
100
AcDbLine
 10
5.132874015748031
 20
4.249015748031496
 30
0.0
 11
5.159448818897637
 21
4.249015748031496
 31
0.0
  0
LINE
  5
4BCF
330
1E
100
AcDbEntity
  8
7
100
AcDbLine
 10
5.493110236220472
 20
4.238188976377952
 30
0.0
 11
5.493110236220472
 21
4.21259842519685
 31
0.0
  0
LINE
  5
4BD0
330
1E
100
AcDbEntity
  8
7
100
AcDbLine
 10
5.493110236220472
 20
4.21259842519685
 30
0.0
 11
5.493110236220472
 21
4.187992125984251
 31
0.0
  0
LINE
  5
4BD1
330
1E
100
AcDbEntity
  8
7
100
AcDbLine
 10
5.493110236220472
 20
4.187992125984251
 30
0.0
 11
5.493110236220472
 21
4.167322834645669
 31
0.0
  0
LINE
  5
4BD2
330
1E
100
AcDbEntity
  8
7
100
AcDbLine
 10
5.493110236220472
 20
4.167322834645669
 30
0.0
 11
5.493110236220472
 21
4.151574803149606
 31
0.0
  0
LINE
  5
4BD3
330
1E
100
AcDbEntity
  8
7
100
AcDbLine
 10
5.493110236220472
 20
4.151574803149606
 30
0.0
 11
5.493110236220472
 21
4.141732283464566
 31
0.0
  0
LINE
  5
4BD4
330
1E
100
AcDbEntity
  8
7
100
AcDbLine
 10
5.493110236220472
 20
4.141732283464566
 30
0.0
 11
5.493110236220472
 21
4.13779527559055
 31
0.0
  0
LINE
  5
4BD5
330
1E
100
AcDbEntity
  8
7
100
AcDbLine
 10
5.493110236220472
 20
5.843503937007874
 30
0.0
 11
5.493110236220472
 21
5.839566929133858
 31
0.0
  0
LINE
  5
4BD6
330
1E
100
AcDbEntity
  8
7
100
AcDbLine
 10
5.493110236220472
 20
5.839566929133858
 30
0.0
 11
5.493110236220472
 21
5.829724409448818
 31
0.0
  0
LINE
  5
4BD7
330
1E
100
AcDbEntity
  8
7
100
AcDbLine
 10
5.493110236220472
 20
5.829724409448818
 30
0.0
 11
5.493110236220472
 21
5.813976377952755
 31
0.0
  0
LINE
  5
4BD8
330
1E
100
AcDbEntity
  8
7
100
AcDbLine
 10
5.493110236220472
 20
5.813976377952755
 30
0.0
 11
5.493110236220472
 21
5.793307086614173
 31
0.0
  0
LINE
  5
4BD9
330
1E
100
AcDbEntity
  8
7
100
AcDbLine
 10
5.493110236220472
 20
5.793307086614173
 30
0.0
 11
5.493110236220472
 21
5.768700787401574
 31
0.0
  0
LINE
  5
4BDA
330
1E
100
AcDbEntity
  8
7
100
AcDbLine
 10
5.493110236220472
 20
5.768700787401574
 30
0.0
 11
5.493110236220472
 21
5.743110236220472
 31
0.0
  0
LINE
  5
4BDB
330
1E
100
AcDbEntity
  8
7
100
AcDbLine
 10
2.564960629921259
 20
4.060039370078739
 30
0.0
 11
2.562007874015747
 21
4.053149606299212
 31
0.0
  0
LINE
  5
4BDC
330
1E
100
AcDbEntity
  8
7
100
AcDbLine
 10
2.562007874015747
 20
4.053149606299212
 30
0.0
 11
2.55511811023622
 21
4.0501968503937
 31
0.0
  0
LINE
  5
4BDD
330
1E
100
AcDbEntity
  8
7
100
AcDbLine
 10
2.725393700787401
 20
4.0501968503937
 30
0.0
 11
2.718503937007873
 21
4.053149606299212
 31
0.0
  0
LINE
  5
4BDE
330
1E
100
AcDbEntity
  8
7
100
AcDbLine
 10
2.718503937007873
 20
4.053149606299212
 30
0.0
 11
2.715551181102362
 21
4.060039370078739
 31
0.0
  0
LINE
  5
4BDF
330
1E
100
AcDbEntity
  8
7
100
AcDbLine
 10
2.574803149606299
 20
4.074803149606299
 30
0.0
 11
2.704724409448818
 21
4.074803149606299
 31
0.0
  0
LINE
  5
4BE0
330
1E
100
AcDbEntity
  8
7
100
AcDbLine
 10
2.704724409448818
 20
4.074803149606299
 30
0.0
 11
2.71259842519685
 21
4.071850393700787
 31
0.0
  0
LINE
  5
4BE1
330
1E
100
AcDbEntity
  8
7
100
AcDbLine
 10
2.71259842519685
 20
4.071850393700787
 30
0.0
 11
2.715551181102362
 21
4.06496062992126
 31
0.0
  0
LINE
  5
4BE2
330
1E
100
AcDbEntity
  8
7
100
AcDbLine
 10
2.715551181102362
 20
4.06496062992126
 30
0.0
 11
2.715551181102362
 21
4.060039370078739
 31
0.0
  0
LINE
  5
4BE3
330
1E
100
AcDbEntity
  8
7
100
AcDbLine
 10
2.465551181102362
 20
4.060039370078739
 30
0.0
 11
2.564960629921259
 21
4.060039370078739
 31
0.0
  0
LINE
  5
4BE4
330
1E
100
AcDbEntity
  8
7
100
AcDbLine
 10
2.564960629921259
 20
4.060039370078739
 30
0.0
 11
2.564960629921259
 21
4.06496062992126
 31
0.0
  0
LINE
  5
4BE5
330
1E
100
AcDbEntity
  8
7
100
AcDbLine
 10
2.564960629921259
 20
4.06496062992126
 30
0.0
 11
2.567913385826771
 21
4.071850393700787
 31
0.0
  0
LINE
  5
4BE6
330
1E
100
AcDbEntity
  8
7
100
AcDbLine
 10
2.567913385826771
 20
4.071850393700787
 30
0.0
 11
2.574803149606299
 21
4.074803149606299
 31
0.0
  0
LINE
  5
4BE7
330
1E
100
AcDbEntity
  8
7
100
AcDbLine
 10
2.814960629921259
 20
4.060039370078739
 30
0.0
 11
2.820866141732283
 21
4.053149606299212
 31
0.0
  0
LINE
  5
4BE8
330
1E
100
AcDbEntity
  8
7
100
AcDbLine
 10
2.820866141732283
 20
4.053149606299212
 30
0.0
 11
2.823818897637794
 21
4.0501968503937
 31
0.0
  0
LINE
  5
4BE9
330
1E
100
AcDbEntity
  8
7
100
AcDbLine
 10
2.456692913385826
 20
4.0501968503937
 30
0.0
 11
2.458661417322834
 21
4.053149606299212
 31
0.0
  0
LINE
  5
4BEA
330
1E
100
AcDbEntity
  8
7
100
AcDbLine
 10
2.458661417322834
 20
4.053149606299212
 30
0.0
 11
2.465551181102362
 21
4.060039370078739
 31
0.0
  0
LINE
  5
4BEB
330
1E
100
AcDbEntity
  8
7
100
AcDbLine
 10
2.694881889763779
 20
5.357283464566928
 30
0.0
 11
3.956692913385826
 21
5.357283464566928
 31
0.0
  0
LINE
  5
4BEC
330
1E
100
AcDbEntity
  8
7
100
AcDbLine
 10
3.956692913385826
 20
5.357283464566928
 30
0.0
 11
3.956692913385826
 21
4.694881889763779
 31
0.0
  0
LINE
  5
4BED
330
1E
100
AcDbEntity
  8
7
100
AcDbLine
 10
2.76279527559055
 20
4.629921259842519
 30
0.0
 11
2.76279527559055
 21
4.694881889763779
 31
0.0
  0
LINE
  5
4BEE
330
1E
100
AcDbEntity
  8
7
100
AcDbLine
 10
2.76279527559055
 20
4.694881889763779
 30
0.0
 11
2.694881889763779
 21
4.694881889763779
 31
0.0
  0
LINE
  5
4BEF
330
1E
100
AcDbEntity
  8
7
100
AcDbLine
 10
3.39763779527559
 20
4.694881889763779
 30
0.0
 11
3.254921259842519
 21
4.694881889763779
 31
0.0
  0
LINE
  5
4BF0
330
1E
100
AcDbEntity
  8
7
100
AcDbLine
 10
3.254921259842519
 20
4.694881889763779
 30
0.0
 11
3.254921259842519
 21
4.629921259842519
 31
0.0
  0
LINE
  5
4BF1
330
1E
100
AcDbEntity
  8
7
100
AcDbLine
 10
1.323818897637795
 20
5.357283464566928
 30
0.0
 11
2.585629921259842
 21
5.357283464566928
 31
0.0
  0
LINE
  5
4BF2
330
1E
100
AcDbEntity
  8
7
100
AcDbLine
 10
2.585629921259842
 20
5.357283464566928
 30
0.0
 11
2.585629921259842
 21
4.694881889763779
 31
0.0
  0
LINE
  5
4BF3
330
1E
100
AcDbEntity
  8
7
100
AcDbLine
 10
1.390748031496062
 20
4.629921259842519
 30
0.0
 11
1.390748031496062
 21
4.694881889763779
 31
0.0
  0
LINE
  5
4BF4
330
1E
100
AcDbEntity
  8
7
100
AcDbLine
 10
1.390748031496062
 20
4.694881889763779
 30
0.0
 11
1.323818897637795
 21
4.694881889763779
 31
0.0
  0
LINE
  5
4BF5
330
1E
100
AcDbEntity
  8
7
100
AcDbLine
 10
1.533464566929133
 20
4.704724409448818
 30
0.0
 11
1.534448818897637
 21
4.687992125984251
 31
0.0
  0
LINE
  5
4BF6
330
1E
100
AcDbEntity
  8
7
100
AcDbLine
 10
1.534448818897637
 20
4.687992125984251
 30
0.0
 11
1.534448818897637
 21
4.669291338582676
 31
0.0
  0
LINE
  5
4BF7
330
1E
100
AcDbEntity
  8
7
100
AcDbLine
 10
1.534448818897637
 20
4.658464566929134
 30
0.0
 11
1.534448818897637
 21
4.64763779527559
 31
0.0
  0
LINE
  5
4BF8
330
1E
100
AcDbEntity
  8
7
100
AcDbLine
 10
1.534448818897637
 20
4.64763779527559
 30
0.0
 11
1.533464566929133
 21
4.64271653543307
 31
0.0
  0
LINE
  5
4BF9
330
1E
100
AcDbEntity
  8
7
100
AcDbLine
 10
1.74015748031496
 20
4.64271653543307
 30
0.0
 11
1.739173228346456
 21
4.64763779527559
 31
0.0
  0
LINE
  5
4BFA
330
1E
100
AcDbEntity
  8
7
100
AcDbLine
 10
1.739173228346456
 20
4.64763779527559
 30
0.0
 11
1.739173228346456
 21
4.658464566929134
 31
0.0
  0
LINE
  5
4BFB
330
1E
100
AcDbEntity
  8
7
100
AcDbLine
 10
1.739173228346456
 20
4.669291338582676
 30
0.0
 11
1.739173228346456
 21
4.687992125984251
 31
0.0
  0
LINE
  5
4BFC
330
1E
100
AcDbEntity
  8
7
100
AcDbLine
 10
1.739173228346456
 20
4.687992125984251
 30
0.0
 11
1.74015748031496
 21
4.704724409448818
 31
0.0
  0
LINE
  5
4BFD
330
1E
100
AcDbEntity
  8
7
100
AcDbLine
 10
1.391732283464566
 20
4.695866141732283
 30
0.0
 11
1.391732283464566
 21
4.630905511811023
 31
0.0
  0
LINE
  5
4BFE
330
1E
100
AcDbEntity
  8
7
100
AcDbLine
 10
1.391732283464566
 20
4.630905511811023
 30
0.0
 11
1.509842519685039
 21
4.630905511811023
 31
0.0
  0
LINE
  5
4BFF
330
1E
100
AcDbEntity
  8
7
100
AcDbLine
 10
1.549212598425197
 20
5.346456692913386
 30
0.0
 11
1.549212598425197
 21
5.353346456692912
 31
0.0
  0
LINE
  5
4C00
330
1E
100
AcDbEntity
  8
7
100
AcDbLine
 10
1.549212598425197
 20
5.353346456692912
 30
0.0
 11
1.549212598425197
 21
5.356299212598425
 31
0.0
  0
LINE
  5
4C01
330
1E
100
AcDbEntity
  8
7
100
AcDbLine
 10
1.549212598425197
 20
5.356299212598425
 30
0.0
 11
1.324803149606299
 21
5.356299212598425
 31
0.0
  0
LINE
  5
4C02
330
1E
100
AcDbEntity
  8
7
100
AcDbLine
 10
1.724409448818897
 20
5.356299212598425
 30
0.0
 11
1.724409448818897
 21
5.353346456692912
 31
0.0
  0
LINE
  5
4C03
330
1E
100
AcDbEntity
  8
7
100
AcDbLine
 10
1.724409448818897
 20
5.353346456692912
 30
0.0
 11
1.724409448818897
 21
5.346456692913386
 31
0.0
  0
LINE
  5
4C04
330
1E
100
AcDbEntity
  8
7
100
AcDbLine
 10
1.724409448818897
 20
5.346456692913386
 30
0.0
 11
1.724409448818897
 21
5.317913385826771
 31
0.0
  0
LINE
  5
4C05
330
1E
100
AcDbEntity
  8
7
100
AcDbLine
 10
2.184055118110236
 20
5.346456692913386
 30
0.0
 11
2.184055118110236
 21
5.353346456692912
 31
0.0
  0
LINE
  5
4C06
330
1E
100
AcDbEntity
  8
7
100
AcDbLine
 10
2.184055118110236
 20
5.353346456692912
 30
0.0
 11
2.184055118110236
 21
5.356299212598425
 31
0.0
  0
LINE
  5
4C07
330
1E
100
AcDbEntity
  8
7
100
AcDbLine
 10
2.184055118110236
 20
5.356299212598425
 30
0.0
 11
1.724409448818897
 21
5.356299212598425
 31
0.0
  0
LINE
  5
4C08
330
1E
100
AcDbEntity
  8
7
100
AcDbLine
 10
2.359251968503936
 20
5.356299212598425
 30
0.0
 11
2.359251968503936
 21
5.353346456692912
 31
0.0
  0
LINE
  5
4C09
330
1E
100
AcDbEntity
  8
7
100
AcDbLine
 10
2.359251968503936
 20
5.353346456692912
 30
0.0
 11
2.359251968503936
 21
5.346456692913386
 31
0.0
  0
LINE
  5
4C0A
330
1E
100
AcDbEntity
  8
7
100
AcDbLine
 10
2.169291338582676
 20
4.669291338582676
 30
0.0
 11
2.169291338582676
 21
4.687992125984251
 31
0.0
  0
LINE
  5
4C0B
330
1E
100
AcDbEntity
  8
7
100
AcDbLine
 10
2.169291338582676
 20
4.687992125984251
 30
0.0
 11
2.169291338582676
 21
4.704724409448818
 31
0.0
  0
LINE
  5
4C0C
330
1E
100
AcDbEntity
  8
7
100
AcDbLine
 10
2.169291338582676
 20
4.704724409448818
 30
0.0
 11
2.168307086614173
 21
4.710629921259842
 31
0.0
  0
LINE
  5
4C0D
330
1E
100
AcDbEntity
  8
7
100
AcDbLine
 10
2.168307086614173
 20
4.64271653543307
 30
0.0
 11
2.169291338582676
 21
4.64763779527559
 31
0.0
  0
LINE
  5
4C0E
330
1E
100
AcDbEntity
  8
7
100
AcDbLine
 10
2.169291338582676
 20
4.64763779527559
 30
0.0
 11
2.169291338582676
 21
4.658464566929134
 31
0.0
  0
LINE
  5
4C0F
330
1E
100
AcDbEntity
  8
7
100
AcDbLine
 10
2.374015748031495
 20
4.658464566929134
 30
0.0
 11
2.374015748031495
 21
4.64763779527559
 31
0.0
  0
LINE
  5
4C10
330
1E
100
AcDbEntity
  8
7
100
AcDbLine
 10
2.374015748031495
 20
4.64763779527559
 30
0.0
 11
2.375
 21
4.64271653543307
 31
0.0
  0
LINE
  5
4C11
330
1E
100
AcDbEntity
  8
7
100
AcDbLine
 10
2.375
 20
4.74015748031496
 30
0.0
 11
2.375
 21
4.710629921259842
 31
0.0
  0
LINE
  5
4C12
330
1E
100
AcDbEntity
  8
7
100
AcDbLine
 10
2.375
 20
4.710629921259842
 30
0.0
 11
2.375
 21
4.704724409448818
 31
0.0
  0
LINE
  5
4C13
330
1E
100
AcDbEntity
  8
7
100
AcDbLine
 10
2.375
 20
4.704724409448818
 30
0.0
 11
2.374015748031495
 21
4.687992125984251
 31
0.0
  0
LINE
  5
4C14
330
1E
100
AcDbEntity
  8
7
100
AcDbLine
 10
2.374015748031495
 20
4.687992125984251
 30
0.0
 11
2.374015748031495
 21
4.669291338582676
 31
0.0
  0
LINE
  5
4C15
330
1E
100
AcDbEntity
  8
7
100
AcDbLine
 10
2.374015748031495
 20
4.669291338582676
 30
0.0
 11
2.374015748031495
 21
4.658464566929134
 31
0.0
  0
LINE
  5
4C16
330
1E
100
AcDbEntity
  8
7
100
AcDbLine
 10
2.026574803149606
 20
4.630905511811023
 30
0.0
 11
2.025590551181102
 21
4.629921259842519
 31
0.0
  0
LINE
  5
4C17
330
1E
100
AcDbEntity
  8
7
100
AcDbLine
 10
2.025590551181102
 20
4.629921259842519
 30
0.0
 11
2.51771653543307
 21
4.629921259842519
 31
0.0
  0
LINE
  5
4C18
330
1E
100
AcDbEntity
  8
7
100
AcDbLine
 10
2.51771653543307
 20
4.629921259842519
 30
0.0
 11
2.516732283464566
 21
4.630905511811023
 31
0.0
  0
LINE
  5
4C19
330
1E
100
AcDbEntity
  8
7
100
AcDbLine
 10
2.398622047244094
 20
4.630905511811023
 30
0.0
 11
2.375
 21
4.64271653543307
 31
0.0
  0
LINE
  5
4C1A
330
1E
100
AcDbEntity
  8
7
100
AcDbLine
 10
2.375
 20
4.64271653543307
 30
0.0
 11
2.168307086614173
 21
4.64271653543307
 31
0.0
  0
LINE
  5
4C1B
330
1E
100
AcDbEntity
  8
7
100
AcDbLine
 10
2.921259842519684
 20
5.346456692913386
 30
0.0
 11
2.921259842519684
 21
5.353346456692912
 31
0.0
  0
LINE
  5
4C1C
330
1E
100
AcDbEntity
  8
7
100
AcDbLine
 10
2.921259842519684
 20
5.353346456692912
 30
0.0
 11
2.921259842519684
 21
5.356299212598425
 31
0.0
  0
LINE
  5
4C1D
330
1E
100
AcDbEntity
  8
7
100
AcDbLine
 10
2.921259842519684
 20
5.356299212598425
 30
0.0
 11
2.695866141732283
 21
5.356299212598425
 31
0.0
  0
LINE
  5
4C1E
330
1E
100
AcDbEntity
  8
7
100
AcDbLine
 10
3.096456692913385
 20
5.356299212598425
 30
0.0
 11
3.096456692913385
 21
5.353346456692912
 31
0.0
  0
LINE
  5
4C1F
330
1E
100
AcDbEntity
  8
7
100
AcDbLine
 10
3.096456692913385
 20
5.353346456692912
 30
0.0
 11
3.096456692913385
 21
5.346456692913386
 31
0.0
  0
LINE
  5
4C20
330
1E
100
AcDbEntity
  8
7
100
AcDbLine
 10
3.096456692913385
 20
5.346456692913386
 30
0.0
 11
3.096456692913385
 21
5.317913385826771
 31
0.0
  0
LINE
  5
4C21
330
1E
100
AcDbEntity
  8
7
100
AcDbLine
 10
3.556102362204724
 20
5.346456692913386
 30
0.0
 11
3.556102362204724
 21
5.353346456692912
 31
0.0
  0
LINE
  5
4C22
330
1E
100
AcDbEntity
  8
7
100
AcDbLine
 10
3.556102362204724
 20
5.353346456692912
 30
0.0
 11
3.556102362204724
 21
5.356299212598425
 31
0.0
  0
LINE
  5
4C23
330
1E
100
AcDbEntity
  8
7
100
AcDbLine
 10
3.556102362204724
 20
5.356299212598425
 30
0.0
 11
3.096456692913385
 21
5.356299212598425
 31
0.0
  0
LINE
  5
4C24
330
1E
100
AcDbEntity
  8
7
100
AcDbLine
 10
3.731299212598425
 20
5.356299212598425
 30
0.0
 11
3.731299212598425
 21
5.353346456692912
 31
0.0
  0
LINE
  5
4C25
330
1E
100
AcDbEntity
  8
7
100
AcDbLine
 10
3.731299212598425
 20
5.353346456692912
 30
0.0
 11
3.731299212598425
 21
5.346456692913386
 31
0.0
  0
LINE
  5
4C26
330
1E
100
AcDbEntity
  8
7
100
AcDbLine
 10
3.731299212598425
 20
5.346456692913386
 30
0.0
 11
3.731299212598425
 21
5.317913385826771
 31
0.0
  0
LINE
  5
4C27
330
1E
100
AcDbEntity
  8
7
100
AcDbLine
 10
3.541338582677165
 20
4.669291338582676
 30
0.0
 11
3.541338582677165
 21
4.687992125984251
 31
0.0
  0
LINE
  5
4C28
330
1E
100
AcDbEntity
  8
7
100
AcDbLine
 10
3.541338582677165
 20
4.687992125984251
 30
0.0
 11
3.540354330708661
 21
4.704724409448818
 31
0.0
  0
LINE
  5
4C29
330
1E
100
AcDbEntity
  8
7
100
AcDbLine
 10
3.540354330708661
 20
4.704724409448818
 30
0.0
 11
3.540354330708661
 21
4.710629921259842
 31
0.0
  0
LINE
  5
4C2A
330
1E
100
AcDbEntity
  8
7
100
AcDbLine
 10
3.540354330708661
 20
4.64271653543307
 30
0.0
 11
3.541338582677165
 21
4.64763779527559
 31
0.0
  0
LINE
  5
4C2B
330
1E
100
AcDbEntity
  8
7
100
AcDbLine
 10
3.541338582677165
 20
4.64763779527559
 30
0.0
 11
3.541338582677165
 21
4.658464566929134
 31
0.0
  0
LINE
  5
4C2C
330
1E
100
AcDbEntity
  8
7
100
AcDbLine
 10
3.747047244094487
 20
4.74015748031496
 30
0.0
 11
3.747047244094487
 21
4.710629921259842
 31
0.0
  0
LINE
  5
4C2D
330
1E
100
AcDbEntity
  8
7
100
AcDbLine
 10
3.747047244094487
 20
4.710629921259842
 30
0.0
 11
3.747047244094487
 21
4.704724409448818
 31
0.0
  0
LINE
  5
4C2E
330
1E
100
AcDbEntity
  8
7
100
AcDbLine
 10
3.747047244094487
 20
4.704724409448818
 30
0.0
 11
3.746062992125983
 21
4.687992125984251
 31
0.0
  0
LINE
  5
4C2F
330
1E
100
AcDbEntity
  8
7
100
AcDbLine
 10
3.746062992125983
 20
4.687992125984251
 30
0.0
 11
3.746062992125983
 21
4.669291338582676
 31
0.0
  0
LINE
  5
4C30
330
1E
100
AcDbEntity
  8
7
100
AcDbLine
 10
3.746062992125983
 20
4.669291338582676
 30
0.0
 11
3.746062992125983
 21
4.658464566929134
 31
0.0
  0
LINE
  5
4C31
330
1E
100
AcDbEntity
  8
7
100
AcDbLine
 10
3.746062992125983
 20
4.658464566929134
 30
0.0
 11
3.746062992125983
 21
4.64763779527559
 31
0.0
  0
LINE
  5
4C32
330
1E
100
AcDbEntity
  8
7
100
AcDbLine
 10
3.746062992125983
 20
4.64763779527559
 30
0.0
 11
3.747047244094487
 21
4.64271653543307
 31
0.0
  0
LINE
  5
4C33
330
1E
100
AcDbEntity
  8
7
100
AcDbLine
 10
3.398622047244094
 20
4.630905511811023
 30
0.0
 11
3.39763779527559
 21
4.629921259842519
 31
0.0
  0
LINE
  5
4C34
330
1E
100
AcDbEntity
  8
7
100
AcDbLine
 10
3.39763779527559
 20
4.629921259842519
 30
0.0
 11
3.889763779527558
 21
4.629921259842519
 31
0.0
  0
LINE
  5
4C35
330
1E
100
AcDbEntity
  8
7
100
AcDbLine
 10
3.889763779527558
 20
4.629921259842519
 30
0.0
 11
3.888779527559055
 21
4.630905511811023
 31
0.0
  0
LINE
  5
4C36
330
1E
100
AcDbEntity
  8
7
100
AcDbLine
 10
3.770669291338582
 20
4.630905511811023
 30
0.0
 11
3.747047244094487
 21
4.64271653543307
 31
0.0
  0
LINE
  5
4C37
330
1E
100
AcDbEntity
  8
7
100
AcDbLine
 10
3.747047244094487
 20
4.64271653543307
 30
0.0
 11
3.540354330708661
 21
4.64271653543307
 31
0.0
  0
LINE
  5
4C38
330
1E
100
AcDbEntity
  8
7
100
AcDbLine
 10
3.540354330708661
 20
4.64271653543307
 30
0.0
 11
3.516732283464566
 21
4.630905511811023
 31
0.0
  0
LINE
  5
4C39
330
1E
100
AcDbEntity
  8
7
100
AcDbLine
 10
3.398622047244094
 20
4.695866141732283
 30
0.0
 11
3.398622047244094
 21
4.630905511811023
 31
0.0
  0
LINE
  5
4C3A
330
1E
100
AcDbEntity
  8
7
100
AcDbLine
 10
3.398622047244094
 20
4.630905511811023
 30
0.0
 11
3.516732283464566
 21
4.630905511811023
 31
0.0
  0
LINE
  5
4C3B
330
1E
100
AcDbEntity
  8
7
100
AcDbLine
 10
2.905511811023621
 20
4.704724409448818
 30
0.0
 11
2.906496062992125
 21
4.687992125984251
 31
0.0
  0
LINE
  5
4C3C
330
1E
100
AcDbEntity
  8
7
100
AcDbLine
 10
2.906496062992125
 20
4.687992125984251
 30
0.0
 11
2.906496062992125
 21
4.669291338582676
 31
0.0
  0
LINE
  5
4C3D
330
1E
100
AcDbEntity
  8
7
100
AcDbLine
 10
2.906496062992125
 20
4.658464566929134
 30
0.0
 11
2.905511811023621
 21
4.64763779527559
 31
0.0
  0
LINE
  5
4C3E
330
1E
100
AcDbEntity
  8
7
100
AcDbLine
 10
2.905511811023621
 20
4.64763779527559
 30
0.0
 11
2.905511811023621
 21
4.64271653543307
 31
0.0
  0
LINE
  5
4C3F
330
1E
100
AcDbEntity
  8
7
100
AcDbLine
 10
3.112204724409448
 20
4.64271653543307
 30
0.0
 11
3.111220472440944
 21
4.64763779527559
 31
0.0
  0
LINE
  5
4C40
330
1E
100
AcDbEntity
  8
7
100
AcDbLine
 10
3.111220472440944
 20
4.64763779527559
 30
0.0
 11
3.111220472440944
 21
4.658464566929134
 31
0.0
  0
LINE
  5
4C41
330
1E
100
AcDbEntity
  8
7
100
AcDbLine
 10
3.111220472440944
 20
4.669291338582676
 30
0.0
 11
3.111220472440944
 21
4.687992125984251
 31
0.0
  0
LINE
  5
4C42
330
1E
100
AcDbEntity
  8
7
100
AcDbLine
 10
3.111220472440944
 20
4.687992125984251
 30
0.0
 11
3.111220472440944
 21
4.704724409448818
 31
0.0
  0
LINE
  5
4C43
330
1E
100
AcDbEntity
  8
7
100
AcDbLine
 10
2.727362204724409
 20
4.148622047244094
 30
0.0
 11
2.728346456692912
 21
4.153543307086613
 31
0.0
  0
LINE
  5
4C44
330
1E
100
AcDbEntity
  8
7
100
AcDbLine
 10
2.728346456692912
 20
4.153543307086613
 30
0.0
 11
2.728346456692912
 21
4.164370078740157
 31
0.0
  0
LINE
  5
4C45
330
1E
100
AcDbEntity
  8
7
100
AcDbLine
 10
2.728346456692912
 20
4.164370078740157
 30
0.0
 11
2.729330708661417
 21
4.18011811023622
 31
0.0
  0
LINE
  5
4C46
330
1E
100
AcDbEntity
  8
7
100
AcDbLine
 10
2.729330708661417
 20
4.18011811023622
 30
0.0
 11
2.729330708661417
 21
4.199803149606299
 31
0.0
  0
LINE
  5
4C47
330
1E
100
AcDbEntity
  8
7
100
AcDbLine
 10
2.551181102362204
 20
4.199803149606299
 30
0.0
 11
2.551181102362204
 21
4.18011811023622
 31
0.0
  0
LINE
  5
4C48
330
1E
100
AcDbEntity
  8
7
100
AcDbLine
 10
2.551181102362204
 20
4.18011811023622
 30
0.0
 11
2.552165354330708
 21
4.164370078740157
 31
0.0
  0
LINE
  5
4C49
330
1E
100
AcDbEntity
  8
7
100
AcDbLine
 10
2.552165354330708
 20
4.164370078740157
 30
0.0
 11
2.552165354330708
 21
4.153543307086613
 31
0.0
  0
LINE
  5
4C4A
330
1E
100
AcDbEntity
  8
7
100
AcDbLine
 10
2.552165354330708
 20
4.153543307086613
 30
0.0
 11
2.553149606299212
 21
4.148622047244094
 31
0.0
  0
LINE
  5
4C4B
330
1E
100
AcDbEntity
  8
7
100
AcDbLine
 10
3.979330708661417
 20
4.148622047244094
 30
0.0
 11
4.010826771653543
 21
4.153543307086613
 31
0.0
  0
LINE
  5
4C4C
330
1E
100
AcDbEntity
  8
7
100
AcDbLine
 10
4.010826771653543
 20
4.153543307086613
 30
0.0
 11
4.038385826771653
 21
4.168307086614173
 31
0.0
  0
LINE
  5
4C4D
330
1E
100
AcDbEntity
  8
7
100
AcDbLine
 10
4.038385826771653
 20
4.168307086614173
 30
0.0
 11
4.06003937007874
 21
4.18996062992126
 31
0.0
  0
LINE
  5
4C4E
330
1E
100
AcDbEntity
  8
7
100
AcDbLine
 10
4.06003937007874
 20
4.18996062992126
 30
0.0
 11
4.074803149606299
 21
4.21751968503937
 31
0.0
  0
LINE
  5
4C4F
330
1E
100
AcDbEntity
  8
7
100
AcDbLine
 10
4.074803149606299
 20
4.21751968503937
 30
0.0
 11
4.079724409448819
 21
4.249015748031496
 31
0.0
  0
LINE
  5
4C50
330
1E
100
AcDbEntity
  8
7
100
AcDbLine
 10
3.979330708661417
 20
4.148622047244094
 30
0.0
 11
3.979330708661417
 21
4.154527559055118
 31
0.0
  0
LINE
  5
4C51
330
1E
100
AcDbEntity
  8
7
100
AcDbLine
 10
3.979330708661417
 20
4.154527559055118
 30
0.0
 11
3.979330708661417
 21
4.169291338582676
 31
0.0
  0
LINE
  5
4C52
330
1E
100
AcDbEntity
  8
7
100
AcDbLine
 10
3.979330708661417
 20
4.169291338582676
 30
0.0
 11
3.979330708661417
 21
4.190944881889763
 31
0.0
  0
LINE
  5
4C53
330
1E
100
AcDbEntity
  8
7
100
AcDbLine
 10
3.979330708661417
 20
4.190944881889763
 30
0.0
 11
3.979330708661417
 21
4.218503937007874
 31
0.0
  0
LINE
  5
4C54
330
1E
100
AcDbEntity
  8
7
100
AcDbLine
 10
3.979330708661417
 20
4.218503937007874
 30
0.0
 11
3.979330708661417
 21
4.249015748031496
 31
0.0
  0
LINE
  5
4C55
330
1E
100
AcDbEntity
  8
7
100
AcDbLine
 10
1.301181102362204
 20
4.190944881889763
 30
0.0
 11
1.301181102362204
 21
4.218503937007874
 31
0.0
  0
LINE
  5
4C56
330
1E
100
AcDbEntity
  8
7
100
AcDbLine
 10
1.301181102362204
 20
4.218503937007874
 30
0.0
 11
1.301181102362204
 21
4.249015748031496
 31
0.0
  0
LINE
  5
4C57
330
1E
100
AcDbEntity
  8
7
100
AcDbLine
 10
1.189960629921259
 20
4.238188976377952
 30
0.0
 11
1.200787401574803
 21
4.249015748031496
 31
0.0
  0
LINE
  5
4C58
330
1E
100
AcDbEntity
  8
7
100
AcDbLine
 10
1.200787401574803
 20
4.249015748031496
 30
0.0
 11
1.205708661417322
 21
4.21751968503937
 31
0.0
  0
LINE
  5
4C59
330
1E
100
AcDbEntity
  8
7
100
AcDbLine
 10
1.205708661417322
 20
4.21751968503937
 30
0.0
 11
1.219488188976378
 21
4.18996062992126
 31
0.0
  0
LINE
  5
4C5A
330
1E
100
AcDbEntity
  8
7
100
AcDbLine
 10
1.219488188976378
 20
4.18996062992126
 30
0.0
 11
1.242125984251968
 21
4.168307086614173
 31
0.0
  0
LINE
  5
4C5B
330
1E
100
AcDbEntity
  8
7
100
AcDbLine
 10
1.242125984251968
 20
4.168307086614173
 30
0.0
 11
1.269685039370078
 21
4.153543307086613
 31
0.0
  0
LINE
  5
4C5C
330
1E
100
AcDbEntity
  8
7
100
AcDbLine
 10
1.269685039370078
 20
4.153543307086613
 30
0.0
 11
1.301181102362204
 21
4.148622047244094
 31
0.0
  0
LINE
  5
4C5D
330
1E
100
AcDbEntity
  8
7
100
AcDbLine
 10
1.301181102362204
 20
4.148622047244094
 30
0.0
 11
1.301181102362204
 21
4.154527559055118
 31
0.0
  0
LINE
  5
4C5E
330
1E
100
AcDbEntity
  8
7
100
AcDbLine
 10
1.301181102362204
 20
4.154527559055118
 30
0.0
 11
1.301181102362204
 21
4.169291338582676
 31
0.0
  0
LINE
  5
4C5F
330
1E
100
AcDbEntity
  8
7
100
AcDbLine
 10
1.301181102362204
 20
4.169291338582676
 30
0.0
 11
1.301181102362204
 21
4.190944881889763
 31
0.0
  0
LINE
  5
4C60
330
1E
100
AcDbEntity
  8
7
100
AcDbLine
 10
1.243110236220472
 20
4.249015748031496
 30
0.0
 11
1.270669291338582
 21
4.249015748031496
 31
0.0
  0
LINE
  5
4C61
330
1E
100
AcDbEntity
  8
7
100
AcDbLine
 10
1.270669291338582
 20
4.249015748031496
 30
0.0
 11
1.301181102362204
 21
4.249015748031496
 31
0.0
  0
LINE
  5
4C62
330
1E
100
AcDbEntity
  8
7
100
AcDbLine
 10
1.200787401574803
 20
4.249015748031496
 30
0.0
 11
1.206692913385826
 21
4.249015748031496
 31
0.0
  0
LINE
  5
4C63
330
1E
100
AcDbEntity
  8
7
100
AcDbLine
 10
1.206692913385826
 20
4.249015748031496
 30
0.0
 11
1.221456692913385
 21
4.249015748031496
 31
0.0
  0
LINE
  5
4C64
330
1E
100
AcDbEntity
  8
7
100
AcDbLine
 10
1.221456692913385
 20
4.249015748031496
 30
0.0
 11
1.243110236220472
 21
4.249015748031496
 31
0.0
  0
LINE
  5
4C65
330
1E
100
AcDbEntity
  8
7
100
AcDbLine
 10
3.979330708661417
 20
5.732283464566928
 30
0.0
 11
3.979330708661417
 21
5.76279527559055
 31
0.0
  0
LINE
  5
4C66
330
1E
100
AcDbEntity
  8
7
100
AcDbLine
 10
3.979330708661417
 20
5.76279527559055
 30
0.0
 11
3.979330708661417
 21
5.790354330708661
 31
0.0
  0
LINE
  5
4C67
330
1E
100
AcDbEntity
  8
7
100
AcDbLine
 10
3.979330708661417
 20
5.790354330708661
 30
0.0
 11
3.979330708661417
 21
5.812007874015748
 31
0.0
  0
LINE
  5
4C68
330
1E
100
AcDbEntity
  8
7
100
AcDbLine
 10
3.979330708661417
 20
5.812007874015748
 30
0.0
 11
3.979330708661417
 21
5.826771653543307
 31
0.0
  0
LINE
  5
4C69
330
1E
100
AcDbEntity
  8
7
100
AcDbLine
 10
3.979330708661417
 20
5.826771653543307
 30
0.0
 11
3.979330708661417
 21
5.83267716535433
 31
0.0
  0
LINE
  5
4C6A
330
1E
100
AcDbEntity
  8
7
100
AcDbLine
 10
1.200787401574803
 20
5.732283464566928
 30
0.0
 11
1.206692913385826
 21
5.732283464566928
 31
0.0
  0
LINE
  5
4C6B
330
1E
100
AcDbEntity
  8
7
100
AcDbLine
 10
1.206692913385826
 20
5.732283464566928
 30
0.0
 11
1.221456692913385
 21
5.732283464566928
 31
0.0
  0
LINE
  5
4C6C
330
1E
100
AcDbEntity
  8
7
100
AcDbLine
 10
1.221456692913385
 20
5.732283464566928
 30
0.0
 11
1.243110236220472
 21
5.732283464566928
 31
0.0
  0
LINE
  5
4C6D
330
1E
100
AcDbEntity
  8
7
100
AcDbLine
 10
1.243110236220472
 20
5.732283464566928
 30
0.0
 11
1.270669291338582
 21
5.732283464566928
 31
0.0
  0
LINE
  5
4C6E
330
1E
100
AcDbEntity
  8
7
100
AcDbLine
 10
1.270669291338582
 20
5.732283464566928
 30
0.0
 11
1.301181102362204
 21
5.732283464566928
 31
0.0
  0
LINE
  5
4C6F
330
1E
100
AcDbEntity
  8
7
100
AcDbLine
 10
1.301181102362204
 20
5.732283464566928
 30
0.0
 11
1.301181102362204
 21
5.76279527559055
 31
0.0
  0
LINE
  5
4C70
330
1E
100
AcDbEntity
  8
7
100
AcDbLine
 10
1.301181102362204
 20
5.76279527559055
 30
0.0
 11
1.301181102362204
 21
5.790354330708661
 31
0.0
  0
LINE
  5
4C71
330
1E
100
AcDbEntity
  8
7
100
AcDbLine
 10
1.301181102362204
 20
5.790354330708661
 30
0.0
 11
1.301181102362204
 21
5.812007874015748
 31
0.0
  0
LINE
  5
4C72
330
1E
100
AcDbEntity
  8
7
100
AcDbLine
 10
1.301181102362204
 20
5.812007874015748
 30
0.0
 11
1.301181102362204
 21
5.826771653543307
 31
0.0
  0
LINE
  5
4C73
330
1E
100
AcDbEntity
  8
7
100
AcDbLine
 10
1.301181102362204
 20
5.826771653543307
 30
0.0
 11
1.301181102362204
 21
5.83267716535433
 31
0.0
  0
LINE
  5
4C74
330
1E
100
AcDbEntity
  8
7
100
AcDbLine
 10
1.219488188976378
 20
5.791338582677165
 30
0.0
 11
1.242125984251968
 21
5.812992125984251
 31
0.0
  0
LINE
  5
4C75
330
1E
100
AcDbEntity
  8
7
100
AcDbLine
 10
1.242125984251968
 20
5.812992125984251
 30
0.0
 11
1.269685039370078
 21
5.827755905511811
 31
0.0
  0
LINE
  5
4C76
330
1E
100
AcDbEntity
  8
7
100
AcDbLine
 10
1.269685039370078
 20
5.827755905511811
 30
0.0
 11
1.301181102362204
 21
5.83267716535433
 31
0.0
  0
LINE
  5
4C77
330
1E
100
AcDbEntity
  8
7
100
AcDbLine
 10
1.200787401574803
 20
5.732283464566928
 30
0.0
 11
1.205708661417322
 21
5.763779527559054
 31
0.0
  0
LINE
  5
4C78
330
1E
100
AcDbEntity
  8
7
100
AcDbLine
 10
1.205708661417322
 20
5.763779527559054
 30
0.0
 11
1.219488188976378
 21
5.791338582677165
 31
0.0
  0
LINE
  5
4C79
330
1E
100
AcDbEntity
  8
7
100
AcDbLine
 10
1.290354330708661
 20
5.843503937007874
 30
0.0
 11
1.301181102362204
 21
5.83267716535433
 31
0.0
  0
LINE
  5
4C7A
330
1E
100
AcDbEntity
  8
7
100
AcDbLine
 10
1.301181102362204
 20
5.83267716535433
 30
0.0
 11
3.979330708661417
 21
5.83267716535433
 31
0.0
  0
LINE
  5
4C7B
330
1E
100
AcDbEntity
  8
7
100
AcDbLine
 10
4.06003937007874
 20
5.791338582677165
 30
0.0
 11
4.038385826771653
 21
5.812992125984251
 31
0.0
  0
LINE
  5
4C7C
330
1E
100
AcDbEntity
  8
7
100
AcDbLine
 10
4.038385826771653
 20
5.812992125984251
 30
0.0
 11
4.010826771653543
 21
5.827755905511811
 31
0.0
  0
LINE
  5
4C7D
330
1E
100
AcDbEntity
  8
7
100
AcDbLine
 10
4.010826771653543
 20
5.827755905511811
 30
0.0
 11
3.979330708661417
 21
5.83267716535433
 31
0.0
  0
LINE
  5
4C7E
330
1E
100
AcDbEntity
  8
7
100
AcDbLine
 10
4.079724409448819
 20
5.732283464566928
 30
0.0
 11
4.074803149606299
 21
5.763779527559054
 31
0.0
  0
LINE
  5
4C7F
330
1E
100
AcDbEntity
  8
7
100
AcDbLine
 10
4.074803149606299
 20
5.763779527559054
 30
0.0
 11
4.06003937007874
 21
5.791338582677165
 31
0.0
  0
LINE
  5
4C80
330
1E
100
AcDbEntity
  8
7
100
AcDbLine
 10
3.979330708661417
 20
5.732283464566928
 30
0.0
 11
4.009842519685039
 21
5.732283464566928
 31
0.0
  0
LINE
  5
4C81
330
1E
100
AcDbEntity
  8
7
100
AcDbLine
 10
4.009842519685039
 20
5.732283464566928
 30
0.0
 11
4.037401574803149
 21
5.732283464566928
 31
0.0
  0
LINE
  5
4C82
330
1E
100
AcDbEntity
  8
7
100
AcDbLine
 10
4.037401574803149
 20
5.732283464566928
 30
0.0
 11
4.059055118110236
 21
5.732283464566928
 31
0.0
  0
LINE
  5
4C83
330
1E
100
AcDbEntity
  8
7
100
AcDbLine
 10
4.059055118110236
 20
5.732283464566928
 30
0.0
 11
4.073818897637795
 21
5.732283464566928
 31
0.0
  0
LINE
  5
4C84
330
1E
100
AcDbEntity
  8
7
100
AcDbLine
 10
4.073818897637795
 20
5.732283464566928
 30
0.0
 11
4.079724409448819
 21
5.732283464566928
 31
0.0
  0
LINE
  5
4C85
330
1E
100
AcDbEntity
  8
7
100
AcDbLine
 10
3.979330708661417
 20
4.249015748031496
 30
0.0
 11
4.009842519685039
 21
4.249015748031496
 31
0.0
  0
LINE
  5
4C86
330
1E
100
AcDbEntity
  8
7
100
AcDbLine
 10
4.009842519685039
 20
4.249015748031496
 30
0.0
 11
4.037401574803149
 21
4.249015748031496
 31
0.0
  0
LINE
  5
4C87
330
1E
100
AcDbEntity
  8
7
100
AcDbLine
 10
4.037401574803149
 20
4.249015748031496
 30
0.0
 11
4.059055118110236
 21
4.249015748031496
 31
0.0
  0
LINE
  5
4C88
330
1E
100
AcDbEntity
  8
7
100
AcDbLine
 10
4.059055118110236
 20
4.249015748031496
 30
0.0
 11
4.073818897637795
 21
4.249015748031496
 31
0.0
  0
LINE
  5
4C89
330
1E
100
AcDbEntity
  8
7
100
AcDbLine
 10
4.073818897637795
 20
4.249015748031496
 30
0.0
 11
4.079724409448819
 21
4.249015748031496
 31
0.0
  0
LINE
  5
4C8A
330
1E
100
AcDbEntity
  8
7
100
AcDbLine
 10
4.090551181102362
 20
4.238188976377952
 30
0.0
 11
4.086614173228346
 21
4.21259842519685
 31
0.0
  0
LINE
  5
4C8B
330
1E
100
AcDbEntity
  8
7
100
AcDbLine
 10
4.086614173228346
 20
4.21259842519685
 30
0.0
 11
4.076771653543307
 21
4.187992125984251
 31
0.0
  0
LINE
  5
4C8C
330
1E
100
AcDbEntity
  8
7
100
AcDbLine
 10
4.076771653543307
 20
4.187992125984251
 30
0.0
 11
4.061023622047244
 21
4.167322834645669
 31
0.0
  0
LINE
  5
4C8D
330
1E
100
AcDbEntity
  8
7
100
AcDbLine
 10
4.061023622047244
 20
4.167322834645669
 30
0.0
 11
4.040354330708662
 21
4.151574803149606
 31
0.0
  0
LINE
  5
4C8E
330
1E
100
AcDbEntity
  8
7
100
AcDbLine
 10
4.040354330708662
 20
4.151574803149606
 30
0.0
 11
4.015748031496062
 21
4.141732283464566
 31
0.0
  0
LINE
  5
4C8F
330
1E
100
AcDbEntity
  8
7
100
AcDbLine
 10
4.015748031496062
 20
4.141732283464566
 30
0.0
 11
3.99015748031496
 21
4.13779527559055
 31
0.0
  0
LINE
  5
4C90
330
1E
100
AcDbEntity
  8
7
100
AcDbLine
 10
3.99015748031496
 20
4.13779527559055
 30
0.0
 11
3.05511811023622
 21
4.13779527559055
 31
0.0
  0
LINE
  5
4C91
330
1E
100
AcDbEntity
  8
7
100
AcDbLine
 10
3.99015748031496
 20
5.843503937007874
 30
0.0
 11
4.015748031496062
 21
5.839566929133858
 31
0.0
  0
LINE
  5
4C92
330
1E
100
AcDbEntity
  8
7
100
AcDbLine
 10
4.015748031496062
 20
5.839566929133858
 30
0.0
 11
4.040354330708662
 21
5.829724409448818
 31
0.0
  0
LINE
  5
4C93
330
1E
100
AcDbEntity
  8
7
100
AcDbLine
 10
4.040354330708662
 20
5.829724409448818
 30
0.0
 11
4.061023622047244
 21
5.813976377952755
 31
0.0
  0
LINE
  5
4C94
330
1E
100
AcDbEntity
  8
7
100
AcDbLine
 10
4.061023622047244
 20
5.813976377952755
 30
0.0
 11
4.076771653543307
 21
5.793307086614173
 31
0.0
  0
LINE
  5
4C95
330
1E
100
AcDbEntity
  8
7
100
AcDbLine
 10
4.076771653543307
 20
5.793307086614173
 30
0.0
 11
4.086614173228346
 21
5.768700787401574
 31
0.0
  0
LINE
  5
4C96
330
1E
100
AcDbEntity
  8
7
100
AcDbLine
 10
4.086614173228346
 20
5.768700787401574
 30
0.0
 11
4.090551181102362
 21
5.743110236220472
 31
0.0
  0
LINE
  5
4C97
330
1E
100
AcDbEntity
  8
7
100
AcDbLine
 10
1.219488188976378
 20
5.813976377952755
 30
0.0
 11
1.24015748031496
 21
5.829724409448818
 31
0.0
  0
LINE
  5
4C98
330
1E
100
AcDbEntity
  8
7
100
AcDbLine
 10
1.24015748031496
 20
5.829724409448818
 30
0.0
 11
1.264763779527559
 21
5.839566929133858
 31
0.0
  0
LINE
  5
4C99
330
1E
100
AcDbEntity
  8
7
100
AcDbLine
 10
1.264763779527559
 20
5.839566929133858
 30
0.0
 11
1.290354330708661
 21
5.843503937007874
 31
0.0
  0
LINE
  5
4C9A
330
1E
100
AcDbEntity
  8
7
100
AcDbLine
 10
1.290354330708661
 20
4.13779527559055
 30
0.0
 11
1.264763779527559
 21
4.141732283464566
 31
0.0
  0
LINE
  5
4C9B
330
1E
100
AcDbEntity
  8
7
100
AcDbLine
 10
1.264763779527559
 20
4.141732283464566
 30
0.0
 11
1.24015748031496
 21
4.151574803149606
 31
0.0
  0
LINE
  5
4C9C
330
1E
100
AcDbEntity
  8
7
100
AcDbLine
 10
1.24015748031496
 20
4.151574803149606
 30
0.0
 11
1.219488188976378
 21
4.167322834645669
 31
0.0
  0
LINE
  5
4C9D
330
1E
100
AcDbEntity
  8
7
100
AcDbLine
 10
1.219488188976378
 20
4.167322834645669
 30
0.0
 11
1.203740157480315
 21
4.187992125984251
 31
0.0
  0
LINE
  5
4C9E
330
1E
100
AcDbEntity
  8
7
100
AcDbLine
 10
1.203740157480315
 20
4.187992125984251
 30
0.0
 11
1.193897637795275
 21
4.21259842519685
 31
0.0
  0
LINE
  5
4C9F
330
1E
100
AcDbEntity
  8
7
100
AcDbLine
 10
1.193897637795275
 20
4.21259842519685
 30
0.0
 11
1.189960629921259
 21
4.238188976377952
 31
0.0
  0
LINE
  5
4CA0
330
1E
100
AcDbEntity
  8
7
100
AcDbLine
 10
1.189960629921259
 20
4.238188976377952
 30
0.0
 11
1.189960629921259
 21
5.743110236220472
 31
0.0
  0
LINE
  5
4CA1
330
1E
100
AcDbEntity
  8
7
100
AcDbLine
 10
1.189960629921259
 20
5.743110236220472
 30
0.0
 11
1.193897637795275
 21
5.768700787401574
 31
0.0
  0
LINE
  5
4CA2
330
1E
100
AcDbEntity
  8
7
100
AcDbLine
 10
1.193897637795275
 20
5.768700787401574
 30
0.0
 11
1.203740157480315
 21
5.793307086614173
 31
0.0
  0
LINE
  5
4CA3
330
1E
100
AcDbEntity
  8
7
100
AcDbLine
 10
1.203740157480315
 20
5.793307086614173
 30
0.0
 11
1.219488188976378
 21
5.813976377952755
 31
0.0
  0
LINE
  5
4CA4
330
1E
100
AcDbEntity
  8
7
100
AcDbLine
 10
2.727362204724409
 20
4.148622047244094
 30
0.0
 11
2.727362204724409
 21
4.198818897637795
 31
0.0
  0
LINE
  5
4CA5
330
1E
100
AcDbEntity
  8
7
100
AcDbLine
 10
2.727362204724409
 20
4.198818897637795
 30
0.0
 11
2.553149606299212
 21
4.198818897637795
 31
0.0
  0
LINE
  5
4CA6
330
1E
100
AcDbEntity
  8
7
100
AcDbLine
 10
2.553149606299212
 20
4.198818897637795
 30
0.0
 11
2.553149606299212
 21
4.148622047244094
 31
0.0
  0
ENDSEC
  0
SECTION
  2
OBJECTS
  0
DICTIONARY
  5
C
330
0
100
AcDbDictionary
  3
ACAD_GROUP
350
D
  3
ACAD_LAYOUT
350
19
  3
ACAD_MLINESTYLE
350
16
  3
ACAD_PLOTSETTINGS
350
18
1001
ACAD
1000
TREAT_AS_HARD
1070
     0
  0
DICTIONARY
  5
2E74
330
1E
100
AcDbDictionary
  3
ACAD_LAYOUTSELFREF
350
4FA5
1001
ACAD
1000
TREAT_AS_HARD
1070
     1
  0
DICTIONARY
  5
2E76
330
1A
100
AcDbDictionary
  3
ACAD_LAYOUTSELFREF
350
4FA4
1001
ACAD
1000
TREAT_AS_HARD
1070
     1
  0
DICTIONARY
  5
D
102
{ACAD_REACTORS
330
C
102
}
330
C
100
AcDbDictionary
1001
ACAD
1000
TREAT_AS_HARD
1070
     0
  0
DICTIONARY
  5
19
102
{ACAD_REACTORS
330
C
102
}
330
C
100
AcDbDictionary
1001
ACAD
1000
TREAT_AS_HARD
1070
     0
  0
DICTIONARY
  5
16
102
{ACAD_REACTORS
330
C
102
}
330
C
100
AcDbDictionary
  3
STANDARD
350
17
1001
ACAD
1000
TREAT_AS_HARD
1070
     0
  0
DICTIONARY
  5
18
102
{ACAD_REACTORS
330
C
102
}
330
C
100
AcDbDictionary
1001
ACAD
1000
TREAT_AS_HARD
1070
     0
  0
XRECORD
  5
4FA5
102
{ACAD_REACTORS
330
2E74
102
}
330
2E74
100
AcDbXrecord
340
1E
  0
XRECORD
  5
4FA4
102
{ACAD_REACTORS
330
2E76
102
}
330
2E76
100
AcDbXrecord
340
1A
  0
MLINESTYLE
  5
17
102
{ACAD_REACTORS
330
16
102
}
330
16
100
AcDbMlineStyle
  2
STANDARD
 70
     0
  3

 62
   256
 51
90.0
 52
90.0
 71
     2
 49
0.5
 62
   256
  6
BYLAYER
 49
-0.5
 62
   256
  6
BYLAYER
  0
ENDSEC
  0
EOF
