  0
SECTION
  2
HEADER
  9
$ACADVER
  1
AC1012
  9
$DWGCODEPAGE
  3
ANSI_1252
  9
$INSBASE
 10
0.0
 20
0.0
 30
0.0
  9
$EXTMIN
 10
1.031496062992125
 20
3.344488188976378
 30
0.0
  9
$EXTMAX
 10
4.716535433070866
 20
5.820866141732283
 30
0.0
  9
$LIMMIN
 10
0.0
 20
0.0
  9
$LIMMAX
 10
12.0
 20
9.0
  9
$ORTHOMODE
 70
     0
  9
$REGENMODE
 70
     1
  9
$FILLMODE
 70
     1
  9
$QTEXTMODE
 70
     0
  9
$MIRRTEXT
 70
     1
  9
$DRAGMODE
 70
     2
  9
$LTSCALE
 40
1.0
  9
$OSMODE
 70
   547
  9
$ATTMODE
 70
     1
  9
$TEXTSIZE
 40
0.2
  9
$TRACEWID
 40
0.05
  9
$TEXTSTYLE
  7
STANDARD
  9
$CLAYER
  8
0
  9
$CELTYPE
  6
BYLAYER
  9
$CECOLOR
 62
   256
  9
$CELTSCALE
 40
1.0
  9
$DELOBJ
 70
     1
  9
$DISPSILH
 70
     0
  9
$DIMSCALE
 40
1.0
  9
$DIMASZ
 40
0.18
  9
$DIMEXO
 40
0.0625
  9
$DIMDLI
 40
0.38
  9
$DIMRND
 40
0.0
  9
$DIMDLE
 40
0.0
  9
$DIMEXE
 40
0.18
  9
$DIMTP
 40
0.0
  9
$DIMTM
 40
0.0
  9
$DIMTXT
 40
0.18
  9
$DIMCEN
 40
0.09
  9
$DIMTSZ
 40
0.0
  9
$DIMTOL
 70
     0
  9
$DIMLIM
 70
     0
  9
$DIMTIH
 70
     1
  9
$DIMTOH
 70
     1
  9
$DIMSE1
 70
     0
  9
$DIMSE2
 70
     0
  9
$DIMTAD
 70
     0
  9
$DIMZIN
 70
     0
  9
$DIMBLK
  1

  9
$DIMASO
 70
     1
  9
$DIMSHO
 70
     1
  9
$DIMPOST
  1

  9
$DIMAPOST
  1

  9
$DIMALT
 70
     0
  9
$DIMALTD
 70
     2
  9
$DIMALTF
 40
25.4
  9
$DIMLFAC
 40
1.0
  9
$DIMTOFL
 70
     0
  9
$DIMTVP
 40
0.0
  9
$DIMTIX
 70
     0
  9
$DIMSOXD
 70
     0
  9
$DIMSAH
 70
     0
  9
$DIMBLK1
  1

  9
$DIMBLK2
  1

  9
$DIMSTYLE
  2
STANDARD
  9
$DIMCLRD
 70
     0
  9
$DIMCLRE
 70
     0
  9
$DIMCLRT
 70
     0
  9
$DIMTFAC
 40
1.0
  9
$DIMGAP
 40
0.09
  9
$DIMJUST
 70
     0
  9
$DIMSD1
 70
     0
  9
$DIMSD2
 70
     0
  9
$DIMTOLJ
 70
     1
  9
$DIMTZIN
 70
     0
  9
$DIMALTZ
 70
     0
  9
$DIMALTTZ
 70
     0
  9
$DIMFIT
 70
     5
  9
$DIMUPT
 70
     0
  9
$DIMUNIT
 70
     2
  9
$DIMDEC
 70
     4
  9
$DIMTDEC
 70
     4
  9
$DIMALTU
 70
     2
  9
$DIMALTTD
 70
     2
  9
$DIMTXSTY
  7
STANDARD
  9
$DIMAUNIT
 70
     0
  9
$LUNITS
 70
     2
  9
$LUPREC
 70
     4
  9
$SKETCHINC
 40
0.1
  9
$FILLETRAD
 40
0.0
  9
$AUNITS
 70
     0
  9
$AUPREC
 70
     0
  9
$MENU
  1
acad
  9
$ELEVATION
 40
0.0
  9
$PELEVATION
 40
0.0
  9
$THICKNESS
 40
0.0
  9
$LIMCHECK
 70
     0
  9
$BLIPMODE
 70
     0
  9
$CHAMFERA
 40
0.0
  9
$CHAMFERB
 40
0.0
  9
$CHAMFERC
 40
0.0
  9
$CHAMFERD
 40
0.0
  9
$SKPOLY
 70
     0
  9
$TDCREATE
 40
2453586.530011574
  9
$TDUPDATE
 40
2454018.453538437
  9
$TDINDWG
 40
0.0280886111
  9
$TDUSRTIMER
 40
0.0280886111
  9
$USRTIMER
 70
     1
  9
$ANGBASE
 50
0.0
  9
$ANGDIR
 70
     0
  9
$PDMODE
 70
     0
  9
$PDSIZE
 40
0.0
  9
$PLINEWID
 40
0.0
  9
$COORDS
 70
     1
  9
$SPLFRAME
 70
     0
  9
$SPLINETYPE
 70
     6
  9
$SPLINESEGS
 70
     8
  9
$ATTDIA
 70
     0
  9
$ATTREQ
 70
     1
  9
$HANDLING
 70
  4097
  9
$HANDSEED
  5
4366
  9
$SURFTAB1
 70
     6
  9
$SURFTAB2
 70
     6
  9
$SURFTYPE
 70
     6
  9
$SURFU
 70
     6
  9
$SURFV
 70
     6
  9
$UCSNAME
  2

  9
$UCSORG
 10
0.0
 20
0.0
 30
0.0
  9
$UCSXDIR
 10
1.0
 20
0.0
 30
0.0
  9
$UCSYDIR
 10
0.0
 20
1.0
 30
0.0
  9
$PUCSNAME
  2

  9
$PUCSORG
 10
0.0
 20
0.0
 30
0.0
  9
$PUCSXDIR
 10
1.0
 20
0.0
 30
0.0
  9
$PUCSYDIR
 10
0.0
 20
1.0
 30
0.0
  9
$USERI1
 70
     0
  9
$USERI2
 70
     0
  9
$USERI3
 70
     0
  9
$USERI4
 70
     0
  9
$USERI5
 70
     0
  9
$USERR1
 40
0.0
  9
$USERR2
 40
0.0
  9
$USERR3
 40
0.0
  9
$USERR4
 40
0.0
  9
$USERR5
 40
0.0
  9
$WORLDVIEW
 70
     1
  9
$SHADEDGE
 70
     3
  9
$SHADEDIF
 70
    70
  9
$TILEMODE
 70
     1
  9
$MAXACTVP
 70
    16
  9
$PINSBASE
 10
0.0
 20
0.0
 30
0.0
  9
$PLIMCHECK
 70
     0
  9
$PEXTMIN
 10
1.000000000000000E+20
 20
1.000000000000000E+20
 30
1.000000000000000E+20
  9
$PEXTMAX
 10
-1.000000000000000E+20
 20
-1.000000000000000E+20
 30
-1.000000000000000E+20
  9
$PLIMMIN
 10
0.0
 20
0.0
  9
$PLIMMAX
 10
12.0
 20
9.0
  9
$UNITMODE
 70
     0
  9
$VISRETAIN
 70
     0
  9
$PLINEGEN
 70
     0
  9
$PSLTSCALE
 70
     1
  9
$TREEDEPTH
 70
  3020
  9
$PICKSTYLE
 70
     1
  9
$CMLSTYLE
  2
STANDARD
  9
$CMLJUST
 70
     0
  9
$CMLSCALE
 40
1.0
  9
$SAVEIMAGES
 70
     1
  0
ENDSEC
  0
SECTION
  2
CLASSES
  0
CLASS
  1
ACDBDICTIONARYWDFLT
  2
AcDbDictionaryWithDefault
  3
AutoCAD 2000
 90
    32768
280
     0
281
     0
  0
CLASS
  1
ACDBPLACEHOLDER
  2
AcDbPlaceHolder
  3
AutoCAD 2000
 90
    32768
280
     0
281
     0
  0
CLASS
  1
LAYOUT
  2
AcDbLayout
  3
AutoCAD 2000
 90
    32768
280
     0
281
     0
  0
CLASS
  1
LONG_TRANSACTION
  2
AcDbLongTransaction
  3
AutoCAD 2000
 90
    32768
280
     0
281
     0
  0
CLASS
  1
LWPOLYLINE
  2
AcDbPolyline
  3
AutoCAD 2000
 90
    32768
280
     0
281
     1
  0
CLASS
  1
HATCH
  2
AcDbHatch
  3
AutoCAD 2000
 90
    32768
280
     0
281
     1
  0
CLASS
  1
XRECORD
  2
AcDbXrecord
  3
AutoCAD 2000
 90
    32768
280
     0
281
     0
  0
CLASS
  1
LONG_TRANSACTION
  2
AcDbLongTransaction
  3
AutoCAD 2000
 90
    32768
280
     0
281
     0
  0
CLASS
  1
LWPOLYLINE
  2
AcDbPolyline
  3
AutoCAD 2000
 90
    32768
280
     0
281
     1
  0
CLASS
  1
HATCH
  2
AcDbHatch
  3
AutoCAD 2000
 90
    32768
280
     0
281
     1
  0
CLASS
  1
XRECORD
  2
AcDbXrecord
  3
AutoCAD 2000
 90
    32768
280
     0
281
     0
  0
ENDSEC
  0
SECTION
  2
TABLES
  0
TABLE
  2
VPORT
  5
8
330
0
100
AcDbSymbolTable
 70
     2
  0
VPORT
  5
4363
330
8
100
AcDbSymbolTableRecord
100
AcDbViewportTableRecord
  2
*ACTIVE
 70
     0
 10
0.0
 20
0.0
 11
1.0
 21
1.0
 12
2.874389672738487
 22
4.65917309971067
 13
0.0
 23
0.0
 14
1.0
 24
1.0
 15
0.0
 25
0.0
 16
0.0
 26
0.0
 36
1.0
 17
0.0
 27
0.0
 37
0.0
 40
2.65726789370449
 41
1.647569444444444
 42
50.0
 43
0.0
 44
0.0
 50
0.0
 51
0.0
 71
     0
 72
   100
 73
     1
 74
     1
 75
     0
 76
     0
 77
     0
 78
     0
  0
ENDTAB
  0
TABLE
  2
LTYPE
  5
5
330
0
100
AcDbSymbolTable
 70
    25
  0
LTYPE
  5
13
330
5
100
AcDbSymbolTableRecord
100
AcDbLinetypeTableRecord
  2
BYBLOCK
 70
     0
  3

 72
    65
 73
     0
 40
0.0
  0
LTYPE
  5
14
330
5
100
AcDbSymbolTableRecord
100
AcDbLinetypeTableRecord
  2
BYLAYER
 70
     0
  3

 72
    65
 73
     0
 40
0.0
  0
LTYPE
  5
15
330
5
100
AcDbSymbolTableRecord
100
AcDbLinetypeTableRecord
  2
CONTINUOUS
 70
     0
  3
Solid line
 72
    65
 73
     0
 40
0.0
  0
LTYPE
  5
22
330
5
100
AcDbSymbolTableRecord
100
AcDbLinetypeTableRecord
  2
BORDER
 70
     0
  3
__ __ . __ __ . __ __ . __ __ . __ __ . __ __ .
 72
    65
 73
     6
 40
1.75
 49
0.5
 74
     0
 49
-0.25
 74
     0
 49
0.5
 74
     0
 49
-0.25
 74
     0
 49
0.5
 74
     0
 49
-0.25
 74
     0
  0
LTYPE
  5
23
330
5
100
AcDbSymbolTableRecord
100
AcDbLinetypeTableRecord
  2
BORDER2
 70
     0
  3
__.__.__.__.__.__.__.__.__.__.__.__.__.__.__.__
 72
    65
 73
     6
 40
0.875
 49
0.25
 74
     0
 49
-0.125
 74
     0
 49
0.25
 74
     0
 49
-0.125
 74
     0
 49
0.25
 74
     0
 49
-0.125
 74
     0
  0
LTYPE
  5
24
330
5
100
AcDbSymbolTableRecord
100
AcDbLinetypeTableRecord
  2
BORDERX2
 70
     0
  3
____  ____  .  ____  ____  .  
 72
    65
 73
     6
 40
3.5
 49
1.0
 74
     0
 49
-0.5
 74
     0
 49
1.0
 74
     0
 49
-0.5
 74
     0
 49
1.0
 74
     0
 49
-0.5
 74
     0
  0
LTYPE
  5
25
330
5
100
AcDbSymbolTableRecord
100
AcDbLinetypeTableRecord
  2
CENTER
 70
     0
  3
____ _ ____ _ ____ _ ____ _ ____ _ ____ _ ____
 72
    65
 73
     4
 40
2.0
 49
1.25
 74
     0
 49
-0.25
 74
     0
 49
0.25
 74
     0
 49
-0.25
 74
     0
  0
LTYPE
  5
26
330
5
100
AcDbSymbolTableRecord
100
AcDbLinetypeTableRecord
  2
CENTER2
 70
     0
  3
____ _ ____ _ ____ _ ____ _ ____ _ ____ _ ____
 72
    65
 73
     4
 40
1.125
 49
0.75
 74
     0
 49
-0.125
 74
     0
 49
0.125
 74
     0
 49
-0.125
 74
     0
  0
LTYPE
  5
27
330
5
100
AcDbSymbolTableRecord
100
AcDbLinetypeTableRecord
  2
CENTERX2
 70
     0
  3
________  __  ________  __  ________  __  
 72
    65
 73
     4
 40
4.0
 49
2.5
 74
     0
 49
-0.5
 74
     0
 49
0.5
 74
     0
 49
-0.5
 74
     0
  0
LTYPE
  5
28
330
5
100
AcDbSymbolTableRecord
100
AcDbLinetypeTableRecord
  2
DASHDOT
 70
     0
  3
__ . __ . __ . __ . __ . __ . __ . 
 72
    65
 73
     4
 40
1.0
 49
0.5
 74
     0
 49
-0.25
 74
     0
 49
0.0
 74
     0
 49
-0.25
 74
     0
  0
LTYPE
  5
29
330
5
100
AcDbSymbolTableRecord
100
AcDbLinetypeTableRecord
  2
DASHDOT2
 70
     0
  3
_._._._._._._._._._._._._._._._.
 72
    65
 73
     4
 40
0.5
 49
0.25
 74
     0
 49
-0.125
 74
     0
 49
0.0
 74
     0
 49
-0.125
 74
     0
  0
LTYPE
  5
2A
330
5
100
AcDbSymbolTableRecord
100
AcDbLinetypeTableRecord
  2
DASHDOTX2
 70
     0
  3
____  .  ____  .  ____  .  ____  .  
 72
    65
 73
     4
 40
2.0
 49
1.0
 74
     0
 49
-0.5
 74
     0
 49
0.0
 74
     0
 49
-0.5
 74
     0
  0
LTYPE
  5
2B
330
5
100
AcDbSymbolTableRecord
100
AcDbLinetypeTableRecord
  2
DASHED
 70
     0
  3
__ __ __ __ __ __ __ __ __ __ __ __ 
 72
    65
 73
     2
 40
0.75
 49
0.5
 74
     0
 49
-0.25
 74
     0
  0
LTYPE
  5
2C
330
5
100
AcDbSymbolTableRecord
100
AcDbLinetypeTableRecord
  2
DASHED2
 70
     0
  3
_ _ _ _ _ _ _ _ _ _ _ _ _ _ _ _ _ _ 
 72
    65
 73
     2
 40
0.375
 49
0.25
 74
     0
 49
-0.125
 74
     0
  0
LTYPE
  5
2D
330
5
100
AcDbSymbolTableRecord
100
AcDbLinetypeTableRecord
  2
DASHEDX2
 70
     0
  3
____  ____  ____  ____  ____  ____  
 72
    65
 73
     2
 40
1.5
 49
1.0
 74
     0
 49
-0.5
 74
     0
  0
LTYPE
  5
2E
330
5
100
AcDbSymbolTableRecord
100
AcDbLinetypeTableRecord
  2
DIVIDE
 70
     0
  3
____ . . ____ . . ____ . . ____ . . 
 72
    65
 73
     6
 40
1.25
 49
0.5
 74
     0
 49
-0.25
 74
     0
 49
0.0
 74
     0
 49
-0.25
 74
     0
 49
0.0
 74
     0
 49
-0.25
 74
     0
  0
LTYPE
  5
2F
330
5
100
AcDbSymbolTableRecord
100
AcDbLinetypeTableRecord
  2
DIVIDE2
 70
     0
  3
__..__..__..__..__..__..__..__..__..
 72
    65
 73
     6
 40
0.625
 49
0.25
 74
     0
 49
-0.125
 74
     0
 49
0.0
 74
     0
 49
-0.125
 74
     0
 49
0.0
 74
     0
 49
-0.125
 74
     0
  0
LTYPE
  5
30
330
5
100
AcDbSymbolTableRecord
100
AcDbLinetypeTableRecord
  2
DIVIDEX2
 70
     0
  3
________  .  .  ________  .  .  ________  .  . 
 72
    65
 73
     6
 40
2.5
 49
1.0
 74
     0
 49
-0.5
 74
     0
 49
0.0
 74
     0
 49
-0.5
 74
     0
 49
0.0
 74
     0
 49
-0.5
 74
     0
  0
LTYPE
  5
31
330
5
100
AcDbSymbolTableRecord
100
AcDbLinetypeTableRecord
  2
DOT
 70
     0
  3
. . . . . . . . . . . . . . . . . . 
 72
    65
 73
     2
 40
0.25
 49
0.0
 74
     0
 49
-0.25
 74
     0
  0
LTYPE
  5
32
330
5
100
AcDbSymbolTableRecord
100
AcDbLinetypeTableRecord
  2
DOT2
 70
     0
  3
....................................
 72
    65
 73
     2
 40
0.125
 49
0.0
 74
     0
 49
-0.125
 74
     0
  0
LTYPE
  5
33
330
5
100
AcDbSymbolTableRecord
100
AcDbLinetypeTableRecord
  2
DOTX2
 70
     0
  3
.  .  .  .  .  .  .  .  .  .  .  .  .  
 72
    65
 73
     2
 40
0.5
 49
0.0
 74
     0
 49
-0.5
 74
     0
  0
LTYPE
  5
34
330
5
100
AcDbSymbolTableRecord
100
AcDbLinetypeTableRecord
  2
HIDDEN
 70
     0
  3
__ __ __ __ __ __ __ __ __ __ __ __ 
 72
    65
 73
     2
 40
0.375
 49
0.25
 74
     0
 49
-0.125
 74
     0
  0
LTYPE
  5
35
330
5
100
AcDbSymbolTableRecord
100
AcDbLinetypeTableRecord
  2
HIDDEN2
 70
     0
  3
_ _ _ _ _ _ _ _ _ _ _ _ _ _ _ _ _ _ 
 72
    65
 73
     2
 40
0.1875
 49
0.125
 74
     0
 49
-0.0625
 74
     0
  0
LTYPE
  5
36
330
5
100
AcDbSymbolTableRecord
100
AcDbLinetypeTableRecord
  2
HIDDENX2
 70
     0
  3
____ ____ ____ ____ ____ ____ ____ 
 72
    65
 73
     2
 40
0.75
 49
0.5
 74
     0
 49
-0.25
 74
     0
  0
LTYPE
  5
37
330
5
100
AcDbSymbolTableRecord
100
AcDbLinetypeTableRecord
  2
PHANTOM
 70
     0
  3
______  __  __  ______  __  __  
 72
    65
 73
     6
 40
2.5
 49
1.25
 74
     0
 49
-0.25
 74
     0
 49
0.25
 74
     0
 49
-0.25
 74
     0
 49
0.25
 74
     0
 49
-0.25
 74
     0
  0
LTYPE
  5
38
330
5
100
AcDbSymbolTableRecord
100
AcDbLinetypeTableRecord
  2
PHANTOM2
 70
     0
  3
___ _ _ ___ _ _ ___ _ _ ___ _ _ 
 72
    65
 73
     6
 40
1.25
 49
0.625
 74
     0
 49
-0.125
 74
     0
 49
0.125
 74
     0
 49
-0.125
 74
     0
 49
0.125
 74
     0
 49
-0.125
 74
     0
  0
LTYPE
  5
39
330
5
100
AcDbSymbolTableRecord
100
AcDbLinetypeTableRecord
  2
PHANTOMX2
 70
     0
  3
___ _ _ ___ _ _ ___ _ _ ___ _ _ 
 72
    65
 73
     6
 40
5.0
 49
2.5
 74
     0
 49
-0.5
 74
     0
 49
0.5
 74
     0
 49
-0.5
 74
     0
 49
0.5
 74
     0
 49
-0.5
 74
     0
  0
ENDTAB
  0
TABLE
  2
LAYER
  5
2
330
0
100
AcDbSymbolTable
 70
   256
  0
LAYER
  5
10
330
2
100
AcDbSymbolTableRecord
100
AcDbLayerTableRecord
  2
0
 70
     0
 62
     7
  6
CONTINUOUS
  0
LAYER
  5
3A
330
2
100
AcDbSymbolTableRecord
100
AcDbLayerTableRecord
  2
1
 70
     0
 62
     1
  6
CONTINUOUS
  0
LAYER
  5
3B
330
2
100
AcDbSymbolTableRecord
100
AcDbLayerTableRecord
  2
2
 70
     0
 62
     2
  6
CONTINUOUS
  0
LAYER
  5
3C
330
2
100
AcDbSymbolTableRecord
100
AcDbLayerTableRecord
  2
3
 70
     0
 62
     3
  6
CONTINUOUS
  0
LAYER
  5
3D
330
2
100
AcDbSymbolTableRecord
100
AcDbLayerTableRecord
  2
4
 70
     0
 62
     4
  6
CONTINUOUS
  0
LAYER
  5
3E
330
2
100
AcDbSymbolTableRecord
100
AcDbLayerTableRecord
  2
5
 70
     0
 62
     5
  6
CONTINUOUS
  0
LAYER
  5
3F
330
2
100
AcDbSymbolTableRecord
100
AcDbLayerTableRecord
  2
6
 70
     0
 62
     6
  6
CONTINUOUS
  0
LAYER
  5
40
330
2
100
AcDbSymbolTableRecord
100
AcDbLayerTableRecord
  2
7
 70
     0
 62
     7
  6
CONTINUOUS
  0
LAYER
  5
41
330
2
100
AcDbSymbolTableRecord
100
AcDbLayerTableRecord
  2
8
 70
     0
 62
     8
  6
CONTINUOUS
  0
LAYER
  5
42
330
2
100
AcDbSymbolTableRecord
100
AcDbLayerTableRecord
  2
9
 70
     0
 62
     9
  6
CONTINUOUS
  0
LAYER
  5
43
330
2
100
AcDbSymbolTableRecord
100
AcDbLayerTableRecord
  2
10
 70
     0
 62
    10
  6
CONTINUOUS
  0
LAYER
  5
44
330
2
100
AcDbSymbolTableRecord
100
AcDbLayerTableRecord
  2
11
 70
     0
 62
    11
  6
CONTINUOUS
  0
LAYER
  5
45
330
2
100
AcDbSymbolTableRecord
100
AcDbLayerTableRecord
  2
12
 70
     0
 62
    12
  6
CONTINUOUS
  0
LAYER
  5
46
330
2
100
AcDbSymbolTableRecord
100
AcDbLayerTableRecord
  2
13
 70
     0
 62
    13
  6
CONTINUOUS
  0
LAYER
  5
47
330
2
100
AcDbSymbolTableRecord
100
AcDbLayerTableRecord
  2
14
 70
     0
 62
    14
  6
CONTINUOUS
  0
LAYER
  5
48
330
2
100
AcDbSymbolTableRecord
100
AcDbLayerTableRecord
  2
15
 70
     0
 62
    15
  6
CONTINUOUS
  0
LAYER
  5
49
330
2
100
AcDbSymbolTableRecord
100
AcDbLayerTableRecord
  2
16
 70
     0
 62
    16
  6
CONTINUOUS
  0
LAYER
  5
4A
330
2
100
AcDbSymbolTableRecord
100
AcDbLayerTableRecord
  2
17
 70
     0
 62
    17
  6
CONTINUOUS
  0
LAYER
  5
4B
330
2
100
AcDbSymbolTableRecord
100
AcDbLayerTableRecord
  2
18
 70
     0
 62
    18
  6
CONTINUOUS
  0
LAYER
  5
4C
330
2
100
AcDbSymbolTableRecord
100
AcDbLayerTableRecord
  2
19
 70
     0
 62
    19
  6
CONTINUOUS
  0
LAYER
  5
4D
330
2
100
AcDbSymbolTableRecord
100
AcDbLayerTableRecord
  2
20
 70
     0
 62
    20
  6
CONTINUOUS
  0
LAYER
  5
4E
330
2
100
AcDbSymbolTableRecord
100
AcDbLayerTableRecord
  2
21
 70
     0
 62
    21
  6
CONTINUOUS
  0
LAYER
  5
4F
330
2
100
AcDbSymbolTableRecord
100
AcDbLayerTableRecord
  2
22
 70
     0
 62
    22
  6
CONTINUOUS
  0
LAYER
  5
50
330
2
100
AcDbSymbolTableRecord
100
AcDbLayerTableRecord
  2
23
 70
     0
 62
    23
  6
CONTINUOUS
  0
LAYER
  5
51
330
2
100
AcDbSymbolTableRecord
100
AcDbLayerTableRecord
  2
24
 70
     0
 62
    24
  6
CONTINUOUS
  0
LAYER
  5
52
330
2
100
AcDbSymbolTableRecord
100
AcDbLayerTableRecord
  2
25
 70
     0
 62
    25
  6
CONTINUOUS
  0
LAYER
  5
53
330
2
100
AcDbSymbolTableRecord
100
AcDbLayerTableRecord
  2
26
 70
     0
 62
    26
  6
CONTINUOUS
  0
LAYER
  5
54
330
2
100
AcDbSymbolTableRecord
100
AcDbLayerTableRecord
  2
27
 70
     0
 62
    27
  6
CONTINUOUS
  0
LAYER
  5
55
330
2
100
AcDbSymbolTableRecord
100
AcDbLayerTableRecord
  2
28
 70
     0
 62
    28
  6
CONTINUOUS
  0
LAYER
  5
56
330
2
100
AcDbSymbolTableRecord
100
AcDbLayerTableRecord
  2
29
 70
     0
 62
    29
  6
CONTINUOUS
  0
LAYER
  5
57
330
2
100
AcDbSymbolTableRecord
100
AcDbLayerTableRecord
  2
30
 70
     0
 62
    30
  6
CONTINUOUS
  0
LAYER
  5
58
330
2
100
AcDbSymbolTableRecord
100
AcDbLayerTableRecord
  2
31
 70
     0
 62
    31
  6
CONTINUOUS
  0
LAYER
  5
59
330
2
100
AcDbSymbolTableRecord
100
AcDbLayerTableRecord
  2
32
 70
     0
 62
    32
  6
CONTINUOUS
  0
LAYER
  5
5A
330
2
100
AcDbSymbolTableRecord
100
AcDbLayerTableRecord
  2
33
 70
     0
 62
    33
  6
CONTINUOUS
  0
LAYER
  5
5B
330
2
100
AcDbSymbolTableRecord
100
AcDbLayerTableRecord
  2
34
 70
     0
 62
    34
  6
CONTINUOUS
  0
LAYER
  5
5C
330
2
100
AcDbSymbolTableRecord
100
AcDbLayerTableRecord
  2
35
 70
     0
 62
    35
  6
CONTINUOUS
  0
LAYER
  5
5D
330
2
100
AcDbSymbolTableRecord
100
AcDbLayerTableRecord
  2
36
 70
     0
 62
    36
  6
CONTINUOUS
  0
LAYER
  5
5E
330
2
100
AcDbSymbolTableRecord
100
AcDbLayerTableRecord
  2
37
 70
     0
 62
    37
  6
CONTINUOUS
  0
LAYER
  5
5F
330
2
100
AcDbSymbolTableRecord
100
AcDbLayerTableRecord
  2
38
 70
     0
 62
    38
  6
CONTINUOUS
  0
LAYER
  5
60
330
2
100
AcDbSymbolTableRecord
100
AcDbLayerTableRecord
  2
39
 70
     0
 62
    39
  6
CONTINUOUS
  0
LAYER
  5
61
330
2
100
AcDbSymbolTableRecord
100
AcDbLayerTableRecord
  2
40
 70
     0
 62
    40
  6
CONTINUOUS
  0
LAYER
  5
62
330
2
100
AcDbSymbolTableRecord
100
AcDbLayerTableRecord
  2
41
 70
     0
 62
    41
  6
CONTINUOUS
  0
LAYER
  5
63
330
2
100
AcDbSymbolTableRecord
100
AcDbLayerTableRecord
  2
42
 70
     0
 62
    42
  6
CONTINUOUS
  0
LAYER
  5
64
330
2
100
AcDbSymbolTableRecord
100
AcDbLayerTableRecord
  2
43
 70
     0
 62
    43
  6
CONTINUOUS
  0
LAYER
  5
65
330
2
100
AcDbSymbolTableRecord
100
AcDbLayerTableRecord
  2
44
 70
     0
 62
    44
  6
CONTINUOUS
  0
LAYER
  5
66
330
2
100
AcDbSymbolTableRecord
100
AcDbLayerTableRecord
  2
45
 70
     0
 62
    45
  6
CONTINUOUS
  0
LAYER
  5
67
330
2
100
AcDbSymbolTableRecord
100
AcDbLayerTableRecord
  2
46
 70
     0
 62
    46
  6
CONTINUOUS
  0
LAYER
  5
68
330
2
100
AcDbSymbolTableRecord
100
AcDbLayerTableRecord
  2
47
 70
     0
 62
    47
  6
CONTINUOUS
  0
LAYER
  5
69
330
2
100
AcDbSymbolTableRecord
100
AcDbLayerTableRecord
  2
48
 70
     0
 62
    48
  6
CONTINUOUS
  0
LAYER
  5
6A
330
2
100
AcDbSymbolTableRecord
100
AcDbLayerTableRecord
  2
49
 70
     0
 62
    49
  6
CONTINUOUS
  0
LAYER
  5
6B
330
2
100
AcDbSymbolTableRecord
100
AcDbLayerTableRecord
  2
50
 70
     0
 62
    50
  6
CONTINUOUS
  0
LAYER
  5
6C
330
2
100
AcDbSymbolTableRecord
100
AcDbLayerTableRecord
  2
51
 70
     0
 62
    51
  6
CONTINUOUS
  0
LAYER
  5
6D
330
2
100
AcDbSymbolTableRecord
100
AcDbLayerTableRecord
  2
52
 70
     0
 62
    52
  6
CONTINUOUS
  0
LAYER
  5
6E
330
2
100
AcDbSymbolTableRecord
100
AcDbLayerTableRecord
  2
53
 70
     0
 62
    53
  6
CONTINUOUS
  0
LAYER
  5
6F
330
2
100
AcDbSymbolTableRecord
100
AcDbLayerTableRecord
  2
54
 70
     0
 62
    54
  6
CONTINUOUS
  0
LAYER
  5
70
330
2
100
AcDbSymbolTableRecord
100
AcDbLayerTableRecord
  2
55
 70
     0
 62
    55
  6
CONTINUOUS
  0
LAYER
  5
71
330
2
100
AcDbSymbolTableRecord
100
AcDbLayerTableRecord
  2
56
 70
     0
 62
    56
  6
CONTINUOUS
  0
LAYER
  5
72
330
2
100
AcDbSymbolTableRecord
100
AcDbLayerTableRecord
  2
57
 70
     0
 62
    57
  6
CONTINUOUS
  0
LAYER
  5
73
330
2
100
AcDbSymbolTableRecord
100
AcDbLayerTableRecord
  2
58
 70
     0
 62
    58
  6
CONTINUOUS
  0
LAYER
  5
74
330
2
100
AcDbSymbolTableRecord
100
AcDbLayerTableRecord
  2
59
 70
     0
 62
    59
  6
CONTINUOUS
  0
LAYER
  5
75
330
2
100
AcDbSymbolTableRecord
100
AcDbLayerTableRecord
  2
60
 70
     0
 62
    60
  6
CONTINUOUS
  0
LAYER
  5
76
330
2
100
AcDbSymbolTableRecord
100
AcDbLayerTableRecord
  2
61
 70
     0
 62
    61
  6
CONTINUOUS
  0
LAYER
  5
77
330
2
100
AcDbSymbolTableRecord
100
AcDbLayerTableRecord
  2
62
 70
     0
 62
    62
  6
CONTINUOUS
  0
LAYER
  5
78
330
2
100
AcDbSymbolTableRecord
100
AcDbLayerTableRecord
  2
63
 70
     0
 62
    63
  6
CONTINUOUS
  0
LAYER
  5
79
330
2
100
AcDbSymbolTableRecord
100
AcDbLayerTableRecord
  2
64
 70
     0
 62
    64
  6
CONTINUOUS
  0
LAYER
  5
7A
330
2
100
AcDbSymbolTableRecord
100
AcDbLayerTableRecord
  2
65
 70
     0
 62
    65
  6
CONTINUOUS
  0
LAYER
  5
7B
330
2
100
AcDbSymbolTableRecord
100
AcDbLayerTableRecord
  2
66
 70
     0
 62
    66
  6
CONTINUOUS
  0
LAYER
  5
7C
330
2
100
AcDbSymbolTableRecord
100
AcDbLayerTableRecord
  2
67
 70
     0
 62
    67
  6
CONTINUOUS
  0
LAYER
  5
7D
330
2
100
AcDbSymbolTableRecord
100
AcDbLayerTableRecord
  2
68
 70
     0
 62
    68
  6
CONTINUOUS
  0
LAYER
  5
7E
330
2
100
AcDbSymbolTableRecord
100
AcDbLayerTableRecord
  2
69
 70
     0
 62
    69
  6
CONTINUOUS
  0
LAYER
  5
7F
330
2
100
AcDbSymbolTableRecord
100
AcDbLayerTableRecord
  2
70
 70
     0
 62
    70
  6
CONTINUOUS
  0
LAYER
  5
80
330
2
100
AcDbSymbolTableRecord
100
AcDbLayerTableRecord
  2
71
 70
     0
 62
    71
  6
CONTINUOUS
  0
LAYER
  5
81
330
2
100
AcDbSymbolTableRecord
100
AcDbLayerTableRecord
  2
72
 70
     0
 62
    72
  6
CONTINUOUS
  0
LAYER
  5
82
330
2
100
AcDbSymbolTableRecord
100
AcDbLayerTableRecord
  2
73
 70
     0
 62
    73
  6
CONTINUOUS
  0
LAYER
  5
83
330
2
100
AcDbSymbolTableRecord
100
AcDbLayerTableRecord
  2
74
 70
     0
 62
    74
  6
CONTINUOUS
  0
LAYER
  5
84
330
2
100
AcDbSymbolTableRecord
100
AcDbLayerTableRecord
  2
75
 70
     0
 62
    75
  6
CONTINUOUS
  0
LAYER
  5
85
330
2
100
AcDbSymbolTableRecord
100
AcDbLayerTableRecord
  2
76
 70
     0
 62
    76
  6
CONTINUOUS
  0
LAYER
  5
86
330
2
100
AcDbSymbolTableRecord
100
AcDbLayerTableRecord
  2
77
 70
     0
 62
    77
  6
CONTINUOUS
  0
LAYER
  5
87
330
2
100
AcDbSymbolTableRecord
100
AcDbLayerTableRecord
  2
78
 70
     0
 62
    78
  6
CONTINUOUS
  0
LAYER
  5
88
330
2
100
AcDbSymbolTableRecord
100
AcDbLayerTableRecord
  2
79
 70
     0
 62
    79
  6
CONTINUOUS
  0
LAYER
  5
89
330
2
100
AcDbSymbolTableRecord
100
AcDbLayerTableRecord
  2
80
 70
     0
 62
    80
  6
CONTINUOUS
  0
LAYER
  5
8A
330
2
100
AcDbSymbolTableRecord
100
AcDbLayerTableRecord
  2
81
 70
     0
 62
    81
  6
CONTINUOUS
  0
LAYER
  5
8B
330
2
100
AcDbSymbolTableRecord
100
AcDbLayerTableRecord
  2
82
 70
     0
 62
    82
  6
CONTINUOUS
  0
LAYER
  5
8C
330
2
100
AcDbSymbolTableRecord
100
AcDbLayerTableRecord
  2
83
 70
     0
 62
    83
  6
CONTINUOUS
  0
LAYER
  5
8D
330
2
100
AcDbSymbolTableRecord
100
AcDbLayerTableRecord
  2
84
 70
     0
 62
    84
  6
CONTINUOUS
  0
LAYER
  5
8E
330
2
100
AcDbSymbolTableRecord
100
AcDbLayerTableRecord
  2
85
 70
     0
 62
    85
  6
CONTINUOUS
  0
LAYER
  5
8F
330
2
100
AcDbSymbolTableRecord
100
AcDbLayerTableRecord
  2
86
 70
     0
 62
    86
  6
CONTINUOUS
  0
LAYER
  5
90
330
2
100
AcDbSymbolTableRecord
100
AcDbLayerTableRecord
  2
87
 70
     0
 62
    87
  6
CONTINUOUS
  0
LAYER
  5
91
330
2
100
AcDbSymbolTableRecord
100
AcDbLayerTableRecord
  2
88
 70
     0
 62
    88
  6
CONTINUOUS
  0
LAYER
  5
92
330
2
100
AcDbSymbolTableRecord
100
AcDbLayerTableRecord
  2
89
 70
     0
 62
    89
  6
CONTINUOUS
  0
LAYER
  5
93
330
2
100
AcDbSymbolTableRecord
100
AcDbLayerTableRecord
  2
90
 70
     0
 62
    90
  6
CONTINUOUS
  0
LAYER
  5
94
330
2
100
AcDbSymbolTableRecord
100
AcDbLayerTableRecord
  2
91
 70
     0
 62
    91
  6
CONTINUOUS
  0
LAYER
  5
95
330
2
100
AcDbSymbolTableRecord
100
AcDbLayerTableRecord
  2
92
 70
     0
 62
    92
  6
CONTINUOUS
  0
LAYER
  5
96
330
2
100
AcDbSymbolTableRecord
100
AcDbLayerTableRecord
  2
93
 70
     0
 62
    93
  6
CONTINUOUS
  0
LAYER
  5
97
330
2
100
AcDbSymbolTableRecord
100
AcDbLayerTableRecord
  2
94
 70
     0
 62
    94
  6
CONTINUOUS
  0
LAYER
  5
98
330
2
100
AcDbSymbolTableRecord
100
AcDbLayerTableRecord
  2
95
 70
     0
 62
    95
  6
CONTINUOUS
  0
LAYER
  5
99
330
2
100
AcDbSymbolTableRecord
100
AcDbLayerTableRecord
  2
96
 70
     0
 62
    96
  6
CONTINUOUS
  0
LAYER
  5
9A
330
2
100
AcDbSymbolTableRecord
100
AcDbLayerTableRecord
  2
97
 70
     0
 62
    97
  6
CONTINUOUS
  0
LAYER
  5
9B
330
2
100
AcDbSymbolTableRecord
100
AcDbLayerTableRecord
  2
98
 70
     0
 62
    98
  6
CONTINUOUS
  0
LAYER
  5
9C
330
2
100
AcDbSymbolTableRecord
100
AcDbLayerTableRecord
  2
99
 70
     0
 62
    99
  6
CONTINUOUS
  0
LAYER
  5
9D
330
2
100
AcDbSymbolTableRecord
100
AcDbLayerTableRecord
  2
100
 70
     0
 62
   100
  6
CONTINUOUS
  0
LAYER
  5
9E
330
2
100
AcDbSymbolTableRecord
100
AcDbLayerTableRecord
  2
101
 70
     0
 62
   101
  6
CONTINUOUS
  0
LAYER
  5
9F
330
2
100
AcDbSymbolTableRecord
100
AcDbLayerTableRecord
  2
102
 70
     0
 62
   102
  6
CONTINUOUS
  0
LAYER
  5
A0
330
2
100
AcDbSymbolTableRecord
100
AcDbLayerTableRecord
  2
103
 70
     0
 62
   103
  6
CONTINUOUS
  0
LAYER
  5
A1
330
2
100
AcDbSymbolTableRecord
100
AcDbLayerTableRecord
  2
104
 70
     0
 62
   104
  6
CONTINUOUS
  0
LAYER
  5
A2
330
2
100
AcDbSymbolTableRecord
100
AcDbLayerTableRecord
  2
105
 70
     0
 62
   105
  6
CONTINUOUS
  0
LAYER
  5
A3
330
2
100
AcDbSymbolTableRecord
100
AcDbLayerTableRecord
  2
106
 70
     0
 62
   106
  6
CONTINUOUS
  0
LAYER
  5
A4
330
2
100
AcDbSymbolTableRecord
100
AcDbLayerTableRecord
  2
107
 70
     0
 62
   107
  6
CONTINUOUS
  0
LAYER
  5
A5
330
2
100
AcDbSymbolTableRecord
100
AcDbLayerTableRecord
  2
108
 70
     0
 62
   108
  6
CONTINUOUS
  0
LAYER
  5
A6
330
2
100
AcDbSymbolTableRecord
100
AcDbLayerTableRecord
  2
109
 70
     0
 62
   109
  6
CONTINUOUS
  0
LAYER
  5
A7
330
2
100
AcDbSymbolTableRecord
100
AcDbLayerTableRecord
  2
110
 70
     0
 62
   110
  6
CONTINUOUS
  0
LAYER
  5
A8
330
2
100
AcDbSymbolTableRecord
100
AcDbLayerTableRecord
  2
111
 70
     0
 62
   111
  6
CONTINUOUS
  0
LAYER
  5
A9
330
2
100
AcDbSymbolTableRecord
100
AcDbLayerTableRecord
  2
112
 70
     0
 62
   112
  6
CONTINUOUS
  0
LAYER
  5
AA
330
2
100
AcDbSymbolTableRecord
100
AcDbLayerTableRecord
  2
113
 70
     0
 62
   113
  6
CONTINUOUS
  0
LAYER
  5
AB
330
2
100
AcDbSymbolTableRecord
100
AcDbLayerTableRecord
  2
114
 70
     0
 62
   114
  6
CONTINUOUS
  0
LAYER
  5
AC
330
2
100
AcDbSymbolTableRecord
100
AcDbLayerTableRecord
  2
115
 70
     0
 62
   115
  6
CONTINUOUS
  0
LAYER
  5
AD
330
2
100
AcDbSymbolTableRecord
100
AcDbLayerTableRecord
  2
116
 70
     0
 62
   116
  6
CONTINUOUS
  0
LAYER
  5
AE
330
2
100
AcDbSymbolTableRecord
100
AcDbLayerTableRecord
  2
117
 70
     0
 62
   117
  6
CONTINUOUS
  0
LAYER
  5
AF
330
2
100
AcDbSymbolTableRecord
100
AcDbLayerTableRecord
  2
118
 70
     0
 62
   118
  6
CONTINUOUS
  0
LAYER
  5
B0
330
2
100
AcDbSymbolTableRecord
100
AcDbLayerTableRecord
  2
119
 70
     0
 62
   119
  6
CONTINUOUS
  0
LAYER
  5
B1
330
2
100
AcDbSymbolTableRecord
100
AcDbLayerTableRecord
  2
120
 70
     0
 62
   120
  6
CONTINUOUS
  0
LAYER
  5
B2
330
2
100
AcDbSymbolTableRecord
100
AcDbLayerTableRecord
  2
121
 70
     0
 62
   121
  6
CONTINUOUS
  0
LAYER
  5
B3
330
2
100
AcDbSymbolTableRecord
100
AcDbLayerTableRecord
  2
122
 70
     0
 62
   122
  6
CONTINUOUS
  0
LAYER
  5
B4
330
2
100
AcDbSymbolTableRecord
100
AcDbLayerTableRecord
  2
123
 70
     0
 62
   123
  6
CONTINUOUS
  0
LAYER
  5
B5
330
2
100
AcDbSymbolTableRecord
100
AcDbLayerTableRecord
  2
124
 70
     0
 62
   124
  6
CONTINUOUS
  0
LAYER
  5
B6
330
2
100
AcDbSymbolTableRecord
100
AcDbLayerTableRecord
  2
125
 70
     0
 62
   125
  6
CONTINUOUS
  0
LAYER
  5
B7
330
2
100
AcDbSymbolTableRecord
100
AcDbLayerTableRecord
  2
126
 70
     0
 62
   126
  6
CONTINUOUS
  0
LAYER
  5
B8
330
2
100
AcDbSymbolTableRecord
100
AcDbLayerTableRecord
  2
127
 70
     0
 62
   127
  6
CONTINUOUS
  0
LAYER
  5
B9
330
2
100
AcDbSymbolTableRecord
100
AcDbLayerTableRecord
  2
128
 70
     0
 62
   128
  6
CONTINUOUS
  0
LAYER
  5
BA
330
2
100
AcDbSymbolTableRecord
100
AcDbLayerTableRecord
  2
129
 70
     0
 62
   129
  6
CONTINUOUS
  0
LAYER
  5
BB
330
2
100
AcDbSymbolTableRecord
100
AcDbLayerTableRecord
  2
130
 70
     0
 62
   130
  6
CONTINUOUS
  0
LAYER
  5
BC
330
2
100
AcDbSymbolTableRecord
100
AcDbLayerTableRecord
  2
131
 70
     0
 62
   131
  6
CONTINUOUS
  0
LAYER
  5
BD
330
2
100
AcDbSymbolTableRecord
100
AcDbLayerTableRecord
  2
132
 70
     0
 62
   132
  6
CONTINUOUS
  0
LAYER
  5
BE
330
2
100
AcDbSymbolTableRecord
100
AcDbLayerTableRecord
  2
133
 70
     0
 62
   133
  6
CONTINUOUS
  0
LAYER
  5
BF
330
2
100
AcDbSymbolTableRecord
100
AcDbLayerTableRecord
  2
134
 70
     0
 62
   134
  6
CONTINUOUS
  0
LAYER
  5
C0
330
2
100
AcDbSymbolTableRecord
100
AcDbLayerTableRecord
  2
135
 70
     0
 62
   135
  6
CONTINUOUS
  0
LAYER
  5
C1
330
2
100
AcDbSymbolTableRecord
100
AcDbLayerTableRecord
  2
136
 70
     0
 62
   136
  6
CONTINUOUS
  0
LAYER
  5
C2
330
2
100
AcDbSymbolTableRecord
100
AcDbLayerTableRecord
  2
137
 70
     0
 62
   137
  6
CONTINUOUS
  0
LAYER
  5
C3
330
2
100
AcDbSymbolTableRecord
100
AcDbLayerTableRecord
  2
138
 70
     0
 62
   138
  6
CONTINUOUS
  0
LAYER
  5
C4
330
2
100
AcDbSymbolTableRecord
100
AcDbLayerTableRecord
  2
139
 70
     0
 62
   139
  6
CONTINUOUS
  0
LAYER
  5
C5
330
2
100
AcDbSymbolTableRecord
100
AcDbLayerTableRecord
  2
140
 70
     0
 62
   140
  6
CONTINUOUS
  0
LAYER
  5
C6
330
2
100
AcDbSymbolTableRecord
100
AcDbLayerTableRecord
  2
141
 70
     0
 62
   141
  6
CONTINUOUS
  0
LAYER
  5
C7
330
2
100
AcDbSymbolTableRecord
100
AcDbLayerTableRecord
  2
142
 70
     0
 62
   142
  6
CONTINUOUS
  0
LAYER
  5
C8
330
2
100
AcDbSymbolTableRecord
100
AcDbLayerTableRecord
  2
143
 70
     0
 62
   143
  6
CONTINUOUS
  0
LAYER
  5
C9
330
2
100
AcDbSymbolTableRecord
100
AcDbLayerTableRecord
  2
144
 70
     0
 62
   144
  6
CONTINUOUS
  0
LAYER
  5
CA
330
2
100
AcDbSymbolTableRecord
100
AcDbLayerTableRecord
  2
145
 70
     0
 62
   145
  6
CONTINUOUS
  0
LAYER
  5
CB
330
2
100
AcDbSymbolTableRecord
100
AcDbLayerTableRecord
  2
146
 70
     0
 62
   146
  6
CONTINUOUS
  0
LAYER
  5
CC
330
2
100
AcDbSymbolTableRecord
100
AcDbLayerTableRecord
  2
147
 70
     0
 62
   147
  6
CONTINUOUS
  0
LAYER
  5
CD
330
2
100
AcDbSymbolTableRecord
100
AcDbLayerTableRecord
  2
148
 70
     0
 62
   148
  6
CONTINUOUS
  0
LAYER
  5
CE
330
2
100
AcDbSymbolTableRecord
100
AcDbLayerTableRecord
  2
149
 70
     0
 62
   149
  6
CONTINUOUS
  0
LAYER
  5
CF
330
2
100
AcDbSymbolTableRecord
100
AcDbLayerTableRecord
  2
150
 70
     0
 62
   150
  6
CONTINUOUS
  0
LAYER
  5
D0
330
2
100
AcDbSymbolTableRecord
100
AcDbLayerTableRecord
  2
151
 70
     0
 62
   151
  6
CONTINUOUS
  0
LAYER
  5
D1
330
2
100
AcDbSymbolTableRecord
100
AcDbLayerTableRecord
  2
152
 70
     0
 62
   152
  6
CONTINUOUS
  0
LAYER
  5
D2
330
2
100
AcDbSymbolTableRecord
100
AcDbLayerTableRecord
  2
153
 70
     0
 62
   153
  6
CONTINUOUS
  0
LAYER
  5
D3
330
2
100
AcDbSymbolTableRecord
100
AcDbLayerTableRecord
  2
154
 70
     0
 62
   154
  6
CONTINUOUS
  0
LAYER
  5
D4
330
2
100
AcDbSymbolTableRecord
100
AcDbLayerTableRecord
  2
155
 70
     0
 62
   155
  6
CONTINUOUS
  0
LAYER
  5
D5
330
2
100
AcDbSymbolTableRecord
100
AcDbLayerTableRecord
  2
156
 70
     0
 62
   156
  6
CONTINUOUS
  0
LAYER
  5
D6
330
2
100
AcDbSymbolTableRecord
100
AcDbLayerTableRecord
  2
157
 70
     0
 62
   157
  6
CONTINUOUS
  0
LAYER
  5
D7
330
2
100
AcDbSymbolTableRecord
100
AcDbLayerTableRecord
  2
158
 70
     0
 62
   158
  6
CONTINUOUS
  0
LAYER
  5
D8
330
2
100
AcDbSymbolTableRecord
100
AcDbLayerTableRecord
  2
159
 70
     0
 62
   159
  6
CONTINUOUS
  0
LAYER
  5
D9
330
2
100
AcDbSymbolTableRecord
100
AcDbLayerTableRecord
  2
160
 70
     0
 62
   160
  6
CONTINUOUS
  0
LAYER
  5
DA
330
2
100
AcDbSymbolTableRecord
100
AcDbLayerTableRecord
  2
161
 70
     0
 62
   161
  6
CONTINUOUS
  0
LAYER
  5
DB
330
2
100
AcDbSymbolTableRecord
100
AcDbLayerTableRecord
  2
162
 70
     0
 62
   162
  6
CONTINUOUS
  0
LAYER
  5
DC
330
2
100
AcDbSymbolTableRecord
100
AcDbLayerTableRecord
  2
163
 70
     0
 62
   163
  6
CONTINUOUS
  0
LAYER
  5
DD
330
2
100
AcDbSymbolTableRecord
100
AcDbLayerTableRecord
  2
164
 70
     0
 62
   164
  6
CONTINUOUS
  0
LAYER
  5
DE
330
2
100
AcDbSymbolTableRecord
100
AcDbLayerTableRecord
  2
165
 70
     0
 62
   165
  6
CONTINUOUS
  0
LAYER
  5
DF
330
2
100
AcDbSymbolTableRecord
100
AcDbLayerTableRecord
  2
166
 70
     0
 62
   166
  6
CONTINUOUS
  0
LAYER
  5
E0
330
2
100
AcDbSymbolTableRecord
100
AcDbLayerTableRecord
  2
167
 70
     0
 62
   167
  6
CONTINUOUS
  0
LAYER
  5
E1
330
2
100
AcDbSymbolTableRecord
100
AcDbLayerTableRecord
  2
168
 70
     0
 62
   168
  6
CONTINUOUS
  0
LAYER
  5
E2
330
2
100
AcDbSymbolTableRecord
100
AcDbLayerTableRecord
  2
169
 70
     0
 62
   169
  6
CONTINUOUS
  0
LAYER
  5
E3
330
2
100
AcDbSymbolTableRecord
100
AcDbLayerTableRecord
  2
170
 70
     0
 62
   170
  6
CONTINUOUS
  0
LAYER
  5
E4
330
2
100
AcDbSymbolTableRecord
100
AcDbLayerTableRecord
  2
171
 70
     0
 62
   171
  6
CONTINUOUS
  0
LAYER
  5
E5
330
2
100
AcDbSymbolTableRecord
100
AcDbLayerTableRecord
  2
172
 70
     0
 62
   172
  6
CONTINUOUS
  0
LAYER
  5
E6
330
2
100
AcDbSymbolTableRecord
100
AcDbLayerTableRecord
  2
173
 70
     0
 62
   173
  6
CONTINUOUS
  0
LAYER
  5
E7
330
2
100
AcDbSymbolTableRecord
100
AcDbLayerTableRecord
  2
174
 70
     0
 62
   174
  6
CONTINUOUS
  0
LAYER
  5
E8
330
2
100
AcDbSymbolTableRecord
100
AcDbLayerTableRecord
  2
175
 70
     0
 62
   175
  6
CONTINUOUS
  0
LAYER
  5
E9
330
2
100
AcDbSymbolTableRecord
100
AcDbLayerTableRecord
  2
176
 70
     0
 62
   176
  6
CONTINUOUS
  0
LAYER
  5
EA
330
2
100
AcDbSymbolTableRecord
100
AcDbLayerTableRecord
  2
177
 70
     0
 62
   177
  6
CONTINUOUS
  0
LAYER
  5
EB
330
2
100
AcDbSymbolTableRecord
100
AcDbLayerTableRecord
  2
178
 70
     0
 62
   178
  6
CONTINUOUS
  0
LAYER
  5
EC
330
2
100
AcDbSymbolTableRecord
100
AcDbLayerTableRecord
  2
179
 70
     0
 62
   179
  6
CONTINUOUS
  0
LAYER
  5
ED
330
2
100
AcDbSymbolTableRecord
100
AcDbLayerTableRecord
  2
180
 70
     0
 62
   180
  6
CONTINUOUS
  0
LAYER
  5
EE
330
2
100
AcDbSymbolTableRecord
100
AcDbLayerTableRecord
  2
181
 70
     0
 62
   181
  6
CONTINUOUS
  0
LAYER
  5
EF
330
2
100
AcDbSymbolTableRecord
100
AcDbLayerTableRecord
  2
182
 70
     0
 62
   182
  6
CONTINUOUS
  0
LAYER
  5
F0
330
2
100
AcDbSymbolTableRecord
100
AcDbLayerTableRecord
  2
183
 70
     0
 62
   183
  6
CONTINUOUS
  0
LAYER
  5
F1
330
2
100
AcDbSymbolTableRecord
100
AcDbLayerTableRecord
  2
184
 70
     0
 62
   184
  6
CONTINUOUS
  0
LAYER
  5
F2
330
2
100
AcDbSymbolTableRecord
100
AcDbLayerTableRecord
  2
185
 70
     0
 62
   185
  6
CONTINUOUS
  0
LAYER
  5
F3
330
2
100
AcDbSymbolTableRecord
100
AcDbLayerTableRecord
  2
186
 70
     0
 62
   186
  6
CONTINUOUS
  0
LAYER
  5
F4
330
2
100
AcDbSymbolTableRecord
100
AcDbLayerTableRecord
  2
187
 70
     0
 62
   187
  6
CONTINUOUS
  0
LAYER
  5
F5
330
2
100
AcDbSymbolTableRecord
100
AcDbLayerTableRecord
  2
188
 70
     0
 62
   188
  6
CONTINUOUS
  0
LAYER
  5
F6
330
2
100
AcDbSymbolTableRecord
100
AcDbLayerTableRecord
  2
189
 70
     0
 62
   189
  6
CONTINUOUS
  0
LAYER
  5
F7
330
2
100
AcDbSymbolTableRecord
100
AcDbLayerTableRecord
  2
190
 70
     0
 62
   190
  6
CONTINUOUS
  0
LAYER
  5
F8
330
2
100
AcDbSymbolTableRecord
100
AcDbLayerTableRecord
  2
191
 70
     0
 62
   191
  6
CONTINUOUS
  0
LAYER
  5
F9
330
2
100
AcDbSymbolTableRecord
100
AcDbLayerTableRecord
  2
192
 70
     0
 62
   192
  6
CONTINUOUS
  0
LAYER
  5
FA
330
2
100
AcDbSymbolTableRecord
100
AcDbLayerTableRecord
  2
193
 70
     0
 62
   193
  6
CONTINUOUS
  0
LAYER
  5
FB
330
2
100
AcDbSymbolTableRecord
100
AcDbLayerTableRecord
  2
194
 70
     0
 62
   194
  6
CONTINUOUS
  0
LAYER
  5
FC
330
2
100
AcDbSymbolTableRecord
100
AcDbLayerTableRecord
  2
195
 70
     0
 62
   195
  6
CONTINUOUS
  0
LAYER
  5
FD
330
2
100
AcDbSymbolTableRecord
100
AcDbLayerTableRecord
  2
196
 70
     0
 62
   196
  6
CONTINUOUS
  0
LAYER
  5
FE
330
2
100
AcDbSymbolTableRecord
100
AcDbLayerTableRecord
  2
197
 70
     0
 62
   197
  6
CONTINUOUS
  0
LAYER
  5
FF
330
2
100
AcDbSymbolTableRecord
100
AcDbLayerTableRecord
  2
198
 70
     0
 62
   198
  6
CONTINUOUS
  0
LAYER
  5
100
330
2
100
AcDbSymbolTableRecord
100
AcDbLayerTableRecord
  2
199
 70
     0
 62
   199
  6
CONTINUOUS
  0
LAYER
  5
101
330
2
100
AcDbSymbolTableRecord
100
AcDbLayerTableRecord
  2
200
 70
     0
 62
   200
  6
CONTINUOUS
  0
LAYER
  5
102
330
2
100
AcDbSymbolTableRecord
100
AcDbLayerTableRecord
  2
201
 70
     0
 62
   201
  6
CONTINUOUS
  0
LAYER
  5
103
330
2
100
AcDbSymbolTableRecord
100
AcDbLayerTableRecord
  2
202
 70
     0
 62
   202
  6
CONTINUOUS
  0
LAYER
  5
104
330
2
100
AcDbSymbolTableRecord
100
AcDbLayerTableRecord
  2
203
 70
     0
 62
   203
  6
CONTINUOUS
  0
LAYER
  5
105
330
2
100
AcDbSymbolTableRecord
100
AcDbLayerTableRecord
  2
204
 70
     0
 62
   204
  6
CONTINUOUS
  0
LAYER
  5
106
330
2
100
AcDbSymbolTableRecord
100
AcDbLayerTableRecord
  2
205
 70
     0
 62
   205
  6
CONTINUOUS
  0
LAYER
  5
107
330
2
100
AcDbSymbolTableRecord
100
AcDbLayerTableRecord
  2
206
 70
     0
 62
   206
  6
CONTINUOUS
  0
LAYER
  5
108
330
2
100
AcDbSymbolTableRecord
100
AcDbLayerTableRecord
  2
207
 70
     0
 62
   207
  6
CONTINUOUS
  0
LAYER
  5
109
330
2
100
AcDbSymbolTableRecord
100
AcDbLayerTableRecord
  2
208
 70
     0
 62
   208
  6
CONTINUOUS
  0
LAYER
  5
10A
330
2
100
AcDbSymbolTableRecord
100
AcDbLayerTableRecord
  2
209
 70
     0
 62
   209
  6
CONTINUOUS
  0
LAYER
  5
10B
330
2
100
AcDbSymbolTableRecord
100
AcDbLayerTableRecord
  2
210
 70
     0
 62
   210
  6
CONTINUOUS
  0
LAYER
  5
10C
330
2
100
AcDbSymbolTableRecord
100
AcDbLayerTableRecord
  2
211
 70
     0
 62
   211
  6
CONTINUOUS
  0
LAYER
  5
10D
330
2
100
AcDbSymbolTableRecord
100
AcDbLayerTableRecord
  2
212
 70
     0
 62
   212
  6
CONTINUOUS
  0
LAYER
  5
10E
330
2
100
AcDbSymbolTableRecord
100
AcDbLayerTableRecord
  2
213
 70
     0
 62
   213
  6
CONTINUOUS
  0
LAYER
  5
10F
330
2
100
AcDbSymbolTableRecord
100
AcDbLayerTableRecord
  2
214
 70
     0
 62
   214
  6
CONTINUOUS
  0
LAYER
  5
110
330
2
100
AcDbSymbolTableRecord
100
AcDbLayerTableRecord
  2
215
 70
     0
 62
   215
  6
CONTINUOUS
  0
LAYER
  5
111
330
2
100
AcDbSymbolTableRecord
100
AcDbLayerTableRecord
  2
216
 70
     0
 62
   216
  6
CONTINUOUS
  0
LAYER
  5
112
330
2
100
AcDbSymbolTableRecord
100
AcDbLayerTableRecord
  2
217
 70
     0
 62
   217
  6
CONTINUOUS
  0
LAYER
  5
113
330
2
100
AcDbSymbolTableRecord
100
AcDbLayerTableRecord
  2
218
 70
     0
 62
   218
  6
CONTINUOUS
  0
LAYER
  5
114
330
2
100
AcDbSymbolTableRecord
100
AcDbLayerTableRecord
  2
219
 70
     0
 62
   219
  6
CONTINUOUS
  0
LAYER
  5
115
330
2
100
AcDbSymbolTableRecord
100
AcDbLayerTableRecord
  2
220
 70
     0
 62
   220
  6
CONTINUOUS
  0
LAYER
  5
116
330
2
100
AcDbSymbolTableRecord
100
AcDbLayerTableRecord
  2
221
 70
     0
 62
   221
  6
CONTINUOUS
  0
LAYER
  5
117
330
2
100
AcDbSymbolTableRecord
100
AcDbLayerTableRecord
  2
222
 70
     0
 62
   222
  6
CONTINUOUS
  0
LAYER
  5
118
330
2
100
AcDbSymbolTableRecord
100
AcDbLayerTableRecord
  2
223
 70
     0
 62
   223
  6
CONTINUOUS
  0
LAYER
  5
119
330
2
100
AcDbSymbolTableRecord
100
AcDbLayerTableRecord
  2
224
 70
     0
 62
   224
  6
CONTINUOUS
  0
LAYER
  5
11A
330
2
100
AcDbSymbolTableRecord
100
AcDbLayerTableRecord
  2
225
 70
     0
 62
   225
  6
CONTINUOUS
  0
LAYER
  5
11B
330
2
100
AcDbSymbolTableRecord
100
AcDbLayerTableRecord
  2
226
 70
     0
 62
   226
  6
CONTINUOUS
  0
LAYER
  5
11C
330
2
100
AcDbSymbolTableRecord
100
AcDbLayerTableRecord
  2
227
 70
     0
 62
   227
  6
CONTINUOUS
  0
LAYER
  5
11D
330
2
100
AcDbSymbolTableRecord
100
AcDbLayerTableRecord
  2
228
 70
     0
 62
   228
  6
CONTINUOUS
  0
LAYER
  5
11E
330
2
100
AcDbSymbolTableRecord
100
AcDbLayerTableRecord
  2
229
 70
     0
 62
   229
  6
CONTINUOUS
  0
LAYER
  5
11F
330
2
100
AcDbSymbolTableRecord
100
AcDbLayerTableRecord
  2
230
 70
     0
 62
   230
  6
CONTINUOUS
  0
LAYER
  5
120
330
2
100
AcDbSymbolTableRecord
100
AcDbLayerTableRecord
  2
231
 70
     0
 62
   231
  6
CONTINUOUS
  0
LAYER
  5
121
330
2
100
AcDbSymbolTableRecord
100
AcDbLayerTableRecord
  2
232
 70
     0
 62
   232
  6
CONTINUOUS
  0
LAYER
  5
122
330
2
100
AcDbSymbolTableRecord
100
AcDbLayerTableRecord
  2
233
 70
     0
 62
   233
  6
CONTINUOUS
  0
LAYER
  5
123
330
2
100
AcDbSymbolTableRecord
100
AcDbLayerTableRecord
  2
234
 70
     0
 62
   234
  6
CONTINUOUS
  0
LAYER
  5
124
330
2
100
AcDbSymbolTableRecord
100
AcDbLayerTableRecord
  2
235
 70
     0
 62
   235
  6
CONTINUOUS
  0
LAYER
  5
125
330
2
100
AcDbSymbolTableRecord
100
AcDbLayerTableRecord
  2
236
 70
     0
 62
   236
  6
CONTINUOUS
  0
LAYER
  5
126
330
2
100
AcDbSymbolTableRecord
100
AcDbLayerTableRecord
  2
237
 70
     0
 62
   237
  6
CONTINUOUS
  0
LAYER
  5
127
330
2
100
AcDbSymbolTableRecord
100
AcDbLayerTableRecord
  2
238
 70
     0
 62
   238
  6
CONTINUOUS
  0
LAYER
  5
128
330
2
100
AcDbSymbolTableRecord
100
AcDbLayerTableRecord
  2
239
 70
     0
 62
   239
  6
CONTINUOUS
  0
LAYER
  5
129
330
2
100
AcDbSymbolTableRecord
100
AcDbLayerTableRecord
  2
240
 70
     0
 62
   240
  6
CONTINUOUS
  0
LAYER
  5
12A
330
2
100
AcDbSymbolTableRecord
100
AcDbLayerTableRecord
  2
241
 70
     0
 62
   241
  6
CONTINUOUS
  0
LAYER
  5
12B
330
2
100
AcDbSymbolTableRecord
100
AcDbLayerTableRecord
  2
242
 70
     0
 62
   242
  6
CONTINUOUS
  0
LAYER
  5
12C
330
2
100
AcDbSymbolTableRecord
100
AcDbLayerTableRecord
  2
243
 70
     0
 62
   243
  6
CONTINUOUS
  0
LAYER
  5
12D
330
2
100
AcDbSymbolTableRecord
100
AcDbLayerTableRecord
  2
244
 70
     0
 62
   244
  6
CONTINUOUS
  0
LAYER
  5
12E
330
2
100
AcDbSymbolTableRecord
100
AcDbLayerTableRecord
  2
245
 70
     0
 62
   245
  6
CONTINUOUS
  0
LAYER
  5
12F
330
2
100
AcDbSymbolTableRecord
100
AcDbLayerTableRecord
  2
246
 70
     0
 62
   246
  6
CONTINUOUS
  0
LAYER
  5
130
330
2
100
AcDbSymbolTableRecord
100
AcDbLayerTableRecord
  2
247
 70
     0
 62
   247
  6
CONTINUOUS
  0
LAYER
  5
131
330
2
100
AcDbSymbolTableRecord
100
AcDbLayerTableRecord
  2
248
 70
     0
 62
   248
  6
CONTINUOUS
  0
LAYER
  5
132
330
2
100
AcDbSymbolTableRecord
100
AcDbLayerTableRecord
  2
249
 70
     0
 62
   249
  6
CONTINUOUS
  0
LAYER
  5
133
330
2
100
AcDbSymbolTableRecord
100
AcDbLayerTableRecord
  2
250
 70
     0
 62
   250
  6
CONTINUOUS
  0
LAYER
  5
134
330
2
100
AcDbSymbolTableRecord
100
AcDbLayerTableRecord
  2
251
 70
     0
 62
   251
  6
CONTINUOUS
  0
LAYER
  5
135
330
2
100
AcDbSymbolTableRecord
100
AcDbLayerTableRecord
  2
252
 70
     0
 62
   252
  6
CONTINUOUS
  0
LAYER
  5
136
330
2
100
AcDbSymbolTableRecord
100
AcDbLayerTableRecord
  2
253
 70
     0
 62
   253
  6
CONTINUOUS
  0
LAYER
  5
137
330
2
100
AcDbSymbolTableRecord
100
AcDbLayerTableRecord
  2
254
 70
     0
 62
   254
  6
CONTINUOUS
  0
LAYER
  5
138
330
2
100
AcDbSymbolTableRecord
100
AcDbLayerTableRecord
  2
255
 70
     0
 62
   255
  6
CONTINUOUS
  0
ENDTAB
  0
TABLE
  2
STYLE
  5
3
330
0
100
AcDbSymbolTable
 70
     1
  0
STYLE
  5
11
330
3
100
AcDbSymbolTableRecord
100
AcDbTextStyleTableRecord
  2
STANDARD
 70
     0
 40
0.0
 41
1.0
 50
0.0
 71
     0
 42
0.2
  3
monotxt
  4

  0
ENDTAB
  0
TABLE
  2
VIEW
  5
6
330
0
100
AcDbSymbolTable
 70
     0
  0
ENDTAB
  0
TABLE
  2
UCS
  5
7
330
0
100
AcDbSymbolTable
 70
     0
  0
ENDTAB
  0
TABLE
  2
APPID
  5
9
330
0
100
AcDbSymbolTable
 70
     1
  0
APPID
  5
12
330
9
100
AcDbSymbolTableRecord
100
AcDbRegAppTableRecord
  2
ACAD
 70
     0
  0
ENDTAB
  0
TABLE
  2
DIMSTYLE
  5
A
330
0
100
AcDbSymbolTable
 70
     1
  0
DIMSTYLE
105
2F4A
330
A
100
AcDbSymbolTableRecord
100
AcDbDimStyleTableRecord
  2
STANDARD
 70
     0
  3

  4

  5

  6

  7

 40
1.0
 41
0.18
 42
0.0625
 43
0.38
 44
0.18
 45
0.0
 46
0.0
 47
0.0
 48
0.0
140
0.18
141
0.09
142
0.0
143
25.4
144
1.0
145
0.0
146
1.0
147
0.09
 71
     0
 72
     0
 73
     1
 74
     1
 75
     0
 76
     0
 77
     0
 78
     0
170
     0
171
     2
172
     0
173
     0
174
     0
175
     0
176
     0
177
     0
178
     0
270
     2
271
     4
272
     4
273
     2
274
     2
340
11
275
     0
280
     0
281
     0
282
     0
283
     1
284
     0
285
     0
286
     0
287
     3
288
     0
  0
ENDTAB
  0
TABLE
  2
BLOCK_RECORD
  5
1
330
0
100
AcDbSymbolTable
 70
     0
  0
BLOCK_RECORD
  5
1E
102
{ACAD_XDICTIONARY
360
4329
102
}
330
1
100
AcDbSymbolTableRecord
100
AcDbBlockTableRecord
  2
*MODEL_SPACE
  0
BLOCK_RECORD
  5
1A
102
{ACAD_XDICTIONARY
360
432B
102
}
330
1
100
AcDbSymbolTableRecord
100
AcDbBlockTableRecord
  2
*PAPER_SPACE
  0
ENDTAB
  0
ENDSEC
  0
SECTION
  2
BLOCKS
  0
BLOCK
  5
13B
330
1E
100
AcDbEntity
  8
0
100
AcDbBlockBegin
  2
*MODEL_SPACE
 70
     0
 10
0.0
 20
0.0
 30
0.0
  3
*MODEL_SPACE
  1

  0
ENDBLK
  5
13C
330
1E
100
AcDbEntity
  8
0
100
AcDbBlockEnd
  0
BLOCK
  5
139
330
1A
100
AcDbEntity
 67
     1
  8
0
100
AcDbBlockBegin
  2
*PAPER_SPACE
 70
     0
 10
0.0
 20
0.0
 30
0.0
  3
*PAPER_SPACE
  1

  0
ENDBLK
  5
13A
330
1A
100
AcDbEntity
 67
     1
  8
0
100
AcDbBlockEnd
  0
ENDSEC
  0
SECTION
  2
ENTITIES
  0
LINE
  5
266D
330
1E
100
AcDbEntity
  8
7
100
AcDbLine
 10
2.18011811023622
 20
4.086614173228346
 30
0.0
 11
2.18011811023622
 21
4.125984251968503
 31
0.0
  0
LINE
  5
266E
330
1E
100
AcDbEntity
  8
7
100
AcDbLine
 10
1.699803149606299
 20
4.176181102362204
 30
0.0
 11
1.758858267716535
 21
4.076771653543306
 31
0.0
  0
LINE
  5
266F
330
1E
100
AcDbEntity
  8
7
100
AcDbLine
 10
2.095472440944881
 20
4.176181102362204
 30
0.0
 11
2.036417322834645
 21
4.176181102362204
 31
0.0
  0
LINE
  5
2670
330
1E
100
AcDbEntity
  8
7
100
AcDbLine
 10
1.926181102362204
 20
4.097440944881889
 30
0.0
 11
1.911417322834645
 21
4.076771653543306
 31
0.0
  0
LINE
  5
2671
330
1E
100
AcDbEntity
  8
7
100
AcDbLine
 10
1.699803149606299
 20
4.076771653543306
 30
0.0
 11
1.699803149606299
 21
4.176181102362204
 31
0.0
  0
LINE
  5
2672
330
1E
100
AcDbEntity
  8
7
100
AcDbLine
 10
2.12007874015748
 20
4.176181102362204
 30
0.0
 11
2.18011811023622
 21
4.176181102362204
 31
0.0
  0
LINE
  5
2673
330
1E
100
AcDbEntity
  8
7
100
AcDbLine
 10
1.531496062992125
 20
4.176181102362204
 30
0.0
 11
1.531496062992125
 21
4.076771653543306
 31
0.0
  0
LINE
  5
2674
330
1E
100
AcDbEntity
  8
7
100
AcDbLine
 10
2.065944881889763
 20
4.176181102362204
 30
0.0
 11
2.065944881889763
 21
4.076771653543306
 31
0.0
  0
LINE
  5
2675
330
1E
100
AcDbEntity
  8
7
100
AcDbLine
 10
1.61515748031496
 20
4.076771653543306
 30
0.0
 11
1.644685039370078
 21
4.176181102362204
 31
0.0
  0
LINE
  5
2676
330
1E
100
AcDbEntity
  8
7
100
AcDbLine
 10
2.204724409448818
 20
4.176181102362204
 30
0.0
 11
2.263779527559055
 21
4.176181102362204
 31
0.0
  0
LINE
  5
2677
330
1E
100
AcDbEntity
  8
7
100
AcDbLine
 10
2.249015748031495
 20
4.126968503937007
 30
0.0
 11
2.204724409448818
 21
4.126968503937007
 31
0.0
  0
LINE
  5
2678
330
1E
100
AcDbEntity
  8
7
100
AcDbLine
 10
1.982283464566929
 20
4.176181102362204
 30
0.0
 11
2.011811023622047
 21
4.076771653543306
 31
0.0
  0
LINE
  5
2679
330
1E
100
AcDbEntity
  8
7
100
AcDbLine
 10
1.629921259842519
 20
4.126968503937007
 30
0.0
 11
1.659448818897637
 21
4.126968503937007
 31
0.0
  0
LINE
  5
267A
330
1E
100
AcDbEntity
  8
7
100
AcDbLine
 10
1.843503937007874
 20
4.176181102362204
 30
0.0
 11
1.783464566929133
 21
4.076771653543306
 31
0.0
  0
LINE
  5
267B
330
1E
100
AcDbEntity
  8
7
100
AcDbLine
 10
1.882874015748031
 20
4.076771653543306
 30
0.0
 11
1.868110236220472
 21
4.097440944881889
 31
0.0
  0
LINE
  5
267C
330
1E
100
AcDbEntity
  8
7
100
AcDbLine
 10
2.134842519685039
 20
4.136811023622047
 30
0.0
 11
2.12007874015748
 21
4.126968503937007
 31
0.0
  0
LINE
  5
267D
330
1E
100
AcDbEntity
  8
7
100
AcDbLine
 10
1.911417322834645
 20
4.076771653543306
 30
0.0
 11
1.882874015748031
 21
4.076771653543306
 31
0.0
  0
LINE
  5
267E
330
1E
100
AcDbEntity
  8
7
100
AcDbLine
 10
2.12007874015748
 20
4.086614173228346
 30
0.0
 11
2.134842519685039
 21
4.076771653543306
 31
0.0
  0
LINE
  5
267F
330
1E
100
AcDbEntity
  8
7
100
AcDbLine
 10
1.531496062992125
 20
4.076771653543306
 30
0.0
 11
1.590551181102362
 21
4.076771653543306
 31
0.0
  0
LINE
  5
2680
330
1E
100
AcDbEntity
  8
7
100
AcDbLine
 10
1.912401574803149
 20
4.176181102362204
 30
0.0
 11
1.927165354330708
 21
4.156496062992125
 31
0.0
  0
LINE
  5
2681
330
1E
100
AcDbEntity
  8
7
100
AcDbLine
 10
2.134842519685039
 20
4.076771653543306
 30
0.0
 11
2.165354330708661
 21
4.076771653543306
 31
0.0
  0
LINE
  5
2682
330
1E
100
AcDbEntity
  8
7
100
AcDbLine
 10
1.644685039370078
 20
4.176181102362204
 30
0.0
 11
1.674212598425196
 21
4.076771653543306
 31
0.0
  0
LINE
  5
2683
330
1E
100
AcDbEntity
  8
7
100
AcDbLine
 10
2.12007874015748
 20
4.126968503937007
 30
0.0
 11
2.12007874015748
 21
4.176181102362204
 31
0.0
  0
LINE
  5
2684
330
1E
100
AcDbEntity
  8
7
100
AcDbLine
 10
2.165354330708661
 20
4.136811023622047
 30
0.0
 11
2.134842519685039
 21
4.136811023622047
 31
0.0
  0
LINE
  5
2685
330
1E
100
AcDbEntity
  8
7
100
AcDbLine
 10
1.951771653543307
 20
4.076771653543306
 30
0.0
 11
1.982283464566929
 21
4.176181102362204
 31
0.0
  0
LINE
  5
2686
330
1E
100
AcDbEntity
  8
7
100
AcDbLine
 10
1.758858267716535
 20
4.076771653543306
 30
0.0
 11
1.758858267716535
 21
4.176181102362204
 31
0.0
  0
LINE
  5
2687
330
1E
100
AcDbEntity
  8
7
100
AcDbLine
 10
1.966535433070866
 20
4.126968503937007
 30
0.0
 11
1.997047244094487
 21
4.126968503937007
 31
0.0
  0
LINE
  5
2688
330
1E
100
AcDbEntity
  8
7
100
AcDbLine
 10
2.204724409448818
 20
4.076771653543306
 30
0.0
 11
2.204724409448818
 21
4.176181102362204
 31
0.0
  0
LINE
  5
2689
330
1E
100
AcDbEntity
  8
7
100
AcDbLine
 10
2.18011811023622
 20
4.125984251968503
 30
0.0
 11
2.165354330708661
 21
4.136811023622047
 31
0.0
  0
LINE
  5
268A
330
1E
100
AcDbEntity
  8
7
100
AcDbLine
 10
2.263779527559055
 20
4.076771653543306
 30
0.0
 11
2.204724409448818
 21
4.076771653543306
 31
0.0
  0
LINE
  5
268B
330
1E
100
AcDbEntity
  8
7
100
AcDbLine
 10
1.868110236220472
 20
4.156496062992125
 30
0.0
 11
1.882874015748031
 21
4.176181102362204
 31
0.0
  0
LINE
  5
268C
330
1E
100
AcDbEntity
  8
7
100
AcDbLine
 10
1.868110236220472
 20
4.097440944881889
 30
0.0
 11
1.868110236220472
 21
4.156496062992125
 31
0.0
  0
LINE
  5
268D
330
1E
100
AcDbEntity
  8
7
100
AcDbLine
 10
2.165354330708661
 20
4.076771653543306
 30
0.0
 11
2.18011811023622
 21
4.086614173228346
 31
0.0
  0
LINE
  5
268E
330
1E
100
AcDbEntity
  8
7
100
AcDbLine
 10
1.882874015748031
 20
4.176181102362204
 30
0.0
 11
1.912401574803149
 21
4.176181102362204
 31
0.0
  0
LINE
  5
268F
330
1E
100
AcDbEntity
  8
7
100
AcDbLine
 10
2.448818897637795
 20
3.549212598425196
 30
0.0
 11
2.448818897637795
 21
3.646653543307086
 31
0.0
  0
LINE
  5
2690
330
1E
100
AcDbEntity
  8
7
100
AcDbLine
 10
2.448818897637795
 20
3.943897637795275
 30
0.0
 11
2.448818897637795
 21
4.040354330708661
 31
0.0
  0
LINE
  5
2691
330
1E
100
AcDbEntity
  8
7
100
AcDbLine
 10
1.344488188976378
 20
4.040354330708661
 30
0.0
 11
1.344488188976378
 21
3.943897637795275
 31
0.0
  0
LINE
  5
2692
330
1E
100
AcDbEntity
  8
7
100
AcDbLine
 10
1.344488188976378
 20
3.646653543307086
 30
0.0
 11
1.344488188976378
 21
3.549212598425196
 31
0.0
  0
LINE
  5
26A3
330
1E
100
AcDbEntity
  8
7
100
AcDbLine
 10
1.58267716535433
 20
4.243110236220472
 30
0.0
 11
1.58267716535433
 21
4.241141732283463
 31
0.0
  0
LINE
  5
26A4
330
1E
100
AcDbEntity
  8
7
100
AcDbLine
 10
1.58267716535433
 20
4.243110236220472
 30
0.0
 11
1.576771653543306
 21
4.241141732283463
 31
0.0
  0
LINE
  5
26A5
330
1E
100
AcDbEntity
  8
7
100
AcDbLine
 10
2.211614173228346
 20
4.241141732283463
 30
0.0
 11
2.211614173228346
 21
4.243110236220472
 31
0.0
  0
LINE
  5
26A6
330
1E
100
AcDbEntity
  8
7
100
AcDbLine
 10
2.216535433070866
 20
4.241141732283463
 30
0.0
 11
2.211614173228346
 21
4.243110236220472
 31
0.0
  0
LINE
  5
26A7
330
1E
100
AcDbEntity
  8
7
100
AcDbLine
 10
1.553149606299212
 20
3.344488188976378
 30
0.0
 11
2.216535433070866
 21
3.344488188976378
 31
0.0
  0
LINE
  5
26A8
330
1E
100
AcDbEntity
  8
7
100
AcDbLine
 10
1.553149606299212
 20
3.344488188976378
 30
0.0
 11
1.362204724409448
 21
3.344488188976378
 31
0.0
  0
LINE
  5
26AE
330
1E
100
AcDbEntity
  8
7
100
AcDbLine
 10
1.36515748031496
 20
3.348425196850393
 30
0.0
 11
1.362204724409448
 21
3.344488188976378
 31
0.0
  0
LINE
  5
26AF
330
1E
100
AcDbEntity
  8
7
100
AcDbLine
 10
2.432086614173228
 20
3.344488188976378
 30
0.0
 11
2.428149606299212
 21
3.348425196850393
 31
0.0
  0
LINE
  5
26B5
330
1E
100
AcDbEntity
  8
7
100
AcDbLine
 10
2.503937007874015
 20
4.08267716535433
 30
0.0
 11
2.499015748031495
 21
4.08759842519685
 31
0.0
  0
LINE
  5
26C1
330
1E
100
AcDbEntity
  8
7
100
AcDbLine
 10
2.503937007874015
 20
3.506889763779527
 30
0.0
 11
2.503937007874015
 21
4.08267716535433
 31
0.0
  0
LINE
  5
26C7
330
1E
100
AcDbEntity
  8
7
100
AcDbLine
 10
2.524606299212598
 20
4.08267716535433
 30
0.0
 11
2.524606299212598
 21
3.506889763779527
 31
0.0
  0
LINE
  5
26C8
330
1E
100
AcDbEntity
  8
7
100
AcDbLine
 10
2.499015748031495
 20
3.501968503937007
 30
0.0
 11
2.503937007874015
 21
3.506889763779527
 31
0.0
  0
LINE
  5
26D4
330
1E
100
AcDbEntity
  8
7
100
AcDbLine
 10
2.525590551181102
 20
3.937007874015747
 30
0.0
 11
2.525590551181102
 21
3.65255905511811
 31
0.0
  0
LINE
  5
26D5
330
1E
100
AcDbEntity
  8
7
100
AcDbLine
 10
2.499015748031495
 20
4.107283464566928
 30
0.0
 11
2.501968503937007
 21
4.11023622047244
 31
0.0
  0
LINE
  5
26D6
330
1E
100
AcDbEntity
  8
7
100
AcDbLine
 10
2.526574803149606
 20
4.084645669291337
 30
0.0
 11
2.524606299212598
 21
4.08267716535433
 31
0.0
  0
LINE
  5
26D7
330
1E
100
AcDbEntity
  8
7
100
AcDbLine
 10
2.501968503937007
 20
4.11023622047244
 30
0.0
 11
2.513779527559055
 21
4.106299212598425
 31
0.0
  0
LINE
  5
26DD
330
1E
100
AcDbEntity
  8
7
100
AcDbLine
 10
2.733267716535432
 20
4.120078740157479
 30
0.0
 11
2.751968503937007
 21
4.120078740157479
 31
0.0
  0
LINE
  5
26E3
330
1E
100
AcDbEntity
  8
7
100
AcDbLine
 10
2.761811023622047
 20
4.11023622047244
 30
0.0
 11
2.761811023622047
 21
4.011811023622047
 31
0.0
  0
LINE
  5
26E9
330
1E
100
AcDbEntity
  8
7
100
AcDbLine
 10
2.751968503937007
 20
4.001968503937007
 30
0.0
 11
2.733267716535432
 21
4.001968503937007
 31
0.0
  0
LINE
  5
26EA
330
1E
100
AcDbEntity
  8
7
100
AcDbLine
 10
2.733267716535432
 20
3.58759842519685
 30
0.0
 11
2.751968503937007
 21
3.58759842519685
 31
0.0
  0
LINE
  5
26F0
330
1E
100
AcDbEntity
  8
7
100
AcDbLine
 10
2.761811023622047
 20
3.577755905511811
 30
0.0
 11
2.761811023622047
 21
3.480314960629921
 31
0.0
  0
LINE
  5
26F6
330
1E
100
AcDbEntity
  8
7
100
AcDbLine
 10
2.751968503937007
 20
3.469488188976378
 30
0.0
 11
2.733267716535432
 21
3.469488188976378
 31
0.0
  0
LINE
  5
26F7
330
1E
100
AcDbEntity
  8
7
100
AcDbLine
 10
2.524606299212598
 20
3.506889763779527
 30
0.0
 11
2.526574803149606
 21
3.504921259842519
 31
0.0
  0
LINE
  5
26F8
330
1E
100
AcDbEntity
  8
7
100
AcDbLine
 10
2.501968503937007
 20
3.480314960629921
 30
0.0
 11
2.499015748031495
 21
3.482283464566929
 31
0.0
  0
LINE
  5
26FF
330
1E
100
AcDbEntity
  8
7
100
AcDbLine
 10
2.526574803149606
 20
3.504921259842519
 30
0.0
 11
2.526574803149606
 21
3.651574803149606
 31
0.0
  0
LINE
  5
2700
330
1E
100
AcDbEntity
  8
7
100
AcDbLine
 10
2.525590551181102
 20
3.65255905511811
 30
0.0
 11
2.526574803149606
 21
3.651574803149606
 31
0.0
  0
LINE
  5
2701
330
1E
100
AcDbEntity
  8
7
100
AcDbLine
 10
2.526574803149606
 20
3.937992125984252
 30
0.0
 11
2.525590551181102
 21
3.937007874015747
 31
0.0
  0
LINE
  5
2702
330
1E
100
AcDbEntity
  8
7
100
AcDbLine
 10
2.526574803149606
 20
3.937992125984252
 30
0.0
 11
2.526574803149606
 21
4.084645669291337
 31
0.0
  0
LINE
  5
2708
330
1E
100
AcDbEntity
  8
7
100
AcDbLine
 10
2.499015748031495
 20
4.08759842519685
 30
0.0
 11
2.448818897637795
 21
4.08759842519685
 31
0.0
  0
LINE
  5
2709
330
1E
100
AcDbEntity
  8
7
100
AcDbLine
 10
2.449803149606299
 20
4.107283464566928
 30
0.0
 11
2.499015748031495
 21
4.107283464566928
 31
0.0
  0
LINE
  5
270A
330
1E
100
AcDbEntity
  8
7
100
AcDbLine
 10
2.451771653543306
 20
4.11023622047244
 30
0.0
 11
2.449803149606299
 21
4.107283464566928
 31
0.0
  0
LINE
  5
270B
330
1E
100
AcDbEntity
  8
7
100
AcDbLine
 10
2.501968503937007
 20
4.11023622047244
 30
0.0
 11
2.451771653543306
 21
4.11023622047244
 31
0.0
  0
LINE
  5
270C
330
1E
100
AcDbEntity
  8
7
100
AcDbLine
 10
2.499015748031495
 20
3.482283464566929
 30
0.0
 11
2.449803149606299
 21
3.482283464566929
 31
0.0
  0
LINE
  5
270D
330
1E
100
AcDbEntity
  8
7
100
AcDbLine
 10
2.451771653543306
 20
3.480314960629921
 30
0.0
 11
2.449803149606299
 21
3.482283464566929
 31
0.0
  0
LINE
  5
270E
330
1E
100
AcDbEntity
  8
7
100
AcDbLine
 10
2.451771653543306
 20
3.480314960629921
 30
0.0
 11
2.501968503937007
 21
3.480314960629921
 31
0.0
  0
LINE
  5
270F
330
1E
100
AcDbEntity
  8
7
100
AcDbLine
 10
2.448818897637795
 20
3.501968503937007
 30
0.0
 11
2.448818897637795
 21
3.549212598425196
 31
0.0
  0
LINE
  5
2710
330
1E
100
AcDbEntity
  8
7
100
AcDbLine
 10
2.448818897637795
 20
3.501968503937007
 30
0.0
 11
2.499015748031495
 21
3.501968503937007
 31
0.0
  0
LINE
  5
2711
330
1E
100
AcDbEntity
  8
7
100
AcDbLine
 10
2.448818897637795
 20
4.040354330708661
 30
0.0
 11
2.448818897637795
 21
4.08759842519685
 31
0.0
  0
LINE
  5
2712
330
1E
100
AcDbEntity
  8
7
100
AcDbLine
 10
2.448818897637795
 20
3.646653543307086
 30
0.0
 11
2.448818897637795
 21
3.943897637795275
 31
0.0
  0
LINE
  5
272C
330
1E
100
AcDbEntity
  8
7
100
AcDbLine
 10
2.526574803149606
 20
3.651574803149606
 30
0.0
 11
2.546259842519685
 21
3.651574803149606
 31
0.0
  0
LINE
  5
272D
330
1E
100
AcDbEntity
  8
7
100
AcDbLine
 10
2.546259842519685
 20
3.937992125984252
 30
0.0
 11
2.526574803149606
 21
3.937992125984252
 31
0.0
  0
LINE
  5
272E
330
1E
100
AcDbEntity
  8
7
100
AcDbLine
 10
2.451771653543306
 20
3.381889763779527
 30
0.0
 11
2.451771653543306
 21
3.480314960629921
 31
0.0
  0
LINE
  5
272F
330
1E
100
AcDbEntity
  8
7
100
AcDbLine
 10
2.663385826771653
 20
3.381889763779527
 30
0.0
 11
2.451771653543306
 21
3.381889763779527
 31
0.0
  0
LINE
  5
2737
330
1E
100
AcDbEntity
  8
7
100
AcDbLine
 10
2.723425196850393
 20
3.459645669291338
 30
0.0
 11
2.723425196850393
 21
3.441929133858268
 31
0.0
  0
LINE
  5
2738
330
1E
100
AcDbEntity
  8
7
100
AcDbLine
 10
2.723425196850393
 20
3.617125984251968
 30
0.0
 11
2.723425196850393
 21
3.598425196850393
 31
0.0
  0
LINE
  5
2749
330
1E
100
AcDbEntity
  8
7
100
AcDbLine
 10
2.723425196850393
 20
3.992125984251968
 30
0.0
 11
2.723425196850393
 21
3.97244094488189
 31
0.0
  0
LINE
  5
274A
330
1E
100
AcDbEntity
  8
7
100
AcDbLine
 10
2.723425196850393
 20
4.148622047244094
 30
0.0
 11
2.723425196850393
 21
4.129921259842519
 31
0.0
  0
LINE
  5
2752
330
1E
100
AcDbEntity
  8
7
100
AcDbLine
 10
2.451771653543306
 20
4.208661417322834
 30
0.0
 11
2.663385826771653
 21
4.208661417322834
 31
0.0
  0
LINE
  5
2753
330
1E
100
AcDbEntity
  8
7
100
AcDbLine
 10
2.451771653543306
 20
4.11023622047244
 30
0.0
 11
2.451771653543306
 21
4.208661417322834
 31
0.0
  0
LINE
  5
2754
330
1E
100
AcDbEntity
  8
7
100
AcDbLine
 10
2.546259842519685
 20
3.651574803149606
 30
0.0
 11
2.546259842519685
 21
3.937992125984252
 31
0.0
  0
LINE
  5
275B
330
1E
100
AcDbEntity
  8
7
100
AcDbLine
 10
2.451771653543306
 20
4.2253937007874
 30
0.0
 11
2.448818897637795
 21
4.222440944881889
 31
0.0
  0
LINE
  5
2761
330
1E
100
AcDbEntity
  8
7
100
AcDbLine
 10
2.428149606299212
 20
4.241141732283463
 30
0.0
 11
2.432086614173228
 21
4.245078740157479
 31
0.0
  0
LINE
  5
2762
330
1E
100
AcDbEntity
  8
7
100
AcDbLine
 10
2.448818897637795
 20
4.222440944881889
 30
0.0
 11
2.448818897637795
 21
4.08759842519685
 31
0.0
  0
LINE
  5
2763
330
1E
100
AcDbEntity
  8
7
100
AcDbLine
 10
2.451771653543306
 20
4.2253937007874
 30
0.0
 11
2.451771653543306
 21
4.208661417322834
 31
0.0
  0
LINE
  5
2769
330
1E
100
AcDbEntity
  8
7
100
AcDbLine
 10
2.451771653543306
 20
3.381889763779527
 30
0.0
 11
2.451771653543306
 21
3.36515748031496
 31
0.0
  0
LINE
  5
2775
330
1E
100
AcDbEntity
  8
7
100
AcDbLine
 10
1.362204724409448
 20
4.245078740157479
 30
0.0
 11
2.432086614173228
 21
4.245078740157479
 31
0.0
  0
LINE
  5
2776
330
1E
100
AcDbEntity
  8
7
100
AcDbLine
 10
1.362204724409448
 20
4.245078740157479
 30
0.0
 11
1.36515748031496
 21
4.241141732283463
 31
0.0
  0
LINE
  5
2777
330
1E
100
AcDbEntity
  8
7
100
AcDbLine
 10
1.58267716535433
 20
4.243110236220472
 30
0.0
 11
2.211614173228346
 21
4.243110236220472
 31
0.0
  0
LINE
  5
2778
330
1E
100
AcDbEntity
  8
7
100
AcDbLine
 10
1.26771653543307
 20
3.65255905511811
 30
0.0
 11
1.26771653543307
 21
3.937007874015747
 31
0.0
  0
LINE
  5
277E
330
1E
100
AcDbEntity
  8
7
100
AcDbLine
 10
1.06003937007874
 20
3.469488188976378
 30
0.0
 11
1.041338582677165
 21
3.469488188976378
 31
0.0
  0
LINE
  5
2784
330
1E
100
AcDbEntity
  8
7
100
AcDbLine
 10
1.031496062992125
 20
3.480314960629921
 30
0.0
 11
1.031496062992125
 21
3.577755905511811
 31
0.0
  0
LINE
  5
278A
330
1E
100
AcDbEntity
  8
7
100
AcDbLine
 10
1.041338582677165
 20
3.58759842519685
 30
0.0
 11
1.06003937007874
 21
3.58759842519685
 31
0.0
  0
LINE
  5
2795
330
1E
100
AcDbEntity
  8
7
100
AcDbLine
 10
1.06003937007874
 20
4.001968503937007
 30
0.0
 11
1.041338582677165
 21
4.001968503937007
 31
0.0
  0
LINE
  5
279B
330
1E
100
AcDbEntity
  8
7
100
AcDbLine
 10
1.031496062992125
 20
4.011811023622047
 30
0.0
 11
1.031496062992125
 21
4.11023622047244
 31
0.0
  0
LINE
  5
27A1
330
1E
100
AcDbEntity
  8
7
100
AcDbLine
 10
1.041338582677165
 20
4.120078740157479
 30
0.0
 11
1.06003937007874
 21
4.120078740157479
 31
0.0
  0
LINE
  5
27A7
330
1E
100
AcDbEntity
  8
7
100
AcDbLine
 10
1.268700787401574
 20
4.08267716535433
 30
0.0
 11
1.266732283464566
 21
4.084645669291337
 31
0.0
  0
LINE
  5
27AE
330
1E
100
AcDbEntity
  8
7
100
AcDbLine
 10
1.291338582677165
 20
4.11023622047244
 30
0.0
 11
1.294291338582677
 21
4.107283464566928
 31
0.0
  0
LINE
  5
27C4
330
1E
100
AcDbEntity
  8
7
100
AcDbLine
 10
1.266732283464566
 20
4.084645669291337
 30
0.0
 11
1.266732283464566
 21
3.937992125984252
 31
0.0
  0
LINE
  5
27C5
330
1E
100
AcDbEntity
  8
7
100
AcDbLine
 10
1.266732283464566
 20
3.651574803149606
 30
0.0
 11
1.266732283464566
 21
3.504921259842519
 31
0.0
  0
LINE
  5
27C6
330
1E
100
AcDbEntity
  8
7
100
AcDbLine
 10
1.294291338582677
 20
3.482283464566929
 30
0.0
 11
1.291338582677165
 21
3.480314960629921
 31
0.0
  0
LINE
  5
27C7
330
1E
100
AcDbEntity
  8
7
100
AcDbLine
 10
1.294291338582677
 20
3.482283464566929
 30
0.0
 11
1.281496062992125
 21
3.485236220472441
 31
0.0
  0
LINE
  5
27DD
330
1E
100
AcDbEntity
  8
7
100
AcDbLine
 10
1.289370078740157
 20
4.08267716535433
 30
0.0
 11
1.289370078740157
 21
3.506889763779527
 31
0.0
  0
LINE
  5
27E3
330
1E
100
AcDbEntity
  8
7
100
AcDbLine
 10
1.289370078740157
 20
3.506889763779527
 30
0.0
 11
1.294291338582677
 21
3.501968503937007
 31
0.0
  0
LINE
  5
27E9
330
1E
100
AcDbEntity
  8
7
100
AcDbLine
 10
1.294291338582677
 20
4.08759842519685
 30
0.0
 11
1.289370078740157
 21
4.08267716535433
 31
0.0
  0
LINE
  5
27EA
330
1E
100
AcDbEntity
  8
7
100
AcDbLine
 10
1.247047244094488
 20
3.937992125984252
 30
0.0
 11
1.247047244094488
 21
3.651574803149606
 31
0.0
  0
LINE
  5
27EB
330
1E
100
AcDbEntity
  8
7
100
AcDbLine
 10
1.129921259842519
 20
4.208661417322834
 30
0.0
 11
1.341535433070866
 21
4.208661417322834
 31
0.0
  0
LINE
  5
27F3
330
1E
100
AcDbEntity
  8
7
100
AcDbLine
 10
1.069881889763779
 20
4.129921259842519
 30
0.0
 11
1.069881889763779
 21
4.148622047244094
 31
0.0
  0
LINE
  5
27F4
330
1E
100
AcDbEntity
  8
7
100
AcDbLine
 10
1.069881889763779
 20
3.97244094488189
 30
0.0
 11
1.069881889763779
 21
3.992125984251968
 31
0.0
  0
LINE
  5
2808
330
1E
100
AcDbEntity
  8
7
100
AcDbLine
 10
1.069881889763779
 20
3.598425196850393
 30
0.0
 11
1.069881889763779
 21
3.617125984251968
 31
0.0
  0
LINE
  5
2809
330
1E
100
AcDbEntity
  8
7
100
AcDbLine
 10
1.069881889763779
 20
3.441929133858268
 30
0.0
 11
1.069881889763779
 21
3.459645669291338
 31
0.0
  0
LINE
  5
2811
330
1E
100
AcDbEntity
  8
7
100
AcDbLine
 10
1.341535433070866
 20
3.381889763779527
 30
0.0
 11
1.129921259842519
 21
3.381889763779527
 31
0.0
  0
LINE
  5
2812
330
1E
100
AcDbEntity
  8
7
100
AcDbLine
 10
1.341535433070866
 20
3.36515748031496
 30
0.0
 11
1.341535433070866
 21
3.381889763779527
 31
0.0
  0
LINE
  5
2818
330
1E
100
AcDbEntity
  8
7
100
AcDbLine
 10
1.291338582677165
 20
3.480314960629921
 30
0.0
 11
1.341535433070866
 21
3.480314960629921
 31
0.0
  0
LINE
  5
281E
330
1E
100
AcDbEntity
  8
7
100
AcDbLine
 10
1.294291338582677
 20
3.501968503937007
 30
0.0
 11
1.344488188976378
 21
3.501968503937007
 31
0.0
  0
LINE
  5
281F
330
1E
100
AcDbEntity
  8
7
100
AcDbLine
 10
1.294291338582677
 20
4.107283464566928
 30
0.0
 11
1.344488188976378
 21
4.107283464566928
 31
0.0
  0
LINE
  5
2820
330
1E
100
AcDbEntity
  8
7
100
AcDbLine
 10
1.341535433070866
 20
4.11023622047244
 30
0.0
 11
1.344488188976378
 21
4.107283464566928
 31
0.0
  0
LINE
  5
2821
330
1E
100
AcDbEntity
  8
7
100
AcDbLine
 10
1.341535433070866
 20
4.11023622047244
 30
0.0
 11
1.291338582677165
 21
4.11023622047244
 31
0.0
  0
LINE
  5
2822
330
1E
100
AcDbEntity
  8
7
100
AcDbLine
 10
1.341535433070866
 20
3.480314960629921
 30
0.0
 11
1.341535433070866
 21
3.381889763779527
 31
0.0
  0
LINE
  5
2823
330
1E
100
AcDbEntity
  8
7
100
AcDbLine
 10
1.341535433070866
 20
4.208661417322834
 30
0.0
 11
1.341535433070866
 21
4.11023622047244
 31
0.0
  0
LINE
  5
2824
330
1E
100
AcDbEntity
  8
7
100
AcDbLine
 10
1.341535433070866
 20
4.208661417322834
 30
0.0
 11
1.341535433070866
 21
4.2253937007874
 31
0.0
  0
LINE
  5
2825
330
1E
100
AcDbEntity
  8
7
100
AcDbLine
 10
1.344488188976378
 20
3.549212598425196
 30
0.0
 11
1.344488188976378
 21
3.501968503937007
 31
0.0
  0
LINE
  5
2826
330
1E
100
AcDbEntity
  8
7
100
AcDbLine
 10
1.344488188976378
 20
3.943897637795275
 30
0.0
 11
1.344488188976378
 21
3.646653543307086
 31
0.0
  0
LINE
  5
2827
330
1E
100
AcDbEntity
  8
7
100
AcDbLine
 10
1.344488188976378
 20
4.08759842519685
 30
0.0
 11
1.344488188976378
 21
4.040354330708661
 31
0.0
  0
LINE
  5
2828
330
1E
100
AcDbEntity
  8
7
100
AcDbLine
 10
1.344488188976378
 20
4.08759842519685
 30
0.0
 11
1.294291338582677
 21
4.08759842519685
 31
0.0
  0
LINE
  5
2838
330
1E
100
AcDbEntity
  8
7
100
AcDbLine
 10
1.344488188976378
 20
3.501968503937007
 30
0.0
 11
1.344488188976378
 21
3.368110236220472
 31
0.0
  0
LINE
  5
2839
330
1E
100
AcDbEntity
  8
7
100
AcDbLine
 10
1.341535433070866
 20
3.36515748031496
 30
0.0
 11
1.344488188976378
 21
3.368110236220472
 31
0.0
  0
LINE
  5
283A
330
1E
100
AcDbEntity
  8
7
100
AcDbLine
 10
1.344488188976378
 20
4.222440944881889
 30
0.0
 11
1.344488188976378
 21
4.08759842519685
 31
0.0
  0
LINE
  5
283B
330
1E
100
AcDbEntity
  8
7
100
AcDbLine
 10
1.344488188976378
 20
4.222440944881889
 30
0.0
 11
1.341535433070866
 21
4.2253937007874
 31
0.0
  0
LINE
  5
2848
330
1E
100
AcDbEntity
  8
7
100
AcDbLine
 10
1.344488188976378
 20
4.040354330708661
 30
0.0
 11
1.345472440944881
 21
4.040354330708661
 31
0.0
  0
LINE
  5
2849
330
1E
100
AcDbEntity
  8
7
100
AcDbLine
 10
1.344488188976378
 20
3.549212598425196
 30
0.0
 11
1.345472440944881
 21
3.549212598425196
 31
0.0
  0
LINE
  5
284A
330
1E
100
AcDbEntity
  8
7
100
AcDbLine
 10
1.344488188976378
 20
3.943897637795275
 30
0.0
 11
1.345472440944881
 21
3.943897637795275
 31
0.0
  0
LINE
  5
284B
330
1E
100
AcDbEntity
  8
7
100
AcDbLine
 10
1.344488188976378
 20
3.646653543307086
 30
0.0
 11
1.345472440944881
 21
3.646653543307086
 31
0.0
  0
LINE
  5
284C
330
1E
100
AcDbEntity
  8
7
100
AcDbLine
 10
2.448818897637795
 20
3.645669291338582
 30
0.0
 11
2.448818897637795
 21
3.944881889763779
 31
0.0
  0
LINE
  5
284D
330
1E
100
AcDbEntity
  8
7
100
AcDbLine
 10
2.448818897637795
 20
3.368110236220472
 30
0.0
 11
2.448818897637795
 21
3.5501968503937
 31
0.0
  0
LINE
  5
2853
330
1E
100
AcDbEntity
  8
7
100
AcDbLine
 10
1.36515748031496
 20
3.348425196850393
 30
0.0
 11
2.428149606299212
 21
3.348425196850393
 31
0.0
  0
LINE
  5
2859
330
1E
100
AcDbEntity
  8
7
100
AcDbLine
 10
1.345472440944881
 20
3.5501968503937
 30
0.0
 11
1.345472440944881
 21
3.368110236220472
 31
0.0
  0
LINE
  5
285A
330
1E
100
AcDbEntity
  8
7
100
AcDbLine
 10
1.345472440944881
 20
3.944881889763779
 30
0.0
 11
1.345472440944881
 21
3.645669291338582
 31
0.0
  0
LINE
  5
285B
330
1E
100
AcDbEntity
  8
7
100
AcDbLine
 10
2.428149606299212
 20
4.241141732283463
 30
0.0
 11
2.211614173228346
 21
4.241141732283463
 31
0.0
  0
LINE
  5
2861
330
1E
100
AcDbEntity
  8
7
100
AcDbLine
 10
2.448818897637795
 20
4.039370078740157
 30
0.0
 11
2.448818897637795
 21
4.221456692913385
 31
0.0
  0
LINE
  5
2862
330
1E
100
AcDbEntity
  8
7
100
AcDbLine
 10
1.572834645669291
 20
3.997047244094488
 30
0.0
 11
2.220472440944881
 21
3.997047244094488
 31
0.0
  0
LINE
  5
2863
330
1E
100
AcDbEntity
  8
7
100
AcDbLine
 10
1.577755905511811
 20
3.947834645669291
 30
0.0
 11
1.572834645669291
 21
3.997047244094488
 31
0.0
  0
LINE
  5
2864
330
1E
100
AcDbEntity
  8
7
100
AcDbLine
 10
2.215551181102362
 20
3.947834645669291
 30
0.0
 11
1.577755905511811
 21
3.947834645669291
 31
0.0
  0
LINE
  5
2865
330
1E
100
AcDbEntity
  8
7
100
AcDbLine
 10
2.215551181102362
 20
3.947834645669291
 30
0.0
 11
2.220472440944881
 21
3.997047244094488
 31
0.0
  0
LINE
  5
2875
330
1E
100
AcDbEntity
  8
7
100
AcDbLine
 10
1.362204724409448
 20
3.37007874015748
 30
0.0
 11
1.367125984251968
 21
3.36515748031496
 31
0.0
  0
LINE
  5
287B
330
1E
100
AcDbEntity
  8
7
100
AcDbLine
 10
1.367125984251968
 20
4.224409448818897
 30
0.0
 11
1.362204724409448
 21
4.219488188976377
 31
0.0
  0
LINE
  5
2886
330
1E
100
AcDbEntity
  8
7
100
AcDbLine
 10
1.362204724409448
 20
4.219488188976377
 30
0.0
 11
1.362204724409448
 21
3.37007874015748
 31
0.0
  0
LINE
  5
2887
330
1E
100
AcDbEntity
  8
7
100
AcDbLine
 10
1.347440944881889
 20
3.37007874015748
 30
0.0
 11
1.347440944881889
 21
4.219488188976377
 31
0.0
  0
LINE
  5
2888
330
1E
100
AcDbEntity
  8
7
100
AcDbLine
 10
1.367125984251968
 20
4.24015748031496
 30
0.0
 11
2.426181102362204
 21
4.24015748031496
 31
0.0
  0
LINE
  5
2889
330
1E
100
AcDbEntity
  8
7
100
AcDbLine
 10
2.426181102362204
 20
4.224409448818897
 30
0.0
 11
1.367125984251968
 21
4.224409448818897
 31
0.0
  0
LINE
  5
2899
330
1E
100
AcDbEntity
  8
7
100
AcDbLine
 10
2.431102362204724
 20
4.219488188976377
 30
0.0
 11
2.426181102362204
 21
4.224409448818897
 31
0.0
  0
LINE
  5
289A
330
1E
100
AcDbEntity
  8
7
100
AcDbLine
 10
1.367125984251968
 20
3.36515748031496
 30
0.0
 11
2.426181102362204
 21
3.36515748031496
 31
0.0
  0
LINE
  5
289B
330
1E
100
AcDbEntity
  8
7
100
AcDbLine
 10
2.426181102362204
 20
3.350393700787401
 30
0.0
 11
1.367125984251968
 21
3.350393700787401
 31
0.0
  0
LINE
  5
28AB
330
1E
100
AcDbEntity
  8
7
100
AcDbLine
 10
2.426181102362204
 20
3.36515748031496
 30
0.0
 11
2.431102362204724
 21
3.37007874015748
 31
0.0
  0
LINE
  5
28AC
330
1E
100
AcDbEntity
  8
7
100
AcDbLine
 10
2.215551181102362
 20
3.947834645669291
 30
0.0
 11
2.215551181102362
 21
3.71259842519685
 31
0.0
  0
LINE
  5
28AD
330
1E
100
AcDbEntity
  8
7
100
AcDbLine
 10
1.577755905511811
 20
3.947834645669291
 30
0.0
 11
1.577755905511811
 21
3.71259842519685
 31
0.0
  0
LINE
  5
28AE
330
1E
100
AcDbEntity
  8
7
100
AcDbLine
 10
2.431102362204724
 20
3.37007874015748
 30
0.0
 11
2.431102362204724
 21
4.219488188976377
 31
0.0
  0
LINE
  5
28AF
330
1E
100
AcDbEntity
  8
7
100
AcDbLine
 10
2.220472440944881
 20
3.997047244094488
 30
0.0
 11
2.220472440944881
 21
3.447834645669291
 31
0.0
  0
LINE
  5
28B0
330
1E
100
AcDbEntity
  8
7
100
AcDbLine
 10
1.572834645669291
 20
3.447834645669291
 30
0.0
 11
1.825787401574803
 21
3.447834645669291
 31
0.0
  0
LINE
  5
28B1
330
1E
100
AcDbEntity
  8
7
100
AcDbLine
 10
1.96751968503937
 20
3.447834645669291
 30
0.0
 11
2.220472440944881
 21
3.447834645669291
 31
0.0
  0
LINE
  5
28B2
330
1E
100
AcDbEntity
  8
7
100
AcDbLine
 10
1.572834645669291
 20
3.997047244094488
 30
0.0
 11
1.572834645669291
 21
3.447834645669291
 31
0.0
  0
LINE
  5
28B3
330
1E
100
AcDbEntity
  8
7
100
AcDbLine
 10
2.215551181102362
 20
3.71259842519685
 30
0.0
 11
2.215551181102362
 21
3.447834645669291
 31
0.0
  0
LINE
  5
28B4
330
1E
100
AcDbEntity
  8
7
100
AcDbLine
 10
1.577755905511811
 20
3.71259842519685
 30
0.0
 11
1.577755905511811
 21
3.447834645669291
 31
0.0
  0
LINE
  5
28B5
330
1E
100
AcDbEntity
  8
7
100
AcDbLine
 10
2.446850393700787
 20
4.219488188976377
 30
0.0
 11
2.446850393700787
 21
3.37007874015748
 31
0.0
  0
LINE
  5
28BB
330
1E
100
AcDbEntity
  8
7
100
AcDbLine
 10
1.344488188976378
 20
4.038385826771652
 30
0.0
 11
1.345472440944881
 21
4.039370078740157
 31
0.0
  0
LINE
  5
28BC
330
1E
100
AcDbEntity
  8
7
100
AcDbLine
 10
1.344488188976378
 20
3.945866141732283
 30
0.0
 11
1.345472440944881
 21
3.944881889763779
 31
0.0
  0
LINE
  5
28BD
330
1E
100
AcDbEntity
  8
7
100
AcDbLine
 10
1.344488188976378
 20
3.643700787401574
 30
0.0
 11
1.345472440944881
 21
3.645669291338582
 31
0.0
  0
LINE
  5
28BE
330
1E
100
AcDbEntity
  8
7
100
AcDbLine
 10
1.344488188976378
 20
3.551181102362205
 30
0.0
 11
1.345472440944881
 21
3.5501968503937
 31
0.0
  0
LINE
  5
28BF
330
1E
100
AcDbEntity
  8
7
100
AcDbLine
 10
1.345472440944881
 20
3.368110236220472
 30
0.0
 11
1.347440944881889
 21
3.37007874015748
 31
0.0
  0
LINE
  5
28C0
330
1E
100
AcDbEntity
  8
7
100
AcDbLine
 10
2.446850393700787
 20
3.37007874015748
 30
0.0
 11
2.448818897637795
 21
3.368110236220472
 31
0.0
  0
LINE
  5
28C1
330
1E
100
AcDbEntity
  8
7
100
AcDbLine
 10
2.448818897637795
 20
3.5501968503937
 30
0.0
 11
2.448818897637795
 21
3.551181102362205
 31
0.0
  0
LINE
  5
28C2
330
1E
100
AcDbEntity
  8
7
100
AcDbLine
 10
2.448818897637795
 20
3.645669291338582
 30
0.0
 11
2.448818897637795
 21
3.643700787401574
 31
0.0
  0
LINE
  5
28C3
330
1E
100
AcDbEntity
  8
7
100
AcDbLine
 10
2.448818897637795
 20
3.944881889763779
 30
0.0
 11
2.448818897637795
 21
3.945866141732283
 31
0.0
  0
LINE
  5
28C4
330
1E
100
AcDbEntity
  8
7
100
AcDbLine
 10
2.448818897637795
 20
4.039370078740157
 30
0.0
 11
2.448818897637795
 21
4.038385826771652
 31
0.0
  0
LINE
  5
28C5
330
1E
100
AcDbEntity
  8
7
100
AcDbLine
 10
2.448818897637795
 20
4.221456692913385
 30
0.0
 11
2.446850393700787
 21
4.219488188976377
 31
0.0
  0
LINE
  5
28C6
330
1E
100
AcDbEntity
  8
7
100
AcDbLine
 10
2.428149606299212
 20
3.348425196850393
 30
0.0
 11
2.426181102362204
 21
3.350393700787401
 31
0.0
  0
LINE
  5
28C7
330
1E
100
AcDbEntity
  8
7
100
AcDbLine
 10
1.367125984251968
 20
3.350393700787401
 30
0.0
 11
1.36515748031496
 21
3.348425196850393
 31
0.0
  0
LINE
  5
28C8
330
1E
100
AcDbEntity
  8
7
100
AcDbLine
 10
2.426181102362204
 20
4.24015748031496
 30
0.0
 11
2.428149606299212
 21
4.241141732283463
 31
0.0
  0
LINE
  5
28CF
330
1E
100
AcDbEntity
  8
7
100
AcDbLine
 10
1.36515748031496
 20
4.241141732283463
 30
0.0
 11
1.351377952755905
 21
4.236220472440944
 31
0.0
  0
LINE
  5
28D0
330
1E
100
AcDbEntity
  8
7
100
AcDbLine
 10
1.351377952755905
 20
4.236220472440944
 30
0.0
 11
1.345472440944881
 21
4.221456692913385
 31
0.0
  0
LINE
  5
28D1
330
1E
100
AcDbEntity
  8
7
100
AcDbLine
 10
1.980314960629921
 20
3.457677165354331
 30
0.0
 11
1.980314960629921
 21
3.483267716535432
 31
0.0
  0
LINE
  5
28D8
330
1E
100
AcDbEntity
  8
7
100
AcDbLine
 10
1.970472440944881
 20
3.493110236220472
 30
0.0
 11
2.187007874015748
 21
3.493110236220472
 31
0.0
  0
LINE
  5
28ED
330
1E
100
AcDbEntity
  8
7
100
AcDbLine
 10
2.187007874015748
 20
3.493110236220472
 30
0.0
 11
2.187007874015748
 21
3.447834645669291
 31
0.0
  0
LINE
  5
28EE
330
1E
100
AcDbEntity
  8
7
100
AcDbLine
 10
1.822834645669291
 20
3.493110236220472
 30
0.0
 11
1.825787401574803
 21
3.493110236220472
 31
0.0
  0
LINE
  5
28F4
330
1E
100
AcDbEntity
  8
7
100
AcDbLine
 10
1.606299212598425
 20
3.493110236220472
 30
0.0
 11
1.822834645669291
 21
3.493110236220472
 31
0.0
  0
LINE
  5
28F5
330
1E
100
AcDbEntity
  8
7
100
AcDbLine
 10
1.812992125984251
 20
3.483267716535432
 30
0.0
 11
1.812992125984251
 21
3.457677165354331
 31
0.0
  0
LINE
  5
28FC
330
1E
100
AcDbEntity
  8
7
100
AcDbLine
 10
1.968503937007874
 20
3.447834645669291
 30
0.0
 11
1.96751968503937
 21
3.447834645669291
 31
0.0
  0
LINE
  5
2902
330
1E
100
AcDbEntity
  8
7
100
AcDbLine
 10
1.606299212598425
 20
3.447834645669291
 30
0.0
 11
1.606299212598425
 21
3.493110236220472
 31
0.0
  0
LINE
  5
2924
330
1E
100
AcDbEntity
  8
7
100
AcDbLine
 10
1.812992125984251
 20
3.457677165354331
 30
0.0
 11
1.815944881889763
 21
3.457677165354331
 31
0.0
  0
LINE
  5
2952
330
1E
100
AcDbEntity
  8
7
100
AcDbLine
 10
1.825787401574803
 20
3.457677165354331
 30
0.0
 11
1.818897637795275
 21
3.457677165354331
 31
0.0
  0
LINE
  5
2953
330
1E
100
AcDbEntity
  8
7
100
AcDbLine
 10
1.818897637795275
 20
3.457677165354331
 30
0.0
 11
1.815944881889763
 21
3.457677165354331
 31
0.0
  0
LINE
  5
2963
330
1E
100
AcDbEntity
  8
7
100
AcDbLine
 10
2.215551181102362
 20
3.715551181102362
 30
0.0
 11
1.577755905511811
 21
3.715551181102362
 31
0.0
  0
LINE
  5
2964
330
1E
100
AcDbEntity
  8
7
100
AcDbLine
 10
1.699803149606299
 20
4.92027559055118
 30
0.0
 11
1.758858267716535
 21
4.92027559055118
 31
0.0
  0
LINE
  5
2965
330
1E
100
AcDbEntity
  8
7
100
AcDbLine
 10
2.095472440944881
 20
4.92027559055118
 30
0.0
 11
2.036417322834645
 21
4.92027559055118
 31
0.0
  0
LINE
  5
2966
330
1E
100
AcDbEntity
  8
7
100
AcDbLine
 10
1.926181102362204
 20
4.92027559055118
 30
0.0
 11
1.911417322834645
 21
4.92027559055118
 31
0.0
  0
LINE
  5
2967
330
1E
100
AcDbEntity
  8
7
100
AcDbLine
 10
2.12007874015748
 20
4.92027559055118
 30
0.0
 11
2.18011811023622
 21
4.92027559055118
 31
0.0
  0
LINE
  5
2968
330
1E
100
AcDbEntity
  8
7
100
AcDbLine
 10
1.61515748031496
 20
4.92027559055118
 30
0.0
 11
1.644685039370078
 21
4.92027559055118
 31
0.0
  0
LINE
  5
2969
330
1E
100
AcDbEntity
  8
7
100
AcDbLine
 10
2.204724409448818
 20
4.92027559055118
 30
0.0
 11
2.263779527559055
 21
4.92027559055118
 31
0.0
  0
LINE
  5
296A
330
1E
100
AcDbEntity
  8
7
100
AcDbLine
 10
2.249015748031495
 20
4.92027559055118
 30
0.0
 11
2.204724409448818
 21
4.92027559055118
 31
0.0
  0
LINE
  5
296B
330
1E
100
AcDbEntity
  8
7
100
AcDbLine
 10
1.982283464566929
 20
4.92027559055118
 30
0.0
 11
2.011811023622047
 21
4.92027559055118
 31
0.0
  0
LINE
  5
296C
330
1E
100
AcDbEntity
  8
7
100
AcDbLine
 10
1.629921259842519
 20
4.92027559055118
 30
0.0
 11
1.659448818897637
 21
4.92027559055118
 31
0.0
  0
LINE
  5
296D
330
1E
100
AcDbEntity
  8
7
100
AcDbLine
 10
1.843503937007874
 20
4.92027559055118
 30
0.0
 11
1.783464566929133
 21
4.92027559055118
 31
0.0
  0
LINE
  5
296E
330
1E
100
AcDbEntity
  8
7
100
AcDbLine
 10
1.882874015748031
 20
4.92027559055118
 30
0.0
 11
1.868110236220472
 21
4.92027559055118
 31
0.0
  0
LINE
  5
296F
330
1E
100
AcDbEntity
  8
7
100
AcDbLine
 10
2.134842519685039
 20
4.92027559055118
 30
0.0
 11
2.12007874015748
 21
4.92027559055118
 31
0.0
  0
LINE
  5
2970
330
1E
100
AcDbEntity
  8
7
100
AcDbLine
 10
1.911417322834645
 20
4.92027559055118
 30
0.0
 11
1.882874015748031
 21
4.92027559055118
 31
0.0
  0
LINE
  5
2971
330
1E
100
AcDbEntity
  8
7
100
AcDbLine
 10
2.12007874015748
 20
4.92027559055118
 30
0.0
 11
2.134842519685039
 21
4.92027559055118
 31
0.0
  0
LINE
  5
2972
330
1E
100
AcDbEntity
  8
7
100
AcDbLine
 10
1.531496062992125
 20
4.92027559055118
 30
0.0
 11
1.590551181102362
 21
4.92027559055118
 31
0.0
  0
LINE
  5
2973
330
1E
100
AcDbEntity
  8
7
100
AcDbLine
 10
1.912401574803149
 20
4.92027559055118
 30
0.0
 11
1.927165354330708
 21
4.92027559055118
 31
0.0
  0
LINE
  5
2974
330
1E
100
AcDbEntity
  8
7
100
AcDbLine
 10
2.134842519685039
 20
4.92027559055118
 30
0.0
 11
2.165354330708661
 21
4.92027559055118
 31
0.0
  0
LINE
  5
2975
330
1E
100
AcDbEntity
  8
7
100
AcDbLine
 10
1.644685039370078
 20
4.92027559055118
 30
0.0
 11
1.674212598425196
 21
4.92027559055118
 31
0.0
  0
LINE
  5
2976
330
1E
100
AcDbEntity
  8
7
100
AcDbLine
 10
2.165354330708661
 20
4.92027559055118
 30
0.0
 11
2.134842519685039
 21
4.92027559055118
 31
0.0
  0
LINE
  5
2977
330
1E
100
AcDbEntity
  8
7
100
AcDbLine
 10
1.951771653543307
 20
4.92027559055118
 30
0.0
 11
1.982283464566929
 21
4.92027559055118
 31
0.0
  0
LINE
  5
2978
330
1E
100
AcDbEntity
  8
7
100
AcDbLine
 10
1.966535433070866
 20
4.92027559055118
 30
0.0
 11
1.997047244094487
 21
4.92027559055118
 31
0.0
  0
LINE
  5
2979
330
1E
100
AcDbEntity
  8
7
100
AcDbLine
 10
2.18011811023622
 20
4.92027559055118
 30
0.0
 11
2.165354330708661
 21
4.92027559055118
 31
0.0
  0
LINE
  5
297A
330
1E
100
AcDbEntity
  8
7
100
AcDbLine
 10
2.263779527559055
 20
4.92027559055118
 30
0.0
 11
2.204724409448818
 21
4.92027559055118
 31
0.0
  0
LINE
  5
297B
330
1E
100
AcDbEntity
  8
7
100
AcDbLine
 10
1.868110236220472
 20
4.92027559055118
 30
0.0
 11
1.882874015748031
 21
4.92027559055118
 31
0.0
  0
LINE
  5
297C
330
1E
100
AcDbEntity
  8
7
100
AcDbLine
 10
2.165354330708661
 20
4.92027559055118
 30
0.0
 11
2.18011811023622
 21
4.92027559055118
 31
0.0
  0
LINE
  5
297D
330
1E
100
AcDbEntity
  8
7
100
AcDbLine
 10
1.882874015748031
 20
4.92027559055118
 30
0.0
 11
1.912401574803149
 21
4.92027559055118
 31
0.0
  0
LINE
  5
2985
330
1E
100
AcDbEntity
  8
7
100
AcDbLine
 10
1.996062992125984
 20
5.638779527559054
 30
0.0
 11
1.993110236220472
 21
5.700787401574802
 31
0.0
  0
LINE
  5
298C
330
1E
100
AcDbEntity
  8
7
100
AcDbLine
 10
2.013779527559055
 20
5.310039370078739
 30
0.0
 11
2.0
 21
5.574803149606299
 31
0.0
  0
LINE
  5
2997
330
1E
100
AcDbEntity
  8
7
100
AcDbLine
 10
1.581692913385826
 20
5.148622047244094
 30
0.0
 11
2.211614173228346
 21
5.148622047244094
 31
0.0
  0
LINE
  5
2998
330
1E
100
AcDbEntity
  8
7
100
AcDbLine
 10
1.58267716535433
 20
5.149606299212598
 30
0.0
 11
1.576771653543306
 21
5.04527559055118
 31
0.0
  0
LINE
  5
2999
330
1E
100
AcDbEntity
  8
7
100
AcDbLine
 10
2.216535433070866
 20
5.04527559055118
 30
0.0
 11
2.211614173228346
 21
5.149606299212598
 31
0.0
  0
LINE
  5
299A
330
1E
100
AcDbEntity
  8
7
100
AcDbLine
 10
2.010826771653543
 20
5.355314960629921
 30
0.0
 11
2.220472440944881
 21
5.355314960629921
 31
0.0
  0
LINE
  5
29A5
330
1E
100
AcDbEntity
  8
7
100
AcDbLine
 10
1.806102362204724
 20
5.806102362204724
 30
0.0
 11
1.802165354330708
 21
5.742125984251968
 31
0.0
  0
LINE
  5
29A6
330
1E
100
AcDbEntity
  8
7
100
AcDbLine
 10
1.806102362204724
 20
5.806102362204724
 30
0.0
 11
1.806102362204724
 21
5.812992125984251
 31
0.0
  0
LINE
  5
29A7
330
1E
100
AcDbEntity
  8
7
100
AcDbLine
 10
2.0
 20
5.574803149606299
 30
0.0
 11
1.794291338582677
 21
5.574803149606299
 31
0.0
  0
LINE
  5
29A8
330
1E
100
AcDbEntity
  8
7
100
AcDbLine
 10
2.43011811023622
 20
5.355314960629921
 30
0.0
 11
2.220472440944881
 21
5.355314960629921
 31
0.0
  0
LINE
  5
29AE
330
1E
100
AcDbEntity
  8
7
100
AcDbLine
 10
2.661417322834645
 20
5.355314960629921
 30
0.0
 11
2.449803149606299
 21
5.355314960629921
 31
0.0
  0
LINE
  5
29BD
330
1E
100
AcDbEntity
  8
7
100
AcDbLine
 10
1.343503937007874
 20
5.355314960629921
 30
0.0
 11
1.131889763779527
 21
5.355314960629921
 31
0.0
  0
LINE
  5
29C3
330
1E
100
AcDbEntity
  8
7
100
AcDbLine
 10
1.572834645669291
 20
5.355314960629921
 30
0.0
 11
1.364173228346456
 21
5.355314960629921
 31
0.0
  0
LINE
  5
29C4
330
1E
100
AcDbEntity
  8
7
100
AcDbLine
 10
1.572834645669291
 20
5.355314960629921
 30
0.0
 11
1.78248031496063
 21
5.355314960629921
 31
0.0
  0
LINE
  5
29CA
330
1E
100
AcDbEntity
  8
7
100
AcDbLine
 10
2.503937007874015
 20
5.07775590551181
 30
0.0
 11
2.499015748031495
 21
5.07775590551181
 31
0.0
  0
LINE
  5
29D6
330
1E
100
AcDbEntity
  8
7
100
AcDbLine
 10
2.729330708661417
 20
5.272637795275589
 30
0.0
 11
2.732283464566929
 21
5.272637795275589
 31
0.0
  0
LINE
  5
29D7
330
1E
100
AcDbEntity
  8
7
100
AcDbLine
 10
2.751968503937007
 20
5.268700787401574
 30
0.0
 11
2.732283464566929
 21
5.272637795275589
 31
0.0
  0
LINE
  5
29DD
330
1E
100
AcDbEntity
  8
7
100
AcDbLine
 10
2.499015748031495
 20
5.097440944881889
 30
0.0
 11
2.501968503937007
 21
5.236220472440944
 31
0.0
  0
LINE
  5
29DE
330
1E
100
AcDbEntity
  8
7
100
AcDbLine
 10
2.526574803149606
 20
5.236220472440944
 30
0.0
 11
2.524606299212598
 21
5.097440944881889
 31
0.0
  0
LINE
  5
29E4
330
1E
100
AcDbEntity
  8
7
100
AcDbLine
 10
2.732283464566929
 20
5.272637795275589
 30
0.0
 11
2.733267716535432
 21
5.236220472440944
 31
0.0
  0
LINE
  5
29EA
330
1E
100
AcDbEntity
  8
7
100
AcDbLine
 10
2.761811023622047
 20
5.26771653543307
 30
0.0
 11
2.761811023622047
 21
5.236220472440944
 31
0.0
  0
LINE
  5
29EB
330
1E
100
AcDbEntity
  8
7
100
AcDbLine
 10
2.499015748031495
 20
5.07775590551181
 30
0.0
 11
2.448818897637795
 21
5.07775590551181
 31
0.0
  0
LINE
  5
29EC
330
1E
100
AcDbEntity
  8
7
100
AcDbLine
 10
2.449803149606299
 20
5.097440944881889
 30
0.0
 11
2.499015748031495
 21
5.097440944881889
 31
0.0
  0
LINE
  5
2A00
330
1E
100
AcDbEntity
  8
7
100
AcDbLine
 10
2.451771653543306
 20
5.236220472440944
 30
0.0
 11
2.663385826771653
 21
5.236220472440944
 31
0.0
  0
LINE
  5
2A07
330
1E
100
AcDbEntity
  8
7
100
AcDbLine
 10
2.451771653543306
 20
5.236220472440944
 30
0.0
 11
2.448818897637795
 21
5.07775590551181
 31
0.0
  0
LINE
  5
2A08
330
1E
100
AcDbEntity
  8
7
100
AcDbLine
 10
2.451771653543306
 20
5.236220472440944
 30
0.0
 11
2.445866141732283
 21
5.236220472440944
 31
0.0
  0
LINE
  5
2A09
330
1E
100
AcDbEntity
  8
7
100
AcDbLine
 10
2.445866141732283
 20
5.236220472440944
 30
0.0
 11
2.432086614173228
 21
5.236220472440944
 31
0.0
  0
LINE
  5
2A0A
330
1E
100
AcDbEntity
  8
7
100
AcDbLine
 10
2.428149606299212
 20
5.04527559055118
 30
0.0
 11
2.432086614173228
 21
5.236220472440944
 31
0.0
  0
LINE
  5
2A0B
330
1E
100
AcDbEntity
  8
7
100
AcDbLine
 10
2.721456692913385
 20
5.355314960629921
 30
0.0
 11
2.723425196850393
 21
5.236220472440944
 31
0.0
  0
LINE
  5
2A0C
330
1E
100
AcDbEntity
  8
7
100
AcDbLine
 10
2.663385826771653
 20
5.236220472440944
 30
0.0
 11
2.661417322834645
 21
5.355314960629921
 31
0.0
  0
LINE
  5
2A0D
330
1E
100
AcDbEntity
  8
7
100
AcDbLine
 10
2.449803149606299
 20
5.355314960629921
 30
0.0
 11
2.451771653543306
 21
5.236220472440944
 31
0.0
  0
LINE
  5
2A0E
330
1E
100
AcDbEntity
  8
7
100
AcDbLine
 10
2.432086614173228
 20
5.236220472440944
 30
0.0
 11
2.43011811023622
 21
5.355314960629921
 31
0.0
  0
LINE
  5
2A0F
330
1E
100
AcDbEntity
  8
7
100
AcDbLine
 10
2.220472440944881
 20
5.355314960629921
 30
0.0
 11
2.220472440944881
 21
5.310039370078739
 31
0.0
  0
LINE
  5
2A10
330
1E
100
AcDbEntity
  8
7
100
AcDbLine
 10
1.573818897637795
 20
5.310039370078739
 30
0.0
 11
2.220472440944881
 21
5.310039370078739
 31
0.0
  0
LINE
  5
2A11
330
1E
100
AcDbEntity
  8
7
100
AcDbLine
 10
1.362204724409448
 20
5.236220472440944
 30
0.0
 11
2.432086614173228
 21
5.236220472440944
 31
0.0
  0
LINE
  5
2A12
330
1E
100
AcDbEntity
  8
7
100
AcDbLine
 10
1.572834645669291
 20
5.355314960629921
 30
0.0
 11
1.573818897637795
 21
5.310039370078739
 31
0.0
  0
LINE
  5
2A13
330
1E
100
AcDbEntity
  8
7
100
AcDbLine
 10
1.364173228346456
 20
5.355314960629921
 30
0.0
 11
1.362204724409448
 21
5.236220472440944
 31
0.0
  0
LINE
  5
2A14
330
1E
100
AcDbEntity
  8
7
100
AcDbLine
 10
1.362204724409448
 20
5.236220472440944
 30
0.0
 11
1.36515748031496
 21
5.04527559055118
 31
0.0
  0
LINE
  5
2A15
330
1E
100
AcDbEntity
  8
7
100
AcDbLine
 10
1.58267716535433
 20
5.149606299212598
 30
0.0
 11
2.211614173228346
 21
5.149606299212598
 31
0.0
  0
LINE
  5
2A16
330
1E
100
AcDbEntity
  8
7
100
AcDbLine
 10
1.061023622047243
 20
5.272637795275589
 30
0.0
 11
1.063976377952755
 21
5.272637795275589
 31
0.0
  0
LINE
  5
2A1C
330
1E
100
AcDbEntity
  8
7
100
AcDbLine
 10
1.061023622047243
 20
5.272637795275589
 30
0.0
 11
1.041338582677165
 21
5.268700787401574
 31
0.0
  0
LINE
  5
2A1D
330
1E
100
AcDbEntity
  8
7
100
AcDbLine
 10
1.031496062992125
 20
5.236220472440944
 30
0.0
 11
1.031496062992125
 21
5.26771653543307
 31
0.0
  0
LINE
  5
2A34
330
1E
100
AcDbEntity
  8
7
100
AcDbLine
 10
1.066929133858267
 20
5.273622047244094
 30
0.0
 11
1.063976377952755
 21
5.272637795275589
 31
0.0
  0
LINE
  5
2A35
330
1E
100
AcDbEntity
  8
7
100
AcDbLine
 10
1.268700787401574
 20
5.097440944881889
 30
0.0
 11
1.266732283464566
 21
5.236220472440944
 31
0.0
  0
LINE
  5
2A3C
330
1E
100
AcDbEntity
  8
7
100
AcDbLine
 10
1.291338582677165
 20
5.236220472440944
 30
0.0
 11
1.294291338582677
 21
5.097440944881889
 31
0.0
  0
LINE
  5
2A47
330
1E
100
AcDbEntity
  8
7
100
AcDbLine
 10
1.294291338582677
 20
5.07775590551181
 30
0.0
 11
1.289370078740157
 21
5.07775590551181
 31
0.0
  0
LINE
  5
2A48
330
1E
100
AcDbEntity
  8
7
100
AcDbLine
 10
1.129921259842519
 20
5.236220472440944
 30
0.0
 11
1.341535433070866
 21
5.236220472440944
 31
0.0
  0
LINE
  5
2A49
330
1E
100
AcDbEntity
  8
7
100
AcDbLine
 10
1.131889763779527
 20
5.355314960629921
 30
0.0
 11
1.129921259842519
 21
5.236220472440944
 31
0.0
  0
LINE
  5
2A4A
330
1E
100
AcDbEntity
  8
7
100
AcDbLine
 10
1.069881889763779
 20
5.236220472440944
 30
0.0
 11
1.071850393700787
 21
5.355314960629921
 31
0.0
  0
LINE
  5
2A52
330
1E
100
AcDbEntity
  8
7
100
AcDbLine
 10
1.294291338582677
 20
5.097440944881889
 30
0.0
 11
1.344488188976378
 21
5.097440944881889
 31
0.0
  0
LINE
  5
2A53
330
1E
100
AcDbEntity
  8
7
100
AcDbLine
 10
1.341535433070866
 20
5.236220472440944
 30
0.0
 11
1.343503937007874
 21
5.355314960629921
 31
0.0
  0
LINE
  5
2A54
330
1E
100
AcDbEntity
  8
7
100
AcDbLine
 10
1.344488188976378
 20
5.07775590551181
 30
0.0
 11
1.294291338582677
 21
5.07775590551181
 31
0.0
  0
LINE
  5
2A5A
330
1E
100
AcDbEntity
  8
7
100
AcDbLine
 10
1.344488188976378
 20
5.07775590551181
 30
0.0
 11
1.341535433070866
 21
5.236220472440944
 31
0.0
  0
LINE
  5
2A61
330
1E
100
AcDbEntity
  8
7
100
AcDbLine
 10
1.794291338582677
 20
5.576771653543306
 30
0.0
 11
2.0
 21
5.576771653543306
 31
0.0
  0
LINE
  5
2A62
330
1E
100
AcDbEntity
  8
7
100
AcDbLine
 10
1.806102362204724
 20
5.820866141732283
 30
0.0
 11
1.987204724409448
 21
5.820866141732283
 31
0.0
  0
LINE
  5
2A63
330
1E
100
AcDbEntity
  8
7
100
AcDbLine
 10
1.987204724409448
 20
5.806102362204724
 30
0.0
 11
1.806102362204724
 21
5.806102362204724
 31
0.0
  0
LINE
  5
2A64
330
1E
100
AcDbEntity
  8
7
100
AcDbLine
 10
1.802165354330708
 20
5.742125984251968
 30
0.0
 11
1.991141732283464
 21
5.742125984251968
 31
0.0
  0
LINE
  5
2A65
330
1E
100
AcDbEntity
  8
7
100
AcDbLine
 10
1.797244094488188
 20
5.638779527559054
 30
0.0
 11
1.996062992125984
 21
5.638779527559054
 31
0.0
  0
LINE
  5
2A66
330
1E
100
AcDbEntity
  8
7
100
AcDbLine
 10
1.993110236220472
 20
5.700787401574802
 30
0.0
 11
1.8001968503937
 21
5.700787401574802
 31
0.0
  0
LINE
  5
2A67
330
1E
100
AcDbEntity
  8
7
100
AcDbLine
 10
2.0
 20
5.576771653543306
 30
0.0
 11
1.794291338582677
 21
5.576771653543306
 31
0.0
  0
LINE
  5
2A72
330
1E
100
AcDbEntity
  8
7
100
AcDbLine
 10
2.428149606299212
 20
5.04527559055118
 30
0.0
 11
2.211614173228346
 21
5.04527559055118
 31
0.0
  0
LINE
  5
2A7D
330
1E
100
AcDbEntity
  8
7
100
AcDbLine
 10
1.367125984251968
 20
4.92027559055118
 30
0.0
 11
1.362204724409448
 21
4.92027559055118
 31
0.0
  0
LINE
  5
2A89
330
1E
100
AcDbEntity
  8
7
100
AcDbLine
 10
2.426181102362204
 20
4.92027559055118
 30
0.0
 11
1.367125984251968
 21
4.92027559055118
 31
0.0
  0
LINE
  5
2A99
330
1E
100
AcDbEntity
  8
7
100
AcDbLine
 10
2.431102362204724
 20
4.92027559055118
 30
0.0
 11
2.426181102362204
 21
4.92027559055118
 31
0.0
  0
LINE
  5
2A9A
330
1E
100
AcDbEntity
  8
7
100
AcDbLine
 10
1.347440944881889
 20
4.935039370078739
 30
0.0
 11
1.345472440944881
 21
5.04527559055118
 31
0.0
  0
LINE
  5
2A9B
330
1E
100
AcDbEntity
  8
7
100
AcDbLine
 10
1.344488188976378
 20
5.07775590551181
 30
0.0
 11
1.345472440944881
 21
5.04527559055118
 31
0.0
  0
LINE
  5
2A9C
330
1E
100
AcDbEntity
  8
7
100
AcDbLine
 10
2.448818897637795
 20
5.04527559055118
 30
0.0
 11
2.448818897637795
 21
5.07775590551181
 31
0.0
  0
LINE
  5
2A9D
330
1E
100
AcDbEntity
  8
7
100
AcDbLine
 10
2.448818897637795
 20
5.04527559055118
 30
0.0
 11
2.446850393700787
 21
4.935039370078739
 31
0.0
  0
LINE
  5
2A9E
330
1E
100
AcDbEntity
  8
7
100
AcDbLine
 10
2.426181102362204
 20
4.935039370078739
 30
0.0
 11
2.428149606299212
 21
5.04527559055118
 31
0.0
  0
LINE
  5
2AAA
330
1E
100
AcDbEntity
  8
7
100
AcDbLine
 10
2.208661417322834
 20
5.135826771653542
 30
0.0
 11
2.211614173228346
 21
5.04527559055118
 31
0.0
  0
LINE
  5
2AAB
330
1E
100
AcDbEntity
  8
7
100
AcDbLine
 10
1.594488188976377
 20
5.144685039370078
 30
0.0
 11
2.198818897637795
 21
5.144685039370078
 31
0.0
  0
LINE
  5
2AB6
330
1E
100
AcDbEntity
  8
7
100
AcDbLine
 10
1.581692913385826
 20
5.04527559055118
 30
0.0
 11
1.584645669291338
 21
5.135826771653542
 31
0.0
  0
LINE
  5
2ABD
330
1E
100
AcDbEntity
  8
7
100
AcDbLine
 10
1.96751968503937
 20
4.890748031496062
 30
0.0
 11
1.825787401574803
 21
4.890748031496062
 31
0.0
  0
LINE
  5
2ABE
330
1E
100
AcDbEntity
  8
7
100
AcDbLine
 10
1.978346456692913
 20
4.92027559055118
 30
0.0
 11
1.977362204724409
 21
4.900590551181101
 31
0.0
  0
LINE
  5
2ABF
330
1E
100
AcDbEntity
  8
7
100
AcDbLine
 10
1.815944881889763
 20
4.900590551181101
 30
0.0
 11
1.814960629921259
 21
4.92027559055118
 31
0.0
  0
LINE
  5
2ACA
330
1E
100
AcDbEntity
  8
7
100
AcDbLine
 10
1.96751968503937
 20
4.900590551181101
 30
0.0
 11
1.96751968503937
 21
4.893700787401574
 31
0.0
  0
LINE
  5
2ACB
330
1E
100
AcDbEntity
  8
7
100
AcDbLine
 10
1.96751968503937
 20
4.893700787401574
 30
0.0
 11
1.96751968503937
 21
4.890748031496062
 31
0.0
  0
LINE
  5
2ADB
330
1E
100
AcDbEntity
  8
7
100
AcDbLine
 10
3.816929133858268
 20
4.086614173228346
 30
0.0
 11
3.816929133858268
 21
4.125984251968503
 31
0.0
  0
LINE
  5
2ADC
330
1E
100
AcDbEntity
  8
7
100
AcDbLine
 10
3.816929133858268
 20
4.176181102362204
 30
0.0
 11
3.816929133858268
 21
4.076771653543306
 31
0.0
  0
LINE
  5
2AE8
330
1E
100
AcDbEntity
  8
7
100
AcDbLine
 10
3.816929133858268
 20
4.176181102362204
 30
0.0
 11
3.816929133858268
 21
4.076771653543306
 31
0.0
  0
LINE
  5
2AEE
330
1E
100
AcDbEntity
  8
7
100
AcDbLine
 10
3.816929133858268
 20
4.136811023622047
 30
0.0
 11
3.816929133858268
 21
4.126968503937007
 31
0.0
  0
LINE
  5
2AEF
330
1E
100
AcDbEntity
  8
7
100
AcDbLine
 10
3.816929133858268
 20
4.086614173228346
 30
0.0
 11
3.816929133858268
 21
4.076771653543306
 31
0.0
  0
LINE
  5
2AF0
330
1E
100
AcDbEntity
  8
7
100
AcDbLine
 10
3.816929133858268
 20
4.176181102362204
 30
0.0
 11
3.816929133858268
 21
4.156496062992125
 31
0.0
  0
LINE
  5
2AF1
330
1E
100
AcDbEntity
  8
7
100
AcDbLine
 10
3.816929133858268
 20
4.176181102362204
 30
0.0
 11
3.816929133858268
 21
4.076771653543306
 31
0.0
  0
LINE
  5
2AF2
330
1E
100
AcDbEntity
  8
7
100
AcDbLine
 10
3.816929133858268
 20
4.126968503937007
 30
0.0
 11
3.816929133858268
 21
4.176181102362204
 31
0.0
  0
LINE
  5
2AF3
330
1E
100
AcDbEntity
  8
7
100
AcDbLine
 10
3.816929133858268
 20
4.076771653543306
 30
0.0
 11
3.816929133858268
 21
4.176181102362204
 31
0.0
  0
LINE
  5
2AF4
330
1E
100
AcDbEntity
  8
7
100
AcDbLine
 10
3.816929133858268
 20
4.076771653543306
 30
0.0
 11
3.816929133858268
 21
4.176181102362204
 31
0.0
  0
LINE
  5
2AF5
330
1E
100
AcDbEntity
  8
7
100
AcDbLine
 10
3.816929133858268
 20
4.076771653543306
 30
0.0
 11
3.816929133858268
 21
4.176181102362204
 31
0.0
  0
LINE
  5
2AF6
330
1E
100
AcDbEntity
  8
7
100
AcDbLine
 10
3.816929133858268
 20
4.125984251968503
 30
0.0
 11
3.816929133858268
 21
4.136811023622047
 31
0.0
  0
LINE
  5
2AF7
330
1E
100
AcDbEntity
  8
7
100
AcDbLine
 10
3.816929133858268
 20
4.156496062992125
 30
0.0
 11
3.816929133858268
 21
4.176181102362204
 31
0.0
  0
LINE
  5
2AF8
330
1E
100
AcDbEntity
  8
7
100
AcDbLine
 10
3.816929133858268
 20
4.097440944881889
 30
0.0
 11
3.816929133858268
 21
4.156496062992125
 31
0.0
  0
LINE
  5
2AF9
330
1E
100
AcDbEntity
  8
7
100
AcDbLine
 10
3.816929133858268
 20
4.076771653543306
 30
0.0
 11
3.816929133858268
 21
4.086614173228346
 31
0.0
  0
LINE
  5
2B02
330
1E
100
AcDbEntity
  8
7
100
AcDbLine
 10
4.534448818897637
 20
3.493110236220472
 30
0.0
 11
4.596456692913385
 21
3.432086614173228
 31
0.0
  0
LINE
  5
2B12
330
1E
100
AcDbEntity
  8
7
100
AcDbLine
 10
4.251968503937007
 20
3.420275590551181
 30
0.0
 11
4.470472440944881
 21
3.4251968503937
 31
0.0
  0
LINE
  5
2B18
330
1E
100
AcDbEntity
  8
7
100
AcDbLine
 10
3.940944881889763
 20
3.348425196850393
 30
0.0
 11
3.940944881889763
 21
3.354330708661417
 31
0.0
  0
LINE
  5
2B19
330
1E
100
AcDbEntity
  8
7
100
AcDbLine
 10
3.940944881889763
 20
4.23523622047244
 30
0.0
 11
3.940944881889763
 21
4.241141732283463
 31
0.0
  0
LINE
  5
2B1F
330
1E
100
AcDbEntity
  8
7
100
AcDbLine
 10
4.251968503937007
 20
4.206692913385826
 30
0.0
 11
4.251968503937007
 21
4.222440944881889
 31
0.0
  0
LINE
  5
2B27
330
1E
100
AcDbEntity
  8
7
100
AcDbLine
 10
4.251968503937007
 20
3.974409448818897
 30
0.0
 11
4.251968503937007
 21
4.146653543307086
 31
0.0
  0
LINE
  5
2B38
330
1E
100
AcDbEntity
  8
7
100
AcDbLine
 10
4.251968503937007
 20
3.443897637795275
 30
0.0
 11
4.251968503937007
 21
3.61515748031496
 31
0.0
  0
LINE
  5
2B40
330
1E
100
AcDbEntity
  8
7
100
AcDbLine
 10
4.251968503937007
 20
3.367125984251968
 30
0.0
 11
4.251968503937007
 21
3.383858267716535
 31
0.0
  0
LINE
  5
2B4D
330
1E
100
AcDbEntity
  8
7
100
AcDbLine
 10
3.974409448818897
 20
4.08267716535433
 30
0.0
 11
3.974409448818897
 21
4.08759842519685
 31
0.0
  0
LINE
  5
2B59
330
1E
100
AcDbEntity
  8
7
100
AcDbLine
 10
3.974409448818897
 20
3.506889763779527
 30
0.0
 11
3.974409448818897
 21
4.08267716535433
 31
0.0
  0
LINE
  5
2B5F
330
1E
100
AcDbEntity
  8
7
100
AcDbLine
 10
3.994094488188976
 20
4.08267716535433
 30
0.0
 11
3.994094488188976
 21
3.506889763779527
 31
0.0
  0
LINE
  5
2B60
330
1E
100
AcDbEntity
  8
7
100
AcDbLine
 10
3.974409448818897
 20
3.501968503937007
 30
0.0
 11
3.974409448818897
 21
3.506889763779527
 31
0.0
  0
LINE
  5
2B72
330
1E
100
AcDbEntity
  8
7
100
AcDbLine
 10
4.165354330708661
 20
3.58759842519685
 30
0.0
 11
4.168307086614174
 21
3.58759842519685
 31
0.0
  0
LINE
  5
2B78
330
1E
100
AcDbEntity
  8
7
100
AcDbLine
 10
4.163385826771653
 20
3.480314960629921
 30
0.0
 11
4.163385826771653
 21
3.577755905511811
 31
0.0
  0
LINE
  5
2B7E
330
1E
100
AcDbEntity
  8
7
100
AcDbLine
 10
4.168307086614174
 20
3.470472440944881
 30
0.0
 11
4.165354330708661
 21
3.470472440944881
 31
0.0
  0
LINE
  5
2B85
330
1E
100
AcDbEntity
  8
7
100
AcDbLine
 10
4.165354330708661
 20
4.119094488188975
 30
0.0
 11
4.168307086614174
 21
4.119094488188975
 31
0.0
  0
LINE
  5
2B86
330
1E
100
AcDbEntity
  8
7
100
AcDbLine
 10
4.165354330708661
 20
4.119094488188975
 30
0.0
 11
4.163385826771653
 21
4.116141732283463
 31
0.0
  0
LINE
  5
2B87
330
1E
100
AcDbEntity
  8
7
100
AcDbLine
 10
4.163385826771653
 20
4.116141732283463
 30
0.0
 11
4.163385826771653
 21
4.109251968503937
 31
0.0
  0
LINE
  5
2B88
330
1E
100
AcDbEntity
  8
7
100
AcDbLine
 10
4.163385826771653
 20
4.01279527559055
 30
0.0
 11
4.163385826771653
 21
4.109251968503937
 31
0.0
  0
LINE
  5
2B8E
330
1E
100
AcDbEntity
  8
7
100
AcDbLine
 10
4.168307086614174
 20
4.002952755905511
 30
0.0
 11
4.165354330708661
 21
4.002952755905511
 31
0.0
  0
LINE
  5
2B8F
330
1E
100
AcDbEntity
  8
7
100
AcDbLine
 10
4.073818897637794
 20
3.937007874015747
 30
0.0
 11
4.073818897637794
 21
3.65255905511811
 31
0.0
  0
LINE
  5
2B90
330
1E
100
AcDbEntity
  8
7
100
AcDbLine
 10
3.994094488188976
 20
4.107283464566928
 30
0.0
 11
4.131889763779527
 21
4.11023622047244
 31
0.0
  0
LINE
  5
2B91
330
1E
100
AcDbEntity
  8
7
100
AcDbLine
 10
4.131889763779527
 20
4.084645669291337
 30
0.0
 11
3.994094488188976
 21
4.08267716535433
 31
0.0
  0
LINE
  5
2B92
330
1E
100
AcDbEntity
  8
7
100
AcDbLine
 10
4.131889763779527
 20
4.120078740157479
 30
0.0
 11
4.165354330708661
 21
4.119094488188975
 31
0.0
  0
LINE
  5
2B9E
330
1E
100
AcDbEntity
  8
7
100
AcDbLine
 10
4.131889763779527
 20
4.001968503937007
 30
0.0
 11
4.131889763779527
 21
4.004921259842519
 31
0.0
  0
LINE
  5
2B9F
330
1E
100
AcDbEntity
  8
7
100
AcDbLine
 10
4.131889763779527
 20
4.004921259842519
 30
0.0
 11
4.131889763779527
 21
4.011811023622047
 31
0.0
  0
LINE
  5
2BA0
330
1E
100
AcDbEntity
  8
7
100
AcDbLine
 10
4.165354330708661
 20
4.002952755905511
 30
0.0
 11
4.131889763779527
 21
4.001968503937007
 31
0.0
  0
LINE
  5
2BA1
330
1E
100
AcDbEntity
  8
7
100
AcDbLine
 10
4.131889763779527
 20
3.58759842519685
 30
0.0
 11
4.165354330708661
 21
3.58759842519685
 31
0.0
  0
LINE
  5
2BB2
330
1E
100
AcDbEntity
  8
7
100
AcDbLine
 10
4.165354330708661
 20
3.470472440944881
 30
0.0
 11
4.131889763779527
 21
3.469488188976378
 31
0.0
  0
LINE
  5
2BB3
330
1E
100
AcDbEntity
  8
7
100
AcDbLine
 10
3.994094488188976
 20
3.506889763779527
 30
0.0
 11
4.131889763779527
 21
3.504921259842519
 31
0.0
  0
LINE
  5
2BB4
330
1E
100
AcDbEntity
  8
7
100
AcDbLine
 10
4.131889763779527
 20
3.480314960629921
 30
0.0
 11
3.994094488188976
 21
3.482283464566929
 31
0.0
  0
LINE
  5
2BB5
330
1E
100
AcDbEntity
  8
7
100
AcDbLine
 10
4.073818897637794
 20
3.65255905511811
 30
0.0
 11
4.131889763779527
 21
3.651574803149606
 31
0.0
  0
LINE
  5
2BB6
330
1E
100
AcDbEntity
  8
7
100
AcDbLine
 10
4.131889763779527
 20
3.937992125984252
 30
0.0
 11
4.073818897637794
 21
3.937007874015747
 31
0.0
  0
LINE
  5
2BBF
330
1E
100
AcDbEntity
  8
7
100
AcDbLine
 10
4.131889763779527
 20
3.598425196850393
 30
0.0
 11
4.177165354330709
 21
3.59744094488189
 31
0.0
  0
LINE
  5
2BCA
330
1E
100
AcDbEntity
  8
7
100
AcDbLine
 10
4.177165354330709
 20
3.460629921259843
 30
0.0
 11
4.131889763779527
 21
3.459645669291338
 31
0.0
  0
LINE
  5
2BDB
330
1E
100
AcDbEntity
  8
7
100
AcDbLine
 10
4.131889763779527
 20
4.129921259842519
 30
0.0
 11
4.177165354330709
 21
4.128937007874015
 31
0.0
  0
LINE
  5
2BE6
330
1E
100
AcDbEntity
  8
7
100
AcDbLine
 10
4.177165354330709
 20
3.993110236220472
 30
0.0
 11
4.131889763779527
 21
3.992125984251968
 31
0.0
  0
LINE
  5
2BF6
330
1E
100
AcDbEntity
  8
7
100
AcDbLine
 10
4.131889763779527
 20
3.459645669291338
 30
0.0
 11
4.131889763779527
 21
3.441929133858268
 31
0.0
  0
LINE
  5
2BF7
330
1E
100
AcDbEntity
  8
7
100
AcDbLine
 10
4.131889763779527
 20
3.617125984251968
 30
0.0
 11
4.131889763779527
 21
3.598425196850393
 31
0.0
  0
LINE
  5
2C0B
330
1E
100
AcDbEntity
  8
7
100
AcDbLine
 10
4.131889763779527
 20
3.992125984251968
 30
0.0
 11
4.131889763779527
 21
3.97244094488189
 31
0.0
  0
LINE
  5
2C0C
330
1E
100
AcDbEntity
  8
7
100
AcDbLine
 10
4.131889763779527
 20
4.148622047244094
 30
0.0
 11
4.131889763779527
 21
4.129921259842519
 31
0.0
  0
LINE
  5
2C1A
330
1E
100
AcDbEntity
  8
7
100
AcDbLine
 10
4.131889763779527
 20
4.2253937007874
 30
0.0
 11
3.974409448818897
 21
4.222440944881889
 31
0.0
  0
LINE
  5
2C20
330
1E
100
AcDbEntity
  8
7
100
AcDbLine
 10
3.940944881889763
 20
4.241141732283463
 30
0.0
 11
4.131889763779527
 21
4.245078740157479
 31
0.0
  0
LINE
  5
2C21
330
1E
100
AcDbEntity
  8
7
100
AcDbLine
 10
3.974409448818897
 20
4.222440944881889
 30
0.0
 11
3.974409448818897
 21
4.08759842519685
 31
0.0
  0
LINE
  5
2C22
330
1E
100
AcDbEntity
  8
7
100
AcDbLine
 10
4.131889763779527
 20
4.2253937007874
 30
0.0
 11
4.131889763779527
 21
4.208661417322834
 31
0.0
  0
LINE
  5
2C28
330
1E
100
AcDbEntity
  8
7
100
AcDbLine
 10
4.131889763779527
 20
3.381889763779527
 30
0.0
 11
4.131889763779527
 21
3.36515748031496
 31
0.0
  0
LINE
  5
2C35
330
1E
100
AcDbEntity
  8
7
100
AcDbLine
 10
4.251968503937007
 20
3.383858267716535
 30
0.0
 11
4.131889763779527
 21
3.381889763779527
 31
0.0
  0
LINE
  5
2C36
330
1E
100
AcDbEntity
  8
7
100
AcDbLine
 10
4.131889763779527
 20
3.441929133858268
 30
0.0
 11
4.251968503937007
 21
3.443897637795275
 31
0.0
  0
LINE
  5
2C37
330
1E
100
AcDbEntity
  8
7
100
AcDbLine
 10
4.177165354330709
 20
3.59744094488189
 30
0.0
 11
4.177165354330709
 21
3.460629921259843
 31
0.0
  0
LINE
  5
2C38
330
1E
100
AcDbEntity
  8
7
100
AcDbLine
 10
4.251968503937007
 20
3.61515748031496
 30
0.0
 11
4.131889763779527
 21
3.617125984251968
 31
0.0
  0
LINE
  5
2C39
330
1E
100
AcDbEntity
  8
7
100
AcDbLine
 10
4.131889763779527
 20
3.64763779527559
 30
0.0
 11
4.251968503937007
 21
3.645669291338582
 31
0.0
  0
LINE
  5
2C3A
330
1E
100
AcDbEntity
  8
7
100
AcDbLine
 10
4.131889763779527
 20
3.677165354330708
 30
0.0
 11
4.251968503937007
 21
3.6751968503937
 31
0.0
  0
LINE
  5
2C3B
330
1E
100
AcDbEntity
  8
7
100
AcDbLine
 10
4.251968503937007
 20
3.914370078740157
 30
0.0
 11
4.131889763779527
 21
3.912401574803149
 31
0.0
  0
LINE
  5
2C3C
330
1E
100
AcDbEntity
  8
7
100
AcDbLine
 10
4.251968503937007
 20
3.944881889763779
 30
0.0
 11
4.131889763779527
 21
3.942913385826771
 31
0.0
  0
LINE
  5
2C3D
330
1E
100
AcDbEntity
  8
7
100
AcDbLine
 10
4.131889763779527
 20
3.97244094488189
 30
0.0
 11
4.251968503937007
 21
3.974409448818897
 31
0.0
  0
LINE
  5
2C3E
330
1E
100
AcDbEntity
  8
7
100
AcDbLine
 10
4.177165354330709
 20
4.128937007874015
 30
0.0
 11
4.177165354330709
 21
3.993110236220472
 31
0.0
  0
LINE
  5
2C3F
330
1E
100
AcDbEntity
  8
7
100
AcDbLine
 10
4.251968503937007
 20
4.146653543307086
 30
0.0
 11
4.131889763779527
 21
4.148622047244094
 31
0.0
  0
LINE
  5
2C40
330
1E
100
AcDbEntity
  8
7
100
AcDbLine
 10
4.131889763779527
 20
4.208661417322834
 30
0.0
 11
4.251968503937007
 21
4.206692913385826
 31
0.0
  0
LINE
  5
2C41
330
1E
100
AcDbEntity
  8
7
100
AcDbLine
 10
4.251968503937007
 20
4.222440944881889
 30
0.0
 11
4.131889763779527
 21
4.2253937007874
 31
0.0
  0
LINE
  5
2C42
330
1E
100
AcDbEntity
  8
7
100
AcDbLine
 10
4.131889763779527
 20
4.245078740157479
 30
0.0
 11
4.251968503937007
 21
4.243110236220472
 31
0.0
  0
LINE
  5
2C43
330
1E
100
AcDbEntity
  8
7
100
AcDbLine
 10
3.974409448818897
 20
3.549212598425196
 30
0.0
 11
3.940944881889763
 21
3.5501968503937
 31
0.0
  0
LINE
  5
2C44
330
1E
100
AcDbEntity
  8
7
100
AcDbLine
 10
3.974409448818897
 20
3.646653543307086
 30
0.0
 11
3.940944881889763
 21
3.645669291338582
 31
0.0
  0
LINE
  5
2C45
330
1E
100
AcDbEntity
  8
7
100
AcDbLine
 10
3.974409448818897
 20
3.943897637795275
 30
0.0
 11
3.940944881889763
 21
3.943897637795275
 31
0.0
  0
LINE
  5
2C46
330
1E
100
AcDbEntity
  8
7
100
AcDbLine
 10
3.974409448818897
 20
4.040354330708661
 30
0.0
 11
3.940944881889763
 21
4.040354330708661
 31
0.0
  0
LINE
  5
2C47
330
1E
100
AcDbEntity
  8
7
100
AcDbLine
 10
4.716535433070866
 20
3.377952755905512
 30
0.0
 11
4.716535433070866
 21
3.39763779527559
 31
0.0
  0
LINE
  5
2C52
330
1E
100
AcDbEntity
  8
7
100
AcDbLine
 10
3.940944881889763
 20
3.645669291338582
 30
0.0
 11
3.940944881889763
 21
3.944881889763779
 31
0.0
  0
LINE
  5
2C53
330
1E
100
AcDbEntity
  8
7
100
AcDbLine
 10
3.940944881889763
 20
3.368110236220472
 30
0.0
 11
3.940944881889763
 21
3.5501968503937
 31
0.0
  0
LINE
  5
2C5E
330
1E
100
AcDbEntity
  8
7
100
AcDbLine
 10
3.940944881889763
 20
4.039370078740157
 30
0.0
 11
3.940944881889763
 21
4.221456692913385
 31
0.0
  0
LINE
  5
2C6E
330
1E
100
AcDbEntity
  8
7
100
AcDbLine
 10
3.816929133858268
 20
4.219488188976377
 30
0.0
 11
3.816929133858268
 21
4.224409448818897
 31
0.0
  0
LINE
  5
2C79
330
1E
100
AcDbEntity
  8
7
100
AcDbLine
 10
3.816929133858268
 20
3.37007874015748
 30
0.0
 11
3.820866141732283
 21
3.37007874015748
 31
0.0
  0
LINE
  5
2C7A
330
1E
100
AcDbEntity
  8
7
100
AcDbLine
 10
3.820866141732283
 20
3.37007874015748
 30
0.0
 11
3.831692913385826
 21
3.37007874015748
 31
0.0
  0
LINE
  5
2C85
330
1E
100
AcDbEntity
  8
7
100
AcDbLine
 10
3.940944881889763
 20
3.5501968503937
 30
0.0
 11
3.974409448818897
 21
3.551181102362205
 31
0.0
  0
LINE
  5
2C86
330
1E
100
AcDbEntity
  8
7
100
AcDbLine
 10
3.940944881889763
 20
3.645669291338582
 30
0.0
 11
3.974409448818897
 21
3.643700787401574
 31
0.0
  0
LINE
  5
2C87
330
1E
100
AcDbEntity
  8
7
100
AcDbLine
 10
3.940944881889763
 20
3.944881889763779
 30
0.0
 11
3.974409448818897
 21
3.945866141732283
 31
0.0
  0
LINE
  5
2C88
330
1E
100
AcDbEntity
  8
7
100
AcDbLine
 10
3.940944881889763
 20
4.039370078740157
 30
0.0
 11
3.974409448818897
 21
4.038385826771652
 31
0.0
  0
LINE
  5
2C89
330
1E
100
AcDbEntity
  8
7
100
AcDbLine
 10
3.940944881889763
 20
4.221456692913385
 30
0.0
 11
3.831692913385826
 21
4.219488188976377
 31
0.0
  0
LINE
  5
2C8A
330
1E
100
AcDbEntity
  8
7
100
AcDbLine
 10
3.940944881889763
 20
3.348425196850393
 30
0.0
 11
3.831692913385826
 21
3.350393700787401
 31
0.0
  0
LINE
  5
2C8B
330
1E
100
AcDbEntity
  8
7
100
AcDbLine
 10
3.831692913385826
 20
4.24015748031496
 30
0.0
 11
3.940944881889763
 21
4.241141732283463
 31
0.0
  0
LINE
  5
2C8C
330
1E
100
AcDbEntity
  8
7
100
AcDbLine
 10
3.797244094488189
 20
3.493110236220472
 30
0.0
 11
3.816929133858268
 21
3.493110236220472
 31
0.0
  0
LINE
  5
2C8D
330
1E
100
AcDbEntity
  8
7
100
AcDbLine
 10
3.816929133858268
 20
3.447834645669291
 30
0.0
 11
3.797244094488189
 21
3.447834645669291
 31
0.0
  0
LINE
  5
2C8E
330
1E
100
AcDbEntity
  8
7
100
AcDbLine
 10
3.787401574803149
 20
3.457677165354331
 30
0.0
 11
3.787401574803149
 21
3.483267716535432
 31
0.0
  0
LINE
  5
2FFB
330
1E
100
AcDbEntity
  8
7
100
AcDbLine
 10
3.787401574803149
 20
3.457677165354331
 30
0.0
 11
3.790354330708661
 21
3.450787401574803
 31
0.0
  0
LINE
  5
2FFC
330
1E
100
AcDbEntity
  8
7
100
AcDbLine
 10
3.790354330708661
 20
3.450787401574803
 30
0.0
 11
3.797244094488189
 21
3.447834645669291
 31
0.0
  0
LINE
  5
2FFD
330
1E
100
AcDbEntity
  8
7
100
AcDbLine
 10
3.796259842519684
 20
3.457677165354331
 30
0.0
 11
3.789370078740157
 21
3.457677165354331
 31
0.0
  0
LINE
  5
2FFE
330
1E
100
AcDbEntity
  8
7
100
AcDbLine
 10
3.789370078740157
 20
3.457677165354331
 30
0.0
 11
3.787401574803149
 21
3.457677165354331
 31
0.0
  0
LINE
  5
2FFF
330
1E
100
AcDbEntity
  8
7
100
AcDbLine
 10
3.796259842519684
 20
3.483267716535432
 30
0.0
 11
3.789370078740157
 21
3.483267716535432
 31
0.0
  0
LINE
  5
3000
330
1E
100
AcDbEntity
  8
7
100
AcDbLine
 10
3.789370078740157
 20
3.483267716535432
 30
0.0
 11
3.787401574803149
 21
3.483267716535432
 31
0.0
  0
LINE
  5
3001
330
1E
100
AcDbEntity
  8
7
100
AcDbLine
 10
3.797244094488189
 20
3.493110236220472
 30
0.0
 11
3.790354330708661
 21
3.49015748031496
 31
0.0
  0
LINE
  5
3002
330
1E
100
AcDbEntity
  8
7
100
AcDbLine
 10
3.790354330708661
 20
3.49015748031496
 30
0.0
 11
3.787401574803149
 21
3.483267716535432
 31
0.0
  0
LINE
  5
3003
330
1E
100
AcDbEntity
  8
7
100
AcDbLine
 10
3.797244094488189
 20
3.493110236220472
 30
0.0
 11
3.796259842519684
 21
3.49015748031496
 31
0.0
  0
LINE
  5
3004
330
1E
100
AcDbEntity
  8
7
100
AcDbLine
 10
3.796259842519684
 20
3.49015748031496
 30
0.0
 11
3.796259842519684
 21
3.483267716535432
 31
0.0
  0
LINE
  5
3005
330
1E
100
AcDbEntity
  8
7
100
AcDbLine
 10
3.796259842519684
 20
3.457677165354331
 30
0.0
 11
3.796259842519684
 21
3.450787401574803
 31
0.0
  0
LINE
  5
3006
330
1E
100
AcDbEntity
  8
7
100
AcDbLine
 10
3.796259842519684
 20
3.450787401574803
 30
0.0
 11
3.797244094488189
 21
3.447834645669291
 31
0.0
  0
LINE
  5
3007
330
1E
100
AcDbEntity
  8
7
100
AcDbLine
 10
3.816929133858268
 20
3.483267716535432
 30
0.0
 11
3.796259842519684
 21
3.483267716535432
 31
0.0
  0
LINE
  5
3008
330
1E
100
AcDbEntity
  8
7
100
AcDbLine
 10
3.796259842519684
 20
3.483267716535432
 30
0.0
 11
3.796259842519684
 21
3.457677165354331
 31
0.0
  0
LINE
  5
3009
330
1E
100
AcDbEntity
  8
7
100
AcDbLine
 10
3.796259842519684
 20
3.457677165354331
 30
0.0
 11
3.816929133858268
 21
3.457677165354331
 31
0.0
  0
LINE
  5
300A
330
1E
100
AcDbEntity
  8
7
100
AcDbLine
 10
3.831692913385826
 20
4.219488188976377
 30
0.0
 11
3.831692913385826
 21
3.37007874015748
 31
0.0
  0
LINE
  5
300B
330
1E
100
AcDbEntity
  8
7
100
AcDbLine
 10
3.831692913385826
 20
3.37007874015748
 30
0.0
 11
3.940944881889763
 21
3.368110236220472
 31
0.0
  0
LINE
  5
300C
330
1E
100
AcDbEntity
  8
7
100
AcDbLine
 10
3.816929133858268
 20
3.36515748031496
 30
0.0
 11
3.816929133858268
 21
3.37007874015748
 31
0.0
  0
LINE
  5
300D
330
1E
100
AcDbEntity
  8
7
100
AcDbLine
 10
3.816929133858268
 20
3.37007874015748
 30
0.0
 11
3.816929133858268
 21
4.219488188976377
 31
0.0
  0
LINE
  5
300E
330
1E
100
AcDbEntity
  8
7
100
AcDbLine
 10
3.831692913385826
 20
3.37007874015748
 30
0.0
 11
3.831692913385826
 21
3.356299212598425
 31
0.0
  0
LINE
  5
300F
330
1E
100
AcDbEntity
  8
7
100
AcDbLine
 10
3.831692913385826
 20
3.356299212598425
 30
0.0
 11
3.831692913385826
 21
3.350393700787401
 31
0.0
  0
LINE
  5
3010
330
1E
100
AcDbEntity
  8
7
100
AcDbLine
 10
3.816929133858268
 20
3.36515748031496
 30
0.0
 11
3.820866141732283
 21
3.354330708661417
 31
0.0
  0
LINE
  5
3011
330
1E
100
AcDbEntity
  8
7
100
AcDbLine
 10
3.820866141732283
 20
3.354330708661417
 30
0.0
 11
3.831692913385826
 21
3.350393700787401
 31
0.0
  0
LINE
  5
3012
330
1E
100
AcDbEntity
  8
7
100
AcDbLine
 10
3.831692913385826
 20
4.24015748031496
 30
0.0
 11
3.831692913385826
 21
4.234251968503937
 31
0.0
  0
LINE
  5
3013
330
1E
100
AcDbEntity
  8
7
100
AcDbLine
 10
3.831692913385826
 20
4.234251968503937
 30
0.0
 11
3.831692913385826
 21
4.219488188976377
 31
0.0
  0
LINE
  5
3014
330
1E
100
AcDbEntity
  8
7
100
AcDbLine
 10
3.816929133858268
 20
4.219488188976377
 30
0.0
 11
3.820866141732283
 21
4.219488188976377
 31
0.0
  0
LINE
  5
3015
330
1E
100
AcDbEntity
  8
7
100
AcDbLine
 10
3.820866141732283
 20
4.219488188976377
 30
0.0
 11
3.831692913385826
 21
4.219488188976377
 31
0.0
  0
LINE
  5
3016
330
1E
100
AcDbEntity
  8
7
100
AcDbLine
 10
3.831692913385826
 20
4.239173228346456
 30
0.0
 11
3.820866141732283
 21
4.23523622047244
 31
0.0
  0
LINE
  5
3017
330
1E
100
AcDbEntity
  8
7
100
AcDbLine
 10
3.820866141732283
 20
4.23523622047244
 30
0.0
 11
3.816929133858268
 21
4.224409448818897
 31
0.0
  0
LINE
  5
3018
330
1E
100
AcDbEntity
  8
7
100
AcDbLine
 10
3.940944881889763
 20
4.221456692913385
 30
0.0
 11
3.940944881889763
 21
4.236220472440944
 31
0.0
  0
LINE
  5
3019
330
1E
100
AcDbEntity
  8
7
100
AcDbLine
 10
3.940944881889763
 20
4.236220472440944
 30
0.0
 11
3.940944881889763
 21
4.241141732283463
 31
0.0
  0
LINE
  5
301A
330
1E
100
AcDbEntity
  8
7
100
AcDbLine
 10
3.940944881889763
 20
3.348425196850393
 30
0.0
 11
3.940944881889763
 21
3.354330708661417
 31
0.0
  0
LINE
  5
301B
330
1E
100
AcDbEntity
  8
7
100
AcDbLine
 10
3.940944881889763
 20
3.354330708661417
 30
0.0
 11
3.940944881889763
 21
3.368110236220472
 31
0.0
  0
LINE
  5
301C
330
1E
100
AcDbEntity
  8
7
100
AcDbLine
 10
4.708661417322835
 20
3.36515748031496
 30
0.0
 11
4.714566929133857
 21
3.37007874015748
 31
0.0
  0
LINE
  5
301D
330
1E
100
AcDbEntity
  8
7
100
AcDbLine
 10
4.714566929133857
 20
3.37007874015748
 30
0.0
 11
4.716535433070866
 21
3.377952755905512
 31
0.0
  0
LINE
  5
301E
330
1E
100
AcDbEntity
  8
7
100
AcDbLine
 10
4.716535433070866
 20
3.39763779527559
 30
0.0
 11
4.714566929133857
 21
3.405511811023622
 31
0.0
  0
LINE
  5
301F
330
1E
100
AcDbEntity
  8
7
100
AcDbLine
 10
4.714566929133857
 20
3.405511811023622
 30
0.0
 11
4.708661417322835
 21
3.410433070866141
 31
0.0
  0
LINE
  5
3020
330
1E
100
AcDbEntity
  8
7
100
AcDbLine
 10
4.131889763779527
 20
3.344488188976378
 30
0.0
 11
4.131889763779527
 21
3.350393700787401
 31
0.0
  0
LINE
  5
3021
330
1E
100
AcDbEntity
  8
7
100
AcDbLine
 10
4.131889763779527
 20
3.350393700787401
 30
0.0
 11
4.131889763779527
 21
3.36515748031496
 31
0.0
  0
LINE
  5
3022
330
1E
100
AcDbEntity
  8
7
100
AcDbLine
 10
4.131889763779527
 20
3.36515748031496
 30
0.0
 11
4.251968503937007
 21
3.367125984251968
 31
0.0
  0
LINE
  5
3023
330
1E
100
AcDbEntity
  8
7
100
AcDbLine
 10
3.940944881889763
 20
3.354330708661417
 30
0.0
 11
3.958661417322834
 21
3.358267716535433
 31
0.0
  0
LINE
  5
3024
330
1E
100
AcDbEntity
  8
7
100
AcDbLine
 10
3.958661417322834
 20
3.358267716535433
 30
0.0
 11
3.970472440944881
 21
3.363188976377952
 31
0.0
  0
LINE
  5
3025
330
1E
100
AcDbEntity
  8
7
100
AcDbLine
 10
3.970472440944881
 20
3.363188976377952
 30
0.0
 11
3.974409448818897
 21
3.368110236220472
 31
0.0
  0
LINE
  5
3026
330
1E
100
AcDbEntity
  8
7
100
AcDbLine
 10
3.974409448818897
 20
3.501968503937007
 30
0.0
 11
3.974409448818897
 21
3.368110236220472
 31
0.0
  0
LINE
  5
3027
330
1E
100
AcDbEntity
  8
7
100
AcDbLine
 10
3.974409448818897
 20
3.368110236220472
 30
0.0
 11
4.131889763779527
 21
3.36515748031496
 31
0.0
  0
LINE
  5
3028
330
1E
100
AcDbEntity
  8
7
100
AcDbLine
 10
4.131889763779527
 20
4.2253937007874
 30
0.0
 11
4.131889763779527
 21
4.239173228346456
 31
0.0
  0
LINE
  5
3029
330
1E
100
AcDbEntity
  8
7
100
AcDbLine
 10
4.131889763779527
 20
4.239173228346456
 30
0.0
 11
4.131889763779527
 21
4.245078740157479
 31
0.0
  0
LINE
  5
302A
330
1E
100
AcDbEntity
  8
7
100
AcDbLine
 10
3.974409448818897
 20
4.222440944881889
 30
0.0
 11
3.970472440944881
 21
4.227362204724409
 31
0.0
  0
LINE
  5
302B
330
1E
100
AcDbEntity
  8
7
100
AcDbLine
 10
3.970472440944881
 20
4.227362204724409
 30
0.0
 11
3.958661417322834
 21
4.231299212598425
 31
0.0
  0
LINE
  5
302C
330
1E
100
AcDbEntity
  8
7
100
AcDbLine
 10
3.958661417322834
 20
4.231299212598425
 30
0.0
 11
3.940944881889763
 21
4.23523622047244
 31
0.0
  0
LINE
  5
302D
330
1E
100
AcDbEntity
  8
7
100
AcDbLine
 10
4.131889763779527
 20
4.148622047244094
 30
0.0
 11
4.131889763779527
 21
4.171259842519684
 31
0.0
  0
LINE
  5
302E
330
1E
100
AcDbEntity
  8
7
100
AcDbLine
 10
4.131889763779527
 20
4.171259842519684
 30
0.0
 11
4.131889763779527
 21
4.190944881889762
 31
0.0
  0
LINE
  5
302F
330
1E
100
AcDbEntity
  8
7
100
AcDbLine
 10
4.131889763779527
 20
4.190944881889762
 30
0.0
 11
4.131889763779527
 21
4.203740157480314
 31
0.0
  0
LINE
  5
3030
330
1E
100
AcDbEntity
  8
7
100
AcDbLine
 10
4.131889763779527
 20
4.203740157480314
 30
0.0
 11
4.131889763779527
 21
4.208661417322834
 31
0.0
  0
LINE
  5
3031
330
1E
100
AcDbEntity
  8
7
100
AcDbLine
 10
4.131889763779527
 20
3.912401574803149
 30
0.0
 11
4.131889763779527
 21
3.927165354330708
 31
0.0
  0
LINE
  5
3032
330
1E
100
AcDbEntity
  8
7
100
AcDbLine
 10
4.131889763779527
 20
3.927165354330708
 30
0.0
 11
4.131889763779527
 21
3.937992125984252
 31
0.0
  0
LINE
  5
3033
330
1E
100
AcDbEntity
  8
7
100
AcDbLine
 10
4.131889763779527
 20
3.937992125984252
 30
0.0
 11
4.131889763779527
 21
3.942913385826771
 31
0.0
  0
LINE
  5
3034
330
1E
100
AcDbEntity
  8
7
100
AcDbLine
 10
4.131889763779527
 20
3.942913385826771
 30
0.0
 11
4.131889763779527
 21
3.946850393700787
 31
0.0
  0
LINE
  5
3035
330
1E
100
AcDbEntity
  8
7
100
AcDbLine
 10
4.131889763779527
 20
3.946850393700787
 30
0.0
 11
4.131889763779527
 21
3.957677165354331
 31
0.0
  0
LINE
  5
3036
330
1E
100
AcDbEntity
  8
7
100
AcDbLine
 10
4.131889763779527
 20
3.957677165354331
 30
0.0
 11
4.131889763779527
 21
3.97244094488189
 31
0.0
  0
LINE
  5
3037
330
1E
100
AcDbEntity
  8
7
100
AcDbLine
 10
4.131889763779527
 20
3.617125984251968
 30
0.0
 11
4.131889763779527
 21
3.632874015748031
 31
0.0
  0
LINE
  5
3038
330
1E
100
AcDbEntity
  8
7
100
AcDbLine
 10
4.131889763779527
 20
3.632874015748031
 30
0.0
 11
4.131889763779527
 21
3.643700787401574
 31
0.0
  0
LINE
  5
3039
330
1E
100
AcDbEntity
  8
7
100
AcDbLine
 10
4.131889763779527
 20
3.643700787401574
 30
0.0
 11
4.131889763779527
 21
3.64763779527559
 31
0.0
  0
LINE
  5
303A
330
1E
100
AcDbEntity
  8
7
100
AcDbLine
 10
4.131889763779527
 20
3.64763779527559
 30
0.0
 11
4.131889763779527
 21
3.651574803149606
 31
0.0
  0
LINE
  5
303B
330
1E
100
AcDbEntity
  8
7
100
AcDbLine
 10
4.131889763779527
 20
3.651574803149606
 30
0.0
 11
4.131889763779527
 21
3.662401574803149
 31
0.0
  0
LINE
  5
303C
330
1E
100
AcDbEntity
  8
7
100
AcDbLine
 10
4.131889763779527
 20
3.662401574803149
 30
0.0
 11
4.131889763779527
 21
3.677165354330708
 31
0.0
  0
LINE
  5
303D
330
1E
100
AcDbEntity
  8
7
100
AcDbLine
 10
4.131889763779527
 20
3.677165354330708
 30
0.0
 11
4.131889763779527
 21
3.912401574803149
 31
0.0
  0
LINE
  5
303E
330
1E
100
AcDbEntity
  8
7
100
AcDbLine
 10
4.131889763779527
 20
3.381889763779527
 30
0.0
 11
4.131889763779527
 21
3.385826771653543
 31
0.0
  0
LINE
  5
303F
330
1E
100
AcDbEntity
  8
7
100
AcDbLine
 10
4.131889763779527
 20
3.385826771653543
 30
0.0
 11
4.131889763779527
 21
3.398622047244094
 31
0.0
  0
LINE
  5
3040
330
1E
100
AcDbEntity
  8
7
100
AcDbLine
 10
4.131889763779527
 20
3.398622047244094
 30
0.0
 11
4.131889763779527
 21
3.418307086614173
 31
0.0
  0
LINE
  5
3041
330
1E
100
AcDbEntity
  8
7
100
AcDbLine
 10
4.131889763779527
 20
3.418307086614173
 30
0.0
 11
4.131889763779527
 21
3.441929133858268
 31
0.0
  0
LINE
  5
3042
330
1E
100
AcDbEntity
  8
7
100
AcDbLine
 10
4.177165354330709
 20
3.993110236220472
 30
0.0
 11
4.176181102362205
 21
3.993110236220472
 31
0.0
  0
LINE
  5
3043
330
1E
100
AcDbEntity
  8
7
100
AcDbLine
 10
4.176181102362205
 20
3.993110236220472
 30
0.0
 11
4.174212598425196
 21
3.99507874015748
 31
0.0
  0
LINE
  5
3044
330
1E
100
AcDbEntity
  8
7
100
AcDbLine
 10
4.174212598425196
 20
3.99507874015748
 30
0.0
 11
4.171259842519685
 21
3.998031496062992
 31
0.0
  0
LINE
  5
3045
330
1E
100
AcDbEntity
  8
7
100
AcDbLine
 10
4.171259842519685
 20
3.998031496062992
 30
0.0
 11
4.170275590551181
 21
4.000984251968503
 31
0.0
  0
LINE
  5
3046
330
1E
100
AcDbEntity
  8
7
100
AcDbLine
 10
4.170275590551181
 20
4.000984251968503
 30
0.0
 11
4.169291338582677
 21
4.001968503937007
 31
0.0
  0
LINE
  5
3047
330
1E
100
AcDbEntity
  8
7
100
AcDbLine
 10
4.131889763779527
 20
3.992125984251968
 30
0.0
 11
4.131889763779527
 21
3.999015748031495
 31
0.0
  0
LINE
  5
3048
330
1E
100
AcDbEntity
  8
7
100
AcDbLine
 10
4.131889763779527
 20
3.999015748031495
 30
0.0
 11
4.131889763779527
 21
4.001968503937007
 31
0.0
  0
LINE
  5
3049
330
1E
100
AcDbEntity
  8
7
100
AcDbLine
 10
4.131889763779527
 20
4.120078740157479
 30
0.0
 11
4.131889763779527
 21
4.123031496062991
 31
0.0
  0
LINE
  5
304A
330
1E
100
AcDbEntity
  8
7
100
AcDbLine
 10
4.131889763779527
 20
4.123031496062991
 30
0.0
 11
4.131889763779527
 21
4.129921259842519
 31
0.0
  0
LINE
  5
304B
330
1E
100
AcDbEntity
  8
7
100
AcDbLine
 10
4.169291338582677
 20
4.120078740157479
 30
0.0
 11
4.170275590551181
 21
4.121062992125984
 31
0.0
  0
LINE
  5
304C
330
1E
100
AcDbEntity
  8
7
100
AcDbLine
 10
4.170275590551181
 20
4.121062992125984
 30
0.0
 11
4.171259842519685
 21
4.123031496062991
 31
0.0
  0
LINE
  5
304D
330
1E
100
AcDbEntity
  8
7
100
AcDbLine
 10
4.171259842519685
 20
4.123031496062991
 30
0.0
 11
4.174212598425196
 21
4.126968503937007
 31
0.0
  0
LINE
  5
304E
330
1E
100
AcDbEntity
  8
7
100
AcDbLine
 10
4.174212598425196
 20
4.126968503937007
 30
0.0
 11
4.176181102362205
 21
4.128937007874015
 31
0.0
  0
LINE
  5
304F
330
1E
100
AcDbEntity
  8
7
100
AcDbLine
 10
4.176181102362205
 20
4.128937007874015
 30
0.0
 11
4.177165354330709
 21
4.128937007874015
 31
0.0
  0
LINE
  5
3050
330
1E
100
AcDbEntity
  8
7
100
AcDbLine
 10
4.177165354330709
 20
3.460629921259843
 30
0.0
 11
4.176181102362205
 21
3.460629921259843
 31
0.0
  0
LINE
  5
3051
330
1E
100
AcDbEntity
  8
7
100
AcDbLine
 10
4.176181102362205
 20
3.460629921259843
 30
0.0
 11
4.174212598425196
 21
3.46259842519685
 31
0.0
  0
LINE
  5
3052
330
1E
100
AcDbEntity
  8
7
100
AcDbLine
 10
4.174212598425196
 20
3.46259842519685
 30
0.0
 11
4.171259842519685
 21
3.466535433070866
 31
0.0
  0
LINE
  5
3053
330
1E
100
AcDbEntity
  8
7
100
AcDbLine
 10
4.171259842519685
 20
3.466535433070866
 30
0.0
 11
4.170275590551181
 21
3.468503937007874
 31
0.0
  0
LINE
  5
3054
330
1E
100
AcDbEntity
  8
7
100
AcDbLine
 10
4.170275590551181
 20
3.468503937007874
 30
0.0
 11
4.169291338582677
 21
3.469488188976378
 31
0.0
  0
LINE
  5
3055
330
1E
100
AcDbEntity
  8
7
100
AcDbLine
 10
4.131889763779527
 20
3.459645669291338
 30
0.0
 11
4.131889763779527
 21
3.467519685039369
 31
0.0
  0
LINE
  5
3056
330
1E
100
AcDbEntity
  8
7
100
AcDbLine
 10
4.131889763779527
 20
3.467519685039369
 30
0.0
 11
4.131889763779527
 21
3.469488188976378
 31
0.0
  0
LINE
  5
3057
330
1E
100
AcDbEntity
  8
7
100
AcDbLine
 10
4.131889763779527
 20
3.58759842519685
 30
0.0
 11
4.131889763779527
 21
3.590551181102362
 31
0.0
  0
LINE
  5
3058
330
1E
100
AcDbEntity
  8
7
100
AcDbLine
 10
4.131889763779527
 20
3.590551181102362
 30
0.0
 11
4.131889763779527
 21
3.598425196850393
 31
0.0
  0
LINE
  5
3059
330
1E
100
AcDbEntity
  8
7
100
AcDbLine
 10
4.169291338582677
 20
3.58759842519685
 30
0.0
 11
4.170275590551181
 21
3.589566929133858
 31
0.0
  0
LINE
  5
305A
330
1E
100
AcDbEntity
  8
7
100
AcDbLine
 10
4.170275590551181
 20
3.589566929133858
 30
0.0
 11
4.171259842519685
 21
3.591535433070866
 31
0.0
  0
LINE
  5
305B
330
1E
100
AcDbEntity
  8
7
100
AcDbLine
 10
4.171259842519685
 20
3.591535433070866
 30
0.0
 11
4.174212598425196
 21
3.594488188976378
 31
0.0
  0
LINE
  5
305C
330
1E
100
AcDbEntity
  8
7
100
AcDbLine
 10
4.174212598425196
 20
3.594488188976378
 30
0.0
 11
4.176181102362205
 21
3.59744094488189
 31
0.0
  0
LINE
  5
305D
330
1E
100
AcDbEntity
  8
7
100
AcDbLine
 10
4.176181102362205
 20
3.59744094488189
 30
0.0
 11
4.177165354330709
 21
3.59744094488189
 31
0.0
  0
LINE
  5
305E
330
1E
100
AcDbEntity
  8
7
100
AcDbLine
 10
4.131889763779527
 20
3.469488188976378
 30
0.0
 11
4.131889763779527
 21
3.47244094488189
 31
0.0
  0
LINE
  5
305F
330
1E
100
AcDbEntity
  8
7
100
AcDbLine
 10
4.131889763779527
 20
3.47244094488189
 30
0.0
 11
4.131889763779527
 21
3.480314960629921
 31
0.0
  0
LINE
  5
3060
330
1E
100
AcDbEntity
  8
7
100
AcDbLine
 10
4.163385826771653
 20
3.577755905511811
 30
0.0
 11
4.131889763779527
 21
3.577755905511811
 31
0.0
  0
LINE
  5
3061
330
1E
100
AcDbEntity
  8
7
100
AcDbLine
 10
4.131889763779527
 20
3.577755905511811
 30
0.0
 11
4.131889763779527
 21
3.480314960629921
 31
0.0
  0
LINE
  5
3062
330
1E
100
AcDbEntity
  8
7
100
AcDbLine
 10
4.131889763779527
 20
3.480314960629921
 30
0.0
 11
4.163385826771653
 21
3.480314960629921
 31
0.0
  0
LINE
  5
3063
330
1E
100
AcDbEntity
  8
7
100
AcDbLine
 10
4.131889763779527
 20
3.577755905511811
 30
0.0
 11
4.131889763779527
 21
3.584645669291338
 31
0.0
  0
LINE
  5
3064
330
1E
100
AcDbEntity
  8
7
100
AcDbLine
 10
4.131889763779527
 20
3.584645669291338
 30
0.0
 11
4.131889763779527
 21
3.58759842519685
 31
0.0
  0
LINE
  5
3065
330
1E
100
AcDbEntity
  8
7
100
AcDbLine
 10
4.163385826771653
 20
4.109251968503937
 30
0.0
 11
4.131889763779527
 21
4.11023622047244
 31
0.0
  0
LINE
  5
3066
330
1E
100
AcDbEntity
  8
7
100
AcDbLine
 10
4.131889763779527
 20
4.11023622047244
 30
0.0
 11
4.131889763779527
 21
4.011811023622047
 31
0.0
  0
LINE
  5
3067
330
1E
100
AcDbEntity
  8
7
100
AcDbLine
 10
4.131889763779527
 20
4.011811023622047
 30
0.0
 11
4.163385826771653
 21
4.01279527559055
 31
0.0
  0
LINE
  5
3068
330
1E
100
AcDbEntity
  8
7
100
AcDbLine
 10
4.131889763779527
 20
4.11023622047244
 30
0.0
 11
4.131889763779527
 21
4.117125984251968
 31
0.0
  0
LINE
  5
3069
330
1E
100
AcDbEntity
  8
7
100
AcDbLine
 10
4.131889763779527
 20
4.117125984251968
 30
0.0
 11
4.131889763779527
 21
4.120078740157479
 31
0.0
  0
LINE
  5
306A
330
1E
100
AcDbEntity
  8
7
100
AcDbLine
 10
4.163385826771653
 20
4.01279527559055
 30
0.0
 11
4.163385826771653
 21
4.005905511811023
 31
0.0
  0
LINE
  5
306B
330
1E
100
AcDbEntity
  8
7
100
AcDbLine
 10
4.163385826771653
 20
4.005905511811023
 30
0.0
 11
4.165354330708661
 21
4.002952755905511
 31
0.0
  0
LINE
  5
306C
330
1E
100
AcDbEntity
  8
7
100
AcDbLine
 10
4.168307086614174
 20
4.002952755905511
 30
0.0
 11
4.169291338582677
 21
4.001968503937007
 31
0.0
  0
LINE
  5
306D
330
1E
100
AcDbEntity
  8
7
100
AcDbLine
 10
4.169291338582677
 20
4.001968503937007
 30
0.0
 11
4.169291338582677
 21
4.120078740157479
 31
0.0
  0
LINE
  5
306E
330
1E
100
AcDbEntity
  8
7
100
AcDbLine
 10
4.169291338582677
 20
4.120078740157479
 30
0.0
 11
4.168307086614174
 21
4.119094488188975
 31
0.0
  0
LINE
  5
306F
330
1E
100
AcDbEntity
  8
7
100
AcDbLine
 10
4.163385826771653
 20
3.480314960629921
 30
0.0
 11
4.163385826771653
 21
3.473425196850393
 31
0.0
  0
LINE
  5
3070
330
1E
100
AcDbEntity
  8
7
100
AcDbLine
 10
4.163385826771653
 20
3.473425196850393
 30
0.0
 11
4.165354330708661
 21
3.470472440944881
 31
0.0
  0
LINE
  5
3071
330
1E
100
AcDbEntity
  8
7
100
AcDbLine
 10
4.165354330708661
 20
3.58759842519685
 30
0.0
 11
4.163385826771653
 21
3.584645669291338
 31
0.0
  0
LINE
  5
3072
330
1E
100
AcDbEntity
  8
7
100
AcDbLine
 10
4.163385826771653
 20
3.584645669291338
 30
0.0
 11
4.163385826771653
 21
3.577755905511811
 31
0.0
  0
LINE
  5
3073
330
1E
100
AcDbEntity
  8
7
100
AcDbLine
 10
4.168307086614174
 20
3.470472440944881
 30
0.0
 11
4.169291338582677
 21
3.469488188976378
 31
0.0
  0
LINE
  5
3074
330
1E
100
AcDbEntity
  8
7
100
AcDbLine
 10
4.169291338582677
 20
3.469488188976378
 30
0.0
 11
4.169291338582677
 21
3.58759842519685
 31
0.0
  0
LINE
  5
3075
330
1E
100
AcDbEntity
  8
7
100
AcDbLine
 10
4.169291338582677
 20
3.58759842519685
 30
0.0
 11
4.168307086614174
 21
3.58759842519685
 31
0.0
  0
LINE
  5
3076
330
1E
100
AcDbEntity
  8
7
100
AcDbLine
 10
3.994094488188976
 20
3.506889763779527
 30
0.0
 11
3.994094488188976
 21
3.49507874015748
 31
0.0
  0
LINE
  5
3077
330
1E
100
AcDbEntity
  8
7
100
AcDbLine
 10
3.994094488188976
 20
3.49507874015748
 30
0.0
 11
3.994094488188976
 21
3.485236220472441
 31
0.0
  0
LINE
  5
3078
330
1E
100
AcDbEntity
  8
7
100
AcDbLine
 10
3.994094488188976
 20
3.485236220472441
 30
0.0
 11
3.994094488188976
 21
3.482283464566929
 31
0.0
  0
LINE
  5
3079
330
1E
100
AcDbEntity
  8
7
100
AcDbLine
 10
3.974409448818897
 20
3.501968503937007
 30
0.0
 11
3.98031496062992
 21
3.488188976377953
 31
0.0
  0
LINE
  5
307A
330
1E
100
AcDbEntity
  8
7
100
AcDbLine
 10
3.98031496062992
 20
3.488188976377953
 30
0.0
 11
3.994094488188976
 21
3.482283464566929
 31
0.0
  0
LINE
  5
307B
330
1E
100
AcDbEntity
  8
7
100
AcDbLine
 10
3.994094488188976
 20
3.506889763779527
 30
0.0
 11
3.98031496062992
 21
3.506889763779527
 31
0.0
  0
LINE
  5
307C
330
1E
100
AcDbEntity
  8
7
100
AcDbLine
 10
3.98031496062992
 20
3.506889763779527
 30
0.0
 11
3.974409448818897
 21
3.506889763779527
 31
0.0
  0
LINE
  5
307D
330
1E
100
AcDbEntity
  8
7
100
AcDbLine
 10
3.994094488188976
 20
4.107283464566928
 30
0.0
 11
3.994094488188976
 21
4.104330708661416
 31
0.0
  0
LINE
  5
307E
330
1E
100
AcDbEntity
  8
7
100
AcDbLine
 10
3.994094488188976
 20
4.104330708661416
 30
0.0
 11
3.994094488188976
 21
4.095472440944881
 31
0.0
  0
LINE
  5
307F
330
1E
100
AcDbEntity
  8
7
100
AcDbLine
 10
3.994094488188976
 20
4.095472440944881
 30
0.0
 11
3.994094488188976
 21
4.08267716535433
 31
0.0
  0
LINE
  5
3080
330
1E
100
AcDbEntity
  8
7
100
AcDbLine
 10
3.994094488188976
 20
4.08267716535433
 30
0.0
 11
3.98031496062992
 21
4.08267716535433
 31
0.0
  0
LINE
  5
3081
330
1E
100
AcDbEntity
  8
7
100
AcDbLine
 10
3.98031496062992
 20
4.08267716535433
 30
0.0
 11
3.974409448818897
 21
4.08267716535433
 31
0.0
  0
LINE
  5
3082
330
1E
100
AcDbEntity
  8
7
100
AcDbLine
 10
3.994094488188976
 20
4.107283464566928
 30
0.0
 11
3.98031496062992
 21
4.101377952755905
 31
0.0
  0
LINE
  5
3083
330
1E
100
AcDbEntity
  8
7
100
AcDbLine
 10
3.98031496062992
 20
4.101377952755905
 30
0.0
 11
3.974409448818897
 21
4.08759842519685
 31
0.0
  0
LINE
  5
3084
330
1E
100
AcDbEntity
  8
7
100
AcDbLine
 10
4.251968503937007
 20
3.367125984251968
 30
0.0
 11
4.251968503937007
 21
3.353346456692913
 31
0.0
  0
LINE
  5
3085
330
1E
100
AcDbEntity
  8
7
100
AcDbLine
 10
4.251968503937007
 20
3.353346456692913
 30
0.0
 11
4.251968503937007
 21
3.347440944881889
 31
0.0
  0
LINE
  5
3086
330
1E
100
AcDbEntity
  8
7
100
AcDbLine
 10
4.251968503937007
 20
3.347440944881889
 30
0.0
 11
4.131889763779527
 21
3.344488188976378
 31
0.0
  0
LINE
  5
3087
330
1E
100
AcDbEntity
  8
7
100
AcDbLine
 10
4.131889763779527
 20
3.344488188976378
 30
0.0
 11
3.940944881889763
 21
3.348425196850393
 31
0.0
  0
LINE
  5
3088
330
1E
100
AcDbEntity
  8
7
100
AcDbLine
 10
4.251968503937007
 20
3.443897637795275
 30
0.0
 11
4.251968503937007
 21
3.420275590551181
 31
0.0
  0
LINE
  5
3089
330
1E
100
AcDbEntity
  8
7
100
AcDbLine
 10
4.251968503937007
 20
3.420275590551181
 30
0.0
 11
4.251968503937007
 21
3.401574803149606
 31
0.0
  0
LINE
  5
308A
330
1E
100
AcDbEntity
  8
7
100
AcDbLine
 10
4.251968503937007
 20
3.401574803149606
 30
0.0
 11
4.251968503937007
 21
3.387795275590551
 31
0.0
  0
LINE
  5
308B
330
1E
100
AcDbEntity
  8
7
100
AcDbLine
 10
4.251968503937007
 20
3.387795275590551
 30
0.0
 11
4.251968503937007
 21
3.383858267716535
 31
0.0
  0
LINE
  5
308C
330
1E
100
AcDbEntity
  8
7
100
AcDbLine
 10
4.251968503937007
 20
3.974409448818897
 30
0.0
 11
4.251968503937007
 21
3.959645669291338
 31
0.0
  0
LINE
  5
308D
330
1E
100
AcDbEntity
  8
7
100
AcDbLine
 10
4.251968503937007
 20
3.959645669291338
 30
0.0
 11
4.251968503937007
 21
3.948818897637795
 31
0.0
  0
LINE
  5
308E
330
1E
100
AcDbEntity
  8
7
100
AcDbLine
 10
4.251968503937007
 20
3.948818897637795
 30
0.0
 11
4.251968503937007
 21
3.944881889763779
 31
0.0
  0
LINE
  5
308F
330
1E
100
AcDbEntity
  8
7
100
AcDbLine
 10
4.251968503937007
 20
3.944881889763779
 30
0.0
 11
4.251968503937007
 21
3.940944881889763
 31
0.0
  0
LINE
  5
3090
330
1E
100
AcDbEntity
  8
7
100
AcDbLine
 10
4.251968503937007
 20
3.940944881889763
 30
0.0
 11
4.251968503937007
 21
3.929133858267716
 31
0.0
  0
LINE
  5
3091
330
1E
100
AcDbEntity
  8
7
100
AcDbLine
 10
4.251968503937007
 20
3.929133858267716
 30
0.0
 11
4.251968503937007
 21
3.914370078740157
 31
0.0
  0
LINE
  5
3092
330
1E
100
AcDbEntity
  8
7
100
AcDbLine
 10
4.251968503937007
 20
3.914370078740157
 30
0.0
 11
4.251968503937007
 21
3.6751968503937
 31
0.0
  0
LINE
  5
3093
330
1E
100
AcDbEntity
  8
7
100
AcDbLine
 10
4.251968503937007
 20
3.6751968503937
 30
0.0
 11
4.251968503937007
 21
3.660433070866142
 31
0.0
  0
LINE
  5
3094
330
1E
100
AcDbEntity
  8
7
100
AcDbLine
 10
4.251968503937007
 20
3.660433070866142
 30
0.0
 11
4.251968503937007
 21
3.649606299212598
 31
0.0
  0
LINE
  5
3095
330
1E
100
AcDbEntity
  8
7
100
AcDbLine
 10
4.251968503937007
 20
3.649606299212598
 30
0.0
 11
4.251968503937007
 21
3.645669291338582
 31
0.0
  0
LINE
  5
3096
330
1E
100
AcDbEntity
  8
7
100
AcDbLine
 10
4.251968503937007
 20
3.645669291338582
 30
0.0
 11
4.251968503937007
 21
3.641732283464567
 31
0.0
  0
LINE
  5
3097
330
1E
100
AcDbEntity
  8
7
100
AcDbLine
 10
4.251968503937007
 20
3.641732283464567
 30
0.0
 11
4.251968503937007
 21
3.629921259842519
 31
0.0
  0
LINE
  5
3098
330
1E
100
AcDbEntity
  8
7
100
AcDbLine
 10
4.251968503937007
 20
3.629921259842519
 30
0.0
 11
4.251968503937007
 21
3.61515748031496
 31
0.0
  0
LINE
  5
3099
330
1E
100
AcDbEntity
  8
7
100
AcDbLine
 10
4.251968503937007
 20
4.206692913385826
 30
0.0
 11
4.251968503937007
 21
4.201771653543306
 31
0.0
  0
LINE
  5
309A
330
1E
100
AcDbEntity
  8
7
100
AcDbLine
 10
4.251968503937007
 20
4.201771653543306
 30
0.0
 11
4.251968503937007
 21
4.188976377952755
 31
0.0
  0
LINE
  5
309B
330
1E
100
AcDbEntity
  8
7
100
AcDbLine
 10
4.251968503937007
 20
4.188976377952755
 30
0.0
 11
4.251968503937007
 21
4.169291338582676
 31
0.0
  0
LINE
  5
309C
330
1E
100
AcDbEntity
  8
7
100
AcDbLine
 10
4.251968503937007
 20
4.169291338582676
 30
0.0
 11
4.251968503937007
 21
4.146653543307086
 31
0.0
  0
LINE
  5
309D
330
1E
100
AcDbEntity
  8
7
100
AcDbLine
 10
4.251968503937007
 20
4.243110236220472
 30
0.0
 11
4.251968503937007
 21
4.237204724409448
 31
0.0
  0
LINE
  5
309E
330
1E
100
AcDbEntity
  8
7
100
AcDbLine
 10
4.251968503937007
 20
4.237204724409448
 30
0.0
 11
4.251968503937007
 21
4.222440944881889
 31
0.0
  0
LINE
  5
309F
330
1E
100
AcDbEntity
  8
7
100
AcDbLine
 10
4.251968503937007
 20
3.347440944881889
 30
0.0
 11
4.702755905511811
 21
3.363188976377952
 31
0.0
  0
LINE
  5
30A0
330
1E
100
AcDbEntity
  8
7
100
AcDbLine
 10
4.702755905511811
 20
3.363188976377952
 30
0.0
 11
4.708661417322835
 21
3.364173228346456
 31
0.0
  0
LINE
  5
30A1
330
1E
100
AcDbEntity
  8
7
100
AcDbLine
 10
4.48523622047244
 20
3.451771653543306
 30
0.0
 11
4.48523622047244
 21
3.440944881889763
 31
0.0
  0
LINE
  5
30A2
330
1E
100
AcDbEntity
  8
7
100
AcDbLine
 10
4.48523622047244
 20
3.440944881889763
 30
0.0
 11
4.48031496062992
 21
3.43011811023622
 31
0.0
  0
LINE
  5
30A3
330
1E
100
AcDbEntity
  8
7
100
AcDbLine
 10
4.48031496062992
 20
3.43011811023622
 30
0.0
 11
4.470472440944881
 21
3.4251968503937
 31
0.0
  0
LINE
  5
30A4
330
1E
100
AcDbEntity
  8
7
100
AcDbLine
 10
4.534448818897637
 20
3.493110236220472
 30
0.0
 11
4.505905511811024
 21
3.512795275590551
 31
0.0
  0
LINE
  5
30A5
330
1E
100
AcDbEntity
  8
7
100
AcDbLine
 10
4.505905511811024
 20
3.512795275590551
 30
0.0
 11
4.472440944881888
 21
3.52263779527559
 31
0.0
  0
LINE
  5
30A6
330
1E
100
AcDbEntity
  8
7
100
AcDbLine
 10
4.472440944881888
 20
3.52263779527559
 30
0.0
 11
4.472440944881888
 21
3.491141732283464
 31
0.0
  0
LINE
  5
30A7
330
1E
100
AcDbEntity
  8
7
100
AcDbLine
 10
4.472440944881888
 20
3.491141732283464
 30
0.0
 11
4.473425196850394
 21
3.488188976377953
 31
0.0
  0
LINE
  5
30A8
330
1E
100
AcDbEntity
  8
7
100
AcDbLine
 10
4.473425196850394
 20
3.488188976377953
 30
0.0
 11
4.483267716535433
 21
3.471456692913385
 31
0.0
  0
LINE
  5
30A9
330
1E
100
AcDbEntity
  8
7
100
AcDbLine
 10
4.483267716535433
 20
3.471456692913385
 30
0.0
 11
4.48523622047244
 21
3.451771653543306
 31
0.0
  0
LINE
  5
30AA
330
1E
100
AcDbEntity
  8
7
100
AcDbLine
 10
4.708661417322835
 20
3.364173228346456
 30
0.0
 11
4.708661417322835
 21
3.411417322834645
 31
0.0
  0
LINE
  5
30AB
330
1E
100
AcDbEntity
  8
7
100
AcDbLine
 10
4.708661417322835
 20
3.411417322834645
 30
0.0
 11
4.701771653543307
 21
3.413385826771653
 31
0.0
  0
LINE
  5
30AC
330
1E
100
AcDbEntity
  8
7
100
AcDbLine
 10
4.701771653543307
 20
3.413385826771653
 30
0.0
 11
4.637795275590551
 21
3.414370078740157
 31
0.0
  0
LINE
  5
30AD
330
1E
100
AcDbEntity
  8
7
100
AcDbLine
 10
4.637795275590551
 20
3.414370078740157
 30
0.0
 11
4.615157480314961
 21
3.419291338582677
 31
0.0
  0
LINE
  5
30AE
330
1E
100
AcDbEntity
  8
7
100
AcDbLine
 10
4.615157480314961
 20
3.419291338582677
 30
0.0
 11
4.596456692913385
 21
3.432086614173228
 31
0.0
  0
LINE
  5
30AF
330
1E
100
AcDbEntity
  8
7
100
AcDbLine
 10
3.816929133858268
 20
4.176181102362204
 30
0.0
 11
3.816929133858268
 21
4.076771653543306
 31
0.0
  0
LINE
  5
30B0
330
1E
100
AcDbEntity
  8
7
100
AcDbLine
 10
3.816929133858268
 20
4.076771653543306
 30
0.0
 11
3.816929133858268
 21
4.097440944881889
 31
0.0
  0
LINE
  5
30B1
330
1E
100
AcDbEntity
  8
7
100
AcDbLine
 10
3.816929133858268
 20
4.176181102362204
 30
0.0
 11
3.816929133858268
 21
4.076771653543306
 31
0.0
  0
LINE
  5
30B2
330
1E
100
AcDbEntity
  8
7
100
AcDbLine
 10
3.816929133858268
 20
4.076771653543306
 30
0.0
 11
3.816929133858268
 21
4.176181102362204
 31
0.0
  0
LINE
  5
30B3
330
1E
100
AcDbEntity
  8
7
100
AcDbLine
 10
3.816929133858268
 20
4.097440944881889
 30
0.0
 11
3.816929133858268
 21
4.076771653543306
 31
0.0
  0
LINE
  5
30B4
330
1E
100
AcDbEntity
  8
7
100
AcDbLine
 10
3.816929133858268
 20
4.076771653543306
 30
0.0
 11
3.816929133858268
 21
4.176181102362204
 31
0.0
  0
LINE
  5
30B5
330
1E
100
AcDbEntity
  8
7
100
AcDbLine
 10
3.816929133858268
 20
4.176181102362204
 30
0.0
 11
3.816929133858268
 21
4.076771653543306
 31
0.0
  0
LINE
  5
30B6
330
1E
100
AcDbEntity
  8
7
100
AcDbLine
 10
1.96751968503937
 20
4.890748031496062
 30
0.0
 11
1.974409448818897
 21
4.893700787401574
 31
0.0
  0
LINE
  5
30B7
330
1E
100
AcDbEntity
  8
7
100
AcDbLine
 10
1.974409448818897
 20
4.893700787401574
 30
0.0
 11
1.977362204724409
 21
4.900590551181101
 31
0.0
  0
LINE
  5
30B8
330
1E
100
AcDbEntity
  8
7
100
AcDbLine
 10
1.815944881889763
 20
4.900590551181101
 30
0.0
 11
1.818897637795275
 21
4.893700787401574
 31
0.0
  0
LINE
  5
30B9
330
1E
100
AcDbEntity
  8
7
100
AcDbLine
 10
1.818897637795275
 20
4.893700787401574
 30
0.0
 11
1.825787401574803
 21
4.890748031496062
 31
0.0
  0
LINE
  5
30BA
330
1E
100
AcDbEntity
  8
7
100
AcDbLine
 10
1.825787401574803
 20
4.890748031496062
 30
0.0
 11
1.825787401574803
 21
4.893700787401574
 31
0.0
  0
LINE
  5
30BB
330
1E
100
AcDbEntity
  8
7
100
AcDbLine
 10
1.825787401574803
 20
4.893700787401574
 30
0.0
 11
1.825787401574803
 21
4.900590551181101
 31
0.0
  0
LINE
  5
30BC
330
1E
100
AcDbEntity
  8
7
100
AcDbLine
 10
1.815944881889763
 20
4.900590551181101
 30
0.0
 11
1.818897637795275
 21
4.900590551181101
 31
0.0
  0
LINE
  5
30BD
330
1E
100
AcDbEntity
  8
7
100
AcDbLine
 10
1.818897637795275
 20
4.900590551181101
 30
0.0
 11
1.825787401574803
 21
4.900590551181101
 31
0.0
  0
LINE
  5
30BE
330
1E
100
AcDbEntity
  8
7
100
AcDbLine
 10
1.96751968503937
 20
4.900590551181101
 30
0.0
 11
1.974409448818897
 21
4.900590551181101
 31
0.0
  0
LINE
  5
30BF
330
1E
100
AcDbEntity
  8
7
100
AcDbLine
 10
1.974409448818897
 20
4.900590551181101
 30
0.0
 11
1.977362204724409
 21
4.900590551181101
 31
0.0
  0
LINE
  5
30C0
330
1E
100
AcDbEntity
  8
7
100
AcDbLine
 10
1.824803149606299
 20
4.92027559055118
 30
0.0
 11
1.825787401574803
 21
4.900590551181101
 31
0.0
  0
LINE
  5
30C1
330
1E
100
AcDbEntity
  8
7
100
AcDbLine
 10
1.825787401574803
 20
4.900590551181101
 30
0.0
 11
1.96751968503937
 21
4.900590551181101
 31
0.0
  0
LINE
  5
30C2
330
1E
100
AcDbEntity
  8
7
100
AcDbLine
 10
1.96751968503937
 20
4.900590551181101
 30
0.0
 11
1.968503937007874
 21
4.92027559055118
 31
0.0
  0
LINE
  5
30C3
330
1E
100
AcDbEntity
  8
7
100
AcDbLine
 10
1.594488188976377
 20
5.144685039370078
 30
0.0
 11
1.58759842519685
 21
5.14271653543307
 31
0.0
  0
LINE
  5
30C4
330
1E
100
AcDbEntity
  8
7
100
AcDbLine
 10
1.58759842519685
 20
5.14271653543307
 30
0.0
 11
1.584645669291338
 21
5.135826771653542
 31
0.0
  0
LINE
  5
30C5
330
1E
100
AcDbEntity
  8
7
100
AcDbLine
 10
2.208661417322834
 20
5.135826771653542
 30
0.0
 11
2.205708661417322
 21
5.14271653543307
 31
0.0
  0
LINE
  5
30C6
330
1E
100
AcDbEntity
  8
7
100
AcDbLine
 10
2.205708661417322
 20
5.14271653543307
 30
0.0
 11
2.198818897637795
 21
5.144685039370078
 31
0.0
  0
LINE
  5
30C7
330
1E
100
AcDbEntity
  8
7
100
AcDbLine
 10
1.36515748031496
 20
5.04527559055118
 30
0.0
 11
1.351377952755905
 21
5.04527559055118
 31
0.0
  0
LINE
  5
30C8
330
1E
100
AcDbEntity
  8
7
100
AcDbLine
 10
1.351377952755905
 20
5.04527559055118
 30
0.0
 11
1.345472440944881
 21
5.04527559055118
 31
0.0
  0
LINE
  5
30C9
330
1E
100
AcDbEntity
  8
7
100
AcDbLine
 10
2.211614173228346
 20
5.04527559055118
 30
0.0
 11
1.581692913385826
 21
5.04527559055118
 31
0.0
  0
LINE
  5
30CA
330
1E
100
AcDbEntity
  8
7
100
AcDbLine
 10
1.581692913385826
 20
5.04527559055118
 30
0.0
 11
1.36515748031496
 21
5.04527559055118
 31
0.0
  0
LINE
  5
30CB
330
1E
100
AcDbEntity
  8
7
100
AcDbLine
 10
1.36515748031496
 20
5.04527559055118
 30
0.0
 11
1.367125984251968
 21
4.935039370078739
 31
0.0
  0
LINE
  5
30CC
330
1E
100
AcDbEntity
  8
7
100
AcDbLine
 10
2.426181102362204
 20
4.935039370078739
 30
0.0
 11
2.440944881889763
 21
4.935039370078739
 31
0.0
  0
LINE
  5
30CD
330
1E
100
AcDbEntity
  8
7
100
AcDbLine
 10
2.440944881889763
 20
4.935039370078739
 30
0.0
 11
2.446850393700787
 21
4.935039370078739
 31
0.0
  0
LINE
  5
30CE
330
1E
100
AcDbEntity
  8
7
100
AcDbLine
 10
2.431102362204724
 20
4.921259842519684
 30
0.0
 11
2.441929133858267
 21
4.9251968503937
 31
0.0
  0
LINE
  5
30CF
330
1E
100
AcDbEntity
  8
7
100
AcDbLine
 10
2.441929133858267
 20
4.9251968503937
 30
0.0
 11
2.445866141732283
 21
4.936023622047243
 31
0.0
  0
LINE
  5
30D0
330
1E
100
AcDbEntity
  8
7
100
AcDbLine
 10
2.426181102362204
 20
4.935039370078739
 30
0.0
 11
2.426181102362204
 21
4.9251968503937
 31
0.0
  0
LINE
  5
30D1
330
1E
100
AcDbEntity
  8
7
100
AcDbLine
 10
2.426181102362204
 20
4.9251968503937
 30
0.0
 11
2.426181102362204
 21
4.92027559055118
 31
0.0
  0
LINE
  5
30D2
330
1E
100
AcDbEntity
  8
7
100
AcDbLine
 10
1.347440944881889
 20
4.935039370078739
 30
0.0
 11
1.352362204724409
 21
4.935039370078739
 31
0.0
  0
LINE
  5
30D3
330
1E
100
AcDbEntity
  8
7
100
AcDbLine
 10
1.352362204724409
 20
4.935039370078739
 30
0.0
 11
1.367125984251968
 21
4.935039370078739
 31
0.0
  0
LINE
  5
30D4
330
1E
100
AcDbEntity
  8
7
100
AcDbLine
 10
1.367125984251968
 20
4.935039370078739
 30
0.0
 11
2.426181102362204
 21
4.935039370078739
 31
0.0
  0
LINE
  5
30D5
330
1E
100
AcDbEntity
  8
7
100
AcDbLine
 10
1.367125984251968
 20
4.935039370078739
 30
0.0
 11
1.367125984251968
 21
4.9251968503937
 31
0.0
  0
LINE
  5
30D6
330
1E
100
AcDbEntity
  8
7
100
AcDbLine
 10
1.367125984251968
 20
4.9251968503937
 30
0.0
 11
1.367125984251968
 21
4.92027559055118
 31
0.0
  0
LINE
  5
30D7
330
1E
100
AcDbEntity
  8
7
100
AcDbLine
 10
1.347440944881889
 20
4.936023622047243
 30
0.0
 11
1.351377952755905
 21
4.9251968503937
 31
0.0
  0
LINE
  5
30D8
330
1E
100
AcDbEntity
  8
7
100
AcDbLine
 10
1.351377952755905
 20
4.9251968503937
 30
0.0
 11
1.362204724409448
 21
4.921259842519684
 31
0.0
  0
LINE
  5
30D9
330
1E
100
AcDbEntity
  8
7
100
AcDbLine
 10
2.448818897637795
 20
5.04527559055118
 30
0.0
 11
2.442913385826771
 21
5.04527559055118
 31
0.0
  0
LINE
  5
30DA
330
1E
100
AcDbEntity
  8
7
100
AcDbLine
 10
2.442913385826771
 20
5.04527559055118
 30
0.0
 11
2.428149606299212
 21
5.04527559055118
 31
0.0
  0
LINE
  5
30DB
330
1E
100
AcDbEntity
  8
7
100
AcDbLine
 10
1.806102362204724
 20
5.812992125984251
 30
0.0
 11
1.806102362204724
 21
5.818897637795275
 31
0.0
  0
LINE
  5
30DC
330
1E
100
AcDbEntity
  8
7
100
AcDbLine
 10
1.806102362204724
 20
5.818897637795275
 30
0.0
 11
1.806102362204724
 21
5.820866141732283
 31
0.0
  0
LINE
  5
30DD
330
1E
100
AcDbEntity
  8
7
100
AcDbLine
 10
1.987204724409448
 20
5.820866141732283
 30
0.0
 11
1.987204724409448
 21
5.818897637795275
 31
0.0
  0
LINE
  5
30DE
330
1E
100
AcDbEntity
  8
7
100
AcDbLine
 10
1.987204724409448
 20
5.818897637795275
 30
0.0
 11
1.987204724409448
 21
5.812992125984251
 31
0.0
  0
LINE
  5
30DF
330
1E
100
AcDbEntity
  8
7
100
AcDbLine
 10
1.350393700787401
 20
5.04527559055118
 30
0.0
 11
1.347440944881889
 21
5.062992125984251
 31
0.0
  0
LINE
  5
30E0
330
1E
100
AcDbEntity
  8
7
100
AcDbLine
 10
1.347440944881889
 20
5.062992125984251
 30
0.0
 11
1.345472440944881
 21
5.074803149606299
 31
0.0
  0
LINE
  5
30E1
330
1E
100
AcDbEntity
  8
7
100
AcDbLine
 10
1.345472440944881
 20
5.074803149606299
 30
0.0
 11
1.344488188976378
 21
5.07775590551181
 31
0.0
  0
LINE
  5
30E2
330
1E
100
AcDbEntity
  8
7
100
AcDbLine
 10
1.362204724409448
 20
5.236220472440944
 30
0.0
 11
1.347440944881889
 21
5.236220472440944
 31
0.0
  0
LINE
  5
30E3
330
1E
100
AcDbEntity
  8
7
100
AcDbLine
 10
1.347440944881889
 20
5.236220472440944
 30
0.0
 11
1.341535433070866
 21
5.236220472440944
 31
0.0
  0
LINE
  5
30E4
330
1E
100
AcDbEntity
  8
7
100
AcDbLine
 10
1.129921259842519
 20
5.236220472440944
 30
0.0
 11
1.107283464566929
 21
5.236220472440944
 31
0.0
  0
LINE
  5
30E5
330
1E
100
AcDbEntity
  8
7
100
AcDbLine
 10
1.107283464566929
 20
5.236220472440944
 30
0.0
 11
1.08759842519685
 21
5.236220472440944
 31
0.0
  0
LINE
  5
30E6
330
1E
100
AcDbEntity
  8
7
100
AcDbLine
 10
1.08759842519685
 20
5.236220472440944
 30
0.0
 11
1.074803149606299
 21
5.236220472440944
 31
0.0
  0
LINE
  5
30E7
330
1E
100
AcDbEntity
  8
7
100
AcDbLine
 10
1.074803149606299
 20
5.236220472440944
 30
0.0
 11
1.069881889763779
 21
5.236220472440944
 31
0.0
  0
LINE
  5
30E8
330
1E
100
AcDbEntity
  8
7
100
AcDbLine
 10
1.294291338582677
 20
5.07775590551181
 30
0.0
 11
1.294291338582677
 21
5.083661417322834
 31
0.0
  0
LINE
  5
30E9
330
1E
100
AcDbEntity
  8
7
100
AcDbLine
 10
1.294291338582677
 20
5.083661417322834
 30
0.0
 11
1.294291338582677
 21
5.097440944881889
 31
0.0
  0
LINE
  5
30EA
330
1E
100
AcDbEntity
  8
7
100
AcDbLine
 10
1.269685039370078
 20
5.098425196850393
 30
0.0
 11
1.275590551181102
 21
5.084645669291337
 31
0.0
  0
LINE
  5
30EB
330
1E
100
AcDbEntity
  8
7
100
AcDbLine
 10
1.275590551181102
 20
5.084645669291337
 30
0.0
 11
1.289370078740157
 21
5.078740157480314
 31
0.0
  0
LINE
  5
30EC
330
1E
100
AcDbEntity
  8
7
100
AcDbLine
 10
1.268700787401574
 20
5.097440944881889
 30
0.0
 11
1.27263779527559
 21
5.097440944881889
 31
0.0
  0
LINE
  5
30ED
330
1E
100
AcDbEntity
  8
7
100
AcDbLine
 10
1.27263779527559
 20
5.097440944881889
 30
0.0
 11
1.281496062992125
 21
5.097440944881889
 31
0.0
  0
LINE
  5
30EE
330
1E
100
AcDbEntity
  8
7
100
AcDbLine
 10
1.281496062992125
 20
5.097440944881889
 30
0.0
 11
1.294291338582677
 21
5.097440944881889
 31
0.0
  0
LINE
  5
30EF
330
1E
100
AcDbEntity
  8
7
100
AcDbLine
 10
1.070866141732283
 20
5.280511811023621
 30
0.0
 11
1.070866141732283
 21
5.278543307086613
 31
0.0
  0
LINE
  5
30F0
330
1E
100
AcDbEntity
  8
7
100
AcDbLine
 10
1.070866141732283
 20
5.278543307086613
 30
0.0
 11
1.068897637795275
 21
5.275590551181101
 31
0.0
  0
LINE
  5
30F1
330
1E
100
AcDbEntity
  8
7
100
AcDbLine
 10
1.068897637795275
 20
5.275590551181101
 30
0.0
 11
1.066929133858267
 21
5.273622047244094
 31
0.0
  0
LINE
  5
30F2
330
1E
100
AcDbEntity
  8
7
100
AcDbLine
 10
1.069881889763779
 20
5.236220472440944
 30
0.0
 11
1.066929133858267
 21
5.236220472440944
 31
0.0
  0
LINE
  5
30F3
330
1E
100
AcDbEntity
  8
7
100
AcDbLine
 10
1.066929133858267
 20
5.236220472440944
 30
0.0
 11
1.06003937007874
 21
5.236220472440944
 31
0.0
  0
LINE
  5
30F4
330
1E
100
AcDbEntity
  8
7
100
AcDbLine
 10
1.041338582677165
 20
5.268700787401574
 30
0.0
 11
1.041338582677165
 21
5.236220472440944
 31
0.0
  0
LINE
  5
30F5
330
1E
100
AcDbEntity
  8
7
100
AcDbLine
 10
1.041338582677165
 20
5.236220472440944
 30
0.0
 11
1.06003937007874
 21
5.236220472440944
 31
0.0
  0
LINE
  5
30F6
330
1E
100
AcDbEntity
  8
7
100
AcDbLine
 10
1.06003937007874
 20
5.236220472440944
 30
0.0
 11
1.061023622047243
 21
5.272637795275589
 31
0.0
  0
LINE
  5
30F7
330
1E
100
AcDbEntity
  8
7
100
AcDbLine
 10
1.041338582677165
 20
5.236220472440944
 30
0.0
 11
1.034448818897637
 21
5.236220472440944
 31
0.0
  0
LINE
  5
30F8
330
1E
100
AcDbEntity
  8
7
100
AcDbLine
 10
1.034448818897637
 20
5.236220472440944
 30
0.0
 11
1.031496062992125
 21
5.236220472440944
 31
0.0
  0
LINE
  5
30F9
330
1E
100
AcDbEntity
  8
7
100
AcDbLine
 10
1.031496062992125
 20
5.26771653543307
 30
0.0
 11
1.034448818897637
 21
5.26771653543307
 31
0.0
  0
LINE
  5
30FA
330
1E
100
AcDbEntity
  8
7
100
AcDbLine
 10
1.034448818897637
 20
5.26771653543307
 30
0.0
 11
1.041338582677165
 21
5.268700787401574
 31
0.0
  0
LINE
  5
30FB
330
1E
100
AcDbEntity
  8
7
100
AcDbLine
 10
2.448818897637795
 20
5.07775590551181
 30
0.0
 11
2.447834645669291
 21
5.074803149606299
 31
0.0
  0
LINE
  5
30FC
330
1E
100
AcDbEntity
  8
7
100
AcDbLine
 10
2.447834645669291
 20
5.074803149606299
 30
0.0
 11
2.445866141732283
 21
5.062992125984251
 31
0.0
  0
LINE
  5
30FD
330
1E
100
AcDbEntity
  8
7
100
AcDbLine
 10
2.445866141732283
 20
5.062992125984251
 30
0.0
 11
2.442913385826771
 21
5.04527559055118
 31
0.0
  0
LINE
  5
30FE
330
1E
100
AcDbEntity
  8
7
100
AcDbLine
 10
2.705708661417322
 20
5.236220472440944
 30
0.0
 11
2.686023622047243
 21
5.236220472440944
 31
0.0
  0
LINE
  5
30FF
330
1E
100
AcDbEntity
  8
7
100
AcDbLine
 10
2.686023622047243
 20
5.236220472440944
 30
0.0
 11
2.663385826771653
 21
5.236220472440944
 31
0.0
  0
LINE
  5
3100
330
1E
100
AcDbEntity
  8
7
100
AcDbLine
 10
2.733267716535432
 20
5.236220472440944
 30
0.0
 11
2.726377952755905
 21
5.236220472440944
 31
0.0
  0
LINE
  5
3101
330
1E
100
AcDbEntity
  8
7
100
AcDbLine
 10
2.726377952755905
 20
5.236220472440944
 30
0.0
 11
2.723425196850393
 21
5.236220472440944
 31
0.0
  0
LINE
  5
3102
330
1E
100
AcDbEntity
  8
7
100
AcDbLine
 10
2.723425196850393
 20
5.236220472440944
 30
0.0
 11
2.718503937007874
 21
5.236220472440944
 31
0.0
  0
LINE
  5
3103
330
1E
100
AcDbEntity
  8
7
100
AcDbLine
 10
2.718503937007874
 20
5.236220472440944
 30
0.0
 11
2.705708661417322
 21
5.236220472440944
 31
0.0
  0
LINE
  5
3104
330
1E
100
AcDbEntity
  8
7
100
AcDbLine
 10
2.729330708661417
 20
5.272637795275589
 30
0.0
 11
2.726377952755905
 21
5.273622047244094
 31
0.0
  0
LINE
  5
3105
330
1E
100
AcDbEntity
  8
7
100
AcDbLine
 10
2.726377952755905
 20
5.273622047244094
 30
0.0
 11
2.724409448818897
 21
5.275590551181101
 31
0.0
  0
LINE
  5
3106
330
1E
100
AcDbEntity
  8
7
100
AcDbLine
 10
2.724409448818897
 20
5.275590551181101
 30
0.0
 11
2.722440944881889
 21
5.278543307086613
 31
0.0
  0
LINE
  5
3107
330
1E
100
AcDbEntity
  8
7
100
AcDbLine
 10
2.722440944881889
 20
5.278543307086613
 30
0.0
 11
2.722440944881889
 21
5.280511811023621
 31
0.0
  0
LINE
  5
3108
330
1E
100
AcDbEntity
  8
7
100
AcDbLine
 10
2.761811023622047
 20
5.236220472440944
 30
0.0
 11
2.758858267716535
 21
5.236220472440944
 31
0.0
  0
LINE
  5
3109
330
1E
100
AcDbEntity
  8
7
100
AcDbLine
 10
2.758858267716535
 20
5.236220472440944
 30
0.0
 11
2.751968503937007
 21
5.236220472440944
 31
0.0
  0
LINE
  5
310A
330
1E
100
AcDbEntity
  8
7
100
AcDbLine
 10
2.733267716535432
 20
5.236220472440944
 30
0.0
 11
2.751968503937007
 21
5.236220472440944
 31
0.0
  0
LINE
  5
310B
330
1E
100
AcDbEntity
  8
7
100
AcDbLine
 10
2.751968503937007
 20
5.236220472440944
 30
0.0
 11
2.751968503937007
 21
5.268700787401574
 31
0.0
  0
LINE
  5
310C
330
1E
100
AcDbEntity
  8
7
100
AcDbLine
 10
2.751968503937007
 20
5.268700787401574
 30
0.0
 11
2.758858267716535
 21
5.26771653543307
 31
0.0
  0
LINE
  5
310D
330
1E
100
AcDbEntity
  8
7
100
AcDbLine
 10
2.758858267716535
 20
5.26771653543307
 30
0.0
 11
2.761811023622047
 21
5.26771653543307
 31
0.0
  0
LINE
  5
310E
330
1E
100
AcDbEntity
  8
7
100
AcDbLine
 10
2.499015748031495
 20
5.097440944881889
 30
0.0
 11
2.511811023622047
 21
5.097440944881889
 31
0.0
  0
LINE
  5
310F
330
1E
100
AcDbEntity
  8
7
100
AcDbLine
 10
2.511811023622047
 20
5.097440944881889
 30
0.0
 11
2.520669291338582
 21
5.097440944881889
 31
0.0
  0
LINE
  5
3110
330
1E
100
AcDbEntity
  8
7
100
AcDbLine
 10
2.520669291338582
 20
5.097440944881889
 30
0.0
 11
2.524606299212598
 21
5.097440944881889
 31
0.0
  0
LINE
  5
3111
330
1E
100
AcDbEntity
  8
7
100
AcDbLine
 10
2.503937007874015
 20
5.078740157480314
 30
0.0
 11
2.51771653543307
 21
5.084645669291337
 31
0.0
  0
LINE
  5
3112
330
1E
100
AcDbEntity
  8
7
100
AcDbLine
 10
2.51771653543307
 20
5.084645669291337
 30
0.0
 11
2.523622047244094
 21
5.098425196850393
 31
0.0
  0
LINE
  5
3113
330
1E
100
AcDbEntity
  8
7
100
AcDbLine
 10
2.499015748031495
 20
5.097440944881889
 30
0.0
 11
2.499015748031495
 21
5.083661417322834
 31
0.0
  0
LINE
  5
3114
330
1E
100
AcDbEntity
  8
7
100
AcDbLine
 10
2.499015748031495
 20
5.083661417322834
 30
0.0
 11
2.499015748031495
 21
5.07775590551181
 31
0.0
  0
LINE
  5
3115
330
1E
100
AcDbEntity
  8
7
100
AcDbLine
 10
1.343503937007874
 20
5.355314960629921
 30
0.0
 11
1.349409448818897
 21
5.355314960629921
 31
0.0
  0
LINE
  5
3116
330
1E
100
AcDbEntity
  8
7
100
AcDbLine
 10
1.349409448818897
 20
5.355314960629921
 30
0.0
 11
1.364173228346456
 21
5.355314960629921
 31
0.0
  0
LINE
  5
3117
330
1E
100
AcDbEntity
  8
7
100
AcDbLine
 10
1.071850393700787
 20
5.355314960629921
 30
0.0
 11
1.076771653543306
 21
5.355314960629921
 31
0.0
  0
LINE
  5
3118
330
1E
100
AcDbEntity
  8
7
100
AcDbLine
 10
1.076771653543306
 20
5.355314960629921
 30
0.0
 11
1.089566929133858
 21
5.355314960629921
 31
0.0
  0
LINE
  5
3119
330
1E
100
AcDbEntity
  8
7
100
AcDbLine
 10
1.089566929133858
 20
5.355314960629921
 30
0.0
 11
1.109251968503937
 21
5.355314960629921
 31
0.0
  0
LINE
  5
311A
330
1E
100
AcDbEntity
  8
7
100
AcDbLine
 10
1.109251968503937
 20
5.355314960629921
 30
0.0
 11
1.131889763779527
 21
5.355314960629921
 31
0.0
  0
LINE
  5
311B
330
1E
100
AcDbEntity
  8
7
100
AcDbLine
 10
2.661417322834645
 20
5.355314960629921
 30
0.0
 11
2.684055118110236
 21
5.355314960629921
 31
0.0
  0
LINE
  5
311C
330
1E
100
AcDbEntity
  8
7
100
AcDbLine
 10
2.684055118110236
 20
5.355314960629921
 30
0.0
 11
2.703740157480314
 21
5.355314960629921
 31
0.0
  0
LINE
  5
311D
330
1E
100
AcDbEntity
  8
7
100
AcDbLine
 10
2.703740157480314
 20
5.355314960629921
 30
0.0
 11
2.716535433070866
 21
5.355314960629921
 31
0.0
  0
LINE
  5
311E
330
1E
100
AcDbEntity
  8
7
100
AcDbLine
 10
2.716535433070866
 20
5.355314960629921
 30
0.0
 11
2.721456692913385
 21
5.355314960629921
 31
0.0
  0
LINE
  5
311F
330
1E
100
AcDbEntity
  8
7
100
AcDbLine
 10
2.43011811023622
 20
5.355314960629921
 30
0.0
 11
2.443897637795275
 21
5.355314960629921
 31
0.0
  0
LINE
  5
3120
330
1E
100
AcDbEntity
  8
7
100
AcDbLine
 10
2.443897637795275
 20
5.355314960629921
 30
0.0
 11
2.449803149606299
 21
5.355314960629921
 31
0.0
  0
LINE
  5
3121
330
1E
100
AcDbEntity
  8
7
100
AcDbLine
 10
1.779527559055118
 20
5.310039370078739
 30
0.0
 11
1.794291338582677
 21
5.574803149606299
 31
0.0
  0
LINE
  5
3122
330
1E
100
AcDbEntity
  8
7
100
AcDbLine
 10
1.794291338582677
 20
5.574803149606299
 30
0.0
 11
1.794291338582677
 21
5.576771653543306
 31
0.0
  0
LINE
  5
3123
330
1E
100
AcDbEntity
  8
7
100
AcDbLine
 10
1.794291338582677
 20
5.576771653543306
 30
0.0
 11
1.795275590551181
 21
5.61023622047244
 31
0.0
  0
LINE
  5
3124
330
1E
100
AcDbEntity
  8
7
100
AcDbLine
 10
1.795275590551181
 20
5.61023622047244
 30
0.0
 11
1.797244094488188
 21
5.638779527559054
 31
0.0
  0
LINE
  5
3125
330
1E
100
AcDbEntity
  8
7
100
AcDbLine
 10
1.797244094488188
 20
5.638779527559054
 30
0.0
 11
1.8001968503937
 21
5.700787401574802
 31
0.0
  0
LINE
  5
3126
330
1E
100
AcDbEntity
  8
7
100
AcDbLine
 10
1.8001968503937
 20
5.700787401574802
 30
0.0
 11
1.801181102362204
 21
5.719488188976377
 31
0.0
  0
LINE
  5
3127
330
1E
100
AcDbEntity
  8
7
100
AcDbLine
 10
1.801181102362204
 20
5.719488188976377
 30
0.0
 11
1.802165354330708
 21
5.742125984251968
 31
0.0
  0
LINE
  5
3128
330
1E
100
AcDbEntity
  8
7
100
AcDbLine
 10
1.576771653543306
 20
5.04527559055118
 30
0.0
 11
1.36515748031496
 21
5.04527559055118
 31
0.0
  0
LINE
  5
3129
330
1E
100
AcDbEntity
  8
7
100
AcDbLine
 10
1.36515748031496
 20
5.04527559055118
 30
0.0
 11
1.350393700787401
 21
5.04527559055118
 31
0.0
  0
LINE
  5
312A
330
1E
100
AcDbEntity
  8
7
100
AcDbLine
 10
2.442913385826771
 20
5.04527559055118
 30
0.0
 11
2.428149606299212
 21
5.04527559055118
 31
0.0
  0
LINE
  5
312B
330
1E
100
AcDbEntity
  8
7
100
AcDbLine
 10
2.428149606299212
 20
5.04527559055118
 30
0.0
 11
2.216535433070866
 21
5.04527559055118
 31
0.0
  0
LINE
  5
312C
330
1E
100
AcDbEntity
  8
7
100
AcDbLine
 10
1.996062992125984
 20
5.638779527559054
 30
0.0
 11
1.998031496062992
 21
5.61023622047244
 31
0.0
  0
LINE
  5
312D
330
1E
100
AcDbEntity
  8
7
100
AcDbLine
 10
1.998031496062992
 20
5.61023622047244
 30
0.0
 11
2.0
 21
5.576771653543306
 31
0.0
  0
LINE
  5
312E
330
1E
100
AcDbEntity
  8
7
100
AcDbLine
 10
2.0
 20
5.576771653543306
 30
0.0
 11
2.0
 21
5.574803149606299
 31
0.0
  0
LINE
  5
312F
330
1E
100
AcDbEntity
  8
7
100
AcDbLine
 10
1.987204724409448
 20
5.812992125984251
 30
0.0
 11
1.987204724409448
 21
5.806102362204724
 31
0.0
  0
LINE
  5
3130
330
1E
100
AcDbEntity
  8
7
100
AcDbLine
 10
1.987204724409448
 20
5.806102362204724
 30
0.0
 11
1.991141732283464
 21
5.742125984251968
 31
0.0
  0
LINE
  5
3131
330
1E
100
AcDbEntity
  8
7
100
AcDbLine
 10
1.991141732283464
 20
5.742125984251968
 30
0.0
 11
1.992125984251968
 21
5.719488188976377
 31
0.0
  0
LINE
  5
3132
330
1E
100
AcDbEntity
  8
7
100
AcDbLine
 10
1.992125984251968
 20
5.719488188976377
 30
0.0
 11
1.993110236220472
 21
5.700787401574802
 31
0.0
  0
LINE
  5
3133
330
1E
100
AcDbEntity
  8
7
100
AcDbLine
 10
1.96751968503937
 20
3.447834645669291
 30
0.0
 11
1.96751968503937
 21
3.450787401574803
 31
0.0
  0
LINE
  5
3134
330
1E
100
AcDbEntity
  8
7
100
AcDbLine
 10
1.96751968503937
 20
3.450787401574803
 30
0.0
 11
1.96751968503937
 21
3.457677165354331
 31
0.0
  0
LINE
  5
3135
330
1E
100
AcDbEntity
  8
7
100
AcDbLine
 10
1.825787401574803
 20
3.457677165354331
 30
0.0
 11
1.825787401574803
 21
3.450787401574803
 31
0.0
  0
LINE
  5
3136
330
1E
100
AcDbEntity
  8
7
100
AcDbLine
 10
1.825787401574803
 20
3.450787401574803
 30
0.0
 11
1.825787401574803
 21
3.447834645669291
 31
0.0
  0
LINE
  5
3137
330
1E
100
AcDbEntity
  8
7
100
AcDbLine
 10
1.977362204724409
 20
3.457677165354331
 30
0.0
 11
1.974409448818897
 21
3.457677165354331
 31
0.0
  0
LINE
  5
3138
330
1E
100
AcDbEntity
  8
7
100
AcDbLine
 10
1.974409448818897
 20
3.457677165354331
 30
0.0
 11
1.96751968503937
 21
3.457677165354331
 31
0.0
  0
LINE
  5
3139
330
1E
100
AcDbEntity
  8
7
100
AcDbLine
 10
1.977362204724409
 20
3.483267716535432
 30
0.0
 11
1.974409448818897
 21
3.483267716535432
 31
0.0
  0
LINE
  5
313A
330
1E
100
AcDbEntity
  8
7
100
AcDbLine
 10
1.974409448818897
 20
3.483267716535432
 30
0.0
 11
1.96751968503937
 21
3.483267716535432
 31
0.0
  0
LINE
  5
313B
330
1E
100
AcDbEntity
  8
7
100
AcDbLine
 10
1.825787401574803
 20
3.483267716535432
 30
0.0
 11
1.818897637795275
 21
3.483267716535432
 31
0.0
  0
LINE
  5
313C
330
1E
100
AcDbEntity
  8
7
100
AcDbLine
 10
1.818897637795275
 20
3.483267716535432
 30
0.0
 11
1.815944881889763
 21
3.483267716535432
 31
0.0
  0
LINE
  5
313D
330
1E
100
AcDbEntity
  8
7
100
AcDbLine
 10
1.825787401574803
 20
3.483267716535432
 30
0.0
 11
1.825787401574803
 21
3.49015748031496
 31
0.0
  0
LINE
  5
313E
330
1E
100
AcDbEntity
  8
7
100
AcDbLine
 10
1.825787401574803
 20
3.49015748031496
 30
0.0
 11
1.825787401574803
 21
3.493110236220472
 31
0.0
  0
LINE
  5
313F
330
1E
100
AcDbEntity
  8
7
100
AcDbLine
 10
1.96751968503937
 20
3.493110236220472
 30
0.0
 11
1.96751968503937
 21
3.49015748031496
 31
0.0
  0
LINE
  5
3140
330
1E
100
AcDbEntity
  8
7
100
AcDbLine
 10
1.96751968503937
 20
3.49015748031496
 30
0.0
 11
1.96751968503937
 21
3.483267716535432
 31
0.0
  0
LINE
  5
3141
330
1E
100
AcDbEntity
  8
7
100
AcDbLine
 10
1.825787401574803
 20
3.447834645669291
 30
0.0
 11
1.818897637795275
 21
3.450787401574803
 31
0.0
  0
LINE
  5
3142
330
1E
100
AcDbEntity
  8
7
100
AcDbLine
 10
1.818897637795275
 20
3.450787401574803
 30
0.0
 11
1.815944881889763
 21
3.457677165354331
 31
0.0
  0
LINE
  5
3143
330
1E
100
AcDbEntity
  8
7
100
AcDbLine
 10
1.815944881889763
 20
3.483267716535432
 30
0.0
 11
1.818897637795275
 21
3.49015748031496
 31
0.0
  0
LINE
  5
3144
330
1E
100
AcDbEntity
  8
7
100
AcDbLine
 10
1.818897637795275
 20
3.49015748031496
 30
0.0
 11
1.825787401574803
 21
3.493110236220472
 31
0.0
  0
LINE
  5
3145
330
1E
100
AcDbEntity
  8
7
100
AcDbLine
 10
1.96751968503937
 20
3.493110236220472
 30
0.0
 11
1.974409448818897
 21
3.49015748031496
 31
0.0
  0
LINE
  5
3146
330
1E
100
AcDbEntity
  8
7
100
AcDbLine
 10
1.974409448818897
 20
3.49015748031496
 30
0.0
 11
1.977362204724409
 21
3.483267716535432
 31
0.0
  0
LINE
  5
3147
330
1E
100
AcDbEntity
  8
7
100
AcDbLine
 10
1.977362204724409
 20
3.457677165354331
 30
0.0
 11
1.974409448818897
 21
3.450787401574803
 31
0.0
  0
LINE
  5
3148
330
1E
100
AcDbEntity
  8
7
100
AcDbLine
 10
1.974409448818897
 20
3.450787401574803
 30
0.0
 11
1.96751968503937
 21
3.447834645669291
 31
0.0
  0
LINE
  5
3149
330
1E
100
AcDbEntity
  8
7
100
AcDbLine
 10
1.815944881889763
 20
3.457677165354331
 30
0.0
 11
1.815944881889763
 21
3.483267716535432
 31
0.0
  0
LINE
  5
314A
330
1E
100
AcDbEntity
  8
7
100
AcDbLine
 10
1.815944881889763
 20
3.483267716535432
 30
0.0
 11
1.812992125984251
 21
3.483267716535432
 31
0.0
  0
LINE
  5
314B
330
1E
100
AcDbEntity
  8
7
100
AcDbLine
 10
1.980314960629921
 20
3.483267716535432
 30
0.0
 11
1.977362204724409
 21
3.483267716535432
 31
0.0
  0
LINE
  5
314C
330
1E
100
AcDbEntity
  8
7
100
AcDbLine
 10
1.977362204724409
 20
3.483267716535432
 30
0.0
 11
1.977362204724409
 21
3.457677165354331
 31
0.0
  0
LINE
  5
314D
330
1E
100
AcDbEntity
  8
7
100
AcDbLine
 10
1.977362204724409
 20
3.457677165354331
 30
0.0
 11
1.980314960629921
 21
3.457677165354331
 31
0.0
  0
LINE
  5
314E
330
1E
100
AcDbEntity
  8
7
100
AcDbLine
 10
1.825787401574803
 20
3.483267716535432
 30
0.0
 11
1.825787401574803
 21
3.457677165354331
 31
0.0
  0
LINE
  5
314F
330
1E
100
AcDbEntity
  8
7
100
AcDbLine
 10
1.825787401574803
 20
3.457677165354331
 30
0.0
 11
1.96751968503937
 21
3.457677165354331
 31
0.0
  0
LINE
  5
3150
330
1E
100
AcDbEntity
  8
7
100
AcDbLine
 10
1.96751968503937
 20
3.457677165354331
 30
0.0
 11
1.96751968503937
 21
3.483267716535432
 31
0.0
  0
LINE
  5
3151
330
1E
100
AcDbEntity
  8
7
100
AcDbLine
 10
1.96751968503937
 20
3.483267716535432
 30
0.0
 11
1.825787401574803
 21
3.483267716535432
 31
0.0
  0
LINE
  5
3152
330
1E
100
AcDbEntity
  8
7
100
AcDbLine
 10
1.606299212598425
 20
3.447834645669291
 30
0.0
 11
1.609251968503937
 21
3.450787401574803
 31
0.0
  0
LINE
  5
3153
330
1E
100
AcDbEntity
  8
7
100
AcDbLine
 10
1.609251968503937
 20
3.450787401574803
 30
0.0
 11
1.617125984251968
 21
3.457677165354331
 31
0.0
  0
LINE
  5
3154
330
1E
100
AcDbEntity
  8
7
100
AcDbLine
 10
1.822834645669291
 20
3.447834645669291
 30
0.0
 11
1.815944881889763
 21
3.450787401574803
 31
0.0
  0
LINE
  5
3155
330
1E
100
AcDbEntity
  8
7
100
AcDbLine
 10
1.815944881889763
 20
3.450787401574803
 30
0.0
 11
1.812992125984251
 21
3.457677165354331
 31
0.0
  0
LINE
  5
3156
330
1E
100
AcDbEntity
  8
7
100
AcDbLine
 10
1.617125984251968
 20
3.483267716535432
 30
0.0
 11
1.609251968503937
 21
3.49015748031496
 31
0.0
  0
LINE
  5
3157
330
1E
100
AcDbEntity
  8
7
100
AcDbLine
 10
1.609251968503937
 20
3.49015748031496
 30
0.0
 11
1.606299212598425
 21
3.493110236220472
 31
0.0
  0
LINE
  5
3158
330
1E
100
AcDbEntity
  8
7
100
AcDbLine
 10
1.812992125984251
 20
3.483267716535432
 30
0.0
 11
1.815944881889763
 21
3.49015748031496
 31
0.0
  0
LINE
  5
3159
330
1E
100
AcDbEntity
  8
7
100
AcDbLine
 10
1.815944881889763
 20
3.49015748031496
 30
0.0
 11
1.822834645669291
 21
3.493110236220472
 31
0.0
  0
LINE
  5
315A
330
1E
100
AcDbEntity
  8
7
100
AcDbLine
 10
1.96751968503937
 20
3.447834645669291
 30
0.0
 11
1.825787401574803
 21
3.447834645669291
 31
0.0
  0
LINE
  5
315B
330
1E
100
AcDbEntity
  8
7
100
AcDbLine
 10
1.825787401574803
 20
3.447834645669291
 30
0.0
 11
1.824803149606299
 21
3.447834645669291
 31
0.0
  0
LINE
  5
315C
330
1E
100
AcDbEntity
  8
7
100
AcDbLine
 10
1.812992125984251
 20
3.483267716535432
 30
0.0
 11
1.617125984251968
 21
3.483267716535432
 31
0.0
  0
LINE
  5
315D
330
1E
100
AcDbEntity
  8
7
100
AcDbLine
 10
1.617125984251968
 20
3.483267716535432
 30
0.0
 11
1.617125984251968
 21
3.457677165354331
 31
0.0
  0
LINE
  5
315E
330
1E
100
AcDbEntity
  8
7
100
AcDbLine
 10
1.617125984251968
 20
3.457677165354331
 30
0.0
 11
1.812992125984251
 21
3.457677165354331
 31
0.0
  0
LINE
  5
315F
330
1E
100
AcDbEntity
  8
7
100
AcDbLine
 10
1.825787401574803
 20
3.493110236220472
 30
0.0
 11
1.96751968503937
 21
3.493110236220472
 31
0.0
  0
LINE
  5
3160
330
1E
100
AcDbEntity
  8
7
100
AcDbLine
 10
1.96751968503937
 20
3.493110236220472
 30
0.0
 11
1.970472440944881
 21
3.493110236220472
 31
0.0
  0
LINE
  5
3161
330
1E
100
AcDbEntity
  8
7
100
AcDbLine
 10
2.187007874015748
 20
3.447834645669291
 30
0.0
 11
2.184055118110236
 21
3.450787401574803
 31
0.0
  0
LINE
  5
3162
330
1E
100
AcDbEntity
  8
7
100
AcDbLine
 10
2.184055118110236
 20
3.450787401574803
 30
0.0
 11
2.177165354330708
 21
3.457677165354331
 31
0.0
  0
LINE
  5
3163
330
1E
100
AcDbEntity
  8
7
100
AcDbLine
 10
1.980314960629921
 20
3.457677165354331
 30
0.0
 11
1.977362204724409
 21
3.450787401574803
 31
0.0
  0
LINE
  5
3164
330
1E
100
AcDbEntity
  8
7
100
AcDbLine
 10
1.977362204724409
 20
3.450787401574803
 30
0.0
 11
1.970472440944881
 21
3.447834645669291
 31
0.0
  0
LINE
  5
3165
330
1E
100
AcDbEntity
  8
7
100
AcDbLine
 10
2.177165354330708
 20
3.483267716535432
 30
0.0
 11
2.184055118110236
 21
3.49015748031496
 31
0.0
  0
LINE
  5
3166
330
1E
100
AcDbEntity
  8
7
100
AcDbLine
 10
2.184055118110236
 20
3.49015748031496
 30
0.0
 11
2.187007874015748
 21
3.493110236220472
 31
0.0
  0
LINE
  5
3167
330
1E
100
AcDbEntity
  8
7
100
AcDbLine
 10
1.970472440944881
 20
3.493110236220472
 30
0.0
 11
1.977362204724409
 21
3.49015748031496
 31
0.0
  0
LINE
  5
3168
330
1E
100
AcDbEntity
  8
7
100
AcDbLine
 10
1.977362204724409
 20
3.49015748031496
 30
0.0
 11
1.980314960629921
 21
3.483267716535432
 31
0.0
  0
LINE
  5
3169
330
1E
100
AcDbEntity
  8
7
100
AcDbLine
 10
1.980314960629921
 20
3.457677165354331
 30
0.0
 11
2.177165354330708
 21
3.457677165354331
 31
0.0
  0
LINE
  5
316A
330
1E
100
AcDbEntity
  8
7
100
AcDbLine
 10
2.177165354330708
 20
3.457677165354331
 30
0.0
 11
2.177165354330708
 21
3.483267716535432
 31
0.0
  0
LINE
  5
316B
330
1E
100
AcDbEntity
  8
7
100
AcDbLine
 10
2.177165354330708
 20
3.483267716535432
 30
0.0
 11
1.980314960629921
 21
3.483267716535432
 31
0.0
  0
LINE
  5
316C
330
1E
100
AcDbEntity
  8
7
100
AcDbLine
 10
2.211614173228346
 20
4.241141732283463
 30
0.0
 11
1.581692913385826
 21
4.241141732283463
 31
0.0
  0
LINE
  5
316D
330
1E
100
AcDbEntity
  8
7
100
AcDbLine
 10
1.581692913385826
 20
4.241141732283463
 30
0.0
 11
1.36515748031496
 21
4.241141732283463
 31
0.0
  0
LINE
  5
316E
330
1E
100
AcDbEntity
  8
7
100
AcDbLine
 10
1.36515748031496
 20
4.241141732283463
 30
0.0
 11
1.367125984251968
 21
4.24015748031496
 31
0.0
  0
LINE
  5
316F
330
1E
100
AcDbEntity
  8
7
100
AcDbLine
 10
1.347440944881889
 20
4.219488188976377
 30
0.0
 11
1.345472440944881
 21
4.221456692913385
 31
0.0
  0
LINE
  5
3170
330
1E
100
AcDbEntity
  8
7
100
AcDbLine
 10
1.345472440944881
 20
4.221456692913385
 30
0.0
 11
1.345472440944881
 21
4.039370078740157
 31
0.0
  0
LINE
  5
3171
330
1E
100
AcDbEntity
  8
7
100
AcDbLine
 10
2.431102362204724
 20
3.37007874015748
 30
0.0
 11
2.441929133858267
 21
3.37007874015748
 31
0.0
  0
LINE
  5
3172
330
1E
100
AcDbEntity
  8
7
100
AcDbLine
 10
2.441929133858267
 20
3.37007874015748
 30
0.0
 11
2.446850393700787
 21
3.37007874015748
 31
0.0
  0
LINE
  5
3173
330
1E
100
AcDbEntity
  8
7
100
AcDbLine
 10
2.446850393700787
 20
3.37007874015748
 30
0.0
 11
2.440944881889763
 21
3.356299212598425
 31
0.0
  0
LINE
  5
3174
330
1E
100
AcDbEntity
  8
7
100
AcDbLine
 10
2.440944881889763
 20
3.356299212598425
 30
0.0
 11
2.426181102362204
 21
3.350393700787401
 31
0.0
  0
LINE
  5
3175
330
1E
100
AcDbEntity
  8
7
100
AcDbLine
 10
2.426181102362204
 20
3.36515748031496
 30
0.0
 11
2.426181102362204
 21
3.354330708661417
 31
0.0
  0
LINE
  5
3176
330
1E
100
AcDbEntity
  8
7
100
AcDbLine
 10
2.426181102362204
 20
3.354330708661417
 30
0.0
 11
2.426181102362204
 21
3.350393700787401
 31
0.0
  0
LINE
  5
3177
330
1E
100
AcDbEntity
  8
7
100
AcDbLine
 10
2.426181102362204
 20
4.24015748031496
 30
0.0
 11
2.440944881889763
 21
4.234251968503937
 31
0.0
  0
LINE
  5
3178
330
1E
100
AcDbEntity
  8
7
100
AcDbLine
 10
2.440944881889763
 20
4.234251968503937
 30
0.0
 11
2.446850393700787
 21
4.219488188976377
 31
0.0
  0
LINE
  5
3179
330
1E
100
AcDbEntity
  8
7
100
AcDbLine
 10
2.431102362204724
 20
4.219488188976377
 30
0.0
 11
2.441929133858267
 21
4.219488188976377
 31
0.0
  0
LINE
  5
317A
330
1E
100
AcDbEntity
  8
7
100
AcDbLine
 10
2.441929133858267
 20
4.219488188976377
 30
0.0
 11
2.446850393700787
 21
4.219488188976377
 31
0.0
  0
LINE
  5
317B
330
1E
100
AcDbEntity
  8
7
100
AcDbLine
 10
2.426181102362204
 20
4.24015748031496
 30
0.0
 11
2.426181102362204
 21
4.23523622047244
 31
0.0
  0
LINE
  5
317C
330
1E
100
AcDbEntity
  8
7
100
AcDbLine
 10
2.426181102362204
 20
4.23523622047244
 30
0.0
 11
2.426181102362204
 21
4.224409448818897
 31
0.0
  0
LINE
  5
317D
330
1E
100
AcDbEntity
  8
7
100
AcDbLine
 10
1.347440944881889
 20
4.219488188976377
 30
0.0
 11
1.352362204724409
 21
4.234251968503937
 31
0.0
  0
LINE
  5
317E
330
1E
100
AcDbEntity
  8
7
100
AcDbLine
 10
1.352362204724409
 20
4.234251968503937
 30
0.0
 11
1.367125984251968
 21
4.24015748031496
 31
0.0
  0
LINE
  5
317F
330
1E
100
AcDbEntity
  8
7
100
AcDbLine
 10
1.367125984251968
 20
4.24015748031496
 30
0.0
 11
1.367125984251968
 21
4.23523622047244
 31
0.0
  0
LINE
  5
3180
330
1E
100
AcDbEntity
  8
7
100
AcDbLine
 10
1.367125984251968
 20
4.23523622047244
 30
0.0
 11
1.367125984251968
 21
4.224409448818897
 31
0.0
  0
LINE
  5
3181
330
1E
100
AcDbEntity
  8
7
100
AcDbLine
 10
1.347440944881889
 20
4.219488188976377
 30
0.0
 11
1.351377952755905
 21
4.219488188976377
 31
0.0
  0
LINE
  5
3182
330
1E
100
AcDbEntity
  8
7
100
AcDbLine
 10
1.351377952755905
 20
4.219488188976377
 30
0.0
 11
1.362204724409448
 21
4.219488188976377
 31
0.0
  0
LINE
  5
3183
330
1E
100
AcDbEntity
  8
7
100
AcDbLine
 10
1.367125984251968
 20
3.36515748031496
 30
0.0
 11
1.367125984251968
 21
3.354330708661417
 31
0.0
  0
LINE
  5
3184
330
1E
100
AcDbEntity
  8
7
100
AcDbLine
 10
1.367125984251968
 20
3.354330708661417
 30
0.0
 11
1.367125984251968
 21
3.350393700787401
 31
0.0
  0
LINE
  5
3185
330
1E
100
AcDbEntity
  8
7
100
AcDbLine
 10
1.367125984251968
 20
3.350393700787401
 30
0.0
 11
1.352362204724409
 21
3.356299212598425
 31
0.0
  0
LINE
  5
3186
330
1E
100
AcDbEntity
  8
7
100
AcDbLine
 10
1.352362204724409
 20
3.356299212598425
 30
0.0
 11
1.347440944881889
 21
3.37007874015748
 31
0.0
  0
LINE
  5
3187
330
1E
100
AcDbEntity
  8
7
100
AcDbLine
 10
1.347440944881889
 20
3.37007874015748
 30
0.0
 11
1.351377952755905
 21
3.37007874015748
 31
0.0
  0
LINE
  5
3188
330
1E
100
AcDbEntity
  8
7
100
AcDbLine
 10
1.351377952755905
 20
3.37007874015748
 30
0.0
 11
1.362204724409448
 21
3.37007874015748
 31
0.0
  0
LINE
  5
3189
330
1E
100
AcDbEntity
  8
7
100
AcDbLine
 10
2.448818897637795
 20
4.221456692913385
 30
0.0
 11
2.442913385826771
 21
4.236220472440944
 31
0.0
  0
LINE
  5
318A
330
1E
100
AcDbEntity
  8
7
100
AcDbLine
 10
2.442913385826771
 20
4.236220472440944
 30
0.0
 11
2.428149606299212
 21
4.241141732283463
 31
0.0
  0
LINE
  5
318B
330
1E
100
AcDbEntity
  8
7
100
AcDbLine
 10
1.345472440944881
 20
3.368110236220472
 30
0.0
 11
1.351377952755905
 21
3.354330708661417
 31
0.0
  0
LINE
  5
318C
330
1E
100
AcDbEntity
  8
7
100
AcDbLine
 10
1.351377952755905
 20
3.354330708661417
 30
0.0
 11
1.36515748031496
 21
3.348425196850393
 31
0.0
  0
LINE
  5
318D
330
1E
100
AcDbEntity
  8
7
100
AcDbLine
 10
2.428149606299212
 20
3.348425196850393
 30
0.0
 11
2.442913385826771
 21
3.354330708661417
 31
0.0
  0
LINE
  5
318E
330
1E
100
AcDbEntity
  8
7
100
AcDbLine
 10
2.442913385826771
 20
3.354330708661417
 30
0.0
 11
2.448818897637795
 21
3.368110236220472
 31
0.0
  0
LINE
  5
318F
330
1E
100
AcDbEntity
  8
7
100
AcDbLine
 10
1.350393700787401
 20
4.23523622047244
 30
0.0
 11
1.347440944881889
 21
4.231299212598425
 31
0.0
  0
LINE
  5
3190
330
1E
100
AcDbEntity
  8
7
100
AcDbLine
 10
1.347440944881889
 20
4.231299212598425
 30
0.0
 11
1.345472440944881
 21
4.227362204724409
 31
0.0
  0
LINE
  5
3191
330
1E
100
AcDbEntity
  8
7
100
AcDbLine
 10
1.345472440944881
 20
4.227362204724409
 30
0.0
 11
1.344488188976378
 21
4.222440944881889
 31
0.0
  0
LINE
  5
3192
330
1E
100
AcDbEntity
  8
7
100
AcDbLine
 10
1.344488188976378
 20
3.368110236220472
 30
0.0
 11
1.345472440944881
 21
3.363188976377952
 31
0.0
  0
LINE
  5
3193
330
1E
100
AcDbEntity
  8
7
100
AcDbLine
 10
1.345472440944881
 20
3.363188976377952
 30
0.0
 11
1.347440944881889
 21
3.358267716535433
 31
0.0
  0
LINE
  5
3194
330
1E
100
AcDbEntity
  8
7
100
AcDbLine
 10
1.347440944881889
 20
3.358267716535433
 30
0.0
 11
1.350393700787401
 21
3.354330708661417
 31
0.0
  0
LINE
  5
3195
330
1E
100
AcDbEntity
  8
7
100
AcDbLine
 10
1.341535433070866
 20
3.36515748031496
 30
0.0
 11
1.347440944881889
 21
3.350393700787401
 31
0.0
  0
LINE
  5
3196
330
1E
100
AcDbEntity
  8
7
100
AcDbLine
 10
1.347440944881889
 20
3.350393700787401
 30
0.0
 11
1.362204724409448
 21
3.344488188976378
 31
0.0
  0
LINE
  5
3197
330
1E
100
AcDbEntity
  8
7
100
AcDbLine
 10
1.362204724409448
 20
4.245078740157479
 30
0.0
 11
1.347440944881889
 21
4.239173228346456
 31
0.0
  0
LINE
  5
3198
330
1E
100
AcDbEntity
  8
7
100
AcDbLine
 10
1.347440944881889
 20
4.239173228346456
 30
0.0
 11
1.341535433070866
 21
4.2253937007874
 31
0.0
  0
LINE
  5
3199
330
1E
100
AcDbEntity
  8
7
100
AcDbLine
 10
1.344488188976378
 20
4.107283464566928
 30
0.0
 11
1.344488188976378
 21
4.101377952755905
 31
0.0
  0
LINE
  5
319A
330
1E
100
AcDbEntity
  8
7
100
AcDbLine
 10
1.344488188976378
 20
4.101377952755905
 30
0.0
 11
1.344488188976378
 21
4.08759842519685
 31
0.0
  0
LINE
  5
319B
330
1E
100
AcDbEntity
  8
7
100
AcDbLine
 10
1.344488188976378
 20
3.482283464566929
 30
0.0
 11
1.344488188976378
 21
3.488188976377953
 31
0.0
  0
LINE
  5
319C
330
1E
100
AcDbEntity
  8
7
100
AcDbLine
 10
1.344488188976378
 20
3.488188976377953
 30
0.0
 11
1.344488188976378
 21
3.501968503937007
 31
0.0
  0
LINE
  5
319D
330
1E
100
AcDbEntity
  8
7
100
AcDbLine
 10
1.341535433070866
 20
3.480314960629921
 30
0.0
 11
1.344488188976378
 21
3.482283464566929
 31
0.0
  0
LINE
  5
319E
330
1E
100
AcDbEntity
  8
7
100
AcDbLine
 10
1.344488188976378
 20
3.482283464566929
 30
0.0
 11
1.294291338582677
 21
3.482283464566929
 31
0.0
  0
LINE
  5
319F
330
1E
100
AcDbEntity
  8
7
100
AcDbLine
 10
1.069881889763779
 20
3.441929133858268
 30
0.0
 11
1.074803149606299
 21
3.418307086614173
 31
0.0
  0
LINE
  5
31A0
330
1E
100
AcDbEntity
  8
7
100
AcDbLine
 10
1.074803149606299
 20
3.418307086614173
 30
0.0
 11
1.08759842519685
 21
3.398622047244094
 31
0.0
  0
LINE
  5
31A1
330
1E
100
AcDbEntity
  8
7
100
AcDbLine
 10
1.08759842519685
 20
3.398622047244094
 30
0.0
 11
1.107283464566929
 21
3.385826771653543
 31
0.0
  0
LINE
  5
31A2
330
1E
100
AcDbEntity
  8
7
100
AcDbLine
 10
1.107283464566929
 20
3.385826771653543
 30
0.0
 11
1.129921259842519
 21
3.381889763779527
 31
0.0
  0
LINE
  5
31A3
330
1E
100
AcDbEntity
  8
7
100
AcDbLine
 10
1.085629921259842
 20
3.643700787401574
 30
0.0
 11
1.073818897637795
 21
3.632874015748031
 31
0.0
  0
LINE
  5
31A4
330
1E
100
AcDbEntity
  8
7
100
AcDbLine
 10
1.073818897637795
 20
3.632874015748031
 30
0.0
 11
1.069881889763779
 21
3.617125984251968
 31
0.0
  0
LINE
  5
31A5
330
1E
100
AcDbEntity
  8
7
100
AcDbLine
 10
1.069881889763779
 20
3.97244094488189
 30
0.0
 11
1.073818897637795
 21
3.957677165354331
 31
0.0
  0
LINE
  5
31A6
330
1E
100
AcDbEntity
  8
7
100
AcDbLine
 10
1.073818897637795
 20
3.957677165354331
 30
0.0
 11
1.085629921259842
 21
3.946850393700787
 31
0.0
  0
LINE
  5
31A7
330
1E
100
AcDbEntity
  8
7
100
AcDbLine
 10
1.085629921259842
 20
3.946850393700787
 30
0.0
 11
1.100393700787401
 21
3.942913385826771
 31
0.0
  0
LINE
  5
31A8
330
1E
100
AcDbEntity
  8
7
100
AcDbLine
 10
1.100393700787401
 20
3.942913385826771
 30
0.0
 11
1.11515748031496
 21
3.937992125984252
 31
0.0
  0
LINE
  5
31A9
330
1E
100
AcDbEntity
  8
7
100
AcDbLine
 10
1.11515748031496
 20
3.937992125984252
 30
0.0
 11
1.125984251968503
 21
3.927165354330708
 31
0.0
  0
LINE
  5
31AA
330
1E
100
AcDbEntity
  8
7
100
AcDbLine
 10
1.125984251968503
 20
3.927165354330708
 30
0.0
 11
1.129921259842519
 21
3.912401574803149
 31
0.0
  0
LINE
  5
31AB
330
1E
100
AcDbEntity
  8
7
100
AcDbLine
 10
1.129921259842519
 20
3.912401574803149
 30
0.0
 11
1.129921259842519
 21
3.677165354330708
 31
0.0
  0
LINE
  5
31AC
330
1E
100
AcDbEntity
  8
7
100
AcDbLine
 10
1.129921259842519
 20
3.677165354330708
 30
0.0
 11
1.125984251968503
 21
3.662401574803149
 31
0.0
  0
LINE
  5
31AD
330
1E
100
AcDbEntity
  8
7
100
AcDbLine
 10
1.125984251968503
 20
3.662401574803149
 30
0.0
 11
1.11515748031496
 21
3.651574803149606
 31
0.0
  0
LINE
  5
31AE
330
1E
100
AcDbEntity
  8
7
100
AcDbLine
 10
1.11515748031496
 20
3.651574803149606
 30
0.0
 11
1.100393700787401
 21
3.64763779527559
 31
0.0
  0
LINE
  5
31AF
330
1E
100
AcDbEntity
  8
7
100
AcDbLine
 10
1.100393700787401
 20
3.64763779527559
 30
0.0
 11
1.085629921259842
 21
3.643700787401574
 31
0.0
  0
LINE
  5
31B0
330
1E
100
AcDbEntity
  8
7
100
AcDbLine
 10
1.129921259842519
 20
4.208661417322834
 30
0.0
 11
1.107283464566929
 21
4.203740157480314
 31
0.0
  0
LINE
  5
31B1
330
1E
100
AcDbEntity
  8
7
100
AcDbLine
 10
1.107283464566929
 20
4.203740157480314
 30
0.0
 11
1.08759842519685
 21
4.190944881889762
 31
0.0
  0
LINE
  5
31B2
330
1E
100
AcDbEntity
  8
7
100
AcDbLine
 10
1.08759842519685
 20
4.190944881889762
 30
0.0
 11
1.074803149606299
 21
4.171259842519684
 31
0.0
  0
LINE
  5
31B3
330
1E
100
AcDbEntity
  8
7
100
AcDbLine
 10
1.074803149606299
 20
4.171259842519684
 30
0.0
 11
1.069881889763779
 21
4.148622047244094
 31
0.0
  0
LINE
  5
31B4
330
1E
100
AcDbEntity
  8
7
100
AcDbLine
 10
1.294291338582677
 20
4.08759842519685
 30
0.0
 11
1.294291338582677
 21
4.101377952755905
 31
0.0
  0
LINE
  5
31B5
330
1E
100
AcDbEntity
  8
7
100
AcDbLine
 10
1.294291338582677
 20
4.101377952755905
 30
0.0
 11
1.294291338582677
 21
4.107283464566928
 31
0.0
  0
LINE
  5
31B6
330
1E
100
AcDbEntity
  8
7
100
AcDbLine
 10
1.294291338582677
 20
3.501968503937007
 30
0.0
 11
1.294291338582677
 21
3.488188976377953
 31
0.0
  0
LINE
  5
31B7
330
1E
100
AcDbEntity
  8
7
100
AcDbLine
 10
1.294291338582677
 20
3.488188976377953
 30
0.0
 11
1.294291338582677
 21
3.482283464566929
 31
0.0
  0
LINE
  5
31B8
330
1E
100
AcDbEntity
  8
7
100
AcDbLine
 10
1.289370078740157
 20
3.506889763779527
 30
0.0
 11
1.275590551181102
 21
3.506889763779527
 31
0.0
  0
LINE
  5
31B9
330
1E
100
AcDbEntity
  8
7
100
AcDbLine
 10
1.275590551181102
 20
3.506889763779527
 30
0.0
 11
1.268700787401574
 21
3.506889763779527
 31
0.0
  0
LINE
  5
31BA
330
1E
100
AcDbEntity
  8
7
100
AcDbLine
 10
1.289370078740157
 20
4.08267716535433
 30
0.0
 11
1.275590551181102
 21
4.08267716535433
 31
0.0
  0
LINE
  5
31BB
330
1E
100
AcDbEntity
  8
7
100
AcDbLine
 10
1.275590551181102
 20
4.08267716535433
 30
0.0
 11
1.268700787401574
 21
4.08267716535433
 31
0.0
  0
LINE
  5
31BC
330
1E
100
AcDbEntity
  8
7
100
AcDbLine
 10
1.291338582677165
 20
3.480314960629921
 30
0.0
 11
1.279527559055118
 21
3.483267716535432
 31
0.0
  0
LINE
  5
31BD
330
1E
100
AcDbEntity
  8
7
100
AcDbLine
 10
1.279527559055118
 20
3.483267716535432
 30
0.0
 11
1.269685039370078
 21
3.492125984251968
 31
0.0
  0
LINE
  5
31BE
330
1E
100
AcDbEntity
  8
7
100
AcDbLine
 10
1.269685039370078
 20
3.492125984251968
 30
0.0
 11
1.266732283464566
 21
3.504921259842519
 31
0.0
  0
LINE
  5
31BF
330
1E
100
AcDbEntity
  8
7
100
AcDbLine
 10
1.281496062992125
 20
3.485236220472441
 30
0.0
 11
1.27263779527559
 21
3.49507874015748
 31
0.0
  0
LINE
  5
31C0
330
1E
100
AcDbEntity
  8
7
100
AcDbLine
 10
1.27263779527559
 20
3.49507874015748
 30
0.0
 11
1.268700787401574
 21
3.506889763779527
 31
0.0
  0
LINE
  5
31C1
330
1E
100
AcDbEntity
  8
7
100
AcDbLine
 10
1.266732283464566
 20
3.504921259842519
 30
0.0
 11
1.268700787401574
 21
3.506889763779527
 31
0.0
  0
LINE
  5
31C2
330
1E
100
AcDbEntity
  8
7
100
AcDbLine
 10
1.268700787401574
 20
3.506889763779527
 30
0.0
 11
1.268700787401574
 21
4.08267716535433
 31
0.0
  0
LINE
  5
31C3
330
1E
100
AcDbEntity
  8
7
100
AcDbLine
 10
1.247047244094488
 20
3.651574803149606
 30
0.0
 11
1.266732283464566
 21
3.651574803149606
 31
0.0
  0
LINE
  5
31C4
330
1E
100
AcDbEntity
  8
7
100
AcDbLine
 10
1.266732283464566
 20
3.651574803149606
 30
0.0
 11
1.26771653543307
 21
3.65255905511811
 31
0.0
  0
LINE
  5
31C5
330
1E
100
AcDbEntity
  8
7
100
AcDbLine
 10
1.26771653543307
 20
3.937007874015747
 30
0.0
 11
1.266732283464566
 21
3.937992125984252
 31
0.0
  0
LINE
  5
31C6
330
1E
100
AcDbEntity
  8
7
100
AcDbLine
 10
1.266732283464566
 20
3.937992125984252
 30
0.0
 11
1.247047244094488
 21
3.937992125984252
 31
0.0
  0
LINE
  5
31C7
330
1E
100
AcDbEntity
  8
7
100
AcDbLine
 10
1.266732283464566
 20
4.084645669291337
 30
0.0
 11
1.269685039370078
 21
4.097440944881889
 31
0.0
  0
LINE
  5
31C8
330
1E
100
AcDbEntity
  8
7
100
AcDbLine
 10
1.269685039370078
 20
4.097440944881889
 30
0.0
 11
1.279527559055118
 21
4.106299212598425
 31
0.0
  0
LINE
  5
31C9
330
1E
100
AcDbEntity
  8
7
100
AcDbLine
 10
1.279527559055118
 20
4.106299212598425
 30
0.0
 11
1.291338582677165
 21
4.11023622047244
 31
0.0
  0
LINE
  5
31CA
330
1E
100
AcDbEntity
  8
7
100
AcDbLine
 10
1.268700787401574
 20
4.08267716535433
 30
0.0
 11
1.27263779527559
 21
4.095472440944881
 31
0.0
  0
LINE
  5
31CB
330
1E
100
AcDbEntity
  8
7
100
AcDbLine
 10
1.27263779527559
 20
4.095472440944881
 30
0.0
 11
1.281496062992125
 21
4.104330708661416
 31
0.0
  0
LINE
  5
31CC
330
1E
100
AcDbEntity
  8
7
100
AcDbLine
 10
1.281496062992125
 20
4.104330708661416
 30
0.0
 11
1.294291338582677
 21
4.107283464566928
 31
0.0
  0
LINE
  5
31CD
330
1E
100
AcDbEntity
  8
7
100
AcDbLine
 10
1.069881889763779
 20
4.129921259842519
 30
0.0
 11
1.066929133858267
 21
4.123031496062991
 31
0.0
  0
LINE
  5
31CE
330
1E
100
AcDbEntity
  8
7
100
AcDbLine
 10
1.066929133858267
 20
4.123031496062991
 30
0.0
 11
1.06003937007874
 21
4.120078740157479
 31
0.0
  0
LINE
  5
31CF
330
1E
100
AcDbEntity
  8
7
100
AcDbLine
 10
1.041338582677165
 20
4.120078740157479
 30
0.0
 11
1.034448818897637
 21
4.117125984251968
 31
0.0
  0
LINE
  5
31D0
330
1E
100
AcDbEntity
  8
7
100
AcDbLine
 10
1.034448818897637
 20
4.117125984251968
 30
0.0
 11
1.031496062992125
 21
4.11023622047244
 31
0.0
  0
LINE
  5
31D1
330
1E
100
AcDbEntity
  8
7
100
AcDbLine
 10
1.031496062992125
 20
4.011811023622047
 30
0.0
 11
1.034448818897637
 21
4.004921259842519
 31
0.0
  0
LINE
  5
31D2
330
1E
100
AcDbEntity
  8
7
100
AcDbLine
 10
1.034448818897637
 20
4.004921259842519
 30
0.0
 11
1.041338582677165
 21
4.001968503937007
 31
0.0
  0
LINE
  5
31D3
330
1E
100
AcDbEntity
  8
7
100
AcDbLine
 10
1.06003937007874
 20
4.001968503937007
 30
0.0
 11
1.066929133858267
 21
3.999015748031495
 31
0.0
  0
LINE
  5
31D4
330
1E
100
AcDbEntity
  8
7
100
AcDbLine
 10
1.066929133858267
 20
3.999015748031495
 30
0.0
 11
1.069881889763779
 21
3.992125984251968
 31
0.0
  0
LINE
  5
31D5
330
1E
100
AcDbEntity
  8
7
100
AcDbLine
 10
1.069881889763779
 20
3.598425196850393
 30
0.0
 11
1.066929133858267
 21
3.590551181102362
 31
0.0
  0
LINE
  5
31D6
330
1E
100
AcDbEntity
  8
7
100
AcDbLine
 10
1.066929133858267
 20
3.590551181102362
 30
0.0
 11
1.06003937007874
 21
3.58759842519685
 31
0.0
  0
LINE
  5
31D7
330
1E
100
AcDbEntity
  8
7
100
AcDbLine
 10
1.041338582677165
 20
3.58759842519685
 30
0.0
 11
1.034448818897637
 21
3.584645669291338
 31
0.0
  0
LINE
  5
31D8
330
1E
100
AcDbEntity
  8
7
100
AcDbLine
 10
1.034448818897637
 20
3.584645669291338
 30
0.0
 11
1.031496062992125
 21
3.577755905511811
 31
0.0
  0
LINE
  5
31D9
330
1E
100
AcDbEntity
  8
7
100
AcDbLine
 10
1.031496062992125
 20
3.480314960629921
 30
0.0
 11
1.034448818897637
 21
3.47244094488189
 31
0.0
  0
LINE
  5
31DA
330
1E
100
AcDbEntity
  8
7
100
AcDbLine
 10
1.034448818897637
 20
3.47244094488189
 30
0.0
 11
1.041338582677165
 21
3.469488188976378
 31
0.0
  0
LINE
  5
31DB
330
1E
100
AcDbEntity
  8
7
100
AcDbLine
 10
1.06003937007874
 20
3.469488188976378
 30
0.0
 11
1.066929133858267
 21
3.467519685039369
 31
0.0
  0
LINE
  5
31DC
330
1E
100
AcDbEntity
  8
7
100
AcDbLine
 10
1.066929133858267
 20
3.467519685039369
 30
0.0
 11
1.069881889763779
 21
3.459645669291338
 31
0.0
  0
LINE
  5
31DD
330
1E
100
AcDbEntity
  8
7
100
AcDbLine
 10
2.432086614173228
 20
3.344488188976378
 30
0.0
 11
2.445866141732283
 21
3.350393700787401
 31
0.0
  0
LINE
  5
31DE
330
1E
100
AcDbEntity
  8
7
100
AcDbLine
 10
2.445866141732283
 20
3.350393700787401
 30
0.0
 11
2.451771653543306
 21
3.36515748031496
 31
0.0
  0
LINE
  5
31DF
330
1E
100
AcDbEntity
  8
7
100
AcDbLine
 10
2.442913385826771
 20
3.354330708661417
 30
0.0
 11
2.445866141732283
 21
3.358267716535433
 31
0.0
  0
LINE
  5
31E0
330
1E
100
AcDbEntity
  8
7
100
AcDbLine
 10
2.445866141732283
 20
3.358267716535433
 30
0.0
 11
2.447834645669291
 21
3.363188976377952
 31
0.0
  0
LINE
  5
31E1
330
1E
100
AcDbEntity
  8
7
100
AcDbLine
 10
2.447834645669291
 20
3.363188976377952
 30
0.0
 11
2.448818897637795
 21
3.368110236220472
 31
0.0
  0
LINE
  5
31E2
330
1E
100
AcDbEntity
  8
7
100
AcDbLine
 10
2.448818897637795
 20
3.501968503937007
 30
0.0
 11
2.448818897637795
 21
3.368110236220472
 31
0.0
  0
LINE
  5
31E3
330
1E
100
AcDbEntity
  8
7
100
AcDbLine
 10
2.448818897637795
 20
3.368110236220472
 30
0.0
 11
2.451771653543306
 21
3.36515748031496
 31
0.0
  0
LINE
  5
31E4
330
1E
100
AcDbEntity
  8
7
100
AcDbLine
 10
2.451771653543306
 20
4.2253937007874
 30
0.0
 11
2.445866141732283
 21
4.239173228346456
 31
0.0
  0
LINE
  5
31E5
330
1E
100
AcDbEntity
  8
7
100
AcDbLine
 10
2.445866141732283
 20
4.239173228346456
 30
0.0
 11
2.432086614173228
 21
4.245078740157479
 31
0.0
  0
LINE
  5
31E6
330
1E
100
AcDbEntity
  8
7
100
AcDbLine
 10
2.448818897637795
 20
4.222440944881889
 30
0.0
 11
2.447834645669291
 21
4.227362204724409
 31
0.0
  0
LINE
  5
31E7
330
1E
100
AcDbEntity
  8
7
100
AcDbLine
 10
2.447834645669291
 20
4.227362204724409
 30
0.0
 11
2.445866141732283
 21
4.231299212598425
 31
0.0
  0
LINE
  5
31E8
330
1E
100
AcDbEntity
  8
7
100
AcDbLine
 10
2.445866141732283
 20
4.231299212598425
 30
0.0
 11
2.442913385826771
 21
4.23523622047244
 31
0.0
  0
LINE
  5
31E9
330
1E
100
AcDbEntity
  8
7
100
AcDbLine
 10
2.723425196850393
 20
4.148622047244094
 30
0.0
 11
2.718503937007874
 21
4.171259842519684
 31
0.0
  0
LINE
  5
31EA
330
1E
100
AcDbEntity
  8
7
100
AcDbLine
 10
2.718503937007874
 20
4.171259842519684
 30
0.0
 11
2.705708661417322
 21
4.190944881889762
 31
0.0
  0
LINE
  5
31EB
330
1E
100
AcDbEntity
  8
7
100
AcDbLine
 10
2.705708661417322
 20
4.190944881889762
 30
0.0
 11
2.686023622047243
 21
4.203740157480314
 31
0.0
  0
LINE
  5
31EC
330
1E
100
AcDbEntity
  8
7
100
AcDbLine
 10
2.686023622047243
 20
4.203740157480314
 30
0.0
 11
2.663385826771653
 21
4.208661417322834
 31
0.0
  0
LINE
  5
31ED
330
1E
100
AcDbEntity
  8
7
100
AcDbLine
 10
2.723425196850393
 20
3.617125984251968
 30
0.0
 11
2.719488188976377
 21
3.632874015748031
 31
0.0
  0
LINE
  5
31EE
330
1E
100
AcDbEntity
  8
7
100
AcDbLine
 10
2.719488188976377
 20
3.632874015748031
 30
0.0
 11
2.708661417322834
 21
3.643700787401574
 31
0.0
  0
LINE
  5
31EF
330
1E
100
AcDbEntity
  8
7
100
AcDbLine
 10
2.708661417322834
 20
3.643700787401574
 30
0.0
 11
2.692913385826771
 21
3.64763779527559
 31
0.0
  0
LINE
  5
31F0
330
1E
100
AcDbEntity
  8
7
100
AcDbLine
 10
2.692913385826771
 20
3.64763779527559
 30
0.0
 11
2.678149606299212
 21
3.651574803149606
 31
0.0
  0
LINE
  5
31F1
330
1E
100
AcDbEntity
  8
7
100
AcDbLine
 10
2.678149606299212
 20
3.651574803149606
 30
0.0
 11
2.667322834645669
 21
3.662401574803149
 31
0.0
  0
LINE
  5
31F2
330
1E
100
AcDbEntity
  8
7
100
AcDbLine
 10
2.667322834645669
 20
3.662401574803149
 30
0.0
 11
2.663385826771653
 21
3.677165354330708
 31
0.0
  0
LINE
  5
31F3
330
1E
100
AcDbEntity
  8
7
100
AcDbLine
 10
2.663385826771653
 20
3.677165354330708
 30
0.0
 11
2.663385826771653
 21
3.912401574803149
 31
0.0
  0
LINE
  5
31F4
330
1E
100
AcDbEntity
  8
7
100
AcDbLine
 10
2.663385826771653
 20
3.912401574803149
 30
0.0
 11
2.667322834645669
 21
3.927165354330708
 31
0.0
  0
LINE
  5
31F5
330
1E
100
AcDbEntity
  8
7
100
AcDbLine
 10
2.667322834645669
 20
3.927165354330708
 30
0.0
 11
2.678149606299212
 21
3.937992125984252
 31
0.0
  0
LINE
  5
31F6
330
1E
100
AcDbEntity
  8
7
100
AcDbLine
 10
2.678149606299212
 20
3.937992125984252
 30
0.0
 11
2.692913385826771
 21
3.942913385826771
 31
0.0
  0
LINE
  5
31F7
330
1E
100
AcDbEntity
  8
7
100
AcDbLine
 10
2.692913385826771
 20
3.942913385826771
 30
0.0
 11
2.708661417322834
 21
3.946850393700787
 31
0.0
  0
LINE
  5
31F8
330
1E
100
AcDbEntity
  8
7
100
AcDbLine
 10
2.708661417322834
 20
3.946850393700787
 30
0.0
 11
2.719488188976377
 21
3.957677165354331
 31
0.0
  0
LINE
  5
31F9
330
1E
100
AcDbEntity
  8
7
100
AcDbLine
 10
2.719488188976377
 20
3.957677165354331
 30
0.0
 11
2.723425196850393
 21
3.97244094488189
 31
0.0
  0
LINE
  5
31FA
330
1E
100
AcDbEntity
  8
7
100
AcDbLine
 10
2.663385826771653
 20
3.381889763779527
 30
0.0
 11
2.686023622047243
 21
3.385826771653543
 31
0.0
  0
LINE
  5
31FB
330
1E
100
AcDbEntity
  8
7
100
AcDbLine
 10
2.686023622047243
 20
3.385826771653543
 30
0.0
 11
2.705708661417322
 21
3.398622047244094
 31
0.0
  0
LINE
  5
31FC
330
1E
100
AcDbEntity
  8
7
100
AcDbLine
 10
2.705708661417322
 20
3.398622047244094
 30
0.0
 11
2.718503937007874
 21
3.418307086614173
 31
0.0
  0
LINE
  5
31FD
330
1E
100
AcDbEntity
  8
7
100
AcDbLine
 10
2.718503937007874
 20
3.418307086614173
 30
0.0
 11
2.723425196850393
 21
3.441929133858268
 31
0.0
  0
LINE
  5
31FE
330
1E
100
AcDbEntity
  8
7
100
AcDbLine
 10
2.723425196850393
 20
3.992125984251968
 30
0.0
 11
2.726377952755905
 21
3.999015748031495
 31
0.0
  0
LINE
  5
31FF
330
1E
100
AcDbEntity
  8
7
100
AcDbLine
 10
2.726377952755905
 20
3.999015748031495
 30
0.0
 11
2.733267716535432
 21
4.001968503937007
 31
0.0
  0
LINE
  5
3200
330
1E
100
AcDbEntity
  8
7
100
AcDbLine
 10
2.733267716535432
 20
4.120078740157479
 30
0.0
 11
2.726377952755905
 21
4.123031496062991
 31
0.0
  0
LINE
  5
3201
330
1E
100
AcDbEntity
  8
7
100
AcDbLine
 10
2.726377952755905
 20
4.123031496062991
 30
0.0
 11
2.723425196850393
 21
4.129921259842519
 31
0.0
  0
LINE
  5
3202
330
1E
100
AcDbEntity
  8
7
100
AcDbLine
 10
2.723425196850393
 20
3.459645669291338
 30
0.0
 11
2.726377952755905
 21
3.467519685039369
 31
0.0
  0
LINE
  5
3203
330
1E
100
AcDbEntity
  8
7
100
AcDbLine
 10
2.726377952755905
 20
3.467519685039369
 30
0.0
 11
2.733267716535432
 21
3.469488188976378
 31
0.0
  0
LINE
  5
3204
330
1E
100
AcDbEntity
  8
7
100
AcDbLine
 10
2.733267716535432
 20
3.58759842519685
 30
0.0
 11
2.726377952755905
 21
3.590551181102362
 31
0.0
  0
LINE
  5
3205
330
1E
100
AcDbEntity
  8
7
100
AcDbLine
 10
2.726377952755905
 20
3.590551181102362
 30
0.0
 11
2.723425196850393
 21
3.598425196850393
 31
0.0
  0
LINE
  5
3206
330
1E
100
AcDbEntity
  8
7
100
AcDbLine
 10
2.449803149606299
 20
3.482283464566929
 30
0.0
 11
2.448818897637795
 21
3.488188976377953
 31
0.0
  0
LINE
  5
3207
330
1E
100
AcDbEntity
  8
7
100
AcDbLine
 10
2.448818897637795
 20
3.488188976377953
 30
0.0
 11
2.448818897637795
 21
3.501968503937007
 31
0.0
  0
LINE
  5
3208
330
1E
100
AcDbEntity
  8
7
100
AcDbLine
 10
2.448818897637795
 20
4.08759842519685
 30
0.0
 11
2.448818897637795
 21
4.101377952755905
 31
0.0
  0
LINE
  5
3209
330
1E
100
AcDbEntity
  8
7
100
AcDbLine
 10
2.448818897637795
 20
4.101377952755905
 30
0.0
 11
2.449803149606299
 21
4.107283464566928
 31
0.0
  0
LINE
  5
320A
330
1E
100
AcDbEntity
  8
7
100
AcDbLine
 10
2.526574803149606
 20
3.504921259842519
 30
0.0
 11
2.523622047244094
 21
3.492125984251968
 31
0.0
  0
LINE
  5
320B
330
1E
100
AcDbEntity
  8
7
100
AcDbLine
 10
2.523622047244094
 20
3.492125984251968
 30
0.0
 11
2.513779527559055
 21
3.483267716535432
 31
0.0
  0
LINE
  5
320C
330
1E
100
AcDbEntity
  8
7
100
AcDbLine
 10
2.513779527559055
 20
3.483267716535432
 30
0.0
 11
2.501968503937007
 21
3.480314960629921
 31
0.0
  0
LINE
  5
320D
330
1E
100
AcDbEntity
  8
7
100
AcDbLine
 10
2.751968503937007
 20
3.469488188976378
 30
0.0
 11
2.758858267716535
 21
3.47244094488189
 31
0.0
  0
LINE
  5
320E
330
1E
100
AcDbEntity
  8
7
100
AcDbLine
 10
2.758858267716535
 20
3.47244094488189
 30
0.0
 11
2.761811023622047
 21
3.480314960629921
 31
0.0
  0
LINE
  5
320F
330
1E
100
AcDbEntity
  8
7
100
AcDbLine
 10
2.761811023622047
 20
3.577755905511811
 30
0.0
 11
2.758858267716535
 21
3.584645669291338
 31
0.0
  0
LINE
  5
3210
330
1E
100
AcDbEntity
  8
7
100
AcDbLine
 10
2.758858267716535
 20
3.584645669291338
 30
0.0
 11
2.751968503937007
 21
3.58759842519685
 31
0.0
  0
LINE
  5
3211
330
1E
100
AcDbEntity
  8
7
100
AcDbLine
 10
2.751968503937007
 20
4.001968503937007
 30
0.0
 11
2.758858267716535
 21
4.004921259842519
 31
0.0
  0
LINE
  5
3212
330
1E
100
AcDbEntity
  8
7
100
AcDbLine
 10
2.758858267716535
 20
4.004921259842519
 30
0.0
 11
2.761811023622047
 21
4.011811023622047
 31
0.0
  0
LINE
  5
3213
330
1E
100
AcDbEntity
  8
7
100
AcDbLine
 10
2.761811023622047
 20
4.11023622047244
 30
0.0
 11
2.758858267716535
 21
4.117125984251968
 31
0.0
  0
LINE
  5
3214
330
1E
100
AcDbEntity
  8
7
100
AcDbLine
 10
2.758858267716535
 20
4.117125984251968
 30
0.0
 11
2.751968503937007
 21
4.120078740157479
 31
0.0
  0
LINE
  5
3215
330
1E
100
AcDbEntity
  8
7
100
AcDbLine
 10
2.513779527559055
 20
4.106299212598425
 30
0.0
 11
2.523622047244094
 21
4.097440944881889
 31
0.0
  0
LINE
  5
3216
330
1E
100
AcDbEntity
  8
7
100
AcDbLine
 10
2.523622047244094
 20
4.097440944881889
 30
0.0
 11
2.526574803149606
 21
4.084645669291337
 31
0.0
  0
LINE
  5
3217
330
1E
100
AcDbEntity
  8
7
100
AcDbLine
 10
2.524606299212598
 20
3.506889763779527
 30
0.0
 11
2.520669291338582
 21
3.49507874015748
 31
0.0
  0
LINE
  5
3218
330
1E
100
AcDbEntity
  8
7
100
AcDbLine
 10
2.520669291338582
 20
3.49507874015748
 30
0.0
 11
2.511811023622047
 21
3.485236220472441
 31
0.0
  0
LINE
  5
3219
330
1E
100
AcDbEntity
  8
7
100
AcDbLine
 10
2.511811023622047
 20
3.485236220472441
 30
0.0
 11
2.499015748031495
 21
3.482283464566929
 31
0.0
  0
LINE
  5
321A
330
1E
100
AcDbEntity
  8
7
100
AcDbLine
 10
2.499015748031495
 20
3.482283464566929
 30
0.0
 11
2.499015748031495
 21
3.488188976377953
 31
0.0
  0
LINE
  5
321B
330
1E
100
AcDbEntity
  8
7
100
AcDbLine
 10
2.499015748031495
 20
3.488188976377953
 30
0.0
 11
2.499015748031495
 21
3.501968503937007
 31
0.0
  0
LINE
  5
321C
330
1E
100
AcDbEntity
  8
7
100
AcDbLine
 10
2.524606299212598
 20
3.506889763779527
 30
0.0
 11
2.518700787401574
 21
3.506889763779527
 31
0.0
  0
LINE
  5
321D
330
1E
100
AcDbEntity
  8
7
100
AcDbLine
 10
2.518700787401574
 20
3.506889763779527
 30
0.0
 11
2.503937007874015
 21
3.506889763779527
 31
0.0
  0
LINE
  5
321E
330
1E
100
AcDbEntity
  8
7
100
AcDbLine
 10
2.499015748031495
 20
4.107283464566928
 30
0.0
 11
2.511811023622047
 21
4.104330708661416
 31
0.0
  0
LINE
  5
321F
330
1E
100
AcDbEntity
  8
7
100
AcDbLine
 10
2.511811023622047
 20
4.104330708661416
 30
0.0
 11
2.520669291338582
 21
4.095472440944881
 31
0.0
  0
LINE
  5
3220
330
1E
100
AcDbEntity
  8
7
100
AcDbLine
 10
2.520669291338582
 20
4.095472440944881
 30
0.0
 11
2.524606299212598
 21
4.08267716535433
 31
0.0
  0
LINE
  5
3221
330
1E
100
AcDbEntity
  8
7
100
AcDbLine
 10
2.524606299212598
 20
4.08267716535433
 30
0.0
 11
2.518700787401574
 21
4.08267716535433
 31
0.0
  0
LINE
  5
3222
330
1E
100
AcDbEntity
  8
7
100
AcDbLine
 10
2.518700787401574
 20
4.08267716535433
 30
0.0
 11
2.503937007874015
 21
4.08267716535433
 31
0.0
  0
LINE
  5
3223
330
1E
100
AcDbEntity
  8
7
100
AcDbLine
 10
2.499015748031495
 20
4.107283464566928
 30
0.0
 11
2.499015748031495
 21
4.101377952755905
 31
0.0
  0
LINE
  5
3224
330
1E
100
AcDbEntity
  8
7
100
AcDbLine
 10
2.499015748031495
 20
4.101377952755905
 30
0.0
 11
2.499015748031495
 21
4.08759842519685
 31
0.0
  0
LINE
  5
3225
330
1E
100
AcDbEntity
  8
7
100
AcDbLine
 10
2.432086614173228
 20
3.344488188976378
 30
0.0
 11
2.24015748031496
 21
3.344488188976378
 31
0.0
  0
LINE
  5
3226
330
1E
100
AcDbEntity
  8
7
100
AcDbLine
 10
2.24015748031496
 20
3.344488188976378
 30
0.0
 11
2.216535433070866
 21
3.344488188976378
 31
0.0
  0
LINE
  5
3227
330
1E
100
AcDbEntity
  8
7
100
AcDbLine
 10
1.576771653543306
 20
4.241141732283463
 30
0.0
 11
1.36515748031496
 21
4.241141732283463
 31
0.0
  0
LINE
  5
3228
330
1E
100
AcDbEntity
  8
7
100
AcDbLine
 10
1.36515748031496
 20
4.241141732283463
 30
0.0
 11
1.350393700787401
 21
4.23523622047244
 31
0.0
  0
LINE
  5
3229
330
1E
100
AcDbEntity
  8
7
100
AcDbLine
 10
2.442913385826771
 20
4.23523622047244
 30
0.0
 11
2.428149606299212
 21
4.241141732283463
 31
0.0
  0
LINE
  5
322A
330
1E
100
AcDbEntity
  8
7
100
AcDbLine
 10
2.428149606299212
 20
4.241141732283463
 30
0.0
 11
2.216535433070866
 21
4.241141732283463
 31
0.0
  0
LINE
  5
322B
330
1E
100
AcDbEntity
  8
7
100
AcDbLine
 10
1.350393700787401
 20
3.354330708661417
 30
0.0
 11
1.36515748031496
 21
3.348425196850393
 31
0.0
  0
LINE
  5
322C
330
1E
100
AcDbEntity
  8
7
100
AcDbLine
 10
1.36515748031496
 20
3.348425196850393
 30
0.0
 11
2.428149606299212
 21
3.348425196850393
 31
0.0
  0
LINE
  5
322D
330
1E
100
AcDbEntity
  8
7
100
AcDbLine
 10
2.428149606299212
 20
3.348425196850393
 30
0.0
 11
2.442913385826771
 21
3.354330708661417
 31
0.0
  0
ENDSEC
  0
SECTION
  2
OBJECTS
  0
DICTIONARY
  5
C
330
0
100
AcDbDictionary
  3
ACAD_GROUP
350
D
  3
ACAD_LAYOUT
350
19
  3
ACAD_MLINESTYLE
350
16
  3
ACAD_PLOTSETTINGS
350
18
1001
ACAD
1000
TREAT_AS_HARD
1070
     0
  0
DICTIONARY
  5
4329
330
1E
100
AcDbDictionary
  3
ACAD_LAYOUTSELFREF
350
4365
1001
ACAD
1000
TREAT_AS_HARD
1070
     1
  0
DICTIONARY
  5
432B
330
1A
100
AcDbDictionary
  3
ACAD_LAYOUTSELFREF
350
4364
1001
ACAD
1000
TREAT_AS_HARD
1070
     1
  0
DICTIONARY
  5
D
102
{ACAD_REACTORS
330
C
102
}
330
C
100
AcDbDictionary
1001
ACAD
1000
TREAT_AS_HARD
1070
     0
  0
DICTIONARY
  5
19
102
{ACAD_REACTORS
330
C
102
}
330
C
100
AcDbDictionary
1001
ACAD
1000
TREAT_AS_HARD
1070
     0
  0
DICTIONARY
  5
16
102
{ACAD_REACTORS
330
C
102
}
330
C
100
AcDbDictionary
  3
STANDARD
350
17
1001
ACAD
1000
TREAT_AS_HARD
1070
     0
  0
DICTIONARY
  5
18
102
{ACAD_REACTORS
330
C
102
}
330
C
100
AcDbDictionary
1001
ACAD
1000
TREAT_AS_HARD
1070
     0
  0
XRECORD
  5
4365
102
{ACAD_REACTORS
330
4329
102
}
330
4329
100
AcDbXrecord
340
1E
  0
XRECORD
  5
4364
102
{ACAD_REACTORS
330
432B
102
}
330
432B
100
AcDbXrecord
340
1A
  0
MLINESTYLE
  5
17
102
{ACAD_REACTORS
330
16
102
}
330
16
100
AcDbMlineStyle
  2
STANDARD
 70
     0
  3

 62
   256
 51
90.0
 52
90.0
 71
     2
 49
0.5
 62
   256
  6
BYLAYER
 49
-0.5
 62
   256
  6
BYLAYER
  0
ENDSEC
  0
EOF
