  0
SECTION
  2
HEADER
  9
$ACADVER
  1
AC1015
  9
$ACADMAINTVER
 70
     6
  9
$DWGCODEPAGE
  3
ANSI_1252
  9
$INSBASE
 10
0.0
 20
0.0
 30
0.0
  9
$EXTMIN
 10
-0.5
 20
-0.5
 30
-0.5
  9
$EXTMAX
 10
5.0
 20
5.0
 30
5.0
  9
$LIMMIN
 10
-0.5
 20
-0.5
  9
$LIMMAX
 10
5.0
 20
5.0
  9
$ORTHOMODE
 70
     0
  9
$REGENMODE
 70
     1
  9
$FILLMODE
 70
     1
  9
$QTEXTMODE
 70
     0
  9
$MIRRTEXT
 70
     1
  9
$LTSCALE
 40
1.0
  9
$ATTMODE
 70
     1
  9
$TEXTSIZE
 40
0.2
  9
$TRACEWID
 40
0.05
  9
$TEXTSTYLE
  7
Standard
  9
$CLAYER
  8
0
  9
$CELTYPE
  6
ByLayer
  9
$CECOLOR
 62
   256
  9
$CELTSCALE
 40
1.0
  9
$DISPSILH
 70
     0
  9
$DIMSCALE
 40
1.0
  9
$DIMASZ
 40
0.18
  9
$DIMEXO
 40
0.0625
  9
$DIMDLI
 40
0.38
  9
$DIMRND
 40
0.0
  9
$DIMDLE
 40
0.0
  9
$DIMEXE
 40
0.18
  9
$DIMTP
 40
0.0
  9
$DIMTM
 40
0.0
  9
$DIMTXT
 40
0.18
  9
$DIMCEN
 40
0.09
  9
$DIMTSZ
 40
0.0
  9
$DIMTOL
 70
     0
  9
$DIMLIM
 70
     0
  9
$DIMTIH
 70
     1
  9
$DIMTOH
 70
     1
  9
$DIMSE1
 70
     0
  9
$DIMSE2
 70
     0
  9
$DIMTAD
 70
     0
  9
$DIMZIN
 70
     0
  9
$DIMBLK
  1

  9
$DIMASO
 70
     1
  9
$DIMSHO
 70
     1
  9
$DIMPOST
  1

  9
$DIMAPOST
  1

  9
$DIMALT
 70
     0
  9
$DIMALTD
 70
     2
  9
$DIMALTF
 40
25.4
  9
$DIMLFAC
 40
1.0
  9
$DIMTOFL
 70
     0
  9
$DIMTVP
 40
0.0
  9
$DIMTIX
 70
     0
  9
$DIMSOXD
 70
     0
  9
$DIMSAH
 70
     0
  9
$DIMBLK1
  1

  9
$DIMBLK2
  1

  9
$DIMSTYLE
  2
Standard
  9
$DIMCLRD
 70
     0
  9
$DIMCLRE
 70
     0
  9
$DIMCLRT
 70
     0
  9
$DIMTFAC
 40
1.0
  9
$DIMGAP
 40
0.09
  9
$DIMJUST
 70
     0
  9
$DIMSD1
 70
     0
  9
$DIMSD2
 70
     0
  9
$DIMTOLJ
 70
     1
  9
$DIMTZIN
 70
     0
  9
$DIMALTZ
 70
     0
  9
$DIMALTTZ
 70
     0
  9
$DIMUPT
 70
     0
  9
$DIMDEC
 70
     4
  9
$DIMTDEC
 70
     4
  9
$DIMALTU
 70
     2
  9
$DIMALTTD
 70
     2
  9
$DIMTXSTY
  7
Standard
  9
$DIMAUNIT
 70
     0
  9
$DIMADEC
 70
     0
  9
$DIMALTRND
 40
0.0
  9
$DIMAZIN
 70
     0
  9
$DIMDSEP
 70
    46
  9
$DIMATFIT
 70
     3
  9
$DIMFRAC
 70
     0
  9
$DIMLDRBLK
  1

  9
$DIMLUNIT
 70
     2
  9
$DIMLWD
 70
    -2
  9
$DIMLWE
 70
    -2
  9
$DIMTMOVE
 70
     0
  9
$LUNITS
 70
     2
  9
$LUPREC
 70
     4
  9
$SKETCHINC
 40
0.1
  9
$FILLETRAD
 40
0.5
  9
$AUNITS
 70
     0
  9
$AUPREC
 70
     0
  9
$MENU
  1
.
  9
$ELEVATION
 40
0.0
  9
$PELEVATION
 40
0.0
  9
$THICKNESS
 40
0.0
  9
$LIMCHECK
 70
     0
  9
$CHAMFERA
 40
0.5
  9
$CHAMFERB
 40
0.5
  9
$CHAMFERC
 40
1.0
  9
$CHAMFERD
 40
0.0
  9
$SKPOLY
 70
     0
  9
$TDCREATE
 40
2456997.413793623
  9
$TDUCREATE
 40
2456997.663793623
  9
$TDUPDATE
 40
2456997.413793634
  9
$TDUUPDATE
 40
2456997.663793634
  9
$TDINDWG
 40
0.0000000116
  9
$TDUSRTIMER
 40
0.0000000116
  9
$USRTIMER
 70
     1
  9
$ANGBASE
 50
0.0
  9
$ANGDIR
 70
     0
  9
$PDMODE
 70
     0
  9
$PDSIZE
 40
0.0
  9
$PLINEWID
 40
0.0
  9
$SPLFRAME
 70
     0
  9
$SPLINETYPE
 70
     6
  9
$SPLINESEGS
 70
     8
  9
$HANDSEED
  5
3D7
  9
$SURFTAB1
 70
     6
  9
$SURFTAB2
 70
     6
  9
$SURFTYPE
 70
     6
  9
$SURFU
 70
     6
  9
$SURFV
 70
     6
  9
$UCSBASE
  2

  9
$UCSNAME
  2

  9
$UCSORG
 10
0.0
 20
0.0
 30
0.0
  9
$UCSXDIR
 10
1.0
 20
0.0
 30
0.0
  9
$UCSYDIR
 10
0.0
 20
1.0
 30
0.0
  9
$UCSORTHOREF
  2

  9
$UCSORTHOVIEW
 70
     0
  9
$UCSORGTOP
 10
0.0
 20
0.0
 30
0.0
  9
$UCSORGBOTTOM
 10
0.0
 20
0.0
 30
0.0
  9
$UCSORGLEFT
 10
0.0
 20
0.0
 30
0.0
  9
$UCSORGRIGHT
 10
0.0
 20
0.0
 30
0.0
  9
$UCSORGFRONT
 10
0.0
 20
0.0
 30
0.0
  9
$UCSORGBACK
 10
0.0
 20
0.0
 30
0.0
  9
$PUCSBASE
  2

  9
$PUCSNAME
  2

  9
$PUCSORG
 10
0.0
 20
0.0
 30
0.0
  9
$PUCSXDIR
 10
1.0
 20
0.0
 30
0.0
  9
$PUCSYDIR
 10
0.0
 20
1.0
 30
0.0
  9
$PUCSORTHOREF
  2

  9
$PUCSORTHOVIEW
 70
     0
  9
$PUCSORGTOP
 10
0.0
 20
0.0
 30
0.0
  9
$PUCSORGBOTTOM
 10
0.0
 20
0.0
 30
0.0
  9
$PUCSORGLEFT
 10
0.0
 20
0.0
 30
0.0
  9
$PUCSORGRIGHT
 10
0.0
 20
0.0
 30
0.0
  9
$PUCSORGFRONT
 10
0.0
 20
0.0
 30
0.0
  9
$PUCSORGBACK
 10
0.0
 20
0.0
 30
0.0
  9
$USERI1
 70
     0
  9
$USERI2
 70
     0
  9
$USERI3
 70
     0
  9
$USERI4
 70
     0
  9
$USERI5
 70
     0
  9
$USERR1
 40
0.0
  9
$USERR2
 40
0.0
  9
$USERR3
 40
0.0
  9
$USERR4
 40
0.0
  9
$USERR5
 40
0.0
  9
$WORLDVIEW
 70
     1
  9
$SHADEDGE
 70
     3
  9
$SHADEDIF
 70
    70
  9
$TILEMODE
 70
     0
  9
$MAXACTVP
 70
    64
  9
$PINSBASE
 10
0.0
 20
0.0
 30
0.0
  9
$PLIMCHECK
 70
     0
  9
$PEXTMIN
 10
0.0
 20
0.0
 30
0.0
  9
$PEXTMAX
 10
11.0
 20
8.5
 30
0.0
  9
$PLIMMIN
 10
0.0
 20
0.0
  9
$PLIMMAX
 10
11.0
 20
8.5
  9
$UNITMODE
 70
     0
  9
$VISRETAIN
 70
     1
  9
$PLINEGEN
 70
     0
  9
$PSLTSCALE
 70
     1
  9
$TREEDEPTH
 70
  3020
  9
$CMLSTYLE
  2
Standard
  9
$CMLJUST
 70
     0
  9
$CMLSCALE
 40
1.0
  9
$PROXYGRAPHICS
 70
     1
  9
$MEASUREMENT
 70
     0
  9
$CELWEIGHT
370
    -1
  9
$ENDCAPS
280
     0
  9
$JOINSTYLE
280
     0
  9
$LWDISPLAY
290
     0
  9
$INSUNITS
 70
     1
  9
$HYPERLINKBASE
  1

  9
$STYLESHEET
  1

  9
$XEDIT
290
     1
  9
$CEPSNTYPE
380
     0
  9
$PSTYLEMODE
290
     1
  9
$FINGERPRINTGUID
  2
{04118801-A931-4E3C-825A-4309E4A05D95}
  9
$VERSIONGUID
  2
{FAEB1C32-E019-11D5-929B-00C0DF256EC4}
  9
$EXTNAMES
290
     1
  9
$PSVPSCALE
 40
0.0
  9
$OLESTARTUP
290
     0
  0
ENDSEC
  0
SECTION
  2
CLASSES
  0
CLASS
  1
ACDBDICTIONARYWDFLT
  2
AcDbDictionaryWithDefault
  3
ObjectDBX Classes
 90
        0
280
     0
281
     0
  0
CLASS
  1
VISUALSTYLE
  2
AcDbVisualStyle
  3
ObjectDBX Classes
 90
     4095
280
     0
281
     0
  0
CLASS
  1
MATERIAL
  2
AcDbMaterial
  3
ObjectDBX Classes
 90
     1153
280
     0
281
     0
  0
CLASS
  1
DICTIONARYVAR
  2
AcDbDictionaryVar
  3
ObjectDBX Classes
 90
        0
280
     0
281
     0
  0
CLASS
  1
ACDBPLACEHOLDER
  2
AcDbPlaceHolder
  3
ObjectDBX Classes
 90
        0
280
     0
281
     0
  0
CLASS
  1
LAYOUT
  2
AcDbLayout
  3
ObjectDBX Classes
 90
        0
280
     0
281
     0
  0
ENDSEC
  0
SECTION
  2
TABLES
  0
TABLE
  2
VPORT
  5
8
330
0
100
AcDbSymbolTable
 70
    17
  0
VPORT
  5
29
330
8
100
AcDbSymbolTableRecord
100
AcDbViewportTableRecord
  2
DUMMY
 70
     0
 10
0.0
 20
0.0
 11
1.0
 21
1.0
 12
10.429907
 22
4.5
 13
0.0
 23
0.0
 14
0.5
 24
0.5
 15
0.5
 25
0.5
 16
0.0
 26
0.0
 36
1.0
 17
0.0
 27
0.0
 37
0.0
 40
9.0
 41
1.972973
 42
50.0
 43
0.0
 44
0.0
 50
0.0
 51
0.0
 71
     0
 72
   100
 73
     1
 74
     3
 75
     0
 76
     0
 77
     0
 78
     0
281
     0
 65
     1
110
0.0
120
0.0
130
0.0
111
1.0
121
0.0
131
0.0
112
0.0
122
1.0
132
0.0
 79
     0
146
0.0
  0
VPORT
  5
39C
330
8
100
AcDbSymbolTableRecord
100
AcDbViewportTableRecord
  2
*ACTIVE
 70
     0
 10
0.0
 20
0.0
 11
1.0
 21
1.0
 12
-6.834472
 22
-6.834472
 13
0.0
 23
0.0
 14
0.5
 24
0.5
 15
0.5
 25
0.5
 16
0.7188730927569434
 26
-0.5850486126764431
 36
0.3754192287502549
 17
0.0
 27
0.0
 37
0.0
 40
61.350868
 41
0.28943
 42
50.0
 43
482.07238
 44
-482.07238
 50
0.0
 51
0.0
 71
     0
 72
   100
 73
     1
 74
     3
 75
     0
 76
     0
 77
     0
 78
     0
281
     0
 65
     1
110
0.0
120
0.0
130
0.0
111
1.0
121
0.0
131
0.0
112
0.0
122
1.0
132
0.0
 79
     0
146
0.0
  0
VPORT
  5
39D
330
8
100
AcDbSymbolTableRecord
100
AcDbViewportTableRecord
  2
L1
 70
     0
 10
0.0
 20
0.0
 11
1.0
 21
1.0
 12
-6.834472
 22
-6.834472
 13
0.0
 23
0.0
 14
0.5
 24
0.5
 15
0.5
 25
0.5
 16
0.7188730927569434
 26
-0.5850486126764431
 36
0.3754192287502549
 17
0.0
 27
0.0
 37
0.0
 40
61.350868
 41
0.28943
 42
50.0
 43
482.07238
 44
-482.07238
 50
0.0
 51
0.0
 71
     0
 72
   100
 73
     1
 74
     3
 75
     0
 76
     0
 77
     0
 78
     0
281
     0
 65
     1
110
0.0
120
0.0
130
0.0
111
1.0
121
0.0
131
0.0
112
0.0
122
1.0
132
0.0
 79
     0
146
0.0
  0
VPORT
  5
39E
330
8
100
AcDbSymbolTableRecord
100
AcDbViewportTableRecord
  2
L2
 70
     0
 10
0.0
 20
0.0
 11
0.5
 21
1.0
 12
0.0
 22
0.0
 13
0.0
 23
0.0
 14
0.5
 24
0.5
 15
0.5
 25
0.5
 16
0.0
 26
-1.0
 36
0.0
 17
0.0
 27
0.0
 37
0.0
 40
59.28775
 41
0.299501
 42
50.0
 43
30.446227
 44
-30.446227
 50
0.0
 51
0.0
 71
     0
 72
   100
 73
     1
 74
     3
 75
     0
 76
     0
 77
     0
 78
     0
281
     0
 65
     1
110
0.0
120
0.0
130
0.0
111
1.0
121
0.0
131
0.0
112
0.0
122
1.0
132
0.0
 79
     0
146
0.0
  0
VPORT
  5
39F
330
8
100
AcDbSymbolTableRecord
100
AcDbViewportTableRecord
  2
L2
 70
     0
 10
0.5
 20
0.0
 11
1.0
 21
1.0
 12
0.0
 22
0.0
 13
0.0
 23
0.0
 14
0.5
 24
0.5
 15
0.5
 25
0.5
 16
1.0
 26
0.0
 36
0.0
 17
0.0
 27
0.0
 37
0.0
 40
59.28775
 41
0.299501
 42
50.0
 43
30.05782
 44
-30.05782
 50
0.0
 51
0.0
 71
     0
 72
   100
 73
     1
 74
     3
 75
     0
 76
     0
 77
     0
 78
     0
281
     0
 65
     1
110
0.0
120
0.0
130
0.0
111
1.0
121
0.0
131
0.0
112
0.0
122
1.0
132
0.0
 79
     0
146
0.0
  0
VPORT
  5
3A0
330
8
100
AcDbSymbolTableRecord
100
AcDbViewportTableRecord
  2
L3
 70
     0
 10
0.0
 20
0.5
 11
1.0
 21
1.0
 12
0.0
 22
0.0
 13
0.0
 23
0.0
 14
0.5
 24
0.5
 15
0.5
 25
0.5
 16
0.0
 26
0.0
 36
1.0
 17
0.0
 27
0.0
 37
0.0
 40
9.942483
 41
1.785948
 42
50.0
 43
29.643875
 44
-29.643875
 50
0.0
 51
0.0
 71
     0
 72
   100
 73
     1
 74
     3
 75
     0
 76
     0
 77
     0
 78
     0
281
     0
 65
     1
110
0.0
120
0.0
130
0.0
111
1.0
121
0.0
131
0.0
112
0.0
122
1.0
132
0.0
 79
     0
146
0.0
  0
VPORT
  5
3A1
330
8
100
AcDbSymbolTableRecord
100
AcDbViewportTableRecord
  2
L3
 70
     0
 10
0.0
 20
0.0
 11
1.0
 21
0.5
 12
0.0
 22
0.0
 13
0.0
 23
0.0
 14
0.5
 24
0.5
 15
0.5
 25
0.5
 16
0.0
 26
-1.0
 36
0.0
 17
0.0
 27
0.0
 37
0.0
 40
59.28775
 41
0.299501
 42
50.0
 43
30.446227
 44
-30.446227
 50
0.0
 51
0.0
 71
     0
 72
   100
 73
     1
 74
     3
 75
     0
 76
     0
 77
     0
 78
     0
281
     0
 65
     1
110
0.0
120
0.0
130
0.0
111
1.0
121
0.0
131
0.0
112
0.0
122
1.0
132
0.0
 79
     0
146
0.0
  0
VPORT
  5
3A2
330
8
100
AcDbSymbolTableRecord
100
AcDbViewportTableRecord
  2
L4
 70
     0
 10
0.0
 20
0.5
 11
0.5
 21
1.0
 12
0.0
 22
0.0
 13
0.0
 23
0.0
 14
0.5
 24
0.5
 15
0.5
 25
0.5
 16
0.0
 26
0.0
 36
1.0
 17
0.0
 27
0.0
 37
0.0
 40
9.942483
 41
1.785948
 42
50.0
 43
29.643875
 44
-29.643875
 50
0.0
 51
0.0
 71
     0
 72
   100
 73
     1
 74
     3
 75
     0
 76
     0
 77
     0
 78
     0
281
     0
 65
     1
110
0.0
120
0.0
130
0.0
111
1.0
121
0.0
131
0.0
112
0.0
122
1.0
132
0.0
 79
     0
146
0.0
  0
VPORT
  5
3A3
330
8
100
AcDbSymbolTableRecord
100
AcDbViewportTableRecord
  2
L4
 70
     0
 10
0.0
 20
0.0
 11
0.5
 21
0.5
 12
0.0
 22
0.0
 13
0.0
 23
0.0
 14
0.5
 24
0.5
 15
0.5
 25
0.5
 16
0.0
 26
-1.0
 36
0.0
 17
0.0
 27
0.0
 37
0.0
 40
59.28775
 41
0.299501
 42
50.0
 43
30.446227
 44
-30.446227
 50
0.0
 51
0.0
 71
     0
 72
   100
 73
     1
 74
     3
 75
     0
 76
     0
 77
     0
 78
     0
281
     0
 65
     1
110
0.0
120
0.0
130
0.0
111
1.0
121
0.0
131
0.0
112
0.0
122
1.0
132
0.0
 79
     0
146
0.0
  0
VPORT
  5
3A4
330
8
100
AcDbSymbolTableRecord
100
AcDbViewportTableRecord
  2
L4
 70
     0
 10
0.5
 20
0.0
 11
1.0
 21
0.5
 12
0.0
 22
0.0
 13
0.0
 23
0.0
 14
0.5
 24
0.5
 15
0.5
 25
0.5
 16
1.0
 26
0.0
 36
0.0
 17
0.0
 27
0.0
 37
0.0
 40
59.28775
 41
0.299501
 42
50.0
 43
30.05782
 44
-30.05782
 50
0.0
 51
0.0
 71
     0
 72
   100
 73
     1
 74
     3
 75
     0
 76
     0
 77
     0
 78
     0
281
     0
 65
     1
110
0.0
120
0.0
130
0.0
111
1.0
121
0.0
131
0.0
112
0.0
122
1.0
132
0.0
 79
     0
146
0.0
  0
VPORT
  5
3A5
330
8
100
AcDbSymbolTableRecord
100
AcDbViewportTableRecord
  2
L4
 70
     0
 10
0.5
 20
0.5
 11
1.0
 21
1.0
 12
0.0
 22
0.0
 13
0.0
 23
0.0
 14
0.5
 24
0.5
 15
0.5
 25
0.5
 16
0.5773502691896258
 26
-0.5773502691896258
 36
0.5773502691896258
 17
0.0
 27
0.0
 37
0.0
 40
58.136664
 41
0.305431
 42
50.0
 43
30.264658
 44
-30.264658
 50
0.0
 51
0.0
 71
     0
 72
   100
 73
     1
 74
     3
 75
     0
 76
     0
 77
     0
 78
     0
281
     0
 65
     1
110
0.0
120
0.0
130
0.0
111
1.0
121
0.0
131
0.0
112
0.0
122
1.0
132
0.0
 79
     0
146
0.0
  0
VPORT
  5
3A6
330
8
100
AcDbSymbolTableRecord
100
AcDbViewportTableRecord
  2
L6
 70
     0
 10
0.0
 20
0.5
 11
0.333333
 21
1.0
 12
-6.834472
 22
-6.834472
 13
0.0
 23
0.0
 14
0.5
 24
0.5
 15
0.5
 25
0.5
 16
0.7188730927569434
 26
-0.5850486126764431
 36
0.3754192287502549
 17
0.0
 27
0.0
 37
0.0
 40
61.350868
 41
0.28943
 42
50.0
 43
482.07238
 44
-482.07238
 50
0.0
 51
0.0
 71
     0
 72
   100
 73
     1
 74
     3
 75
     0
 76
     0
 77
     0
 78
     0
281
     0
 65
     1
110
0.0
120
0.0
130
0.0
111
1.0
121
0.0
131
0.0
112
0.0
122
1.0
132
0.0
 79
     0
146
0.0
  0
VPORT
  5
3A7
330
8
100
AcDbSymbolTableRecord
100
AcDbViewportTableRecord
  2
L6
 70
     0
 10
0.0
 20
0.0
 11
0.333333
 21
0.5
 12
0.0
 22
0.0
 13
0.0
 23
0.0
 14
0.5
 24
0.5
 15
0.5
 25
0.5
 16
-1.0
 26
0.0
 36
0.0
 17
0.0
 27
0.0
 37
0.0
 40
59.28775
 41
0.299501
 42
50.0
 43
30.05782
 44
-30.05782
 50
0.0
 51
0.0
 71
     0
 72
   100
 73
     1
 74
     3
 75
     0
 76
     0
 77
     0
 78
     0
281
     0
 65
     1
110
0.0
120
0.0
130
0.0
111
1.0
121
0.0
131
0.0
112
0.0
122
1.0
132
0.0
 79
     0
146
0.0
  0
VPORT
  5
3A8
330
8
100
AcDbSymbolTableRecord
100
AcDbViewportTableRecord
  2
L6
 70
     0
 10
0.333333
 20
0.5
 11
0.666667
 21
1.0
 12
0.0
 22
0.0
 13
0.0
 23
0.0
 14
0.5
 24
0.5
 15
0.5
 25
0.5
 16
0.0
 26
0.0
 36
1.0
 17
0.0
 27
0.0
 37
0.0
 40
9.942483
 41
1.785948
 42
50.0
 43
29.643875
 44
-29.643875
 50
0.0
 51
0.0
 71
     0
 72
   100
 73
     1
 74
     3
 75
     0
 76
     0
 77
     0
 78
     0
281
     0
 65
     1
110
0.0
120
0.0
130
0.0
111
1.0
121
0.0
131
0.0
112
0.0
122
1.0
132
0.0
 79
     0
146
0.0
  0
VPORT
  5
3A9
330
8
100
AcDbSymbolTableRecord
100
AcDbViewportTableRecord
  2
L6
 70
     0
 10
0.333333
 20
0.0
 11
0.666667
 21
0.5
 12
0.0
 22
0.0
 13
0.0
 23
0.0
 14
0.5
 24
0.5
 15
0.5
 25
0.5
 16
0.0
 26
-1.0
 36
0.0
 17
0.0
 27
0.0
 37
0.0
 40
59.28775
 41
0.299501
 42
50.0
 43
30.446227
 44
-30.446227
 50
0.0
 51
0.0
 71
     0
 72
   100
 73
     1
 74
     3
 75
     0
 76
     0
 77
     0
 78
     0
281
     0
 65
     1
110
0.0
120
0.0
130
0.0
111
1.0
121
0.0
131
0.0
112
0.0
122
1.0
132
0.0
 79
     0
146
0.0
  0
VPORT
  5
3AA
330
8
100
AcDbSymbolTableRecord
100
AcDbViewportTableRecord
  2
L6
 70
     0
 10
0.666667
 20
0.5
 11
1.0
 21
1.0
 12
0.0
 22
0.0
 13
0.0
 23
0.0
 14
0.5
 24
0.5
 15
0.5
 25
0.5
 16
0.5773502691896258
 26
-0.5773502691896258
 36
0.5773502691896258
 17
0.0
 27
0.0
 37
0.0
 40
58.136664
 41
0.305431
 42
50.0
 43
30.264658
 44
-30.264658
 50
0.0
 51
0.0
 71
     0
 72
   100
 73
     1
 74
     3
 75
     0
 76
     0
 77
     0
 78
     0
281
     0
 65
     1
110
0.0
120
0.0
130
0.0
111
1.0
121
0.0
131
0.0
112
0.0
122
1.0
132
0.0
 79
     0
146
0.0
  0
VPORT
  5
3AB
330
8
100
AcDbSymbolTableRecord
100
AcDbViewportTableRecord
  2
L6
 70
     0
 10
0.666667
 20
0.0
 11
1.0
 21
0.5
 12
0.0
 22
0.0
 13
0.0
 23
0.0
 14
0.5
 24
0.5
 15
0.5
 25
0.5
 16
1.0
 26
0.0
 36
0.0
 17
0.0
 27
0.0
 37
0.0
 40
59.28775
 41
0.299501
 42
50.0
 43
30.05782
 44
-30.05782
 50
0.0
 51
0.0
 71
     0
 72
   100
 73
     1
 74
     3
 75
     0
 76
     0
 77
     0
 78
     0
281
     0
 65
     1
110
0.0
120
0.0
130
0.0
111
1.0
121
0.0
131
0.0
112
0.0
122
1.0
132
0.0
 79
     0
146
0.0
  0
ENDTAB
  0
TABLE
  2
LTYPE
  5
5
330
0
100
AcDbSymbolTable
 70
     7
  0
LTYPE
  5
14
330
5
100
AcDbSymbolTableRecord
100
AcDbLinetypeTableRecord
  2
BYBLOCK
 70
     0
  3

 72
    65
 73
     0
 40
0.0
  0
LTYPE
  5
15
330
5
100
AcDbSymbolTableRecord
100
AcDbLinetypeTableRecord
  2
BYLAYER
 70
     0
  3

 72
    65
 73
     0
 40
0.0
  0
LTYPE
  5
16
330
5
100
AcDbSymbolTableRecord
100
AcDbLinetypeTableRecord
  2
CONTINUOUS
 70
     0
  3
Solid line
 72
    65
 73
     0
 40
0.0
  0
LTYPE
  5
40
330
5
100
AcDbSymbolTableRecord
100
AcDbLinetypeTableRecord
  2
DASHED
 70
     0
  3
__ __ __ __ __ __ __ __ __
 72
    65
 73
     2
 40
25.72
 49
12.86
 74
     4
 75
     0
340
0
 46
0.0
 50
0.0
 44
0.0
 45
0.0
 49
-12.86
 74
     4
 75
     0
340
0
 46
0.0
 50
0.0
 44
0.0
 45
0.0
  0
LTYPE
  5
41
330
5
100
AcDbSymbolTableRecord
100
AcDbLinetypeTableRecord
  2
HIDDEN
 70
     0
  3
_ _ _ _ _ _ _ _ _ _ _ _ _ _ _
 72
    65
 73
     2
 40
0.5
 49
0.25
 74
     4
 75
     0
340
0
 46
0.0
 50
0.0
 44
0.0
 45
0.0
 49
-0.25
 74
     4
 75
     0
340
0
 46
0.0
 50
0.0
 44
0.0
 45
0.0
  0
LTYPE
  5
42
330
5
100
AcDbSymbolTableRecord
100
AcDbLinetypeTableRecord
  2
PHANTOM
 70
     0
  3
____ _ _ ____ _ _ _____ _ _ ____
 72
    65
 73
     6
 40
50.5
 49
18.0
 74
     4
 75
     0
340
0
 46
0.0
 50
0.0
 44
0.0
 45
0.0
 49
-6.5
 74
     4
 75
     0
340
0
 46
0.0
 50
0.0
 44
0.0
 45
0.0
 49
6.5
 74
     4
 75
     0
340
0
 46
0.0
 50
0.0
 44
0.0
 45
0.0
 49
-6.5
 74
     4
 75
     0
340
0
 46
0.0
 50
0.0
 44
0.0
 45
0.0
 49
6.5
 74
     4
 75
     0
340
0
 46
0.0
 50
0.0
 44
0.0
 45
0.0
 49
-6.5
 74
     4
 75
     0
340
0
 46
0.0
 50
0.0
 44
0.0
 45
0.0
  0
LTYPE
  5
43
330
5
100
AcDbSymbolTableRecord
100
AcDbLinetypeTableRecord
  2
CENTER
 70
     0
  3
____ _ ____ _ ____ _ ____
 72
    65
 73
     4
 40
47.4
 49
22.0
 74
     4
 75
     0
340
0
 46
0.0
 50
0.0
 44
0.0
 45
0.0
 49
-8.5
 74
     4
 75
     0
340
0
 46
0.0
 50
0.0
 44
0.0
 45
0.0
 49
8.5
 74
     4
 75
     0
340
0
 46
0.0
 50
0.0
 44
0.0
 45
0.0
 49
-8.5
 74
     4
 75
     0
340
0
 46
0.0
 50
0.0
 44
0.0
 45
0.0
  0
LTYPE
  5
44
330
5
100
AcDbSymbolTableRecord
100
AcDbLinetypeTableRecord
  2
DOT
 70
     0
  3
.........................
 72
    65
 73
     2
 40
10.0
 49
0.0
 74
     4
 75
     0
340
0
 46
0.0
 50
0.0
 44
0.0
 45
0.0
 49
-10.0
 74
     4
 75
     0
340
0
 46
0.0
 50
0.0
 44
0.0
 45
0.0
  0
LTYPE
  5
45
330
5
100
AcDbSymbolTableRecord
100
AcDbLinetypeTableRecord
  2
DASHDOT
 70
     0
  3
_._._._._._._._._._._._._._._._.
 72
    65
 73
     4
 40
70.0
 49
31.0
 74
     4
 75
     0
340
0
 46
0.0
 50
0.0
 44
0.0
 45
0.0
 49
-13.0
 74
     4
 75
     0
340
0
 46
0.0
 50
0.0
 44
0.0
 45
0.0
 49
13.0
 74
     4
 75
     0
340
0
 46
0.0
 50
0.0
 44
0.0
 45
0.0
 49
-13.0
 74
     4
 75
     0
340
0
 46
0.0
 50
0.0
 44
0.0
 45
0.0
  0
ENDTAB
  0
TABLE
  2
LAYER
  5
2
330
0
100
AcDbSymbolTable
 70
     2
  0
LAYER
  5
10
330
2
100
AcDbSymbolTableRecord
100
AcDbLayerTableRecord
  2
0
 70
     0
 62
     7
  6
CONTINUOUS
370
    -3
390
F
  0
LAYER
  5
58
330
2
100
AcDbSymbolTableRecord
100
AcDbLayerTableRecord
  2
1
 70
     0
 62
     7
  6
CONTINUOUS
370
    -3
390
F
  0
ENDTAB
  0
TABLE
  2
STYLE
  5
3
330
0
100
AcDbSymbolTable
 70
     1
  0
STYLE
  5
11
330
3
100
AcDbSymbolTableRecord
100
AcDbTextStyleTableRecord
  2
Standard
 70
     0
 40
0.0
 41
1.0
 50
0.0
 71
     0
 42
0.2
  3
txt
  4

  0
ENDTAB
  0
TABLE
  2
VIEW
  5
6
330
0
100
AcDbSymbolTable
 70
     8
  0
VIEW
  5
46
330
6
100
AcDbSymbolTableRecord
100
AcDbViewTableRecord
  2
TOP
 70
     0
 40
9.942483
 10
0.0
 20
0.0
 41
13.88718
 11
0.0
 21
0.0
 31
1.0
 12
0.0
 22
0.0
 32
0.0
 42
50.0
 43
29.643875
 44
-29.643875
 50
0.0
 71
     0
281
     0
 72
     0
  0
VIEW
  5
47
330
6
100
AcDbSymbolTableRecord
100
AcDbViewTableRecord
  2
FRONT
 70
     0
 40
59.28775
 10
0.0
 20
0.0
 41
13.88718
 11
0.0
 21
-1.0
 31
0.0
 12
0.0
 22
0.0
 32
0.0
 42
50.0
 43
30.446227
 44
-30.446227
 50
0.0
 71
     0
281
     0
 72
     0
  0
VIEW
  5
48
330
6
100
AcDbSymbolTableRecord
100
AcDbViewTableRecord
  2
RIGHT
 70
     0
 40
59.28775
 10
0.0
 20
0.0
 41
9.942483
 11
1.0
 21
0.0
 31
0.0
 12
0.0
 22
0.0
 32
0.0
 42
50.0
 43
30.05782
 44
-30.05782
 50
0.0
 71
     0
281
     0
 72
     0
  0
VIEW
  5
49
330
6
100
AcDbSymbolTableRecord
100
AcDbViewTableRecord
  2
BACK
 70
     0
 40
59.28775
 10
0.0
 20
0.0
 41
13.88718
 11
0.0
 21
1.0
 31
0.0
 12
0.0
 22
0.0
 32
0.0
 42
50.0
 43
30.446227
 44
-30.446227
 50
0.0
 71
     0
281
     0
 72
     0
  0
VIEW
  5
4A
330
6
100
AcDbSymbolTableRecord
100
AcDbViewTableRecord
  2
BOTTOM
 70
     0
 40
9.942483
 10
0.0
 20
0.0
 41
13.88718
 11
0.0
 21
0.0
 31
-1.0
 12
0.0
 22
0.0
 32
0.0
 42
50.0
 43
29.643875
 44
-29.643875
 50
180.0
 71
     0
281
     0
 72
     0
  0
VIEW
  5
4B
330
6
100
AcDbSymbolTableRecord
100
AcDbViewTableRecord
  2
LEFT
 70
     0
 40
59.28775
 10
0.0
 20
0.0
 41
9.942483
 11
-1.0
 21
0.0
 31
0.0
 12
0.0
 22
0.0
 32
0.0
 42
50.0
 43
30.05782
 44
-30.05782
 50
0.0
 71
     0
281
     0
 72
     0
  0
VIEW
  5
4C
330
6
100
AcDbSymbolTableRecord
100
AcDbViewTableRecord
  2
TFR-ISO
 70
     0
 40
58.136664
 10
0.0
 20
0.0
 41
16.850116
 11
0.5773502691896258
 21
-0.5773502691896258
 31
0.5773502691896258
 12
0.0
 22
0.0
 32
0.0
 42
50.0
 43
30.264658
 44
-30.264658
 50
0.0
 71
     0
281
     0
 72
     0
  0
VIEW
  5
4D
330
6
100
AcDbSymbolTableRecord
100
AcDbViewTableRecord
  2
TFR-TRI
 70
     0
 40
61.350868
 10
0.0
 20
0.0
 41
16.477288
 11
0.7188730927569434
 21
-0.5850486126764431
 31
0.3754192287502549
 12
0.0
 22
0.0
 32
0.0
 42
50.0
 43
31.762517
 44
-31.762517
 50
0.0
 71
     0
281
     0
 72
     0
  0
ENDTAB
  0
TABLE
  2
UCS
  5
7
330
0
100
AcDbSymbolTable
 70
     0
  0
ENDTAB
  0
TABLE
  2
APPID
  5
9
330
0
100
AcDbSymbolTable
 70
     1
  0
APPID
  5
12
330
9
100
AcDbSymbolTableRecord
100
AcDbRegAppTableRecord
  2
ACAD
 70
     0
  0
ENDTAB
  0
TABLE
  2
DIMSTYLE
  5
A
330
0
100
AcDbSymbolTable
 70
     1
100
AcDbDimStyleTable
  0
DIMSTYLE
105
27
330
A
100
AcDbSymbolTableRecord
100
AcDbDimStyleTableRecord
  2
Standard
 70
     0
178
     0
340
11
  0
ENDTAB
  0
TABLE
  2
BLOCK_RECORD
  5
1
330
0
100
AcDbSymbolTable
 70
     3
  0
BLOCK_RECORD
  5
1F
330
1
100
AcDbSymbolTableRecord
100
AcDbBlockTableRecord
  2
*Model_Space
340
22
  0
BLOCK_RECORD
  5
53
330
1
100
AcDbSymbolTableRecord
100
AcDbBlockTableRecord
  2
*PAPER_SPACE
340
39B
  0
BLOCK_RECORD
  5
4E
330
1
100
AcDbSymbolTableRecord
100
AcDbBlockTableRecord
  2
*PAPER_SPACE1
340
52
  0
ENDTAB
  0
ENDSEC
  0
SECTION
  2
BLOCKS
  0
BLOCK
  5
20
330
1F
100
AcDbEntity
  8
0
100
AcDbBlockBegin
  2
*Model_Space
 70
     0
 10
0.0
 20
0.0
 30
0.0
  3
*Model_Space
  1

  0
ENDBLK
  5
21
330
1F
100
AcDbEntity
  8
0
100
AcDbBlockEnd
  0
BLOCK
  5
54
330
53
100
AcDbEntity
 67
     1
  8
0
100
AcDbBlockBegin
  2
*PAPER_SPACE
 70
     0
 10
0.0
 20
0.0
 30
0.0
  3
*PAPER_SPACE
  1

  0
ENDBLK
  5
55
330
53
100
AcDbEntity
 67
     1
  8
0
100
AcDbBlockEnd
  0
BLOCK
  5
4F
330
4E
100
AcDbEntity
  8
0
100
AcDbBlockBegin
  2
*PAPER_SPACE1
 70
     0
 10
0.0
 20
0.0
 30
0.0
  3
*PAPER_SPACE1
  1

  0
VIEWPORT
  5
51
330
4E
100
AcDbEntity
  8
0
100
AcDbViewport
 10
5.5
 20
4.25
 30
0.0
 40
11.0
 41
8.5
 68
     1
 69
     1
 12
5.5
 22
4.25
 13
0.0
 23
0.0
 14
1.0
 24
1.0
 15
1.0
 25
1.0
 16
0.0
 26
0.0
 36
1.0
 17
0.0
 27
0.0
 37
0.0
 42
43.280727
 43
0.0
 44
0.0
 45
8.5
 50
0.0
 51
0.0
 72
   100
 90
   557152
  1

281
     0
 71
     1
 74
     0
110
0.0
120
0.0
130
0.0
111
1.0
121
0.0
131
0.0
112
0.0
122
1.0
132
0.0
 79
     0
146
0.0
  0
ENDBLK
  5
50
330
4E
100
AcDbEntity
  8
0
100
AcDbBlockEnd
  0
ENDSEC
  0
SECTION
  2
ENTITIES
  0
VIEWPORT
  5
56
330
53
100
AcDbEntity
 67
     1
  8
0
100
AcDbViewport
 10
5.5
 20
4.25
 30
0.0
 40
11.0
 41
8.5
 68
     1
 69
     1
 12
5.5
 22
4.25
 13
0.0
 23
0.0
 14
1.0
 24
1.0
 15
1.0
 25
1.0
 16
0.0
 26
0.0
 36
1.0
 17
0.0
 27
0.0
 37
0.0
 42
43.280727
 43
0.0
 44
0.0
 45
8.5
 50
0.0
 51
0.0
 72
   100
 90
   557152
  1

281
     0
 71
     1
 74
     0
110
0.0
120
0.0
130
0.0
111
1.0
121
0.0
131
0.0
112
0.0
122
1.0
132
0.0
 79
     0
146
0.0
  0
LINE
  5
57
330
53
100
AcDbEntity
 67
     1
  8
1
  6
CONTINUOUS
 62
    18
100
AcDbLine
 10
4.806541
 20
4.194624
 30
0.0
 11
4.808506
 21
4.195395
 31
0.0
  0
LINE
  5
59
330
53
100
AcDbEntity
 67
     1
  8
1
  6
CONTINUOUS
 62
    18
100
AcDbLine
 10
4.241567
 20
4.195395
 30
0.0
 11
4.243532
 21
4.194624
 31
0.0
  0
LINE
  5
5A
330
53
100
AcDbEntity
 67
     1
  8
1
  6
CONTINUOUS
 62
    18
100
AcDbLine
 10
4.604015
 20
4.816995
 30
0.0
 11
4.444021
 21
4.816995
 31
0.0
  0
LINE
  5
5B
330
53
100
AcDbEntity
 67
     1
  8
1
  6
CONTINUOUS
 62
    18
100
AcDbLine
 10
4.444021
 20
4.848451
 30
0.0
 11
4.604015
 21
4.848451
 31
0.0
  0
LINE
  5
5C
330
53
100
AcDbEntity
 67
     1
  8
1
  6
CONTINUOUS
 62
    18
100
AcDbLine
 10
4.836803
 20
4.713451
 30
0.0
 11
4.836803
 21
4.778451
 31
0.0
  0
LINE
  5
5D
330
53
100
AcDbEntity
 67
     1
  8
1
  6
CONTINUOUS
 62
    18
100
AcDbLine
 10
4.836374
 20
4.689339
 30
0.0
 11
4.83669
 21
4.699951
 31
0.0
  0
LINE
  5
5E
330
53
100
AcDbEntity
 67
     1
  8
1
  6
CONTINUOUS
 62
    18
100
AcDbLine
 10
4.83669
 20
4.699951
 30
0.0
 11
4.836803
 21
4.713451
 31
0.0
  0
LINE
  5
5F
330
53
100
AcDbEntity
 67
     1
  8
1
  6
CONTINUOUS
 62
    18
100
AcDbLine
 10
4.836803
 20
4.778451
 30
0.0
 11
4.83669
 21
4.791952
 31
0.0
  0
LINE
  5
60
330
53
100
AcDbEntity
 67
     1
  8
1
  6
CONTINUOUS
 62
    18
100
AcDbLine
 10
4.83669
 20
4.791952
 30
0.0
 11
4.836374
 21
4.802563
 31
0.0
  0
LINE
  5
61
330
53
100
AcDbEntity
 67
     1
  8
1
  6
CONTINUOUS
 62
    18
100
AcDbLine
 10
4.211233
 20
4.713451
 30
0.0
 11
4.211233
 21
4.778451
 31
0.0
  0
LINE
  5
62
330
53
100
AcDbEntity
 67
     1
  8
1
  6
CONTINUOUS
 62
    18
100
AcDbLine
 10
4.211233
 20
4.713451
 30
0.0
 11
4.211346
 21
4.699951
 31
0.0
  0
LINE
  5
63
330
53
100
AcDbEntity
 67
     1
  8
1
  6
CONTINUOUS
 62
    18
100
AcDbLine
 10
4.211346
 20
4.699951
 30
0.0
 11
4.211662
 21
4.689339
 31
0.0
  0
LINE
  5
64
330
53
100
AcDbEntity
 67
     1
  8
1
  6
CONTINUOUS
 62
    18
100
AcDbLine
 10
4.211662
 20
4.802563
 30
0.0
 11
4.211346
 21
4.791952
 31
0.0
  0
LINE
  5
65
330
53
100
AcDbEntity
 67
     1
  8
1
  6
CONTINUOUS
 62
    18
100
AcDbLine
 10
4.211346
 20
4.791952
 30
0.0
 11
4.211233
 21
4.778451
 31
0.0
  0
LINE
  5
66
330
53
100
AcDbEntity
 67
     1
  8
1
  6
CONTINUOUS
 62
    18
100
AcDbLine
 10
4.836374
 20
4.314695
 30
0.0
 11
4.83669
 21
4.325307
 31
0.0
  0
LINE
  5
67
330
53
100
AcDbEntity
 67
     1
  8
1
  6
CONTINUOUS
 62
    18
100
AcDbLine
 10
4.83669
 20
4.325307
 30
0.0
 11
4.836803
 21
4.338807
 31
0.0
  0
LINE
  5
68
330
53
100
AcDbEntity
 67
     1
  8
1
  6
CONTINUOUS
 62
    18
100
AcDbLine
 10
4.836803
 20
4.338807
 30
0.0
 11
4.836803
 21
4.403807
 31
0.0
  0
LINE
  5
69
330
53
100
AcDbEntity
 67
     1
  8
1
  6
CONTINUOUS
 62
    18
100
AcDbLine
 10
4.836803
 20
4.403807
 30
0.0
 11
4.83669
 21
4.417308
 31
0.0
  0
LINE
  5
6A
330
53
100
AcDbEntity
 67
     1
  8
1
  6
CONTINUOUS
 62
    18
100
AcDbLine
 10
4.83669
 20
4.417308
 30
0.0
 11
4.836374
 21
4.42792
 31
0.0
  0
LINE
  5
6B
330
53
100
AcDbEntity
 67
     1
  8
1
  6
CONTINUOUS
 62
    18
100
AcDbLine
 10
4.211233
 20
4.338807
 30
0.0
 11
4.211233
 21
4.403807
 31
0.0
  0
LINE
  5
6C
330
53
100
AcDbEntity
 67
     1
  8
1
  6
CONTINUOUS
 62
    18
100
AcDbLine
 10
4.211233
 20
4.338807
 30
0.0
 11
4.211346
 21
4.325307
 31
0.0
  0
LINE
  5
6D
330
53
100
AcDbEntity
 67
     1
  8
1
  6
CONTINUOUS
 62
    18
100
AcDbLine
 10
4.211346
 20
4.325307
 30
0.0
 11
4.211662
 21
4.314695
 31
0.0
  0
LINE
  5
6E
330
53
100
AcDbEntity
 67
     1
  8
1
  6
CONTINUOUS
 62
    18
100
AcDbLine
 10
4.211662
 20
4.42792
 30
0.0
 11
4.211346
 21
4.417308
 31
0.0
  0
LINE
  5
6F
330
53
100
AcDbEntity
 67
     1
  8
1
  6
CONTINUOUS
 62
    18
100
AcDbLine
 10
4.211346
 20
4.417308
 30
0.0
 11
4.211233
 21
4.403807
 31
0.0
  0
LINE
  5
70
330
53
100
AcDbEntity
 67
     1
  8
1
  6
CONTINUOUS
 62
    18
100
AcDbLine
 10
4.612186
 20
4.703191
 30
0.0
 11
4.626454
 21
4.703191
 31
0.0
  0
LINE
  5
71
330
53
100
AcDbEntity
 67
     1
  8
1
  6
CONTINUOUS
 62
    18
100
AcDbLine
 10
4.626454
 20
4.703191
 30
0.0
 11
4.626454
 21
4.696413
 31
0.0
  0
LINE
  5
72
330
53
100
AcDbEntity
 67
     1
  8
1
  6
CONTINUOUS
 62
    18
100
AcDbLine
 10
4.626454
 20
4.722969
 30
0.0
 11
4.626454
 21
4.716191
 31
0.0
  0
LINE
  5
73
330
53
100
AcDbEntity
 67
     1
  8
1
  6
CONTINUOUS
 62
    18
100
AcDbLine
 10
4.626454
 20
4.716191
 30
0.0
 11
4.612186
 21
4.716191
 31
0.0
  0
LINE
  5
74
330
53
100
AcDbEntity
 67
     1
  8
1
  6
CONTINUOUS
 62
    18
100
AcDbLine
 10
4.421582
 20
4.696413
 30
0.0
 11
4.421582
 21
4.703191
 31
0.0
  0
LINE
  5
75
330
53
100
AcDbEntity
 67
     1
  8
1
  6
CONTINUOUS
 62
    18
100
AcDbLine
 10
4.421582
 20
4.703191
 30
0.0
 11
4.435851
 21
4.703191
 31
0.0
  0
LINE
  5
76
330
53
100
AcDbEntity
 67
     1
  8
1
  6
CONTINUOUS
 62
    18
100
AcDbLine
 10
4.435851
 20
4.716191
 30
0.0
 11
4.421582
 21
4.716191
 31
0.0
  0
LINE
  5
77
330
53
100
AcDbEntity
 67
     1
  8
1
  6
CONTINUOUS
 62
    18
100
AcDbLine
 10
4.421582
 20
4.716191
 30
0.0
 11
4.421582
 21
4.722969
 31
0.0
  0
LINE
  5
78
330
53
100
AcDbEntity
 67
     1
  8
1
  6
CONTINUOUS
 62
    18
100
AcDbLine
 10
4.626199
 20
4.696368
 30
0.0
 11
4.626454
 21
4.703191
 31
0.0
  0
LINE
  5
79
330
53
100
AcDbEntity
 67
     1
  8
1
  6
CONTINUOUS
 62
    18
100
AcDbLine
 10
4.626199
 20
4.723014
 30
0.0
 11
4.626454
 21
4.716191
 31
0.0
  0
LINE
  5
7A
330
53
100
AcDbEntity
 67
     1
  8
1
  6
CONTINUOUS
 62
    18
100
AcDbLine
 10
4.421837
 20
4.723014
 30
0.0
 11
4.421582
 21
4.716191
 31
0.0
  0
LINE
  5
7B
330
53
100
AcDbEntity
 67
     1
  8
1
  6
CONTINUOUS
 62
    18
100
AcDbLine
 10
4.421837
 20
4.696368
 30
0.0
 11
4.421582
 21
4.703191
 31
0.0
  0
LINE
  5
7C
330
53
100
AcDbEntity
 67
     1
  8
1
  6
CONTINUOUS
 62
    18
100
AcDbLine
 10
4.836374
 20
4.198629
 30
0.0
 11
4.836374
 21
4.913408
 31
0.0
  0
LINE
  5
7D
330
53
100
AcDbEntity
 67
     1
  8
1
  6
CONTINUOUS
 62
    18
100
AcDbLine
 10
4.82737
 20
4.847856
 30
0.0
 11
4.82737
 21
4.198629
 31
0.0
  0
LINE
  5
7E
330
53
100
AcDbEntity
 67
     1
  8
1
  6
CONTINUOUS
 62
    18
100
AcDbLine
 10
4.822371
 20
4.847771
 30
0.0
 11
4.82737
 21
4.847856
 31
0.0
  0
LINE
  5
7F
330
53
100
AcDbEntity
 67
     1
  8
1
  6
CONTINUOUS
 62
    18
100
AcDbLine
 10
4.822371
 20
4.198629
 30
0.0
 11
4.822371
 21
4.847771
 31
0.0
  0
LINE
  5
80
330
53
100
AcDbEntity
 67
     1
  8
1
  6
CONTINUOUS
 62
    18
100
AcDbLine
 10
4.82737
 20
4.198629
 30
0.0
 11
4.825876
 21
4.198629
 31
0.0
  0
LINE
  5
81
330
53
100
AcDbEntity
 67
     1
  8
1
  6
CONTINUOUS
 62
    18
100
AcDbLine
 10
4.825876
 20
4.198629
 30
0.0
 11
4.822371
 21
4.198629
 31
0.0
  0
LINE
  5
82
330
53
100
AcDbEntity
 67
     1
  8
1
  6
CONTINUOUS
 62
    18
100
AcDbLine
 10
4.836374
 20
4.913485
 30
0.0
 11
4.836374
 21
4.913408
 31
0.0
  0
LINE
  5
83
330
53
100
AcDbEntity
 67
     1
  8
1
  6
CONTINUOUS
 62
    18
100
AcDbLine
 10
4.828995
 20
4.906107
 30
0.0
 11
4.836374
 21
4.913485
 31
0.0
  0
LINE
  5
84
330
53
100
AcDbEntity
 67
     1
  8
1
  6
CONTINUOUS
 62
    18
100
AcDbLine
 10
4.828995
 20
4.849481
 30
0.0
 11
4.828995
 21
4.906107
 31
0.0
  0
LINE
  5
85
330
53
100
AcDbEntity
 67
     1
  8
1
  6
CONTINUOUS
 62
    18
100
AcDbLine
 10
4.82737
 20
4.847856
 30
0.0
 11
4.828995
 21
4.849481
 31
0.0
  0
LINE
  5
86
330
53
100
AcDbEntity
 67
     1
  8
1
  6
CONTINUOUS
 62
    18
100
AcDbLine
 10
4.836374
 20
4.198629
 30
0.0
 11
4.82737
 21
4.198629
 31
0.0
  0
LINE
  5
87
330
53
100
AcDbEntity
 67
     1
  8
1
  6
CONTINUOUS
 62
    18
100
AcDbLine
 10
4.786754
 20
4.918485
 30
0.0
 11
4.787966
 21
4.918485
 31
0.0
  0
LINE
  5
88
330
53
100
AcDbEntity
 67
     1
  8
1
  6
CONTINUOUS
 62
    18
100
AcDbLine
 10
4.761882
 20
4.847771
 30
0.0
 11
4.822371
 21
4.847771
 31
0.0
  0
LINE
  5
89
330
53
100
AcDbEntity
 67
     1
  8
1
  6
CONTINUOUS
 62
    18
100
AcDbLine
 10
4.761882
 20
4.904482
 30
0.0
 11
4.761882
 21
4.847771
 31
0.0
  0
LINE
  5
8A
330
53
100
AcDbEntity
 67
     1
  8
1
  6
CONTINUOUS
 62
    18
100
AcDbLine
 10
4.286154
 20
4.904482
 30
0.0
 11
4.761882
 21
4.904482
 31
0.0
  0
LINE
  5
8B
330
53
100
AcDbEntity
 67
     1
  8
1
  6
CONTINUOUS
 62
    18
100
AcDbLine
 10
4.286154
 20
4.904482
 30
0.0
 11
4.286154
 21
4.847771
 31
0.0
  0
LINE
  5
8C
330
53
100
AcDbEntity
 67
     1
  8
1
  6
CONTINUOUS
 62
    18
100
AcDbLine
 10
4.286154
 20
4.847771
 30
0.0
 11
4.225665
 21
4.847771
 31
0.0
  0
LINE
  5
8D
330
53
100
AcDbEntity
 67
     1
  8
1
  6
CONTINUOUS
 62
    18
100
AcDbLine
 10
4.225665
 20
4.198629
 30
0.0
 11
4.225665
 21
4.847771
 31
0.0
  0
LINE
  5
8E
330
53
100
AcDbEntity
 67
     1
  8
1
  6
CONTINUOUS
 62
    18
100
AcDbLine
 10
4.225665
 20
4.198629
 30
0.0
 11
4.822371
 21
4.198629
 31
0.0
  0
LINE
  5
8F
330
53
100
AcDbEntity
 67
     1
  8
1
  6
CONTINUOUS
 62
    18
100
AcDbLine
 10
4.678018
 20
4.758256
 30
0.0
 11
4.678018
 21
4.824256
 31
0.0
  0
LINE
  5
90
330
53
100
AcDbEntity
 67
     1
  8
1
  6
CONTINUOUS
 62
    18
100
AcDbLine
 10
4.788518
 20
4.758256
 30
0.0
 11
4.678018
 21
4.758256
 31
0.0
  0
LINE
  5
91
330
53
100
AcDbEntity
 67
     1
  8
1
  6
CONTINUOUS
 62
    18
100
AcDbLine
 10
4.788518
 20
4.758256
 30
0.0
 11
4.788518
 21
4.429256
 31
0.0
  0
LINE
  5
92
330
53
100
AcDbEntity
 67
     1
  8
1
  6
CONTINUOUS
 62
    18
100
AcDbLine
 10
4.259518
 20
4.758256
 30
0.0
 11
4.259518
 21
4.429256
 31
0.0
  0
LINE
  5
93
330
53
100
AcDbEntity
 67
     1
  8
1
  6
CONTINUOUS
 62
    18
100
AcDbLine
 10
4.259518
 20
4.758256
 30
0.0
 11
4.370018
 21
4.758256
 31
0.0
  0
LINE
  5
94
330
53
100
AcDbEntity
 67
     1
  8
1
  6
CONTINUOUS
 62
    18
100
AcDbLine
 10
4.370018
 20
4.758256
 30
0.0
 11
4.370018
 21
4.824256
 31
0.0
  0
LINE
  5
95
330
53
100
AcDbEntity
 67
     1
  8
1
  6
CONTINUOUS
 62
    18
100
AcDbLine
 10
4.370018
 20
4.824256
 30
0.0
 11
4.414018
 21
4.824256
 31
0.0
  0
LINE
  5
96
330
53
100
AcDbEntity
 67
     1
  8
1
  6
CONTINUOUS
 62
    18
100
AcDbLine
 10
4.414018
 20
4.875515
 30
0.0
 11
4.414018
 21
4.824256
 31
0.0
  0
LINE
  5
97
330
53
100
AcDbEntity
 67
     1
  8
1
  6
CONTINUOUS
 62
    18
100
AcDbLine
 10
4.414018
 20
4.875515
 30
0.0
 11
4.634018
 21
4.875515
 31
0.0
  0
LINE
  5
98
330
53
100
AcDbEntity
 67
     1
  8
1
  6
CONTINUOUS
 62
    18
100
AcDbLine
 10
4.634018
 20
4.875515
 30
0.0
 11
4.634018
 21
4.824256
 31
0.0
  0
LINE
  5
99
330
53
100
AcDbEntity
 67
     1
  8
1
  6
CONTINUOUS
 62
    18
100
AcDbLine
 10
4.678018
 20
4.824256
 30
0.0
 11
4.634018
 21
4.824256
 31
0.0
  0
LINE
  5
9A
330
53
100
AcDbEntity
 67
     1
  8
1
  6
CONTINUOUS
 62
    18
100
AcDbLine
 10
4.634018
 20
4.278625
 30
0.0
 11
4.629626
 21
4.26802
 31
0.0
  0
LINE
  5
9B
330
53
100
AcDbEntity
 67
     1
  8
1
  6
CONTINUOUS
 62
    18
100
AcDbLine
 10
4.629626
 20
4.26802
 30
0.0
 11
4.619021
 21
4.263628
 31
0.0
  0
LINE
  5
9C
330
53
100
AcDbEntity
 67
     1
  8
1
  6
CONTINUOUS
 62
    18
100
AcDbLine
 10
4.619021
 20
4.263628
 30
0.0
 11
4.429016
 21
4.263628
 31
0.0
  0
LINE
  5
9D
330
53
100
AcDbEntity
 67
     1
  8
1
  6
CONTINUOUS
 62
    18
100
AcDbLine
 10
4.414018
 20
4.278625
 30
0.0
 11
4.418411
 21
4.26802
 31
0.0
  0
LINE
  5
9E
330
53
100
AcDbEntity
 67
     1
  8
1
  6
CONTINUOUS
 62
    18
100
AcDbLine
 10
4.418411
 20
4.26802
 30
0.0
 11
4.429016
 21
4.263628
 31
0.0
  0
LINE
  5
9F
330
53
100
AcDbEntity
 67
     1
  8
1
  6
CONTINUOUS
 62
    18
100
AcDbLine
 10
4.414018
 20
4.31263
 30
0.0
 11
4.414018
 21
4.278625
 31
0.0
  0
LINE
  5
A0
330
53
100
AcDbEntity
 67
     1
  8
1
  6
CONTINUOUS
 62
    18
100
AcDbLine
 10
4.429016
 20
4.327628
 30
0.0
 11
4.418411
 21
4.323235
 31
0.0
  0
LINE
  5
A1
330
53
100
AcDbEntity
 67
     1
  8
1
  6
CONTINUOUS
 62
    18
100
AcDbLine
 10
4.418411
 20
4.323235
 30
0.0
 11
4.414018
 21
4.31263
 31
0.0
  0
LINE
  5
A2
330
53
100
AcDbEntity
 67
     1
  8
1
  6
CONTINUOUS
 62
    18
100
AcDbLine
 10
4.619021
 20
4.327628
 30
0.0
 11
4.429016
 21
4.327628
 31
0.0
  0
LINE
  5
A3
330
53
100
AcDbEntity
 67
     1
  8
1
  6
CONTINUOUS
 62
    18
100
AcDbLine
 10
4.619021
 20
4.327628
 30
0.0
 11
4.629626
 21
4.323235
 31
0.0
  0
LINE
  5
A4
330
53
100
AcDbEntity
 67
     1
  8
1
  6
CONTINUOUS
 62
    18
100
AcDbLine
 10
4.629626
 20
4.323235
 30
0.0
 11
4.634018
 21
4.31263
 31
0.0
  0
LINE
  5
A5
330
53
100
AcDbEntity
 67
     1
  8
1
  6
CONTINUOUS
 62
    18
100
AcDbLine
 10
4.634018
 20
4.31263
 30
0.0
 11
4.634018
 21
4.278625
 31
0.0
  0
LINE
  5
A6
330
53
100
AcDbEntity
 67
     1
  8
1
  6
CONTINUOUS
 62
    18
100
AcDbLine
 10
4.789018
 20
4.417256
 30
0.0
 11
4.789018
 21
4.429256
 31
0.0
  0
LINE
  5
A7
330
53
100
AcDbEntity
 67
     1
  8
1
  6
CONTINUOUS
 62
    18
100
AcDbLine
 10
4.648018
 20
4.728256
 30
0.0
 11
4.650302
 21
4.73054
 31
0.0
  0
LINE
  5
A8
330
53
100
AcDbEntity
 67
     1
  8
1
  6
CONTINUOUS
 62
    18
100
AcDbLine
 10
4.650302
 20
4.73054
 30
0.0
 11
4.656805
 21
4.737043
 31
0.0
  0
LINE
  5
A9
330
53
100
AcDbEntity
 67
     1
  8
1
  6
CONTINUOUS
 62
    18
100
AcDbLine
 10
4.656805
 20
4.737043
 30
0.0
 11
4.666538
 21
4.746776
 31
0.0
  0
LINE
  5
AA
330
53
100
AcDbEntity
 67
     1
  8
1
  6
CONTINUOUS
 62
    18
100
AcDbLine
 10
4.666538
 20
4.746776
 30
0.0
 11
4.678018
 21
4.758256
 31
0.0
  0
LINE
  5
AB
330
53
100
AcDbEntity
 67
     1
  8
1
  6
CONTINUOUS
 62
    18
100
AcDbLine
 10
4.648018
 20
4.728256
 30
0.0
 11
4.758518
 21
4.728256
 31
0.0
  0
LINE
  5
AC
330
53
100
AcDbEntity
 67
     1
  8
1
  6
CONTINUOUS
 62
    18
100
AcDbLine
 10
4.758518
 20
4.728256
 30
0.0
 11
4.760802
 21
4.73054
 31
0.0
  0
LINE
  5
AD
330
53
100
AcDbEntity
 67
     1
  8
1
  6
CONTINUOUS
 62
    18
100
AcDbLine
 10
4.760802
 20
4.73054
 30
0.0
 11
4.767305
 21
4.737043
 31
0.0
  0
LINE
  5
AE
330
53
100
AcDbEntity
 67
     1
  8
1
  6
CONTINUOUS
 62
    18
100
AcDbLine
 10
4.767305
 20
4.737043
 30
0.0
 11
4.777038
 21
4.746776
 31
0.0
  0
LINE
  5
AF
330
53
100
AcDbEntity
 67
     1
  8
1
  6
CONTINUOUS
 62
    18
100
AcDbLine
 10
4.777038
 20
4.746776
 30
0.0
 11
4.788518
 21
4.758256
 31
0.0
  0
LINE
  5
B0
330
53
100
AcDbEntity
 67
     1
  8
1
  6
CONTINUOUS
 62
    18
100
AcDbLine
 10
4.758518
 20
4.459256
 30
0.0
 11
4.758518
 21
4.728256
 31
0.0
  0
LINE
  5
B1
330
53
100
AcDbEntity
 67
     1
  8
1
  6
CONTINUOUS
 62
    18
100
AcDbLine
 10
4.788518
 20
4.429256
 30
0.0
 11
4.777038
 21
4.440736
 31
0.0
  0
LINE
  5
B2
330
53
100
AcDbEntity
 67
     1
  8
1
  6
CONTINUOUS
 62
    18
100
AcDbLine
 10
4.777038
 20
4.440736
 30
0.0
 11
4.767305
 21
4.450469
 31
0.0
  0
LINE
  5
B3
330
53
100
AcDbEntity
 67
     1
  8
1
  6
CONTINUOUS
 62
    18
100
AcDbLine
 10
4.767305
 20
4.450469
 30
0.0
 11
4.760802
 21
4.456972
 31
0.0
  0
LINE
  5
B4
330
53
100
AcDbEntity
 67
     1
  8
1
  6
CONTINUOUS
 62
    18
100
AcDbLine
 10
4.760802
 20
4.456972
 30
0.0
 11
4.758518
 21
4.459256
 31
0.0
  0
LINE
  5
B5
330
53
100
AcDbEntity
 67
     1
  8
1
  6
CONTINUOUS
 62
    18
100
AcDbLine
 10
4.758518
 20
4.459256
 30
0.0
 11
4.289518
 21
4.459256
 31
0.0
  0
LINE
  5
B6
330
53
100
AcDbEntity
 67
     1
  8
1
  6
CONTINUOUS
 62
    18
100
AcDbLine
 10
4.259518
 20
4.429256
 30
0.0
 11
4.270999
 21
4.440736
 31
0.0
  0
LINE
  5
B7
330
53
100
AcDbEntity
 67
     1
  8
1
  6
CONTINUOUS
 62
    18
100
AcDbLine
 10
4.270999
 20
4.440736
 30
0.0
 11
4.280731
 21
4.450469
 31
0.0
  0
LINE
  5
B8
330
53
100
AcDbEntity
 67
     1
  8
1
  6
CONTINUOUS
 62
    18
100
AcDbLine
 10
4.280731
 20
4.450469
 30
0.0
 11
4.287235
 21
4.456972
 31
0.0
  0
LINE
  5
B9
330
53
100
AcDbEntity
 67
     1
  8
1
  6
CONTINUOUS
 62
    18
100
AcDbLine
 10
4.287235
 20
4.456972
 30
0.0
 11
4.289518
 21
4.459256
 31
0.0
  0
LINE
  5
BA
330
53
100
AcDbEntity
 67
     1
  8
1
  6
CONTINUOUS
 62
    18
100
AcDbLine
 10
4.259018
 20
4.429256
 30
0.0
 11
4.789018
 21
4.429256
 31
0.0
  0
LINE
  5
BB
330
53
100
AcDbEntity
 67
     1
  8
1
  6
CONTINUOUS
 62
    18
100
AcDbLine
 10
4.259018
 20
4.417256
 30
0.0
 11
4.259018
 21
4.429256
 31
0.0
  0
LINE
  5
BC
330
53
100
AcDbEntity
 67
     1
  8
1
  6
CONTINUOUS
 62
    18
100
AcDbLine
 10
4.267018
 20
4.409256
 30
0.0
 11
4.781018
 21
4.409256
 31
0.0
  0
LINE
  5
BD
330
53
100
AcDbEntity
 67
     1
  8
1
  6
CONTINUOUS
 62
    18
100
AcDbLine
 10
4.220666
 20
4.198629
 30
0.0
 11
4.222161
 21
4.198629
 31
0.0
  0
LINE
  5
BE
330
53
100
AcDbEntity
 67
     1
  8
1
  6
CONTINUOUS
 62
    18
100
AcDbLine
 10
4.222161
 20
4.198629
 30
0.0
 11
4.225665
 21
4.198629
 31
0.0
  0
LINE
  5
BF
330
53
100
AcDbEntity
 67
     1
  8
1
  6
CONTINUOUS
 62
    18
100
AcDbLine
 10
4.211662
 20
4.198629
 30
0.0
 11
4.220666
 21
4.198629
 31
0.0
  0
LINE
  5
C0
330
53
100
AcDbEntity
 67
     1
  8
1
  6
CONTINUOUS
 62
    18
100
AcDbLine
 10
4.763593
 20
4.911106
 30
0.0
 11
4.823996
 21
4.911106
 31
0.0
  0
LINE
  5
C1
330
53
100
AcDbEntity
 67
     1
  8
1
  6
CONTINUOUS
 62
    18
100
AcDbLine
 10
4.831375
 20
4.918485
 30
0.0
 11
4.823996
 21
4.911106
 31
0.0
  0
LINE
  5
C2
330
53
100
AcDbEntity
 67
     1
  8
1
  6
CONTINUOUS
 62
    18
100
AcDbLine
 10
4.831374
 20
4.918485
 30
0.0
 11
4.787966
 21
4.918485
 31
0.0
  0
LINE
  5
C3
330
53
100
AcDbEntity
 67
     1
  8
1
  6
CONTINUOUS
 62
    18
100
AcDbLine
 10
4.786754
 20
4.918485
 30
0.0
 11
4.261191
 21
4.918485
 31
0.0
  0
LINE
  5
C4
330
53
100
AcDbEntity
 67
     1
  8
1
  6
CONTINUOUS
 62
    18
100
AcDbLine
 10
4.261191
 20
4.918485
 30
0.0
 11
4.216662
 21
4.918485
 31
0.0
  0
LINE
  5
C5
330
53
100
AcDbEntity
 67
     1
  8
1
  6
CONTINUOUS
 62
    18
100
AcDbLine
 10
4.216662
 20
4.918485
 30
0.0
 11
4.224041
 21
4.911106
 31
0.0
  0
LINE
  5
C6
330
53
100
AcDbEntity
 67
     1
  8
1
  6
CONTINUOUS
 62
    18
100
AcDbLine
 10
4.284444
 20
4.911106
 30
0.0
 11
4.224041
 21
4.911106
 31
0.0
  0
LINE
  5
C7
330
53
100
AcDbEntity
 67
     1
  8
1
  6
CONTINUOUS
 62
    18
100
AcDbLine
 10
4.284444
 20
4.911106
 30
0.0
 11
4.286068
 21
4.909481
 31
0.0
  0
LINE
  5
C8
330
53
100
AcDbEntity
 67
     1
  8
1
  6
CONTINUOUS
 62
    18
100
AcDbLine
 10
4.761968
 20
4.909481
 30
0.0
 11
4.286068
 21
4.909481
 31
0.0
  0
LINE
  5
C9
330
53
100
AcDbEntity
 67
     1
  8
1
  6
CONTINUOUS
 62
    18
100
AcDbLine
 10
4.763593
 20
4.911106
 30
0.0
 11
4.761968
 21
4.909481
 31
0.0
  0
LINE
  5
CA
330
53
100
AcDbEntity
 67
     1
  8
1
  6
CONTINUOUS
 62
    18
100
AcDbLine
 10
4.828995
 20
4.849481
 30
0.0
 11
4.763593
 21
4.849481
 31
0.0
  0
LINE
  5
CB
330
53
100
AcDbEntity
 67
     1
  8
1
  6
CONTINUOUS
 62
    18
100
AcDbLine
 10
4.823996
 20
4.911106
 30
0.0
 11
4.828995
 21
4.906107
 31
0.0
  0
LINE
  5
CC
330
53
100
AcDbEntity
 67
     1
  8
1
  6
CONTINUOUS
 62
    18
100
AcDbLine
 10
4.763593
 20
4.911106
 30
0.0
 11
4.763593
 21
4.849481
 31
0.0
  0
LINE
  5
CD
330
53
100
AcDbEntity
 67
     1
  8
1
  6
CONTINUOUS
 62
    18
100
AcDbLine
 10
4.763593
 20
4.849481
 30
0.0
 11
4.761882
 21
4.847771
 31
0.0
  0
LINE
  5
CE
330
53
100
AcDbEntity
 67
     1
  8
1
  6
CONTINUOUS
 62
    18
100
AcDbLine
 10
4.224041
 20
4.911106
 30
0.0
 11
4.219041
 21
4.906107
 31
0.0
  0
LINE
  5
CF
330
53
100
AcDbEntity
 67
     1
  8
1
  6
CONTINUOUS
 62
    18
100
AcDbLine
 10
4.211663
 20
4.913485
 30
0.0
 11
4.211667
 21
4.913639
 31
0.0
  0
LINE
  5
D0
330
53
100
AcDbEntity
 67
     1
  8
1
  6
CONTINUOUS
 62
    18
100
AcDbLine
 10
4.211667
 20
4.913639
 30
0.0
 11
4.211692
 21
4.913997
 31
0.0
  0
LINE
  5
D1
330
53
100
AcDbEntity
 67
     1
  8
1
  6
CONTINUOUS
 62
    18
100
AcDbLine
 10
4.211692
 20
4.913997
 30
0.0
 11
4.211792
 21
4.914596
 31
0.0
  0
LINE
  5
D2
330
53
100
AcDbEntity
 67
     1
  8
1
  6
CONTINUOUS
 62
    18
100
AcDbLine
 10
4.211792
 20
4.914596
 30
0.0
 11
4.212436
 21
4.916149
 31
0.0
  0
LINE
  5
D3
330
53
100
AcDbEntity
 67
     1
  8
1
  6
CONTINUOUS
 62
    18
100
AcDbLine
 10
4.212436
 20
4.916149
 30
0.0
 11
4.213551
 21
4.917396
 31
0.0
  0
LINE
  5
D4
330
53
100
AcDbEntity
 67
     1
  8
1
  6
CONTINUOUS
 62
    18
100
AcDbLine
 10
4.213551
 20
4.917396
 30
0.0
 11
4.215013
 21
4.918205
 31
0.0
  0
LINE
  5
D5
330
53
100
AcDbEntity
 67
     1
  8
1
  6
CONTINUOUS
 62
    18
100
AcDbLine
 10
4.215013
 20
4.918205
 30
0.0
 11
4.216662
 21
4.918485
 31
0.0
  0
LINE
  5
D6
330
53
100
AcDbEntity
 67
     1
  8
1
  6
CONTINUOUS
 62
    18
100
AcDbLine
 10
4.219041
 20
4.906107
 30
0.0
 11
4.211663
 21
4.913485
 31
0.0
  0
LINE
  5
D7
330
53
100
AcDbEntity
 67
     1
  8
1
  6
CONTINUOUS
 62
    18
100
AcDbLine
 10
4.219041
 20
4.849481
 30
0.0
 11
4.284444
 21
4.849481
 31
0.0
  0
LINE
  5
D8
330
53
100
AcDbEntity
 67
     1
  8
1
  6
CONTINUOUS
 62
    18
100
AcDbLine
 10
4.284444
 20
4.911106
 30
0.0
 11
4.284444
 21
4.849481
 31
0.0
  0
LINE
  5
D9
330
53
100
AcDbEntity
 67
     1
  8
1
  6
CONTINUOUS
 62
    18
100
AcDbLine
 10
4.219041
 20
4.849481
 30
0.0
 11
4.219041
 21
4.906107
 31
0.0
  0
LINE
  5
DA
330
53
100
AcDbEntity
 67
     1
  8
1
  6
CONTINUOUS
 62
    18
100
AcDbLine
 10
4.211663
 20
4.913485
 30
0.0
 11
4.211662
 21
4.913408
 31
0.0
  0
LINE
  5
DB
330
53
100
AcDbEntity
 67
     1
  8
1
  6
CONTINUOUS
 62
    18
100
AcDbLine
 10
4.284444
 20
4.849481
 30
0.0
 11
4.286154
 21
4.847771
 31
0.0
  0
LINE
  5
DC
330
53
100
AcDbEntity
 67
     1
  8
1
  6
CONTINUOUS
 62
    18
100
AcDbLine
 10
4.220666
 20
4.847856
 30
0.0
 11
4.219041
 21
4.849481
 31
0.0
  0
LINE
  5
DD
330
53
100
AcDbEntity
 67
     1
  8
1
  6
CONTINUOUS
 62
    18
100
AcDbLine
 10
4.225665
 20
4.847771
 30
0.0
 11
4.220666
 21
4.847856
 31
0.0
  0
LINE
  5
DE
330
53
100
AcDbEntity
 67
     1
  8
1
  6
CONTINUOUS
 62
    18
100
AcDbLine
 10
4.286154
 20
4.904482
 30
0.0
 11
4.286068
 21
4.909481
 31
0.0
  0
LINE
  5
DF
330
53
100
AcDbEntity
 67
     1
  8
1
  6
CONTINUOUS
 62
    18
100
AcDbLine
 10
4.761882
 20
4.904482
 30
0.0
 11
4.761968
 21
4.909481
 31
0.0
  0
LINE
  5
E0
330
53
100
AcDbEntity
 67
     1
  8
1
  6
CONTINUOUS
 62
    18
100
AcDbLine
 10
4.604018
 20
4.849256
 30
0.0
 11
4.444018
 21
4.849256
 31
0.0
  0
LINE
  5
E1
330
53
100
AcDbEntity
 67
     1
  8
1
  6
CONTINUOUS
 62
    18
100
AcDbLine
 10
4.604018
 20
4.867476
 30
0.0
 11
4.608037
 21
4.871496
 31
0.0
  0
LINE
  5
E2
330
53
100
AcDbEntity
 67
     1
  8
1
  6
CONTINUOUS
 62
    18
100
AcDbLine
 10
4.608037
 20
4.871496
 30
0.0
 11
4.619018
 21
4.874438
 31
0.0
  0
LINE
  5
E3
330
53
100
AcDbEntity
 67
     1
  8
1
  6
CONTINUOUS
 62
    18
100
AcDbLine
 10
4.619018
 20
4.874438
 30
0.0
 11
4.634018
 21
4.875515
 31
0.0
  0
LINE
  5
E4
330
53
100
AcDbEntity
 67
     1
  8
1
  6
CONTINUOUS
 62
    18
100
AcDbLine
 10
4.444018
 20
4.867476
 30
0.0
 11
4.439999
 21
4.871496
 31
0.0
  0
LINE
  5
E5
330
53
100
AcDbEntity
 67
     1
  8
1
  6
CONTINUOUS
 62
    18
100
AcDbLine
 10
4.439999
 20
4.871496
 30
0.0
 11
4.429018
 21
4.874438
 31
0.0
  0
LINE
  5
E6
330
53
100
AcDbEntity
 67
     1
  8
1
  6
CONTINUOUS
 62
    18
100
AcDbLine
 10
4.429018
 20
4.874438
 30
0.0
 11
4.414018
 21
4.875515
 31
0.0
  0
LINE
  5
E7
330
53
100
AcDbEntity
 67
     1
  8
1
  6
CONTINUOUS
 62
    18
100
AcDbLine
 10
4.211662
 20
4.198629
 30
0.0
 11
4.211662
 21
4.913408
 31
0.0
  0
LINE
  5
E8
330
53
100
AcDbEntity
 67
     1
  8
1
  6
CONTINUOUS
 62
    18
100
AcDbLine
 10
4.220666
 20
4.847856
 30
0.0
 11
4.220666
 21
4.198629
 31
0.0
  0
LINE
  5
E9
330
53
100
AcDbEntity
 67
     1
  8
1
  6
CONTINUOUS
 62
    18
100
AcDbLine
 10
4.414018
 20
4.824256
 30
0.0
 11
4.425499
 21
4.812776
 31
0.0
  0
LINE
  5
EA
330
53
100
AcDbEntity
 67
     1
  8
1
  6
CONTINUOUS
 62
    18
100
AcDbLine
 10
4.425499
 20
4.812776
 30
0.0
 11
4.435231
 21
4.803043
 31
0.0
  0
LINE
  5
EB
330
53
100
AcDbEntity
 67
     1
  8
1
  6
CONTINUOUS
 62
    18
100
AcDbLine
 10
4.435231
 20
4.803043
 30
0.0
 11
4.441735
 21
4.79654
 31
0.0
  0
LINE
  5
EC
330
53
100
AcDbEntity
 67
     1
  8
1
  6
CONTINUOUS
 62
    18
100
AcDbLine
 10
4.441735
 20
4.79654
 30
0.0
 11
4.444018
 21
4.794256
 31
0.0
  0
LINE
  5
ED
330
53
100
AcDbEntity
 67
     1
  8
1
  6
CONTINUOUS
 62
    18
100
AcDbLine
 10
4.444018
 20
4.794256
 30
0.0
 11
4.444018
 21
4.867476
 31
0.0
  0
LINE
  5
EE
330
53
100
AcDbEntity
 67
     1
  8
1
  6
CONTINUOUS
 62
    18
100
AcDbLine
 10
4.604018
 20
4.794256
 30
0.0
 11
4.604018
 21
4.867476
 31
0.0
  0
LINE
  5
EF
330
53
100
AcDbEntity
 67
     1
  8
1
  6
CONTINUOUS
 62
    18
100
AcDbLine
 10
4.634018
 20
4.824256
 30
0.0
 11
4.622538
 21
4.812776
 31
0.0
  0
LINE
  5
F0
330
53
100
AcDbEntity
 67
     1
  8
1
  6
CONTINUOUS
 62
    18
100
AcDbLine
 10
4.622538
 20
4.812776
 30
0.0
 11
4.612805
 21
4.803043
 31
0.0
  0
LINE
  5
F1
330
53
100
AcDbEntity
 67
     1
  8
1
  6
CONTINUOUS
 62
    18
100
AcDbLine
 10
4.612805
 20
4.803043
 30
0.0
 11
4.606302
 21
4.79654
 31
0.0
  0
LINE
  5
F2
330
53
100
AcDbEntity
 67
     1
  8
1
  6
CONTINUOUS
 62
    18
100
AcDbLine
 10
4.606302
 20
4.79654
 30
0.0
 11
4.604018
 21
4.794256
 31
0.0
  0
LINE
  5
F3
330
53
100
AcDbEntity
 67
     1
  8
1
  6
CONTINUOUS
 62
    18
100
AcDbLine
 10
4.289518
 20
4.728256
 30
0.0
 11
4.287235
 21
4.73054
 31
0.0
  0
LINE
  5
F4
330
53
100
AcDbEntity
 67
     1
  8
1
  6
CONTINUOUS
 62
    18
100
AcDbLine
 10
4.287235
 20
4.73054
 30
0.0
 11
4.280731
 21
4.737043
 31
0.0
  0
LINE
  5
F5
330
53
100
AcDbEntity
 67
     1
  8
1
  6
CONTINUOUS
 62
    18
100
AcDbLine
 10
4.280731
 20
4.737043
 30
0.0
 11
4.270999
 21
4.746776
 31
0.0
  0
LINE
  5
F6
330
53
100
AcDbEntity
 67
     1
  8
1
  6
CONTINUOUS
 62
    18
100
AcDbLine
 10
4.270999
 20
4.746776
 30
0.0
 11
4.259518
 21
4.758256
 31
0.0
  0
LINE
  5
F7
330
53
100
AcDbEntity
 67
     1
  8
1
  6
CONTINUOUS
 62
    18
100
AcDbLine
 10
4.400018
 20
4.728256
 30
0.0
 11
4.289518
 21
4.728256
 31
0.0
  0
LINE
  5
F8
330
53
100
AcDbEntity
 67
     1
  8
1
  6
CONTINUOUS
 62
    18
100
AcDbLine
 10
4.400018
 20
4.728256
 30
0.0
 11
4.397735
 21
4.73054
 31
0.0
  0
LINE
  5
F9
330
53
100
AcDbEntity
 67
     1
  8
1
  6
CONTINUOUS
 62
    18
100
AcDbLine
 10
4.397735
 20
4.73054
 30
0.0
 11
4.391231
 21
4.737043
 31
0.0
  0
LINE
  5
FA
330
53
100
AcDbEntity
 67
     1
  8
1
  6
CONTINUOUS
 62
    18
100
AcDbLine
 10
4.391231
 20
4.737043
 30
0.0
 11
4.381499
 21
4.746776
 31
0.0
  0
LINE
  5
FB
330
53
100
AcDbEntity
 67
     1
  8
1
  6
CONTINUOUS
 62
    18
100
AcDbLine
 10
4.381499
 20
4.746776
 30
0.0
 11
4.370018
 21
4.758256
 31
0.0
  0
LINE
  5
FC
330
53
100
AcDbEntity
 67
     1
  8
1
  6
CONTINUOUS
 62
    18
100
AcDbLine
 10
4.289518
 20
4.459256
 30
0.0
 11
4.289518
 21
4.728256
 31
0.0
  0
LINE
  5
FD
330
53
100
AcDbEntity
 67
     1
  8
1
  6
CONTINUOUS
 62
    18
100
AcDbLine
 10
4.356775
 20
4.460135
 30
0.0
 11
4.355018
 21
4.459256
 31
0.0
  0
LINE
  5
FE
330
53
100
AcDbEntity
 67
     1
  8
1
  6
CONTINUOUS
 62
    18
100
AcDbLine
 10
4.691261
 20
4.460135
 30
0.0
 11
4.693018
 21
4.459256
 31
0.0
  0
LINE
  5
FF
330
53
100
AcDbEntity
 67
     1
  8
1
  6
CONTINUOUS
 62
    18
100
AcDbLine
 10
4.676776
 20
4.460135
 30
0.0
 11
4.691261
 21
4.460135
 31
0.0
  0
LINE
  5
100
330
53
100
AcDbEntity
 67
     1
  8
1
  6
CONTINUOUS
 62
    18
100
AcDbLine
 10
4.676776
 20
4.460135
 30
0.0
 11
4.675951
 21
4.459722
 31
0.0
  0
LINE
  5
101
330
53
100
AcDbEntity
 67
     1
  8
1
  6
CONTINUOUS
 62
    18
100
AcDbLine
 10
4.652086
 20
4.459722
 30
0.0
 11
4.675951
 21
4.459722
 31
0.0
  0
LINE
  5
102
330
53
100
AcDbEntity
 67
     1
  8
1
  6
CONTINUOUS
 62
    18
100
AcDbLine
 10
4.651261
 20
4.460135
 30
0.0
 11
4.652086
 21
4.459722
 31
0.0
  0
LINE
  5
103
330
53
100
AcDbEntity
 67
     1
  8
1
  6
CONTINUOUS
 62
    18
100
AcDbLine
 10
4.636775
 20
4.460135
 30
0.0
 11
4.651261
 21
4.460135
 31
0.0
  0
LINE
  5
104
330
53
100
AcDbEntity
 67
     1
  8
1
  6
CONTINUOUS
 62
    18
100
AcDbLine
 10
4.636775
 20
4.460135
 30
0.0
 11
4.635951
 21
4.459722
 31
0.0
  0
LINE
  5
105
330
53
100
AcDbEntity
 67
     1
  8
1
  6
CONTINUOUS
 62
    18
100
AcDbLine
 10
4.612086
 20
4.459722
 30
0.0
 11
4.635951
 21
4.459722
 31
0.0
  0
LINE
  5
106
330
53
100
AcDbEntity
 67
     1
  8
1
  6
CONTINUOUS
 62
    18
100
AcDbLine
 10
4.611261
 20
4.460135
 30
0.0
 11
4.612086
 21
4.459722
 31
0.0
  0
LINE
  5
107
330
53
100
AcDbEntity
 67
     1
  8
1
  6
CONTINUOUS
 62
    18
100
AcDbLine
 10
4.596775
 20
4.460135
 30
0.0
 11
4.611261
 21
4.460135
 31
0.0
  0
LINE
  5
108
330
53
100
AcDbEntity
 67
     1
  8
1
  6
CONTINUOUS
 62
    18
100
AcDbLine
 10
4.596775
 20
4.460135
 30
0.0
 11
4.595951
 21
4.459722
 31
0.0
  0
LINE
  5
109
330
53
100
AcDbEntity
 67
     1
  8
1
  6
CONTINUOUS
 62
    18
100
AcDbLine
 10
4.572086
 20
4.459722
 30
0.0
 11
4.595951
 21
4.459722
 31
0.0
  0
LINE
  5
10A
330
53
100
AcDbEntity
 67
     1
  8
1
  6
CONTINUOUS
 62
    18
100
AcDbLine
 10
4.571261
 20
4.460135
 30
0.0
 11
4.572086
 21
4.459722
 31
0.0
  0
LINE
  5
10B
330
53
100
AcDbEntity
 67
     1
  8
1
  6
CONTINUOUS
 62
    18
100
AcDbLine
 10
4.556776
 20
4.460135
 30
0.0
 11
4.571261
 21
4.460135
 31
0.0
  0
LINE
  5
10C
330
53
100
AcDbEntity
 67
     1
  8
1
  6
CONTINUOUS
 62
    18
100
AcDbLine
 10
4.556776
 20
4.460135
 30
0.0
 11
4.555951
 21
4.459722
 31
0.0
  0
LINE
  5
10D
330
53
100
AcDbEntity
 67
     1
  8
1
  6
CONTINUOUS
 62
    18
100
AcDbLine
 10
4.532086
 20
4.459722
 30
0.0
 11
4.555951
 21
4.459722
 31
0.0
  0
LINE
  5
10E
330
53
100
AcDbEntity
 67
     1
  8
1
  6
CONTINUOUS
 62
    18
100
AcDbLine
 10
4.531261
 20
4.460135
 30
0.0
 11
4.532086
 21
4.459722
 31
0.0
  0
LINE
  5
10F
330
53
100
AcDbEntity
 67
     1
  8
1
  6
CONTINUOUS
 62
    18
100
AcDbLine
 10
4.531261
 20
4.460135
 30
0.0
 11
4.516775
 21
4.460135
 31
0.0
  0
LINE
  5
110
330
53
100
AcDbEntity
 67
     1
  8
1
  6
CONTINUOUS
 62
    18
100
AcDbLine
 10
4.516775
 20
4.460135
 30
0.0
 11
4.515951
 21
4.459722
 31
0.0
  0
LINE
  5
111
330
53
100
AcDbEntity
 67
     1
  8
1
  6
CONTINUOUS
 62
    18
100
AcDbLine
 10
4.515951
 20
4.459722
 30
0.0
 11
4.492086
 21
4.459722
 31
0.0
  0
LINE
  5
112
330
53
100
AcDbEntity
 67
     1
  8
1
  6
CONTINUOUS
 62
    18
100
AcDbLine
 10
4.491261
 20
4.460135
 30
0.0
 11
4.492086
 21
4.459722
 31
0.0
  0
LINE
  5
113
330
53
100
AcDbEntity
 67
     1
  8
1
  6
CONTINUOUS
 62
    18
100
AcDbLine
 10
4.491261
 20
4.460135
 30
0.0
 11
4.476775
 21
4.460135
 31
0.0
  0
LINE
  5
114
330
53
100
AcDbEntity
 67
     1
  8
1
  6
CONTINUOUS
 62
    18
100
AcDbLine
 10
4.476775
 20
4.460135
 30
0.0
 11
4.475951
 21
4.459722
 31
0.0
  0
LINE
  5
115
330
53
100
AcDbEntity
 67
     1
  8
1
  6
CONTINUOUS
 62
    18
100
AcDbLine
 10
4.475951
 20
4.459722
 30
0.0
 11
4.452086
 21
4.459722
 31
0.0
  0
LINE
  5
116
330
53
100
AcDbEntity
 67
     1
  8
1
  6
CONTINUOUS
 62
    18
100
AcDbLine
 10
4.451261
 20
4.460135
 30
0.0
 11
4.452086
 21
4.459722
 31
0.0
  0
LINE
  5
117
330
53
100
AcDbEntity
 67
     1
  8
1
  6
CONTINUOUS
 62
    18
100
AcDbLine
 10
4.451261
 20
4.460135
 30
0.0
 11
4.436776
 21
4.460135
 31
0.0
  0
LINE
  5
118
330
53
100
AcDbEntity
 67
     1
  8
1
  6
CONTINUOUS
 62
    18
100
AcDbLine
 10
4.436776
 20
4.460135
 30
0.0
 11
4.435951
 21
4.459722
 31
0.0
  0
LINE
  5
119
330
53
100
AcDbEntity
 67
     1
  8
1
  6
CONTINUOUS
 62
    18
100
AcDbLine
 10
4.435951
 20
4.459722
 30
0.0
 11
4.412086
 21
4.459722
 31
0.0
  0
LINE
  5
11A
330
53
100
AcDbEntity
 67
     1
  8
1
  6
CONTINUOUS
 62
    18
100
AcDbLine
 10
4.411261
 20
4.460135
 30
0.0
 11
4.412086
 21
4.459722
 31
0.0
  0
LINE
  5
11B
330
53
100
AcDbEntity
 67
     1
  8
1
  6
CONTINUOUS
 62
    18
100
AcDbLine
 10
4.411261
 20
4.460135
 30
0.0
 11
4.396775
 21
4.460135
 31
0.0
  0
LINE
  5
11C
330
53
100
AcDbEntity
 67
     1
  8
1
  6
CONTINUOUS
 62
    18
100
AcDbLine
 10
4.396775
 20
4.460135
 30
0.0
 11
4.395951
 21
4.459722
 31
0.0
  0
LINE
  5
11D
330
53
100
AcDbEntity
 67
     1
  8
1
  6
CONTINUOUS
 62
    18
100
AcDbLine
 10
4.395951
 20
4.459722
 30
0.0
 11
4.372086
 21
4.459722
 31
0.0
  0
LINE
  5
11E
330
53
100
AcDbEntity
 67
     1
  8
1
  6
CONTINUOUS
 62
    18
100
AcDbLine
 10
4.371261
 20
4.460135
 30
0.0
 11
4.372086
 21
4.459722
 31
0.0
  0
LINE
  5
11F
330
53
100
AcDbEntity
 67
     1
  8
1
  6
CONTINUOUS
 62
    18
100
AcDbLine
 10
4.371261
 20
4.460135
 30
0.0
 11
4.356775
 21
4.460135
 31
0.0
  0
LINE
  5
120
330
53
100
AcDbEntity
 67
     1
  8
1
  6
CONTINUOUS
 62
    18
100
AcDbLine
 10
4.429714
 20
4.264326
 30
0.0
 11
4.618322
 21
4.264326
 31
0.0
  0
LINE
  5
121
330
53
100
AcDbEntity
 67
     1
  8
1
  6
CONTINUOUS
 62
    18
100
AcDbLine
 10
4.618322
 20
4.264326
 30
0.0
 11
4.628928
 21
4.268718
 31
0.0
  0
LINE
  5
122
330
53
100
AcDbEntity
 67
     1
  8
1
  6
CONTINUOUS
 62
    18
100
AcDbLine
 10
4.628928
 20
4.268718
 30
0.0
 11
4.63332
 21
4.279324
 31
0.0
  0
LINE
  5
123
330
53
100
AcDbEntity
 67
     1
  8
1
  6
CONTINUOUS
 62
    18
100
AcDbLine
 10
4.63332
 20
4.311932
 30
0.0
 11
4.63332
 21
4.279324
 31
0.0
  0
LINE
  5
124
330
53
100
AcDbEntity
 67
     1
  8
1
  6
CONTINUOUS
 62
    18
100
AcDbLine
 10
4.63332
 20
4.311932
 30
0.0
 11
4.628928
 21
4.322537
 31
0.0
  0
LINE
  5
125
330
53
100
AcDbEntity
 67
     1
  8
1
  6
CONTINUOUS
 62
    18
100
AcDbLine
 10
4.628928
 20
4.322537
 30
0.0
 11
4.618322
 21
4.326929
 31
0.0
  0
LINE
  5
126
330
53
100
AcDbEntity
 67
     1
  8
1
  6
CONTINUOUS
 62
    18
100
AcDbLine
 10
4.429714
 20
4.326929
 30
0.0
 11
4.618322
 21
4.326929
 31
0.0
  0
LINE
  5
127
330
53
100
AcDbEntity
 67
     1
  8
1
  6
CONTINUOUS
 62
    18
100
AcDbLine
 10
4.414716
 20
4.311932
 30
0.0
 11
4.419109
 21
4.322537
 31
0.0
  0
LINE
  5
128
330
53
100
AcDbEntity
 67
     1
  8
1
  6
CONTINUOUS
 62
    18
100
AcDbLine
 10
4.419109
 20
4.322537
 30
0.0
 11
4.429714
 21
4.326929
 31
0.0
  0
LINE
  5
129
330
53
100
AcDbEntity
 67
     1
  8
1
  6
CONTINUOUS
 62
    18
100
AcDbLine
 10
4.414716
 20
4.311932
 30
0.0
 11
4.414716
 21
4.279324
 31
0.0
  0
LINE
  5
12A
330
53
100
AcDbEntity
 67
     1
  8
1
  6
CONTINUOUS
 62
    18
100
AcDbLine
 10
4.429714
 20
4.264326
 30
0.0
 11
4.419109
 21
4.268718
 31
0.0
  0
LINE
  5
12B
330
53
100
AcDbEntity
 67
     1
  8
1
  6
CONTINUOUS
 62
    18
100
AcDbLine
 10
4.419109
 20
4.268718
 30
0.0
 11
4.414716
 21
4.279324
 31
0.0
  0
LINE
  5
12C
330
53
100
AcDbEntity
 67
     1
  8
1
  6
CONTINUOUS
 62
    18
100
AcDbLine
 10
4.619021
 20
4.263628
 30
0.0
 11
4.618322
 21
4.264326
 31
0.0
  0
LINE
  5
12D
330
53
100
AcDbEntity
 67
     1
  8
1
  6
CONTINUOUS
 62
    18
100
AcDbLine
 10
4.429016
 20
4.263628
 30
0.0
 11
4.429714
 21
4.264326
 31
0.0
  0
LINE
  5
12E
330
53
100
AcDbEntity
 67
     1
  8
1
  6
CONTINUOUS
 62
    18
100
AcDbLine
 10
4.618322
 20
4.326929
 30
0.0
 11
4.619021
 21
4.327628
 31
0.0
  0
LINE
  5
12F
330
53
100
AcDbEntity
 67
     1
  8
1
  6
CONTINUOUS
 62
    18
100
AcDbLine
 10
4.429714
 20
4.326929
 30
0.0
 11
4.429016
 21
4.327628
 31
0.0
  0
LINE
  5
130
330
53
100
AcDbEntity
 67
     1
  8
1
  6
CONTINUOUS
 62
    18
100
AcDbLine
 10
4.532018
 20
4.483161
 30
0.0
 11
4.516018
 21
4.483161
 31
0.0
  0
LINE
  5
131
330
53
100
AcDbEntity
 67
     1
  8
1
  6
CONTINUOUS
 62
    18
100
AcDbLine
 10
4.532018
 20
4.581888
 30
0.0
 11
4.532018
 21
4.483161
 31
0.0
  0
LINE
  5
132
330
53
100
AcDbEntity
 67
     1
  8
1
  6
CONTINUOUS
 62
    18
100
AcDbLine
 10
4.556018
 20
4.581888
 30
0.0
 11
4.553018
 21
4.581888
 31
0.0
  0
LINE
  5
133
330
53
100
AcDbEntity
 67
     1
  8
1
  6
CONTINUOUS
 62
    18
100
AcDbLine
 10
4.535019
 20
4.581888
 30
0.0
 11
4.532018
 21
4.581888
 31
0.0
  0
LINE
  5
134
330
53
100
AcDbEntity
 67
     1
  8
1
  6
CONTINUOUS
 62
    18
100
AcDbLine
 10
4.556018
 20
4.581888
 30
0.0
 11
4.556018
 21
4.483161
 31
0.0
  0
LINE
  5
135
330
53
100
AcDbEntity
 67
     1
  8
1
  6
CONTINUOUS
 62
    18
100
AcDbLine
 10
4.556018
 20
4.483161
 30
0.0
 11
4.572018
 21
4.483161
 31
0.0
  0
LINE
  5
136
330
53
100
AcDbEntity
 67
     1
  8
1
  6
CONTINUOUS
 62
    18
100
AcDbLine
 10
4.572018
 20
4.581888
 30
0.0
 11
4.572018
 21
4.483161
 31
0.0
  0
LINE
  5
137
330
53
100
AcDbEntity
 67
     1
  8
1
  6
CONTINUOUS
 62
    18
100
AcDbLine
 10
4.596018
 20
4.581888
 30
0.0
 11
4.593068
 21
4.581888
 31
0.0
  0
LINE
  5
138
330
53
100
AcDbEntity
 67
     1
  8
1
  6
CONTINUOUS
 62
    18
100
AcDbLine
 10
4.575069
 20
4.581888
 30
0.0
 11
4.572018
 21
4.581888
 31
0.0
  0
LINE
  5
139
330
53
100
AcDbEntity
 67
     1
  8
1
  6
CONTINUOUS
 62
    18
100
AcDbLine
 10
4.596018
 20
4.581888
 30
0.0
 11
4.596018
 21
4.483161
 31
0.0
  0
LINE
  5
13A
330
53
100
AcDbEntity
 67
     1
  8
1
  6
CONTINUOUS
 62
    18
100
AcDbLine
 10
4.596018
 20
4.483161
 30
0.0
 11
4.612018
 21
4.483161
 31
0.0
  0
LINE
  5
13B
330
53
100
AcDbEntity
 67
     1
  8
1
  6
CONTINUOUS
 62
    18
100
AcDbLine
 10
4.612018
 20
4.581888
 30
0.0
 11
4.612018
 21
4.483161
 31
0.0
  0
LINE
  5
13C
330
53
100
AcDbEntity
 67
     1
  8
1
  6
CONTINUOUS
 62
    18
100
AcDbLine
 10
4.636018
 20
4.581888
 30
0.0
 11
4.633018
 21
4.581888
 31
0.0
  0
LINE
  5
13D
330
53
100
AcDbEntity
 67
     1
  8
1
  6
CONTINUOUS
 62
    18
100
AcDbLine
 10
4.615019
 20
4.581888
 30
0.0
 11
4.612018
 21
4.581888
 31
0.0
  0
LINE
  5
13E
330
53
100
AcDbEntity
 67
     1
  8
1
  6
CONTINUOUS
 62
    18
100
AcDbLine
 10
4.636018
 20
4.581888
 30
0.0
 11
4.636018
 21
4.483161
 31
0.0
  0
LINE
  5
13F
330
53
100
AcDbEntity
 67
     1
  8
1
  6
CONTINUOUS
 62
    18
100
AcDbLine
 10
4.636018
 20
4.483161
 30
0.0
 11
4.652018
 21
4.483161
 31
0.0
  0
LINE
  5
140
330
53
100
AcDbEntity
 67
     1
  8
1
  6
CONTINUOUS
 62
    18
100
AcDbLine
 10
4.652018
 20
4.581888
 30
0.0
 11
4.652018
 21
4.483161
 31
0.0
  0
LINE
  5
141
330
53
100
AcDbEntity
 67
     1
  8
1
  6
CONTINUOUS
 62
    18
100
AcDbLine
 10
4.676018
 20
4.581888
 30
0.0
 11
4.673068
 21
4.581888
 31
0.0
  0
LINE
  5
142
330
53
100
AcDbEntity
 67
     1
  8
1
  6
CONTINUOUS
 62
    18
100
AcDbLine
 10
4.655069
 20
4.581888
 30
0.0
 11
4.652018
 21
4.581888
 31
0.0
  0
LINE
  5
143
330
53
100
AcDbEntity
 67
     1
  8
1
  6
CONTINUOUS
 62
    18
100
AcDbLine
 10
4.676018
 20
4.581888
 30
0.0
 11
4.676018
 21
4.483161
 31
0.0
  0
LINE
  5
144
330
53
100
AcDbEntity
 67
     1
  8
1
  6
CONTINUOUS
 62
    18
100
AcDbLine
 10
4.676018
 20
4.483161
 30
0.0
 11
4.758518
 21
4.483161
 31
0.0
  0
LINE
  5
145
330
53
100
AcDbEntity
 67
     1
  8
1
  6
CONTINUOUS
 62
    18
100
AcDbLine
 10
4.648018
 20
4.639009
 30
0.0
 11
4.648018
 21
4.688256
 31
0.0
  0
LINE
  5
146
330
53
100
AcDbEntity
 67
     1
  8
1
  6
CONTINUOUS
 62
    18
100
AcDbLine
 10
4.400018
 20
4.639009
 30
0.0
 11
4.415018
 21
4.639009
 31
0.0
  0
LINE
  5
147
330
53
100
AcDbEntity
 67
     1
  8
1
  6
CONTINUOUS
 62
    18
100
AcDbLine
 10
4.433022
 20
4.639009
 30
0.0
 11
4.45502
 21
4.639009
 31
0.0
  0
LINE
  5
148
330
53
100
AcDbEntity
 67
     1
  8
1
  6
CONTINUOUS
 62
    18
100
AcDbLine
 10
4.473019
 20
4.639009
 30
0.0
 11
4.495072
 21
4.639009
 31
0.0
  0
LINE
  5
149
330
53
100
AcDbEntity
 67
     1
  8
1
  6
CONTINUOUS
 62
    18
100
AcDbLine
 10
4.513071
 20
4.639009
 30
0.0
 11
4.535015
 21
4.639009
 31
0.0
  0
LINE
  5
14A
330
53
100
AcDbEntity
 67
     1
  8
1
  6
CONTINUOUS
 62
    18
100
AcDbLine
 10
4.553015
 20
4.639009
 30
0.0
 11
4.575067
 21
4.639009
 31
0.0
  0
LINE
  5
14B
330
53
100
AcDbEntity
 67
     1
  8
1
  6
CONTINUOUS
 62
    18
100
AcDbLine
 10
4.593067
 20
4.639009
 30
0.0
 11
4.615015
 21
4.639009
 31
0.0
  0
LINE
  5
14C
330
53
100
AcDbEntity
 67
     1
  8
1
  6
CONTINUOUS
 62
    18
100
AcDbLine
 10
4.633018
 20
4.639009
 30
0.0
 11
4.648018
 21
4.639009
 31
0.0
  0
LINE
  5
14D
330
53
100
AcDbEntity
 67
     1
  8
1
  6
CONTINUOUS
 62
    18
100
AcDbLine
 10
4.400018
 20
4.639009
 30
0.0
 11
4.400018
 21
4.688256
 31
0.0
  0
LINE
  5
14E
330
53
100
AcDbEntity
 67
     1
  8
1
  6
CONTINUOUS
 62
    18
100
AcDbLine
 10
4.372018
 20
4.483161
 30
0.0
 11
4.289518
 21
4.483161
 31
0.0
  0
LINE
  5
14F
330
53
100
AcDbEntity
 67
     1
  8
1
  6
CONTINUOUS
 62
    18
100
AcDbLine
 10
4.372018
 20
4.581888
 30
0.0
 11
4.372018
 21
4.483161
 31
0.0
  0
LINE
  5
150
330
53
100
AcDbEntity
 67
     1
  8
1
  6
CONTINUOUS
 62
    18
100
AcDbLine
 10
4.372018
 20
4.581888
 30
0.0
 11
4.375018
 21
4.581888
 31
0.0
  0
LINE
  5
151
330
53
100
AcDbEntity
 67
     1
  8
1
  6
CONTINUOUS
 62
    18
100
AcDbLine
 10
4.393018
 20
4.581888
 30
0.0
 11
4.396018
 21
4.581888
 31
0.0
  0
LINE
  5
152
330
53
100
AcDbEntity
 67
     1
  8
1
  6
CONTINUOUS
 62
    18
100
AcDbLine
 10
4.396018
 20
4.581888
 30
0.0
 11
4.396018
 21
4.483161
 31
0.0
  0
LINE
  5
153
330
53
100
AcDbEntity
 67
     1
  8
1
  6
CONTINUOUS
 62
    18
100
AcDbLine
 10
4.412018
 20
4.483161
 30
0.0
 11
4.396018
 21
4.483161
 31
0.0
  0
LINE
  5
154
330
53
100
AcDbEntity
 67
     1
  8
1
  6
CONTINUOUS
 62
    18
100
AcDbLine
 10
4.412018
 20
4.581888
 30
0.0
 11
4.412018
 21
4.483161
 31
0.0
  0
LINE
  5
155
330
53
100
AcDbEntity
 67
     1
  8
1
  6
CONTINUOUS
 62
    18
100
AcDbLine
 10
4.412018
 20
4.581888
 30
0.0
 11
4.415018
 21
4.581888
 31
0.0
  0
LINE
  5
156
330
53
100
AcDbEntity
 67
     1
  8
1
  6
CONTINUOUS
 62
    18
100
AcDbLine
 10
4.433018
 20
4.581888
 30
0.0
 11
4.436018
 21
4.581888
 31
0.0
  0
LINE
  5
157
330
53
100
AcDbEntity
 67
     1
  8
1
  6
CONTINUOUS
 62
    18
100
AcDbLine
 10
4.436018
 20
4.581888
 30
0.0
 11
4.436018
 21
4.483161
 31
0.0
  0
LINE
  5
158
330
53
100
AcDbEntity
 67
     1
  8
1
  6
CONTINUOUS
 62
    18
100
AcDbLine
 10
4.452018
 20
4.483161
 30
0.0
 11
4.436018
 21
4.483161
 31
0.0
  0
LINE
  5
159
330
53
100
AcDbEntity
 67
     1
  8
1
  6
CONTINUOUS
 62
    18
100
AcDbLine
 10
4.452018
 20
4.581888
 30
0.0
 11
4.452018
 21
4.483161
 31
0.0
  0
LINE
  5
15A
330
53
100
AcDbEntity
 67
     1
  8
1
  6
CONTINUOUS
 62
    18
100
AcDbLine
 10
4.452018
 20
4.581888
 30
0.0
 11
4.455018
 21
4.581888
 31
0.0
  0
LINE
  5
15B
330
53
100
AcDbEntity
 67
     1
  8
1
  6
CONTINUOUS
 62
    18
100
AcDbLine
 10
4.473018
 20
4.581888
 30
0.0
 11
4.476018
 21
4.581888
 31
0.0
  0
LINE
  5
15C
330
53
100
AcDbEntity
 67
     1
  8
1
  6
CONTINUOUS
 62
    18
100
AcDbLine
 10
4.476018
 20
4.581888
 30
0.0
 11
4.476018
 21
4.483161
 31
0.0
  0
LINE
  5
15D
330
53
100
AcDbEntity
 67
     1
  8
1
  6
CONTINUOUS
 62
    18
100
AcDbLine
 10
4.492018
 20
4.483161
 30
0.0
 11
4.476018
 21
4.483161
 31
0.0
  0
LINE
  5
15E
330
53
100
AcDbEntity
 67
     1
  8
1
  6
CONTINUOUS
 62
    18
100
AcDbLine
 10
4.492018
 20
4.581888
 30
0.0
 11
4.492018
 21
4.483161
 31
0.0
  0
LINE
  5
15F
330
53
100
AcDbEntity
 67
     1
  8
1
  6
CONTINUOUS
 62
    18
100
AcDbLine
 10
4.492018
 20
4.581888
 30
0.0
 11
4.495069
 21
4.581888
 31
0.0
  0
LINE
  5
160
330
53
100
AcDbEntity
 67
     1
  8
1
  6
CONTINUOUS
 62
    18
100
AcDbLine
 10
4.513069
 20
4.581888
 30
0.0
 11
4.516018
 21
4.581888
 31
0.0
  0
LINE
  5
161
330
53
100
AcDbEntity
 67
     1
  8
1
  6
CONTINUOUS
 62
    18
100
AcDbLine
 10
4.516018
 20
4.581888
 30
0.0
 11
4.516018
 21
4.483161
 31
0.0
  0
LINE
  5
162
330
53
100
AcDbEntity
 67
     1
  8
1
  6
CONTINUOUS
 62
    18
100
AcDbLine
 10
4.400018
 20
4.670873
 30
0.0
 11
4.648018
 21
4.670873
 31
0.0
  0
LINE
  5
163
330
53
100
AcDbEntity
 67
     1
  8
1
  6
CONTINUOUS
 62
    18
100
AcDbLine
 10
4.648018
 20
4.689783
 30
0.0
 11
4.400018
 21
4.689783
 31
0.0
  0
LINE
  5
164
330
53
100
AcDbEntity
 67
     1
  8
1
  6
CONTINUOUS
 62
    18
100
AcDbLine
 10
4.648018
 20
4.640987
 30
0.0
 11
4.633018
 21
4.640987
 31
0.0
  0
LINE
  5
165
330
53
100
AcDbEntity
 67
     1
  8
1
  6
CONTINUOUS
 62
    18
100
AcDbLine
 10
4.615015
 20
4.640987
 30
0.0
 11
4.593067
 21
4.640987
 31
0.0
  0
LINE
  5
166
330
53
100
AcDbEntity
 67
     1
  8
1
  6
CONTINUOUS
 62
    18
100
AcDbLine
 10
4.575067
 20
4.640987
 30
0.0
 11
4.553015
 21
4.640987
 31
0.0
  0
LINE
  5
167
330
53
100
AcDbEntity
 67
     1
  8
1
  6
CONTINUOUS
 62
    18
100
AcDbLine
 10
4.535015
 20
4.640987
 30
0.0
 11
4.513071
 21
4.640987
 31
0.0
  0
LINE
  5
168
330
53
100
AcDbEntity
 67
     1
  8
1
  6
CONTINUOUS
 62
    18
100
AcDbLine
 10
4.495072
 20
4.640987
 30
0.0
 11
4.473019
 21
4.640987
 31
0.0
  0
LINE
  5
169
330
53
100
AcDbEntity
 67
     1
  8
1
  6
CONTINUOUS
 62
    18
100
AcDbLine
 10
4.45502
 20
4.640987
 30
0.0
 11
4.433022
 21
4.640987
 31
0.0
  0
LINE
  5
16A
330
53
100
AcDbEntity
 67
     1
  8
1
  6
CONTINUOUS
 62
    18
100
AcDbLine
 10
4.415018
 20
4.640987
 30
0.0
 11
4.400018
 21
4.640987
 31
0.0
  0
LINE
  5
16B
330
53
100
AcDbEntity
 67
     1
  8
1
  6
CONTINUOUS
 62
    18
100
AcDbLine
 10
4.414716
 20
4.279324
 30
0.0
 11
4.414018
 21
4.278625
 31
0.0
  0
LINE
  5
16C
330
53
100
AcDbEntity
 67
     1
  8
1
  6
CONTINUOUS
 62
    18
100
AcDbLine
 10
4.414716
 20
4.311932
 30
0.0
 11
4.414018
 21
4.31263
 31
0.0
  0
LINE
  5
16D
330
53
100
AcDbEntity
 67
     1
  8
1
  6
CONTINUOUS
 62
    18
100
AcDbLine
 10
4.444018
 20
4.794256
 30
0.0
 11
4.400018
 21
4.794256
 31
0.0
  0
LINE
  5
16E
330
53
100
AcDbEntity
 67
     1
  8
1
  6
CONTINUOUS
 62
    18
100
AcDbLine
 10
4.400018
 20
4.794256
 30
0.0
 11
4.400018
 21
4.728256
 31
0.0
  0
LINE
  5
16F
330
53
100
AcDbEntity
 67
     1
  8
1
  6
CONTINUOUS
 62
    18
100
AcDbLine
 10
4.400018
 20
4.688256
 30
0.0
 11
4.400018
 21
4.728256
 31
0.0
  0
LINE
  5
170
330
53
100
AcDbEntity
 67
     1
  8
1
  6
CONTINUOUS
 62
    18
100
AcDbLine
 10
4.400018
 20
4.688256
 30
0.0
 11
4.289518
 21
4.688256
 31
0.0
  0
LINE
  5
171
330
53
100
AcDbEntity
 67
     1
  8
1
  6
CONTINUOUS
 62
    18
100
AcDbLine
 10
4.370018
 20
4.824256
 30
0.0
 11
4.381499
 21
4.812776
 31
0.0
  0
LINE
  5
172
330
53
100
AcDbEntity
 67
     1
  8
1
  6
CONTINUOUS
 62
    18
100
AcDbLine
 10
4.381499
 20
4.812776
 30
0.0
 11
4.391231
 21
4.803043
 31
0.0
  0
LINE
  5
173
330
53
100
AcDbEntity
 67
     1
  8
1
  6
CONTINUOUS
 62
    18
100
AcDbLine
 10
4.391231
 20
4.803043
 30
0.0
 11
4.397735
 21
4.79654
 31
0.0
  0
LINE
  5
174
330
53
100
AcDbEntity
 67
     1
  8
1
  6
CONTINUOUS
 62
    18
100
AcDbLine
 10
4.397735
 20
4.79654
 30
0.0
 11
4.400018
 21
4.794256
 31
0.0
  0
LINE
  5
175
330
53
100
AcDbEntity
 67
     1
  8
1
  6
CONTINUOUS
 62
    18
100
AcDbLine
 10
4.63332
 20
4.279324
 30
0.0
 11
4.634018
 21
4.278625
 31
0.0
  0
LINE
  5
176
330
53
100
AcDbEntity
 67
     1
  8
1
  6
CONTINUOUS
 62
    18
100
AcDbLine
 10
4.63332
 20
4.311932
 30
0.0
 11
4.634018
 21
4.31263
 31
0.0
  0
LINE
  5
177
330
53
100
AcDbEntity
 67
     1
  8
1
  6
CONTINUOUS
 62
    18
100
AcDbLine
 10
4.604018
 20
4.794256
 30
0.0
 11
4.648018
 21
4.794256
 31
0.0
  0
LINE
  5
178
330
53
100
AcDbEntity
 67
     1
  8
1
  6
CONTINUOUS
 62
    18
100
AcDbLine
 10
4.648018
 20
4.688256
 30
0.0
 11
4.648018
 21
4.728256
 31
0.0
  0
LINE
  5
179
330
53
100
AcDbEntity
 67
     1
  8
1
  6
CONTINUOUS
 62
    18
100
AcDbLine
 10
4.648018
 20
4.794256
 30
0.0
 11
4.648018
 21
4.728256
 31
0.0
  0
LINE
  5
17A
330
53
100
AcDbEntity
 67
     1
  8
1
  6
CONTINUOUS
 62
    18
100
AcDbLine
 10
4.648018
 20
4.688256
 30
0.0
 11
4.758518
 21
4.688256
 31
0.0
  0
LINE
  5
17B
330
53
100
AcDbEntity
 67
     1
  8
1
  6
CONTINUOUS
 62
    18
100
AcDbLine
 10
4.678018
 20
4.824256
 30
0.0
 11
4.666538
 21
4.812776
 31
0.0
  0
LINE
  5
17C
330
53
100
AcDbEntity
 67
     1
  8
1
  6
CONTINUOUS
 62
    18
100
AcDbLine
 10
4.666538
 20
4.812776
 30
0.0
 11
4.656805
 21
4.803043
 31
0.0
  0
LINE
  5
17D
330
53
100
AcDbEntity
 67
     1
  8
1
  6
CONTINUOUS
 62
    18
100
AcDbLine
 10
4.656805
 20
4.803043
 30
0.0
 11
4.650302
 21
4.79654
 31
0.0
  0
LINE
  5
17E
330
53
100
AcDbEntity
 67
     1
  8
1
  6
CONTINUOUS
 62
    18
100
AcDbLine
 10
4.650302
 20
4.79654
 30
0.0
 11
4.648018
 21
4.794256
 31
0.0
  0
LINE
  5
17F
330
53
100
AcDbEntity
 67
     1
  8
1
  6
CONTINUOUS
 62
    18
100
AcDbLine
 10
4.836374
 20
4.913485
 30
0.0
 11
4.83637
 21
4.913639
 31
0.0
  0
LINE
  5
180
330
53
100
AcDbEntity
 67
     1
  8
1
  6
CONTINUOUS
 62
    18
100
AcDbLine
 10
4.83637
 20
4.913639
 30
0.0
 11
4.836344
 21
4.913997
 31
0.0
  0
LINE
  5
181
330
53
100
AcDbEntity
 67
     1
  8
1
  6
CONTINUOUS
 62
    18
100
AcDbLine
 10
4.836344
 20
4.913997
 30
0.0
 11
4.836244
 21
4.914596
 31
0.0
  0
LINE
  5
182
330
53
100
AcDbEntity
 67
     1
  8
1
  6
CONTINUOUS
 62
    18
100
AcDbLine
 10
4.836244
 20
4.914596
 30
0.0
 11
4.835601
 21
4.916149
 31
0.0
  0
LINE
  5
183
330
53
100
AcDbEntity
 67
     1
  8
1
  6
CONTINUOUS
 62
    18
100
AcDbLine
 10
4.835601
 20
4.916149
 30
0.0
 11
4.834486
 21
4.917396
 31
0.0
  0
LINE
  5
184
330
53
100
AcDbEntity
 67
     1
  8
1
  6
CONTINUOUS
 62
    18
100
AcDbLine
 10
4.834486
 20
4.917396
 30
0.0
 11
4.833023
 21
4.918205
 31
0.0
  0
LINE
  5
185
330
53
100
AcDbEntity
 67
     1
  8
1
  6
CONTINUOUS
 62
    18
100
AcDbLine
 10
4.833023
 20
4.918205
 30
0.0
 11
4.831375
 21
4.918485
 31
0.0
  0
LINE
  5
186
330
53
100
AcDbEntity
 67
     1
  8
1
  6
CONTINUOUS
 62
    18
100
AcDbLine
 10
4.444025
 20
4.799066
 30
0.0
 11
4.604011
 21
4.799066
 31
0.0
  0
LINE
  5
187
330
53
100
AcDbEntity
 67
     1
  8
1
  6
CONTINUOUS
 62
    18
100
AcDbLine
 10
4.60401
 20
4.805363
 30
0.0
 11
4.444026
 21
4.805363
 31
0.0
  0
LINE
  5
188
330
53
100
AcDbEntity
 67
     1
  8
1
  6
CONTINUOUS
 62
    18
100
AcDbLine
 10
4.393018
 20
4.459724
 30
0.0
 11
4.393018
 21
4.666896
 31
0.0
  0
LINE
  5
189
330
53
100
AcDbEntity
 67
     1
  8
1
  6
CONTINUOUS
 62
    18
100
AcDbLine
 10
4.375018
 20
4.459724
 30
0.0
 11
4.375018
 21
4.666896
 31
0.0
  0
LINE
  5
18A
330
53
100
AcDbEntity
 67
     1
  8
1
  6
CONTINUOUS
 62
    18
100
AcDbLine
 10
4.375018
 20
4.666896
 30
0.0
 11
4.393018
 21
4.666896
 31
0.0
  0
LINE
  5
18B
330
53
100
AcDbEntity
 67
     1
  8
1
  6
CONTINUOUS
 62
    18
100
AcDbLine
 10
4.473018
 20
4.459724
 30
0.0
 11
4.473018
 21
4.666896
 31
0.0
  0
LINE
  5
18C
330
53
100
AcDbEntity
 67
     1
  8
1
  6
CONTINUOUS
 62
    18
100
AcDbLine
 10
4.455018
 20
4.459724
 30
0.0
 11
4.455018
 21
4.666896
 31
0.0
  0
LINE
  5
18D
330
53
100
AcDbEntity
 67
     1
  8
1
  6
CONTINUOUS
 62
    18
100
AcDbLine
 10
4.455018
 20
4.666896
 30
0.0
 11
4.473018
 21
4.666896
 31
0.0
  0
LINE
  5
18E
330
53
100
AcDbEntity
 67
     1
  8
1
  6
CONTINUOUS
 62
    18
100
AcDbLine
 10
4.535018
 20
4.459724
 30
0.0
 11
4.535018
 21
4.666896
 31
0.0
  0
LINE
  5
18F
330
53
100
AcDbEntity
 67
     1
  8
1
  6
CONTINUOUS
 62
    18
100
AcDbLine
 10
4.553018
 20
4.459724
 30
0.0
 11
4.553018
 21
4.666896
 31
0.0
  0
LINE
  5
190
330
53
100
AcDbEntity
 67
     1
  8
1
  6
CONTINUOUS
 62
    18
100
AcDbLine
 10
4.535018
 20
4.666896
 30
0.0
 11
4.553018
 21
4.666896
 31
0.0
  0
LINE
  5
191
330
53
100
AcDbEntity
 67
     1
  8
1
  6
CONTINUOUS
 62
    18
100
AcDbLine
 10
4.655069
 20
4.459724
 30
0.0
 11
4.655069
 21
4.666896
 31
0.0
  0
LINE
  5
192
330
53
100
AcDbEntity
 67
     1
  8
1
  6
CONTINUOUS
 62
    18
100
AcDbLine
 10
4.673069
 20
4.459724
 30
0.0
 11
4.673069
 21
4.666896
 31
0.0
  0
LINE
  5
193
330
53
100
AcDbEntity
 67
     1
  8
1
  6
CONTINUOUS
 62
    18
100
AcDbLine
 10
4.655069
 20
4.666896
 30
0.0
 11
4.673069
 21
4.666896
 31
0.0
  0
LINE
  5
194
330
53
100
AcDbEntity
 67
     1
  8
1
  6
CONTINUOUS
 62
    18
100
AcDbLine
 10
4.575069
 20
4.459724
 30
0.0
 11
4.575069
 21
4.666896
 31
0.0
  0
LINE
  5
195
330
53
100
AcDbEntity
 67
     1
  8
1
  6
CONTINUOUS
 62
    18
100
AcDbLine
 10
4.593069
 20
4.459724
 30
0.0
 11
4.593069
 21
4.666896
 31
0.0
  0
LINE
  5
196
330
53
100
AcDbEntity
 67
     1
  8
1
  6
CONTINUOUS
 62
    18
100
AcDbLine
 10
4.575069
 20
4.666896
 30
0.0
 11
4.593069
 21
4.666896
 31
0.0
  0
LINE
  5
197
330
53
100
AcDbEntity
 67
     1
  8
1
  6
CONTINUOUS
 62
    18
100
AcDbLine
 10
4.495068
 20
4.459724
 30
0.0
 11
4.495068
 21
4.666896
 31
0.0
  0
LINE
  5
198
330
53
100
AcDbEntity
 67
     1
  8
1
  6
CONTINUOUS
 62
    18
100
AcDbLine
 10
4.513069
 20
4.459724
 30
0.0
 11
4.513069
 21
4.666896
 31
0.0
  0
LINE
  5
199
330
53
100
AcDbEntity
 67
     1
  8
1
  6
CONTINUOUS
 62
    18
100
AcDbLine
 10
4.495068
 20
4.666896
 30
0.0
 11
4.513069
 21
4.666896
 31
0.0
  0
LINE
  5
19A
330
53
100
AcDbEntity
 67
     1
  8
1
  6
CONTINUOUS
 62
    18
100
AcDbLine
 10
4.331567
 20
4.479402
 30
0.0
 11
4.331919
 21
4.459256
 31
0.0
  0
LINE
  5
19B
330
53
100
AcDbEntity
 67
     1
  8
1
  6
CONTINUOUS
 62
    18
100
AcDbLine
 10
4.716469
 20
4.479402
 30
0.0
 11
4.716118
 21
4.459256
 31
0.0
  0
LINE
  5
19C
330
53
100
AcDbEntity
 67
     1
  8
1
  6
CONTINUOUS
 62
    18
100
AcDbLine
 10
4.746264
 20
4.459256
 30
0.0
 11
4.746264
 21
4.479402
 31
0.0
  0
LINE
  5
19D
330
53
100
AcDbEntity
 67
     1
  8
1
  6
CONTINUOUS
 62
    18
100
AcDbLine
 10
4.716469
 20
4.479402
 30
0.0
 11
4.746264
 21
4.479402
 31
0.0
  0
LINE
  5
19E
330
53
100
AcDbEntity
 67
     1
  8
1
  6
CONTINUOUS
 62
    18
100
AcDbLine
 10
4.331567
 20
4.479402
 30
0.0
 11
4.301773
 21
4.479402
 31
0.0
  0
LINE
  5
19F
330
53
100
AcDbEntity
 67
     1
  8
1
  6
CONTINUOUS
 62
    18
100
AcDbLine
 10
4.301773
 20
4.459256
 30
0.0
 11
4.301773
 21
4.479402
 31
0.0
  0
LINE
  5
1A0
330
53
100
AcDbEntity
 67
     1
  8
1
  6
CONTINUOUS
 62
    18
100
AcDbLine
 10
4.289518
 20
4.479402
 30
0.0
 11
4.301773
 21
4.479402
 31
0.0
  0
LINE
  5
1A1
330
53
100
AcDbEntity
 67
     1
  8
1
  6
CONTINUOUS
 62
    18
100
AcDbLine
 10
4.746264
 20
4.479402
 30
0.0
 11
4.758518
 21
4.479402
 31
0.0
  0
LINE
  5
1A2
330
53
100
AcDbEntity
 67
     1
  8
1
  6
CONTINUOUS
 62
    18
100
AcDbLine
 10
4.35602
 20
4.479402
 30
0.0
 11
4.355674
 21
4.459584
 31
0.0
  0
LINE
  5
1A3
330
53
100
AcDbEntity
 67
     1
  8
1
  6
CONTINUOUS
 62
    18
100
AcDbLine
 10
4.372018
 20
4.479402
 30
0.0
 11
4.372362
 21
4.459722
 31
0.0
  0
LINE
  5
1A4
330
53
100
AcDbEntity
 67
     1
  8
1
  6
CONTINUOUS
 62
    18
100
AcDbLine
 10
4.372018
 20
4.479402
 30
0.0
 11
4.35602
 21
4.479402
 31
0.0
  0
LINE
  5
1A5
330
53
100
AcDbEntity
 67
     1
  8
1
  6
CONTINUOUS
 62
    18
100
AcDbLine
 10
4.39602
 20
4.479402
 30
0.0
 11
4.395677
 21
4.459722
 31
0.0
  0
LINE
  5
1A6
330
53
100
AcDbEntity
 67
     1
  8
1
  6
CONTINUOUS
 62
    18
100
AcDbLine
 10
4.412018
 20
4.479402
 30
0.0
 11
4.412362
 21
4.459722
 31
0.0
  0
LINE
  5
1A7
330
53
100
AcDbEntity
 67
     1
  8
1
  6
CONTINUOUS
 62
    18
100
AcDbLine
 10
4.412018
 20
4.479402
 30
0.0
 11
4.39602
 21
4.479402
 31
0.0
  0
LINE
  5
1A8
330
53
100
AcDbEntity
 67
     1
  8
1
  6
CONTINUOUS
 62
    18
100
AcDbLine
 10
4.43602
 20
4.479402
 30
0.0
 11
4.435677
 21
4.459722
 31
0.0
  0
LINE
  5
1A9
330
53
100
AcDbEntity
 67
     1
  8
1
  6
CONTINUOUS
 62
    18
100
AcDbLine
 10
4.452018
 20
4.479402
 30
0.0
 11
4.452362
 21
4.459722
 31
0.0
  0
LINE
  5
1AA
330
53
100
AcDbEntity
 67
     1
  8
1
  6
CONTINUOUS
 62
    18
100
AcDbLine
 10
4.452018
 20
4.479402
 30
0.0
 11
4.43602
 21
4.479402
 31
0.0
  0
LINE
  5
1AB
330
53
100
AcDbEntity
 67
     1
  8
1
  6
CONTINUOUS
 62
    18
100
AcDbLine
 10
4.47602
 20
4.479402
 30
0.0
 11
4.475677
 21
4.459722
 31
0.0
  0
LINE
  5
1AC
330
53
100
AcDbEntity
 67
     1
  8
1
  6
CONTINUOUS
 62
    18
100
AcDbLine
 10
4.492018
 20
4.479402
 30
0.0
 11
4.492362
 21
4.459722
 31
0.0
  0
LINE
  5
1AD
330
53
100
AcDbEntity
 67
     1
  8
1
  6
CONTINUOUS
 62
    18
100
AcDbLine
 10
4.492018
 20
4.479402
 30
0.0
 11
4.47602
 21
4.479402
 31
0.0
  0
LINE
  5
1AE
330
53
100
AcDbEntity
 67
     1
  8
1
  6
CONTINUOUS
 62
    18
100
AcDbLine
 10
4.51602
 20
4.479402
 30
0.0
 11
4.515677
 21
4.459722
 31
0.0
  0
LINE
  5
1AF
330
53
100
AcDbEntity
 67
     1
  8
1
  6
CONTINUOUS
 62
    18
100
AcDbLine
 10
4.532018
 20
4.479402
 30
0.0
 11
4.532362
 21
4.459722
 31
0.0
  0
LINE
  5
1B0
330
53
100
AcDbEntity
 67
     1
  8
1
  6
CONTINUOUS
 62
    18
100
AcDbLine
 10
4.532018
 20
4.479402
 30
0.0
 11
4.51602
 21
4.479402
 31
0.0
  0
LINE
  5
1B1
330
53
100
AcDbEntity
 67
     1
  8
1
  6
CONTINUOUS
 62
    18
100
AcDbLine
 10
4.55602
 20
4.479402
 30
0.0
 11
4.555677
 21
4.459722
 31
0.0
  0
LINE
  5
1B2
330
53
100
AcDbEntity
 67
     1
  8
1
  6
CONTINUOUS
 62
    18
100
AcDbLine
 10
4.572018
 20
4.479402
 30
0.0
 11
4.572362
 21
4.459722
 31
0.0
  0
LINE
  5
1B3
330
53
100
AcDbEntity
 67
     1
  8
1
  6
CONTINUOUS
 62
    18
100
AcDbLine
 10
4.572018
 20
4.479402
 30
0.0
 11
4.55602
 21
4.479402
 31
0.0
  0
LINE
  5
1B4
330
53
100
AcDbEntity
 67
     1
  8
1
  6
CONTINUOUS
 62
    18
100
AcDbLine
 10
4.59602
 20
4.479402
 30
0.0
 11
4.595677
 21
4.459722
 31
0.0
  0
LINE
  5
1B5
330
53
100
AcDbEntity
 67
     1
  8
1
  6
CONTINUOUS
 62
    18
100
AcDbLine
 10
4.612018
 20
4.479402
 30
0.0
 11
4.612362
 21
4.459722
 31
0.0
  0
LINE
  5
1B6
330
53
100
AcDbEntity
 67
     1
  8
1
  6
CONTINUOUS
 62
    18
100
AcDbLine
 10
4.612018
 20
4.479402
 30
0.0
 11
4.59602
 21
4.479402
 31
0.0
  0
LINE
  5
1B7
330
53
100
AcDbEntity
 67
     1
  8
1
  6
CONTINUOUS
 62
    18
100
AcDbLine
 10
4.63602
 20
4.479402
 30
0.0
 11
4.635677
 21
4.459722
 31
0.0
  0
LINE
  5
1B8
330
53
100
AcDbEntity
 67
     1
  8
1
  6
CONTINUOUS
 62
    18
100
AcDbLine
 10
4.652018
 20
4.479402
 30
0.0
 11
4.652362
 21
4.459722
 31
0.0
  0
LINE
  5
1B9
330
53
100
AcDbEntity
 67
     1
  8
1
  6
CONTINUOUS
 62
    18
100
AcDbLine
 10
4.652018
 20
4.479402
 30
0.0
 11
4.63602
 21
4.479402
 31
0.0
  0
LINE
  5
1BA
330
53
100
AcDbEntity
 67
     1
  8
1
  6
CONTINUOUS
 62
    18
100
AcDbLine
 10
4.67602
 20
4.479402
 30
0.0
 11
4.675677
 21
4.459722
 31
0.0
  0
LINE
  5
1BB
330
53
100
AcDbEntity
 67
     1
  8
1
  6
CONTINUOUS
 62
    18
100
AcDbLine
 10
4.692018
 20
4.479402
 30
0.0
 11
4.692364
 21
4.459583
 31
0.0
  0
LINE
  5
1BC
330
53
100
AcDbEntity
 67
     1
  8
1
  6
CONTINUOUS
 62
    18
100
AcDbLine
 10
4.692018
 20
4.479402
 30
0.0
 11
4.67602
 21
4.479402
 31
0.0
  0
LINE
  5
1BD
330
53
100
AcDbEntity
 67
     1
  8
1
  6
CONTINUOUS
 62
    18
100
AcDbLine
 10
4.331567
 20
4.479402
 30
0.0
 11
4.331919
 21
4.459256
 31
0.0
  0
LINE
  5
1BE
330
53
100
AcDbEntity
 67
     1
  8
1
  6
CONTINUOUS
 62
    18
100
AcDbLine
 10
4.716469
 20
4.479402
 30
0.0
 11
4.716118
 21
4.459256
 31
0.0
  0
LINE
  5
1BF
330
53
100
AcDbEntity
 67
     1
  8
1
  6
CONTINUOUS
 62
    18
100
AcDbLine
 10
4.746264
 20
4.459256
 30
0.0
 11
4.746264
 21
4.479402
 31
0.0
  0
LINE
  5
1C0
330
53
100
AcDbEntity
 67
     1
  8
1
  6
CONTINUOUS
 62
    18
100
AcDbLine
 10
4.716469
 20
4.479402
 30
0.0
 11
4.746264
 21
4.479402
 31
0.0
  0
LINE
  5
1C1
330
53
100
AcDbEntity
 67
     1
  8
1
  6
CONTINUOUS
 62
    18
100
AcDbLine
 10
4.331567
 20
4.479402
 30
0.0
 11
4.301773
 21
4.479402
 31
0.0
  0
LINE
  5
1C2
330
53
100
AcDbEntity
 67
     1
  8
1
  6
CONTINUOUS
 62
    18
100
AcDbLine
 10
4.301773
 20
4.459256
 30
0.0
 11
4.301773
 21
4.479402
 31
0.0
  0
LINE
  5
1C3
330
53
100
AcDbEntity
 67
     1
  8
1
  6
CONTINUOUS
 62
    18
100
AcDbLine
 10
4.289518
 20
4.479402
 30
0.0
 11
4.301773
 21
4.479402
 31
0.0
  0
LINE
  5
1C4
330
53
100
AcDbEntity
 67
     1
  8
1
  6
CONTINUOUS
 62
    18
100
AcDbLine
 10
4.746264
 20
4.479402
 30
0.0
 11
4.758518
 21
4.479402
 31
0.0
  0
LINE
  5
1C5
330
53
100
AcDbEntity
 67
     1
  8
1
  6
CONTINUOUS
 62
    18
100
AcDbLine
 10
4.35602
 20
4.479402
 30
0.0
 11
4.355674
 21
4.459584
 31
0.0
  0
LINE
  5
1C6
330
53
100
AcDbEntity
 67
     1
  8
1
  6
CONTINUOUS
 62
    18
100
AcDbLine
 10
4.372018
 20
4.479402
 30
0.0
 11
4.372362
 21
4.459722
 31
0.0
  0
LINE
  5
1C7
330
53
100
AcDbEntity
 67
     1
  8
1
  6
CONTINUOUS
 62
    18
100
AcDbLine
 10
4.372018
 20
4.479402
 30
0.0
 11
4.35602
 21
4.479402
 31
0.0
  0
LINE
  5
1C8
330
53
100
AcDbEntity
 67
     1
  8
1
  6
CONTINUOUS
 62
    18
100
AcDbLine
 10
4.39602
 20
4.479402
 30
0.0
 11
4.395677
 21
4.459722
 31
0.0
  0
LINE
  5
1C9
330
53
100
AcDbEntity
 67
     1
  8
1
  6
CONTINUOUS
 62
    18
100
AcDbLine
 10
4.412018
 20
4.479402
 30
0.0
 11
4.412362
 21
4.459722
 31
0.0
  0
LINE
  5
1CA
330
53
100
AcDbEntity
 67
     1
  8
1
  6
CONTINUOUS
 62
    18
100
AcDbLine
 10
4.412018
 20
4.479402
 30
0.0
 11
4.39602
 21
4.479402
 31
0.0
  0
LINE
  5
1CB
330
53
100
AcDbEntity
 67
     1
  8
1
  6
CONTINUOUS
 62
    18
100
AcDbLine
 10
4.43602
 20
4.479402
 30
0.0
 11
4.435677
 21
4.459722
 31
0.0
  0
LINE
  5
1CC
330
53
100
AcDbEntity
 67
     1
  8
1
  6
CONTINUOUS
 62
    18
100
AcDbLine
 10
4.452018
 20
4.479402
 30
0.0
 11
4.452362
 21
4.459722
 31
0.0
  0
LINE
  5
1CD
330
53
100
AcDbEntity
 67
     1
  8
1
  6
CONTINUOUS
 62
    18
100
AcDbLine
 10
4.452018
 20
4.479402
 30
0.0
 11
4.43602
 21
4.479402
 31
0.0
  0
LINE
  5
1CE
330
53
100
AcDbEntity
 67
     1
  8
1
  6
CONTINUOUS
 62
    18
100
AcDbLine
 10
4.47602
 20
4.479402
 30
0.0
 11
4.475677
 21
4.459722
 31
0.0
  0
LINE
  5
1CF
330
53
100
AcDbEntity
 67
     1
  8
1
  6
CONTINUOUS
 62
    18
100
AcDbLine
 10
4.492018
 20
4.479402
 30
0.0
 11
4.492362
 21
4.459722
 31
0.0
  0
LINE
  5
1D0
330
53
100
AcDbEntity
 67
     1
  8
1
  6
CONTINUOUS
 62
    18
100
AcDbLine
 10
4.492018
 20
4.479402
 30
0.0
 11
4.47602
 21
4.479402
 31
0.0
  0
LINE
  5
1D1
330
53
100
AcDbEntity
 67
     1
  8
1
  6
CONTINUOUS
 62
    18
100
AcDbLine
 10
4.51602
 20
4.479402
 30
0.0
 11
4.515677
 21
4.459722
 31
0.0
  0
LINE
  5
1D2
330
53
100
AcDbEntity
 67
     1
  8
1
  6
CONTINUOUS
 62
    18
100
AcDbLine
 10
4.532018
 20
4.479402
 30
0.0
 11
4.532362
 21
4.459722
 31
0.0
  0
LINE
  5
1D3
330
53
100
AcDbEntity
 67
     1
  8
1
  6
CONTINUOUS
 62
    18
100
AcDbLine
 10
4.532018
 20
4.479402
 30
0.0
 11
4.51602
 21
4.479402
 31
0.0
  0
LINE
  5
1D4
330
53
100
AcDbEntity
 67
     1
  8
1
  6
CONTINUOUS
 62
    18
100
AcDbLine
 10
4.55602
 20
4.479402
 30
0.0
 11
4.555677
 21
4.459722
 31
0.0
  0
LINE
  5
1D5
330
53
100
AcDbEntity
 67
     1
  8
1
  6
CONTINUOUS
 62
    18
100
AcDbLine
 10
4.572018
 20
4.479402
 30
0.0
 11
4.572362
 21
4.459722
 31
0.0
  0
LINE
  5
1D6
330
53
100
AcDbEntity
 67
     1
  8
1
  6
CONTINUOUS
 62
    18
100
AcDbLine
 10
4.572018
 20
4.479402
 30
0.0
 11
4.55602
 21
4.479402
 31
0.0
  0
LINE
  5
1D7
330
53
100
AcDbEntity
 67
     1
  8
1
  6
CONTINUOUS
 62
    18
100
AcDbLine
 10
4.59602
 20
4.479402
 30
0.0
 11
4.595677
 21
4.459722
 31
0.0
  0
LINE
  5
1D8
330
53
100
AcDbEntity
 67
     1
  8
1
  6
CONTINUOUS
 62
    18
100
AcDbLine
 10
4.612018
 20
4.479402
 30
0.0
 11
4.612362
 21
4.459722
 31
0.0
  0
LINE
  5
1D9
330
53
100
AcDbEntity
 67
     1
  8
1
  6
CONTINUOUS
 62
    18
100
AcDbLine
 10
4.612018
 20
4.479402
 30
0.0
 11
4.59602
 21
4.479402
 31
0.0
  0
LINE
  5
1DA
330
53
100
AcDbEntity
 67
     1
  8
1
  6
CONTINUOUS
 62
    18
100
AcDbLine
 10
4.63602
 20
4.479402
 30
0.0
 11
4.635677
 21
4.459722
 31
0.0
  0
LINE
  5
1DB
330
53
100
AcDbEntity
 67
     1
  8
1
  6
CONTINUOUS
 62
    18
100
AcDbLine
 10
4.652018
 20
4.479402
 30
0.0
 11
4.652362
 21
4.459722
 31
0.0
  0
LINE
  5
1DC
330
53
100
AcDbEntity
 67
     1
  8
1
  6
CONTINUOUS
 62
    18
100
AcDbLine
 10
4.652018
 20
4.479402
 30
0.0
 11
4.63602
 21
4.479402
 31
0.0
  0
LINE
  5
1DD
330
53
100
AcDbEntity
 67
     1
  8
1
  6
CONTINUOUS
 62
    18
100
AcDbLine
 10
4.67602
 20
4.479402
 30
0.0
 11
4.675677
 21
4.459722
 31
0.0
  0
LINE
  5
1DE
330
53
100
AcDbEntity
 67
     1
  8
1
  6
CONTINUOUS
 62
    18
100
AcDbLine
 10
4.692018
 20
4.479402
 30
0.0
 11
4.692364
 21
4.459583
 31
0.0
  0
LINE
  5
1DF
330
53
100
AcDbEntity
 67
     1
  8
1
  6
CONTINUOUS
 62
    18
100
AcDbLine
 10
4.692018
 20
4.479402
 30
0.0
 11
4.67602
 21
4.479402
 31
0.0
  0
LINE
  5
1E0
330
53
100
AcDbEntity
 67
     1
  8
1
  6
CONTINUOUS
 62
    18
100
AcDbLine
 10
4.331567
 20
4.479402
 30
0.0
 11
4.331919
 21
4.459256
 31
0.0
  0
LINE
  5
1E1
330
53
100
AcDbEntity
 67
     1
  8
1
  6
CONTINUOUS
 62
    18
100
AcDbLine
 10
4.716469
 20
4.479402
 30
0.0
 11
4.716118
 21
4.459256
 31
0.0
  0
LINE
  5
1E2
330
53
100
AcDbEntity
 67
     1
  8
1
  6
CONTINUOUS
 62
    18
100
AcDbLine
 10
4.746264
 20
4.459256
 30
0.0
 11
4.746264
 21
4.479402
 31
0.0
  0
LINE
  5
1E3
330
53
100
AcDbEntity
 67
     1
  8
1
  6
CONTINUOUS
 62
    18
100
AcDbLine
 10
4.716469
 20
4.479402
 30
0.0
 11
4.746264
 21
4.479402
 31
0.0
  0
LINE
  5
1E4
330
53
100
AcDbEntity
 67
     1
  8
1
  6
CONTINUOUS
 62
    18
100
AcDbLine
 10
4.331567
 20
4.479402
 30
0.0
 11
4.301773
 21
4.479402
 31
0.0
  0
LINE
  5
1E5
330
53
100
AcDbEntity
 67
     1
  8
1
  6
CONTINUOUS
 62
    18
100
AcDbLine
 10
4.301773
 20
4.459256
 30
0.0
 11
4.301773
 21
4.479402
 31
0.0
  0
LINE
  5
1E6
330
53
100
AcDbEntity
 67
     1
  8
1
  6
CONTINUOUS
 62
    18
100
AcDbLine
 10
4.289518
 20
4.479402
 30
0.0
 11
4.301773
 21
4.479402
 31
0.0
  0
LINE
  5
1E7
330
53
100
AcDbEntity
 67
     1
  8
1
  6
CONTINUOUS
 62
    18
100
AcDbLine
 10
4.746264
 20
4.479402
 30
0.0
 11
4.758518
 21
4.479402
 31
0.0
  0
LINE
  5
1E8
330
53
100
AcDbEntity
 67
     1
  8
1
  6
CONTINUOUS
 62
    18
100
AcDbLine
 10
4.35602
 20
4.479402
 30
0.0
 11
4.355674
 21
4.459584
 31
0.0
  0
LINE
  5
1E9
330
53
100
AcDbEntity
 67
     1
  8
1
  6
CONTINUOUS
 62
    18
100
AcDbLine
 10
4.372018
 20
4.479402
 30
0.0
 11
4.372362
 21
4.459722
 31
0.0
  0
LINE
  5
1EA
330
53
100
AcDbEntity
 67
     1
  8
1
  6
CONTINUOUS
 62
    18
100
AcDbLine
 10
4.372018
 20
4.479402
 30
0.0
 11
4.35602
 21
4.479402
 31
0.0
  0
LINE
  5
1EB
330
53
100
AcDbEntity
 67
     1
  8
1
  6
CONTINUOUS
 62
    18
100
AcDbLine
 10
4.39602
 20
4.479402
 30
0.0
 11
4.395677
 21
4.459722
 31
0.0
  0
LINE
  5
1EC
330
53
100
AcDbEntity
 67
     1
  8
1
  6
CONTINUOUS
 62
    18
100
AcDbLine
 10
4.412018
 20
4.479402
 30
0.0
 11
4.412362
 21
4.459722
 31
0.0
  0
LINE
  5
1ED
330
53
100
AcDbEntity
 67
     1
  8
1
  6
CONTINUOUS
 62
    18
100
AcDbLine
 10
4.412018
 20
4.479402
 30
0.0
 11
4.39602
 21
4.479402
 31
0.0
  0
LINE
  5
1EE
330
53
100
AcDbEntity
 67
     1
  8
1
  6
CONTINUOUS
 62
    18
100
AcDbLine
 10
4.43602
 20
4.479402
 30
0.0
 11
4.435677
 21
4.459722
 31
0.0
  0
LINE
  5
1EF
330
53
100
AcDbEntity
 67
     1
  8
1
  6
CONTINUOUS
 62
    18
100
AcDbLine
 10
4.452018
 20
4.479402
 30
0.0
 11
4.452362
 21
4.459722
 31
0.0
  0
LINE
  5
1F0
330
53
100
AcDbEntity
 67
     1
  8
1
  6
CONTINUOUS
 62
    18
100
AcDbLine
 10
4.452018
 20
4.479402
 30
0.0
 11
4.43602
 21
4.479402
 31
0.0
  0
LINE
  5
1F1
330
53
100
AcDbEntity
 67
     1
  8
1
  6
CONTINUOUS
 62
    18
100
AcDbLine
 10
4.47602
 20
4.479402
 30
0.0
 11
4.475677
 21
4.459722
 31
0.0
  0
LINE
  5
1F2
330
53
100
AcDbEntity
 67
     1
  8
1
  6
CONTINUOUS
 62
    18
100
AcDbLine
 10
4.492018
 20
4.479402
 30
0.0
 11
4.492362
 21
4.459722
 31
0.0
  0
LINE
  5
1F3
330
53
100
AcDbEntity
 67
     1
  8
1
  6
CONTINUOUS
 62
    18
100
AcDbLine
 10
4.492018
 20
4.479402
 30
0.0
 11
4.47602
 21
4.479402
 31
0.0
  0
LINE
  5
1F4
330
53
100
AcDbEntity
 67
     1
  8
1
  6
CONTINUOUS
 62
    18
100
AcDbLine
 10
4.51602
 20
4.479402
 30
0.0
 11
4.515677
 21
4.459722
 31
0.0
  0
LINE
  5
1F5
330
53
100
AcDbEntity
 67
     1
  8
1
  6
CONTINUOUS
 62
    18
100
AcDbLine
 10
4.532018
 20
4.479402
 30
0.0
 11
4.532362
 21
4.459722
 31
0.0
  0
LINE
  5
1F6
330
53
100
AcDbEntity
 67
     1
  8
1
  6
CONTINUOUS
 62
    18
100
AcDbLine
 10
4.532018
 20
4.479402
 30
0.0
 11
4.51602
 21
4.479402
 31
0.0
  0
LINE
  5
1F7
330
53
100
AcDbEntity
 67
     1
  8
1
  6
CONTINUOUS
 62
    18
100
AcDbLine
 10
4.55602
 20
4.479402
 30
0.0
 11
4.555677
 21
4.459722
 31
0.0
  0
LINE
  5
1F8
330
53
100
AcDbEntity
 67
     1
  8
1
  6
CONTINUOUS
 62
    18
100
AcDbLine
 10
4.572018
 20
4.479402
 30
0.0
 11
4.572362
 21
4.459722
 31
0.0
  0
LINE
  5
1F9
330
53
100
AcDbEntity
 67
     1
  8
1
  6
CONTINUOUS
 62
    18
100
AcDbLine
 10
4.572018
 20
4.479402
 30
0.0
 11
4.55602
 21
4.479402
 31
0.0
  0
LINE
  5
1FA
330
53
100
AcDbEntity
 67
     1
  8
1
  6
CONTINUOUS
 62
    18
100
AcDbLine
 10
4.59602
 20
4.479402
 30
0.0
 11
4.595677
 21
4.459722
 31
0.0
  0
LINE
  5
1FB
330
53
100
AcDbEntity
 67
     1
  8
1
  6
CONTINUOUS
 62
    18
100
AcDbLine
 10
4.612018
 20
4.479402
 30
0.0
 11
4.612362
 21
4.459722
 31
0.0
  0
LINE
  5
1FC
330
53
100
AcDbEntity
 67
     1
  8
1
  6
CONTINUOUS
 62
    18
100
AcDbLine
 10
4.612018
 20
4.479402
 30
0.0
 11
4.59602
 21
4.479402
 31
0.0
  0
LINE
  5
1FD
330
53
100
AcDbEntity
 67
     1
  8
1
  6
CONTINUOUS
 62
    18
100
AcDbLine
 10
4.63602
 20
4.479402
 30
0.0
 11
4.635677
 21
4.459722
 31
0.0
  0
LINE
  5
1FE
330
53
100
AcDbEntity
 67
     1
  8
1
  6
CONTINUOUS
 62
    18
100
AcDbLine
 10
4.652018
 20
4.479402
 30
0.0
 11
4.652362
 21
4.459722
 31
0.0
  0
LINE
  5
1FF
330
53
100
AcDbEntity
 67
     1
  8
1
  6
CONTINUOUS
 62
    18
100
AcDbLine
 10
4.652018
 20
4.479402
 30
0.0
 11
4.63602
 21
4.479402
 31
0.0
  0
LINE
  5
200
330
53
100
AcDbEntity
 67
     1
  8
1
  6
CONTINUOUS
 62
    18
100
AcDbLine
 10
4.67602
 20
4.479402
 30
0.0
 11
4.675677
 21
4.459722
 31
0.0
  0
LINE
  5
201
330
53
100
AcDbEntity
 67
     1
  8
1
  6
CONTINUOUS
 62
    18
100
AcDbLine
 10
4.692018
 20
4.479402
 30
0.0
 11
4.692364
 21
4.459583
 31
0.0
  0
LINE
  5
202
330
53
100
AcDbEntity
 67
     1
  8
1
  6
CONTINUOUS
 62
    18
100
AcDbLine
 10
4.692018
 20
4.479402
 30
0.0
 11
4.67602
 21
4.479402
 31
0.0
  0
LINE
  5
203
330
53
100
AcDbEntity
 67
     1
  8
1
  6
CONTINUOUS
 62
    18
100
AcDbLine
 10
4.633018
 20
4.459724
 30
0.0
 11
4.633018
 21
4.666896
 31
0.0
  0
LINE
  5
204
330
53
100
AcDbEntity
 67
     1
  8
1
  6
CONTINUOUS
 62
    18
100
AcDbLine
 10
4.615018
 20
4.459724
 30
0.0
 11
4.615018
 21
4.666896
 31
0.0
  0
LINE
  5
205
330
53
100
AcDbEntity
 67
     1
  8
1
  6
CONTINUOUS
 62
    18
100
AcDbLine
 10
4.615018
 20
4.666896
 30
0.0
 11
4.633018
 21
4.666896
 31
0.0
  0
LINE
  5
206
330
53
100
AcDbEntity
 67
     1
  8
1
  6
CONTINUOUS
 62
    18
100
AcDbLine
 10
4.415018
 20
4.459724
 30
0.0
 11
4.415018
 21
4.666896
 31
0.0
  0
LINE
  5
207
330
53
100
AcDbEntity
 67
     1
  8
1
  6
CONTINUOUS
 62
    18
100
AcDbLine
 10
4.433018
 20
4.459724
 30
0.0
 11
4.433018
 21
4.666896
 31
0.0
  0
LINE
  5
208
330
53
100
AcDbEntity
 67
     1
  8
1
  6
CONTINUOUS
 62
    18
100
AcDbLine
 10
4.415018
 20
4.666896
 30
0.0
 11
4.433018
 21
4.666896
 31
0.0
  0
LINE
  5
209
330
53
100
AcDbEntity
 67
     1
  8
1
  6
CONTINUOUS
 62
    18
100
AcDbLine
 10
4.633018
 20
4.459724
 30
0.0
 11
4.633018
 21
4.666896
 31
0.0
  0
LINE
  5
20A
330
53
100
AcDbEntity
 67
     1
  8
1
  6
CONTINUOUS
 62
    18
100
AcDbLine
 10
4.615018
 20
4.459724
 30
0.0
 11
4.615018
 21
4.666896
 31
0.0
  0
LINE
  5
20B
330
53
100
AcDbEntity
 67
     1
  8
1
  6
CONTINUOUS
 62
    18
100
AcDbLine
 10
4.615018
 20
4.666896
 30
0.0
 11
4.633018
 21
4.666896
 31
0.0
  0
LINE
  5
20C
330
53
100
AcDbEntity
 67
     1
  8
1
  6
CONTINUOUS
 62
    18
100
AcDbLine
 10
4.247423
 20
4.194287
 30
0.0
 11
4.236456
 21
4.198629
 31
0.0
  0
LINE
  5
20D
330
53
100
AcDbEntity
 67
     1
  8
1
  6
CONTINUOUS
 62
    18
100
AcDbLine
 10
4.247423
 20
4.194287
 30
0.0
 11
4.802651
 21
4.194287
 31
0.0
  0
LINE
  5
20E
330
53
100
AcDbEntity
 67
     1
  8
1
  6
CONTINUOUS
 62
    18
100
AcDbLine
 10
4.802651
 20
4.194287
 30
0.0
 11
4.813617
 21
4.198629
 31
0.0
  0
LINE
  5
20F
330
53
100
AcDbEntity
 67
     1
  8
1
  6
CONTINUOUS
 62
    18
100
AcDbLine
 10
4.249397
 20
4.193512
 30
0.0
 11
4.247423
 21
4.194287
 31
0.0
  0
LINE
  5
210
330
53
100
AcDbEntity
 67
     1
  8
1
  6
CONTINUOUS
 62
    18
100
AcDbLine
 10
4.431037
 20
4.193512
 30
0.0
 11
4.249397
 21
4.193512
 31
0.0
  0
LINE
  5
211
330
53
100
AcDbEntity
 67
     1
  8
1
  6
CONTINUOUS
 62
    18
100
AcDbLine
 10
4.431037
 20
4.193512
 30
0.0
 11
4.619037
 21
4.193512
 31
0.0
  0
LINE
  5
212
330
53
100
AcDbEntity
 67
     1
  8
1
  6
CONTINUOUS
 62
    18
100
AcDbLine
 10
4.619037
 20
4.193512
 30
0.0
 11
4.800677
 21
4.193512
 31
0.0
  0
LINE
  5
213
330
53
100
AcDbEntity
 67
     1
  8
1
  6
CONTINUOUS
 62
    18
100
AcDbLine
 10
4.800677
 20
4.193512
 30
0.0
 11
4.802651
 21
4.194287
 31
0.0
  0
LINE
  5
214
330
53
100
AcDbEntity
 67
     1
  8
1
  6
CONTINUOUS
 62
    18
100
AcDbLine
 10
4.626454
 20
4.69753
 30
0.0
 11
4.627886
 21
4.697525
 31
0.0
  0
LINE
  5
215
330
53
100
AcDbEntity
 67
     1
  8
1
  6
CONTINUOUS
 62
    18
100
AcDbLine
 10
4.629485
 20
4.697348
 30
0.0
 11
4.627886
 21
4.697525
 31
0.0
  0
LINE
  5
216
330
53
100
AcDbEntity
 67
     1
  8
1
  6
CONTINUOUS
 62
    18
100
AcDbLine
 10
4.801072
 20
4.193516
 30
0.0
 11
4.800677
 21
4.193512
 31
0.0
  0
LINE
  5
217
330
53
100
AcDbEntity
 67
     1
  8
1
  6
CONTINUOUS
 62
    18
100
AcDbLine
 10
4.806542
 20
4.194624
 30
0.0
 11
4.801072
 21
4.193516
 31
0.0
  0
LINE
  5
218
330
53
100
AcDbEntity
 67
     1
  8
1
  6
CONTINUOUS
 62
    18
100
AcDbLine
 10
4.627886
 20
4.697525
 30
0.0
 11
4.62987
 21
4.697525
 31
0.0
  0
LINE
  5
219
330
53
100
AcDbEntity
 67
     1
  8
1
  6
CONTINUOUS
 62
    18
100
AcDbLine
 10
4.631147
 20
4.698228
 30
0.0
 11
4.626453
 21
4.698228
 31
0.0
  0
LINE
  5
21A
330
53
100
AcDbEntity
 67
     1
  8
1
  6
CONTINUOUS
 62
    18
100
AcDbLine
 10
4.626453
 20
4.720629
 30
0.0
 11
4.631931
 21
4.720629
 31
0.0
  0
LINE
  5
21B
330
53
100
AcDbEntity
 67
     1
  8
1
  6
CONTINUOUS
 62
    18
100
AcDbLine
 10
4.419436
 20
4.696993
 30
0.0
 11
4.422188
 21
4.697525
 31
0.0
  0
LINE
  5
21C
330
53
100
AcDbEntity
 67
     1
  8
1
  6
CONTINUOUS
 62
    18
100
AcDbLine
 10
4.249002
 20
4.193516
 30
0.0
 11
4.249397
 21
4.193512
 31
0.0
  0
LINE
  5
21D
330
53
100
AcDbEntity
 67
     1
  8
1
  6
CONTINUOUS
 62
    18
100
AcDbLine
 10
4.243532
 20
4.194624
 30
0.0
 11
4.249002
 21
4.193516
 31
0.0
  0
LINE
  5
21E
330
53
100
AcDbEntity
 67
     1
  8
1
  6
CONTINUOUS
 62
    18
100
AcDbLine
 10
4.416889
 20
4.698228
 30
0.0
 11
4.421583
 21
4.698228
 31
0.0
  0
LINE
  5
21F
330
53
100
AcDbEntity
 67
     1
  8
1
  6
CONTINUOUS
 62
    18
100
AcDbLine
 10
4.421582
 20
4.697525
 30
0.0
 11
4.418167
 21
4.697525
 31
0.0
  0
LINE
  5
220
330
53
100
AcDbEntity
 67
     1
  8
1
  6
CONTINUOUS
 62
    18
100
AcDbLine
 10
4.421583
 20
4.720629
 30
0.0
 11
4.416106
 21
4.720629
 31
0.0
  0
LINE
  5
221
330
53
100
AcDbEntity
 67
     1
  8
1
  6
CONTINUOUS
 62
    18
100
AcDbLine
 10
7.679145
 20
4.800915
 30
0.0
 11
7.679169
 21
4.801403
 31
0.0
  0
LINE
  5
222
330
53
100
AcDbEntity
 67
     1
  8
1
  6
CONTINUOUS
 62
    18
100
AcDbLine
 10
7.679169
 20
4.801403
 30
0.0
 11
7.679119
 21
4.801879
 31
0.0
  0
LINE
  5
223
330
53
100
AcDbEntity
 67
     1
  8
1
  6
CONTINUOUS
 62
    18
100
AcDbLine
 10
7.679119
 20
4.801879
 30
0.0
 11
7.678987
 21
4.802368
 31
0.0
  0
LINE
  5
224
330
53
100
AcDbEntity
 67
     1
  8
1
  6
CONTINUOUS
 62
    18
100
AcDbLine
 10
7.678987
 20
4.802368
 30
0.0
 11
7.678774
 21
4.802834
 31
0.0
  0
LINE
  5
225
330
53
100
AcDbEntity
 67
     1
  8
1
  6
CONTINUOUS
 62
    18
100
AcDbLine
 10
7.678774
 20
4.802834
 30
0.0
 11
7.678481
 21
4.803268
 31
0.0
  0
LINE
  5
226
330
53
100
AcDbEntity
 67
     1
  8
1
  6
CONTINUOUS
 62
    18
100
AcDbLine
 10
7.678481
 20
4.803268
 30
0.0
 11
7.678119
 21
4.803649
 31
0.0
  0
LINE
  5
227
330
53
100
AcDbEntity
 67
     1
  8
1
  6
CONTINUOUS
 62
    18
100
AcDbLine
 10
7.678119
 20
4.803649
 30
0.0
 11
7.677709
 21
4.803959
 31
0.0
  0
LINE
  5
228
330
53
100
AcDbEntity
 67
     1
  8
1
  6
CONTINUOUS
 62
    18
100
AcDbLine
 10
7.677709
 20
4.803959
 30
0.0
 11
7.677241
 21
4.804212
 31
0.0
  0
LINE
  5
229
330
53
100
AcDbEntity
 67
     1
  8
1
  6
CONTINUOUS
 62
    18
100
AcDbLine
 10
7.593887
 20
4.804617
 30
0.0
 11
7.593138
 21
4.804248
 31
0.0
  0
LINE
  5
22A
330
53
100
AcDbEntity
 67
     1
  8
1
  6
CONTINUOUS
 62
    18
100
AcDbLine
 10
7.593138
 20
4.804248
 30
0.0
 11
7.592473
 21
4.803784
 31
0.0
  0
LINE
  5
22B
330
53
100
AcDbEntity
 67
     1
  8
1
  6
CONTINUOUS
 62
    18
100
AcDbLine
 10
7.592473
 20
4.803784
 30
0.0
 11
7.591876
 21
4.803209
 31
0.0
  0
LINE
  5
22C
330
53
100
AcDbEntity
 67
     1
  8
1
  6
CONTINUOUS
 62
    18
100
AcDbLine
 10
7.591876
 20
4.803209
 30
0.0
 11
7.59138
 21
4.802547
 31
0.0
  0
LINE
  5
22D
330
53
100
AcDbEntity
 67
     1
  8
1
  6
CONTINUOUS
 62
    18
100
AcDbLine
 10
7.59138
 20
4.802547
 30
0.0
 11
7.591007
 21
4.801835
 31
0.0
  0
LINE
  5
22E
330
53
100
AcDbEntity
 67
     1
  8
1
  6
CONTINUOUS
 62
    18
100
AcDbLine
 10
7.591007
 20
4.801835
 30
0.0
 11
7.590754
 21
4.80108
 31
0.0
  0
LINE
  5
22F
330
53
100
AcDbEntity
 67
     1
  8
1
  6
CONTINUOUS
 62
    18
100
AcDbLine
 10
7.590754
 20
4.80108
 30
0.0
 11
7.590629
 21
4.800348
 31
0.0
  0
LINE
  5
230
330
53
100
AcDbEntity
 67
     1
  8
1
  6
CONTINUOUS
 62
    18
100
AcDbLine
 10
7.590629
 20
4.800348
 30
0.0
 11
7.590612
 21
4.799591
 31
0.0
  0
LINE
  5
231
330
53
100
AcDbEntity
 67
     1
  8
1
  6
CONTINUOUS
 62
    18
100
AcDbLine
 10
6.400747
 20
4.910107
 30
0.0
 11
6.421994
 21
4.910478
 31
0.0
  0
LINE
  5
232
330
53
100
AcDbEntity
 67
     1
  8
1
  6
CONTINUOUS
 62
    18
100
AcDbLine
 10
6.464487
 20
4.911219
 30
0.0
 11
6.506981
 21
4.911961
 31
0.0
  0
LINE
  5
233
330
53
100
AcDbEntity
 67
     1
  8
1
  6
CONTINUOUS
 62
    18
100
AcDbLine
 10
6.549474
 20
4.912703
 30
0.0
 11
6.570721
 21
4.913074
 31
0.0
  0
LINE
  5
234
330
53
100
AcDbEntity
 67
     1
  8
1
  6
CONTINUOUS
 62
    18
100
AcDbLine
 10
6.400747
 20
4.910107
 30
0.0
 11
6.421994
 21
4.910478
 31
0.0
  0
LINE
  5
235
330
53
100
AcDbEntity
 67
     1
  8
1
  6
CONTINUOUS
 62
    18
100
AcDbLine
 10
6.464487
 20
4.911219
 30
0.0
 11
6.506981
 21
4.911961
 31
0.0
  0
LINE
  5
236
330
53
100
AcDbEntity
 67
     1
  8
1
  6
CONTINUOUS
 62
    18
100
AcDbLine
 10
6.549474
 20
4.912703
 30
0.0
 11
6.570721
 21
4.913074
 31
0.0
  0
LINE
  5
237
330
53
100
AcDbEntity
 67
     1
  8
1
  6
CONTINUOUS
 62
    18
100
AcDbLine
 10
7.133477
 20
4.847877
 30
0.0
 11
7.128803
 21
4.848122
 31
0.0
  0
LINE
  5
238
330
53
100
AcDbEntity
 67
     1
  8
1
  6
CONTINUOUS
 62
    18
100
AcDbLine
 10
7.146477
 20
4.847196
 30
0.0
 11
7.133477
 21
4.847877
 31
0.0
  0
LINE
  5
239
330
53
100
AcDbEntity
 67
     1
  8
1
  6
CONTINUOUS
 62
    18
100
AcDbLine
 10
7.356477
 20
4.836191
 30
0.0
 11
7.146477
 21
4.847196
 31
0.0
  0
LINE
  5
23A
330
53
100
AcDbEntity
 67
     1
  8
1
  6
CONTINUOUS
 62
    18
100
AcDbLine
 10
7.369477
 20
4.835509
 30
0.0
 11
7.356477
 21
4.836191
 31
0.0
  0
LINE
  5
23B
330
53
100
AcDbEntity
 67
     1
  8
1
  6
CONTINUOUS
 62
    18
100
AcDbLine
 10
7.414947
 20
4.833126
 30
0.0
 11
7.369477
 21
4.835509
 31
0.0
  0
LINE
  5
23C
330
53
100
AcDbEntity
 67
     1
  8
1
  6
CONTINUOUS
 62
    18
100
AcDbLine
 10
7.60046
 20
4.255402
 30
0.0
 11
7.588182
 21
4.255402
 31
0.0
  0
LINE
  5
23D
330
53
100
AcDbEntity
 67
     1
  8
1
  6
CONTINUOUS
 62
    18
100
AcDbLine
 10
7.62546
 20
4.240968
 30
0.0
 11
7.60046
 21
4.255402
 31
0.0
  0
LINE
  5
23E
330
53
100
AcDbEntity
 67
     1
  8
1
  6
CONTINUOUS
 62
    18
100
AcDbLine
 10
7.580638
 20
4.266846
 30
0.0
 11
7.600461
 21
4.255401
 31
0.0
  0
LINE
  5
23F
330
53
100
AcDbEntity
 67
     1
  8
1
  6
CONTINUOUS
 62
    18
100
AcDbLine
 10
7.623999
 20
4.214499
 30
0.0
 11
7.287728
 21
4.208629
 31
0.0
  0
LINE
  5
240
330
53
100
AcDbEntity
 67
     1
  8
1
  6
CONTINUOUS
 62
    18
100
AcDbLine
 10
7.109976
 20
4.848451
 30
0.0
 11
7.128803
 21
4.848122
 31
0.0
  0
LINE
  5
241
330
53
100
AcDbEntity
 67
     1
  8
1
  6
CONTINUOUS
 62
    18
100
AcDbLine
 10
7.58046
 20
4.830237
 30
0.0
 11
7.414947
 21
4.833126
 31
0.0
  0
LINE
  5
242
330
53
100
AcDbEntity
 67
     1
  8
1
  6
CONTINUOUS
 62
    18
100
AcDbLine
 10
7.58046
 20
4.793216
 30
0.0
 11
7.58046
 21
4.830237
 31
0.0
  0
LINE
  5
243
330
53
100
AcDbEntity
 67
     1
  8
1
  6
CONTINUOUS
 62
    18
100
AcDbLine
 10
7.58046
 20
4.793216
 30
0.0
 11
7.531713
 21
4.765071
 31
0.0
  0
LINE
  5
244
330
53
100
AcDbEntity
 67
     1
  8
1
  6
CONTINUOUS
 62
    18
100
AcDbLine
 10
7.531713
 20
4.765071
 30
0.0
 11
7.50046
 21
4.765071
 31
0.0
  0
LINE
  5
245
330
53
100
AcDbEntity
 67
     1
  8
1
  6
CONTINUOUS
 62
    18
100
AcDbLine
 10
6.956711
 20
4.808451
 30
0.0
 11
7.015475
 21
4.808451
 31
0.0
  0
LINE
  5
246
330
53
100
AcDbEntity
 67
     1
  8
1
  6
CONTINUOUS
 62
    18
100
AcDbLine
 10
6.956711
 20
4.683451
 30
0.0
 11
7.015475
 21
4.683451
 31
0.0
  0
LINE
  5
247
330
53
100
AcDbEntity
 67
     1
  8
1
  6
CONTINUOUS
 62
    18
100
AcDbLine
 10
7.015475
 20
4.683451
 30
0.0
 11
7.027034
 21
4.685409
 31
0.0
  0
LINE
  5
248
330
53
100
AcDbEntity
 67
     1
  8
1
  6
CONTINUOUS
 62
    18
100
AcDbLine
 10
7.027034
 20
4.685409
 30
0.0
 11
7.027034
 21
4.806493
 31
0.0
  0
LINE
  5
249
330
53
100
AcDbEntity
 67
     1
  8
1
  6
CONTINUOUS
 62
    18
100
AcDbLine
 10
7.027034
 20
4.806493
 30
0.0
 11
7.015475
 21
4.808451
 31
0.0
  0
LINE
  5
24A
330
53
100
AcDbEntity
 67
     1
  8
1
  6
CONTINUOUS
 62
    18
100
AcDbLine
 10
6.956711
 20
4.683451
 30
0.0
 11
6.956711
 21
4.808451
 31
0.0
  0
LINE
  5
24B
330
53
100
AcDbEntity
 67
     1
  8
1
  6
CONTINUOUS
 62
    18
100
AcDbLine
 10
7.046603
 20
4.713451
 30
0.0
 11
7.046603
 21
4.778451
 31
0.0
  0
LINE
  5
24C
330
53
100
AcDbEntity
 67
     1
  8
1
  6
CONTINUOUS
 62
    18
100
AcDbLine
 10
7.027034
 20
4.685409
 30
0.0
 11
7.041237
 21
4.696419
 31
0.0
  0
LINE
  5
24D
330
53
100
AcDbEntity
 67
     1
  8
1
  6
CONTINUOUS
 62
    18
100
AcDbLine
 10
7.041237
 20
4.696419
 30
0.0
 11
7.046603
 21
4.713451
 31
0.0
  0
LINE
  5
24E
330
53
100
AcDbEntity
 67
     1
  8
1
  6
CONTINUOUS
 62
    18
100
AcDbLine
 10
7.046603
 20
4.778451
 30
0.0
 11
7.041237
 21
4.795483
 31
0.0
  0
LINE
  5
24F
330
53
100
AcDbEntity
 67
     1
  8
1
  6
CONTINUOUS
 62
    18
100
AcDbLine
 10
7.041237
 20
4.795483
 30
0.0
 11
7.027034
 21
4.806493
 31
0.0
  0
LINE
  5
250
330
53
100
AcDbEntity
 67
     1
  8
1
  6
CONTINUOUS
 62
    18
100
AcDbLine
 10
7.109976
 20
4.211732
 30
0.0
 11
7.081384
 21
4.212231
 31
0.0
  0
LINE
  5
251
330
53
100
AcDbEntity
 67
     1
  8
1
  6
CONTINUOUS
 62
    18
100
AcDbLine
 10
6.956711
 20
4.308807
 30
0.0
 11
6.956711
 21
4.433807
 31
0.0
  0
LINE
  5
252
330
53
100
AcDbEntity
 67
     1
  8
1
  6
CONTINUOUS
 62
    18
100
AcDbLine
 10
7.50046
 20
4.765071
 30
0.0
 11
7.50046
 21
4.698354
 31
0.0
  0
LINE
  5
253
330
53
100
AcDbEntity
 67
     1
  8
1
  6
CONTINUOUS
 62
    18
100
AcDbLine
 10
7.109976
 20
4.211732
 30
0.0
 11
7.109976
 21
4.214169
 31
0.0
  0
LINE
  5
254
330
53
100
AcDbEntity
 67
     1
  8
1
  6
CONTINUOUS
 62
    18
100
AcDbLine
 10
7.109976
 20
4.224734
 30
0.0
 11
7.287728
 21
4.221631
 31
0.0
  0
LINE
  5
255
330
53
100
AcDbEntity
 67
     1
  8
1
  6
CONTINUOUS
 62
    18
100
AcDbLine
 10
7.287728
 20
4.221631
 30
0.0
 11
7.62546
 21
4.227526
 31
0.0
  0
LINE
  5
256
330
53
100
AcDbEntity
 67
     1
  8
1
  6
CONTINUOUS
 62
    18
100
AcDbLine
 10
7.62546
 20
4.240968
 30
0.0
 11
7.62546
 21
4.227526
 31
0.0
  0
LINE
  5
257
330
53
100
AcDbEntity
 67
     1
  8
1
  6
CONTINUOUS
 62
    18
100
AcDbLine
 10
7.374477
 20
4.469106
 30
0.0
 11
7.588182
 21
4.255402
 31
0.0
  0
LINE
  5
258
330
53
100
AcDbEntity
 67
     1
  8
1
  6
CONTINUOUS
 62
    18
100
AcDbLine
 10
7.374477
 20
4.572371
 30
0.0
 11
7.374477
 21
4.469106
 31
0.0
  0
LINE
  5
259
330
53
100
AcDbEntity
 67
     1
  8
1
  6
CONTINUOUS
 62
    18
100
AcDbLine
 10
7.50046
 20
4.698354
 30
0.0
 11
7.374477
 21
4.572371
 31
0.0
  0
LINE
  5
25A
330
53
100
AcDbEntity
 67
     1
  8
1
  6
CONTINUOUS
 62
    18
100
AcDbLine
 10
7.369477
 20
4.746447
 30
0.0
 11
7.369477
 21
4.835509
 31
0.0
  0
LINE
  5
25B
330
53
100
AcDbEntity
 67
     1
  8
1
  6
CONTINUOUS
 62
    18
100
AcDbLine
 10
7.369477
 20
4.746447
 30
0.0
 11
7.365688
 21
4.736095
 31
0.0
  0
LINE
  5
25C
330
53
100
AcDbEntity
 67
     1
  8
1
  6
CONTINUOUS
 62
    18
100
AcDbLine
 10
7.365688
 20
4.736095
 30
0.0
 11
7.355335
 21
4.732305
 31
0.0
  0
LINE
  5
25D
330
53
100
AcDbEntity
 67
     1
  8
1
  6
CONTINUOUS
 62
    18
100
AcDbLine
 10
7.147619
 20
4.732305
 30
0.0
 11
7.355335
 21
4.732305
 31
0.0
  0
LINE
  5
25E
330
53
100
AcDbEntity
 67
     1
  8
1
  6
CONTINUOUS
 62
    18
100
AcDbLine
 10
7.147619
 20
4.732305
 30
0.0
 11
7.137266
 21
4.736095
 31
0.0
  0
LINE
  5
25F
330
53
100
AcDbEntity
 67
     1
  8
1
  6
CONTINUOUS
 62
    18
100
AcDbLine
 10
7.137266
 20
4.736095
 30
0.0
 11
7.133477
 21
4.746447
 31
0.0
  0
LINE
  5
260
330
53
100
AcDbEntity
 67
     1
  8
1
  6
CONTINUOUS
 62
    18
100
AcDbLine
 10
7.133477
 20
4.746447
 30
0.0
 11
7.133477
 21
4.847877
 31
0.0
  0
LINE
  5
261
330
53
100
AcDbEntity
 67
     1
  8
1
  6
CONTINUOUS
 62
    18
100
AcDbLine
 10
7.287728
 20
4.208629
 30
0.0
 11
7.109976
 21
4.211732
 31
0.0
  0
LINE
  5
262
330
53
100
AcDbEntity
 67
     1
  8
1
  6
CONTINUOUS
 62
    18
100
AcDbLine
 10
7.62546
 20
4.227526
 30
0.0
 11
7.62546
 21
4.214524
 31
0.0
  0
LINE
  5
263
330
53
100
AcDbEntity
 67
     1
  8
1
  6
CONTINUOUS
 62
    18
100
AcDbLine
 10
7.576665
 20
4.266915
 30
0.0
 11
7.580638
 21
4.266846
 31
0.0
  0
LINE
  5
264
330
53
100
AcDbEntity
 67
     1
  8
1
  6
CONTINUOUS
 62
    18
100
AcDbLine
 10
7.027034
 20
4.310765
 30
0.0
 11
7.027034
 21
4.431849
 31
0.0
  0
LINE
  5
265
330
53
100
AcDbEntity
 67
     1
  8
1
  6
CONTINUOUS
 62
    18
100
AcDbLine
 10
7.027034
 20
4.310765
 30
0.0
 11
7.041237
 21
4.321775
 31
0.0
  0
LINE
  5
266
330
53
100
AcDbEntity
 67
     1
  8
1
  6
CONTINUOUS
 62
    18
100
AcDbLine
 10
7.041237
 20
4.321775
 30
0.0
 11
7.046603
 21
4.338807
 31
0.0
  0
LINE
  5
267
330
53
100
AcDbEntity
 67
     1
  8
1
  6
CONTINUOUS
 62
    18
100
AcDbLine
 10
7.046603
 20
4.338807
 30
0.0
 11
7.046603
 21
4.403807
 31
0.0
  0
LINE
  5
268
330
53
100
AcDbEntity
 67
     1
  8
1
  6
CONTINUOUS
 62
    18
100
AcDbLine
 10
7.046603
 20
4.403807
 30
0.0
 11
7.041237
 21
4.420839
 31
0.0
  0
LINE
  5
269
330
53
100
AcDbEntity
 67
     1
  8
1
  6
CONTINUOUS
 62
    18
100
AcDbLine
 10
7.041237
 20
4.420839
 30
0.0
 11
7.027034
 21
4.431849
 31
0.0
  0
LINE
  5
26A
330
53
100
AcDbEntity
 67
     1
  8
1
  6
CONTINUOUS
 62
    18
100
AcDbLine
 10
6.956711
 20
4.433807
 30
0.0
 11
7.015475
 21
4.433807
 31
0.0
  0
LINE
  5
26B
330
53
100
AcDbEntity
 67
     1
  8
1
  6
CONTINUOUS
 62
    18
100
AcDbLine
 10
6.956711
 20
4.308807
 30
0.0
 11
7.015475
 21
4.308807
 31
0.0
  0
LINE
  5
26C
330
53
100
AcDbEntity
 67
     1
  8
1
  6
CONTINUOUS
 62
    18
100
AcDbLine
 10
7.015475
 20
4.308807
 30
0.0
 11
7.027034
 21
4.310765
 31
0.0
  0
LINE
  5
26D
330
53
100
AcDbEntity
 67
     1
  8
1
  6
CONTINUOUS
 62
    18
100
AcDbLine
 10
7.027034
 20
4.431849
 30
0.0
 11
7.015475
 21
4.433807
 31
0.0
  0
LINE
  5
26E
330
53
100
AcDbEntity
 67
     1
  8
1
  6
CONTINUOUS
 62
    18
100
AcDbLine
 10
7.355335
 20
4.732305
 30
0.0
 11
7.342335
 21
4.745305
 31
0.0
  0
LINE
  5
26F
330
53
100
AcDbEntity
 67
     1
  8
1
  6
CONTINUOUS
 62
    18
100
AcDbLine
 10
7.160619
 20
4.745305
 30
0.0
 11
7.342335
 21
4.745305
 31
0.0
  0
LINE
  5
270
330
53
100
AcDbEntity
 67
     1
  8
1
  6
CONTINUOUS
 62
    18
100
AcDbLine
 10
7.160619
 20
4.745305
 30
0.0
 11
7.147619
 21
4.732305
 31
0.0
  0
LINE
  5
271
330
53
100
AcDbEntity
 67
     1
  8
1
  6
CONTINUOUS
 62
    18
100
AcDbLine
 10
7.356477
 20
4.759447
 30
0.0
 11
7.356477
 21
4.836191
 31
0.0
  0
LINE
  5
272
330
53
100
AcDbEntity
 67
     1
  8
1
  6
CONTINUOUS
 62
    18
100
AcDbLine
 10
7.356477
 20
4.759447
 30
0.0
 11
7.369477
 21
4.746447
 31
0.0
  0
LINE
  5
273
330
53
100
AcDbEntity
 67
     1
  8
1
  6
CONTINUOUS
 62
    18
100
AcDbLine
 10
7.342335
 20
4.745305
 30
0.0
 11
7.352688
 21
4.749095
 31
0.0
  0
LINE
  5
274
330
53
100
AcDbEntity
 67
     1
  8
1
  6
CONTINUOUS
 62
    18
100
AcDbLine
 10
7.352688
 20
4.749095
 30
0.0
 11
7.356477
 21
4.759447
 31
0.0
  0
LINE
  5
275
330
53
100
AcDbEntity
 67
     1
  8
1
  6
CONTINUOUS
 62
    18
100
AcDbLine
 10
7.146477
 20
4.759447
 30
0.0
 11
7.146477
 21
4.847196
 31
0.0
  0
LINE
  5
276
330
53
100
AcDbEntity
 67
     1
  8
1
  6
CONTINUOUS
 62
    18
100
AcDbLine
 10
7.146477
 20
4.759447
 30
0.0
 11
7.150266
 21
4.749095
 31
0.0
  0
LINE
  5
277
330
53
100
AcDbEntity
 67
     1
  8
1
  6
CONTINUOUS
 62
    18
100
AcDbLine
 10
7.150266
 20
4.749095
 30
0.0
 11
7.160619
 21
4.745305
 31
0.0
  0
LINE
  5
278
330
53
100
AcDbEntity
 67
     1
  8
1
  6
CONTINUOUS
 62
    18
100
AcDbLine
 10
7.133477
 20
4.746447
 30
0.0
 11
7.146477
 21
4.759447
 31
0.0
  0
LINE
  5
279
330
53
100
AcDbEntity
 67
     1
  8
1
  6
CONTINUOUS
 62
    18
100
AcDbLine
 10
7.287728
 20
4.221631
 30
0.0
 11
7.287728
 21
4.208629
 31
0.0
  0
LINE
  5
27A
330
53
100
AcDbEntity
 67
     1
  8
1
  6
CONTINUOUS
 62
    18
100
AcDbLine
 10
6.958754
 20
4.677146
 30
0.0
 11
7.022558
 21
4.677146
 31
0.0
  0
LINE
  5
27B
330
53
100
AcDbEntity
 67
     1
  8
1
  6
CONTINUOUS
 62
    18
100
AcDbLine
 10
6.958754
 20
4.677146
 30
0.0
 11
6.951686
 21
4.680072
 31
0.0
  0
LINE
  5
27C
330
53
100
AcDbEntity
 67
     1
  8
1
  6
CONTINUOUS
 62
    18
100
AcDbLine
 10
6.951686
 20
4.680072
 30
0.0
 11
6.94876
 21
4.68714
 31
0.0
  0
LINE
  5
27D
330
53
100
AcDbEntity
 67
     1
  8
1
  6
CONTINUOUS
 62
    18
100
AcDbLine
 10
6.94876
 20
4.68714
 30
0.0
 11
6.94876
 21
4.804762
 31
0.0
  0
LINE
  5
27E
330
53
100
AcDbEntity
 67
     1
  8
1
  6
CONTINUOUS
 62
    18
100
AcDbLine
 10
6.94876
 20
4.804762
 30
0.0
 11
6.951686
 21
4.811829
 31
0.0
  0
LINE
  5
27F
330
53
100
AcDbEntity
 67
     1
  8
1
  6
CONTINUOUS
 62
    18
100
AcDbLine
 10
6.951686
 20
4.811829
 30
0.0
 11
6.958754
 21
4.814756
 31
0.0
  0
LINE
  5
280
330
53
100
AcDbEntity
 67
     1
  8
1
  6
CONTINUOUS
 62
    18
100
AcDbLine
 10
6.958754
 20
4.814756
 30
0.0
 11
7.022558
 21
4.814756
 31
0.0
  0
LINE
  5
281
330
53
100
AcDbEntity
 67
     1
  8
1
  6
CONTINUOUS
 62
    18
100
AcDbLine
 10
7.052558
 20
4.784811
 30
0.0
 11
7.048541
 21
4.799789
 31
0.0
  0
LINE
  5
282
330
53
100
AcDbEntity
 67
     1
  8
1
  6
CONTINUOUS
 62
    18
100
AcDbLine
 10
7.048541
 20
4.799789
 30
0.0
 11
7.037564
 21
4.810747
 31
0.0
  0
LINE
  5
283
330
53
100
AcDbEntity
 67
     1
  8
1
  6
CONTINUOUS
 62
    18
100
AcDbLine
 10
7.037564
 20
4.810747
 30
0.0
 11
7.022558
 21
4.814756
 31
0.0
  0
LINE
  5
284
330
53
100
AcDbEntity
 67
     1
  8
1
  6
CONTINUOUS
 62
    18
100
AcDbLine
 10
7.052558
 20
4.707091
 30
0.0
 11
7.052558
 21
4.784811
 31
0.0
  0
LINE
  5
285
330
53
100
AcDbEntity
 67
     1
  8
1
  6
CONTINUOUS
 62
    18
100
AcDbLine
 10
7.022558
 20
4.677146
 30
0.0
 11
7.037564
 21
4.681156
 31
0.0
  0
LINE
  5
286
330
53
100
AcDbEntity
 67
     1
  8
1
  6
CONTINUOUS
 62
    18
100
AcDbLine
 10
7.037564
 20
4.681156
 30
0.0
 11
7.048541
 21
4.692113
 31
0.0
  0
LINE
  5
287
330
53
100
AcDbEntity
 67
     1
  8
1
  6
CONTINUOUS
 62
    18
100
AcDbLine
 10
7.048541
 20
4.692113
 30
0.0
 11
7.052558
 21
4.707091
 31
0.0
  0
LINE
  5
288
330
53
100
AcDbEntity
 67
     1
  8
1
  6
CONTINUOUS
 62
    18
100
AcDbLine
 10
7.022558
 20
4.302502
 30
0.0
 11
6.958754
 21
4.302502
 31
0.0
  0
LINE
  5
289
330
53
100
AcDbEntity
 67
     1
  8
1
  6
CONTINUOUS
 62
    18
100
AcDbLine
 10
6.958754
 20
4.302502
 30
0.0
 11
6.951686
 21
4.305429
 31
0.0
  0
LINE
  5
28A
330
53
100
AcDbEntity
 67
     1
  8
1
  6
CONTINUOUS
 62
    18
100
AcDbLine
 10
6.951686
 20
4.305429
 30
0.0
 11
6.94876
 21
4.312496
 31
0.0
  0
LINE
  5
28B
330
53
100
AcDbEntity
 67
     1
  8
1
  6
CONTINUOUS
 62
    18
100
AcDbLine
 10
6.94876
 20
4.430118
 30
0.0
 11
6.94876
 21
4.312496
 31
0.0
  0
LINE
  5
28C
330
53
100
AcDbEntity
 67
     1
  8
1
  6
CONTINUOUS
 62
    18
100
AcDbLine
 10
6.94876
 20
4.430118
 30
0.0
 11
6.951686
 21
4.437186
 31
0.0
  0
LINE
  5
28D
330
53
100
AcDbEntity
 67
     1
  8
1
  6
CONTINUOUS
 62
    18
100
AcDbLine
 10
6.951686
 20
4.437186
 30
0.0
 11
6.958754
 21
4.440112
 31
0.0
  0
LINE
  5
28E
330
53
100
AcDbEntity
 67
     1
  8
1
  6
CONTINUOUS
 62
    18
100
AcDbLine
 10
7.022558
 20
4.440112
 30
0.0
 11
6.958754
 21
4.440112
 31
0.0
  0
LINE
  5
28F
330
53
100
AcDbEntity
 67
     1
  8
1
  6
CONTINUOUS
 62
    18
100
AcDbLine
 10
7.052558
 20
4.410167
 30
0.0
 11
7.048541
 21
4.425145
 31
0.0
  0
LINE
  5
290
330
53
100
AcDbEntity
 67
     1
  8
1
  6
CONTINUOUS
 62
    18
100
AcDbLine
 10
7.048541
 20
4.425145
 30
0.0
 11
7.037564
 21
4.436103
 31
0.0
  0
LINE
  5
291
330
53
100
AcDbEntity
 67
     1
  8
1
  6
CONTINUOUS
 62
    18
100
AcDbLine
 10
7.037564
 20
4.436103
 30
0.0
 11
7.022558
 21
4.440112
 31
0.0
  0
LINE
  5
292
330
53
100
AcDbEntity
 67
     1
  8
1
  6
CONTINUOUS
 62
    18
100
AcDbLine
 10
7.052558
 20
4.332447
 30
0.0
 11
7.052558
 21
4.410167
 31
0.0
  0
LINE
  5
293
330
53
100
AcDbEntity
 67
     1
  8
1
  6
CONTINUOUS
 62
    18
100
AcDbLine
 10
7.022558
 20
4.302502
 30
0.0
 11
7.037564
 21
4.306512
 31
0.0
  0
LINE
  5
294
330
53
100
AcDbEntity
 67
     1
  8
1
  6
CONTINUOUS
 62
    18
100
AcDbLine
 10
7.037564
 20
4.306512
 30
0.0
 11
7.048541
 21
4.317469
 31
0.0
  0
LINE
  5
295
330
53
100
AcDbEntity
 67
     1
  8
1
  6
CONTINUOUS
 62
    18
100
AcDbLine
 10
7.048541
 20
4.317469
 30
0.0
 11
7.052558
 21
4.332447
 31
0.0
  0
LINE
  5
296
330
53
100
AcDbEntity
 67
     1
  8
1
  6
CONTINUOUS
 62
    18
100
AcDbLine
 10
7.109976
 20
4.214169
 30
0.0
 11
7.109976
 21
4.872982
 31
0.0
  0
LINE
  5
297
330
53
100
AcDbEntity
 67
     1
  8
1
  6
CONTINUOUS
 62
    18
100
AcDbLine
 10
6.880713
 20
4.913408
 30
0.0
 11
7.109976
 21
4.872982
 31
0.0
  0
LINE
  5
298
330
53
100
AcDbEntity
 67
     1
  8
1
  6
CONTINUOUS
 62
    18
100
AcDbLine
 10
6.880713
 20
4.198629
 30
0.0
 11
6.880713
 21
4.913408
 31
0.0
  0
LINE
  5
299
330
53
100
AcDbEntity
 67
     1
  8
1
  6
CONTINUOUS
 62
    18
100
AcDbLine
 10
6.880713
 20
4.198629
 30
0.0
 11
7.109976
 21
4.214169
 31
0.0
  0
LINE
  5
29A
330
53
100
AcDbEntity
 67
     1
  8
1
  6
CONTINUOUS
 62
    18
100
AcDbLine
 10
7.109976
 20
4.872982
 30
0.0
 11
7.109976
 21
4.87806
 31
0.0
  0
LINE
  5
29B
330
53
100
AcDbEntity
 67
     1
  8
1
  6
CONTINUOUS
 62
    18
100
AcDbLine
 10
6.364889
 20
4.847856
 30
0.0
 11
6.364889
 21
4.198629
 31
0.0
  0
LINE
  5
29C
330
53
100
AcDbEntity
 67
     1
  8
1
  6
CONTINUOUS
 62
    18
100
AcDbLine
 10
6.359976
 20
4.847771
 30
0.0
 11
6.364889
 21
4.847856
 31
0.0
  0
LINE
  5
29D
330
53
100
AcDbEntity
 67
     1
  8
1
  6
CONTINUOUS
 62
    18
100
AcDbLine
 10
6.359976
 20
4.198629
 30
0.0
 11
6.359976
 21
4.847771
 31
0.0
  0
LINE
  5
29E
330
53
100
AcDbEntity
 67
     1
  8
1
  6
CONTINUOUS
 62
    18
100
AcDbLine
 10
6.364889
 20
4.198629
 30
0.0
 11
6.36141
 21
4.198629
 31
0.0
  0
LINE
  5
29F
330
53
100
AcDbEntity
 67
     1
  8
1
  6
CONTINUOUS
 62
    18
100
AcDbLine
 10
6.36141
 20
4.198629
 30
0.0
 11
6.359976
 21
4.198629
 31
0.0
  0
LINE
  5
2A0
330
53
100
AcDbEntity
 67
     1
  8
1
  6
CONTINUOUS
 62
    18
100
AcDbLine
 10
6.880684
 20
4.913485
 30
0.0
 11
6.880713
 21
4.913408
 31
0.0
  0
LINE
  5
2A1
330
53
100
AcDbEntity
 67
     1
  8
1
  6
CONTINUOUS
 62
    18
100
AcDbLine
 10
6.457976
 20
4.906107
 30
0.0
 11
6.880684
 21
4.913485
 31
0.0
  0
LINE
  5
2A2
330
53
100
AcDbEntity
 67
     1
  8
1
  6
CONTINUOUS
 62
    18
100
AcDbLine
 10
6.457976
 20
4.849481
 30
0.0
 11
6.457976
 21
4.906107
 31
0.0
  0
LINE
  5
2A3
330
53
100
AcDbEntity
 67
     1
  8
1
  6
CONTINUOUS
 62
    18
100
AcDbLine
 10
6.364889
 20
4.847856
 30
0.0
 11
6.457976
 21
4.849481
 31
0.0
  0
LINE
  5
2A4
330
53
100
AcDbEntity
 67
     1
  8
1
  6
CONTINUOUS
 62
    18
100
AcDbLine
 10
6.880713
 20
4.198629
 30
0.0
 11
6.364889
 21
4.198629
 31
0.0
  0
LINE
  5
2A5
330
53
100
AcDbEntity
 67
     1
  8
1
  6
CONTINUOUS
 62
    18
100
AcDbLine
 10
7.02003
 20
4.43885
 30
0.0
 11
6.960053
 21
4.438813
 31
0.0
  0
LINE
  5
2A6
330
53
100
AcDbEntity
 67
     1
  8
1
  6
CONTINUOUS
 62
    18
100
AcDbLine
 10
6.960053
 20
4.438813
 30
0.0
 11
6.952989
 21
4.435883
 31
0.0
  0
LINE
  5
2A7
330
53
100
AcDbEntity
 67
     1
  8
1
  6
CONTINUOUS
 62
    18
100
AcDbLine
 10
6.952989
 20
4.435883
 30
0.0
 11
6.950065
 21
4.428813
 31
0.0
  0
LINE
  5
2A8
330
53
100
AcDbEntity
 67
     1
  8
1
  6
CONTINUOUS
 62
    18
100
AcDbLine
 10
6.950065
 20
4.428813
 30
0.0
 11
6.950065
 21
4.313801
 31
0.0
  0
LINE
  5
2A9
330
53
100
AcDbEntity
 67
     1
  8
1
  6
CONTINUOUS
 62
    18
100
AcDbLine
 10
6.950065
 20
4.313801
 30
0.0
 11
6.952989
 21
4.306732
 31
0.0
  0
LINE
  5
2AA
330
53
100
AcDbEntity
 67
     1
  8
1
  6
CONTINUOUS
 62
    18
100
AcDbLine
 10
6.952989
 20
4.306732
 30
0.0
 11
6.960053
 21
4.303801
 31
0.0
  0
LINE
  5
2AB
330
53
100
AcDbEntity
 67
     1
  8
1
  6
CONTINUOUS
 62
    18
100
AcDbLine
 10
6.960053
 20
4.303801
 30
0.0
 11
7.02003
 21
4.303765
 31
0.0
  0
LINE
  5
2AC
330
53
100
AcDbEntity
 67
     1
  8
1
  6
CONTINUOUS
 62
    18
100
AcDbLine
 10
7.050067
 20
4.333691
 30
0.0
 11
7.046045
 21
4.318716
 31
0.0
  0
LINE
  5
2AD
330
53
100
AcDbEntity
 67
     1
  8
1
  6
CONTINUOUS
 62
    18
100
AcDbLine
 10
7.046045
 20
4.318716
 30
0.0
 11
7.035054
 21
4.307765
 31
0.0
  0
LINE
  5
2AE
330
53
100
AcDbEntity
 67
     1
  8
1
  6
CONTINUOUS
 62
    18
100
AcDbLine
 10
7.035054
 20
4.307765
 30
0.0
 11
7.02003
 21
4.303765
 31
0.0
  0
LINE
  5
2AF
330
53
100
AcDbEntity
 67
     1
  8
1
  6
CONTINUOUS
 62
    18
100
AcDbLine
 10
7.050067
 20
4.333691
 30
0.0
 11
7.050067
 21
4.408923
 31
0.0
  0
LINE
  5
2B0
330
53
100
AcDbEntity
 67
     1
  8
1
  6
CONTINUOUS
 62
    18
100
AcDbLine
 10
7.02003
 20
4.43885
 30
0.0
 11
7.035054
 21
4.43485
 31
0.0
  0
LINE
  5
2B1
330
53
100
AcDbEntity
 67
     1
  8
1
  6
CONTINUOUS
 62
    18
100
AcDbLine
 10
7.035054
 20
4.43485
 30
0.0
 11
7.046045
 21
4.423899
 31
0.0
  0
LINE
  5
2B2
330
53
100
AcDbEntity
 67
     1
  8
1
  6
CONTINUOUS
 62
    18
100
AcDbLine
 10
7.046045
 20
4.423899
 30
0.0
 11
7.050067
 21
4.408923
 31
0.0
  0
LINE
  5
2B3
330
53
100
AcDbEntity
 67
     1
  8
1
  6
CONTINUOUS
 62
    18
100
AcDbLine
 10
7.02003
 20
4.813494
 30
0.0
 11
6.960053
 21
4.813457
 31
0.0
  0
LINE
  5
2B4
330
53
100
AcDbEntity
 67
     1
  8
1
  6
CONTINUOUS
 62
    18
100
AcDbLine
 10
6.960053
 20
4.813457
 30
0.0
 11
6.952989
 21
4.810526
 31
0.0
  0
LINE
  5
2B5
330
53
100
AcDbEntity
 67
     1
  8
1
  6
CONTINUOUS
 62
    18
100
AcDbLine
 10
6.952989
 20
4.810526
 30
0.0
 11
6.950065
 21
4.803457
 31
0.0
  0
LINE
  5
2B6
330
53
100
AcDbEntity
 67
     1
  8
1
  6
CONTINUOUS
 62
    18
100
AcDbLine
 10
6.950065
 20
4.803457
 30
0.0
 11
6.950065
 21
4.688445
 31
0.0
  0
LINE
  5
2B7
330
53
100
AcDbEntity
 67
     1
  8
1
  6
CONTINUOUS
 62
    18
100
AcDbLine
 10
6.950065
 20
4.688445
 30
0.0
 11
6.952989
 21
4.681376
 31
0.0
  0
LINE
  5
2B8
330
53
100
AcDbEntity
 67
     1
  8
1
  6
CONTINUOUS
 62
    18
100
AcDbLine
 10
6.952989
 20
4.681376
 30
0.0
 11
6.960053
 21
4.678445
 31
0.0
  0
LINE
  5
2B9
330
53
100
AcDbEntity
 67
     1
  8
1
  6
CONTINUOUS
 62
    18
100
AcDbLine
 10
6.960053
 20
4.678445
 30
0.0
 11
7.02003
 21
4.678408
 31
0.0
  0
LINE
  5
2BA
330
53
100
AcDbEntity
 67
     1
  8
1
  6
CONTINUOUS
 62
    18
100
AcDbLine
 10
7.050067
 20
4.708335
 30
0.0
 11
7.046045
 21
4.69336
 31
0.0
  0
LINE
  5
2BB
330
53
100
AcDbEntity
 67
     1
  8
1
  6
CONTINUOUS
 62
    18
100
AcDbLine
 10
7.046045
 20
4.69336
 30
0.0
 11
7.035054
 21
4.682409
 31
0.0
  0
LINE
  5
2BC
330
53
100
AcDbEntity
 67
     1
  8
1
  6
CONTINUOUS
 62
    18
100
AcDbLine
 10
7.035054
 20
4.682409
 30
0.0
 11
7.02003
 21
4.678408
 31
0.0
  0
LINE
  5
2BD
330
53
100
AcDbEntity
 67
     1
  8
1
  6
CONTINUOUS
 62
    18
100
AcDbLine
 10
7.050067
 20
4.708335
 30
0.0
 11
7.050067
 21
4.783567
 31
0.0
  0
LINE
  5
2BE
330
53
100
AcDbEntity
 67
     1
  8
1
  6
CONTINUOUS
 62
    18
100
AcDbLine
 10
7.02003
 20
4.813494
 30
0.0
 11
7.035054
 21
4.809493
 31
0.0
  0
LINE
  5
2BF
330
53
100
AcDbEntity
 67
     1
  8
1
  6
CONTINUOUS
 62
    18
100
AcDbLine
 10
7.035054
 20
4.809493
 30
0.0
 11
7.046045
 21
4.798542
 31
0.0
  0
LINE
  5
2C0
330
53
100
AcDbEntity
 67
     1
  8
1
  6
CONTINUOUS
 62
    18
100
AcDbLine
 10
7.046045
 20
4.798542
 30
0.0
 11
7.050067
 21
4.783567
 31
0.0
  0
LINE
  5
2C1
330
53
100
AcDbEntity
 67
     1
  8
1
  6
CONTINUOUS
 62
    18
100
AcDbLine
 10
6.359976
 20
4.904482
 30
0.0
 11
6.359976
 21
4.847771
 31
0.0
  0
LINE
  5
2C2
330
53
100
AcDbEntity
 67
     1
  8
1
  6
CONTINUOUS
 62
    18
100
AcDbLine
 10
7.022558
 20
4.440112
 30
0.0
 11
7.02003
 21
4.43885
 31
0.0
  0
LINE
  5
2C3
330
53
100
AcDbEntity
 67
     1
  8
1
  6
CONTINUOUS
 62
    18
100
AcDbLine
 10
7.050067
 20
4.408923
 30
0.0
 11
7.052558
 21
4.410167
 31
0.0
  0
LINE
  5
2C4
330
53
100
AcDbEntity
 67
     1
  8
1
  6
CONTINUOUS
 62
    18
100
AcDbLine
 10
7.052558
 20
4.332447
 30
0.0
 11
7.050067
 21
4.333691
 31
0.0
  0
LINE
  5
2C5
330
53
100
AcDbEntity
 67
     1
  8
1
  6
CONTINUOUS
 62
    18
100
AcDbLine
 10
7.02003
 20
4.303765
 30
0.0
 11
7.022558
 21
4.302502
 31
0.0
  0
LINE
  5
2C6
330
53
100
AcDbEntity
 67
     1
  8
1
  6
CONTINUOUS
 62
    18
100
AcDbLine
 10
6.960053
 20
4.303801
 30
0.0
 11
6.958754
 21
4.302502
 31
0.0
  0
LINE
  5
2C7
330
53
100
AcDbEntity
 67
     1
  8
1
  6
CONTINUOUS
 62
    18
100
AcDbLine
 10
6.950065
 20
4.428813
 30
0.0
 11
6.94876
 21
4.430118
 31
0.0
  0
LINE
  5
2C8
330
53
100
AcDbEntity
 67
     1
  8
1
  6
CONTINUOUS
 62
    18
100
AcDbLine
 10
6.94876
 20
4.312496
 30
0.0
 11
6.950065
 21
4.313801
 31
0.0
  0
LINE
  5
2C9
330
53
100
AcDbEntity
 67
     1
  8
1
  6
CONTINUOUS
 62
    18
100
AcDbLine
 10
6.958754
 20
4.440112
 30
0.0
 11
6.960053
 21
4.438813
 31
0.0
  0
LINE
  5
2CA
330
53
100
AcDbEntity
 67
     1
  8
1
  6
CONTINUOUS
 62
    18
100
AcDbLine
 10
7.022558
 20
4.814756
 30
0.0
 11
7.02003
 21
4.813494
 31
0.0
  0
LINE
  5
2CB
330
53
100
AcDbEntity
 67
     1
  8
1
  6
CONTINUOUS
 62
    18
100
AcDbLine
 10
7.050067
 20
4.783567
 30
0.0
 11
7.052558
 21
4.784811
 31
0.0
  0
LINE
  5
2CC
330
53
100
AcDbEntity
 67
     1
  8
1
  6
CONTINUOUS
 62
    18
100
AcDbLine
 10
7.052558
 20
4.707091
 30
0.0
 11
7.050067
 21
4.708335
 31
0.0
  0
LINE
  5
2CD
330
53
100
AcDbEntity
 67
     1
  8
1
  6
CONTINUOUS
 62
    18
100
AcDbLine
 10
7.02003
 20
4.678408
 30
0.0
 11
7.022558
 21
4.677146
 31
0.0
  0
LINE
  5
2CE
330
53
100
AcDbEntity
 67
     1
  8
1
  6
CONTINUOUS
 62
    18
100
AcDbLine
 10
6.960053
 20
4.678445
 30
0.0
 11
6.958754
 21
4.677146
 31
0.0
  0
LINE
  5
2CF
330
53
100
AcDbEntity
 67
     1
  8
1
  6
CONTINUOUS
 62
    18
100
AcDbLine
 10
6.94876
 20
4.68714
 30
0.0
 11
6.950065
 21
4.688445
 31
0.0
  0
LINE
  5
2D0
330
53
100
AcDbEntity
 67
     1
  8
1
  6
CONTINUOUS
 62
    18
100
AcDbLine
 10
6.950065
 20
4.803457
 30
0.0
 11
6.94876
 21
4.804762
 31
0.0
  0
LINE
  5
2D1
330
53
100
AcDbEntity
 67
     1
  8
1
  6
CONTINUOUS
 62
    18
100
AcDbLine
 10
6.958754
 20
4.814756
 30
0.0
 11
6.960053
 21
4.813457
 31
0.0
  0
LINE
  5
2D2
330
53
100
AcDbEntity
 67
     1
  8
1
  6
CONTINUOUS
 62
    18
100
AcDbLine
 10
6.349976
 20
4.409256
 30
0.0
 11
6.349976
 21
4.411599
 31
0.0
  0
LINE
  5
2D3
330
53
100
AcDbEntity
 67
     1
  8
1
  6
CONTINUOUS
 62
    18
100
AcDbLine
 10
6.349976
 20
4.411599
 30
0.0
 11
6.349976
 21
4.417256
 31
0.0
  0
LINE
  5
2D4
330
53
100
AcDbEntity
 67
     1
  8
1
  6
CONTINUOUS
 62
    18
100
AcDbLine
 10
6.359976
 20
4.409256
 30
0.0
 11
6.349976
 21
4.409256
 31
0.0
  0
LINE
  5
2D5
330
53
100
AcDbEntity
 67
     1
  8
1
  6
CONTINUOUS
 62
    18
100
AcDbLine
 10
6.349976
 20
4.417256
 30
0.0
 11
6.359976
 21
4.417256
 31
0.0
  0
LINE
  5
2D6
330
53
100
AcDbEntity
 67
     1
  8
1
  6
CONTINUOUS
 62
    18
100
AcDbLine
 10
6.349976
 20
4.417256
 30
0.0
 11
6.349976
 21
4.429256
 31
0.0
  0
LINE
  5
2D7
330
53
100
AcDbEntity
 67
     1
  8
1
  6
CONTINUOUS
 62
    18
100
AcDbLine
 10
6.349976
 20
4.429256
 30
0.0
 11
6.359976
 21
4.429256
 31
0.0
  0
LINE
  5
2D8
330
53
100
AcDbEntity
 67
     1
  8
1
  6
CONTINUOUS
 62
    18
100
AcDbLine
 10
6.880713
 20
4.918485
 30
0.0
 11
6.457976
 21
4.911106
 31
0.0
  0
LINE
  5
2D9
330
53
100
AcDbEntity
 67
     1
  8
1
  6
CONTINUOUS
 62
    18
100
AcDbLine
 10
6.457976
 20
4.911106
 30
0.0
 11
6.364889
 21
4.909481
 31
0.0
  0
LINE
  5
2DA
330
53
100
AcDbEntity
 67
     1
  8
1
  6
CONTINUOUS
 62
    18
100
AcDbLine
 10
6.457976
 20
4.911106
 30
0.0
 11
6.457976
 21
4.906107
 31
0.0
  0
LINE
  5
2DB
330
53
100
AcDbEntity
 67
     1
  8
1
  6
CONTINUOUS
 62
    18
100
AcDbLine
 10
6.359976
 20
4.904482
 30
0.0
 11
6.364889
 21
4.909481
 31
0.0
  0
LINE
  5
2DC
330
53
100
AcDbEntity
 67
     1
  8
1
  6
CONTINUOUS
 62
    18
100
AcDbLine
 10
6.880684
 20
4.913485
 30
0.0
 11
6.880602
 21
4.913639
 31
0.0
  0
LINE
  5
2DD
330
53
100
AcDbEntity
 67
     1
  8
1
  6
CONTINUOUS
 62
    18
100
AcDbLine
 10
6.880602
 20
4.913639
 30
0.0
 11
6.880519
 21
4.913997
 31
0.0
  0
LINE
  5
2DE
330
53
100
AcDbEntity
 67
     1
  8
1
  6
CONTINUOUS
 62
    18
100
AcDbLine
 10
6.880519
 20
4.913997
 30
0.0
 11
6.880489
 21
4.914596
 31
0.0
  0
LINE
  5
2DF
330
53
100
AcDbEntity
 67
     1
  8
1
  6
CONTINUOUS
 62
    18
100
AcDbLine
 10
6.880489
 20
4.914596
 30
0.0
 11
6.880548
 21
4.916149
 31
0.0
  0
LINE
  5
2E0
330
53
100
AcDbEntity
 67
     1
  8
1
  6
CONTINUOUS
 62
    18
100
AcDbLine
 10
6.880548
 20
4.916149
 30
0.0
 11
6.88063
 21
4.917396
 31
0.0
  0
LINE
  5
2E1
330
53
100
AcDbEntity
 67
     1
  8
1
  6
CONTINUOUS
 62
    18
100
AcDbLine
 10
6.88063
 20
4.917396
 30
0.0
 11
6.88069
 21
4.918205
 31
0.0
  0
LINE
  5
2E2
330
53
100
AcDbEntity
 67
     1
  8
1
  6
CONTINUOUS
 62
    18
100
AcDbLine
 10
6.88069
 20
4.918205
 30
0.0
 11
6.880713
 21
4.918485
 31
0.0
  0
LINE
  5
2E3
330
53
100
AcDbEntity
 67
     1
  8
1
  6
CONTINUOUS
 62
    18
100
AcDbLine
 10
7.109976
 20
4.87806
 30
0.0
 11
6.880713
 21
4.918485
 31
0.0
  0
LINE
  5
2E4
330
53
100
AcDbEntity
 67
     1
  8
1
  6
CONTINUOUS
 62
    18
100
AcDbLine
 10
7.752791
 20
4.430713
 30
0.0
 11
7.713828
 21
4.226181
 31
0.0
  0
LINE
  5
2E5
330
53
100
AcDbEntity
 67
     1
  8
1
  6
CONTINUOUS
 62
    18
100
AcDbLine
 10
7.57984
 20
4.275831
 30
0.0
 11
7.624836
 21
4.275214
 31
0.0
  0
LINE
  5
2E6
330
53
100
AcDbEntity
 67
     1
  8
1
  6
CONTINUOUS
 62
    18
100
AcDbLine
 10
7.57984
 20
4.275831
 30
0.0
 11
7.576376
 21
4.275879
 31
0.0
  0
LINE
  5
2E7
330
53
100
AcDbEntity
 67
     1
  8
1
  6
CONTINUOUS
 62
    18
100
AcDbLine
 10
7.576376
 20
4.275879
 30
0.0
 11
7.567584
 21
4.275999
 31
0.0
  0
LINE
  5
2E8
330
53
100
AcDbEntity
 67
     1
  8
1
  6
CONTINUOUS
 62
    18
100
AcDbLine
 10
7.500457
 20
4.762473
 30
0.0
 11
7.540943
 21
4.761917
 31
0.0
  0
LINE
  5
2E9
330
53
100
AcDbEntity
 67
     1
  8
1
  6
CONTINUOUS
 62
    18
100
AcDbLine
 10
7.717132
 20
4.243529
 30
0.0
 11
7.721749
 21
4.243385
 31
0.0
  0
LINE
  5
2EA
330
53
100
AcDbEntity
 67
     1
  8
1
  6
CONTINUOUS
 62
    18
100
AcDbLine
 10
7.623726
 20
4.194287
 30
0.0
 11
7.62379
 21
4.198973
 31
0.0
  0
LINE
  5
2EB
330
53
100
AcDbEntity
 67
     1
  8
1
  6
CONTINUOUS
 62
    18
100
AcDbLine
 10
7.62379
 20
4.198973
 30
0.0
 11
7.623945
 21
4.210285
 31
0.0
  0
LINE
  5
2EC
330
53
100
AcDbEntity
 67
     1
  8
1
  6
CONTINUOUS
 62
    18
100
AcDbLine
 10
7.624836
 20
4.275214
 30
0.0
 11
7.624375
 21
4.241595
 31
0.0
  0
LINE
  5
2ED
330
53
100
AcDbEntity
 67
     1
  8
1
  6
CONTINUOUS
 62
    18
100
AcDbLine
 10
7.68025
 20
4.193512
 30
0.0
 11
7.623726
 21
4.194287
 31
0.0
  0
LINE
  5
2EE
330
53
100
AcDbEntity
 67
     1
  8
1
  6
CONTINUOUS
 62
    18
100
AcDbLine
 10
7.721412
 20
4.218761
 30
0.0
 11
7.721749
 21
4.243385
 31
0.0
  0
LINE
  5
2EF
330
53
100
AcDbEntity
 67
     1
  8
1
  6
CONTINUOUS
 62
    18
100
AcDbLine
 10
7.540385
 20
4.761925
 30
0.0
 11
7.5717
 21
4.761541
 31
0.0
  0
LINE
  5
2F0
330
53
100
AcDbEntity
 67
     1
  8
1
  6
CONTINUOUS
 62
    18
100
AcDbLine
 10
7.5717
 20
4.761541
 30
0.0
 11
7.579114
 21
4.76145
 31
0.0
  0
LINE
  5
2F1
330
53
100
AcDbEntity
 67
     1
  8
1
  6
CONTINUOUS
 62
    18
100
AcDbLine
 10
7.579114
 20
4.76145
 30
0.0
 11
7.584522
 21
4.761383
 31
0.0
  0
LINE
  5
2F2
330
53
100
AcDbEntity
 67
     1
  8
1
  6
CONTINUOUS
 62
    18
100
AcDbLine
 10
7.584522
 20
4.761383
 30
0.0
 11
7.586498
 21
4.761359
 31
0.0
  0
LINE
  5
2F3
330
53
100
AcDbEntity
 67
     1
  8
1
  6
CONTINUOUS
 62
    18
100
AcDbLine
 10
7.586498
 20
4.761359
 30
0.0
 11
7.716917
 21
4.759761
 31
0.0
  0
LINE
  5
2F4
330
53
100
AcDbEntity
 67
     1
  8
1
  6
CONTINUOUS
 62
    18
100
AcDbLine
 10
7.721412
 20
4.218761
 30
0.0
 11
7.68025
 21
4.193512
 31
0.0
  0
LINE
  5
2F5
330
53
100
AcDbEntity
 67
     1
  8
1
  6
CONTINUOUS
 62
    18
100
AcDbLine
 10
7.565136
 20
4.278448
 30
0.0
 11
7.57143
 21
4.737384
 31
0.0
  0
LINE
  5
2F6
330
53
100
AcDbEntity
 67
     1
  8
1
  6
CONTINUOUS
 62
    18
100
AcDbLine
 10
7.57143
 20
4.737384
 30
0.0
 11
7.571369
 21
4.737385
 31
0.0
  0
LINE
  5
2F7
330
53
100
AcDbEntity
 67
     1
  8
1
  6
CONTINUOUS
 62
    18
100
AcDbLine
 10
7.571369
 20
4.737385
 30
0.0
 11
7.540071
 21
4.737768
 31
0.0
  0
LINE
  5
2F8
330
53
100
AcDbEntity
 67
     1
  8
1
  6
CONTINUOUS
 62
    18
100
AcDbLine
 10
7.540071
 20
4.737768
 30
0.0
 11
7.500455
 21
4.738312
 31
0.0
  0
LINE
  5
2F9
330
53
100
AcDbEntity
 67
     1
  8
1
  6
CONTINUOUS
 62
    18
100
AcDbLine
 10
7.540385
 20
4.761925
 30
0.0
 11
7.540071
 21
4.737768
 31
0.0
  0
LINE
  5
2FA
330
53
100
AcDbEntity
 67
     1
  8
1
  6
CONTINUOUS
 62
    18
100
AcDbLine
 10
7.755202
 20
4.606473
 30
0.0
 11
7.752791
 21
4.430713
 31
0.0
  0
LINE
  5
2FB
330
53
100
AcDbEntity
 67
     1
  8
1
  6
CONTINUOUS
 62
    18
100
AcDbLine
 10
7.623945
 20
4.210285
 30
0.0
 11
7.674401
 21
4.209593
 31
0.0
  0
LINE
  5
2FC
330
53
100
AcDbEntity
 67
     1
  8
1
  6
CONTINUOUS
 62
    18
100
AcDbLine
 10
7.674401
 20
4.209593
 30
0.0
 11
7.699612
 21
4.234122
 31
0.0
  0
LINE
  5
2FD
330
53
100
AcDbEntity
 67
     1
  8
1
  6
CONTINUOUS
 62
    18
100
AcDbLine
 10
7.699612
 20
4.234122
 30
0.0
 11
7.73737
 21
4.432325
 31
0.0
  0
LINE
  5
2FE
330
53
100
AcDbEntity
 67
     1
  8
1
  6
CONTINUOUS
 62
    18
100
AcDbLine
 10
7.73737
 20
4.432325
 30
0.0
 11
7.739742
 21
4.605285
 31
0.0
  0
LINE
  5
2FF
330
53
100
AcDbEntity
 67
     1
  8
1
  6
CONTINUOUS
 62
    18
100
AcDbLine
 10
7.739742
 20
4.605285
 30
0.0
 11
7.71728
 21
4.743755
 31
0.0
  0
LINE
  5
300
330
53
100
AcDbEntity
 67
     1
  8
1
  6
CONTINUOUS
 62
    18
100
AcDbLine
 10
7.71728
 20
4.743755
 30
0.0
 11
7.586279
 21
4.74536
 31
0.0
  0
LINE
  5
301
330
53
100
AcDbEntity
 67
     1
  8
1
  6
CONTINUOUS
 62
    18
100
AcDbLine
 10
7.586279
 20
4.74536
 30
0.0
 11
7.57984
 21
4.275831
 31
0.0
  0
LINE
  5
302
330
53
100
AcDbEntity
 67
     1
  8
1
  6
CONTINUOUS
 62
    18
100
AcDbLine
 10
7.586279
 20
4.74536
 30
0.0
 11
7.586434
 21
4.756673
 31
0.0
  0
LINE
  5
303
330
53
100
AcDbEntity
 67
     1
  8
1
  6
CONTINUOUS
 62
    18
100
AcDbLine
 10
7.586434
 20
4.756673
 30
0.0
 11
7.586498
 21
4.761359
 31
0.0
  0
LINE
  5
304
330
53
100
AcDbEntity
 67
     1
  8
1
  6
CONTINUOUS
 62
    18
100
AcDbLine
 10
7.732515
 20
4.746324
 30
0.0
 11
7.755202
 21
4.606473
 31
0.0
  0
LINE
  5
305
330
53
100
AcDbEntity
 67
     1
  8
1
  6
CONTINUOUS
 62
    18
100
AcDbLine
 10
7.713827
 20
4.22618
 30
0.0
 11
7.680255
 21
4.193516
 31
0.0
  0
LINE
  5
306
330
53
100
AcDbEntity
 67
     1
  8
1
  6
CONTINUOUS
 62
    18
100
AcDbLine
 10
7.571369
 20
4.737385
 30
0.0
 11
7.5717
 21
4.761541
 31
0.0
  0
LINE
  5
307
330
53
100
AcDbEntity
 67
     1
  8
1
  6
CONTINUOUS
 62
    18
100
AcDbLine
 10
7.57143
 20
4.737384
 30
0.0
 11
7.581891
 21
4.739098
 31
0.0
  0
LINE
  5
308
330
53
100
AcDbEntity
 67
     1
  8
1
  6
CONTINUOUS
 62
    18
100
AcDbLine
 10
7.581891
 20
4.739098
 30
0.0
 11
7.586252
 21
4.743395
 31
0.0
  0
LINE
  5
309
330
53
100
AcDbEntity
 67
     1
  8
1
  6
CONTINUOUS
 62
    18
100
AcDbLine
 10
7.716917
 20
4.759761
 30
0.0
 11
7.717255
 21
4.75507
 31
0.0
  0
LINE
  5
30A
330
53
100
AcDbEntity
 67
     1
  8
1
  6
CONTINUOUS
 62
    18
100
AcDbLine
 10
7.717255
 20
4.75507
 30
0.0
 11
7.71728
 21
4.743755
 31
0.0
  0
LINE
  5
30B
330
53
100
AcDbEntity
 67
     1
  8
1
  6
CONTINUOUS
 62
    18
100
AcDbLine
 10
7.732515
 20
4.746324
 30
0.0
 11
7.72809
 21
4.745538
 31
0.0
  0
LINE
  5
30C
330
53
100
AcDbEntity
 67
     1
  8
1
  6
CONTINUOUS
 62
    18
100
AcDbLine
 10
7.72809
 20
4.745538
 30
0.0
 11
7.71728
 21
4.743755
 31
0.0
  0
LINE
  5
30D
330
53
100
AcDbEntity
 67
     1
  8
1
  6
CONTINUOUS
 62
    18
100
AcDbLine
 10
7.755202
 20
4.606473
 30
0.0
 11
7.750705
 21
4.606107
 31
0.0
  0
LINE
  5
30E
330
53
100
AcDbEntity
 67
     1
  8
1
  6
CONTINUOUS
 62
    18
100
AcDbLine
 10
7.750705
 20
4.606107
 30
0.0
 11
7.739742
 21
4.605285
 31
0.0
  0
LINE
  5
30F
330
53
100
AcDbEntity
 67
     1
  8
1
  6
CONTINUOUS
 62
    18
100
AcDbLine
 10
7.752791
 20
4.430713
 30
0.0
 11
7.748307
 21
4.431202
 31
0.0
  0
LINE
  5
310
330
53
100
AcDbEntity
 67
     1
  8
1
  6
CONTINUOUS
 62
    18
100
AcDbLine
 10
7.748307
 20
4.431202
 30
0.0
 11
7.73737
 21
4.432325
 31
0.0
  0
LINE
  5
311
330
53
100
AcDbEntity
 67
     1
  8
1
  6
CONTINUOUS
 62
    18
100
AcDbLine
 10
7.674401
 20
4.209593
 30
0.0
 11
7.678712
 21
4.19836
 31
0.0
  0
LINE
  5
312
330
53
100
AcDbEntity
 67
     1
  8
1
  6
CONTINUOUS
 62
    18
100
AcDbLine
 10
7.678712
 20
4.19836
 30
0.0
 11
7.680255
 21
4.193516
 31
0.0
  0
LINE
  5
313
330
53
100
AcDbEntity
 67
     1
  8
1
  6
CONTINUOUS
 62
    18
100
AcDbLine
 10
7.713828
 20
4.226181
 30
0.0
 11
7.709714
 21
4.228598
 31
0.0
  0
LINE
  5
314
330
53
100
AcDbEntity
 67
     1
  8
1
  6
CONTINUOUS
 62
    18
100
AcDbLine
 10
7.709714
 20
4.228598
 30
0.0
 11
7.699612
 21
4.234122
 31
0.0
  0
LINE
  5
315
330
53
100
AcDbEntity
 67
     1
  8
1
  6
CONTINUOUS
 62
    18
100
AcDbLine
 10
7.737799
 20
4.79206
 30
0.0
 11
7.737473
 21
4.773363
 31
0.0
  0
LINE
  5
316
330
53
100
AcDbEntity
 67
     1
  8
1
  6
CONTINUOUS
 62
    18
100
AcDbLine
 10
7.737473
 20
4.773363
 30
0.0
 11
7.737409
 21
4.769678
 31
0.0
  0
LINE
  5
317
330
53
100
AcDbEntity
 67
     1
  8
1
  6
CONTINUOUS
 62
    18
100
AcDbLine
 10
7.737409
 20
4.769678
 30
0.0
 11
7.737247
 21
4.760436
 31
0.0
  0
LINE
  5
318
330
53
100
AcDbEntity
 67
     1
  8
1
  6
CONTINUOUS
 62
    18
100
AcDbLine
 10
7.737191
 20
4.757234
 30
0.0
 11
7.737229
 21
4.759395
 31
0.0
  0
LINE
  5
319
330
53
100
AcDbEntity
 67
     1
  8
1
  6
CONTINUOUS
 62
    18
100
AcDbLine
 10
7.737229
 20
4.759395
 30
0.0
 11
7.737247
 21
4.760436
 31
0.0
  0
LINE
  5
31A
330
53
100
AcDbEntity
 67
     1
  8
1
  6
CONTINUOUS
 62
    18
100
AcDbLine
 10
7.736827
 20
4.73635
 30
0.0
 11
7.737191
 21
4.757234
 31
0.0
  0
LINE
  5
31B
330
53
100
AcDbEntity
 67
     1
  8
1
  6
CONTINUOUS
 62
    18
100
AcDbLine
 10
7.736827
 20
4.73635
 30
0.0
 11
7.736781
 21
4.733712
 31
0.0
  0
LINE
  5
31C
330
53
100
AcDbEntity
 67
     1
  8
1
  6
CONTINUOUS
 62
    18
100
AcDbLine
 10
7.736781
 20
4.733712
 30
0.0
 11
7.736759
 21
4.73244
 31
0.0
  0
LINE
  5
31D
330
53
100
AcDbEntity
 67
     1
  8
1
  6
CONTINUOUS
 62
    18
100
AcDbLine
 10
7.736703
 20
4.729238
 30
0.0
 11
7.73674
 21
4.731399
 31
0.0
  0
LINE
  5
31E
330
53
100
AcDbEntity
 67
     1
  8
1
  6
CONTINUOUS
 62
    18
100
AcDbLine
 10
7.73674
 20
4.731399
 30
0.0
 11
7.736759
 21
4.73244
 31
0.0
  0
LINE
  5
31F
330
53
100
AcDbEntity
 67
     1
  8
1
  6
CONTINUOUS
 62
    18
100
AcDbLine
 10
7.736565
 20
4.721356
 30
0.0
 11
7.736703
 21
4.729238
 31
0.0
  0
LINE
  5
320
330
53
100
AcDbEntity
 67
     1
  8
1
  6
CONTINUOUS
 62
    18
100
AcDbLine
 10
7.58974
 20
4.761317
 30
0.0
 11
7.590408
 21
4.799579
 31
0.0
  0
LINE
  5
321
330
53
100
AcDbEntity
 67
     1
  8
1
  6
CONTINUOUS
 62
    18
100
AcDbLine
 10
7.595887
 20
4.805011
 30
0.0
 11
7.596193
 21
4.805014
 31
0.0
  0
LINE
  5
322
330
53
100
AcDbEntity
 67
     1
  8
1
  6
CONTINUOUS
 62
    18
100
AcDbLine
 10
7.596193
 20
4.805014
 30
0.0
 11
7.597092
 21
4.805021
 31
0.0
  0
LINE
  5
323
330
53
100
AcDbEntity
 67
     1
  8
1
  6
CONTINUOUS
 62
    18
100
AcDbLine
 10
7.597092
 20
4.805021
 30
0.0
 11
7.597759
 21
4.805027
 31
0.0
  0
LINE
  5
324
330
53
100
AcDbEntity
 67
     1
  8
1
  6
CONTINUOUS
 62
    18
100
AcDbLine
 10
7.597759
 20
4.805027
 30
0.0
 11
7.598506
 21
4.805034
 31
0.0
  0
LINE
  5
325
330
53
100
AcDbEntity
 67
     1
  8
1
  6
CONTINUOUS
 62
    18
100
AcDbLine
 10
7.598506
 20
4.805034
 30
0.0
 11
7.599334
 21
4.805041
 31
0.0
  0
LINE
  5
326
330
53
100
AcDbEntity
 67
     1
  8
1
  6
CONTINUOUS
 62
    18
100
AcDbLine
 10
7.599334
 20
4.805041
 30
0.0
 11
7.600243
 21
4.805049
 31
0.0
  0
LINE
  5
327
330
53
100
AcDbEntity
 67
     1
  8
1
  6
CONTINUOUS
 62
    18
100
AcDbLine
 10
7.600243
 20
4.805049
 30
0.0
 11
7.629804
 21
4.805307
 31
0.0
  0
LINE
  5
328
330
53
100
AcDbEntity
 67
     1
  8
1
  6
CONTINUOUS
 62
    18
100
AcDbLine
 10
7.629804
 20
4.805307
 30
0.0
 11
7.653021
 21
4.805509
 31
0.0
  0
LINE
  5
329
330
53
100
AcDbEntity
 67
     1
  8
1
  6
CONTINUOUS
 62
    18
100
AcDbLine
 10
7.677935
 20
4.804422
 30
0.0
 11
7.697233
 21
4.803579
 31
0.0
  0
LINE
  5
32A
330
53
100
AcDbEntity
 67
     1
  8
1
  6
CONTINUOUS
 62
    18
100
AcDbLine
 10
7.697233
 20
4.803579
 30
0.0
 11
7.728237
 21
4.802225
 31
0.0
  0
LINE
  5
32B
330
53
100
AcDbEntity
 67
     1
  8
1
  6
CONTINUOUS
 62
    18
100
AcDbLine
 10
7.860927
 20
4.755774
 30
0.0
 11
7.861891
 21
4.754762
 31
0.0
  0
LINE
  5
32C
330
53
100
AcDbEntity
 67
     1
  8
1
  6
CONTINUOUS
 62
    18
100
AcDbLine
 10
7.680235
 20
4.760224
 30
0.0
 11
7.680254
 21
4.761285
 31
0.0
  0
LINE
  5
32D
330
53
100
AcDbEntity
 67
     1
  8
1
  6
CONTINUOUS
 62
    18
100
AcDbLine
 10
7.680254
 20
4.761285
 30
0.0
 11
7.68026
 21
4.76168
 31
0.0
  0
LINE
  5
32E
330
53
100
AcDbEntity
 67
     1
  8
1
  6
CONTINUOUS
 62
    18
100
AcDbLine
 10
7.652949
 20
4.80134
 30
0.0
 11
7.652237
 21
4.760553
 31
0.0
  0
LINE
  5
32F
330
53
100
AcDbEntity
 67
     1
  8
1
  6
CONTINUOUS
 62
    18
100
AcDbLine
 10
7.652949
 20
4.80134
 30
0.0
 11
7.623384
 21
4.800293
 31
0.0
  0
LINE
  5
330
330
53
100
AcDbEntity
 67
     1
  8
1
  6
CONTINUOUS
 62
    18
100
AcDbLine
 10
7.623384
 20
4.800293
 30
0.0
 11
7.600152
 21
4.799831
 31
0.0
  0
LINE
  5
331
330
53
100
AcDbEntity
 67
     1
  8
1
  6
CONTINUOUS
 62
    18
100
AcDbLine
 10
7.600152
 20
4.799831
 30
0.0
 11
7.599478
 21
4.761198
 31
0.0
  0
LINE
  5
332
330
53
100
AcDbEntity
 67
     1
  8
1
  6
CONTINUOUS
 62
    18
100
AcDbLine
 10
7.67935
 20
4.801135
 30
0.0
 11
7.679348
 21
4.801009
 31
0.0
  0
LINE
  5
333
330
53
100
AcDbEntity
 67
     1
  8
1
  6
CONTINUOUS
 62
    18
100
AcDbLine
 10
7.679348
 20
4.801009
 30
0.0
 11
7.679346
 21
4.800921
 31
0.0
  0
LINE
  5
334
330
53
100
AcDbEntity
 67
     1
  8
1
  6
CONTINUOUS
 62
    18
100
AcDbLine
 10
7.679346
 20
4.800921
 30
0.0
 11
7.678636
 21
4.76023
 31
0.0
  0
LINE
  5
335
330
53
100
AcDbEntity
 67
     1
  8
1
  6
CONTINUOUS
 62
    18
100
AcDbLine
 10
7.727732
 20
4.773277
 30
0.0
 11
7.728063
 21
4.79223
 31
0.0
  0
LINE
  5
336
330
53
100
AcDbEntity
 67
     1
  8
1
  6
CONTINUOUS
 62
    18
100
AcDbLine
 10
7.728063
 20
4.79223
 30
0.0
 11
7.688687
 21
4.797777
 31
0.0
  0
LINE
  5
337
330
53
100
AcDbEntity
 67
     1
  8
1
  6
CONTINUOUS
 62
    18
100
AcDbLine
 10
7.688687
 20
4.797777
 30
0.0
 11
7.678878
 21
4.800172
 31
0.0
  0
LINE
  5
338
330
53
100
AcDbEntity
 67
     1
  8
1
  6
CONTINUOUS
 62
    18
100
AcDbLine
 10
7.680456
 20
4.772865
 30
0.0
 11
7.678858
 21
4.772935
 31
0.0
  0
LINE
  5
339
330
53
100
AcDbEntity
 67
     1
  8
1
  6
CONTINUOUS
 62
    18
100
AcDbLine
 10
7.680456
 20
4.772865
 30
0.0
 11
7.727732
 21
4.773277
 31
0.0
  0
LINE
  5
33A
330
53
100
AcDbEntity
 67
     1
  8
1
  6
CONTINUOUS
 62
    18
100
AcDbLine
 10
7.653021
 20
4.805509
 30
0.0
 11
7.662348
 21
4.805102
 31
0.0
  0
LINE
  5
33B
330
53
100
AcDbEntity
 67
     1
  8
1
  6
CONTINUOUS
 62
    18
100
AcDbLine
 10
7.662348
 20
4.805102
 30
0.0
 11
7.669674
 21
4.804782
 31
0.0
  0
LINE
  5
33C
330
53
100
AcDbEntity
 67
     1
  8
1
  6
CONTINUOUS
 62
    18
100
AcDbLine
 10
7.669674
 20
4.804782
 30
0.0
 11
7.671999
 21
4.804681
 31
0.0
  0
LINE
  5
33D
330
53
100
AcDbEntity
 67
     1
  8
1
  6
CONTINUOUS
 62
    18
100
AcDbLine
 10
7.671999
 20
4.804681
 30
0.0
 11
7.674014
 21
4.804593
 31
0.0
  0
LINE
  5
33E
330
53
100
AcDbEntity
 67
     1
  8
1
  6
CONTINUOUS
 62
    18
100
AcDbLine
 10
7.674014
 20
4.804593
 30
0.0
 11
7.674866
 21
4.804556
 31
0.0
  0
LINE
  5
33F
330
53
100
AcDbEntity
 67
     1
  8
1
  6
CONTINUOUS
 62
    18
100
AcDbLine
 10
7.674866
 20
4.804556
 30
0.0
 11
7.675477
 21
4.804529
 31
0.0
  0
LINE
  5
340
330
53
100
AcDbEntity
 67
     1
  8
1
  6
CONTINUOUS
 62
    18
100
AcDbLine
 10
7.675477
 20
4.804529
 30
0.0
 11
7.675846
 21
4.804513
 31
0.0
  0
LINE
  5
341
330
53
100
AcDbEntity
 67
     1
  8
1
  6
CONTINUOUS
 62
    18
100
AcDbLine
 10
7.675846
 20
4.804513
 30
0.0
 11
7.675973
 21
4.804507
 31
0.0
  0
LINE
  5
342
330
53
100
AcDbEntity
 67
     1
  8
1
  6
CONTINUOUS
 62
    18
100
AcDbLine
 10
7.668898
 20
4.760348
 30
0.0
 11
7.669607
 21
4.800949
 31
0.0
  0
LINE
  5
343
330
53
100
AcDbEntity
 67
     1
  8
1
  6
CONTINUOUS
 62
    18
100
AcDbLine
 10
7.669607
 20
4.800949
 30
0.0
 11
7.660281
 21
4.80123
 31
0.0
  0
LINE
  5
344
330
53
100
AcDbEntity
 67
     1
  8
1
  6
CONTINUOUS
 62
    18
100
AcDbLine
 10
7.660281
 20
4.80123
 30
0.0
 11
7.652949
 21
4.801347
 31
0.0
  0
LINE
  5
345
330
53
100
AcDbEntity
 67
     1
  8
1
  6
CONTINUOUS
 62
    18
100
AcDbLine
 10
7.737799
 20
4.79206
 30
0.0
 11
7.734963
 21
4.79211
 31
0.0
  0
LINE
  5
346
330
53
100
AcDbEntity
 67
     1
  8
1
  6
CONTINUOUS
 62
    18
100
AcDbLine
 10
7.734963
 20
4.79211
 30
0.0
 11
7.728063
 21
4.79223
 31
0.0
  0
LINE
  5
347
330
53
100
AcDbEntity
 67
     1
  8
1
  6
CONTINUOUS
 62
    18
100
AcDbLine
 10
7.737473
 20
4.773363
 30
0.0
 11
7.734635
 21
4.773338
 31
0.0
  0
LINE
  5
348
330
53
100
AcDbEntity
 67
     1
  8
1
  6
CONTINUOUS
 62
    18
100
AcDbLine
 10
7.734635
 20
4.773338
 30
0.0
 11
7.727732
 21
4.773277
 31
0.0
  0
LINE
  5
349
330
53
100
AcDbEntity
 67
     1
  8
1
  6
CONTINUOUS
 62
    18
100
AcDbLine
 10
7.600152
 20
4.799831
 30
0.0
 11
7.596405
 21
4.799791
 31
0.0
  0
LINE
  5
34A
330
53
100
AcDbEntity
 67
     1
  8
1
  6
CONTINUOUS
 62
    18
100
AcDbLine
 10
7.596405
 20
4.799791
 30
0.0
 11
7.593249
 21
4.799741
 31
0.0
  0
LINE
  5
34B
330
53
100
AcDbEntity
 67
     1
  8
1
  6
CONTINUOUS
 62
    18
100
AcDbLine
 10
7.593249
 20
4.799741
 30
0.0
 11
7.591146
 21
4.799672
 31
0.0
  0
LINE
  5
34C
330
53
100
AcDbEntity
 67
     1
  8
1
  6
CONTINUOUS
 62
    18
100
AcDbLine
 10
7.591146
 20
4.799672
 30
0.0
 11
7.590408
 21
4.799579
 31
0.0
  0
LINE
  5
34D
330
53
100
AcDbEntity
 67
     1
  8
1
  6
CONTINUOUS
 62
    18
100
AcDbLine
 10
7.67897
 20
4.80091
 30
0.0
 11
7.67861
 21
4.800898
 31
0.0
  0
LINE
  5
34E
330
53
100
AcDbEntity
 67
     1
  8
1
  6
CONTINUOUS
 62
    18
100
AcDbLine
 10
7.67861
 20
4.800898
 30
0.0
 11
7.676509
 21
4.800899
 31
0.0
  0
LINE
  5
34F
330
53
100
AcDbEntity
 67
     1
  8
1
  6
CONTINUOUS
 62
    18
100
AcDbLine
 10
7.676509
 20
4.800899
 30
0.0
 11
7.673353
 21
4.800919
 31
0.0
  0
LINE
  5
350
330
53
100
AcDbEntity
 67
     1
  8
1
  6
CONTINUOUS
 62
    18
100
AcDbLine
 10
7.673353
 20
4.800919
 30
0.0
 11
7.669607
 21
4.800949
 31
0.0
  0
LINE
  5
351
330
53
100
AcDbEntity
 67
     1
  8
1
  6
CONTINUOUS
 62
    18
100
AcDbLine
 10
7.737191
 20
4.757234
 30
0.0
 11
7.725049
 21
4.757423
 31
0.0
  0
LINE
  5
352
330
53
100
AcDbEntity
 67
     1
  8
1
  6
CONTINUOUS
 62
    18
100
AcDbLine
 10
7.737247
 20
4.760436
 30
0.0
 11
7.68026
 21
4.76168
 31
0.0
  0
LINE
  5
353
330
53
100
AcDbEntity
 67
     1
  8
1
  6
CONTINUOUS
 62
    18
100
AcDbLine
 10
7.736703
 20
4.729238
 30
0.0
 11
7.735283
 21
4.72926
 31
0.0
  0
LINE
  5
354
330
53
100
AcDbEntity
 67
     1
  8
1
  6
CONTINUOUS
 62
    18
100
AcDbLine
 10
7.736759
 20
4.73244
 30
0.0
 11
7.73476
 21
4.732484
 31
0.0
  0
LINE
  5
355
330
53
100
AcDbEntity
 67
     1
  8
1
  6
CONTINUOUS
 62
    18
100
AcDbLine
 10
7.736827
 20
4.73635
 30
0.0
 11
7.734125
 21
4.736392
 31
0.0
  0
LINE
  5
356
330
53
100
AcDbEntity
 67
     1
  8
1
  6
CONTINUOUS
 62
    18
100
AcDbLine
 10
7.678661
 20
4.761666
 30
0.0
 11
7.68026
 21
4.76168
 31
0.0
  0
LINE
  5
357
330
53
100
AcDbEntity
 67
     1
  8
1
  6
CONTINUOUS
 62
    18
100
AcDbLine
 10
7.858257
 20
4.67148
 30
0.0
 11
7.744657
 21
4.67148
 31
0.0
  0
LINE
  5
358
330
53
100
AcDbEntity
 67
     1
  8
1
  6
CONTINUOUS
 62
    18
100
AcDbLine
 10
7.737247
 20
4.760436
 30
0.0
 11
7.859735
 21
4.756159
 31
0.0
  0
LINE
  5
359
330
53
100
AcDbEntity
 67
     1
  8
1
  6
CONTINUOUS
 62
    18
100
AcDbLine
 10
7.862148
 20
4.753617
 30
0.0
 11
7.862054
 21
4.748236
 31
0.0
  0
LINE
  5
35A
330
53
100
AcDbEntity
 67
     1
  8
1
  6
CONTINUOUS
 62
    18
100
AcDbLine
 10
7.862054
 20
4.748236
 30
0.0
 11
7.862007
 21
4.745561
 31
0.0
  0
LINE
  5
35B
330
53
100
AcDbEntity
 67
     1
  8
1
  6
CONTINUOUS
 62
    18
100
AcDbLine
 10
7.862007
 20
4.745561
 30
0.0
 11
7.862005
 21
4.745491
 31
0.0
  0
LINE
  5
35C
330
53
100
AcDbEntity
 67
     1
  8
1
  6
CONTINUOUS
 62
    18
100
AcDbLine
 10
7.862005
 20
4.745491
 30
0.0
 11
7.861889
 21
4.738802
 31
0.0
  0
LINE
  5
35D
330
53
100
AcDbEntity
 67
     1
  8
1
  6
CONTINUOUS
 62
    18
100
AcDbLine
 10
7.861889
 20
4.738802
 30
0.0
 11
7.861565
 21
4.72024
 31
0.0
  0
LINE
  5
35E
330
53
100
AcDbEntity
 67
     1
  8
1
  6
CONTINUOUS
 62
    18
100
AcDbLine
 10
7.861565
 20
4.72024
 30
0.0
 11
7.861518
 21
4.717565
 31
0.0
  0
LINE
  5
35F
330
53
100
AcDbEntity
 67
     1
  8
1
  6
CONTINUOUS
 62
    18
100
AcDbLine
 10
7.861518
 20
4.717565
 30
0.0
 11
7.861517
 21
4.717496
 31
0.0
  0
LINE
  5
360
330
53
100
AcDbEntity
 67
     1
  8
1
  6
CONTINUOUS
 62
    18
100
AcDbLine
 10
7.861517
 20
4.717496
 30
0.0
 11
7.8614
 21
4.710807
 31
0.0
  0
LINE
  5
361
330
53
100
AcDbEntity
 67
     1
  8
1
  6
CONTINUOUS
 62
    18
100
AcDbLine
 10
7.8614
 20
4.710807
 30
0.0
 11
7.861076
 21
4.692245
 31
0.0
  0
LINE
  5
362
330
53
100
AcDbEntity
 67
     1
  8
1
  6
CONTINUOUS
 62
    18
100
AcDbLine
 10
7.861076
 20
4.692245
 30
0.0
 11
7.861029
 21
4.689569
 31
0.0
  0
LINE
  5
363
330
53
100
AcDbEntity
 67
     1
  8
1
  6
CONTINUOUS
 62
    18
100
AcDbLine
 10
7.861029
 20
4.689569
 30
0.0
 11
7.861028
 21
4.689478
 31
0.0
  0
LINE
  5
364
330
53
100
AcDbEntity
 67
     1
  8
1
  6
CONTINUOUS
 62
    18
100
AcDbLine
 10
7.861028
 20
4.689478
 30
0.0
 11
7.860941
 21
4.684498
 31
0.0
  0
LINE
  5
365
330
53
100
AcDbEntity
 67
     1
  8
1
  6
CONTINUOUS
 62
    18
100
AcDbLine
 10
7.860941
 20
4.684498
 30
0.0
 11
7.860757
 21
4.673936
 31
0.0
  0
LINE
  5
366
330
53
100
AcDbEntity
 67
     1
  8
1
  6
CONTINUOUS
 62
    18
100
AcDbLine
 10
7.680456
 20
4.772865
 30
0.0
 11
7.680401
 21
4.769744
 31
0.0
  0
LINE
  5
367
330
53
100
AcDbEntity
 67
     1
  8
1
  6
CONTINUOUS
 62
    18
100
AcDbLine
 10
7.680401
 20
4.769744
 30
0.0
 11
7.68026
 21
4.76168
 31
0.0
  0
LINE
  5
368
330
53
100
AcDbEntity
 67
     1
  8
1
  6
CONTINUOUS
 62
    18
100
AcDbLine
 10
7.862148
 20
4.753617
 30
0.0
 11
7.86189
 21
4.754767
 31
0.0
  0
LINE
  5
369
330
53
100
AcDbEntity
 67
     1
  8
1
  6
CONTINUOUS
 62
    18
100
AcDbLine
 10
7.86189
 20
4.754767
 30
0.0
 11
7.737224
 21
4.759121
 31
0.0
  0
LINE
  5
36A
330
53
100
AcDbEntity
 67
     1
  8
1
  6
CONTINUOUS
 62
    18
100
AcDbLine
 10
7.737039
 20
4.748492
 30
0.0
 11
7.862054
 21
4.748236
 31
0.0
  0
LINE
  5
36B
330
53
100
AcDbEntity
 67
     1
  8
1
  6
CONTINUOUS
 62
    18
100
AcDbLine
 10
7.862007
 20
4.745561
 30
0.0
 11
7.736992
 21
4.745817
 31
0.0
  0
LINE
  5
36C
330
53
100
AcDbEntity
 67
     1
  8
1
  6
CONTINUOUS
 62
    18
100
AcDbLine
 10
7.736991
 20
4.745747
 30
0.0
 11
7.862005
 21
4.745491
 31
0.0
  0
LINE
  5
36D
330
53
100
AcDbEntity
 67
     1
  8
1
  6
CONTINUOUS
 62
    18
100
AcDbLine
 10
7.736706
 20
4.720496
 30
0.0
 11
7.861565
 21
4.72024
 31
0.0
  0
LINE
  5
36E
330
53
100
AcDbEntity
 67
     1
  8
1
  6
CONTINUOUS
 62
    18
100
AcDbLine
 10
7.861889
 20
4.738802
 30
0.0
 11
7.736874
 21
4.739058
 31
0.0
  0
LINE
  5
36F
330
53
100
AcDbEntity
 67
     1
  8
1
  6
CONTINUOUS
 62
    18
100
AcDbLine
 10
7.861518
 20
4.717565
 30
0.0
 11
7.73714
 21
4.71782
 31
0.0
  0
LINE
  5
370
330
53
100
AcDbEntity
 67
     1
  8
1
  6
CONTINUOUS
 62
    18
100
AcDbLine
 10
7.737151
 20
4.71775
 30
0.0
 11
7.861517
 21
4.717496
 31
0.0
  0
LINE
  5
371
330
53
100
AcDbEntity
 67
     1
  8
1
  6
CONTINUOUS
 62
    18
100
AcDbLine
 10
7.74125
 20
4.69249
 30
0.0
 11
7.861076
 21
4.692245
 31
0.0
  0
LINE
  5
372
330
53
100
AcDbEntity
 67
     1
  8
1
  6
CONTINUOUS
 62
    18
100
AcDbLine
 10
7.8614
 20
4.710807
 30
0.0
 11
7.738238
 21
4.711059
 31
0.0
  0
LINE
  5
373
330
53
100
AcDbEntity
 67
     1
  8
1
  6
CONTINUOUS
 62
    18
100
AcDbLine
 10
7.861029
 20
4.689569
 30
0.0
 11
7.741684
 21
4.689814
 31
0.0
  0
LINE
  5
374
330
53
100
AcDbEntity
 67
     1
  8
1
  6
CONTINUOUS
 62
    18
100
AcDbLine
 10
7.74171
 20
4.689652
 30
0.0
 11
7.861028
 21
4.689478
 31
0.0
  0
LINE
  5
375
330
53
100
AcDbEntity
 67
     1
  8
1
  6
CONTINUOUS
 62
    18
100
AcDbLine
 10
7.858257
 20
4.67148
 30
0.0
 11
7.860757
 21
4.673936
 31
0.0
  0
LINE
  5
376
330
53
100
AcDbEntity
 67
     1
  8
1
  6
CONTINUOUS
 62
    18
100
AcDbLine
 10
7.860941
 20
4.684498
 30
0.0
 11
7.742518
 21
4.684672
 31
0.0
  0
LINE
  5
377
330
53
100
AcDbEntity
 67
     1
  8
1
  6
CONTINUOUS
 62
    18
100
AcDbLine
 10
7.86189
 20
4.754767
 30
0.0
 11
7.861461
 21
4.755381
 31
0.0
  0
LINE
  5
378
330
53
100
AcDbEntity
 67
     1
  8
1
  6
CONTINUOUS
 62
    18
100
AcDbLine
 10
7.861461
 20
4.755381
 30
0.0
 11
7.860753
 21
4.755903
 31
0.0
  0
LINE
  5
379
330
53
100
AcDbEntity
 67
     1
  8
1
  6
CONTINUOUS
 62
    18
100
AcDbLine
 10
7.860753
 20
4.755903
 30
0.0
 11
7.859782
 21
4.756157
 31
0.0
  0
LINE
  5
37A
330
53
100
AcDbEntity
 67
     1
  8
1
  6
CONTINUOUS
 62
    18
100
AcDbLine
 10
7.859782
 20
4.756157
 30
0.0
 11
7.859735
 21
4.756159
 31
0.0
  0
LINE
  5
37B
330
53
100
AcDbEntity
 67
     1
  8
1
  6
CONTINUOUS
 62
    18
100
AcDbLine
 10
7.595887
 20
4.805011
 30
0.0
 11
7.593886
 21
4.804617
 31
0.0
  0
LINE
  5
37C
330
53
100
AcDbEntity
 67
     1
  8
1
  6
CONTINUOUS
 62
    18
100
AcDbLine
 10
7.600243
 20
4.805049
 30
0.0
 11
7.600196
 21
4.804682
 31
0.0
  0
LINE
  5
37D
330
53
100
AcDbEntity
 67
     1
  8
1
  6
CONTINUOUS
 62
    18
100
AcDbLine
 10
7.600196
 20
4.804682
 30
0.0
 11
7.600176
 21
4.804198
 31
0.0
  0
LINE
  5
37E
330
53
100
AcDbEntity
 67
     1
  8
1
  6
CONTINUOUS
 62
    18
100
AcDbLine
 10
7.600176
 20
4.804198
 30
0.0
 11
7.60016
 21
4.80352
 31
0.0
  0
LINE
  5
37F
330
53
100
AcDbEntity
 67
     1
  8
1
  6
CONTINUOUS
 62
    18
100
AcDbLine
 10
7.60016
 20
4.80352
 30
0.0
 11
7.60015
 21
4.802686
 31
0.0
  0
LINE
  5
380
330
53
100
AcDbEntity
 67
     1
  8
1
  6
CONTINUOUS
 62
    18
100
AcDbLine
 10
7.60015
 20
4.802686
 30
0.0
 11
7.600145
 21
4.801752
 31
0.0
  0
LINE
  5
381
330
53
100
AcDbEntity
 67
     1
  8
1
  6
CONTINUOUS
 62
    18
100
AcDbLine
 10
7.600145
 20
4.801752
 30
0.0
 11
7.600152
 21
4.799831
 31
0.0
  0
LINE
  5
382
330
53
100
AcDbEntity
 67
     1
  8
1
  6
CONTINUOUS
 62
    18
100
AcDbLine
 10
7.653022
 20
4.805509
 30
0.0
 11
7.653036
 21
4.805406
 31
0.0
  0
LINE
  5
383
330
53
100
AcDbEntity
 67
     1
  8
1
  6
CONTINUOUS
 62
    18
100
AcDbLine
 10
7.653036
 20
4.805406
 30
0.0
 11
7.653031
 21
4.804873
 31
0.0
  0
LINE
  5
384
330
53
100
AcDbEntity
 67
     1
  8
1
  6
CONTINUOUS
 62
    18
100
AcDbLine
 10
7.653031
 20
4.804873
 30
0.0
 11
7.653015
 21
4.803942
 31
0.0
  0
LINE
  5
385
330
53
100
AcDbEntity
 67
     1
  8
1
  6
CONTINUOUS
 62
    18
100
AcDbLine
 10
7.653015
 20
4.803942
 30
0.0
 11
7.652992
 21
4.802721
 31
0.0
  0
LINE
  5
386
330
53
100
AcDbEntity
 67
     1
  8
1
  6
CONTINUOUS
 62
    18
100
AcDbLine
 10
7.652992
 20
4.802721
 30
0.0
 11
7.652949
 21
4.801347
 31
0.0
  0
LINE
  5
387
330
53
100
AcDbEntity
 67
     1
  8
1
  6
CONTINUOUS
 62
    18
100
AcDbLine
 10
7.669674
 20
4.804782
 30
0.0
 11
7.669699
 21
4.804512
 31
0.0
  0
LINE
  5
388
330
53
100
AcDbEntity
 67
     1
  8
1
  6
CONTINUOUS
 62
    18
100
AcDbLine
 10
7.669699
 20
4.804512
 30
0.0
 11
7.669702
 21
4.804156
 31
0.0
  0
LINE
  5
389
330
53
100
AcDbEntity
 67
     1
  8
1
  6
CONTINUOUS
 62
    18
100
AcDbLine
 10
7.669702
 20
4.804156
 30
0.0
 11
7.669696
 21
4.803658
 31
0.0
  0
LINE
  5
38A
330
53
100
AcDbEntity
 67
     1
  8
1
  6
CONTINUOUS
 62
    18
100
AcDbLine
 10
7.669696
 20
4.803658
 30
0.0
 11
7.669682
 21
4.803045
 31
0.0
  0
LINE
  5
38B
330
53
100
AcDbEntity
 67
     1
  8
1
  6
CONTINUOUS
 62
    18
100
AcDbLine
 10
7.669682
 20
4.803045
 30
0.0
 11
7.669662
 21
4.802359
 31
0.0
  0
LINE
  5
38C
330
53
100
AcDbEntity
 67
     1
  8
1
  6
CONTINUOUS
 62
    18
100
AcDbLine
 10
7.669662
 20
4.802359
 30
0.0
 11
7.669607
 21
4.800949
 31
0.0
  0
LINE
  5
38D
330
53
100
AcDbEntity
 67
     1
  8
1
  6
CONTINUOUS
 62
    18
100
AcDbLine
 10
7.675973
 20
4.804507
 30
0.0
 11
7.677241
 21
4.804212
 31
0.0
  0
LINE
  5
38E
330
53
100
AcDbEntity
 67
     1
  8
1
  6
CONTINUOUS
 62
    18
100
AcDbLine
 10
7.677241
 20
4.804212
 30
0.0
 11
7.67785
 21
4.803868
 31
0.0
  0
LINE
  5
38F
330
53
100
AcDbEntity
 67
     1
  8
1
  6
CONTINUOUS
 62
    18
100
AcDbLine
 10
7.67785
 20
4.803868
 30
0.0
 11
7.678389
 21
4.8034
 31
0.0
  0
LINE
  5
390
330
53
100
AcDbEntity
 67
     1
  8
1
  6
CONTINUOUS
 62
    18
100
AcDbLine
 10
7.678389
 20
4.8034
 30
0.0
 11
7.678823
 21
4.802834
 31
0.0
  0
LINE
  5
391
330
53
100
AcDbEntity
 67
     1
  8
1
  6
CONTINUOUS
 62
    18
100
AcDbLine
 10
7.678823
 20
4.802834
 30
0.0
 11
7.679128
 21
4.802205
 31
0.0
  0
LINE
  5
392
330
53
100
AcDbEntity
 67
     1
  8
1
  6
CONTINUOUS
 62
    18
100
AcDbLine
 10
7.679128
 20
4.802205
 30
0.0
 11
7.679346
 21
4.800921
 31
0.0
  0
LINE
  5
393
330
53
100
AcDbEntity
 67
     1
  8
1
  6
CONTINUOUS
 62
    18
100
AcDbLine
 10
7.728063
 20
4.79223
 30
0.0
 11
7.728294
 21
4.799293
 31
0.0
  0
LINE
  5
394
330
53
100
AcDbEntity
 67
     1
  8
1
  6
CONTINUOUS
 62
    18
100
AcDbLine
 10
7.728294
 20
4.799293
 30
0.0
 11
7.728237
 21
4.802225
 31
0.0
  0
ARC
  5
395
330
53
100
AcDbEntity
 67
     1
  8
1
  6
CONTINUOUS
 62
    18
100
AcDbCircle
 10
4.781018
 20
4.417256
 30
0.0
 40
0.0080000003799796
100
AcDbArc
 50
270.0
 51
0.0
  0
ARC
  5
396
330
53
100
AcDbEntity
 67
     1
  8
1
  6
CONTINUOUS
 62
    18
100
AcDbCircle
 10
4.267018
 20
4.417256
 30
0.0
 40
0.0080000003799796
100
AcDbArc
 50
180.0
 51
270.0
  0
CIRCLE
  5
397
330
53
100
AcDbEntity
 67
     1
  8
1
  6
CONTINUOUS
 62
    18
100
AcDbCircle
 10
4.624018
 20
4.709691
 30
0.0
 40
0.0135000003501773
  0
CIRCLE
  5
398
330
53
100
AcDbEntity
 67
     1
  8
1
  6
CONTINUOUS
 62
    18
100
AcDbCircle
 10
4.424018
 20
4.709691
 30
0.0
 40
0.0135000003501773
  0
ARC
  5
399
330
53
100
AcDbEntity
 67
     1
  8
1
  6
CONTINUOUS
 62
    18
100
AcDbCircle
 10
7.716721
 20
4.743762
 30
0.0
 40
0.0160000007599592
100
AcDbArc
 50
9.214292
 51
89.297818
  0
ARC
  5
39A
330
53
100
AcDbEntity
 67
     1
  8
1
  6
CONTINUOUS
 62
    18
100
AcDbCircle
 10
7.727801
 20
4.792235
 30
0.0
 40
0.0099999997764826
100
AcDbArc
 50
359.0
 51
87.5
  0
ENDSEC
  0
SECTION
  2
OBJECTS
  0
DICTIONARY
  5
C
330
0
100
AcDbDictionary
281
     1
  3
ACAD_GROUP
350
D
  3
ACAD_LAYOUT
350
1A
  3
ACAD_MATERIAL
350
3B
  3
ACAD_MLEADERSTYLE
350
3AE
  3
ACAD_MLINESTYLE
350
17
  3
ACAD_PLOTSETTINGS
350
19
  3
ACAD_PLOTSTYLENAME
350
E
  3
ACAD_VISUALSTYLE
350
2A
  3
AcDbVariableDictionary
350
3AC
  0
DICTIONARY
  5
D
102
{ACAD_REACTORS
330
C
102
}
330
C
100
AcDbDictionary
281
     1
  0
DICTIONARY
  5
1A
102
{ACAD_REACTORS
330
C
102
}
330
C
100
AcDbDictionary
281
     1
  3
Model
350
22
  3
SH1
350
39B
  3
Sheet 1
350
52
  0
DICTIONARY
  5
3B
102
{ACAD_REACTORS
330
C
102
}
330
C
100
AcDbDictionary
281
     1
  3
BYBLOCK
350
3D
  3
BYLAYER
350
3C
  3
Global
350
3E
  0
DICTIONARY
  5
3AE
102
{ACAD_REACTORS
330
C
102
}
330
C
100
AcDbDictionary
281
     1
  0
DICTIONARY
  5
17
102
{ACAD_REACTORS
330
C
102
}
330
C
100
AcDbDictionary
281
     1
  3
Standard
350
18
  0
DICTIONARY
  5
19
102
{ACAD_REACTORS
330
C
102
}
330
C
100
AcDbDictionary
281
     1
  0
ACDBDICTIONARYWDFLT
  5
E
102
{ACAD_REACTORS
330
C
102
}
330
C
100
AcDbDictionary
281
     1
  3
Normal
350
F
100
AcDbDictionaryWithDefault
340
F
  0
DICTIONARY
  5
2A
102
{ACAD_REACTORS
330
C
102
}
330
C
100
AcDbDictionary
281
     1
  3
2dWireframe
350
2F
  3
3D Hidden
350
31
  3
3dWireframe
350
30
  3
Basic
350
32
  3
Brighten
350
36
  3
ColorChange
350
3A
  3
Conceptual
350
34
  3
Dim
350
35
  3
Facepattern
350
39
  3
Flat
350
2B
  3
FlatWithEdges
350
2C
  3
Gouraud
350
2D
  3
GouraudWithEdges
350
2E
  3
Linepattern
350
38
  3
Realistic
350
33
  3
Thicken
350
37
  0
DICTIONARY
  5
3AC
102
{ACAD_REACTORS
330
C
102
}
330
C
100
AcDbDictionary
281
     1
  3
DIMASSOC
350
3AF
  3
HIDETEXT
350
3B0
  0
LAYOUT
  5
22
102
{ACAD_REACTORS
330
1A
102
}
330
1A
100
AcDbPlotSettings
  1

  2
none_device
  4

  6

 40
0.0
 41
0.0
 42
0.0
 43
0.0
 44
0.0
 45
0.0
 46
0.0
 47
0.0
 48
0.0
 49
0.0
140
0.0
141
0.0
142
1.0
143
1.0
 70
  1712
 72
     0
 73
     0
 74
     0
  7

 75
     0
147
1.0
148
0.0
149
0.0
100
AcDbLayout
  1
Model
 70
     1
 71
     0
 10
-0.5
 20
-0.5
 11
5.0
 21
5.0
 12
0.0
 22
0.0
 32
0.0
 14
-0.5
 24
-0.5
 34
-0.5
 15
5.0
 25
5.0
 35
5.0
146
0.0
 13
0.0
 23
0.0
 33
0.0
 16
1.0
 26
0.0
 36
0.0
 17
0.0
 27
1.0
 37
0.0
 76
     0
330
1F
331
29
  0
LAYOUT
  5
39B
102
{ACAD_REACTORS
330
1A
102
}
330
1A
100
AcDbPlotSettings
  1

  2
none_device
  4
ISO_B4_(354.00_x_250.00_MM)
  6

 40
7.5
 41
20.0
 42
7.5
 43
20.0
 44
354.0
 45
250.0
 46
35.333333
 47
0.0
 48
0.0
 49
0.0
140
13.0
141
10.5
142
1.0
143
1.088571
 70
   692
 72
     0
 73
     0
 74
     1
  7

 75
     0
147
0.918635
148
12.7
149
12.7
100
AcDbLayout
  1
SH1
 70
     1
 71
     2
 10
0.0
 20
0.0
 11
11.0
 21
8.5
 12
0.0
 22
0.0
 32
0.0
 14
0.0
 24
0.0
 34
0.0
 15
11.0
 25
8.5
 35
0.0
146
0.0
 13
0.0
 23
0.0
 33
0.0
 16
1.0
 26
0.0
 36
0.0
 17
0.0
 27
1.0
 37
0.0
 76
     0
330
53
331
56
  0
LAYOUT
  5
52
102
{ACAD_REACTORS
330
1A
102
}
330
1A
100
AcDbPlotSettings
  1

  2
none_device
  4
ISO_B4_(354.00_x_250.00_MM)
  6

 40
7.5
 41
20.0
 42
7.5
 43
20.0
 44
354.0
 45
250.0
 46
35.333333
 47
0.0
 48
0.0
 49
0.0
140
13.0
141
10.5
142
1.0
143
1.088571
 70
   692
 72
     0
 73
     0
 74
     1
  7

 75
     0
147
0.918635
148
12.7
149
12.7
100
AcDbLayout
  1
Sheet 1
 70
     1
 71
     1
 10
0.0
 20
0.0
 11
11.0
 21
8.5
 12
0.0
 22
0.0
 32
0.0
 14
0.0
 24
0.0
 34
0.0
 15
11.0
 25
8.5
 35
0.0
146
0.0
 13
0.0
 23
0.0
 33
0.0
 16
1.0
 26
0.0
 36
0.0
 17
0.0
 27
1.0
 37
0.0
 76
     0
330
4E
331
51
  0
MATERIAL
  5
3D
102
{ACAD_REACTORS
330
3B
102
}
102
{ACAD_XDICTIONARY
360
3D3
102
}
330
3B
100
AcDbMaterial
  1
BYBLOCK
  0
MATERIAL
  5
3C
102
{ACAD_REACTORS
330
3B
102
}
102
{ACAD_XDICTIONARY
360
3D1
102
}
330
3B
100
AcDbMaterial
  1
BYLAYER
  0
MATERIAL
  5
3E
102
{ACAD_REACTORS
330
3B
102
}
102
{ACAD_XDICTIONARY
360
3D5
102
}
330
3B
100
AcDbMaterial
  1
Global
  0
MLINESTYLE
  5
18
102
{ACAD_REACTORS
330
17
102
}
330
17
100
AcDbMlineStyle
  2
Standard
 70
     0
  3

 62
   256
 51
90.0
 52
90.0
 71
     2
 49
0.5
 62
   256
  6
BYLAYER
 49
-0.5
 62
   256
  6
BYLAYER
  0
ACDBPLACEHOLDER
  5
F
102
{ACAD_REACTORS
330
E
102
}
330
E
  0
VISUALSTYLE
  5
2F
102
{ACAD_REACTORS
330
2A
102
}
102
{ACAD_XDICTIONARY
360
3B9
102
}
330
2A
100
AcDbVisualStyle
  2
2dWireframe
 70
     4
 71
     0
 72
     2
 73
     0
 90
        0
 40
-0.6
 41
-30.0
 62
     5
 63
     7
 74
     1
 91
        4
 64
     7
 65
   257
 75
     1
175
     1
 42
1.0
 92
        0
 66
   257
 43
1.0
 76
     1
 77
     6
 78
     2
 67
     7
 79
     5
170
     0
171
     0
290
     0
174
     0
 93
        1
 44
0.0
173
     0
291
     0
 45
0.0
1001
ACAD
1000
AcDbSavedByObjectVersion
1070
     0
  0
VISUALSTYLE
  5
31
102
{ACAD_REACTORS
330
2A
102
}
102
{ACAD_XDICTIONARY
360
3BD
102
}
330
2A
100
AcDbVisualStyle
  2
3D Hidden
 70
     6
 71
     1
 72
     2
 73
     2
 90
        0
 40
-0.6
 41
-30.0
 62
     5
 63
     7
 74
     2
 91
        2
 64
     7
 65
   257
 75
     2
175
     1
 42
40.0
 92
        0
 66
   257
 43
1.0
 76
     1
 77
     6
 78
     2
 67
     7
 79
     3
170
     0
171
     0
290
     0
174
     0
 93
        1
 44
0.0
173
     0
291
     0
 45
0.0
1001
ACAD
1000
AcDbSavedByObjectVersion
1070
     0
  0
VISUALSTYLE
  5
30
102
{ACAD_REACTORS
330
2A
102
}
102
{ACAD_XDICTIONARY
360
3BB
102
}
330
2A
100
AcDbVisualStyle
  2
3dWireframe
 70
     5
 71
     0
 72
     2
 73
     0
 90
        0
 40
-0.6
 41
-30.0
 62
     5
 63
     7
 74
     1
 91
        4
 64
     7
 65
   257
 75
     1
175
     1
 42
1.0
 92
        0
 66
   257
 43
1.0
 76
     1
 77
     6
 78
     2
 67
     7
 79
     5
170
     0
171
     0
290
     0
174
     0
 93
        1
 44
0.0
173
     0
291
     0
 45
0.0
1001
ACAD
1000
AcDbSavedByObjectVersion
1070
     0
  0
VISUALSTYLE
  5
32
102
{ACAD_REACTORS
330
2A
102
}
102
{ACAD_XDICTIONARY
360
3BF
102
}
330
2A
100
AcDbVisualStyle
  2
Basic
 70
     7
 71
     1
 72
     0
 73
     1
 90
        0
 40
-0.6
 41
-30.0
 62
     5
 63
     7
 74
     0
 91
        4
 64
     7
 65
   257
 75
     1
175
     1
 42
1.0
 92
        8
 66
     7
 43
1.0
 76
     1
 77
     6
 78
     2
 67
     7
 79
     5
170
     0
171
     0
290
     0
174
     0
 93
        1
 44
0.0
173
     0
291
     1
 45
0.0
1001
ACAD
1000
AcDbSavedByObjectVersion
1070
     0
  0
VISUALSTYLE
  5
36
102
{ACAD_REACTORS
330
2A
102
}
102
{ACAD_XDICTIONARY
360
3C7
102
}
330
2A
100
AcDbVisualStyle
  2
Brighten
 70
    12
 71
     2
 72
     2
 73
     0
 90
        0
 40
-0.6
 41
-30.0
 62
     5
 63
     7
 74
     1
 91
        4
 64
     7
 65
   257
 75
     1
175
     1
 42
1.0
 92
        8
 66
     7
 43
1.0
 76
     1
 77
     6
 78
     2
 67
     7
 79
     5
170
     0
171
     0
290
     0
174
     0
 93
        1
 44
50.0
173
     0
291
     1
 45
0.0
1001
ACAD
1000
AcDbSavedByObjectVersion
1070
     0
  0
VISUALSTYLE
  5
3A
102
{ACAD_REACTORS
330
2A
102
}
102
{ACAD_XDICTIONARY
360
3CF
102
}
330
2A
100
AcDbVisualStyle
  2
ColorChange
 70
    16
 71
     2
 72
     2
 73
     3
 90
        0
 40
-0.6
 41
-30.0
 62
     5
 63
     8
 74
     1
 91
        4
 64
     7
 65
   257
 75
     1
175
     1
 42
1.0
 92
        8
 66
     8
 43
1.0
 76
     1
 77
     6
 78
     2
 67
     7
 79
     5
170
     0
171
     0
290
     0
174
     0
 93
        1
 44
0.0
173
     0
291
     1
 45
0.0
1001
ACAD
1000
AcDbSavedByObjectVersion
1070
     0
  0
VISUALSTYLE
  5
34
102
{ACAD_REACTORS
330
2A
102
}
102
{ACAD_XDICTIONARY
360
3C3
102
}
330
2A
100
AcDbVisualStyle
  2
Conceptual
 70
     9
 71
     3
 72
     2
 73
     0
 90
        0
 40
-0.6
 41
-30.0
 62
     5
 63
     7
 74
     2
 91
        2
 64
     7
 65
   257
 75
     1
175
     1
 42
40.0
 92
        8
 66
     7
 43
1.0
 76
     1
 77
     6
 78
     2
 67
     7
 79
     3
170
     0
171
     0
290
     0
174
     0
 93
        1
 44
0.0
173
     0
291
     0
 45
0.0
1001
ACAD
1000
AcDbSavedByObjectVersion
1070
     0
  0
VISUALSTYLE
  5
35
102
{ACAD_REACTORS
330
2A
102
}
102
{ACAD_XDICTIONARY
360
3C5
102
}
330
2A
100
AcDbVisualStyle
  2
Dim
 70
    11
 71
     2
 72
     2
 73
     0
 90
        0
 40
-0.6
 41
-30.0
 62
     5
 63
     7
 74
     1
 91
        4
 64
     7
 65
   257
 75
     1
175
     1
 42
1.0
 92
        8
 66
     7
 43
1.0
 76
     1
 77
     6
 78
     2
 67
     7
 79
     5
170
     0
171
     0
290
     0
174
     0
 93
        1
 44
-50.0
173
     0
291
     1
 45
0.0
1001
ACAD
1000
AcDbSavedByObjectVersion
1070
     0
  0
VISUALSTYLE
  5
39
102
{ACAD_REACTORS
330
2A
102
}
102
{ACAD_XDICTIONARY
360
3CD
102
}
330
2A
100
AcDbVisualStyle
  2
Facepattern
 70
    15
 71
     2
 72
     2
 73
     0
 90
        0
 40
-0.6
 41
-30.0
 62
     5
 63
     7
 74
     1
 91
        4
 64
     7
 65
   257
 75
     1
175
     1
 42
1.0
 92
        8
 66
     7
 43
1.0
 76
     1
 77
     6
 78
     2
 67
     7
 79
     5
170
     0
171
     0
290
     0
174
     0
 93
        1
 44
0.0
173
     0
291
     1
 45
0.0
1001
ACAD
1000
AcDbSavedByObjectVersion
1070
     0
  0
VISUALSTYLE
  5
2B
102
{ACAD_REACTORS
330
2A
102
}
102
{ACAD_XDICTIONARY
360
3B1
102
}
330
2A
100
AcDbVisualStyle
  2
Flat
 70
     0
 71
     2
 72
     1
 73
     1
 90
        2
 40
-0.6
 41
30.0
 62
     5
 63
     7
 74
     0
 91
        4
 64
     7
 65
   257
 75
     1
175
     1
 42
1.0
 92
        8
 66
     7
 43
1.0
 76
     1
 77
     6
 78
     2
 67
     7
 79
     5
170
     0
171
     0
290
     0
174
     0
 93
       13
 44
0.0
173
     0
291
     1
 45
0.0
1001
ACAD
1000
AcDbSavedByObjectVersion
1070
     0
  0
VISUALSTYLE
  5
2C
102
{ACAD_REACTORS
330
2A
102
}
102
{ACAD_XDICTIONARY
360
3B3
102
}
330
2A
100
AcDbVisualStyle
  2
FlatWithEdges
 70
     1
 71
     2
 72
     1
 73
     1
 90
        2
 40
-0.6
 41
30.0
 62
     5
 63
     7
 74
     1
 91
        4
 64
     7
 65
   257
 75
     1
175
     1
 42
1.0
 92
        0
 66
   257
 43
1.0
 76
     1
 77
     6
 78
     2
 67
     7
 79
     5
170
     0
171
     0
290
     0
174
     0
 93
       13
 44
0.0
173
     0
291
     1
 45
0.0
1001
ACAD
1000
AcDbSavedByObjectVersion
1070
     0
  0
VISUALSTYLE
  5
2D
102
{ACAD_REACTORS
330
2A
102
}
102
{ACAD_XDICTIONARY
360
3B5
102
}
330
2A
100
AcDbVisualStyle
  2
Gouraud
 70
     2
 71
     2
 72
     2
 73
     1
 90
        2
 40
-0.6
 41
30.0
 62
     5
 63
     7
 74
     0
 91
        4
 64
     7
 65
   257
 75
     1
175
     1
 42
1.0
 92
        0
 66
     7
 43
1.0
 76
     1
 77
     6
 78
     2
 67
     7
 79
     5
170
     0
171
     0
290
     0
174
     0
 93
       13
 44
0.0
173
     0
291
     1
 45
0.0
1001
ACAD
1000
AcDbSavedByObjectVersion
1070
     0
  0
VISUALSTYLE
  5
2E
102
{ACAD_REACTORS
330
2A
102
}
102
{ACAD_XDICTIONARY
360
3B7
102
}
330
2A
100
AcDbVisualStyle
  2
GouraudWithEdges
 70
     3
 71
     2
 72
     2
 73
     1
 90
        2
 40
-0.6
 41
30.0
 62
     5
 63
     7
 74
     1
 91
        4
 64
     7
 65
   257
 75
     1
175
     1
 42
1.0
 92
        0
 66
   257
 43
1.0
 76
     1
 77
     6
 78
     2
 67
     7
 79
     5
170
     0
171
     0
290
     0
174
     0
 93
       13
 44
0.0
173
     0
291
     1
 45
0.0
1001
ACAD
1000
AcDbSavedByObjectVersion
1070
     0
  0
VISUALSTYLE
  5
38
102
{ACAD_REACTORS
330
2A
102
}
102
{ACAD_XDICTIONARY
360
3CB
102
}
330
2A
100
AcDbVisualStyle
  2
Linepattern
 70
    14
 71
     2
 72
     2
 73
     0
 90
        0
 40
-0.6
 41
-30.0
 62
     5
 63
     7
 74
     1
 91
        4
 64
     7
 65
   257
 75
     7
175
     7
 42
1.0
 92
        8
 66
     7
 43
1.0
 76
     1
 77
     6
 78
     2
 67
     7
 79
     5
170
     0
171
     0
290
     0
174
     0
 93
        1
 44
0.0
173
     0
291
     1
 45
0.0
1001
ACAD
1000
AcDbSavedByObjectVersion
1070
     0
  0
VISUALSTYLE
  5
33
102
{ACAD_REACTORS
330
2A
102
}
102
{ACAD_XDICTIONARY
360
3C1
102
}
330
2A
100
AcDbVisualStyle
  2
Realistic
 70
     8
 71
     2
 72
     2
 73
     0
 90
        0
 40
-0.6
 41
-30.0
 62
     5
 63
     7
 74
     1
 91
        0
 64
     7
 65
   257
 75
     1
175
     1
 42
1.0
 92
        8
 66
     8
 43
1.0
 76
     1
 77
     6
 78
     2
 67
     7
 79
     5
170
     0
171
     0
290
     0
174
     0
 93
       13
 44
0.0
173
     0
291
     0
 45
0.0
1001
ACAD
1000
AcDbSavedByObjectVersion
1070
     0
  0
VISUALSTYLE
  5
37
102
{ACAD_REACTORS
330
2A
102
}
102
{ACAD_XDICTIONARY
360
3C9
102
}
330
2A
100
AcDbVisualStyle
  2
Thicken
 70
    13
 71
     2
 72
     2
 73
     0
 90
        0
 40
-0.6
 41
-30.0
 62
     5
 63
     7
 74
     1
 91
        4
 64
     7
 65
   257
 75
     1
175
     1
 42
1.0
 92
       12
 66
     7
 43
1.0
 76
     1
 77
     6
 78
     2
 67
     7
 79
     5
170
     0
171
     0
290
     0
174
     0
 93
        1
 44
0.0
173
     0
291
     1
 45
0.0
1001
ACAD
1000
AcDbSavedByObjectVersion
1070
     0
  0
DICTIONARYVAR
  5
3AF
102
{ACAD_REACTORS
330
3AC
102
}
330
3AC
100
DictionaryVariables
280
     0
  1
2
  0
DICTIONARYVAR
  5
3B0
102
{ACAD_REACTORS
330
3AC
102
}
330
3AC
100
DictionaryVariables
280
     0
  1
1
  0
DICTIONARY
  5
3D3
330
3D
100
AcDbDictionary
280
     1
281
     1
  3
ACAD_XREC_ROUNDTRIP
360
3D4
  0
DICTIONARY
  5
3D1
330
3C
100
AcDbDictionary
280
     1
281
     1
  3
ACAD_XREC_ROUNDTRIP
360
3D2
  0
DICTIONARY
  5
3D5
330
3E
100
AcDbDictionary
280
     1
281
     1
  3
ACAD_XREC_ROUNDTRIP
360
3D6
  0
DICTIONARY
  5
3B9
330
2F
100
AcDbDictionary
280
     1
281
     1
  3
ACAD_XREC_ROUNDTRIP
360
3BA
  0
DICTIONARY
  5
3BD
330
31
100
AcDbDictionary
280
     1
281
     1
  3
ACAD_XREC_ROUNDTRIP
360
3BE
  0
DICTIONARY
  5
3BB
330
30
100
AcDbDictionary
280
     1
281
     1
  3
ACAD_XREC_ROUNDTRIP
360
3BC
  0
DICTIONARY
  5
3BF
330
32
100
AcDbDictionary
280
     1
281
     1
  3
ACAD_XREC_ROUNDTRIP
360
3C0
  0
DICTIONARY
  5
3C7
330
36
100
AcDbDictionary
280
     1
281
     1
  3
ACAD_XREC_ROUNDTRIP
360
3C8
  0
DICTIONARY
  5
3CF
330
3A
100
AcDbDictionary
280
     1
281
     1
  3
ACAD_XREC_ROUNDTRIP
360
3D0
  0
DICTIONARY
  5
3C3
330
34
100
AcDbDictionary
280
     1
281
     1
  3
ACAD_XREC_ROUNDTRIP
360
3C4
  0
DICTIONARY
  5
3C5
330
35
100
AcDbDictionary
280
     1
281
     1
  3
ACAD_XREC_ROUNDTRIP
360
3C6
  0
DICTIONARY
  5
3CD
330
39
100
AcDbDictionary
280
     1
281
     1
  3
ACAD_XREC_ROUNDTRIP
360
3CE
  0
DICTIONARY
  5
3B1
330
2B
100
AcDbDictionary
280
     1
281
     1
  3
ACAD_XREC_ROUNDTRIP
360
3B2
  0
DICTIONARY
  5
3B3
330
2C
100
AcDbDictionary
280
     1
281
     1
  3
ACAD_XREC_ROUNDTRIP
360
3B4
  0
DICTIONARY
  5
3B5
330
2D
100
AcDbDictionary
280
     1
281
     1
  3
ACAD_XREC_ROUNDTRIP
360
3B6
  0
DICTIONARY
  5
3B7
330
2E
100
AcDbDictionary
280
     1
281
     1
  3
ACAD_XREC_ROUNDTRIP
360
3B8
  0
DICTIONARY
  5
3CB
330
38
100
AcDbDictionary
280
     1
281
     1
  3
ACAD_XREC_ROUNDTRIP
360
3CC
  0
DICTIONARY
  5
3C1
330
33
100
AcDbDictionary
280
     1
281
     1
  3
ACAD_XREC_ROUNDTRIP
360
3C2
  0
DICTIONARY
  5
3C9
330
37
100
AcDbDictionary
280
     1
281
     1
  3
ACAD_XREC_ROUNDTRIP
360
3CA
  0
XRECORD
  5
3D4
102
{ACAD_REACTORS
330
3D3
102
}
330
3D3
100
AcDbXrecord
280
     1
102
MATERIAL
148
0.0
149
0.0
149
0.0
 93
        0
 94
      127
282
     0
 72
     1
 77
     1
171
     1
175
     1
179
     1
273
     0
  0
XRECORD
  5
3D2
102
{ACAD_REACTORS
330
3D1
102
}
330
3D1
100
AcDbXrecord
280
     1
102
MATERIAL
148
0.0
149
0.0
149
0.0
 93
        0
 94
      127
282
     0
 72
     1
 77
     1
171
     1
175
     1
179
     1
273
     0
  0
XRECORD
  5
3D6
102
{ACAD_REACTORS
330
3D5
102
}
330
3D5
100
AcDbXrecord
280
     1
102
MATERIAL
148
0.0
149
0.0
149
0.0
 93
        0
 94
      127
282
     0
 72
     1
 77
     1
171
     1
175
     1
179
     1
273
     0
  0
XRECORD
  5
3BA
102
{ACAD_REACTORS
330
3B9
102
}
330
3B9
100
AcDbXrecord
280
     1
102
RTVSPropertyOp0
 70
     1
102
RTVSPropertyOp1
 70
     1
102
RTVSPropertyOp2
 70
     1
102
RTVSPropertyOp3
 70
     1
102
RTVSPropertyOp4
 70
     1
102
RTVSPropertyOp5
 70
     1
102
RTVSPropertyOp6
 70
     1
102
RTVSPropertyOp7
 70
     1
102
RTVSPropertyOp8
 70
     1
102
RTVSPropertyOp9
 70
     1
102
RTVSPropertyOp10
 70
     1
102
RTVSPropertyOp11
 70
     1
102
RTVSPropertyOp12
 70
     1
102
RTVSPropertyOp13
 70
     1
102
RTVSPropertyOp14
 70
     1
102
RTVSPropertyOp15
 70
     1
102
RTVSPropertyOp16
 70
     1
102
RTVSPropertyOp17
 70
     1
102
RTVSPropertyOp18
 70
     1
102
RTVSPropertyOp19
 70
     1
102
RTVSPropertyOp20
 70
     1
102
RTVSPropertyOp21
 70
     1
102
RTVSPropertyOp22
 70
     1
102
RTVSPropertyOp23
 70
     1
102
RTVSPropertyOp24
 70
     1
102
RTVSPropertyOp25
 70
     1
102
RTVSPropertyOp26
 70
     1
102
RTVSPropertyOp27
 70
     1
  0
XRECORD
  5
3BE
102
{ACAD_REACTORS
330
3BD
102
}
330
3BD
100
AcDbXrecord
280
     1
102
RTVSPropertyOp0
 70
     1
102
RTVSPropertyOp1
 70
     1
102
RTVSPropertyOp2
 70
     1
102
RTVSPropertyOp3
 70
     1
102
RTVSPropertyOp4
 70
     1
102
RTVSPropertyOp5
 70
     1
102
RTVSPropertyOp6
 70
     1
102
RTVSPropertyOp7
 70
     1
102
RTVSPropertyOp8
 70
     1
102
RTVSPropertyOp9
 70
     1
102
RTVSPropertyOp10
 70
     1
102
RTVSPropertyOp11
 70
     1
102
RTVSPropertyOp12
 70
     1
102
RTVSPropertyOp13
 70
     1
102
RTVSPropertyOp14
 70
     1
102
RTVSPropertyOp15
 70
     1
102
RTVSPropertyOp16
 70
     1
102
RTVSPropertyOp17
 70
     1
102
RTVSPropertyOp18
 70
     1
102
RTVSPropertyOp19
 70
     1
102
RTVSPropertyOp20
 70
     1
102
RTVSPropertyOp21
 70
     1
102
RTVSPropertyOp22
 70
     1
102
RTVSPropertyOp23
 70
     1
102
RTVSPropertyOp24
 70
     1
102
RTVSPropertyOp25
 70
     1
102
RTVSPropertyOp26
 70
     1
102
RTVSPropertyOp27
 70
     1
  0
XRECORD
  5
3BC
102
{ACAD_REACTORS
330
3BB
102
}
330
3BB
100
AcDbXrecord
280
     1
102
RTVSPropertyOp0
 70
     1
102
RTVSPropertyOp1
 70
     1
102
RTVSPropertyOp2
 70
     1
102
RTVSPropertyOp3
 70
     1
102
RTVSPropertyOp4
 70
     1
102
RTVSPropertyOp5
 70
     1
102
RTVSPropertyOp6
 70
     1
102
RTVSPropertyOp7
 70
     1
102
RTVSPropertyOp8
 70
     1
102
RTVSPropertyOp9
 70
     1
102
RTVSPropertyOp10
 70
     1
102
RTVSPropertyOp11
 70
     1
102
RTVSPropertyOp12
 70
     1
102
RTVSPropertyOp13
 70
     1
102
RTVSPropertyOp14
 70
     1
102
RTVSPropertyOp15
 70
     1
102
RTVSPropertyOp16
 70
     1
102
RTVSPropertyOp17
 70
     1
102
RTVSPropertyOp18
 70
     1
102
RTVSPropertyOp19
 70
     1
102
RTVSPropertyOp20
 70
     1
102
RTVSPropertyOp21
 70
     1
102
RTVSPropertyOp22
 70
     1
102
RTVSPropertyOp23
 70
     1
102
RTVSPropertyOp24
 70
     1
102
RTVSPropertyOp25
 70
     1
102
RTVSPropertyOp26
 70
     1
102
RTVSPropertyOp27
 70
     1
  0
XRECORD
  5
3C0
102
{ACAD_REACTORS
330
3BF
102
}
330
3BF
100
AcDbXrecord
280
     1
102
RTVSPropertyOp0
 70
     1
102
RTVSPropertyOp1
 70
     1
102
RTVSPropertyOp2
 70
     1
102
RTVSPropertyOp3
 70
     1
102
RTVSPropertyOp4
 70
     1
102
RTVSPropertyOp5
 70
     1
102
RTVSPropertyOp6
 70
     1
102
RTVSPropertyOp7
 70
     1
102
RTVSPropertyOp8
 70
     1
102
RTVSPropertyOp9
 70
     1
102
RTVSPropertyOp10
 70
     1
102
RTVSPropertyOp11
 70
     1
102
RTVSPropertyOp12
 70
     1
102
RTVSPropertyOp13
 70
     1
102
RTVSPropertyOp14
 70
     1
102
RTVSPropertyOp15
 70
     1
102
RTVSPropertyOp16
 70
     1
102
RTVSPropertyOp17
 70
     1
102
RTVSPropertyOp18
 70
     1
102
RTVSPropertyOp19
 70
     1
102
RTVSPropertyOp20
 70
     1
102
RTVSPropertyOp21
 70
     1
102
RTVSPropertyOp22
 70
     1
102
RTVSPropertyOp23
 70
     1
102
RTVSPropertyOp24
 70
     1
102
RTVSPropertyOp25
 70
     1
102
RTVSPropertyOp26
 70
     1
102
RTVSPropertyOp27
 70
     1
  0
XRECORD
  5
3C8
102
{ACAD_REACTORS
330
3C7
102
}
330
3C7
100
AcDbXrecord
280
     1
102
RTVSPropertyOp0
 70
     1
102
RTVSPropertyOp1
 70
     1
102
RTVSPropertyOp2
 70
     1
102
RTVSPropertyOp3
 70
     1
102
RTVSPropertyOp4
 70
     1
102
RTVSPropertyOp5
 70
     1
102
RTVSPropertyOp6
 70
     1
102
RTVSPropertyOp7
 70
     1
102
RTVSPropertyOp8
 70
     1
102
RTVSPropertyOp9
 70
     1
102
RTVSPropertyOp10
 70
     1
102
RTVSPropertyOp11
 70
     1
102
RTVSPropertyOp12
 70
     1
102
RTVSPropertyOp13
 70
     1
102
RTVSPropertyOp14
 70
     1
102
RTVSPropertyOp15
 70
     1
102
RTVSPropertyOp16
 70
     1
102
RTVSPropertyOp17
 70
     1
102
RTVSPropertyOp18
 70
     1
102
RTVSPropertyOp19
 70
     1
102
RTVSPropertyOp20
 70
     1
102
RTVSPropertyOp21
 70
     1
102
RTVSPropertyOp22
 70
     1
102
RTVSPropertyOp23
 70
     1
102
RTVSPropertyOp24
 70
     1
102
RTVSPropertyOp25
 70
     1
102
RTVSPropertyOp26
 70
     1
102
RTVSPropertyOp27
 70
     1
  0
XRECORD
  5
3D0
102
{ACAD_REACTORS
330
3CF
102
}
330
3CF
100
AcDbXrecord
280
     1
102
RTVSPropertyOp0
 70
     1
102
RTVSPropertyOp1
 70
     1
102
RTVSPropertyOp2
 70
     1
102
RTVSPropertyOp3
 70
     1
102
RTVSPropertyOp4
 70
     1
102
RTVSPropertyOp5
 70
     1
102
RTVSPropertyOp6
 70
     1
102
RTVSPropertyOp7
 70
     1
102
RTVSPropertyOp8
 70
     1
102
RTVSPropertyOp9
 70
     1
102
RTVSPropertyOp10
 70
     1
102
RTVSPropertyOp11
 70
     1
102
RTVSPropertyOp12
 70
     1
102
RTVSPropertyOp13
 70
     1
102
RTVSPropertyOp14
 70
     1
102
RTVSPropertyOp15
 70
     1
102
RTVSPropertyOp16
 70
     1
102
RTVSPropertyOp17
 70
     1
102
RTVSPropertyOp18
 70
     1
102
RTVSPropertyOp19
 70
     1
102
RTVSPropertyOp20
 70
     1
102
RTVSPropertyOp21
 70
     1
102
RTVSPropertyOp22
 70
     1
102
RTVSPropertyOp23
 70
     1
102
RTVSPropertyOp24
 70
     1
102
RTVSPropertyOp25
 70
     1
102
RTVSPropertyOp26
 70
     1
102
RTVSPropertyOp27
 70
     1
  0
XRECORD
  5
3C4
102
{ACAD_REACTORS
330
3C3
102
}
330
3C3
100
AcDbXrecord
280
     1
102
RTVSPropertyOp0
 70
     1
102
RTVSPropertyOp1
 70
     1
102
RTVSPropertyOp2
 70
     1
102
RTVSPropertyOp3
 70
     1
102
RTVSPropertyOp4
 70
     1
102
RTVSPropertyOp5
 70
     1
102
RTVSPropertyOp6
 70
     1
102
RTVSPropertyOp7
 70
     1
102
RTVSPropertyOp8
 70
     1
102
RTVSPropertyOp9
 70
     1
102
RTVSPropertyOp10
 70
     1
102
RTVSPropertyOp11
 70
     1
102
RTVSPropertyOp12
 70
     1
102
RTVSPropertyOp13
 70
     1
102
RTVSPropertyOp14
 70
     1
102
RTVSPropertyOp15
 70
     1
102
RTVSPropertyOp16
 70
     1
102
RTVSPropertyOp17
 70
     1
102
RTVSPropertyOp18
 70
     1
102
RTVSPropertyOp19
 70
     1
102
RTVSPropertyOp20
 70
     1
102
RTVSPropertyOp21
 70
     1
102
RTVSPropertyOp22
 70
     1
102
RTVSPropertyOp23
 70
     1
102
RTVSPropertyOp24
 70
     1
102
RTVSPropertyOp25
 70
     1
102
RTVSPropertyOp26
 70
     1
102
RTVSPropertyOp27
 70
     1
  0
XRECORD
  5
3C6
102
{ACAD_REACTORS
330
3C5
102
}
330
3C5
100
AcDbXrecord
280
     1
102
RTVSPropertyOp0
 70
     1
102
RTVSPropertyOp1
 70
     1
102
RTVSPropertyOp2
 70
     1
102
RTVSPropertyOp3
 70
     1
102
RTVSPropertyOp4
 70
     1
102
RTVSPropertyOp5
 70
     1
102
RTVSPropertyOp6
 70
     1
102
RTVSPropertyOp7
 70
     1
102
RTVSPropertyOp8
 70
     1
102
RTVSPropertyOp9
 70
     1
102
RTVSPropertyOp10
 70
     1
102
RTVSPropertyOp11
 70
     1
102
RTVSPropertyOp12
 70
     1
102
RTVSPropertyOp13
 70
     1
102
RTVSPropertyOp14
 70
     1
102
RTVSPropertyOp15
 70
     1
102
RTVSPropertyOp16
 70
     1
102
RTVSPropertyOp17
 70
     1
102
RTVSPropertyOp18
 70
     1
102
RTVSPropertyOp19
 70
     1
102
RTVSPropertyOp20
 70
     1
102
RTVSPropertyOp21
 70
     1
102
RTVSPropertyOp22
 70
     1
102
RTVSPropertyOp23
 70
     1
102
RTVSPropertyOp24
 70
     1
102
RTVSPropertyOp25
 70
     1
102
RTVSPropertyOp26
 70
     1
102
RTVSPropertyOp27
 70
     1
  0
XRECORD
  5
3CE
102
{ACAD_REACTORS
330
3CD
102
}
330
3CD
100
AcDbXrecord
280
     1
102
RTVSPropertyOp0
 70
     1
102
RTVSPropertyOp1
 70
     1
102
RTVSPropertyOp2
 70
     1
102
RTVSPropertyOp3
 70
     1
102
RTVSPropertyOp4
 70
     1
102
RTVSPropertyOp5
 70
     1
102
RTVSPropertyOp6
 70
     1
102
RTVSPropertyOp7
 70
     1
102
RTVSPropertyOp8
 70
     1
102
RTVSPropertyOp9
 70
     1
102
RTVSPropertyOp10
 70
     1
102
RTVSPropertyOp11
 70
     1
102
RTVSPropertyOp12
 70
     1
102
RTVSPropertyOp13
 70
     1
102
RTVSPropertyOp14
 70
     1
102
RTVSPropertyOp15
 70
     1
102
RTVSPropertyOp16
 70
     1
102
RTVSPropertyOp17
 70
     1
102
RTVSPropertyOp18
 70
     1
102
RTVSPropertyOp19
 70
     1
102
RTVSPropertyOp20
 70
     1
102
RTVSPropertyOp21
 70
     1
102
RTVSPropertyOp22
 70
     1
102
RTVSPropertyOp23
 70
     1
102
RTVSPropertyOp24
 70
     1
102
RTVSPropertyOp25
 70
     1
102
RTVSPropertyOp26
 70
     1
102
RTVSPropertyOp27
 70
     1
  0
XRECORD
  5
3B2
102
{ACAD_REACTORS
330
3B1
102
}
330
3B1
100
AcDbXrecord
280
     1
102
RTVSPropertyOp0
 70
     1
102
RTVSPropertyOp1
 70
     1
102
RTVSPropertyOp2
 70
     1
102
RTVSPropertyOp3
 70
     1
102
RTVSPropertyOp4
 70
     1
102
RTVSPropertyOp5
 70
     1
102
RTVSPropertyOp6
 70
     1
102
RTVSPropertyOp7
 70
     1
102
RTVSPropertyOp8
 70
     1
102
RTVSPropertyOp9
 70
     1
102
RTVSPropertyOp10
 70
     1
102
RTVSPropertyOp11
 70
     1
102
RTVSPropertyOp12
 70
     1
102
RTVSPropertyOp13
 70
     1
102
RTVSPropertyOp14
 70
     1
102
RTVSPropertyOp15
 70
     1
102
RTVSPropertyOp16
 70
     1
102
RTVSPropertyOp17
 70
     1
102
RTVSPropertyOp18
 70
     1
102
RTVSPropertyOp19
 70
     1
102
RTVSPropertyOp20
 70
     1
102
RTVSPropertyOp21
 70
     1
102
RTVSPropertyOp22
 70
     1
102
RTVSPropertyOp23
 70
     1
102
RTVSPropertyOp24
 70
     1
102
RTVSPropertyOp25
 70
     1
102
RTVSPropertyOp26
 70
     1
102
RTVSPropertyOp27
 70
     1
  0
XRECORD
  5
3B4
102
{ACAD_REACTORS
330
3B3
102
}
330
3B3
100
AcDbXrecord
280
     1
102
RTVSPropertyOp0
 70
     1
102
RTVSPropertyOp1
 70
     1
102
RTVSPropertyOp2
 70
     1
102
RTVSPropertyOp3
 70
     1
102
RTVSPropertyOp4
 70
     1
102
RTVSPropertyOp5
 70
     1
102
RTVSPropertyOp6
 70
     1
102
RTVSPropertyOp7
 70
     1
102
RTVSPropertyOp8
 70
     1
102
RTVSPropertyOp9
 70
     1
102
RTVSPropertyOp10
 70
     1
102
RTVSPropertyOp11
 70
     1
102
RTVSPropertyOp12
 70
     1
102
RTVSPropertyOp13
 70
     1
102
RTVSPropertyOp14
 70
     1
102
RTVSPropertyOp15
 70
     1
102
RTVSPropertyOp16
 70
     1
102
RTVSPropertyOp17
 70
     1
102
RTVSPropertyOp18
 70
     1
102
RTVSPropertyOp19
 70
     1
102
RTVSPropertyOp20
 70
     1
102
RTVSPropertyOp21
 70
     1
102
RTVSPropertyOp22
 70
     1
102
RTVSPropertyOp23
 70
     1
102
RTVSPropertyOp24
 70
     1
102
RTVSPropertyOp25
 70
     1
102
RTVSPropertyOp26
 70
     1
102
RTVSPropertyOp27
 70
     1
  0
XRECORD
  5
3B6
102
{ACAD_REACTORS
330
3B5
102
}
330
3B5
100
AcDbXrecord
280
     1
102
RTVSPropertyOp0
 70
     1
102
RTVSPropertyOp1
 70
     1
102
RTVSPropertyOp2
 70
     1
102
RTVSPropertyOp3
 70
     1
102
RTVSPropertyOp4
 70
     1
102
RTVSPropertyOp5
 70
     1
102
RTVSPropertyOp6
 70
     1
102
RTVSPropertyOp7
 70
     1
102
RTVSPropertyOp8
 70
     1
102
RTVSPropertyOp9
 70
     1
102
RTVSPropertyOp10
 70
     1
102
RTVSPropertyOp11
 70
     1
102
RTVSPropertyOp12
 70
     1
102
RTVSPropertyOp13
 70
     1
102
RTVSPropertyOp14
 70
     1
102
RTVSPropertyOp15
 70
     1
102
RTVSPropertyOp16
 70
     1
102
RTVSPropertyOp17
 70
     1
102
RTVSPropertyOp18
 70
     1
102
RTVSPropertyOp19
 70
     1
102
RTVSPropertyOp20
 70
     1
102
RTVSPropertyOp21
 70
     1
102
RTVSPropertyOp22
 70
     1
102
RTVSPropertyOp23
 70
     1
102
RTVSPropertyOp24
 70
     1
102
RTVSPropertyOp25
 70
     1
102
RTVSPropertyOp26
 70
     1
102
RTVSPropertyOp27
 70
     1
  0
XRECORD
  5
3B8
102
{ACAD_REACTORS
330
3B7
102
}
330
3B7
100
AcDbXrecord
280
     1
102
RTVSPropertyOp0
 70
     1
102
RTVSPropertyOp1
 70
     1
102
RTVSPropertyOp2
 70
     1
102
RTVSPropertyOp3
 70
     1
102
RTVSPropertyOp4
 70
     1
102
RTVSPropertyOp5
 70
     1
102
RTVSPropertyOp6
 70
     1
102
RTVSPropertyOp7
 70
     1
102
RTVSPropertyOp8
 70
     1
102
RTVSPropertyOp9
 70
     1
102
RTVSPropertyOp10
 70
     1
102
RTVSPropertyOp11
 70
     1
102
RTVSPropertyOp12
 70
     1
102
RTVSPropertyOp13
 70
     1
102
RTVSPropertyOp14
 70
     1
102
RTVSPropertyOp15
 70
     1
102
RTVSPropertyOp16
 70
     1
102
RTVSPropertyOp17
 70
     1
102
RTVSPropertyOp18
 70
     1
102
RTVSPropertyOp19
 70
     1
102
RTVSPropertyOp20
 70
     1
102
RTVSPropertyOp21
 70
     1
102
RTVSPropertyOp22
 70
     1
102
RTVSPropertyOp23
 70
     1
102
RTVSPropertyOp24
 70
     1
102
RTVSPropertyOp25
 70
     1
102
RTVSPropertyOp26
 70
     1
102
RTVSPropertyOp27
 70
     1
  0
XRECORD
  5
3CC
102
{ACAD_REACTORS
330
3CB
102
}
330
3CB
100
AcDbXrecord
280
     1
102
RTVSPropertyOp0
 70
     1
102
RTVSPropertyOp1
 70
     1
102
RTVSPropertyOp2
 70
     1
102
RTVSPropertyOp3
 70
     1
102
RTVSPropertyOp4
 70
     1
102
RTVSPropertyOp5
 70
     1
102
RTVSPropertyOp6
 70
     1
102
RTVSPropertyOp7
 70
     1
102
RTVSPropertyOp8
 70
     1
102
RTVSPropertyOp9
 70
     1
102
RTVSPropertyOp10
 70
     1
102
RTVSPropertyOp11
 70
     1
102
RTVSPropertyOp12
 70
     1
102
RTVSPropertyOp13
 70
     1
102
RTVSPropertyOp14
 70
     1
102
RTVSPropertyOp15
 70
     1
102
RTVSPropertyOp16
 70
     1
102
RTVSPropertyOp17
 70
     1
102
RTVSPropertyOp18
 70
     1
102
RTVSPropertyOp19
 70
     1
102
RTVSPropertyOp20
 70
     1
102
RTVSPropertyOp21
 70
     1
102
RTVSPropertyOp22
 70
     1
102
RTVSPropertyOp23
 70
     1
102
RTVSPropertyOp24
 70
     1
102
RTVSPropertyOp25
 70
     1
102
RTVSPropertyOp26
 70
     1
102
RTVSPropertyOp27
 70
     1
  0
XRECORD
  5
3C2
102
{ACAD_REACTORS
330
3C1
102
}
330
3C1
100
AcDbXrecord
280
     1
102
RTVSPropertyOp0
 70
     1
102
RTVSPropertyOp1
 70
     1
102
RTVSPropertyOp2
 70
     1
102
RTVSPropertyOp3
 70
     1
102
RTVSPropertyOp4
 70
     1
102
RTVSPropertyOp5
 70
     1
102
RTVSPropertyOp6
 70
     1
102
RTVSPropertyOp7
 70
     1
102
RTVSPropertyOp8
 70
     1
102
RTVSPropertyOp9
 70
     1
102
RTVSPropertyOp10
 70
     1
102
RTVSPropertyOp11
 70
     1
102
RTVSPropertyOp12
 70
     1
102
RTVSPropertyOp13
 70
     1
102
RTVSPropertyOp14
 70
     1
102
RTVSPropertyOp15
 70
     1
102
RTVSPropertyOp16
 70
     1
102
RTVSPropertyOp17
 70
     1
102
RTVSPropertyOp18
 70
     1
102
RTVSPropertyOp19
 70
     1
102
RTVSPropertyOp20
 70
     1
102
RTVSPropertyOp21
 70
     1
102
RTVSPropertyOp22
 70
     1
102
RTVSPropertyOp23
 70
     1
102
RTVSPropertyOp24
 70
     1
102
RTVSPropertyOp25
 70
     1
102
RTVSPropertyOp26
 70
     1
102
RTVSPropertyOp27
 70
     1
  0
XRECORD
  5
3CA
102
{ACAD_REACTORS
330
3C9
102
}
330
3C9
100
AcDbXrecord
280
     1
102
RTVSPropertyOp0
 70
     1
102
RTVSPropertyOp1
 70
     1
102
RTVSPropertyOp2
 70
     1
102
RTVSPropertyOp3
 70
     1
102
RTVSPropertyOp4
 70
     1
102
RTVSPropertyOp5
 70
     1
102
RTVSPropertyOp6
 70
     1
102
RTVSPropertyOp7
 70
     1
102
RTVSPropertyOp8
 70
     1
102
RTVSPropertyOp9
 70
     1
102
RTVSPropertyOp10
 70
     1
102
RTVSPropertyOp11
 70
     1
102
RTVSPropertyOp12
 70
     1
102
RTVSPropertyOp13
 70
     1
102
RTVSPropertyOp14
 70
     1
102
RTVSPropertyOp15
 70
     1
102
RTVSPropertyOp16
 70
     1
102
RTVSPropertyOp17
 70
     1
102
RTVSPropertyOp18
 70
     1
102
RTVSPropertyOp19
 70
     1
102
RTVSPropertyOp20
 70
     1
102
RTVSPropertyOp21
 70
     1
102
RTVSPropertyOp22
 70
     1
102
RTVSPropertyOp23
 70
     1
102
RTVSPropertyOp24
 70
     1
102
RTVSPropertyOp25
 70
     1
102
RTVSPropertyOp26
 70
     1
102
RTVSPropertyOp27
 70
     1
  0
ENDSEC
  0
EOF
