  0
SECTION
  2
HEADER
  9
$ACADVER
  1
AC1014
  9
$ACADMAINTVER
 70
     9
  9
$DWGCODEPAGE
  3
ANSI_1252
  9
$INSBASE
 10
0.0
 20
0.0
 30
0.0
  9
$EXTMIN
 10
40.45768094512435
 20
27.42421259842519
 30
0.0
  9
$EXTMAX
 10
53.60729396488414
 20
41.82284379386771
 30
0.0
  9
$LIMMIN
 10
0.0
 20
0.0
  9
$LIMMAX
 10
12.0
 20
9.0
  9
$ORTHOMODE
 70
     0
  9
$REGENMODE
 70
     1
  9
$FILLMODE
 70
     1
  9
$QTEXTMODE
 70
     0
  9
$MIRRTEXT
 70
     1
  9
$DRAGMODE
 70
     2
  9
$LTSCALE
 40
1.0
  9
$OSMODE
 70
    37
  9
$ATTMODE
 70
     1
  9
$TEXTSIZE
 40
0.2
  9
$TRACEWID
 40
0.05
  9
$TEXTSTYLE
  7
STANDARD
  9
$CLAYER
  8
0
  9
$CELTYPE
  6
BYLAYER
  9
$CECOLOR
 62
   256
  9
$CELTSCALE
 40
1.0
  9
$DELOBJ
 70
     1
  9
$DISPSILH
 70
     0
  9
$DIMSCALE
 40
1.0
  9
$DIMASZ
 40
0.18
  9
$DIMEXO
 40
0.0625
  9
$DIMDLI
 40
0.38
  9
$DIMRND
 40
0.0
  9
$DIMDLE
 40
0.0
  9
$DIMEXE
 40
0.18
  9
$DIMTP
 40
0.0
  9
$DIMTM
 40
0.0
  9
$DIMTXT
 40
0.18
  9
$DIMCEN
 40
0.09
  9
$DIMTSZ
 40
0.0
  9
$DIMTOL
 70
     0
  9
$DIMLIM
 70
     0
  9
$DIMTIH
 70
     1
  9
$DIMTOH
 70
     1
  9
$DIMSE1
 70
     0
  9
$DIMSE2
 70
     0
  9
$DIMTAD
 70
     0
  9
$DIMZIN
 70
     0
  9
$DIMBLK
  1

  9
$DIMASO
 70
     1
  9
$DIMSHO
 70
     1
  9
$DIMPOST
  1

  9
$DIMAPOST
  1

  9
$DIMALT
 70
     0
  9
$DIMALTD
 70
     2
  9
$DIMALTF
 40
25.4
  9
$DIMLFAC
 40
1.0
  9
$DIMTOFL
 70
     0
  9
$DIMTVP
 40
0.0
  9
$DIMTIX
 70
     0
  9
$DIMSOXD
 70
     0
  9
$DIMSAH
 70
     0
  9
$DIMBLK1
  1

  9
$DIMBLK2
  1

  9
$DIMSTYLE
  2
STANDARD
  9
$DIMCLRD
 70
     0
  9
$DIMCLRE
 70
     0
  9
$DIMCLRT
 70
     0
  9
$DIMTFAC
 40
1.0
  9
$DIMGAP
 40
0.09
  9
$DIMJUST
 70
     0
  9
$DIMSD1
 70
     0
  9
$DIMSD2
 70
     0
  9
$DIMTOLJ
 70
     1
  9
$DIMTZIN
 70
     0
  9
$DIMALTZ
 70
     0
  9
$DIMALTTZ
 70
     0
  9
$DIMFIT
 70
     5
  9
$DIMUPT
 70
     0
  9
$DIMUNIT
 70
     2
  9
$DIMDEC
 70
     4
  9
$DIMTDEC
 70
     4
  9
$DIMALTU
 70
     2
  9
$DIMALTTD
 70
     2
  9
$DIMTXSTY
  7
STANDARD
  9
$DIMAUNIT
 70
     0
  9
$LUNITS
 70
     2
  9
$LUPREC
 70
     4
  9
$SKETCHINC
 40
0.1
  9
$FILLETRAD
 40
0.0
  9
$AUNITS
 70
     0
  9
$AUPREC
 70
     0
  9
$MENU
  1
acad
  9
$ELEVATION
 40
0.0
  9
$PELEVATION
 40
0.0
  9
$THICKNESS
 40
0.0
  9
$LIMCHECK
 70
     0
  9
$BLIPMODE
 70
     0
  9
$CHAMFERA
 40
0.0
  9
$CHAMFERB
 40
0.0
  9
$CHAMFERC
 40
0.0
  9
$CHAMFERD
 40
0.0
  9
$SKPOLY
 70
     0
  9
$TDCREATE
 40
2453146.605115740
  9
$TDUPDATE
 40
2453146.606676470
  9
$TDINDWG
 40
0.0012257639
  9
$TDUSRTIMER
 40
0.0012257639
  9
$USRTIMER
 70
     1
  9
$ANGBASE
 50
0.0
  9
$ANGDIR
 70
     0
  9
$PDMODE
 70
     0
  9
$PDSIZE
 40
0.0
  9
$PLINEWID
 40
0.0
  9
$COORDS
 70
     1
  9
$SPLFRAME
 70
     0
  9
$SPLINETYPE
 70
     6
  9
$SPLINESEGS
 70
     8
  9
$ATTDIA
 70
     0
  9
$ATTREQ
 70
     1
  9
$HANDLING
 70
-16383
  9
$HANDSEED
  5
D3E
  9
$SURFTAB1
 70
     6
  9
$SURFTAB2
 70
     6
  9
$SURFTYPE
 70
     6
  9
$SURFU
 70
     6
  9
$SURFV
 70
     6
  9
$UCSNAME
  2

  9
$UCSORG
 10
0.0
 20
0.0
 30
0.0
  9
$UCSXDIR
 10
1.0
 20
0.0
 30
0.0
  9
$UCSYDIR
 10
0.0
 20
1.0
 30
0.0
  9
$PUCSNAME
  2

  9
$PUCSORG
 10
0.0
 20
0.0
 30
0.0
  9
$PUCSXDIR
 10
1.0
 20
0.0
 30
0.0
  9
$PUCSYDIR
 10
0.0
 20
1.0
 30
0.0
  9
$USERI1
 70
     0
  9
$USERI2
 70
     0
  9
$USERI3
 70
     0
  9
$USERI4
 70
     0
  9
$USERI5
 70
     0
  9
$USERR1
 40
0.0
  9
$USERR2
 40
0.0
  9
$USERR3
 40
0.0
  9
$USERR4
 40
0.0
  9
$USERR5
 40
0.0
  9
$WORLDVIEW
 70
     1
  9
$SHADEDGE
 70
     3
  9
$SHADEDIF
 70
    70
  9
$TILEMODE
 70
     1
  9
$MAXACTVP
 70
    16
  9
$PINSBASE
 10
0.0
 20
0.0
 30
0.0
  9
$PLIMCHECK
 70
     0
  9
$PEXTMIN
 10
1.000000000000000E+20
 20
1.000000000000000E+20
 30
1.000000000000000E+20
  9
$PEXTMAX
 10
-1.000000000000000E+20
 20
-1.000000000000000E+20
 30
-1.000000000000000E+20
  9
$PLIMMIN
 10
0.0
 20
0.0
  9
$PLIMMAX
 10
12.0
 20
9.0
  9
$UNITMODE
 70
     0
  9
$VISRETAIN
 70
     0
  9
$PLINEGEN
 70
     0
  9
$PSLTSCALE
 70
     1
  9
$TREEDEPTH
 70
  3020
  9
$PICKSTYLE
 70
     1
  9
$CMLSTYLE
  2
STANDARD
  9
$CMLJUST
 70
     0
  9
$CMLSCALE
 40
1.0
  9
$PROXYGRAPHICS
 70
     1
  9
$MEASUREMENT
 70
     0
  0
ENDSEC
  0
SECTION
  2
CLASSES
  0
CLASS
  1
ACDBDICTIONARYWDFLT
  2
AcDbDictionaryWithDefault
  3
AutoCAD 2000
 90
        0
280
     0
281
     0
  0
CLASS
  1
ACDBPLACEHOLDER
  2
AcDbPlaceHolder
  3
AutoCAD 2000
 90
        0
280
     0
281
     0
  0
CLASS
  1
LAYOUT
  2
AcDbLayout
  3
AutoCAD 2000
 90
        0
280
     0
281
     0
  0
CLASS
  1
LONG_TRANSACTION
  2
AcDbLongTransaction
  3
AutoCAD 2000
 90
        0
280
     0
281
     0
  0
CLASS
  1
LWPOLYLINE
  2
AcDbPolyline
  3
AutoCAD 2000
 90
        0
280
     0
281
     1
  0
CLASS
  1
HATCH
  2
AcDbHatch
  3
AutoCAD 2000
 90
        0
280
     0
281
     1
  0
CLASS
  1
XRECORD
  2
AcDbXrecord
  3
AutoCAD 2000
 90
        0
280
     0
281
     0
  0
ENDSEC
  0
SECTION
  2
TABLES
  0
TABLE
  2
VPORT
  5
8
330
0
100
AcDbSymbolTable
 70
     3
  0
VPORT
  5
D18
330
8
100
AcDbSymbolTableRecord
100
AcDbViewportTableRecord
  2
*ACTIVE
 70
     0
 10
0.0
 20
0.0
 11
1.0
 21
1.0
 12
47.03248745500424
 22
34.62352819614645
 13
0.0
 23
0.0
 14
1.0
 24
1.0
 15
0.0
 25
0.0
 16
0.0
 26
0.0
 36
1.0
 17
0.0
 27
0.0
 37
0.0
 40
14.51382024500604
 41
1.56475300400534
 42
50.0
 43
0.0
 44
0.0
 50
0.0
 51
0.0
 71
     0
 72
   100
 73
     1
 74
     1
 75
     0
 76
     0
 77
     0
 78
     0
  0
ENDTAB
  0
TABLE
  2
LTYPE
  5
5
330
0
100
AcDbSymbolTable
 70
    25
  0
LTYPE
  5
13
330
5
100
AcDbSymbolTableRecord
100
AcDbLinetypeTableRecord
  2
BYBLOCK
 70
     0
  3

 72
    65
 73
     0
 40
0.0
  0
LTYPE
  5
14
330
5
100
AcDbSymbolTableRecord
100
AcDbLinetypeTableRecord
  2
BYLAYER
 70
     0
  3

 72
    65
 73
     0
 40
0.0
  0
LTYPE
  5
15
330
5
100
AcDbSymbolTableRecord
100
AcDbLinetypeTableRecord
  2
CONTINUOUS
 70
     0
  3
Solid line
 72
    65
 73
     0
 40
0.0
  0
LTYPE
  5
22
330
5
100
AcDbSymbolTableRecord
100
AcDbLinetypeTableRecord
  2
BORDER
 70
     0
  3
__ __ . __ __ . __ __ . __ __ . __ __ . __ __ .
 72
    65
 73
     6
 40
1.75
 49
0.5
 74
     0
 49
-0.25
 74
     0
 49
0.5
 74
     0
 49
-0.25
 74
     0
 49
0.5
 74
     0
 49
-0.25
 74
     0
  0
LTYPE
  5
23
330
5
100
AcDbSymbolTableRecord
100
AcDbLinetypeTableRecord
  2
BORDER2
 70
     0
  3
__.__.__.__.__.__.__.__.__.__.__.__.__.__.__.__
 72
    65
 73
     6
 40
0.875
 49
0.25
 74
     0
 49
-0.125
 74
     0
 49
0.25
 74
     0
 49
-0.125
 74
     0
 49
0.25
 74
     0
 49
-0.125
 74
     0
  0
LTYPE
  5
24
330
5
100
AcDbSymbolTableRecord
100
AcDbLinetypeTableRecord
  2
BORDERX2
 70
     0
  3
____  ____  .  ____  ____  .  
 72
    65
 73
     6
 40
3.5
 49
1.0
 74
     0
 49
-0.5
 74
     0
 49
1.0
 74
     0
 49
-0.5
 74
     0
 49
1.0
 74
     0
 49
-0.5
 74
     0
  0
LTYPE
  5
25
330
5
100
AcDbSymbolTableRecord
100
AcDbLinetypeTableRecord
  2
CENTER
 70
     0
  3
____ _ ____ _ ____ _ ____ _ ____ _ ____ _ ____
 72
    65
 73
     4
 40
2.0
 49
1.25
 74
     0
 49
-0.25
 74
     0
 49
0.25
 74
     0
 49
-0.25
 74
     0
  0
LTYPE
  5
26
330
5
100
AcDbSymbolTableRecord
100
AcDbLinetypeTableRecord
  2
CENTER2
 70
     0
  3
____ _ ____ _ ____ _ ____ _ ____ _ ____ _ ____
 72
    65
 73
     4
 40
1.125
 49
0.75
 74
     0
 49
-0.125
 74
     0
 49
0.125
 74
     0
 49
-0.125
 74
     0
  0
LTYPE
  5
27
330
5
100
AcDbSymbolTableRecord
100
AcDbLinetypeTableRecord
  2
CENTERX2
 70
     0
  3
________  __  ________  __  ________  __  
 72
    65
 73
     4
 40
4.0
 49
2.5
 74
     0
 49
-0.5
 74
     0
 49
0.5
 74
     0
 49
-0.5
 74
     0
  0
LTYPE
  5
28
330
5
100
AcDbSymbolTableRecord
100
AcDbLinetypeTableRecord
  2
DASHDOT
 70
     0
  3
__ . __ . __ . __ . __ . __ . __ . 
 72
    65
 73
     4
 40
1.0
 49
0.5
 74
     0
 49
-0.25
 74
     0
 49
0.0
 74
     0
 49
-0.25
 74
     0
  0
LTYPE
  5
29
330
5
100
AcDbSymbolTableRecord
100
AcDbLinetypeTableRecord
  2
DASHDOT2
 70
     0
  3
_._._._._._._._._._._._._._._._.
 72
    65
 73
     4
 40
0.5
 49
0.25
 74
     0
 49
-0.125
 74
     0
 49
0.0
 74
     0
 49
-0.125
 74
     0
  0
LTYPE
  5
2A
330
5
100
AcDbSymbolTableRecord
100
AcDbLinetypeTableRecord
  2
DASHDOTX2
 70
     0
  3
____  .  ____  .  ____  .  ____  .  
 72
    65
 73
     4
 40
2.0
 49
1.0
 74
     0
 49
-0.5
 74
     0
 49
0.0
 74
     0
 49
-0.5
 74
     0
  0
LTYPE
  5
2B
330
5
100
AcDbSymbolTableRecord
100
AcDbLinetypeTableRecord
  2
DASHED
 70
     0
  3
__ __ __ __ __ __ __ __ __ __ __ __ 
 72
    65
 73
     2
 40
0.75
 49
0.5
 74
     0
 49
-0.25
 74
     0
  0
LTYPE
  5
2C
330
5
100
AcDbSymbolTableRecord
100
AcDbLinetypeTableRecord
  2
DASHED2
 70
     0
  3
_ _ _ _ _ _ _ _ _ _ _ _ _ _ _ _ _ _ 
 72
    65
 73
     2
 40
0.375
 49
0.25
 74
     0
 49
-0.125
 74
     0
  0
LTYPE
  5
2D
330
5
100
AcDbSymbolTableRecord
100
AcDbLinetypeTableRecord
  2
DASHEDX2
 70
     0
  3
____  ____  ____  ____  ____  ____  
 72
    65
 73
     2
 40
1.5
 49
1.0
 74
     0
 49
-0.5
 74
     0
  0
LTYPE
  5
2E
330
5
100
AcDbSymbolTableRecord
100
AcDbLinetypeTableRecord
  2
DIVIDE
 70
     0
  3
____ . . ____ . . ____ . . ____ . . 
 72
    65
 73
     6
 40
1.25
 49
0.5
 74
     0
 49
-0.25
 74
     0
 49
0.0
 74
     0
 49
-0.25
 74
     0
 49
0.0
 74
     0
 49
-0.25
 74
     0
  0
LTYPE
  5
2F
330
5
100
AcDbSymbolTableRecord
100
AcDbLinetypeTableRecord
  2
DIVIDE2
 70
     0
  3
__..__..__..__..__..__..__..__..__..
 72
    65
 73
     6
 40
0.625
 49
0.25
 74
     0
 49
-0.125
 74
     0
 49
0.0
 74
     0
 49
-0.125
 74
     0
 49
0.0
 74
     0
 49
-0.125
 74
     0
  0
LTYPE
  5
30
330
5
100
AcDbSymbolTableRecord
100
AcDbLinetypeTableRecord
  2
DIVIDEX2
 70
     0
  3
________  .  .  ________  .  .  ________  .  . 
 72
    65
 73
     6
 40
2.5
 49
1.0
 74
     0
 49
-0.5
 74
     0
 49
0.0
 74
     0
 49
-0.5
 74
     0
 49
0.0
 74
     0
 49
-0.5
 74
     0
  0
LTYPE
  5
31
330
5
100
AcDbSymbolTableRecord
100
AcDbLinetypeTableRecord
  2
DOT
 70
     0
  3
. . . . . . . . . . . . . . . . . . 
 72
    65
 73
     2
 40
0.25
 49
0.0
 74
     0
 49
-0.25
 74
     0
  0
LTYPE
  5
32
330
5
100
AcDbSymbolTableRecord
100
AcDbLinetypeTableRecord
  2
DOT2
 70
     0
  3
....................................
 72
    65
 73
     2
 40
0.125
 49
0.0
 74
     0
 49
-0.125
 74
     0
  0
LTYPE
  5
33
330
5
100
AcDbSymbolTableRecord
100
AcDbLinetypeTableRecord
  2
DOTX2
 70
     0
  3
.  .  .  .  .  .  .  .  .  .  .  .  .  
 72
    65
 73
     2
 40
0.5
 49
0.0
 74
     0
 49
-0.5
 74
     0
  0
LTYPE
  5
34
330
5
100
AcDbSymbolTableRecord
100
AcDbLinetypeTableRecord
  2
HIDDEN
 70
     0
  3
__ __ __ __ __ __ __ __ __ __ __ __ 
 72
    65
 73
     2
 40
0.375
 49
0.25
 74
     0
 49
-0.125
 74
     0
  0
LTYPE
  5
35
330
5
100
AcDbSymbolTableRecord
100
AcDbLinetypeTableRecord
  2
HIDDEN2
 70
     0
  3
_ _ _ _ _ _ _ _ _ _ _ _ _ _ _ _ _ _ 
 72
    65
 73
     2
 40
0.1875
 49
0.125
 74
     0
 49
-0.0625
 74
     0
  0
LTYPE
  5
36
330
5
100
AcDbSymbolTableRecord
100
AcDbLinetypeTableRecord
  2
HIDDENX2
 70
     0
  3
____ ____ ____ ____ ____ ____ ____ 
 72
    65
 73
     2
 40
0.75
 49
0.5
 74
     0
 49
-0.25
 74
     0
  0
LTYPE
  5
37
330
5
100
AcDbSymbolTableRecord
100
AcDbLinetypeTableRecord
  2
PHANTOM
 70
     0
  3
______  __  __  ______  __  __  
 72
    65
 73
     6
 40
2.5
 49
1.25
 74
     0
 49
-0.25
 74
     0
 49
0.25
 74
     0
 49
-0.25
 74
     0
 49
0.25
 74
     0
 49
-0.25
 74
     0
  0
LTYPE
  5
38
330
5
100
AcDbSymbolTableRecord
100
AcDbLinetypeTableRecord
  2
PHANTOM2
 70
     0
  3
___ _ _ ___ _ _ ___ _ _ ___ _ _ 
 72
    65
 73
     6
 40
1.25
 49
0.625
 74
     0
 49
-0.125
 74
     0
 49
0.125
 74
     0
 49
-0.125
 74
     0
 49
0.125
 74
     0
 49
-0.125
 74
     0
  0
LTYPE
  5
39
330
5
100
AcDbSymbolTableRecord
100
AcDbLinetypeTableRecord
  2
PHANTOMX2
 70
     0
  3
___ _ _ ___ _ _ ___ _ _ ___ _ _ 
 72
    65
 73
     6
 40
5.0
 49
2.5
 74
     0
 49
-0.5
 74
     0
 49
0.5
 74
     0
 49
-0.5
 74
     0
 49
0.5
 74
     0
 49
-0.5
 74
     0
  0
ENDTAB
  0
TABLE
  2
LAYER
  5
2
330
0
100
AcDbSymbolTable
 70
   256
  0
LAYER
  5
10
330
2
100
AcDbSymbolTableRecord
100
AcDbLayerTableRecord
  2
0
 70
     0
 62
     7
  6
CONTINUOUS
  0
LAYER
  5
3A
330
2
100
AcDbSymbolTableRecord
100
AcDbLayerTableRecord
  2
1
 70
     0
 62
     1
  6
CONTINUOUS
  0
LAYER
  5
3B
330
2
100
AcDbSymbolTableRecord
100
AcDbLayerTableRecord
  2
2
 70
     0
 62
     2
  6
CONTINUOUS
  0
LAYER
  5
3C
330
2
100
AcDbSymbolTableRecord
100
AcDbLayerTableRecord
  2
3
 70
     0
 62
     3
  6
CONTINUOUS
  0
LAYER
  5
3D
330
2
100
AcDbSymbolTableRecord
100
AcDbLayerTableRecord
  2
4
 70
     0
 62
     4
  6
CONTINUOUS
  0
LAYER
  5
3E
330
2
100
AcDbSymbolTableRecord
100
AcDbLayerTableRecord
  2
5
 70
     0
 62
     5
  6
CONTINUOUS
  0
LAYER
  5
3F
330
2
100
AcDbSymbolTableRecord
100
AcDbLayerTableRecord
  2
6
 70
     0
 62
     6
  6
CONTINUOUS
  0
LAYER
  5
40
330
2
100
AcDbSymbolTableRecord
100
AcDbLayerTableRecord
  2
7
 70
     0
 62
     7
  6
CONTINUOUS
  0
LAYER
  5
41
330
2
100
AcDbSymbolTableRecord
100
AcDbLayerTableRecord
  2
8
 70
     0
 62
     8
  6
CONTINUOUS
  0
LAYER
  5
42
330
2
100
AcDbSymbolTableRecord
100
AcDbLayerTableRecord
  2
9
 70
     0
 62
     9
  6
CONTINUOUS
  0
LAYER
  5
43
330
2
100
AcDbSymbolTableRecord
100
AcDbLayerTableRecord
  2
10
 70
     0
 62
    10
  6
CONTINUOUS
  0
LAYER
  5
44
330
2
100
AcDbSymbolTableRecord
100
AcDbLayerTableRecord
  2
11
 70
     0
 62
    11
  6
CONTINUOUS
  0
LAYER
  5
45
330
2
100
AcDbSymbolTableRecord
100
AcDbLayerTableRecord
  2
12
 70
     0
 62
    12
  6
CONTINUOUS
  0
LAYER
  5
46
330
2
100
AcDbSymbolTableRecord
100
AcDbLayerTableRecord
  2
13
 70
     0
 62
    13
  6
CONTINUOUS
  0
LAYER
  5
47
330
2
100
AcDbSymbolTableRecord
100
AcDbLayerTableRecord
  2
14
 70
     0
 62
    14
  6
CONTINUOUS
  0
LAYER
  5
48
330
2
100
AcDbSymbolTableRecord
100
AcDbLayerTableRecord
  2
15
 70
     0
 62
    15
  6
CONTINUOUS
  0
LAYER
  5
49
330
2
100
AcDbSymbolTableRecord
100
AcDbLayerTableRecord
  2
16
 70
     0
 62
    16
  6
CONTINUOUS
  0
LAYER
  5
4A
330
2
100
AcDbSymbolTableRecord
100
AcDbLayerTableRecord
  2
17
 70
     0
 62
    17
  6
CONTINUOUS
  0
LAYER
  5
4B
330
2
100
AcDbSymbolTableRecord
100
AcDbLayerTableRecord
  2
18
 70
     0
 62
    18
  6
CONTINUOUS
  0
LAYER
  5
4C
330
2
100
AcDbSymbolTableRecord
100
AcDbLayerTableRecord
  2
19
 70
     0
 62
    19
  6
CONTINUOUS
  0
LAYER
  5
4D
330
2
100
AcDbSymbolTableRecord
100
AcDbLayerTableRecord
  2
20
 70
     0
 62
    20
  6
CONTINUOUS
  0
LAYER
  5
4E
330
2
100
AcDbSymbolTableRecord
100
AcDbLayerTableRecord
  2
21
 70
     0
 62
    21
  6
CONTINUOUS
  0
LAYER
  5
4F
330
2
100
AcDbSymbolTableRecord
100
AcDbLayerTableRecord
  2
22
 70
     0
 62
    22
  6
CONTINUOUS
  0
LAYER
  5
50
330
2
100
AcDbSymbolTableRecord
100
AcDbLayerTableRecord
  2
23
 70
     0
 62
    23
  6
CONTINUOUS
  0
LAYER
  5
51
330
2
100
AcDbSymbolTableRecord
100
AcDbLayerTableRecord
  2
24
 70
     0
 62
    24
  6
CONTINUOUS
  0
LAYER
  5
52
330
2
100
AcDbSymbolTableRecord
100
AcDbLayerTableRecord
  2
25
 70
     0
 62
    25
  6
CONTINUOUS
  0
LAYER
  5
53
330
2
100
AcDbSymbolTableRecord
100
AcDbLayerTableRecord
  2
26
 70
     0
 62
    26
  6
CONTINUOUS
  0
LAYER
  5
54
330
2
100
AcDbSymbolTableRecord
100
AcDbLayerTableRecord
  2
27
 70
     0
 62
    27
  6
CONTINUOUS
  0
LAYER
  5
55
330
2
100
AcDbSymbolTableRecord
100
AcDbLayerTableRecord
  2
28
 70
     0
 62
    28
  6
CONTINUOUS
  0
LAYER
  5
56
330
2
100
AcDbSymbolTableRecord
100
AcDbLayerTableRecord
  2
29
 70
     0
 62
    29
  6
CONTINUOUS
  0
LAYER
  5
57
330
2
100
AcDbSymbolTableRecord
100
AcDbLayerTableRecord
  2
30
 70
     0
 62
    30
  6
CONTINUOUS
  0
LAYER
  5
58
330
2
100
AcDbSymbolTableRecord
100
AcDbLayerTableRecord
  2
31
 70
     0
 62
    31
  6
CONTINUOUS
  0
LAYER
  5
59
330
2
100
AcDbSymbolTableRecord
100
AcDbLayerTableRecord
  2
32
 70
     0
 62
    32
  6
CONTINUOUS
  0
LAYER
  5
5A
330
2
100
AcDbSymbolTableRecord
100
AcDbLayerTableRecord
  2
33
 70
     0
 62
    33
  6
CONTINUOUS
  0
LAYER
  5
5B
330
2
100
AcDbSymbolTableRecord
100
AcDbLayerTableRecord
  2
34
 70
     0
 62
    34
  6
CONTINUOUS
  0
LAYER
  5
5C
330
2
100
AcDbSymbolTableRecord
100
AcDbLayerTableRecord
  2
35
 70
     0
 62
    35
  6
CONTINUOUS
  0
LAYER
  5
5D
330
2
100
AcDbSymbolTableRecord
100
AcDbLayerTableRecord
  2
36
 70
     0
 62
    36
  6
CONTINUOUS
  0
LAYER
  5
5E
330
2
100
AcDbSymbolTableRecord
100
AcDbLayerTableRecord
  2
37
 70
     0
 62
    37
  6
CONTINUOUS
  0
LAYER
  5
5F
330
2
100
AcDbSymbolTableRecord
100
AcDbLayerTableRecord
  2
38
 70
     0
 62
    38
  6
CONTINUOUS
  0
LAYER
  5
60
330
2
100
AcDbSymbolTableRecord
100
AcDbLayerTableRecord
  2
39
 70
     0
 62
    39
  6
CONTINUOUS
  0
LAYER
  5
61
330
2
100
AcDbSymbolTableRecord
100
AcDbLayerTableRecord
  2
40
 70
     0
 62
    40
  6
CONTINUOUS
  0
LAYER
  5
62
330
2
100
AcDbSymbolTableRecord
100
AcDbLayerTableRecord
  2
41
 70
     0
 62
    41
  6
CONTINUOUS
  0
LAYER
  5
63
330
2
100
AcDbSymbolTableRecord
100
AcDbLayerTableRecord
  2
42
 70
     0
 62
    42
  6
CONTINUOUS
  0
LAYER
  5
64
330
2
100
AcDbSymbolTableRecord
100
AcDbLayerTableRecord
  2
43
 70
     0
 62
    43
  6
CONTINUOUS
  0
LAYER
  5
65
330
2
100
AcDbSymbolTableRecord
100
AcDbLayerTableRecord
  2
44
 70
     0
 62
    44
  6
CONTINUOUS
  0
LAYER
  5
66
330
2
100
AcDbSymbolTableRecord
100
AcDbLayerTableRecord
  2
45
 70
     0
 62
    45
  6
CONTINUOUS
  0
LAYER
  5
67
330
2
100
AcDbSymbolTableRecord
100
AcDbLayerTableRecord
  2
46
 70
     0
 62
    46
  6
CONTINUOUS
  0
LAYER
  5
68
330
2
100
AcDbSymbolTableRecord
100
AcDbLayerTableRecord
  2
47
 70
     0
 62
    47
  6
CONTINUOUS
  0
LAYER
  5
69
330
2
100
AcDbSymbolTableRecord
100
AcDbLayerTableRecord
  2
48
 70
     0
 62
    48
  6
CONTINUOUS
  0
LAYER
  5
6A
330
2
100
AcDbSymbolTableRecord
100
AcDbLayerTableRecord
  2
49
 70
     0
 62
    49
  6
CONTINUOUS
  0
LAYER
  5
6B
330
2
100
AcDbSymbolTableRecord
100
AcDbLayerTableRecord
  2
50
 70
     0
 62
    50
  6
CONTINUOUS
  0
LAYER
  5
6C
330
2
100
AcDbSymbolTableRecord
100
AcDbLayerTableRecord
  2
51
 70
     0
 62
    51
  6
CONTINUOUS
  0
LAYER
  5
6D
330
2
100
AcDbSymbolTableRecord
100
AcDbLayerTableRecord
  2
52
 70
     0
 62
    52
  6
CONTINUOUS
  0
LAYER
  5
6E
330
2
100
AcDbSymbolTableRecord
100
AcDbLayerTableRecord
  2
53
 70
     0
 62
    53
  6
CONTINUOUS
  0
LAYER
  5
6F
330
2
100
AcDbSymbolTableRecord
100
AcDbLayerTableRecord
  2
54
 70
     0
 62
    54
  6
CONTINUOUS
  0
LAYER
  5
70
330
2
100
AcDbSymbolTableRecord
100
AcDbLayerTableRecord
  2
55
 70
     0
 62
    55
  6
CONTINUOUS
  0
LAYER
  5
71
330
2
100
AcDbSymbolTableRecord
100
AcDbLayerTableRecord
  2
56
 70
     0
 62
    56
  6
CONTINUOUS
  0
LAYER
  5
72
330
2
100
AcDbSymbolTableRecord
100
AcDbLayerTableRecord
  2
57
 70
     0
 62
    57
  6
CONTINUOUS
  0
LAYER
  5
73
330
2
100
AcDbSymbolTableRecord
100
AcDbLayerTableRecord
  2
58
 70
     0
 62
    58
  6
CONTINUOUS
  0
LAYER
  5
74
330
2
100
AcDbSymbolTableRecord
100
AcDbLayerTableRecord
  2
59
 70
     0
 62
    59
  6
CONTINUOUS
  0
LAYER
  5
75
330
2
100
AcDbSymbolTableRecord
100
AcDbLayerTableRecord
  2
60
 70
     0
 62
    60
  6
CONTINUOUS
  0
LAYER
  5
76
330
2
100
AcDbSymbolTableRecord
100
AcDbLayerTableRecord
  2
61
 70
     0
 62
    61
  6
CONTINUOUS
  0
LAYER
  5
77
330
2
100
AcDbSymbolTableRecord
100
AcDbLayerTableRecord
  2
62
 70
     0
 62
    62
  6
CONTINUOUS
  0
LAYER
  5
78
330
2
100
AcDbSymbolTableRecord
100
AcDbLayerTableRecord
  2
63
 70
     0
 62
    63
  6
CONTINUOUS
  0
LAYER
  5
79
330
2
100
AcDbSymbolTableRecord
100
AcDbLayerTableRecord
  2
64
 70
     0
 62
    64
  6
CONTINUOUS
  0
LAYER
  5
7A
330
2
100
AcDbSymbolTableRecord
100
AcDbLayerTableRecord
  2
65
 70
     0
 62
    65
  6
CONTINUOUS
  0
LAYER
  5
7B
330
2
100
AcDbSymbolTableRecord
100
AcDbLayerTableRecord
  2
66
 70
     0
 62
    66
  6
CONTINUOUS
  0
LAYER
  5
7C
330
2
100
AcDbSymbolTableRecord
100
AcDbLayerTableRecord
  2
67
 70
     0
 62
    67
  6
CONTINUOUS
  0
LAYER
  5
7D
330
2
100
AcDbSymbolTableRecord
100
AcDbLayerTableRecord
  2
68
 70
     0
 62
    68
  6
CONTINUOUS
  0
LAYER
  5
7E
330
2
100
AcDbSymbolTableRecord
100
AcDbLayerTableRecord
  2
69
 70
     0
 62
    69
  6
CONTINUOUS
  0
LAYER
  5
7F
330
2
100
AcDbSymbolTableRecord
100
AcDbLayerTableRecord
  2
70
 70
     0
 62
    70
  6
CONTINUOUS
  0
LAYER
  5
80
330
2
100
AcDbSymbolTableRecord
100
AcDbLayerTableRecord
  2
71
 70
     0
 62
    71
  6
CONTINUOUS
  0
LAYER
  5
81
330
2
100
AcDbSymbolTableRecord
100
AcDbLayerTableRecord
  2
72
 70
     0
 62
    72
  6
CONTINUOUS
  0
LAYER
  5
82
330
2
100
AcDbSymbolTableRecord
100
AcDbLayerTableRecord
  2
73
 70
     0
 62
    73
  6
CONTINUOUS
  0
LAYER
  5
83
330
2
100
AcDbSymbolTableRecord
100
AcDbLayerTableRecord
  2
74
 70
     0
 62
    74
  6
CONTINUOUS
  0
LAYER
  5
84
330
2
100
AcDbSymbolTableRecord
100
AcDbLayerTableRecord
  2
75
 70
     0
 62
    75
  6
CONTINUOUS
  0
LAYER
  5
85
330
2
100
AcDbSymbolTableRecord
100
AcDbLayerTableRecord
  2
76
 70
     0
 62
    76
  6
CONTINUOUS
  0
LAYER
  5
86
330
2
100
AcDbSymbolTableRecord
100
AcDbLayerTableRecord
  2
77
 70
     0
 62
    77
  6
CONTINUOUS
  0
LAYER
  5
87
330
2
100
AcDbSymbolTableRecord
100
AcDbLayerTableRecord
  2
78
 70
     0
 62
    78
  6
CONTINUOUS
  0
LAYER
  5
88
330
2
100
AcDbSymbolTableRecord
100
AcDbLayerTableRecord
  2
79
 70
     0
 62
    79
  6
CONTINUOUS
  0
LAYER
  5
89
330
2
100
AcDbSymbolTableRecord
100
AcDbLayerTableRecord
  2
80
 70
     0
 62
    80
  6
CONTINUOUS
  0
LAYER
  5
8A
330
2
100
AcDbSymbolTableRecord
100
AcDbLayerTableRecord
  2
81
 70
     0
 62
    81
  6
CONTINUOUS
  0
LAYER
  5
8B
330
2
100
AcDbSymbolTableRecord
100
AcDbLayerTableRecord
  2
82
 70
     0
 62
    82
  6
CONTINUOUS
  0
LAYER
  5
8C
330
2
100
AcDbSymbolTableRecord
100
AcDbLayerTableRecord
  2
83
 70
     0
 62
    83
  6
CONTINUOUS
  0
LAYER
  5
8D
330
2
100
AcDbSymbolTableRecord
100
AcDbLayerTableRecord
  2
84
 70
     0
 62
    84
  6
CONTINUOUS
  0
LAYER
  5
8E
330
2
100
AcDbSymbolTableRecord
100
AcDbLayerTableRecord
  2
85
 70
     0
 62
    85
  6
CONTINUOUS
  0
LAYER
  5
8F
330
2
100
AcDbSymbolTableRecord
100
AcDbLayerTableRecord
  2
86
 70
     0
 62
    86
  6
CONTINUOUS
  0
LAYER
  5
90
330
2
100
AcDbSymbolTableRecord
100
AcDbLayerTableRecord
  2
87
 70
     0
 62
    87
  6
CONTINUOUS
  0
LAYER
  5
91
330
2
100
AcDbSymbolTableRecord
100
AcDbLayerTableRecord
  2
88
 70
     0
 62
    88
  6
CONTINUOUS
  0
LAYER
  5
92
330
2
100
AcDbSymbolTableRecord
100
AcDbLayerTableRecord
  2
89
 70
     0
 62
    89
  6
CONTINUOUS
  0
LAYER
  5
93
330
2
100
AcDbSymbolTableRecord
100
AcDbLayerTableRecord
  2
90
 70
     0
 62
    90
  6
CONTINUOUS
  0
LAYER
  5
94
330
2
100
AcDbSymbolTableRecord
100
AcDbLayerTableRecord
  2
91
 70
     0
 62
    91
  6
CONTINUOUS
  0
LAYER
  5
95
330
2
100
AcDbSymbolTableRecord
100
AcDbLayerTableRecord
  2
92
 70
     0
 62
    92
  6
CONTINUOUS
  0
LAYER
  5
96
330
2
100
AcDbSymbolTableRecord
100
AcDbLayerTableRecord
  2
93
 70
     0
 62
    93
  6
CONTINUOUS
  0
LAYER
  5
97
330
2
100
AcDbSymbolTableRecord
100
AcDbLayerTableRecord
  2
94
 70
     0
 62
    94
  6
CONTINUOUS
  0
LAYER
  5
98
330
2
100
AcDbSymbolTableRecord
100
AcDbLayerTableRecord
  2
95
 70
     0
 62
    95
  6
CONTINUOUS
  0
LAYER
  5
99
330
2
100
AcDbSymbolTableRecord
100
AcDbLayerTableRecord
  2
96
 70
     0
 62
    96
  6
CONTINUOUS
  0
LAYER
  5
9A
330
2
100
AcDbSymbolTableRecord
100
AcDbLayerTableRecord
  2
97
 70
     0
 62
    97
  6
CONTINUOUS
  0
LAYER
  5
9B
330
2
100
AcDbSymbolTableRecord
100
AcDbLayerTableRecord
  2
98
 70
     0
 62
    98
  6
CONTINUOUS
  0
LAYER
  5
9C
330
2
100
AcDbSymbolTableRecord
100
AcDbLayerTableRecord
  2
99
 70
     0
 62
    99
  6
CONTINUOUS
  0
LAYER
  5
9D
330
2
100
AcDbSymbolTableRecord
100
AcDbLayerTableRecord
  2
100
 70
     0
 62
   100
  6
CONTINUOUS
  0
LAYER
  5
9E
330
2
100
AcDbSymbolTableRecord
100
AcDbLayerTableRecord
  2
101
 70
     0
 62
   101
  6
CONTINUOUS
  0
LAYER
  5
9F
330
2
100
AcDbSymbolTableRecord
100
AcDbLayerTableRecord
  2
102
 70
     0
 62
   102
  6
CONTINUOUS
  0
LAYER
  5
A0
330
2
100
AcDbSymbolTableRecord
100
AcDbLayerTableRecord
  2
103
 70
     0
 62
   103
  6
CONTINUOUS
  0
LAYER
  5
A1
330
2
100
AcDbSymbolTableRecord
100
AcDbLayerTableRecord
  2
104
 70
     0
 62
   104
  6
CONTINUOUS
  0
LAYER
  5
A2
330
2
100
AcDbSymbolTableRecord
100
AcDbLayerTableRecord
  2
105
 70
     0
 62
   105
  6
CONTINUOUS
  0
LAYER
  5
A3
330
2
100
AcDbSymbolTableRecord
100
AcDbLayerTableRecord
  2
106
 70
     0
 62
   106
  6
CONTINUOUS
  0
LAYER
  5
A4
330
2
100
AcDbSymbolTableRecord
100
AcDbLayerTableRecord
  2
107
 70
     0
 62
   107
  6
CONTINUOUS
  0
LAYER
  5
A5
330
2
100
AcDbSymbolTableRecord
100
AcDbLayerTableRecord
  2
108
 70
     0
 62
   108
  6
CONTINUOUS
  0
LAYER
  5
A6
330
2
100
AcDbSymbolTableRecord
100
AcDbLayerTableRecord
  2
109
 70
     0
 62
   109
  6
CONTINUOUS
  0
LAYER
  5
A7
330
2
100
AcDbSymbolTableRecord
100
AcDbLayerTableRecord
  2
110
 70
     0
 62
   110
  6
CONTINUOUS
  0
LAYER
  5
A8
330
2
100
AcDbSymbolTableRecord
100
AcDbLayerTableRecord
  2
111
 70
     0
 62
   111
  6
CONTINUOUS
  0
LAYER
  5
A9
330
2
100
AcDbSymbolTableRecord
100
AcDbLayerTableRecord
  2
112
 70
     0
 62
   112
  6
CONTINUOUS
  0
LAYER
  5
AA
330
2
100
AcDbSymbolTableRecord
100
AcDbLayerTableRecord
  2
113
 70
     0
 62
   113
  6
CONTINUOUS
  0
LAYER
  5
AB
330
2
100
AcDbSymbolTableRecord
100
AcDbLayerTableRecord
  2
114
 70
     0
 62
   114
  6
CONTINUOUS
  0
LAYER
  5
AC
330
2
100
AcDbSymbolTableRecord
100
AcDbLayerTableRecord
  2
115
 70
     0
 62
   115
  6
CONTINUOUS
  0
LAYER
  5
AD
330
2
100
AcDbSymbolTableRecord
100
AcDbLayerTableRecord
  2
116
 70
     0
 62
   116
  6
CONTINUOUS
  0
LAYER
  5
AE
330
2
100
AcDbSymbolTableRecord
100
AcDbLayerTableRecord
  2
117
 70
     0
 62
   117
  6
CONTINUOUS
  0
LAYER
  5
AF
330
2
100
AcDbSymbolTableRecord
100
AcDbLayerTableRecord
  2
118
 70
     0
 62
   118
  6
CONTINUOUS
  0
LAYER
  5
B0
330
2
100
AcDbSymbolTableRecord
100
AcDbLayerTableRecord
  2
119
 70
     0
 62
   119
  6
CONTINUOUS
  0
LAYER
  5
B1
330
2
100
AcDbSymbolTableRecord
100
AcDbLayerTableRecord
  2
120
 70
     0
 62
   120
  6
CONTINUOUS
  0
LAYER
  5
B2
330
2
100
AcDbSymbolTableRecord
100
AcDbLayerTableRecord
  2
121
 70
     0
 62
   121
  6
CONTINUOUS
  0
LAYER
  5
B3
330
2
100
AcDbSymbolTableRecord
100
AcDbLayerTableRecord
  2
122
 70
     0
 62
   122
  6
CONTINUOUS
  0
LAYER
  5
B4
330
2
100
AcDbSymbolTableRecord
100
AcDbLayerTableRecord
  2
123
 70
     0
 62
   123
  6
CONTINUOUS
  0
LAYER
  5
B5
330
2
100
AcDbSymbolTableRecord
100
AcDbLayerTableRecord
  2
124
 70
     0
 62
   124
  6
CONTINUOUS
  0
LAYER
  5
B6
330
2
100
AcDbSymbolTableRecord
100
AcDbLayerTableRecord
  2
125
 70
     0
 62
   125
  6
CONTINUOUS
  0
LAYER
  5
B7
330
2
100
AcDbSymbolTableRecord
100
AcDbLayerTableRecord
  2
126
 70
     0
 62
   126
  6
CONTINUOUS
  0
LAYER
  5
B8
330
2
100
AcDbSymbolTableRecord
100
AcDbLayerTableRecord
  2
127
 70
     0
 62
   127
  6
CONTINUOUS
  0
LAYER
  5
B9
330
2
100
AcDbSymbolTableRecord
100
AcDbLayerTableRecord
  2
128
 70
     0
 62
   128
  6
CONTINUOUS
  0
LAYER
  5
BA
330
2
100
AcDbSymbolTableRecord
100
AcDbLayerTableRecord
  2
129
 70
     0
 62
   129
  6
CONTINUOUS
  0
LAYER
  5
BB
330
2
100
AcDbSymbolTableRecord
100
AcDbLayerTableRecord
  2
130
 70
     0
 62
   130
  6
CONTINUOUS
  0
LAYER
  5
BC
330
2
100
AcDbSymbolTableRecord
100
AcDbLayerTableRecord
  2
131
 70
     0
 62
   131
  6
CONTINUOUS
  0
LAYER
  5
BD
330
2
100
AcDbSymbolTableRecord
100
AcDbLayerTableRecord
  2
132
 70
     0
 62
   132
  6
CONTINUOUS
  0
LAYER
  5
BE
330
2
100
AcDbSymbolTableRecord
100
AcDbLayerTableRecord
  2
133
 70
     0
 62
   133
  6
CONTINUOUS
  0
LAYER
  5
BF
330
2
100
AcDbSymbolTableRecord
100
AcDbLayerTableRecord
  2
134
 70
     0
 62
   134
  6
CONTINUOUS
  0
LAYER
  5
C0
330
2
100
AcDbSymbolTableRecord
100
AcDbLayerTableRecord
  2
135
 70
     0
 62
   135
  6
CONTINUOUS
  0
LAYER
  5
C1
330
2
100
AcDbSymbolTableRecord
100
AcDbLayerTableRecord
  2
136
 70
     0
 62
   136
  6
CONTINUOUS
  0
LAYER
  5
C2
330
2
100
AcDbSymbolTableRecord
100
AcDbLayerTableRecord
  2
137
 70
     0
 62
   137
  6
CONTINUOUS
  0
LAYER
  5
C3
330
2
100
AcDbSymbolTableRecord
100
AcDbLayerTableRecord
  2
138
 70
     0
 62
   138
  6
CONTINUOUS
  0
LAYER
  5
C4
330
2
100
AcDbSymbolTableRecord
100
AcDbLayerTableRecord
  2
139
 70
     0
 62
   139
  6
CONTINUOUS
  0
LAYER
  5
C5
330
2
100
AcDbSymbolTableRecord
100
AcDbLayerTableRecord
  2
140
 70
     0
 62
   140
  6
CONTINUOUS
  0
LAYER
  5
C6
330
2
100
AcDbSymbolTableRecord
100
AcDbLayerTableRecord
  2
141
 70
     0
 62
   141
  6
CONTINUOUS
  0
LAYER
  5
C7
330
2
100
AcDbSymbolTableRecord
100
AcDbLayerTableRecord
  2
142
 70
     0
 62
   142
  6
CONTINUOUS
  0
LAYER
  5
C8
330
2
100
AcDbSymbolTableRecord
100
AcDbLayerTableRecord
  2
143
 70
     0
 62
   143
  6
CONTINUOUS
  0
LAYER
  5
C9
330
2
100
AcDbSymbolTableRecord
100
AcDbLayerTableRecord
  2
144
 70
     0
 62
   144
  6
CONTINUOUS
  0
LAYER
  5
CA
330
2
100
AcDbSymbolTableRecord
100
AcDbLayerTableRecord
  2
145
 70
     0
 62
   145
  6
CONTINUOUS
  0
LAYER
  5
CB
330
2
100
AcDbSymbolTableRecord
100
AcDbLayerTableRecord
  2
146
 70
     0
 62
   146
  6
CONTINUOUS
  0
LAYER
  5
CC
330
2
100
AcDbSymbolTableRecord
100
AcDbLayerTableRecord
  2
147
 70
     0
 62
   147
  6
CONTINUOUS
  0
LAYER
  5
CD
330
2
100
AcDbSymbolTableRecord
100
AcDbLayerTableRecord
  2
148
 70
     0
 62
   148
  6
CONTINUOUS
  0
LAYER
  5
CE
330
2
100
AcDbSymbolTableRecord
100
AcDbLayerTableRecord
  2
149
 70
     0
 62
   149
  6
CONTINUOUS
  0
LAYER
  5
CF
330
2
100
AcDbSymbolTableRecord
100
AcDbLayerTableRecord
  2
150
 70
     0
 62
   150
  6
CONTINUOUS
  0
LAYER
  5
D0
330
2
100
AcDbSymbolTableRecord
100
AcDbLayerTableRecord
  2
151
 70
     0
 62
   151
  6
CONTINUOUS
  0
LAYER
  5
D1
330
2
100
AcDbSymbolTableRecord
100
AcDbLayerTableRecord
  2
152
 70
     0
 62
   152
  6
CONTINUOUS
  0
LAYER
  5
D2
330
2
100
AcDbSymbolTableRecord
100
AcDbLayerTableRecord
  2
153
 70
     0
 62
   153
  6
CONTINUOUS
  0
LAYER
  5
D3
330
2
100
AcDbSymbolTableRecord
100
AcDbLayerTableRecord
  2
154
 70
     0
 62
   154
  6
CONTINUOUS
  0
LAYER
  5
D4
330
2
100
AcDbSymbolTableRecord
100
AcDbLayerTableRecord
  2
155
 70
     0
 62
   155
  6
CONTINUOUS
  0
LAYER
  5
D5
330
2
100
AcDbSymbolTableRecord
100
AcDbLayerTableRecord
  2
156
 70
     0
 62
   156
  6
CONTINUOUS
  0
LAYER
  5
D6
330
2
100
AcDbSymbolTableRecord
100
AcDbLayerTableRecord
  2
157
 70
     0
 62
   157
  6
CONTINUOUS
  0
LAYER
  5
D7
330
2
100
AcDbSymbolTableRecord
100
AcDbLayerTableRecord
  2
158
 70
     0
 62
   158
  6
CONTINUOUS
  0
LAYER
  5
D8
330
2
100
AcDbSymbolTableRecord
100
AcDbLayerTableRecord
  2
159
 70
     0
 62
   159
  6
CONTINUOUS
  0
LAYER
  5
D9
330
2
100
AcDbSymbolTableRecord
100
AcDbLayerTableRecord
  2
160
 70
     0
 62
   160
  6
CONTINUOUS
  0
LAYER
  5
DA
330
2
100
AcDbSymbolTableRecord
100
AcDbLayerTableRecord
  2
161
 70
     0
 62
   161
  6
CONTINUOUS
  0
LAYER
  5
DB
330
2
100
AcDbSymbolTableRecord
100
AcDbLayerTableRecord
  2
162
 70
     0
 62
   162
  6
CONTINUOUS
  0
LAYER
  5
DC
330
2
100
AcDbSymbolTableRecord
100
AcDbLayerTableRecord
  2
163
 70
     0
 62
   163
  6
CONTINUOUS
  0
LAYER
  5
DD
330
2
100
AcDbSymbolTableRecord
100
AcDbLayerTableRecord
  2
164
 70
     0
 62
   164
  6
CONTINUOUS
  0
LAYER
  5
DE
330
2
100
AcDbSymbolTableRecord
100
AcDbLayerTableRecord
  2
165
 70
     0
 62
   165
  6
CONTINUOUS
  0
LAYER
  5
DF
330
2
100
AcDbSymbolTableRecord
100
AcDbLayerTableRecord
  2
166
 70
     0
 62
   166
  6
CONTINUOUS
  0
LAYER
  5
E0
330
2
100
AcDbSymbolTableRecord
100
AcDbLayerTableRecord
  2
167
 70
     0
 62
   167
  6
CONTINUOUS
  0
LAYER
  5
E1
330
2
100
AcDbSymbolTableRecord
100
AcDbLayerTableRecord
  2
168
 70
     0
 62
   168
  6
CONTINUOUS
  0
LAYER
  5
E2
330
2
100
AcDbSymbolTableRecord
100
AcDbLayerTableRecord
  2
169
 70
     0
 62
   169
  6
CONTINUOUS
  0
LAYER
  5
E3
330
2
100
AcDbSymbolTableRecord
100
AcDbLayerTableRecord
  2
170
 70
     0
 62
   170
  6
CONTINUOUS
  0
LAYER
  5
E4
330
2
100
AcDbSymbolTableRecord
100
AcDbLayerTableRecord
  2
171
 70
     0
 62
   171
  6
CONTINUOUS
  0
LAYER
  5
E5
330
2
100
AcDbSymbolTableRecord
100
AcDbLayerTableRecord
  2
172
 70
     0
 62
   172
  6
CONTINUOUS
  0
LAYER
  5
E6
330
2
100
AcDbSymbolTableRecord
100
AcDbLayerTableRecord
  2
173
 70
     0
 62
   173
  6
CONTINUOUS
  0
LAYER
  5
E7
330
2
100
AcDbSymbolTableRecord
100
AcDbLayerTableRecord
  2
174
 70
     0
 62
   174
  6
CONTINUOUS
  0
LAYER
  5
E8
330
2
100
AcDbSymbolTableRecord
100
AcDbLayerTableRecord
  2
175
 70
     0
 62
   175
  6
CONTINUOUS
  0
LAYER
  5
E9
330
2
100
AcDbSymbolTableRecord
100
AcDbLayerTableRecord
  2
176
 70
     0
 62
   176
  6
CONTINUOUS
  0
LAYER
  5
EA
330
2
100
AcDbSymbolTableRecord
100
AcDbLayerTableRecord
  2
177
 70
     0
 62
   177
  6
CONTINUOUS
  0
LAYER
  5
EB
330
2
100
AcDbSymbolTableRecord
100
AcDbLayerTableRecord
  2
178
 70
     0
 62
   178
  6
CONTINUOUS
  0
LAYER
  5
EC
330
2
100
AcDbSymbolTableRecord
100
AcDbLayerTableRecord
  2
179
 70
     0
 62
   179
  6
CONTINUOUS
  0
LAYER
  5
ED
330
2
100
AcDbSymbolTableRecord
100
AcDbLayerTableRecord
  2
180
 70
     0
 62
   180
  6
CONTINUOUS
  0
LAYER
  5
EE
330
2
100
AcDbSymbolTableRecord
100
AcDbLayerTableRecord
  2
181
 70
     0
 62
   181
  6
CONTINUOUS
  0
LAYER
  5
EF
330
2
100
AcDbSymbolTableRecord
100
AcDbLayerTableRecord
  2
182
 70
     0
 62
   182
  6
CONTINUOUS
  0
LAYER
  5
F0
330
2
100
AcDbSymbolTableRecord
100
AcDbLayerTableRecord
  2
183
 70
     0
 62
   183
  6
CONTINUOUS
  0
LAYER
  5
F1
330
2
100
AcDbSymbolTableRecord
100
AcDbLayerTableRecord
  2
184
 70
     0
 62
   184
  6
CONTINUOUS
  0
LAYER
  5
F2
330
2
100
AcDbSymbolTableRecord
100
AcDbLayerTableRecord
  2
185
 70
     0
 62
   185
  6
CONTINUOUS
  0
LAYER
  5
F3
330
2
100
AcDbSymbolTableRecord
100
AcDbLayerTableRecord
  2
186
 70
     0
 62
   186
  6
CONTINUOUS
  0
LAYER
  5
F4
330
2
100
AcDbSymbolTableRecord
100
AcDbLayerTableRecord
  2
187
 70
     0
 62
   187
  6
CONTINUOUS
  0
LAYER
  5
F5
330
2
100
AcDbSymbolTableRecord
100
AcDbLayerTableRecord
  2
188
 70
     0
 62
   188
  6
CONTINUOUS
  0
LAYER
  5
F6
330
2
100
AcDbSymbolTableRecord
100
AcDbLayerTableRecord
  2
189
 70
     0
 62
   189
  6
CONTINUOUS
  0
LAYER
  5
F7
330
2
100
AcDbSymbolTableRecord
100
AcDbLayerTableRecord
  2
190
 70
     0
 62
   190
  6
CONTINUOUS
  0
LAYER
  5
F8
330
2
100
AcDbSymbolTableRecord
100
AcDbLayerTableRecord
  2
191
 70
     0
 62
   191
  6
CONTINUOUS
  0
LAYER
  5
F9
330
2
100
AcDbSymbolTableRecord
100
AcDbLayerTableRecord
  2
192
 70
     0
 62
   192
  6
CONTINUOUS
  0
LAYER
  5
FA
330
2
100
AcDbSymbolTableRecord
100
AcDbLayerTableRecord
  2
193
 70
     0
 62
   193
  6
CONTINUOUS
  0
LAYER
  5
FB
330
2
100
AcDbSymbolTableRecord
100
AcDbLayerTableRecord
  2
194
 70
     0
 62
   194
  6
CONTINUOUS
  0
LAYER
  5
FC
330
2
100
AcDbSymbolTableRecord
100
AcDbLayerTableRecord
  2
195
 70
     0
 62
   195
  6
CONTINUOUS
  0
LAYER
  5
FD
330
2
100
AcDbSymbolTableRecord
100
AcDbLayerTableRecord
  2
196
 70
     0
 62
   196
  6
CONTINUOUS
  0
LAYER
  5
FE
330
2
100
AcDbSymbolTableRecord
100
AcDbLayerTableRecord
  2
197
 70
     0
 62
   197
  6
CONTINUOUS
  0
LAYER
  5
FF
330
2
100
AcDbSymbolTableRecord
100
AcDbLayerTableRecord
  2
198
 70
     0
 62
   198
  6
CONTINUOUS
  0
LAYER
  5
100
330
2
100
AcDbSymbolTableRecord
100
AcDbLayerTableRecord
  2
199
 70
     0
 62
   199
  6
CONTINUOUS
  0
LAYER
  5
101
330
2
100
AcDbSymbolTableRecord
100
AcDbLayerTableRecord
  2
200
 70
     0
 62
   200
  6
CONTINUOUS
  0
LAYER
  5
102
330
2
100
AcDbSymbolTableRecord
100
AcDbLayerTableRecord
  2
201
 70
     0
 62
   201
  6
CONTINUOUS
  0
LAYER
  5
103
330
2
100
AcDbSymbolTableRecord
100
AcDbLayerTableRecord
  2
202
 70
     0
 62
   202
  6
CONTINUOUS
  0
LAYER
  5
104
330
2
100
AcDbSymbolTableRecord
100
AcDbLayerTableRecord
  2
203
 70
     0
 62
   203
  6
CONTINUOUS
  0
LAYER
  5
105
330
2
100
AcDbSymbolTableRecord
100
AcDbLayerTableRecord
  2
204
 70
     0
 62
   204
  6
CONTINUOUS
  0
LAYER
  5
106
330
2
100
AcDbSymbolTableRecord
100
AcDbLayerTableRecord
  2
205
 70
     0
 62
   205
  6
CONTINUOUS
  0
LAYER
  5
107
330
2
100
AcDbSymbolTableRecord
100
AcDbLayerTableRecord
  2
206
 70
     0
 62
   206
  6
CONTINUOUS
  0
LAYER
  5
108
330
2
100
AcDbSymbolTableRecord
100
AcDbLayerTableRecord
  2
207
 70
     0
 62
   207
  6
CONTINUOUS
  0
LAYER
  5
109
330
2
100
AcDbSymbolTableRecord
100
AcDbLayerTableRecord
  2
208
 70
     0
 62
   208
  6
CONTINUOUS
  0
LAYER
  5
10A
330
2
100
AcDbSymbolTableRecord
100
AcDbLayerTableRecord
  2
209
 70
     0
 62
   209
  6
CONTINUOUS
  0
LAYER
  5
10B
330
2
100
AcDbSymbolTableRecord
100
AcDbLayerTableRecord
  2
210
 70
     0
 62
   210
  6
CONTINUOUS
  0
LAYER
  5
10C
330
2
100
AcDbSymbolTableRecord
100
AcDbLayerTableRecord
  2
211
 70
     0
 62
   211
  6
CONTINUOUS
  0
LAYER
  5
10D
330
2
100
AcDbSymbolTableRecord
100
AcDbLayerTableRecord
  2
212
 70
     0
 62
   212
  6
CONTINUOUS
  0
LAYER
  5
10E
330
2
100
AcDbSymbolTableRecord
100
AcDbLayerTableRecord
  2
213
 70
     0
 62
   213
  6
CONTINUOUS
  0
LAYER
  5
10F
330
2
100
AcDbSymbolTableRecord
100
AcDbLayerTableRecord
  2
214
 70
     0
 62
   214
  6
CONTINUOUS
  0
LAYER
  5
110
330
2
100
AcDbSymbolTableRecord
100
AcDbLayerTableRecord
  2
215
 70
     0
 62
   215
  6
CONTINUOUS
  0
LAYER
  5
111
330
2
100
AcDbSymbolTableRecord
100
AcDbLayerTableRecord
  2
216
 70
     0
 62
   216
  6
CONTINUOUS
  0
LAYER
  5
112
330
2
100
AcDbSymbolTableRecord
100
AcDbLayerTableRecord
  2
217
 70
     0
 62
   217
  6
CONTINUOUS
  0
LAYER
  5
113
330
2
100
AcDbSymbolTableRecord
100
AcDbLayerTableRecord
  2
218
 70
     0
 62
   218
  6
CONTINUOUS
  0
LAYER
  5
114
330
2
100
AcDbSymbolTableRecord
100
AcDbLayerTableRecord
  2
219
 70
     0
 62
   219
  6
CONTINUOUS
  0
LAYER
  5
115
330
2
100
AcDbSymbolTableRecord
100
AcDbLayerTableRecord
  2
220
 70
     0
 62
   220
  6
CONTINUOUS
  0
LAYER
  5
116
330
2
100
AcDbSymbolTableRecord
100
AcDbLayerTableRecord
  2
221
 70
     0
 62
   221
  6
CONTINUOUS
  0
LAYER
  5
117
330
2
100
AcDbSymbolTableRecord
100
AcDbLayerTableRecord
  2
222
 70
     0
 62
   222
  6
CONTINUOUS
  0
LAYER
  5
118
330
2
100
AcDbSymbolTableRecord
100
AcDbLayerTableRecord
  2
223
 70
     0
 62
   223
  6
CONTINUOUS
  0
LAYER
  5
119
330
2
100
AcDbSymbolTableRecord
100
AcDbLayerTableRecord
  2
224
 70
     0
 62
   224
  6
CONTINUOUS
  0
LAYER
  5
11A
330
2
100
AcDbSymbolTableRecord
100
AcDbLayerTableRecord
  2
225
 70
     0
 62
   225
  6
CONTINUOUS
  0
LAYER
  5
11B
330
2
100
AcDbSymbolTableRecord
100
AcDbLayerTableRecord
  2
226
 70
     0
 62
   226
  6
CONTINUOUS
  0
LAYER
  5
11C
330
2
100
AcDbSymbolTableRecord
100
AcDbLayerTableRecord
  2
227
 70
     0
 62
   227
  6
CONTINUOUS
  0
LAYER
  5
11D
330
2
100
AcDbSymbolTableRecord
100
AcDbLayerTableRecord
  2
228
 70
     0
 62
   228
  6
CONTINUOUS
  0
LAYER
  5
11E
330
2
100
AcDbSymbolTableRecord
100
AcDbLayerTableRecord
  2
229
 70
     0
 62
   229
  6
CONTINUOUS
  0
LAYER
  5
11F
330
2
100
AcDbSymbolTableRecord
100
AcDbLayerTableRecord
  2
230
 70
     0
 62
   230
  6
CONTINUOUS
  0
LAYER
  5
120
330
2
100
AcDbSymbolTableRecord
100
AcDbLayerTableRecord
  2
231
 70
     0
 62
   231
  6
CONTINUOUS
  0
LAYER
  5
121
330
2
100
AcDbSymbolTableRecord
100
AcDbLayerTableRecord
  2
232
 70
     0
 62
   232
  6
CONTINUOUS
  0
LAYER
  5
122
330
2
100
AcDbSymbolTableRecord
100
AcDbLayerTableRecord
  2
233
 70
     0
 62
   233
  6
CONTINUOUS
  0
LAYER
  5
123
330
2
100
AcDbSymbolTableRecord
100
AcDbLayerTableRecord
  2
234
 70
     0
 62
   234
  6
CONTINUOUS
  0
LAYER
  5
124
330
2
100
AcDbSymbolTableRecord
100
AcDbLayerTableRecord
  2
235
 70
     0
 62
   235
  6
CONTINUOUS
  0
LAYER
  5
125
330
2
100
AcDbSymbolTableRecord
100
AcDbLayerTableRecord
  2
236
 70
     0
 62
   236
  6
CONTINUOUS
  0
LAYER
  5
126
330
2
100
AcDbSymbolTableRecord
100
AcDbLayerTableRecord
  2
237
 70
     0
 62
   237
  6
CONTINUOUS
  0
LAYER
  5
127
330
2
100
AcDbSymbolTableRecord
100
AcDbLayerTableRecord
  2
238
 70
     0
 62
   238
  6
CONTINUOUS
  0
LAYER
  5
128
330
2
100
AcDbSymbolTableRecord
100
AcDbLayerTableRecord
  2
239
 70
     0
 62
   239
  6
CONTINUOUS
  0
LAYER
  5
129
330
2
100
AcDbSymbolTableRecord
100
AcDbLayerTableRecord
  2
240
 70
     0
 62
   240
  6
CONTINUOUS
  0
LAYER
  5
12A
330
2
100
AcDbSymbolTableRecord
100
AcDbLayerTableRecord
  2
241
 70
     0
 62
   241
  6
CONTINUOUS
  0
LAYER
  5
12B
330
2
100
AcDbSymbolTableRecord
100
AcDbLayerTableRecord
  2
242
 70
     0
 62
   242
  6
CONTINUOUS
  0
LAYER
  5
12C
330
2
100
AcDbSymbolTableRecord
100
AcDbLayerTableRecord
  2
243
 70
     0
 62
   243
  6
CONTINUOUS
  0
LAYER
  5
12D
330
2
100
AcDbSymbolTableRecord
100
AcDbLayerTableRecord
  2
244
 70
     0
 62
   244
  6
CONTINUOUS
  0
LAYER
  5
12E
330
2
100
AcDbSymbolTableRecord
100
AcDbLayerTableRecord
  2
245
 70
     0
 62
   245
  6
CONTINUOUS
  0
LAYER
  5
12F
330
2
100
AcDbSymbolTableRecord
100
AcDbLayerTableRecord
  2
246
 70
     0
 62
   246
  6
CONTINUOUS
  0
LAYER
  5
130
330
2
100
AcDbSymbolTableRecord
100
AcDbLayerTableRecord
  2
247
 70
     0
 62
   247
  6
CONTINUOUS
  0
LAYER
  5
131
330
2
100
AcDbSymbolTableRecord
100
AcDbLayerTableRecord
  2
248
 70
     0
 62
   248
  6
CONTINUOUS
  0
LAYER
  5
132
330
2
100
AcDbSymbolTableRecord
100
AcDbLayerTableRecord
  2
249
 70
     0
 62
   249
  6
CONTINUOUS
  0
LAYER
  5
133
330
2
100
AcDbSymbolTableRecord
100
AcDbLayerTableRecord
  2
250
 70
     0
 62
   250
  6
CONTINUOUS
  0
LAYER
  5
134
330
2
100
AcDbSymbolTableRecord
100
AcDbLayerTableRecord
  2
251
 70
     0
 62
   251
  6
CONTINUOUS
  0
LAYER
  5
135
330
2
100
AcDbSymbolTableRecord
100
AcDbLayerTableRecord
  2
252
 70
     0
 62
   252
  6
CONTINUOUS
  0
LAYER
  5
136
330
2
100
AcDbSymbolTableRecord
100
AcDbLayerTableRecord
  2
253
 70
     0
 62
   253
  6
CONTINUOUS
  0
LAYER
  5
137
330
2
100
AcDbSymbolTableRecord
100
AcDbLayerTableRecord
  2
254
 70
     0
 62
   254
  6
CONTINUOUS
  0
LAYER
  5
138
330
2
100
AcDbSymbolTableRecord
100
AcDbLayerTableRecord
  2
255
 70
     0
 62
   255
  6
CONTINUOUS
  0
ENDTAB
  0
TABLE
  2
STYLE
  5
3
330
0
100
AcDbSymbolTable
 70
     1
  0
STYLE
  5
11
330
3
100
AcDbSymbolTableRecord
100
AcDbTextStyleTableRecord
  2
STANDARD
 70
     0
 40
0.0
 41
1.0
 50
0.0
 71
     0
 42
0.2
  3
monotxt
  4

  0
ENDTAB
  0
TABLE
  2
VIEW
  5
6
330
0
100
AcDbSymbolTable
 70
     0
  0
ENDTAB
  0
TABLE
  2
UCS
  5
7
330
0
100
AcDbSymbolTable
 70
     0
  0
ENDTAB
  0
TABLE
  2
APPID
  5
9
330
0
100
AcDbSymbolTable
 70
     1
  0
APPID
  5
12
330
9
100
AcDbSymbolTableRecord
100
AcDbRegAppTableRecord
  2
ACAD
 70
     0
  0
ENDTAB
  0
TABLE
  2
DIMSTYLE
  5
A
330
0
100
AcDbSymbolTable
 70
     1
  0
DIMSTYLE
105
8E5
330
A
100
AcDbSymbolTableRecord
100
AcDbDimStyleTableRecord
  2
STANDARD
 70
     0
  3

  4

  5

  6

  7

 40
1.0
 41
0.18
 42
0.0625
 43
0.38
 44
0.18
 45
0.0
 46
0.0
 47
0.0
 48
0.0
140
0.18
141
0.09
142
0.0
143
25.4
144
1.0
145
0.0
146
1.0
147
0.09
 71
     0
 72
     0
 73
     1
 74
     1
 75
     0
 76
     0
 77
     0
 78
     0
170
     0
171
     2
172
     0
173
     0
174
     0
175
     0
176
     0
177
     0
178
     0
270
     2
271
     4
272
     4
273
     2
274
     2
340
11
275
     0
280
     0
281
     0
282
     0
283
     1
284
     0
285
     0
286
     0
287
     3
288
     0
  0
ENDTAB
  0
TABLE
  2
BLOCK_RECORD
  5
1
330
0
100
AcDbSymbolTable
 70
     0
  0
BLOCK_RECORD
  5
1E
102
{ACAD_XDICTIONARY
360
D3C
102
}
330
1
100
AcDbSymbolTableRecord
100
AcDbBlockTableRecord
  2
*MODEL_SPACE
  0
BLOCK_RECORD
  5
1A
102
{ACAD_XDICTIONARY
360
D3A
102
}
330
1
100
AcDbSymbolTableRecord
100
AcDbBlockTableRecord
  2
*PAPER_SPACE
  0
ENDTAB
  0
ENDSEC
  0
SECTION
  2
BLOCKS
  0
BLOCK
  5
13B
330
1E
100
AcDbEntity
  8
0
100
AcDbBlockBegin
  2
*MODEL_SPACE
 70
     0
 10
0.0
 20
0.0
 30
0.0
  3
*MODEL_SPACE
  1

  0
ENDBLK
  5
13C
330
1E
100
AcDbEntity
  8
0
100
AcDbBlockEnd
  0
BLOCK
  5
139
330
1A
100
AcDbEntity
 67
     1
  8
0
100
AcDbBlockBegin
  2
*PAPER_SPACE
 70
     0
 10
0.0
 20
0.0
 30
0.0
  3
*PAPER_SPACE
  1

  0
ENDBLK
  5
13A
330
1A
100
AcDbEntity
 67
     1
  8
0
100
AcDbBlockEnd
  0
ENDSEC
  0
SECTION
  2
ENTITIES
  0
LINE
  5
13E
330
1E
100
AcDbEntity
  8
7
100
AcDbLine
 10
41.79527559055117
 20
27.93996062992126
 30
0.0
 11
41.79527559055117
 21
28.05905511811023
 31
0.0
  0
LINE
  5
13F
330
1E
100
AcDbEntity
  8
7
100
AcDbLine
 10
41.4035433070866
 20
28.05905511811023
 30
0.0
 11
41.47440944881889
 21
28.05905511811023
 31
0.0
  0
LINE
  5
140
330
1E
100
AcDbEntity
  8
3
100
AcDbLine
 10
42.09645669291338
 20
31.29822834645669
 30
0.0
 11
42.09645669291338
 21
31.26082677165354
 31
0.0
  0
LINE
  5
141
330
1E
100
AcDbEntity
  8
7
100
AcDbLine
 10
41.54429133858267
 20
27.93996062992126
 30
0.0
 11
41.54429133858267
 21
28.0
 31
0.0
  0
LINE
  5
142
330
1E
100
AcDbEntity
  8
7
100
AcDbLine
 10
41.75885826771653
 20
27.9507874015748
 30
0.0
 11
41.75885826771653
 21
28.00492125984252
 31
0.0
  0
LINE
  5
143
330
1E
100
AcDbEntity
  8
3
100
AcDbLine
 10
41.3001968503937
 20
31.18897637795275
 30
0.0
 11
41.3001968503937
 21
31.11417322834645
 31
0.0
  0
LINE
  5
144
330
1E
100
AcDbEntity
  8
3
100
AcDbLine
 10
41.90551181102361
 20
31.11417322834645
 30
0.0
 11
41.97047244094488
 21
31.11417322834645
 31
0.0
  0
LINE
  5
145
330
1E
100
AcDbEntity
  8
7
100
AcDbLine
 10
41.86417322834645
 20
28.00984251968504
 30
0.0
 11
41.80511811023621
 21
28.00984251968504
 31
0.0
  0
LINE
  5
146
330
1E
100
AcDbEntity
  8
7
100
AcDbLine
 10
41.75885826771653
 20
28.00492125984252
 30
0.0
 11
41.73622047244093
 21
28.01574803149606
 31
0.0
  0
LINE
  5
147
330
1E
100
AcDbEntity
  8
3
100
AcDbLine
 10
41.59055118110235
 20
31.11417322834645
 30
0.0
 11
41.50885826771653
 21
31.11417322834645
 31
0.0
  0
LINE
  5
148
330
1E
100
AcDbEntity
  8
7
100
AcDbLine
 10
41.63484251968504
 20
27.93996062992126
 30
0.0
 11
41.62401574803149
 21
27.93996062992126
 31
0.0
  0
LINE
  5
149
330
1E
100
AcDbEntity
  8
3
100
AcDbLine
 10
42.13385826771653
 20
31.11417322834645
 30
0.0
 11
42.13385826771653
 21
31.26082677165354
 31
0.0
  0
LINE
  5
14A
330
1E
100
AcDbEntity
  8
7
100
AcDbLine
 10
42.26673228346456
 20
31.38976377952755
 30
0.0
 11
41.15748031496063
 21
31.38976377952755
 31
0.0
  0
LINE
  5
14B
330
1E
100
AcDbEntity
  8
3
100
AcDbLine
 10
41.76279527559055
 20
31.15649606299212
 30
0.0
 11
41.78149606299212
 21
31.15649606299212
 31
0.0
  0
LINE
  5
14C
330
1E
100
AcDbEntity
  8
7
100
AcDbLine
 10
42.26673228346456
 20
31.07972440944882
 30
0.0
 11
42.26673228346456
 21
31.38976377952755
 31
0.0
  0
LINE
  5
14D
330
1E
100
AcDbEntity
  8
7
100
AcDbLine
 10
41.15748031496063
 20
31.38976377952755
 30
0.0
 11
41.15748031496063
 21
31.07972440944882
 31
0.0
  0
LINE
  5
14E
330
1E
100
AcDbEntity
  8
7
100
AcDbLine
 10
41.88090551181102
 20
28.04133858267716
 30
0.0
 11
41.88090551181102
 21
28.01771653543307
 31
0.0
  0
LINE
  5
14F
330
1E
100
AcDbEntity
  8
7
100
AcDbLine
 10
41.47244094488189
 20
28.04921259842519
 30
0.0
 11
41.48818897637794
 21
28.04133858267716
 31
0.0
  0
LINE
  5
150
330
1E
100
AcDbEntity
  8
7
100
AcDbLine
 10
41.89074803149606
 20
28.04724409448819
 30
0.0
 11
41.89074803149606
 21
28.01082677165354
 31
0.0
  0
LINE
  5
151
330
1E
100
AcDbEntity
  8
7
100
AcDbLine
 10
41.80511811023621
 20
28.00984251968504
 30
0.0
 11
41.80511811023621
 21
28.04921259842519
 31
0.0
  0
LINE
  5
152
330
1E
100
AcDbEntity
  8
7
100
AcDbLine
 10
41.47244094488189
 20
28.00984251968504
 30
0.0
 11
41.41338582677165
 21
28.00984251968504
 31
0.0
  0
LINE
  5
153
330
1E
100
AcDbEntity
  8
7
100
AcDbLine
 10
41.88090551181102
 20
28.01771653543307
 30
0.0
 11
41.86417322834645
 21
28.00984251968504
 31
0.0
  0
LINE
  5
154
330
1E
100
AcDbEntity
  8
7
100
AcDbLine
 10
41.48818897637794
 20
28.04133858267716
 30
0.0
 11
41.48818897637794
 21
28.01771653543307
 31
0.0
  0
LINE
  5
155
330
1E
100
AcDbEntity
  8
3
100
AcDbLine
 10
41.41437007874015
 20
31.11417322834645
 30
0.0
 11
41.42618110236219
 21
31.14074803149605
 31
0.0
  0
LINE
  5
156
330
1E
100
AcDbEntity
  8
3
100
AcDbLine
 10
41.19192913385826
 20
31.35433070866141
 30
0.0
 11
41.35925196850393
 21
31.35433070866141
 31
0.0
  0
LINE
  5
157
330
1E
100
AcDbEntity
  8
3
100
AcDbLine
 10
41.46062992125983
 20
31.23228346456692
 30
0.0
 11
41.48425196850393
 21
31.18011811023622
 31
0.0
  0
LINE
  5
158
330
1E
100
AcDbEntity
  8
7
100
AcDbLine
 10
41.66437007874015
 20
28.02263779527558
 30
0.0
 11
41.68011811023621
 21
28.00590551181102
 31
0.0
  0
LINE
  5
159
330
1E
100
AcDbEntity
  8
7
100
AcDbLine
 10
41.66437007874015
 20
28.04724409448819
 30
0.0
 11
41.66437007874015
 21
28.02263779527558
 31
0.0
  0
LINE
  5
15A
330
1E
100
AcDbEntity
  8
3
100
AcDbLine
 10
41.63287401574803
 20
31.23129921259842
 30
0.0
 11
41.63287401574803
 21
31.29822834645669
 31
0.0
  0
LINE
  5
15B
330
1E
100
AcDbEntity
  8
7
100
AcDbLine
 10
41.9261811023622
 20
28.04921259842519
 30
0.0
 11
42.0029527559055
 21
28.04921259842519
 31
0.0
  0
LINE
  5
15C
330
1E
100
AcDbEntity
  8
3
100
AcDbLine
 10
41.76279527559055
 20
31.25984251968503
 30
0.0
 11
41.78149606299212
 21
31.25984251968503
 31
0.0
  0
LINE
  5
15D
330
1E
100
AcDbEntity
  8
7
100
AcDbLine
 10
41.80511811023621
 20
27.93996062992126
 30
0.0
 11
41.79527559055117
 21
27.93996062992126
 31
0.0
  0
LINE
  5
15E
330
1E
100
AcDbEntity
  8
7
100
AcDbLine
 10
41.54429133858267
 20
28.00984251968504
 30
0.0
 11
41.54429133858267
 21
28.04921259842519
 31
0.0
  0
LINE
  5
15F
330
1E
100
AcDbEntity
  8
3
100
AcDbLine
 10
41.41437007874015
 20
31.11417322834645
 30
0.0
 11
41.36023622047243
 21
31.11417322834645
 31
0.0
  0
LINE
  5
160
330
1E
100
AcDbEntity
  8
7
100
AcDbLine
 10
41.61909448818898
 20
28.01771653543307
 30
0.0
 11
41.60334645669291
 21
28.00984251968504
 31
0.0
  0
LINE
  5
161
330
1E
100
AcDbEntity
  8
7
100
AcDbLine
 10
42.05610236220472
 20
28.09350393700787
 30
0.0
 11
42.05610236220472
 21
27.90452755905512
 31
0.0
  0
LINE
  5
162
330
1E
100
AcDbEntity
  8
7
100
AcDbLine
 10
41.41338582677165
 20
28.00984251968504
 30
0.0
 11
41.41338582677165
 21
28.04921259842519
 31
0.0
  0
LINE
  5
163
330
1E
100
AcDbEntity
  8
7
100
AcDbLine
 10
41.6003937007874
 20
28.0
 30
0.0
 11
41.54429133858267
 21
28.0
 31
0.0
  0
LINE
  5
164
330
1E
100
AcDbEntity
  8
3
100
AcDbLine
 10
41.53937007874016
 20
31.29822834645669
 30
0.0
 11
41.6003937007874
 21
31.29822834645669
 31
0.0
  0
LINE
  5
165
330
1E
100
AcDbEntity
  8
3
100
AcDbLine
 10
41.33562992125983
 20
31.23917322834645
 30
0.0
 11
41.33562992125983
 21
31.3001968503937
 31
0.0
  0
LINE
  5
166
330
1E
100
AcDbEntity
  8
7
100
AcDbLine
 10
41.53346456692913
 20
27.93996062992126
 30
0.0
 11
41.53346456692913
 21
28.05905511811023
 31
0.0
  0
LINE
  5
167
330
1E
100
AcDbEntity
  8
3
100
AcDbLine
 10
42.18996062992125
 20
31.11417322834645
 30
0.0
 11
42.18996062992125
 21
31.26082677165354
 31
0.0
  0
LINE
  5
168
330
1E
100
AcDbEntity
  8
7
100
AcDbLine
 10
41.9261811023622
 20
28.05905511811023
 30
0.0
 11
42.02165354330708
 21
28.05905511811023
 31
0.0
  0
LINE
  5
169
330
1E
100
AcDbEntity
  8
7
100
AcDbLine
 10
41.66437007874015
 20
27.9517716535433
 30
0.0
 11
41.67224409448818
 21
27.95866141732283
 31
0.0
  0
LINE
  5
16A
330
1E
100
AcDbEntity
  8
7
100
AcDbLine
 10
41.89074803149606
 20
28.01082677165354
 30
0.0
 11
41.86712598425196
 21
28.0
 31
0.0
  0
LINE
  5
16B
330
1E
100
AcDbEntity
  8
3
100
AcDbLine
 10
41.59055118110235
 20
31.11417322834645
 30
0.0
 11
41.59055118110235
 21
31.19291338582677
 31
0.0
  0
LINE
  5
16C
330
1E
100
AcDbEntity
  8
3
100
AcDbLine
 10
41.87204724409449
 20
31.29822834645669
 30
0.0
 11
41.93307086614173
 21
31.29822834645669
 31
0.0
  0
LINE
  5
16D
330
1E
100
AcDbEntity
  8
3
100
AcDbLine
 10
41.43700787401574
 20
31.18011811023622
 30
0.0
 11
41.46062992125983
 21
31.23228346456692
 31
0.0
  0
LINE
  5
16E
330
1E
100
AcDbEntity
  8
3
100
AcDbLine
 10
41.48523622047243
 20
31.29822834645669
 30
0.0
 11
41.53937007874016
 21
31.17814960629921
 31
0.0
  0
LINE
  5
16F
330
1E
100
AcDbEntity
  8
3
100
AcDbLine
 10
41.59055118110235
 20
31.19291338582677
 30
0.0
 11
41.625
 21
31.11417322834645
 31
0.0
  0
LINE
  5
170
330
1E
100
AcDbEntity
  8
3
100
AcDbLine
 10
42.08169291338582
 20
31.11417322834645
 30
0.0
 11
42.03248031496062
 21
31.11417322834645
 31
0.0
  0
LINE
  5
171
330
1E
100
AcDbEntity
  8
7
100
AcDbLine
 10
41.47440944881889
 20
28.0
 30
0.0
 11
41.41338582677165
 21
28.0
 31
0.0
  0
LINE
  5
172
330
1E
100
AcDbEntity
  8
7
100
AcDbLine
 10
41.53346456692913
 20
28.05905511811023
 30
0.0
 11
41.60531496062992
 21
28.05905511811023
 31
0.0
  0
LINE
  5
173
330
1E
100
AcDbEntity
  8
3
100
AcDbLine
 10
42.03248031496062
 20
31.11417322834645
 30
0.0
 11
42.03248031496062
 21
31.29822834645669
 31
0.0
  0
LINE
  5
179
330
1E
100
AcDbEntity
  8
7
100
AcDbLine
 10
41.36811023622047
 20
27.90452755905512
 30
0.0
 11
41.36811023622047
 21
28.09350393700787
 31
0.0
  0
LINE
  5
17A
330
1E
100
AcDbEntity
  8
3
100
AcDbLine
 10
41.87204724409449
 20
31.14665354330708
 30
0.0
 11
41.87204724409449
 21
31.29822834645669
 31
0.0
  0
LINE
  5
17B
330
1E
100
AcDbEntity
  8
3
100
AcDbLine
 10
42.23228346456692
 20
31.26082677165354
 30
0.0
 11
42.23228346456692
 21
31.29822834645669
 31
0.0
  0
LINE
  5
17C
330
1E
100
AcDbEntity
  8
3
100
AcDbLine
 10
41.53937007874016
 20
31.17814960629921
 30
0.0
 11
41.53937007874016
 21
31.29822834645669
 31
0.0
  0
LINE
  5
17D
330
1E
100
AcDbEntity
  8
7
100
AcDbLine
 10
41.62401574803149
 20
27.93996062992126
 30
0.0
 11
41.6003937007874
 21
28.0
 31
0.0
  0
LINE
  5
17E
330
1E
100
AcDbEntity
  8
3
100
AcDbLine
 10
41.68011811023621
 20
31.11417322834645
 30
0.0
 11
41.625
 21
31.11417322834645
 31
0.0
  0
LINE
  5
17F
330
1E
100
AcDbEntity
  8
7
100
AcDbLine
 10
41.73228346456692
 20
28.04921259842519
 30
0.0
 11
41.74015748031496
 21
28.04035433070866
 31
0.0
  0
LINE
  5
180
330
1E
100
AcDbEntity
  8
3
100
AcDbLine
 10
41.49606299212599
 20
31.14074803149605
 30
0.0
 11
41.50885826771653
 21
31.11417322834645
 31
0.0
  0
LINE
  5
181
330
1E
100
AcDbEntity
  8
7
100
AcDbLine
 10
41.73622047244093
 20
28.01574803149606
 30
0.0
 11
41.68405511811023
 21
28.01574803149606
 31
0.0
  0
LINE
  5
182
330
1E
100
AcDbEntity
  8
3
100
AcDbLine
 10
42.23228346456692
 20
31.26082677165354
 30
0.0
 11
42.18996062992125
 21
31.26082677165354
 31
0.0
  0
LINE
  5
183
330
1E
100
AcDbEntity
  8
7
100
AcDbLine
 10
41.6761811023622
 20
28.05905511811023
 30
0.0
 11
41.66437007874015
 21
28.04724409448819
 31
0.0
  0
LINE
  5
184
330
1E
100
AcDbEntity
  8
3
100
AcDbLine
 10
41.3001968503937
 20
31.18897637795275
 30
0.0
 11
41.35925196850393
 21
31.18897637795275
 31
0.0
  0
LINE
  5
185
330
1E
100
AcDbEntity
  8
7
100
AcDbLine
 10
41.74803149606299
 20
27.95767716535433
 30
0.0
 11
41.74803149606299
 21
28.0
 31
0.0
  0
LINE
  5
186
330
1E
100
AcDbEntity
  8
7
100
AcDbLine
 10
41.74015748031496
 20
28.04035433070866
 30
0.0
 11
41.74704724409449
 21
28.04724409448819
 31
0.0
  0
LINE
  5
187
330
1E
100
AcDbEntity
  8
3
100
AcDbLine
 10
41.59055118110235
 20
31.11417322834645
 30
0.0
 11
41.59055118110235
 21
31.19291338582677
 31
0.0
  0
LINE
  5
188
330
1E
100
AcDbEntity
  8
7
100
AcDbLine
 10
41.61909448818898
 20
28.04133858267716
 30
0.0
 11
41.61909448818898
 21
28.01771653543307
 31
0.0
  0
LINE
  5
189
330
1E
100
AcDbEntity
  8
7
100
AcDbLine
 10
41.54429133858267
 20
28.04921259842519
 30
0.0
 11
41.60334645669291
 21
28.04921259842519
 31
0.0
  0
LINE
  5
18A
330
1E
100
AcDbEntity
  8
3
100
AcDbLine
 10
41.63287401574803
 20
31.23129921259842
 30
0.0
 11
41.6003937007874
 21
31.29822834645669
 31
0.0
  0
LINE
  5
18B
330
1E
100
AcDbEntity
  8
3
100
AcDbLine
 10
41.49606299212599
 20
31.14074803149605
 30
0.0
 11
41.50885826771653
 21
31.11417322834645
 31
0.0
  0
LINE
  5
18C
330
1E
100
AcDbEntity
  8
3
100
AcDbLine
 10
41.81102362204724
 20
31.11417322834645
 30
0.0
 11
41.70767716535432
 21
31.11417322834645
 31
0.0
  0
LINE
  5
18D
330
1E
100
AcDbEntity
  8
3
100
AcDbLine
 10
41.43700787401574
 20
31.18011811023622
 30
0.0
 11
41.48425196850393
 21
31.18011811023622
 31
0.0
  0
LINE
  5
18E
330
1E
100
AcDbEntity
  8
3
100
AcDbLine
 10
42.09645669291338
 20
31.29822834645669
 30
0.0
 11
42.23228346456692
 21
31.29822834645669
 31
0.0
  0
LINE
  5
18F
330
1E
100
AcDbEntity
  8
7
100
AcDbLine
 10
41.41338582677165
 20
27.93996062992126
 30
0.0
 11
41.4035433070866
 21
27.93996062992126
 31
0.0
  0
LINE
  5
190
330
1E
100
AcDbEntity
  8
7
100
AcDbLine
 10
41.54429133858267
 20
27.93996062992126
 30
0.0
 11
41.53346456692913
 21
27.93996062992126
 31
0.0
  0
LINE
  5
191
330
1E
100
AcDbEntity
  8
7
100
AcDbLine
 10
41.41338582677165
 20
27.93996062992126
 30
0.0
 11
41.41338582677165
 21
28.0
 31
0.0
  0
LINE
  5
192
330
1E
100
AcDbEntity
  8
7
100
AcDbLine
 10
41.68110236220472
 20
28.04921259842519
 30
0.0
 11
41.73228346456692
 21
28.04921259842519
 31
0.0
  0
LINE
  5
193
330
1E
100
AcDbEntity
  8
7
100
AcDbLine
 10
41.6761811023622
 20
28.05905511811023
 30
0.0
 11
41.73622047244093
 21
28.05905511811023
 31
0.0
  0
LINE
  5
194
330
1E
100
AcDbEntity
  8
7
100
AcDbLine
 10
41.79527559055117
 20
28.05905511811023
 30
0.0
 11
41.86712598425196
 21
28.05905511811023
 31
0.0
  0
LINE
  5
195
330
1E
100
AcDbEntity
  8
7
100
AcDbLine
 10
41.9261811023622
 20
27.93996062992126
 30
0.0
 11
41.91633858267716
 21
27.93996062992126
 31
0.0
  0
LINE
  5
196
330
1E
100
AcDbEntity
  8
7
100
AcDbLine
 10
41.68011811023621
 20
27.94980314960629
 30
0.0
 11
41.73228346456692
 21
27.94980314960629
 31
0.0
  0
LINE
  5
197
330
1E
100
AcDbEntity
  8
7
100
AcDbLine
 10
42.02165354330708
 20
28.05905511811023
 30
0.0
 11
41.9261811023622
 21
27.93996062992126
 31
0.0
  0
LINE
  5
198
330
1E
100
AcDbEntity
  8
3
100
AcDbLine
 10
41.76279527559055
 20
31.15649606299212
 30
0.0
 11
41.76279527559055
 21
31.25984251968503
 31
0.0
  0
LINE
  5
199
330
1E
100
AcDbEntity
  8
3
100
AcDbLine
 10
41.96456692913385
 20
31.16633858267716
 30
0.0
 11
41.96456692913385
 21
31.29822834645669
 31
0.0
  0
LINE
  5
19A
330
1E
100
AcDbEntity
  8
7
100
AcDbLine
 10
41.80511811023621
 20
27.93996062992126
 30
0.0
 11
41.80511811023621
 21
28.0
 31
0.0
  0
LINE
  5
19B
330
1E
100
AcDbEntity
  8
3
100
AcDbLine
 10
41.42618110236219
 20
31.14074803149605
 30
0.0
 11
41.49606299212599
 21
31.14074803149605
 31
0.0
  0
LINE
  5
19C
330
1E
100
AcDbEntity
  8
7
100
AcDbLine
 10
41.36811023622047
 20
28.09350393700787
 30
0.0
 11
42.05610236220472
 21
28.09350393700787
 31
0.0
  0
LINE
  5
19D
330
1E
100
AcDbEntity
  8
7
100
AcDbLine
 10
41.60531496062992
 20
28.05905511811023
 30
0.0
 11
41.62893700787401
 21
28.04724409448819
 31
0.0
  0
LINE
  5
19E
330
1E
100
AcDbEntity
  8
7
100
AcDbLine
 10
41.4035433070866
 20
27.93996062992126
 30
0.0
 11
41.4035433070866
 21
28.05905511811023
 31
0.0
  0
LINE
  5
19F
330
1E
100
AcDbEntity
  8
3
100
AcDbLine
 10
41.96456692913385
 20
31.29822834645669
 30
0.0
 11
42.0029527559055
 21
31.29822834645669
 31
0.0
  0
LINE
  5
1A0
330
1E
100
AcDbEntity
  8
3
100
AcDbLine
 10
41.53937007874016
 20
31.17814960629921
 30
0.0
 11
41.53937007874016
 21
31.29822834645669
 31
0.0
  0
LINE
  5
1A1
330
1E
100
AcDbEntity
  8
3
100
AcDbLine
 10
42.03248031496062
 20
31.29822834645669
 30
0.0
 11
42.08169291338582
 21
31.29822834645669
 31
0.0
  0
LINE
  5
1A2
330
1E
100
AcDbEntity
  8
7
100
AcDbLine
 10
41.9261811023622
 20
28.05905511811023
 30
0.0
 11
41.9261811023622
 21
28.04921259842519
 31
0.0
  0
LINE
  5
1A3
330
1E
100
AcDbEntity
  8
7
100
AcDbLine
 10
41.80511811023621
 20
28.04921259842519
 30
0.0
 11
41.86417322834645
 21
28.04921259842519
 31
0.0
  0
LINE
  5
1A4
330
1E
100
AcDbEntity
  8
3
100
AcDbLine
 10
41.3001968503937
 20
31.2273622047244
 30
0.0
 11
41.32381889763779
 21
31.2273622047244
 31
0.0
  0
LINE
  5
1A5
330
1E
100
AcDbEntity
  8
7
100
AcDbLine
 10
41.60334645669291
 20
28.00984251968504
 30
0.0
 11
41.54429133858267
 21
28.00984251968504
 31
0.0
  0
LINE
  5
1A6
330
1E
100
AcDbEntity
  8
7
100
AcDbLine
 10
41.73425196850393
 20
27.93996062992126
 30
0.0
 11
41.75885826771653
 21
27.9507874015748
 31
0.0
  0
LINE
  5
1A7
330
1E
100
AcDbEntity
  8
3
100
AcDbLine
 10
41.36023622047243
 20
31.11417322834645
 30
0.0
 11
41.39468503937007
 21
31.19783464566928
 31
0.0
  0
LINE
  5
1A8
330
1E
100
AcDbEntity
  8
7
100
AcDbLine
 10
41.62893700787401
 20
28.04724409448819
 30
0.0
 11
41.62893700787401
 21
28.01082677165354
 31
0.0
  0
LINE
  5
1A9
330
1E
100
AcDbEntity
  8
3
100
AcDbLine
 10
42.18996062992125
 20
31.11417322834645
 30
0.0
 11
42.13385826771653
 21
31.11417322834645
 31
0.0
  0
LINE
  5
1AA
330
1E
100
AcDbEntity
  8
7
100
AcDbLine
 10
41.60334645669291
 20
28.04921259842519
 30
0.0
 11
41.61909448818898
 21
28.04133858267716
 31
0.0
  0
LINE
  5
1AB
330
1E
100
AcDbEntity
  8
7
100
AcDbLine
 10
41.15748031496063
 20
31.07972440944882
 30
0.0
 11
42.26673228346456
 21
31.07972440944882
 31
0.0
  0
LINE
  5
1AC
330
1E
100
AcDbEntity
  8
7
100
AcDbLine
 10
41.49803149606299
 20
28.01082677165354
 30
0.0
 11
41.47440944881889
 21
28.0
 31
0.0
  0
LINE
  5
1AD
330
1E
100
AcDbEntity
  8
7
100
AcDbLine
 10
42.05610236220472
 20
27.90452755905512
 30
0.0
 11
41.36811023622047
 21
27.90452755905512
 31
0.0
  0
LINE
  5
1AE
330
1E
100
AcDbEntity
  8
3
100
AcDbLine
 10
41.93307086614173
 20
31.29822834645669
 30
0.0
 11
41.93307086614173
 21
31.16633858267716
 31
0.0
  0
LINE
  5
1AF
330
1E
100
AcDbEntity
  8
7
100
AcDbLine
 10
41.86712598425196
 20
28.0
 30
0.0
 11
41.80511811023621
 21
28.0
 31
0.0
  0
LINE
  5
1B0
330
1E
100
AcDbEntity
  8
7
100
AcDbLine
 10
41.63484251968504
 20
27.93996062992126
 30
0.0
 11
41.61023622047244
 21
28.001968503937
 31
0.0
  0
LINE
  5
1B1
330
1E
100
AcDbEntity
  8
7
100
AcDbLine
 10
41.62893700787401
 20
28.01082677165354
 30
0.0
 11
41.61023622047244
 21
28.001968503937
 31
0.0
  0
LINE
  5
1B2
330
1E
100
AcDbEntity
  8
7
100
AcDbLine
 10
41.68110236220472
 20
28.04921259842519
 30
0.0
 11
41.67519685039369
 21
28.04232283464566
 31
0.0
  0
LINE
  5
1B3
330
1E
100
AcDbEntity
  8
3
100
AcDbLine
 10
41.79035433070866
 20
31.25
 30
0.0
 11
41.79035433070866
 21
31.16633858267716
 31
0.0
  0
LINE
  5
1B4
330
1E
100
AcDbEntity
  8
3
100
AcDbLine
 10
41.63287401574803
 20
31.29822834645669
 30
0.0
 11
41.68011811023621
 21
31.29822834645669
 31
0.0
  0
LINE
  5
1B5
330
1E
100
AcDbEntity
  8
3
100
AcDbLine
 10
41.59055118110235
 20
31.19291338582677
 30
0.0
 11
41.625
 21
31.11417322834645
 31
0.0
  0
LINE
  5
1B6
330
1E
100
AcDbEntity
  8
3
100
AcDbLine
 10
41.3001968503937
 20
31.11417322834645
 30
0.0
 11
41.19192913385826
 21
31.11417322834645
 31
0.0
  0
LINE
  5
1B7
330
1E
100
AcDbEntity
  8
7
100
AcDbLine
 10
41.67519685039369
 20
27.93996062992126
 30
0.0
 11
41.73425196850393
 21
27.93996062992126
 31
0.0
  0
LINE
  5
1B8
330
1E
100
AcDbEntity
  8
3
100
AcDbLine
 10
41.70767716535432
 20
31.29822834645669
 30
0.0
 11
41.81102362204724
 21
31.29822834645669
 31
0.0
  0
LINE
  5
1B9
330
1E
100
AcDbEntity
  8
3
100
AcDbLine
 10
41.3001968503937
 20
31.31200787401574
 30
0.0
 11
41.32381889763779
 21
31.31200787401574
 31
0.0
  0
LINE
  5
1BA
330
1E
100
AcDbEntity
  8
3
100
AcDbLine
 10
42.08169291338582
 20
31.11417322834645
 30
0.0
 11
42.08169291338582
 21
31.29822834645669
 31
0.0
  0
LINE
  5
1BB
330
1E
100
AcDbEntity
  8
3
100
AcDbLine
 10
41.43700787401574
 20
31.29822834645669
 30
0.0
 11
41.48523622047243
 21
31.29822834645669
 31
0.0
  0
LINE
  5
1BC
330
1E
100
AcDbEntity
  8
7
100
AcDbLine
 10
41.41338582677165
 20
28.04921259842519
 30
0.0
 11
41.47244094488189
 21
28.04921259842519
 31
0.0
  0
LINE
  5
1BD
330
1E
100
AcDbEntity
  8
3
100
AcDbLine
 10
41.84448818897637
 20
31.26476377952755
 30
0.0
 11
41.84448818897637
 21
31.14665354330708
 31
0.0
  0
LINE
  5
1BE
330
1E
100
AcDbEntity
  8
7
100
AcDbLine
 10
41.47440944881889
 20
28.05905511811023
 30
0.0
 11
41.49803149606299
 21
28.04724409448819
 31
0.0
  0
LINE
  5
1BF
330
1E
100
AcDbEntity
  8
3
100
AcDbLine
 10
41.3001968503937
 20
31.2273622047244
 30
0.0
 11
41.3001968503937
 21
31.31200787401574
 31
0.0
  0
LINE
  5
1C0
330
1E
100
AcDbEntity
  8
3
100
AcDbLine
 10
41.48523622047243
 20
31.29822834645669
 30
0.0
 11
41.53937007874016
 21
31.17814960629921
 31
0.0
  0
LINE
  5
1C1
330
1E
100
AcDbEntity
  8
3
100
AcDbLine
 10
41.68011811023621
 20
31.29822834645669
 30
0.0
 11
41.68011811023621
 21
31.11417322834645
 31
0.0
  0
LINE
  5
1C2
330
1E
100
AcDbEntity
  8
7
100
AcDbLine
 10
41.49803149606299
 20
28.04724409448819
 30
0.0
 11
41.49803149606299
 21
28.01082677165354
 31
0.0
  0
LINE
  5
1C3
330
1E
100
AcDbEntity
  8
7
100
AcDbLine
 10
41.66437007874015
 20
27.9517716535433
 30
0.0
 11
41.67519685039369
 21
27.93996062992126
 31
0.0
  0
LINE
  5
1C4
330
1E
100
AcDbEntity
  8
7
100
AcDbLine
 10
41.73228346456692
 20
27.94980314960629
 30
0.0
 11
41.74803149606299
 21
27.95767716535433
 31
0.0
  0
LINE
  5
1C5
330
1E
100
AcDbEntity
  8
3
100
AcDbLine
 10
42.0029527559055
 20
31.29822834645669
 30
0.0
 11
42.0029527559055
 21
31.14665354330708
 31
0.0
  0
LINE
  5
1C6
330
1E
100
AcDbEntity
  8
3
100
AcDbLine
 10
41.19192913385826
 20
31.11417322834645
 30
0.0
 11
41.19192913385826
 21
31.35433070866141
 31
0.0
  0
LINE
  5
1C7
330
1E
100
AcDbEntity
  8
3
100
AcDbLine
 10
42.09645669291338
 20
31.26082677165354
 30
0.0
 11
42.13385826771653
 21
31.26082677165354
 31
0.0
  0
LINE
  5
1C8
330
1E
100
AcDbEntity
  8
7
100
AcDbLine
 10
42.0029527559055
 20
28.04921259842519
 30
0.0
 11
41.91633858267716
 21
27.93996062992126
 31
0.0
  0
LINE
  5
1C9
330
1E
100
AcDbEntity
  8
7
100
AcDbLine
 10
41.48818897637794
 20
28.01771653543307
 30
0.0
 11
41.47244094488189
 21
28.00984251968504
 31
0.0
  0
LINE
  5
1CA
330
1E
100
AcDbEntity
  8
7
100
AcDbLine
 10
41.74803149606299
 20
28.0
 30
0.0
 11
41.73622047244093
 21
28.00590551181102
 31
0.0
  0
LINE
  5
1CB
330
1E
100
AcDbEntity
  8
3
100
AcDbLine
 10
41.70767716535432
 20
31.11417322834645
 30
0.0
 11
41.70767716535432
 21
31.29822834645669
 31
0.0
  0
LINE
  5
1CC
330
1E
100
AcDbEntity
  8
3
100
AcDbLine
 10
41.94192913385826
 20
31.15649606299212
 30
0.0
 11
41.95570866141731
 21
31.15649606299212
 31
0.0
  0
LINE
  5
1CD
330
1E
100
AcDbEntity
  8
7
100
AcDbLine
 10
41.67224409448818
 20
27.95866141732283
 30
0.0
 11
41.68011811023621
 21
27.94980314960629
 31
0.0
  0
LINE
  5
1CE
330
1E
100
AcDbEntity
  8
7
100
AcDbLine
 10
41.73622047244093
 20
28.05905511811023
 30
0.0
 11
41.74704724409449
 21
28.04724409448819
 31
0.0
  0
LINE
  5
1CF
330
1E
100
AcDbEntity
  8
7
100
AcDbLine
 10
41.86712598425196
 20
28.05905511811023
 30
0.0
 11
41.89074803149606
 21
28.04724409448819
 31
0.0
  0
LINE
  5
1D0
330
1E
100
AcDbEntity
  8
7
100
AcDbLine
 10
41.86417322834645
 20
28.04921259842519
 30
0.0
 11
41.88090551181102
 21
28.04133858267716
 31
0.0
  0
LINE
  5
1D1
330
1E
100
AcDbEntity
  8
7
100
AcDbLine
 10
41.73622047244093
 20
28.00590551181102
 30
0.0
 11
41.68011811023621
 21
28.00590551181102
 31
0.0
  0
LINE
  5
25E
330
1E
100
AcDbEntity
  8
7
100
AcDbLine
 10
40.46259842519684
 20
28.67814960629921
 30
0.0
 11
40.46259842519684
 21
30.67814960629921
 31
0.0
  0
LINE
  5
28E
330
1E
100
AcDbEntity
  8
7
100
AcDbLine
 10
42.95866141732282
 20
28.57775590551181
 30
0.0
 11
42.96259842519684
 21
28.67814960629921
 31
0.0
  0
LINE
  5
28F
330
1E
100
AcDbEntity
  8
7
100
AcDbLine
 10
42.96259842519684
 20
28.67814960629921
 30
0.0
 11
42.96259842519684
 21
30.67814960629921
 31
0.0
  0
LINE
  5
2C3
330
1E
100
AcDbEntity
  8
7
100
AcDbLine
 10
41.66535433070865
 20
30.18700787401574
 30
0.0
 11
41.66535433070865
 21
29.17027559055118
 31
0.0
  0
LINE
  5
2C4
330
1E
100
AcDbEntity
  8
7
100
AcDbLine
 10
41.6791338582677
 20
29.15748031496063
 30
0.0
 11
41.66535433070865
 21
29.17027559055118
 31
0.0
  0
LINE
  5
2C5
330
1E
100
AcDbEntity
  8
7
100
AcDbLine
 10
41.6791338582677
 20
29.15748031496063
 30
0.0
 11
41.6791338582677
 21
30.19980314960629
 31
0.0
  0
LINE
  5
2C6
330
1E
100
AcDbEntity
  8
7
100
AcDbLine
 10
41.66535433070865
 20
30.18700787401574
 30
0.0
 11
41.6791338582677
 21
30.19980314960629
 31
0.0
  0
LINE
  5
2E9
330
1E
100
AcDbEntity
  8
7
100
AcDbLine
 10
41.74507874015747
 20
30.19980314960629
 30
0.0
 11
41.74507874015747
 21
29.15748031496063
 31
0.0
  0
LINE
  5
2F2
330
1E
100
AcDbEntity
  8
7
100
AcDbLine
 10
41.75885826771653
 20
29.17027559055118
 30
0.0
 11
41.75885826771653
 21
30.18700787401574
 31
0.0
  0
LINE
  5
2F3
330
1E
100
AcDbEntity
  8
7
100
AcDbLine
 10
41.74507874015747
 20
30.19980314960629
 30
0.0
 11
41.75885826771653
 21
30.18700787401574
 31
0.0
  0
LINE
  5
2F4
330
1E
100
AcDbEntity
  8
7
100
AcDbLine
 10
41.75885826771653
 20
29.17027559055118
 30
0.0
 11
41.74507874015747
 21
29.15748031496063
 31
0.0
  0
LINE
  5
34D
330
1E
100
AcDbEntity
  8
7
100
AcDbLine
 10
41.66535433070865
 20
30.18700787401574
 30
0.0
 11
41.66437007874015
 21
30.18503937007874
 31
0.0
  0
LINE
  5
35A
330
1E
100
AcDbEntity
  8
7
100
AcDbLine
 10
41.47244094488189
 20
41.78937007874015
 30
0.0
 11
41.47244094488189
 21
41.72834645669291
 31
0.0
  0
LINE
  5
35B
330
1E
100
AcDbEntity
  8
7
100
AcDbLine
 10
41.9517716535433
 20
41.72834645669291
 30
0.0
 11
41.9517716535433
 21
41.78937007874015
 31
0.0
  0
LINE
  5
361
330
1E
100
AcDbEntity
  8
7
100
AcDbLine
 10
42.4517716535433
 20
34.98129921259842
 30
0.0
 11
42.34350393700786
 21
41.17913385826772
 31
0.0
  0
LINE
  5
362
330
1E
100
AcDbEntity
  8
7
100
AcDbLine
 10
41.08070866141732
 20
41.18011811023622
 30
0.0
 11
40.97244094488188
 21
34.98129921259842
 31
0.0
  0
LINE
  5
363
330
1E
100
AcDbEntity
  8
7
100
AcDbLine
 10
41.47244094488189
 20
41.72834645669291
 30
0.0
 11
41.47244094488189
 21
41.72342519685039
 31
0.0
  0
LINE
  5
364
330
1E
100
AcDbEntity
  8
7
100
AcDbLine
 10
41.9517716535433
 20
41.72342519685039
 30
0.0
 11
41.9517716535433
 21
41.72834645669291
 31
0.0
  0
LINE
  5
3CF
330
1E
100
AcDbEntity
  8
7
100
AcDbLine
 10
42.33759842519684
 20
41.16240157480315
 30
0.0
 11
42.33956692913385
 21
41.16240157480315
 31
0.0
  0
LINE
  5
3DC
330
1E
100
AcDbEntity
  8
7
100
AcDbLine
 10
42.3277559055118
 20
41.44685039370078
 30
0.0
 11
42.33169291338582
 21
41.25196850393701
 31
0.0
  0
LINE
  5
405
330
1E
100
AcDbEntity
  8
7
100
AcDbLine
 10
41.09251968503936
 20
41.25196850393701
 30
0.0
 11
41.09645669291338
 21
41.44685039370078
 31
0.0
  0
LINE
  5
414
330
1E
100
AcDbEntity
  8
7
100
AcDbLine
 10
41.08464566929133
 20
41.16240157480315
 30
0.0
 11
41.08661417322834
 21
41.16240157480315
 31
0.0
  0
LINE
  5
415
330
1E
100
AcDbEntity
  8
7
100
AcDbLine
 10
41.52263779527558
 20
41.64370078740157
 30
0.0
 11
40.92519685039369
 21
41.64370078740157
 31
0.0
  0
LINE
  5
416
330
1E
100
AcDbEntity
  8
7
100
AcDbLine
 10
42.5
 20
41.64370078740157
 30
0.0
 11
41.9025590551181
 21
41.64370078740157
 31
0.0
  0
LINE
  5
417
330
1E
100
AcDbEntity
  8
7
100
AcDbLine
 10
41.67224409448818
 20
41.67421259842519
 30
0.0
 11
41.67224409448818
 21
41.69881889763779
 31
0.0
  0
LINE
  5
418
330
1E
100
AcDbEntity
  8
7
100
AcDbLine
 10
41.751968503937
 20
41.69881889763779
 30
0.0
 11
41.751968503937
 21
41.67421259842519
 31
0.0
  0
LINE
  5
419
330
1E
100
AcDbEntity
  8
7
100
AcDbLine
 10
42.5
 20
41.63779527559055
 30
0.0
 11
42.5
 21
41.64370078740157
 31
0.0
  0
LINE
  5
422
330
1E
100
AcDbEntity
  8
7
100
AcDbLine
 10
40.92519685039369
 20
41.51181102362204
 30
0.0
 11
40.92519685039369
 21
41.58070866141732
 31
0.0
  0
LINE
  5
423
330
1E
100
AcDbEntity
  8
7
100
AcDbLine
 10
40.92519685039369
 20
41.59153543307087
 30
0.0
 11
40.92519685039369
 21
41.58070866141732
 31
0.0
  0
LINE
  5
42A
330
1E
100
AcDbEntity
  8
7
100
AcDbLine
 10
40.92519685039369
 20
41.64370078740157
 30
0.0
 11
40.92519685039369
 21
41.63779527559055
 31
0.0
  0
LINE
  5
42B
330
1E
100
AcDbEntity
  8
7
100
AcDbLine
 10
41.52263779527558
 20
41.64370078740157
 30
0.0
 11
41.9025590551181
 21
41.64370078740157
 31
0.0
  0
LINE
  5
438
330
1E
100
AcDbEntity
  8
7
100
AcDbLine
 10
42.37499999999999
 20
41.51870078740157
 30
0.0
 11
41.05019685039369
 21
41.51870078740157
 31
0.0
  0
LINE
  5
447
330
1E
100
AcDbEntity
  8
7
100
AcDbLine
 10
41.89960629921259
 20
41.43996062992125
 30
0.0
 11
42.37499999999999
 21
41.44685039370078
 31
0.0
  0
LINE
  5
448
330
1E
100
AcDbEntity
  8
7
100
AcDbLine
 10
41.05019685039369
 20
41.44685039370078
 30
0.0
 11
41.52460629921259
 21
41.43996062992125
 31
0.0
  0
LINE
  5
451
330
1E
100
AcDbEntity
  8
7
100
AcDbLine
 10
41.01771653543306
 20
41.44980314960629
 30
0.0
 11
41.05019685039369
 21
41.44685039370078
 31
0.0
  0
LINE
  5
47E
330
1E
100
AcDbEntity
  8
7
100
AcDbLine
 10
41.88681102362204
 20
41.69783464566928
 30
0.0
 11
41.88681102362204
 21
41.65846456692913
 31
0.0
  0
LINE
  5
47F
330
1E
100
AcDbEntity
  8
7
100
AcDbLine
 10
41.53740157480314
 20
41.65846456692913
 30
0.0
 11
41.53740157480314
 21
41.69783464566928
 31
0.0
  0
LINE
  5
497
330
1E
100
AcDbEntity
  8
7
100
AcDbLine
 10
41.9025590551181
 20
41.70767716535432
 30
0.0
 11
41.89173228346456
 21
41.70374015748031
 31
0.0
  0
LINE
  5
498
330
1E
100
AcDbEntity
  8
7
100
AcDbLine
 10
41.89173228346456
 20
41.70374015748031
 30
0.0
 11
41.88779527559055
 21
41.69291338582676
 31
0.0
  0
LINE
  5
4C1
330
1E
100
AcDbEntity
  8
7
100
AcDbLine
 10
40.92519685039369
 20
41.63779527559055
 30
0.0
 11
41.52263779527558
 21
41.64370078740157
 31
0.0
  0
LINE
  5
4C2
330
1E
100
AcDbEntity
  8
7
100
AcDbLine
 10
41.9025590551181
 20
41.64370078740157
 30
0.0
 11
42.5
 21
41.63779527559055
 31
0.0
  0
LINE
  5
4CF
330
1E
100
AcDbEntity
  8
7
100
AcDbLine
 10
41.83759842519684
 20
41.67125984251969
 30
0.0
 11
41.83759842519684
 21
41.66830708661417
 31
0.0
  0
LINE
  5
4D5
330
1E
100
AcDbEntity
  8
7
100
AcDbLine
 10
41.58759842519685
 20
41.66732283464567
 30
0.0
 11
41.58759842519685
 21
41.64370078740157
 31
0.0
  0
LINE
  5
4D6
330
1E
100
AcDbEntity
  8
7
100
AcDbLine
 10
41.58759842519685
 20
41.66732283464567
 30
0.0
 11
41.58759842519685
 21
41.67027559055118
 31
0.0
  0
LINE
  5
4DF
330
1E
100
AcDbEntity
  8
7
100
AcDbLine
 10
41.58759842519685
 20
41.67125984251969
 30
0.0
 11
41.60531496062992
 21
41.67224409448819
 31
0.0
  0
LINE
  5
4FB
330
1E
100
AcDbEntity
  8
7
100
AcDbLine
 10
41.06692913385827
 20
41.24409448818897
 30
0.0
 11
41.08464566929133
 21
41.16240157480315
 31
0.0
  0
LINE
  5
50B
330
1E
100
AcDbEntity
  8
7
100
AcDbLine
 10
40.46259842519684
 20
34.64370078740157
 30
0.0
 11
40.46259842519684
 21
34.73129921259842
 31
0.0
  0
LINE
  5
50C
330
1E
100
AcDbEntity
  8
7
100
AcDbLine
 10
42.96259842519684
 20
34.73129921259842
 30
0.0
 11
42.96259842519684
 21
34.64370078740157
 31
0.0
  0
LINE
  5
541
330
1E
100
AcDbEntity
  8
7
100
AcDbLine
 10
41.71259842519684
 20
41.47736220472441
 30
0.0
 11
41.71259842519684
 21
41.45374015748031
 31
0.0
  0
LINE
  5
542
330
1E
100
AcDbEntity
  8
7
100
AcDbLine
 10
41.71259842519684
 20
41.39173228346456
 30
0.0
 11
41.71259842519684
 21
41.38877952755905
 31
0.0
  0
LINE
  5
552
330
1E
100
AcDbEntity
  8
7
100
AcDbLine
 10
46.4271653543307
 20
27.42814960629921
 30
0.0
 11
46.53641732283464
 21
27.42814960629921
 31
0.0
  0
LINE
  5
553
330
1E
100
AcDbEntity
  8
7
100
AcDbLine
 10
46.53641732283464
 20
31.92814960629921
 30
0.0
 11
46.4271653543307
 21
31.92814960629921
 31
0.0
  0
LINE
  5
554
330
1E
100
AcDbEntity
  8
7
100
AcDbLine
 10
46.78149606299212
 20
28.93897637795275
 30
0.0
 11
52.94586614173228
 21
29.04625984251968
 31
0.0
  0
LINE
  5
555
330
1E
100
AcDbEntity
  8
7
100
AcDbLine
 10
52.94586614173228
 20
30.31003937007874
 30
0.0
 11
46.78149606299212
 21
30.41732283464567
 31
0.0
  0
LINE
  5
556
330
1E
100
AcDbEntity
  8
7
100
AcDbLine
 10
53.57283464566929
 20
30.78051181102362
 30
0.0
 11
53.44192913385827
 21
30.78051181102362
 31
0.0
  0
LINE
  5
557
330
1E
100
AcDbEntity
  8
7
100
AcDbLine
 10
53.56791338582677
 20
29.03051181102362
 30
0.0
 11
53.44192913385827
 21
29.03051181102362
 31
0.0
  0
LINE
  5
562
330
1E
100
AcDbEntity
  8
7
100
AcDbLine
 10
53.44192913385827
 20
30.36614173228346
 30
0.0
 11
53.48228346456693
 21
30.36614173228346
 31
0.0
  0
LINE
  5
563
330
1E
100
AcDbEntity
  8
7
100
AcDbLine
 10
53.44192913385827
 20
28.61614173228346
 30
0.0
 11
53.47736220472441
 21
28.61614173228346
 31
0.0
  0
LINE
  5
564
330
1E
100
AcDbEntity
  8
7
100
AcDbLine
 10
53.4507874015748
 20
31.07972440944882
 30
0.0
 11
53.4271653543307
 21
31.08562992125984
 31
0.0
  0
LINE
  5
5F1
330
1E
100
AcDbEntity
  8
7
100
AcDbLine
 10
53.06102362204724
 20
29.71850393700787
 30
0.0
 11
53.2755905511811
 21
29.71850393700787
 31
0.0
  0
LINE
  5
5FE
330
1E
100
AcDbEntity
  8
7
100
AcDbLine
 10
52.94685039370079
 20
29.76870078740157
 30
0.0
 11
52.94685039370079
 21
29.751968503937
 31
0.0
  0
LINE
  5
608
330
1E
100
AcDbEntity
  8
7
100
AcDbLine
 10
53.2755905511811
 20
29.79527559055118
 30
0.0
 11
53.03543307086613
 21
29.79527559055118
 31
0.0
  0
LINE
  5
60F
330
1E
100
AcDbEntity
  8
7
100
AcDbLine
 10
52.99409448818898
 20
30.28051181102362
 30
0.0
 11
53.08858267716535
 21
30.27952755905511
 31
0.0
  0
LINE
  5
620
330
1E
100
AcDbEntity
  8
7
100
AcDbLine
 10
52.94488188976377
 20
30.30905511811023
 30
0.0
 11
52.94586614173228
 21
30.31003937007874
 31
0.0
  0
LINE
  5
621
330
1E
100
AcDbEntity
  8
7
100
AcDbLine
 10
52.94586614173228
 20
29.04625984251968
 30
0.0
 11
52.94488188976377
 21
29.04724409448819
 31
0.0
  0
LINE
  5
631
330
1E
100
AcDbEntity
  8
7
100
AcDbLine
 10
53.08858267716535
 20
29.07775590551181
 30
0.0
 11
52.99409448818898
 21
29.0757874015748
 31
0.0
  0
LINE
  5
638
330
1E
100
AcDbEntity
  8
7
100
AcDbLine
 10
53.03543307086613
 20
29.56200787401574
 30
0.0
 11
53.2755905511811
 21
29.56200787401574
 31
0.0
  0
LINE
  5
647
330
1E
100
AcDbEntity
  8
7
100
AcDbLine
 10
52.94685039370079
 20
29.60433070866141
 30
0.0
 11
52.94685039370079
 21
29.58759842519684
 31
0.0
  0
LINE
  5
652
330
1E
100
AcDbEntity
  8
7
100
AcDbLine
 10
53.2755905511811
 20
29.63877952755905
 30
0.0
 11
53.06102362204724
 21
29.63877952755905
 31
0.0
  0
LINE
  5
653
330
1E
100
AcDbEntity
  8
7
100
AcDbLine
 10
53.33366141732283
 20
28.66633858267716
 30
0.0
 11
53.33366141732283
 21
28.66732283464566
 31
0.0
  0
LINE
  5
654
330
1E
100
AcDbEntity
  8
7
100
AcDbLine
 10
53.33366141732283
 20
28.66633858267716
 30
0.0
 11
53.33366141732283
 21
28.66732283464566
 31
0.0
  0
LINE
  5
655
330
1E
100
AcDbEntity
  8
7
100
AcDbLine
 10
53.4271653543307
 20
27.99114173228346
 30
0.0
 11
53.4271653543307
 21
28.86220472440944
 31
0.0
  0
LINE
  5
656
330
1E
100
AcDbEntity
  8
7
100
AcDbLine
 10
53.4271653543307
 20
28.88090551181102
 30
0.0
 11
53.4271653543307
 21
29.04625984251968
 31
0.0
  0
LINE
  5
657
330
1E
100
AcDbEntity
  8
7
100
AcDbLine
 10
53.4271653543307
 20
30.3503937007874
 30
0.0
 11
53.4271653543307
 21
30.61220472440945
 31
0.0
  0
LINE
  5
658
330
1E
100
AcDbEntity
  8
7
100
AcDbLine
 10
53.4271653543307
 20
29.04625984251968
 30
0.0
 11
53.4271653543307
 21
30.3503937007874
 31
0.0
  0
LINE
  5
659
330
1E
100
AcDbEntity
  8
7
100
AcDbLine
 10
53.44192913385827
 20
30.69094488188976
 30
0.0
 11
53.48228346456693
 21
30.69094488188976
 31
0.0
  0
LINE
  5
65A
330
1E
100
AcDbEntity
  8
7
100
AcDbLine
 10
53.44192913385827
 20
28.94094488188976
 30
0.0
 11
53.47736220472441
 21
28.94094488188976
 31
0.0
  0
LINE
  5
65B
330
1E
100
AcDbEntity
  8
7
100
AcDbLine
 10
53.42322834645669
 20
27.99114173228346
 30
0.0
 11
53.4271653543307
 21
27.99114173228346
 31
0.0
  0
LINE
  5
65C
330
1E
100
AcDbEntity
  8
7
100
AcDbLine
 10
53.42322834645669
 20
27.99114173228346
 30
0.0
 11
53.33858267716535
 21
27.99114173228346
 31
0.0
  0
LINE
  5
65D
330
1E
100
AcDbEntity
  8
7
100
AcDbLine
 10
53.33267716535432
 20
27.99114173228346
 30
0.0
 11
53.33858267716535
 21
27.99114173228346
 31
0.0
  0
LINE
  5
65E
330
1E
100
AcDbEntity
  8
7
100
AcDbLine
 10
53.30610236220472
 20
31.41437007874015
 30
0.0
 11
53.3248031496063
 21
31.375
 31
0.0
  0
LINE
  5
664
330
1E
100
AcDbEntity
  8
7
100
AcDbLine
 10
53.33956692913385
 20
28.11614173228346
 30
0.0
 11
53.33956692913385
 21
31.28937007874015
 31
0.0
  0
LINE
  5
665
330
1E
100
AcDbEntity
  8
7
100
AcDbLine
 10
53.42125984251968
 20
29.04625984251968
 30
0.0
 11
53.42125984251968
 21
28.11614173228346
 31
0.0
  0
LINE
  5
666
330
1E
100
AcDbEntity
  8
7
100
AcDbLine
 10
53.4271653543307
 20
29.04625984251968
 30
0.0
 11
53.42125984251968
 21
29.04625984251968
 31
0.0
  0
LINE
  5
667
330
1E
100
AcDbEntity
  8
7
100
AcDbLine
 10
53.42125984251968
 20
30.3503937007874
 30
0.0
 11
53.4271653543307
 21
30.3503937007874
 31
0.0
  0
LINE
  5
668
330
1E
100
AcDbEntity
  8
7
100
AcDbLine
 10
53.42125984251968
 20
31.28248031496063
 30
0.0
 11
53.42125984251968
 21
30.3503937007874
 31
0.0
  0
LINE
  5
670
330
1E
100
AcDbEntity
  8
7
100
AcDbLine
 10
53.29527559055118
 20
31.43405511811023
 30
0.0
 11
53.30610236220472
 21
31.41437007874015
 31
0.0
  0
LINE
  5
671
330
1E
100
AcDbEntity
  8
7
100
AcDbLine
 10
53.33956692913385
 20
29.79330708661417
 30
0.0
 11
53.33858267716535
 21
29.79429133858267
 31
0.0
  0
LINE
  5
672
330
1E
100
AcDbEntity
  8
7
100
AcDbLine
 10
53.33956692913385
 20
29.79330708661417
 30
0.0
 11
53.33956692913385
 21
29.79232283464567
 31
0.0
  0
LINE
  5
686
330
1E
100
AcDbEntity
  8
7
100
AcDbLine
 10
53.33956692913385
 20
29.71850393700787
 30
0.0
 11
53.33956692913385
 21
29.71948818897637
 31
0.0
  0
LINE
  5
69B
330
1E
100
AcDbEntity
  8
7
100
AcDbLine
 10
53.33858267716535
 20
29.56200787401574
 30
0.0
 11
53.33956692913385
 21
29.56299212598425
 31
0.0
  0
LINE
  5
69C
330
1E
100
AcDbEntity
  8
7
100
AcDbLine
 10
53.33464566929134
 20
28.75688976377952
 30
0.0
 11
53.33464566929134
 21
28.84547244094488
 31
0.0
  0
LINE
  5
6A6
330
1E
100
AcDbEntity
  8
7
100
AcDbLine
 10
53.33366141732283
 20
28.66732283464566
 30
0.0
 11
53.33464566929134
 21
28.66929133858267
 31
0.0
  0
LINE
  5
6A7
330
1E
100
AcDbEntity
  8
7
100
AcDbLine
 10
53.33366141732283
 20
28.66535433070866
 30
0.0
 11
53.33366141732283
 21
28.66633858267716
 31
0.0
  0
LINE
  5
6A8
330
1E
100
AcDbEntity
  8
7
100
AcDbLine
 10
53.33267716535432
 20
28.66633858267716
 30
0.0
 11
53.33366141732283
 21
28.66535433070866
 31
0.0
  0
LINE
  5
6A9
330
1E
100
AcDbEntity
  8
7
100
AcDbLine
 10
53.33267716535432
 20
28.66633858267716
 30
0.0
 11
53.33267716535432
 21
27.99114173228346
 31
0.0
  0
LINE
  5
6B3
330
1E
100
AcDbEntity
  8
7
100
AcDbLine
 10
53.33267716535432
 20
31.27362204724409
 30
0.0
 11
53.33267716535432
 21
30.69094488188976
 31
0.0
  0
LINE
  5
6B4
330
1E
100
AcDbEntity
  8
7
100
AcDbLine
 10
53.33366141732283
 20
30.69192913385826
 30
0.0
 11
53.33267716535432
 21
30.69094488188976
 31
0.0
  0
LINE
  5
6B5
330
1E
100
AcDbEntity
  8
7
100
AcDbLine
 10
53.33366141732283
 20
30.68996062992126
 30
0.0
 11
53.33366141732283
 21
30.69192913385826
 31
0.0
  0
LINE
  5
6B6
330
1E
100
AcDbEntity
  8
7
100
AcDbLine
 10
53.33464566929134
 20
30.68700787401574
 30
0.0
 11
53.33366141732283
 21
30.68996062992126
 31
0.0
  0
LINE
  5
6BF
330
1E
100
AcDbEntity
  8
7
100
AcDbLine
 10
53.33464566929134
 20
30.51082677165354
 30
0.0
 11
53.33464566929134
 21
30.6003937007874
 31
0.0
  0
LINE
  5
6C0
330
1E
100
AcDbEntity
  8
7
100
AcDbLine
 10
53.4271653543307
 20
30.63090551181102
 30
0.0
 11
53.4271653543307
 21
31.27362204724409
 31
0.0
  0
LINE
  5
6D6
330
1E
100
AcDbEntity
  8
7
100
AcDbLine
 10
53.3759842519685
 20
31.45472440944882
 30
0.0
 11
53.38090551181102
 21
31.44586614173228
 31
0.0
  0
LINE
  5
70A
330
1E
100
AcDbEntity
  8
7
100
AcDbLine
 10
53.16929133858267
 20
31.53838582677165
 30
0.0
 11
53.15748031496062
 21
31.5511811023622
 31
0.0
  0
LINE
  5
70B
330
1E
100
AcDbEntity
  8
7
100
AcDbLine
 10
53.18011811023622
 20
31.51279527559054
 30
0.0
 11
53.15748031496062
 21
31.5511811023622
 31
0.0
  0
LINE
  5
711
330
1E
100
AcDbEntity
  8
7
100
AcDbLine
 10
53.20570866141732
 20
31.46751968503937
 30
0.0
 11
53.29625984251968
 21
31.40452755905512
 31
0.0
  0
LINE
  5
712
330
1E
100
AcDbEntity
  8
7
100
AcDbLine
 10
53.20570866141732
 20
31.46850393700787
 30
0.0
 11
53.20570866141732
 21
31.46751968503937
 31
0.0
  0
LINE
  5
713
330
1E
100
AcDbEntity
  8
7
100
AcDbLine
 10
53.29625984251968
 20
31.40452755905512
 30
0.0
 11
53.29724409448818
 21
31.40452755905512
 31
0.0
  0
LINE
  5
71C
330
1E
100
AcDbEntity
  8
7
100
AcDbLine
 10
53.29625984251968
 20
31.40452755905512
 30
0.0
 11
53.29921259842519
 21
31.39862204724409
 31
0.0
  0
LINE
  5
71D
330
1E
100
AcDbEntity
  8
7
100
AcDbLine
 10
53.22244094488188
 20
31.53838582677165
 30
0.0
 11
53.22145669291337
 21
31.53641732283464
 31
0.0
  0
LINE
  5
730
330
1E
100
AcDbEntity
  8
7
100
AcDbLine
 10
53.56692913385827
 20
28.60433070866141
 30
0.0
 11
53.50787401574803
 21
28.60433070866141
 31
0.0
  0
LINE
  5
754
330
1E
100
AcDbEntity
  8
7
100
AcDbLine
 10
53.57185039370079
 20
30.35433070866141
 30
0.0
 11
53.51279527559055
 21
30.35433070866141
 31
0.0
  0
LINE
  5
755
330
1E
100
AcDbEntity
  8
7
100
AcDbLine
 10
53.57185039370079
 20
30.35433070866141
 30
0.0
 11
53.57185039370079
 21
30.33169291338582
 31
0.0
  0
LINE
  5
770
330
1E
100
AcDbEntity
  8
7
100
AcDbLine
 10
53.4271653543307
 20
28.86220472440944
 30
0.0
 11
53.4271653543307
 21
28.88090551181102
 31
0.0
  0
LINE
  5
785
330
1E
100
AcDbEntity
  8
7
100
AcDbLine
 10
53.4271653543307
 20
30.61220472440945
 30
0.0
 11
53.4271653543307
 21
30.63090551181102
 31
0.0
  0
LINE
  5
790
330
1E
100
AcDbEntity
  8
7
100
AcDbLine
 10
53.57283464566929
 20
30.23129921259842
 30
0.0
 11
53.51181102362204
 21
30.23129921259842
 31
0.0
  0
LINE
  5
791
330
1E
100
AcDbEntity
  8
7
100
AcDbLine
 10
53.57283464566929
 20
30.23129921259842
 30
0.0
 11
53.57283464566929
 21
30.3011811023622
 31
0.0
  0
LINE
  5
792
330
1E
100
AcDbEntity
  8
7
100
AcDbLine
 10
53.51181102362204
 20
30.3011811023622
 30
0.0
 11
53.51181102362204
 21
30.23129921259842
 31
0.0
  0
LINE
  5
79F
330
1E
100
AcDbEntity
  8
7
100
AcDbLine
 10
53.56791338582677
 20
28.48129921259842
 30
0.0
 11
53.50688976377952
 21
28.48129921259842
 31
0.0
  0
LINE
  5
7A0
330
1E
100
AcDbEntity
  8
7
100
AcDbLine
 10
53.56791338582677
 20
28.48129921259842
 30
0.0
 11
53.56791338582677
 21
28.5511811023622
 31
0.0
  0
LINE
  5
7A1
330
1E
100
AcDbEntity
  8
7
100
AcDbLine
 10
53.50688976377952
 20
28.5511811023622
 30
0.0
 11
53.50688976377952
 21
28.48129921259842
 31
0.0
  0
LINE
  5
7D2
330
1E
100
AcDbEntity
  8
7
100
AcDbLine
 10
53.33267716535432
 20
28.66535433070866
 30
0.0
 11
53.28346456692912
 21
28.74311023622047
 31
0.0
  0
LINE
  5
7DB
330
1E
100
AcDbEntity
  8
7
100
AcDbLine
 10
53.33366141732283
 20
30.69094488188976
 30
0.0
 11
53.33267716535432
 21
30.69094488188976
 31
0.0
  0
LINE
  5
7DC
330
1E
100
AcDbEntity
  8
7
100
AcDbLine
 10
52.92125984251968
 20
30.29527559055118
 30
0.0
 11
53.00393700787402
 21
30.34251968503937
 31
0.0
  0
LINE
  5
7E5
330
1E
100
AcDbEntity
  8
7
100
AcDbLine
 10
53.33366141732283
 20
30.68799212598425
 30
0.0
 11
53.33366141732283
 21
30.68996062992126
 31
0.0
  0
LINE
  5
7E6
330
1E
100
AcDbEntity
  8
7
100
AcDbLine
 10
52.94488188976377
 20
30.30905511811023
 30
0.0
 11
52.94586614173228
 21
30.31003937007874
 31
0.0
  0
LINE
  5
7E7
330
1E
100
AcDbEntity
  8
7
100
AcDbLine
 10
53.33366141732283
 20
30.68799212598425
 30
0.0
 11
53.33464566929134
 21
30.68700787401574
 31
0.0
  0
LINE
  5
80D
330
1E
100
AcDbEntity
  8
7
100
AcDbLine
 10
53.33366141732283
 20
28.66535433070866
 30
0.0
 11
53.33267716535432
 21
28.66633858267716
 31
0.0
  0
LINE
  5
80E
330
1E
100
AcDbEntity
  8
7
100
AcDbLine
 10
53.33366141732283
 20
28.66929133858267
 30
0.0
 11
53.33366141732283
 21
28.66633858267716
 31
0.0
  0
LINE
  5
818
330
1E
100
AcDbEntity
  8
7
100
AcDbLine
 10
52.94488188976377
 20
29.04724409448819
 30
0.0
 11
52.94586614173228
 21
29.04625984251968
 31
0.0
  0
LINE
  5
819
330
1E
100
AcDbEntity
  8
7
100
AcDbLine
 10
53.33464566929134
 20
28.66929133858267
 30
0.0
 11
53.33366141732283
 21
28.66929133858267
 31
0.0
  0
LINE
  5
820
330
1E
100
AcDbEntity
  8
7
100
AcDbLine
 10
53.11909448818898
 20
29.0255905511811
 30
0.0
 11
53.10334645669291
 21
29.03543307086614
 31
0.0
  0
LINE
  5
85B
330
1E
100
AcDbEntity
  8
7
100
AcDbLine
 10
46.51476377952755
 20
28.67814960629921
 30
0.0
 11
46.51476377952755
 21
30.67814960629921
 31
0.0
  0
LINE
  5
890
330
1E
100
AcDbEntity
  8
7
100
AcDbLine
 10
46.53641732283464
 20
28.68897637795275
 30
0.0
 11
46.53641732283464
 21
27.42814960629921
 31
0.0
  0
LINE
  5
8B2
330
1E
100
AcDbEntity
  8
7
100
AcDbLine
 10
46.53641732283464
 20
31.92814960629921
 30
0.0
 11
46.53641732283464
 21
30.66732283464566
 31
0.0
  0
LINE
  5
8D0
330
1E
100
AcDbEntity
  8
7
100
AcDbLine
 10
53.18011811023622
 20
31.51181102362204
 30
0.0
 11
53.20570866141732
 21
31.46751968503937
 31
0.0
  0
LINE
  5
8D1
330
1E
100
AcDbEntity
  8
7
100
AcDbLine
 10
53.26082677165354
 20
31.55905511811023
 30
0.0
 11
53.23720472440944
 21
31.6013779527559
 31
0.0
  0
LINE
  5
8D2
330
1E
100
AcDbEntity
  8
7
100
AcDbLine
 10
53.1751968503937
 20
31.61811023622047
 30
0.0
 11
53.17224409448819
 21
31.61614173228346
 31
0.0
  0
LINE
  5
8D3
330
1E
100
AcDbEntity
  8
7
100
AcDbLine
 10
53.15551181102361
 20
31.55413385826771
 30
0.0
 11
53.18011811023622
 21
31.51181102362204
 31
0.0
  0
LINE
  5
8E8
330
1E
100
AcDbEntity
  8
7
100
AcDbLine
 10
53.17224409448819
 20
31.61614173228346
 30
0.0
 11
53.15944881889762
 21
31.60433070866141
 31
0.0
  0
LINE
  5
8E9
330
1E
100
AcDbEntity
  8
7
100
AcDbLine
 10
53.15944881889762
 20
31.60433070866141
 30
0.0
 11
53.1515748031496
 21
31.58858267716535
 31
0.0
  0
LINE
  5
8EA
330
1E
100
AcDbEntity
  8
7
100
AcDbLine
 10
53.1515748031496
 20
31.58858267716535
 30
0.0
 11
53.14960629921259
 21
31.57086614173228
 31
0.0
  0
LINE
  5
8EB
330
1E
100
AcDbEntity
  8
7
100
AcDbLine
 10
53.14960629921259
 20
31.57086614173228
 30
0.0
 11
53.15551181102361
 21
31.55413385826771
 31
0.0
  0
LINE
  5
8EC
330
1E
100
AcDbEntity
  8
7
100
AcDbLine
 10
53.20964566929133
 20
31.62204724409448
 30
0.0
 11
53.19192913385826
 21
31.62303149606299
 31
0.0
  0
LINE
  5
8ED
330
1E
100
AcDbEntity
  8
7
100
AcDbLine
 10
53.19192913385826
 20
31.62303149606299
 30
0.0
 11
53.1751968503937
 21
31.61811023622047
 31
0.0
  0
LINE
  5
8EE
330
1E
100
AcDbEntity
  8
7
100
AcDbLine
 10
53.23720472440944
 20
31.6013779527559
 30
0.0
 11
53.2253937007874
 21
31.61417322834645
 31
0.0
  0
LINE
  5
8EF
330
1E
100
AcDbEntity
  8
7
100
AcDbLine
 10
53.2253937007874
 20
31.61417322834645
 30
0.0
 11
53.20964566929133
 21
31.62204724409448
 31
0.0
  0
LINE
  5
8F0
330
1E
100
AcDbEntity
  8
7
100
AcDbLine
 10
46.78149606299212
 20
30.41732283464567
 30
0.0
 11
46.77854330708661
 21
30.41732283464567
 31
0.0
  0
LINE
  5
8F1
330
1E
100
AcDbEntity
  8
7
100
AcDbLine
 10
46.77854330708661
 20
30.41732283464567
 30
0.0
 11
46.73129921259842
 21
30.42421259842519
 31
0.0
  0
LINE
  5
8F2
330
1E
100
AcDbEntity
  8
7
100
AcDbLine
 10
46.73129921259842
 20
30.42421259842519
 30
0.0
 11
46.69094488188976
 21
30.43602362204724
 31
0.0
  0
LINE
  5
8F3
330
1E
100
AcDbEntity
  8
7
100
AcDbLine
 10
46.69094488188976
 20
30.43602362204724
 30
0.0
 11
46.65354330708661
 21
30.45570866141732
 31
0.0
  0
LINE
  5
8F4
330
1E
100
AcDbEntity
  8
7
100
AcDbLine
 10
46.65354330708661
 20
30.45570866141732
 30
0.0
 11
46.62007874015748
 21
30.48129921259842
 31
0.0
  0
LINE
  5
8F5
330
1E
100
AcDbEntity
  8
7
100
AcDbLine
 10
46.62007874015748
 20
30.48129921259842
 30
0.0
 11
46.59055118110235
 21
30.51181102362204
 31
0.0
  0
LINE
  5
8F6
330
1E
100
AcDbEntity
  8
7
100
AcDbLine
 10
46.59055118110235
 20
30.51181102362204
 30
0.0
 11
46.56791338582677
 21
30.54625984251968
 31
0.0
  0
LINE
  5
8F7
330
1E
100
AcDbEntity
  8
7
100
AcDbLine
 10
46.56791338582677
 20
30.54625984251968
 30
0.0
 11
46.55019685039369
 21
30.58464566929133
 31
0.0
  0
LINE
  5
8F8
330
1E
100
AcDbEntity
  8
7
100
AcDbLine
 10
46.55019685039369
 20
30.58464566929133
 30
0.0
 11
46.53937007874016
 21
30.6259842519685
 31
0.0
  0
LINE
  5
8F9
330
1E
100
AcDbEntity
  8
7
100
AcDbLine
 10
46.53937007874016
 20
30.6259842519685
 30
0.0
 11
46.53641732283464
 21
30.66732283464566
 31
0.0
  0
LINE
  5
8FA
330
1E
100
AcDbEntity
  8
7
100
AcDbLine
 10
46.69094488188976
 20
28.92027559055118
 30
0.0
 11
46.73129921259842
 21
28.93307086614173
 31
0.0
  0
LINE
  5
8FB
330
1E
100
AcDbEntity
  8
7
100
AcDbLine
 10
46.73129921259842
 20
28.93307086614173
 30
0.0
 11
46.77854330708661
 21
28.93897637795275
 31
0.0
  0
LINE
  5
8FC
330
1E
100
AcDbEntity
  8
7
100
AcDbLine
 10
46.77854330708661
 20
28.93897637795275
 30
0.0
 11
46.78149606299212
 21
28.93897637795275
 31
0.0
  0
LINE
  5
8FD
330
1E
100
AcDbEntity
  8
7
100
AcDbLine
 10
46.53641732283464
 20
28.68897637795275
 30
0.0
 11
46.53937007874016
 21
28.73129921259842
 31
0.0
  0
LINE
  5
8FE
330
1E
100
AcDbEntity
  8
7
100
AcDbLine
 10
46.53937007874016
 20
28.73129921259842
 30
0.0
 11
46.55019685039369
 21
28.77165354330708
 31
0.0
  0
LINE
  5
8FF
330
1E
100
AcDbEntity
  8
7
100
AcDbLine
 10
46.55019685039369
 20
28.77165354330708
 30
0.0
 11
46.56791338582677
 21
28.81003937007874
 31
0.0
  0
LINE
  5
900
330
1E
100
AcDbEntity
  8
7
100
AcDbLine
 10
46.56791338582677
 20
28.81003937007874
 30
0.0
 11
46.59055118110235
 21
28.84547244094488
 31
0.0
  0
LINE
  5
901
330
1E
100
AcDbEntity
  8
7
100
AcDbLine
 10
46.59055118110235
 20
28.84547244094488
 30
0.0
 11
46.62007874015748
 21
28.8759842519685
 31
0.0
  0
LINE
  5
902
330
1E
100
AcDbEntity
  8
7
100
AcDbLine
 10
46.62007874015748
 20
28.8759842519685
 30
0.0
 11
46.65354330708661
 21
28.9005905511811
 31
0.0
  0
LINE
  5
903
330
1E
100
AcDbEntity
  8
7
100
AcDbLine
 10
46.65354330708661
 20
28.9005905511811
 30
0.0
 11
46.69094488188976
 21
28.92027559055118
 31
0.0
  0
LINE
  5
904
330
1E
100
AcDbEntity
  8
7
100
AcDbLine
 10
46.52460629921259
 20
30.37992125984251
 30
0.0
 11
46.5255905511811
 21
30.43996062992126
 31
0.0
  0
LINE
  5
905
330
1E
100
AcDbEntity
  8
7
100
AcDbLine
 10
46.5255905511811
 20
30.43996062992126
 30
0.0
 11
46.52657480314959
 21
30.49311023622047
 31
0.0
  0
LINE
  5
906
330
1E
100
AcDbEntity
  8
7
100
AcDbLine
 10
46.52657480314959
 20
30.49311023622047
 30
0.0
 11
46.5275590551181
 21
30.54035433070866
 31
0.0
  0
LINE
  5
907
330
1E
100
AcDbEntity
  8
7
100
AcDbLine
 10
46.5275590551181
 20
30.54035433070866
 30
0.0
 11
46.52952755905511
 21
30.58070866141732
 31
0.0
  0
LINE
  5
908
330
1E
100
AcDbEntity
  8
7
100
AcDbLine
 10
46.52460629921259
 20
28.94881889763779
 30
0.0
 11
46.52362204724409
 21
29.01181102362204
 31
0.0
  0
LINE
  5
909
330
1E
100
AcDbEntity
  8
7
100
AcDbLine
 10
46.52362204724409
 20
29.01181102362204
 30
0.0
 11
46.52263779527558
 21
29.08070866141732
 31
0.0
  0
LINE
  5
90A
330
1E
100
AcDbEntity
  8
7
100
AcDbLine
 10
46.52263779527558
 20
29.08070866141732
 30
0.0
 11
46.52165354330707
 21
29.15354330708661
 31
0.0
  0
LINE
  5
90B
330
1E
100
AcDbEntity
  8
7
100
AcDbLine
 10
46.52165354330707
 20
29.15354330708661
 30
0.0
 11
46.52066929133858
 21
29.23129921259842
 31
0.0
  0
LINE
  5
90C
330
1E
100
AcDbEntity
  8
7
100
AcDbLine
 10
46.52066929133858
 20
29.23129921259842
 30
0.0
 11
46.52066929133858
 21
29.31200787401575
 31
0.0
  0
LINE
  5
90D
330
1E
100
AcDbEntity
  8
7
100
AcDbLine
 10
46.52066929133858
 20
29.31200787401575
 30
0.0
 11
46.51968503937007
 21
29.39566929133858
 31
0.0
  0
LINE
  5
90E
330
1E
100
AcDbEntity
  8
7
100
AcDbLine
 10
46.51968503937007
 20
29.39566929133858
 30
0.0
 11
46.51968503937007
 21
29.48228346456692
 31
0.0
  0
LINE
  5
90F
330
1E
100
AcDbEntity
  8
7
100
AcDbLine
 10
46.51968503937007
 20
29.48228346456692
 30
0.0
 11
46.51870078740157
 21
29.56988188976378
 31
0.0
  0
LINE
  5
910
330
1E
100
AcDbEntity
  8
7
100
AcDbLine
 10
46.51870078740157
 20
29.56988188976378
 30
0.0
 11
46.51870078740157
 21
29.65846456692913
 31
0.0
  0
LINE
  5
911
330
1E
100
AcDbEntity
  8
7
100
AcDbLine
 10
46.51870078740157
 20
29.65846456692913
 30
0.0
 11
46.51870078740157
 21
29.74704724409448
 31
0.0
  0
LINE
  5
912
330
1E
100
AcDbEntity
  8
7
100
AcDbLine
 10
46.51870078740157
 20
29.74704724409448
 30
0.0
 11
46.51968503937007
 21
29.83562992125984
 31
0.0
  0
LINE
  5
913
330
1E
100
AcDbEntity
  8
7
100
AcDbLine
 10
46.51968503937007
 20
29.83562992125984
 30
0.0
 11
46.51968503937007
 21
29.92224409448819
 31
0.0
  0
LINE
  5
914
330
1E
100
AcDbEntity
  8
7
100
AcDbLine
 10
46.51968503937007
 20
29.92224409448819
 30
0.0
 11
46.51968503937007
 21
30.00787401574803
 31
0.0
  0
LINE
  5
915
330
1E
100
AcDbEntity
  8
7
100
AcDbLine
 10
46.51968503937007
 20
30.00787401574803
 30
0.0
 11
46.52066929133858
 21
30.08956692913386
 31
0.0
  0
LINE
  5
916
330
1E
100
AcDbEntity
  8
7
100
AcDbLine
 10
46.52066929133858
 20
30.08956692913386
 30
0.0
 11
46.52165354330707
 21
30.16929133858267
 31
0.0
  0
LINE
  5
917
330
1E
100
AcDbEntity
  8
7
100
AcDbLine
 10
46.52165354330707
 20
30.16929133858267
 30
0.0
 11
46.52263779527558
 21
30.24409448818897
 31
0.0
  0
LINE
  5
918
330
1E
100
AcDbEntity
  8
7
100
AcDbLine
 10
46.52263779527558
 20
30.24409448818897
 30
0.0
 11
46.52263779527558
 21
30.31496062992125
 31
0.0
  0
LINE
  5
919
330
1E
100
AcDbEntity
  8
7
100
AcDbLine
 10
46.52263779527558
 20
30.31496062992125
 30
0.0
 11
46.52460629921259
 21
30.37992125984251
 31
0.0
  0
LINE
  5
91A
330
1E
100
AcDbEntity
  8
7
100
AcDbLine
 10
46.5275590551181
 20
28.84153543307086
 30
0.0
 11
46.5255905511811
 21
28.89271653543307
 31
0.0
  0
LINE
  5
91B
330
1E
100
AcDbEntity
  8
7
100
AcDbLine
 10
46.5255905511811
 20
28.89271653543307
 30
0.0
 11
46.52460629921259
 21
28.94881889763779
 31
0.0
  0
LINE
  5
91C
330
1E
100
AcDbEntity
  8
7
100
AcDbLine
 10
46.52066929133858
 20
31.56200787401575
 30
0.0
 11
46.52165354330707
 21
31.62893700787401
 31
0.0
  0
LINE
  5
91D
330
1E
100
AcDbEntity
  8
7
100
AcDbLine
 10
46.52165354330707
 20
31.62893700787401
 30
0.0
 11
46.52362204724409
 21
31.68996062992126
 31
0.0
  0
LINE
  5
91E
330
1E
100
AcDbEntity
  8
7
100
AcDbLine
 10
46.52362204724409
 20
31.68996062992126
 30
0.0
 11
46.52460629921259
 21
31.74409448818897
 31
0.0
  0
LINE
  5
91F
330
1E
100
AcDbEntity
  8
7
100
AcDbLine
 10
46.52460629921259
 20
31.74409448818897
 30
0.0
 11
46.52657480314959
 21
31.79232283464566
 31
0.0
  0
LINE
  5
920
330
1E
100
AcDbEntity
  8
7
100
AcDbLine
 10
46.52657480314959
 20
31.79232283464566
 30
0.0
 11
46.5275590551181
 21
31.83366141732283
 31
0.0
  0
LINE
  5
921
330
1E
100
AcDbEntity
  8
7
100
AcDbLine
 10
46.5275590551181
 20
31.83366141732283
 30
0.0
 11
46.52952755905511
 21
31.86712598425196
 31
0.0
  0
LINE
  5
922
330
1E
100
AcDbEntity
  8
7
100
AcDbLine
 10
46.52952755905511
 20
31.86712598425196
 30
0.0
 11
46.53149606299211
 21
31.89370078740157
 31
0.0
  0
LINE
  5
923
330
1E
100
AcDbEntity
  8
7
100
AcDbLine
 10
46.53149606299211
 20
31.89370078740157
 30
0.0
 11
46.53248031496063
 21
31.91338582677165
 31
0.0
  0
LINE
  5
924
330
1E
100
AcDbEntity
  8
7
100
AcDbLine
 10
46.53248031496063
 20
31.91338582677165
 30
0.0
 11
46.53444881889764
 21
31.92421259842519
 31
0.0
  0
LINE
  5
925
330
1E
100
AcDbEntity
  8
7
100
AcDbLine
 10
46.53444881889764
 20
31.92421259842519
 30
0.0
 11
46.53641732283464
 21
31.92814960629921
 31
0.0
  0
LINE
  5
926
330
1E
100
AcDbEntity
  8
7
100
AcDbLine
 10
46.51476377952755
 20
30.67814960629921
 30
0.0
 11
46.51476377952755
 21
30.77657480314961
 31
0.0
  0
LINE
  5
927
330
1E
100
AcDbEntity
  8
7
100
AcDbLine
 10
46.51476377952755
 20
30.77657480314961
 30
0.0
 11
46.51476377952755
 21
30.87401574803149
 31
0.0
  0
LINE
  5
928
330
1E
100
AcDbEntity
  8
7
100
AcDbLine
 10
46.51476377952755
 20
30.87401574803149
 30
0.0
 11
46.51476377952755
 21
30.97047244094488
 31
0.0
  0
LINE
  5
929
330
1E
100
AcDbEntity
  8
7
100
AcDbLine
 10
46.51476377952755
 20
30.97047244094488
 30
0.0
 11
46.51574803149606
 21
31.06496062992126
 31
0.0
  0
LINE
  5
92A
330
1E
100
AcDbEntity
  8
7
100
AcDbLine
 10
46.51574803149606
 20
31.06496062992126
 30
0.0
 11
46.51574803149606
 21
31.15649606299212
 31
0.0
  0
LINE
  5
92B
330
1E
100
AcDbEntity
  8
7
100
AcDbLine
 10
46.51574803149606
 20
31.15649606299212
 30
0.0
 11
46.51673228346456
 21
31.24606299212598
 31
0.0
  0
LINE
  5
92C
330
1E
100
AcDbEntity
  8
7
100
AcDbLine
 10
46.51673228346456
 20
31.24606299212598
 30
0.0
 11
46.51771653543306
 21
31.33169291338582
 31
0.0
  0
LINE
  5
92D
330
1E
100
AcDbEntity
  8
7
100
AcDbLine
 10
46.51771653543306
 20
31.33169291338582
 30
0.0
 11
46.51870078740157
 21
31.41338582677165
 31
0.0
  0
LINE
  5
92E
330
1E
100
AcDbEntity
  8
7
100
AcDbLine
 10
46.51870078740157
 20
31.41338582677165
 30
0.0
 11
46.51968503937007
 21
31.49015748031496
 31
0.0
  0
LINE
  5
92F
330
1E
100
AcDbEntity
  8
7
100
AcDbLine
 10
46.51968503937007
 20
31.49015748031496
 30
0.0
 11
46.52066929133858
 21
31.56200787401575
 31
0.0
  0
LINE
  5
930
330
1E
100
AcDbEntity
  8
7
100
AcDbLine
 10
46.51673228346456
 20
28.11122047244094
 30
0.0
 11
46.51574803149606
 21
28.19980314960629
 31
0.0
  0
LINE
  5
931
330
1E
100
AcDbEntity
  8
7
100
AcDbLine
 10
46.51574803149606
 20
28.19980314960629
 30
0.0
 11
46.51574803149606
 21
28.29232283464566
 31
0.0
  0
LINE
  5
932
330
1E
100
AcDbEntity
  8
7
100
AcDbLine
 10
46.51574803149606
 20
28.29232283464566
 30
0.0
 11
46.51476377952755
 21
28.38681102362204
 31
0.0
  0
LINE
  5
933
330
1E
100
AcDbEntity
  8
7
100
AcDbLine
 10
46.51476377952755
 20
28.38681102362204
 30
0.0
 11
46.51476377952755
 21
28.48326771653543
 31
0.0
  0
LINE
  5
934
330
1E
100
AcDbEntity
  8
7
100
AcDbLine
 10
46.51476377952755
 20
28.48326771653543
 30
0.0
 11
46.51476377952755
 21
28.58070866141732
 31
0.0
  0
LINE
  5
935
330
1E
100
AcDbEntity
  8
7
100
AcDbLine
 10
46.51476377952755
 20
28.58070866141732
 30
0.0
 11
46.51476377952755
 21
28.67814960629921
 31
0.0
  0
LINE
  5
936
330
1E
100
AcDbEntity
  8
7
100
AcDbLine
 10
46.53641732283464
 20
27.42814960629921
 30
0.0
 11
46.53444881889764
 21
27.43208661417323
 31
0.0
  0
LINE
  5
937
330
1E
100
AcDbEntity
  8
7
100
AcDbLine
 10
46.53444881889764
 20
27.43208661417323
 30
0.0
 11
46.53248031496063
 21
27.44389763779527
 31
0.0
  0
LINE
  5
938
330
1E
100
AcDbEntity
  8
7
100
AcDbLine
 10
46.53248031496063
 20
27.44389763779527
 30
0.0
 11
46.53149606299211
 21
27.46259842519684
 31
0.0
  0
LINE
  5
939
330
1E
100
AcDbEntity
  8
7
100
AcDbLine
 10
46.53149606299211
 20
27.46259842519684
 30
0.0
 11
46.52952755905511
 21
27.48917322834645
 31
0.0
  0
LINE
  5
93A
330
1E
100
AcDbEntity
  8
7
100
AcDbLine
 10
46.52952755905511
 20
27.48917322834645
 30
0.0
 11
46.5275590551181
 21
27.52362204724409
 31
0.0
  0
LINE
  5
93B
330
1E
100
AcDbEntity
  8
7
100
AcDbLine
 10
46.5275590551181
 20
27.52362204724409
 30
0.0
 11
46.52657480314959
 21
27.56496062992126
 31
0.0
  0
LINE
  5
93C
330
1E
100
AcDbEntity
  8
7
100
AcDbLine
 10
46.52657480314959
 20
27.56496062992126
 30
0.0
 11
46.52460629921259
 21
27.61220472440944
 31
0.0
  0
LINE
  5
93D
330
1E
100
AcDbEntity
  8
7
100
AcDbLine
 10
46.52460629921259
 20
27.61220472440944
 30
0.0
 11
46.52362204724409
 21
27.66732283464566
 31
0.0
  0
LINE
  5
93E
330
1E
100
AcDbEntity
  8
7
100
AcDbLine
 10
46.52362204724409
 20
27.66732283464566
 30
0.0
 11
46.52165354330707
 21
27.72834645669291
 31
0.0
  0
LINE
  5
93F
330
1E
100
AcDbEntity
  8
7
100
AcDbLine
 10
46.52165354330707
 20
27.72834645669291
 30
0.0
 11
46.52066929133858
 21
27.79429133858267
 31
0.0
  0
LINE
  5
940
330
1E
100
AcDbEntity
  8
7
100
AcDbLine
 10
46.52066929133858
 20
27.79429133858267
 30
0.0
 11
46.51968503937007
 21
27.86614173228346
 31
0.0
  0
LINE
  5
941
330
1E
100
AcDbEntity
  8
7
100
AcDbLine
 10
46.51968503937007
 20
27.86614173228346
 30
0.0
 11
46.51870078740157
 21
27.94389763779527
 31
0.0
  0
LINE
  5
942
330
1E
100
AcDbEntity
  8
7
100
AcDbLine
 10
46.51870078740157
 20
27.94389763779527
 30
0.0
 11
46.51771653543306
 21
28.0255905511811
 31
0.0
  0
LINE
  5
943
330
1E
100
AcDbEntity
  8
7
100
AcDbLine
 10
46.51771653543306
 20
28.0255905511811
 30
0.0
 11
46.51673228346456
 21
28.11122047244094
 31
0.0
  0
LINE
  5
944
330
1E
100
AcDbEntity
  8
7
100
AcDbLine
 10
53.33956692913385
 20
29.71948818897637
 30
0.0
 11
53.28641732283464
 21
29.71948818897637
 31
0.0
  0
LINE
  5
945
330
1E
100
AcDbEntity
  8
7
100
AcDbLine
 10
53.28641732283464
 20
29.71948818897637
 30
0.0
 11
53.17814960629921
 21
29.71850393700787
 31
0.0
  0
LINE
  5
946
330
1E
100
AcDbEntity
  8
7
100
AcDbLine
 10
53.17814960629921
 20
29.71850393700787
 30
0.0
 11
53.12007874015748
 21
29.71850393700787
 31
0.0
  0
LINE
  5
947
330
1E
100
AcDbEntity
  8
7
100
AcDbLine
 10
53.12007874015748
 20
29.71850393700787
 30
0.0
 11
53.06102362204724
 21
29.71850393700787
 31
0.0
  0
LINE
  5
948
330
1E
100
AcDbEntity
  8
7
100
AcDbLine
 10
53.03543307086613
 20
29.79527559055118
 30
0.0
 11
53.09547244094487
 21
29.79429133858267
 31
0.0
  0
LINE
  5
949
330
1E
100
AcDbEntity
  8
7
100
AcDbLine
 10
53.09547244094487
 20
29.79429133858267
 30
0.0
 11
53.15846456692913
 21
29.79429133858267
 31
0.0
  0
LINE
  5
94A
330
1E
100
AcDbEntity
  8
7
100
AcDbLine
 10
53.15846456692913
 20
29.79429133858267
 30
0.0
 11
53.2509842519685
 21
29.79429133858267
 31
0.0
  0
LINE
  5
94B
330
1E
100
AcDbEntity
  8
7
100
AcDbLine
 10
53.2509842519685
 20
29.79429133858267
 30
0.0
 11
53.33956692913385
 21
29.79330708661417
 31
0.0
  0
LINE
  5
94C
330
1E
100
AcDbEntity
  8
7
100
AcDbLine
 10
53.33956692913385
 20
29.56299212598425
 30
0.0
 11
53.28641732283464
 21
29.56299212598425
 31
0.0
  0
LINE
  5
94D
330
1E
100
AcDbEntity
  8
7
100
AcDbLine
 10
53.28641732283464
 20
29.56299212598425
 30
0.0
 11
53.22736220472441
 21
29.56299212598425
 31
0.0
  0
LINE
  5
94E
330
1E
100
AcDbEntity
  8
7
100
AcDbLine
 10
53.22736220472441
 20
29.56299212598425
 30
0.0
 11
53.16633858267716
 21
29.56200787401574
 31
0.0
  0
LINE
  5
94F
330
1E
100
AcDbEntity
  8
7
100
AcDbLine
 10
53.16633858267716
 20
29.56200787401574
 30
0.0
 11
53.1023622047244
 21
29.56200787401574
 31
0.0
  0
LINE
  5
950
330
1E
100
AcDbEntity
  8
7
100
AcDbLine
 10
53.1023622047244
 20
29.56200787401574
 30
0.0
 11
53.03543307086613
 21
29.56200787401574
 31
0.0
  0
LINE
  5
951
330
1E
100
AcDbEntity
  8
7
100
AcDbLine
 10
53.06102362204724
 20
29.63877952755905
 30
0.0
 11
53.12007874015748
 21
29.63877952755905
 31
0.0
  0
LINE
  5
952
330
1E
100
AcDbEntity
  8
7
100
AcDbLine
 10
53.12007874015748
 20
29.63877952755905
 30
0.0
 11
53.23228346456692
 21
29.63779527559054
 31
0.0
  0
LINE
  5
953
330
1E
100
AcDbEntity
  8
7
100
AcDbLine
 10
53.23228346456692
 20
29.63779527559054
 30
0.0
 11
53.33956692913385
 21
29.63779527559054
 31
0.0
  0
LINE
  5
954
330
1E
100
AcDbEntity
  8
7
100
AcDbLine
 10
53.07480314960629
 20
29.06003937007874
 30
0.0
 11
53.07381889763779
 21
29.06594488188976
 31
0.0
  0
LINE
  5
955
330
1E
100
AcDbEntity
  8
7
100
AcDbLine
 10
53.07381889763779
 20
29.06594488188976
 30
0.0
 11
53.0757874015748
 21
29.07086614173228
 31
0.0
  0
LINE
  5
956
330
1E
100
AcDbEntity
  8
7
100
AcDbLine
 10
53.0757874015748
 20
29.07086614173228
 30
0.0
 11
53.07874015748031
 21
29.07381889763779
 31
0.0
  0
LINE
  5
957
330
1E
100
AcDbEntity
  8
7
100
AcDbLine
 10
53.07874015748031
 20
29.07381889763779
 30
0.0
 11
53.08267716535432
 21
29.0767716535433
 31
0.0
  0
LINE
  5
958
330
1E
100
AcDbEntity
  8
7
100
AcDbLine
 10
53.08267716535432
 20
29.0767716535433
 30
0.0
 11
53.08759842519684
 21
29.07775590551181
 31
0.0
  0
LINE
  5
959
330
1E
100
AcDbEntity
  8
7
100
AcDbLine
 10
53.08759842519684
 20
29.07775590551181
 30
0.0
 11
53.08858267716535
 21
29.07775590551181
 31
0.0
  0
LINE
  5
95A
330
1E
100
AcDbEntity
  8
7
100
AcDbLine
 10
53.08169291338582
 20
29.0501968503937
 30
0.0
 11
53.0777559055118
 21
29.05413385826771
 31
0.0
  0
LINE
  5
95B
330
1E
100
AcDbEntity
  8
7
100
AcDbLine
 10
53.0777559055118
 20
29.05413385826771
 30
0.0
 11
53.07480314960629
 21
29.06003937007874
 31
0.0
  0
LINE
  5
95C
330
1E
100
AcDbEntity
  8
7
100
AcDbLine
 10
53.33464566929134
 20
28.84547244094488
 30
0.0
 11
53.33366141732283
 21
28.84055118110236
 31
0.0
  0
LINE
  5
95D
330
1E
100
AcDbEntity
  8
7
100
AcDbLine
 10
53.33366141732283
 20
28.84055118110236
 30
0.0
 11
53.33169291338582
 21
28.83661417322834
 31
0.0
  0
LINE
  5
95E
330
1E
100
AcDbEntity
  8
7
100
AcDbLine
 10
53.33169291338582
 20
28.83661417322834
 30
0.0
 11
53.32775590551181
 21
28.83267716535433
 31
0.0
  0
LINE
  5
95F
330
1E
100
AcDbEntity
  8
7
100
AcDbLine
 10
53.32775590551181
 20
28.83267716535433
 30
0.0
 11
53.32283464566929
 21
28.83070866141732
 31
0.0
  0
LINE
  5
960
330
1E
100
AcDbEntity
  8
7
100
AcDbLine
 10
53.32283464566929
 20
28.83070866141732
 30
0.0
 11
53.31791338582677
 21
28.83070866141732
 31
0.0
  0
LINE
  5
961
330
1E
100
AcDbEntity
  8
7
100
AcDbLine
 10
53.31791338582677
 20
28.83070866141732
 30
0.0
 11
53.31299212598425
 21
28.83267716535433
 31
0.0
  0
LINE
  5
962
330
1E
100
AcDbEntity
  8
7
100
AcDbLine
 10
53.31299212598425
 20
28.83267716535433
 30
0.0
 11
53.30905511811024
 21
28.83562992125984
 31
0.0
  0
LINE
  5
963
330
1E
100
AcDbEntity
  8
7
100
AcDbLine
 10
53.30905511811024
 20
28.83562992125984
 30
0.0
 11
53.30807086614173
 21
28.83661417322834
 31
0.0
  0
LINE
  5
964
330
1E
100
AcDbEntity
  8
7
100
AcDbLine
 10
53.10334645669291
 20
29.03543307086614
 30
0.0
 11
53.08562992125984
 21
29.04724409448819
 31
0.0
  0
LINE
  5
965
330
1E
100
AcDbEntity
  8
7
100
AcDbLine
 10
53.08562992125984
 20
29.04724409448819
 30
0.0
 11
53.08169291338582
 21
29.0501968503937
 31
0.0
  0
LINE
  5
966
330
1E
100
AcDbEntity
  8
7
100
AcDbLine
 10
53.30807086614173
 20
28.83562992125984
 30
0.0
 11
53.23917322834645
 21
28.91437007874015
 31
0.0
  0
LINE
  5
967
330
1E
100
AcDbEntity
  8
7
100
AcDbLine
 10
53.23917322834645
 20
28.91437007874015
 30
0.0
 11
53.16338582677165
 21
28.98523622047244
 31
0.0
  0
LINE
  5
968
330
1E
100
AcDbEntity
  8
7
100
AcDbLine
 10
53.16338582677165
 20
28.98523622047244
 30
0.0
 11
53.08169291338582
 21
29.04921259842519
 31
0.0
  0
LINE
  5
969
330
1E
100
AcDbEntity
  8
7
100
AcDbLine
 10
53.33366141732283
 20
28.66830708661417
 30
0.0
 11
53.28149606299212
 21
28.75
 31
0.0
  0
LINE
  5
96A
330
1E
100
AcDbEntity
  8
7
100
AcDbLine
 10
53.28149606299212
 20
28.75
 30
0.0
 11
53.22244094488188
 21
28.82480314960629
 31
0.0
  0
LINE
  5
96B
330
1E
100
AcDbEntity
  8
7
100
AcDbLine
 10
53.22244094488188
 20
28.82480314960629
 30
0.0
 11
53.15551181102361
 21
28.89468503937008
 31
0.0
  0
LINE
  5
96C
330
1E
100
AcDbEntity
  8
7
100
AcDbLine
 10
53.15551181102361
 20
28.89468503937008
 30
0.0
 11
53.08267716535432
 21
28.95767716535432
 31
0.0
  0
LINE
  5
96D
330
1E
100
AcDbEntity
  8
7
100
AcDbLine
 10
53.08267716535432
 20
28.95767716535432
 30
0.0
 11
53.00393700787402
 21
29.01377952755905
 31
0.0
  0
LINE
  5
96E
330
1E
100
AcDbEntity
  8
7
100
AcDbLine
 10
53.00393700787402
 20
29.01377952755905
 30
0.0
 11
52.92125984251968
 21
29.06102362204724
 31
0.0
  0
LINE
  5
96F
330
1E
100
AcDbEntity
  8
7
100
AcDbLine
 10
53.30807086614173
 20
30.52066929133858
 30
0.0
 11
53.31200787401574
 21
30.52362204724409
 31
0.0
  0
LINE
  5
970
330
1E
100
AcDbEntity
  8
7
100
AcDbLine
 10
53.31200787401574
 20
30.52362204724409
 30
0.0
 11
53.31594488188976
 21
30.5255905511811
 31
0.0
  0
LINE
  5
971
330
1E
100
AcDbEntity
  8
7
100
AcDbLine
 10
53.31594488188976
 20
30.5255905511811
 30
0.0
 11
53.32185039370078
 21
30.5255905511811
 31
0.0
  0
LINE
  5
972
330
1E
100
AcDbEntity
  8
7
100
AcDbLine
 10
53.32185039370078
 20
30.5255905511811
 30
0.0
 11
53.3257874015748
 21
30.52460629921259
 31
0.0
  0
LINE
  5
973
330
1E
100
AcDbEntity
  8
7
100
AcDbLine
 10
53.3257874015748
 20
30.52460629921259
 30
0.0
 11
53.33070866141731
 21
30.52165354330708
 31
0.0
  0
LINE
  5
974
330
1E
100
AcDbEntity
  8
7
100
AcDbLine
 10
53.33070866141731
 20
30.52165354330708
 30
0.0
 11
53.33366141732283
 21
30.51771653543307
 31
0.0
  0
LINE
  5
975
330
1E
100
AcDbEntity
  8
7
100
AcDbLine
 10
53.33366141732283
 20
30.51771653543307
 30
0.0
 11
53.33464566929134
 21
30.51279527559055
 31
0.0
  0
LINE
  5
976
330
1E
100
AcDbEntity
  8
7
100
AcDbLine
 10
53.33464566929134
 20
30.51279527559055
 30
0.0
 11
53.33464566929134
 21
30.51082677165354
 31
0.0
  0
LINE
  5
977
330
1E
100
AcDbEntity
  8
7
100
AcDbLine
 10
53.07874015748031
 20
30.28248031496063
 30
0.0
 11
53.0757874015748
 21
30.28641732283464
 31
0.0
  0
LINE
  5
978
330
1E
100
AcDbEntity
  8
7
100
AcDbLine
 10
53.0757874015748
 20
30.28641732283464
 30
0.0
 11
53.07480314960629
 21
30.29035433070866
 31
0.0
  0
LINE
  5
979
330
1E
100
AcDbEntity
  8
7
100
AcDbLine
 10
53.07480314960629
 20
30.29035433070866
 30
0.0
 11
53.07480314960629
 21
30.29527559055118
 31
0.0
  0
LINE
  5
97A
330
1E
100
AcDbEntity
  8
7
100
AcDbLine
 10
53.07480314960629
 20
30.29527559055118
 30
0.0
 11
53.0757874015748
 21
30.3001968503937
 31
0.0
  0
LINE
  5
97B
330
1E
100
AcDbEntity
  8
7
100
AcDbLine
 10
53.0757874015748
 20
30.3001968503937
 30
0.0
 11
53.07874015748031
 21
30.30413385826771
 31
0.0
  0
LINE
  5
97C
330
1E
100
AcDbEntity
  8
7
100
AcDbLine
 10
53.07874015748031
 20
30.30413385826771
 30
0.0
 11
53.08169291338582
 21
30.30708661417323
 31
0.0
  0
LINE
  5
97D
330
1E
100
AcDbEntity
  8
7
100
AcDbLine
 10
53.08858267716535
 20
30.27952755905511
 30
0.0
 11
53.08366141732283
 21
30.27952755905511
 31
0.0
  0
LINE
  5
97E
330
1E
100
AcDbEntity
  8
7
100
AcDbLine
 10
53.08366141732283
 20
30.27952755905511
 30
0.0
 11
53.07874015748031
 21
30.28248031496063
 31
0.0
  0
LINE
  5
97F
330
1E
100
AcDbEntity
  8
7
100
AcDbLine
 10
53.08169291338582
 20
30.30708661417323
 30
0.0
 11
53.0994094488189
 21
30.31889763779527
 31
0.0
  0
LINE
  5
980
330
1E
100
AcDbEntity
  8
7
100
AcDbLine
 10
53.0994094488189
 20
30.31889763779527
 30
0.0
 11
53.11122047244094
 21
30.3267716535433
 31
0.0
  0
LINE
  5
981
330
1E
100
AcDbEntity
  8
7
100
AcDbLine
 10
53.11122047244094
 20
30.3267716535433
 30
0.0
 11
53.11909448818898
 21
30.33169291338582
 31
0.0
  0
LINE
  5
982
330
1E
100
AcDbEntity
  8
7
100
AcDbLine
 10
53.08169291338582
 20
30.30708661417323
 30
0.0
 11
53.16338582677165
 21
30.37106299212598
 31
0.0
  0
LINE
  5
983
330
1E
100
AcDbEntity
  8
7
100
AcDbLine
 10
53.16338582677165
 20
30.37106299212598
 30
0.0
 11
53.23917322834645
 21
30.44192913385826
 31
0.0
  0
LINE
  5
984
330
1E
100
AcDbEntity
  8
7
100
AcDbLine
 10
53.23917322834645
 20
30.44192913385826
 30
0.0
 11
53.30807086614173
 21
30.52066929133858
 31
0.0
  0
LINE
  5
985
330
1E
100
AcDbEntity
  8
7
100
AcDbLine
 10
53.00393700787402
 20
30.34251968503937
 30
0.0
 11
53.08267716535432
 21
30.39862204724409
 31
0.0
  0
LINE
  5
986
330
1E
100
AcDbEntity
  8
7
100
AcDbLine
 10
53.08267716535432
 20
30.39862204724409
 30
0.0
 11
53.15551181102361
 21
30.46161417322835
 31
0.0
  0
LINE
  5
987
330
1E
100
AcDbEntity
  8
7
100
AcDbLine
 10
53.15551181102361
 20
30.46161417322835
 30
0.0
 11
53.22244094488188
 21
30.53149606299212
 31
0.0
  0
LINE
  5
988
330
1E
100
AcDbEntity
  8
7
100
AcDbLine
 10
53.22244094488188
 20
30.53149606299212
 30
0.0
 11
53.28149606299212
 21
30.60629921259842
 31
0.0
  0
LINE
  5
989
330
1E
100
AcDbEntity
  8
7
100
AcDbLine
 10
53.28149606299212
 20
30.60629921259842
 30
0.0
 11
53.33366141732283
 21
30.68799212598425
 31
0.0
  0
LINE
  5
98A
330
1E
100
AcDbEntity
  8
7
100
AcDbLine
 10
53.28346456692912
 20
28.74311023622047
 30
0.0
 11
53.22736220472441
 21
28.81496062992125
 31
0.0
  0
LINE
  5
98B
330
1E
100
AcDbEntity
  8
7
100
AcDbLine
 10
53.22736220472441
 20
28.81496062992125
 30
0.0
 11
53.16535433070866
 21
28.88287401574803
 31
0.0
  0
LINE
  5
98C
330
1E
100
AcDbEntity
  8
7
100
AcDbLine
 10
53.16535433070866
 20
28.88287401574803
 30
0.0
 11
53.09744094488188
 21
28.94389763779527
 31
0.0
  0
LINE
  5
98D
330
1E
100
AcDbEntity
  8
7
100
AcDbLine
 10
53.09744094488188
 20
28.94389763779527
 30
0.0
 11
53.02362204724409
 21
28.99803149606299
 31
0.0
  0
LINE
  5
98E
330
1E
100
AcDbEntity
  8
7
100
AcDbLine
 10
53.02362204724409
 20
28.99803149606299
 30
0.0
 11
52.94488188976377
 21
29.04625984251968
 31
0.0
  0
LINE
  5
98F
330
1E
100
AcDbEntity
  8
7
100
AcDbLine
 10
52.94488188976377
 20
30.31003937007874
 30
0.0
 11
53.02362204724409
 21
30.35826771653542
 31
0.0
  0
LINE
  5
990
330
1E
100
AcDbEntity
  8
7
100
AcDbLine
 10
53.02362204724409
 20
30.35826771653542
 30
0.0
 11
53.09744094488188
 21
30.41240157480315
 31
0.0
  0
LINE
  5
991
330
1E
100
AcDbEntity
  8
7
100
AcDbLine
 10
53.09744094488188
 20
30.41240157480315
 30
0.0
 11
53.16535433070866
 21
30.47342519685039
 31
0.0
  0
LINE
  5
992
330
1E
100
AcDbEntity
  8
7
100
AcDbLine
 10
53.16535433070866
 20
30.47342519685039
 30
0.0
 11
53.22736220472441
 21
30.54133858267716
 31
0.0
  0
LINE
  5
993
330
1E
100
AcDbEntity
  8
7
100
AcDbLine
 10
53.22736220472441
 20
30.54133858267716
 30
0.0
 11
53.28346456692912
 21
30.61318897637795
 31
0.0
  0
LINE
  5
994
330
1E
100
AcDbEntity
  8
7
100
AcDbLine
 10
53.28346456692912
 20
30.61318897637795
 30
0.0
 11
53.33267716535432
 21
30.69094488188976
 31
0.0
  0
LINE
  5
995
330
1E
100
AcDbEntity
  8
7
100
AcDbLine
 10
53.45767716535433
 20
31.06988188976377
 30
0.0
 11
53.45767716535433
 21
31.06791338582677
 31
0.0
  0
LINE
  5
996
330
1E
100
AcDbEntity
  8
7
100
AcDbLine
 10
53.45767716535433
 20
31.06791338582677
 30
0.0
 11
53.45767716535433
 21
31.06397637795275
 31
0.0
  0
LINE
  5
997
330
1E
100
AcDbEntity
  8
7
100
AcDbLine
 10
53.45767716535433
 20
31.06397637795275
 30
0.0
 11
53.45767716535433
 21
31.06102362204724
 31
0.0
  0
LINE
  5
998
330
1E
100
AcDbEntity
  8
7
100
AcDbLine
 10
53.45767716535433
 20
31.06102362204724
 30
0.0
 11
53.45669291338582
 21
31.05314960629921
 31
0.0
  0
LINE
  5
999
330
1E
100
AcDbEntity
  8
7
100
AcDbLine
 10
53.45669291338582
 20
31.05314960629921
 30
0.0
 11
53.45472440944881
 21
31.04133858267716
 31
0.0
  0
LINE
  5
99A
330
1E
100
AcDbEntity
  8
7
100
AcDbLine
 10
53.4271653543307
 20
30.86122047244094
 30
0.0
 11
53.45472440944881
 21
31.04133858267716
 31
0.0
  0
LINE
  5
99B
330
1E
100
AcDbEntity
  8
7
100
AcDbLine
 10
53.45472440944881
 20
31.04133858267716
 30
0.0
 11
53.4517716535433
 21
31.04232283464567
 31
0.0
  0
LINE
  5
99C
330
1E
100
AcDbEntity
  8
7
100
AcDbLine
 10
53.4517716535433
 20
31.04232283464567
 30
0.0
 11
53.4507874015748
 21
31.04330708661417
 31
0.0
  0
LINE
  5
99D
330
1E
100
AcDbEntity
  8
7
100
AcDbLine
 10
53.4507874015748
 20
31.04330708661417
 30
0.0
 11
53.4271653543307
 21
31.0511811023622
 31
0.0
  0
LINE
  5
99E
330
1E
100
AcDbEntity
  8
7
100
AcDbLine
 10
53.29921259842519
 20
31.39862204724409
 30
0.0
 11
53.31791338582677
 21
31.35925196850393
 31
0.0
  0
LINE
  5
99F
330
1E
100
AcDbEntity
  8
7
100
AcDbLine
 10
53.31791338582677
 20
31.35925196850393
 30
0.0
 11
53.32972440944882
 21
31.31692913385826
 31
0.0
  0
LINE
  5
9A0
330
1E
100
AcDbEntity
  8
7
100
AcDbLine
 10
53.32972440944882
 20
31.31692913385826
 30
0.0
 11
53.33267716535432
 21
31.27362204724409
 31
0.0
  0
LINE
  5
9A1
330
1E
100
AcDbEntity
  8
7
100
AcDbLine
 10
53.38090551181102
 20
31.44586614173228
 30
0.0
 11
53.40649606299212
 21
31.39173228346456
 31
0.0
  0
LINE
  5
9A2
330
1E
100
AcDbEntity
  8
7
100
AcDbLine
 10
53.40649606299212
 20
31.39173228346456
 30
0.0
 11
53.42125984251968
 21
31.33366141732283
 31
0.0
  0
LINE
  5
9A3
330
1E
100
AcDbEntity
  8
7
100
AcDbLine
 10
53.42125984251968
 20
31.33366141732283
 30
0.0
 11
53.4271653543307
 21
31.27362204724409
 31
0.0
  0
LINE
  5
9A4
330
1E
100
AcDbEntity
  8
7
100
AcDbLine
 10
53.50688976377952
 20
28.48129921259842
 30
0.0
 11
53.50688976377952
 21
28.48523622047244
 31
0.0
  0
LINE
  5
9A5
330
1E
100
AcDbEntity
  8
7
100
AcDbLine
 10
53.50688976377952
 20
28.48523622047244
 30
0.0
 11
53.50688976377952
 21
28.49704724409448
 31
0.0
  0
LINE
  5
9A6
330
1E
100
AcDbEntity
  8
7
100
AcDbLine
 10
53.50688976377952
 20
28.49704724409448
 30
0.0
 11
53.50787401574803
 21
28.60433070866141
 31
0.0
  0
LINE
  5
9A7
330
1E
100
AcDbEntity
  8
7
100
AcDbLine
 10
53.56692913385827
 20
28.60433070866141
 30
0.0
 11
53.56692913385827
 21
28.49704724409448
 31
0.0
  0
LINE
  5
9A8
330
1E
100
AcDbEntity
  8
7
100
AcDbLine
 10
53.56692913385827
 20
28.49704724409448
 30
0.0
 11
53.56791338582677
 21
28.48523622047244
 31
0.0
  0
LINE
  5
9A9
330
1E
100
AcDbEntity
  8
7
100
AcDbLine
 10
53.56791338582677
 20
28.48523622047244
 30
0.0
 11
53.56791338582677
 21
28.48129921259842
 31
0.0
  0
LINE
  5
9AA
330
1E
100
AcDbEntity
  8
7
100
AcDbLine
 10
53.51181102362204
 20
30.23129921259842
 30
0.0
 11
53.51181102362204
 21
30.23523622047244
 31
0.0
  0
LINE
  5
9AB
330
1E
100
AcDbEntity
  8
7
100
AcDbLine
 10
53.51181102362204
 20
30.23523622047244
 30
0.0
 11
53.51279527559055
 21
30.24704724409449
 31
0.0
  0
LINE
  5
9AC
330
1E
100
AcDbEntity
  8
7
100
AcDbLine
 10
53.51279527559055
 20
30.24704724409449
 30
0.0
 11
53.51279527559055
 21
30.35433070866141
 31
0.0
  0
LINE
  5
9AD
330
1E
100
AcDbEntity
  8
7
100
AcDbLine
 10
53.57185039370079
 20
30.35433070866141
 30
0.0
 11
53.57185039370079
 21
30.24704724409449
 31
0.0
  0
LINE
  5
9AE
330
1E
100
AcDbEntity
  8
7
100
AcDbLine
 10
53.57185039370079
 20
30.24704724409449
 30
0.0
 11
53.57283464566929
 21
30.23523622047244
 31
0.0
  0
LINE
  5
9AF
330
1E
100
AcDbEntity
  8
7
100
AcDbLine
 10
53.57283464566929
 20
30.23523622047244
 30
0.0
 11
53.57283464566929
 21
30.23129921259842
 31
0.0
  0
LINE
  5
9B0
330
1E
100
AcDbEntity
  8
7
100
AcDbLine
 10
53.48228346456693
 20
30.69094488188976
 30
0.0
 11
53.49311023622047
 21
30.69488188976377
 31
0.0
  0
LINE
  5
9B1
330
1E
100
AcDbEntity
  8
7
100
AcDbLine
 10
53.49311023622047
 20
30.69488188976377
 30
0.0
 11
53.49704724409448
 21
30.70570866141732
 31
0.0
  0
LINE
  5
9B2
330
1E
100
AcDbEntity
  8
7
100
AcDbLine
 10
53.4271653543307
 20
30.70570866141732
 30
0.0
 11
53.43110236220472
 21
30.69488188976377
 31
0.0
  0
LINE
  5
9B3
330
1E
100
AcDbEntity
  8
7
100
AcDbLine
 10
53.43110236220472
 20
30.69488188976377
 30
0.0
 11
53.44192913385827
 21
30.69094488188976
 31
0.0
  0
LINE
  5
9B4
330
1E
100
AcDbEntity
  8
7
100
AcDbLine
 10
53.51181102362204
 20
30.77952755905512
 30
0.0
 11
53.51082677165354
 21
30.77952755905512
 31
0.0
  0
LINE
  5
9B5
330
1E
100
AcDbEntity
  8
7
100
AcDbLine
 10
53.51082677165354
 20
30.77952755905512
 30
0.0
 11
53.50492125984252
 21
30.7755905511811
 31
0.0
  0
LINE
  5
9B6
330
1E
100
AcDbEntity
  8
7
100
AcDbLine
 10
53.50492125984252
 20
30.7755905511811
 30
0.0
 11
53.50098425196851
 21
30.77066929133858
 31
0.0
  0
LINE
  5
9B7
330
1E
100
AcDbEntity
  8
7
100
AcDbLine
 10
53.50098425196851
 20
30.77066929133858
 30
0.0
 11
53.49803149606299
 21
30.76673228346456
 31
0.0
  0
LINE
  5
9B8
330
1E
100
AcDbEntity
  8
7
100
AcDbLine
 10
53.49803149606299
 20
30.76673228346456
 30
0.0
 11
53.49803149606299
 21
30.76574803149606
 31
0.0
  0
LINE
  5
9B9
330
1E
100
AcDbEntity
  8
7
100
AcDbLine
 10
53.49803149606299
 20
30.76574803149606
 30
0.0
 11
53.49704724409448
 21
30.76181102362204
 31
0.0
  0
LINE
  5
9BA
330
1E
100
AcDbEntity
  8
7
100
AcDbLine
 10
53.49704724409448
 20
30.76181102362204
 30
0.0
 11
53.49704724409448
 21
30.75885826771653
 31
0.0
  0
LINE
  5
9BB
330
1E
100
AcDbEntity
  8
7
100
AcDbLine
 10
53.47736220472441
 20
28.94094488188976
 30
0.0
 11
53.48818897637794
 21
28.94488188976378
 31
0.0
  0
LINE
  5
9BC
330
1E
100
AcDbEntity
  8
7
100
AcDbLine
 10
53.48818897637794
 20
28.94488188976378
 30
0.0
 11
53.49212598425197
 21
28.95570866141732
 31
0.0
  0
LINE
  5
9BD
330
1E
100
AcDbEntity
  8
7
100
AcDbLine
 10
53.4271653543307
 20
28.95570866141732
 30
0.0
 11
53.43110236220472
 21
28.94488188976378
 31
0.0
  0
LINE
  5
9BE
330
1E
100
AcDbEntity
  8
7
100
AcDbLine
 10
53.43110236220472
 20
28.94488188976378
 30
0.0
 11
53.44192913385827
 21
28.94094488188976
 31
0.0
  0
LINE
  5
9BF
330
1E
100
AcDbEntity
  8
7
100
AcDbLine
 10
53.49311023622047
 20
29.01574803149606
 30
0.0
 11
53.49212598425197
 21
29.01181102362204
 31
0.0
  0
LINE
  5
9C0
330
1E
100
AcDbEntity
  8
7
100
AcDbLine
 10
53.49212598425197
 20
29.01181102362204
 30
0.0
 11
53.49212598425197
 21
29.00885826771653
 31
0.0
  0
LINE
  5
9C1
330
1E
100
AcDbEntity
  8
7
100
AcDbLine
 10
53.50688976377952
 20
29.02952755905511
 30
0.0
 11
53.50590551181102
 21
29.02952755905511
 31
0.0
  0
LINE
  5
9C2
330
1E
100
AcDbEntity
  8
7
100
AcDbLine
 10
53.50590551181102
 20
29.02952755905511
 30
0.0
 11
53.5
 21
29.0255905511811
 31
0.0
  0
LINE
  5
9C3
330
1E
100
AcDbEntity
  8
7
100
AcDbLine
 10
53.5
 20
29.0255905511811
 30
0.0
 11
53.49606299212599
 21
29.02066929133858
 31
0.0
  0
LINE
  5
9C4
330
1E
100
AcDbEntity
  8
7
100
AcDbLine
 10
53.49606299212599
 20
29.02066929133858
 30
0.0
 11
53.49311023622047
 21
29.01673228346457
 31
0.0
  0
LINE
  5
9C5
330
1E
100
AcDbEntity
  8
7
100
AcDbLine
 10
53.49311023622047
 20
29.01673228346457
 30
0.0
 11
53.49311023622047
 21
29.01574803149606
 31
0.0
  0
LINE
  5
9C6
330
1E
100
AcDbEntity
  8
7
100
AcDbLine
 10
53.51181102362204
 20
30.3011811023622
 30
0.0
 11
53.51181102362204
 21
30.30413385826771
 31
0.0
  0
LINE
  5
9C7
330
1E
100
AcDbEntity
  8
7
100
AcDbLine
 10
53.51181102362204
 20
30.30413385826771
 30
0.0
 11
53.51279527559055
 21
30.31496062992125
 31
0.0
  0
LINE
  5
9C8
330
1E
100
AcDbEntity
  8
7
100
AcDbLine
 10
53.51279527559055
 20
30.31496062992125
 30
0.0
 11
53.51279527559055
 21
30.33169291338582
 31
0.0
  0
LINE
  5
9C9
330
1E
100
AcDbEntity
  8
7
100
AcDbLine
 10
53.51279527559055
 20
30.33169291338582
 30
0.0
 11
53.51279527559055
 21
30.35433070866141
 31
0.0
  0
LINE
  5
9CA
330
1E
100
AcDbEntity
  8
7
100
AcDbLine
 10
53.57185039370079
 20
30.33169291338582
 30
0.0
 11
53.57185039370079
 21
30.31496062992125
 31
0.0
  0
LINE
  5
9CB
330
1E
100
AcDbEntity
  8
7
100
AcDbLine
 10
53.57185039370079
 20
30.31496062992125
 30
0.0
 11
53.57283464566929
 21
30.30413385826771
 31
0.0
  0
LINE
  5
9CC
330
1E
100
AcDbEntity
  8
7
100
AcDbLine
 10
53.57283464566929
 20
30.30413385826771
 30
0.0
 11
53.57283464566929
 21
30.3011811023622
 31
0.0
  0
LINE
  5
9CD
330
1E
100
AcDbEntity
  8
7
100
AcDbLine
 10
53.49704724409448
 20
30.35236220472441
 30
0.0
 11
53.49704724409448
 21
30.37992125984251
 31
0.0
  0
LINE
  5
9CE
330
1E
100
AcDbEntity
  8
7
100
AcDbLine
 10
53.49704724409448
 20
30.37992125984251
 30
0.0
 11
53.49704724409448
 21
30.41240157480315
 31
0.0
  0
LINE
  5
9CF
330
1E
100
AcDbEntity
  8
7
100
AcDbLine
 10
53.49704724409448
 20
30.41240157480315
 30
0.0
 11
53.49704724409448
 21
30.4507874015748
 31
0.0
  0
LINE
  5
9D0
330
1E
100
AcDbEntity
  8
7
100
AcDbLine
 10
53.49704724409448
 20
30.4507874015748
 30
0.0
 11
53.49704724409448
 21
30.49212598425196
 31
0.0
  0
LINE
  5
9D1
330
1E
100
AcDbEntity
  8
7
100
AcDbLine
 10
53.49704724409448
 20
30.49212598425196
 30
0.0
 11
53.49704724409448
 21
30.53444881889763
 31
0.0
  0
LINE
  5
9D2
330
1E
100
AcDbEntity
  8
7
100
AcDbLine
 10
53.49704724409448
 20
30.53444881889763
 30
0.0
 11
53.49704724409448
 21
30.5777559055118
 31
0.0
  0
LINE
  5
9D3
330
1E
100
AcDbEntity
  8
7
100
AcDbLine
 10
53.49704724409448
 20
30.5777559055118
 30
0.0
 11
53.49704724409448
 21
30.62007874015748
 31
0.0
  0
LINE
  5
9D4
330
1E
100
AcDbEntity
  8
7
100
AcDbLine
 10
53.49704724409448
 20
30.62007874015748
 30
0.0
 11
53.49704724409448
 21
30.65846456692913
 31
0.0
  0
LINE
  5
9D5
330
1E
100
AcDbEntity
  8
7
100
AcDbLine
 10
53.49704724409448
 20
30.65846456692913
 30
0.0
 11
53.49704724409448
 21
30.69389763779527
 31
0.0
  0
LINE
  5
9D6
330
1E
100
AcDbEntity
  8
7
100
AcDbLine
 10
53.49704724409448
 20
30.69389763779527
 30
0.0
 11
53.49704724409448
 21
30.72244094488189
 31
0.0
  0
LINE
  5
9D7
330
1E
100
AcDbEntity
  8
7
100
AcDbLine
 10
53.49704724409448
 20
30.72244094488189
 30
0.0
 11
53.49704724409448
 21
30.74409448818897
 31
0.0
  0
LINE
  5
9D8
330
1E
100
AcDbEntity
  8
7
100
AcDbLine
 10
53.49704724409448
 20
30.74409448818897
 30
0.0
 11
53.49704724409448
 21
30.75885826771653
 31
0.0
  0
LINE
  5
9D9
330
1E
100
AcDbEntity
  8
7
100
AcDbLine
 10
53.49704724409448
 20
30.31594488188976
 30
0.0
 11
53.49704724409448
 21
30.31988188976377
 31
0.0
  0
LINE
  5
9DA
330
1E
100
AcDbEntity
  8
7
100
AcDbLine
 10
53.49704724409448
 20
30.31988188976377
 30
0.0
 11
53.49704724409448
 21
30.33267716535433
 31
0.0
  0
LINE
  5
9DB
330
1E
100
AcDbEntity
  8
7
100
AcDbLine
 10
53.49704724409448
 20
30.33267716535433
 30
0.0
 11
53.49704724409448
 21
30.35236220472441
 31
0.0
  0
LINE
  5
9DC
330
1E
100
AcDbEntity
  8
7
100
AcDbLine
 10
53.50688976377952
 20
28.5511811023622
 30
0.0
 11
53.50688976377952
 21
28.55413385826771
 31
0.0
  0
LINE
  5
9DD
330
1E
100
AcDbEntity
  8
7
100
AcDbLine
 10
53.50688976377952
 20
28.55413385826771
 30
0.0
 11
53.50787401574803
 21
28.56496062992126
 31
0.0
  0
LINE
  5
9DE
330
1E
100
AcDbEntity
  8
7
100
AcDbLine
 10
53.50787401574803
 20
28.56496062992126
 30
0.0
 11
53.50787401574803
 21
28.58169291338582
 31
0.0
  0
LINE
  5
9DF
330
1E
100
AcDbEntity
  8
7
100
AcDbLine
 10
53.50787401574803
 20
28.58169291338582
 30
0.0
 11
53.50787401574803
 21
28.60433070866141
 31
0.0
  0
LINE
  5
9E0
330
1E
100
AcDbEntity
  8
7
100
AcDbLine
 10
53.56692913385827
 20
28.60433070866141
 30
0.0
 11
53.56692913385827
 21
28.58169291338582
 31
0.0
  0
LINE
  5
9E1
330
1E
100
AcDbEntity
  8
7
100
AcDbLine
 10
53.56692913385827
 20
28.58169291338582
 30
0.0
 11
53.56692913385827
 21
28.56496062992126
 31
0.0
  0
LINE
  5
9E2
330
1E
100
AcDbEntity
  8
7
100
AcDbLine
 10
53.56692913385827
 20
28.56496062992126
 30
0.0
 11
53.56791338582677
 21
28.55413385826771
 31
0.0
  0
LINE
  5
9E3
330
1E
100
AcDbEntity
  8
7
100
AcDbLine
 10
53.56791338582677
 20
28.55413385826771
 30
0.0
 11
53.56791338582677
 21
28.5511811023622
 31
0.0
  0
LINE
  5
9E4
330
1E
100
AcDbEntity
  8
7
100
AcDbLine
 10
53.49212598425197
 20
28.56594488188976
 30
0.0
 11
53.49212598425197
 21
28.56988188976377
 31
0.0
  0
LINE
  5
9E5
330
1E
100
AcDbEntity
  8
7
100
AcDbLine
 10
53.49212598425197
 20
28.56988188976377
 30
0.0
 11
53.49212598425197
 21
28.58267716535433
 31
0.0
  0
LINE
  5
9E6
330
1E
100
AcDbEntity
  8
7
100
AcDbLine
 10
53.49212598425197
 20
28.58267716535433
 30
0.0
 11
53.49212598425197
 21
28.6023622047244
 31
0.0
  0
LINE
  5
9E7
330
1E
100
AcDbEntity
  8
7
100
AcDbLine
 10
53.49212598425197
 20
28.6023622047244
 30
0.0
 11
53.49212598425197
 21
28.62992125984252
 31
0.0
  0
LINE
  5
9E8
330
1E
100
AcDbEntity
  8
7
100
AcDbLine
 10
53.49212598425197
 20
28.62992125984252
 30
0.0
 11
53.49212598425197
 21
28.66240157480314
 31
0.0
  0
LINE
  5
9E9
330
1E
100
AcDbEntity
  8
7
100
AcDbLine
 10
53.49212598425197
 20
28.66240157480314
 30
0.0
 11
53.49212598425197
 21
28.7007874015748
 31
0.0
  0
LINE
  5
9EA
330
1E
100
AcDbEntity
  8
7
100
AcDbLine
 10
53.49212598425197
 20
28.7007874015748
 30
0.0
 11
53.49212598425197
 21
28.74212598425197
 31
0.0
  0
LINE
  5
9EB
330
1E
100
AcDbEntity
  8
7
100
AcDbLine
 10
53.49212598425197
 20
28.74212598425197
 30
0.0
 11
53.49212598425197
 21
28.78444881889763
 31
0.0
  0
LINE
  5
9EC
330
1E
100
AcDbEntity
  8
7
100
AcDbLine
 10
53.49212598425197
 20
28.78444881889763
 30
0.0
 11
53.49212598425197
 21
28.82775590551181
 31
0.0
  0
LINE
  5
9ED
330
1E
100
AcDbEntity
  8
7
100
AcDbLine
 10
53.49212598425197
 20
28.82775590551181
 30
0.0
 11
53.49212598425197
 21
28.87007874015748
 31
0.0
  0
LINE
  5
9EE
330
1E
100
AcDbEntity
  8
7
100
AcDbLine
 10
53.49212598425197
 20
28.87007874015748
 30
0.0
 11
53.49212598425197
 21
28.90846456692913
 31
0.0
  0
LINE
  5
9EF
330
1E
100
AcDbEntity
  8
7
100
AcDbLine
 10
53.49212598425197
 20
28.90846456692913
 30
0.0
 11
53.49212598425197
 21
28.94389763779527
 31
0.0
  0
LINE
  5
9F0
330
1E
100
AcDbEntity
  8
7
100
AcDbLine
 10
53.49212598425197
 20
28.94389763779527
 30
0.0
 11
53.49212598425197
 21
28.97244094488188
 31
0.0
  0
LINE
  5
9F1
330
1E
100
AcDbEntity
  8
7
100
AcDbLine
 10
53.49212598425197
 20
28.97244094488188
 30
0.0
 11
53.49212598425197
 21
28.99409448818897
 31
0.0
  0
LINE
  5
9F2
330
1E
100
AcDbEntity
  8
7
100
AcDbLine
 10
53.49212598425197
 20
28.99409448818897
 30
0.0
 11
53.49212598425197
 21
29.00885826771653
 31
0.0
  0
LINE
  5
9F3
330
1E
100
AcDbEntity
  8
7
100
AcDbLine
 10
53.33858267716535
 20
29.56200787401574
 30
0.0
 11
53.33562992125983
 21
29.56200787401574
 31
0.0
  0
LINE
  5
9F4
330
1E
100
AcDbEntity
  8
7
100
AcDbLine
 10
53.33562992125983
 20
29.56200787401574
 30
0.0
 11
53.3248031496063
 21
29.56200787401574
 31
0.0
  0
LINE
  5
9F5
330
1E
100
AcDbEntity
  8
7
100
AcDbLine
 10
53.3248031496063
 20
29.56200787401574
 30
0.0
 11
53.30807086614173
 21
29.56200787401574
 31
0.0
  0
LINE
  5
9F6
330
1E
100
AcDbEntity
  8
7
100
AcDbLine
 10
53.30807086614173
 20
29.56200787401574
 30
0.0
 11
53.28838582677165
 21
29.56200787401574
 31
0.0
  0
LINE
  5
9F7
330
1E
100
AcDbEntity
  8
7
100
AcDbLine
 10
53.28838582677165
 20
29.56200787401574
 30
0.0
 11
53.2755905511811
 21
29.56200787401574
 31
0.0
  0
LINE
  5
9F8
330
1E
100
AcDbEntity
  8
7
100
AcDbLine
 10
53.18011811023622
 20
31.51279527559054
 30
0.0
 11
53.20570866141732
 21
31.46850393700787
 31
0.0
  0
LINE
  5
9F9
330
1E
100
AcDbEntity
  8
7
100
AcDbLine
 10
53.20570866141732
 20
31.46850393700787
 30
0.0
 11
53.29724409448818
 21
31.40452755905512
 31
0.0
  0
LINE
  5
9FA
330
1E
100
AcDbEntity
  8
7
100
AcDbLine
 10
53.29724409448818
 20
31.40452755905512
 30
0.0
 11
53.22145669291337
 21
31.53641732283464
 31
0.0
  0
LINE
  5
9FB
330
1E
100
AcDbEntity
  8
7
100
AcDbLine
 10
53.22145669291337
 20
31.53641732283464
 30
0.0
 11
53.21948818897637
 21
31.53543307086614
 31
0.0
  0
LINE
  5
9FC
330
1E
100
AcDbEntity
  8
7
100
AcDbLine
 10
53.21948818897637
 20
31.53543307086614
 30
0.0
 11
53.2027559055118
 21
31.52952755905511
 31
0.0
  0
LINE
  5
9FD
330
1E
100
AcDbEntity
  8
7
100
AcDbLine
 10
53.2027559055118
 20
31.52952755905511
 30
0.0
 11
53.18503937007874
 21
31.53051181102362
 31
0.0
  0
LINE
  5
9FE
330
1E
100
AcDbEntity
  8
7
100
AcDbLine
 10
53.18503937007874
 20
31.53051181102362
 30
0.0
 11
53.16929133858267
 21
31.53838582677165
 31
0.0
  0
LINE
  5
9FF
330
1E
100
AcDbEntity
  8
7
100
AcDbLine
 10
53.20866141732283
 20
31.62007874015748
 30
0.0
 11
53.19192913385826
 21
31.62106299212598
 31
0.0
  0
LINE
  5
A00
330
1E
100
AcDbEntity
  8
7
100
AcDbLine
 10
53.19192913385826
 20
31.62106299212598
 30
0.0
 11
53.1751968503937
 21
31.61515748031495
 31
0.0
  0
LINE
  5
A01
330
1E
100
AcDbEntity
  8
7
100
AcDbLine
 10
53.1751968503937
 20
31.61515748031495
 30
0.0
 11
53.17421259842519
 21
31.61515748031495
 31
0.0
  0
LINE
  5
A02
330
1E
100
AcDbEntity
  8
7
100
AcDbLine
 10
53.17421259842519
 20
31.61515748031495
 30
0.0
 11
53.16141732283464
 21
31.60334645669291
 31
0.0
  0
LINE
  5
A03
330
1E
100
AcDbEntity
  8
7
100
AcDbLine
 10
53.16141732283464
 20
31.60334645669291
 30
0.0
 11
53.15354330708661
 21
31.58759842519685
 31
0.0
  0
LINE
  5
A04
330
1E
100
AcDbEntity
  8
7
100
AcDbLine
 10
53.15354330708661
 20
31.58759842519685
 30
0.0
 11
53.1525590551181
 21
31.56988188976377
 31
0.0
  0
LINE
  5
A05
330
1E
100
AcDbEntity
  8
7
100
AcDbLine
 10
53.1525590551181
 20
31.56988188976377
 30
0.0
 11
53.15748031496062
 21
31.55413385826771
 31
0.0
  0
LINE
  5
A06
330
1E
100
AcDbEntity
  8
7
100
AcDbLine
 10
53.25984251968503
 20
31.55807086614173
 30
0.0
 11
53.23622047244094
 21
31.59940944881889
 31
0.0
  0
LINE
  5
A07
330
1E
100
AcDbEntity
  8
7
100
AcDbLine
 10
53.23622047244094
 20
31.59940944881889
 30
0.0
 11
53.2244094488189
 21
31.61220472440945
 31
0.0
  0
LINE
  5
A08
330
1E
100
AcDbEntity
  8
7
100
AcDbLine
 10
53.2244094488189
 20
31.61220472440945
 30
0.0
 11
53.20866141732283
 21
31.62007874015748
 31
0.0
  0
LINE
  5
A09
330
1E
100
AcDbEntity
  8
7
100
AcDbLine
 10
53.15748031496062
 20
31.55413385826771
 30
0.0
 11
53.15846456692913
 21
31.55314960629921
 31
0.0
  0
LINE
  5
A0A
330
1E
100
AcDbEntity
  8
7
100
AcDbLine
 10
53.15846456692913
 20
31.55314960629921
 30
0.0
 11
53.16929133858267
 21
31.54035433070866
 31
0.0
  0
LINE
  5
A0B
330
1E
100
AcDbEntity
  8
7
100
AcDbLine
 10
53.16929133858267
 20
31.54035433070866
 30
0.0
 11
53.18503937007874
 21
31.53248031496063
 31
0.0
  0
LINE
  5
A0C
330
1E
100
AcDbEntity
  8
7
100
AcDbLine
 10
53.18503937007874
 20
31.53248031496063
 30
0.0
 11
53.2027559055118
 21
31.53149606299212
 31
0.0
  0
LINE
  5
A0D
330
1E
100
AcDbEntity
  8
7
100
AcDbLine
 10
53.2027559055118
 20
31.53149606299212
 30
0.0
 11
53.21948818897637
 21
31.53641732283464
 31
0.0
  0
LINE
  5
A0E
330
1E
100
AcDbEntity
  8
7
100
AcDbLine
 10
53.21948818897637
 20
31.53641732283464
 30
0.0
 11
53.22244094488188
 21
31.53838582677165
 31
0.0
  0
LINE
  5
A0F
330
1E
100
AcDbEntity
  8
7
100
AcDbLine
 10
53.22244094488188
 20
31.53838582677165
 30
0.0
 11
53.22342519685038
 21
31.53740157480314
 31
0.0
  0
LINE
  5
A10
330
1E
100
AcDbEntity
  8
7
100
AcDbLine
 10
53.26377952755905
 20
31.48818897637795
 30
0.0
 11
53.2785433070866
 21
31.46259842519685
 31
0.0
  0
LINE
  5
A11
330
1E
100
AcDbEntity
  8
7
100
AcDbLine
 10
53.2785433070866
 20
31.46259842519685
 30
0.0
 11
53.29527559055118
 21
31.43405511811023
 31
0.0
  0
LINE
  5
A12
330
1E
100
AcDbEntity
  8
7
100
AcDbLine
 10
53.23031496062991
 20
31.54133858267716
 30
0.0
 11
53.23326771653543
 21
31.53740157480314
 31
0.0
  0
LINE
  5
A13
330
1E
100
AcDbEntity
  8
7
100
AcDbLine
 10
53.23326771653543
 20
31.53740157480314
 30
0.0
 11
53.24015748031496
 21
31.52755905511811
 31
0.0
  0
LINE
  5
A14
330
1E
100
AcDbEntity
  8
7
100
AcDbLine
 10
53.24015748031496
 20
31.52755905511811
 30
0.0
 11
53.25
 21
31.51082677165354
 31
0.0
  0
LINE
  5
A15
330
1E
100
AcDbEntity
  8
7
100
AcDbLine
 10
53.25
 20
31.51082677165354
 30
0.0
 11
53.26377952755905
 21
31.48818897637795
 31
0.0
  0
LINE
  5
A16
330
1E
100
AcDbEntity
  8
7
100
AcDbLine
 10
53.22342519685038
 20
31.53740157480314
 30
0.0
 11
53.23031496062991
 21
31.54133858267716
 31
0.0
  0
LINE
  5
A17
330
1E
100
AcDbEntity
  8
7
100
AcDbLine
 10
53.23031496062991
 20
31.54133858267716
 30
0.0
 11
53.3021653543307
 21
31.58267716535433
 31
0.0
  0
LINE
  5
A18
330
1E
100
AcDbEntity
  8
7
100
AcDbLine
 10
53.31988188976378
 20
31.5501968503937
 30
0.0
 11
53.33267716535432
 21
31.52854330708661
 31
0.0
  0
LINE
  5
A19
330
1E
100
AcDbEntity
  8
7
100
AcDbLine
 10
53.33267716535432
 20
31.52854330708661
 30
0.0
 11
53.34842519685039
 21
31.50196850393701
 31
0.0
  0
LINE
  5
A1A
330
1E
100
AcDbEntity
  8
7
100
AcDbLine
 10
53.34842519685039
 20
31.50196850393701
 30
0.0
 11
53.36417322834645
 21
31.47440944881889
 31
0.0
  0
LINE
  5
A1B
330
1E
100
AcDbEntity
  8
7
100
AcDbLine
 10
53.3021653543307
 20
31.58267716535433
 30
0.0
 11
53.30413385826772
 21
31.57874015748031
 31
0.0
  0
LINE
  5
A1C
330
1E
100
AcDbEntity
  8
7
100
AcDbLine
 10
53.30413385826772
 20
31.57874015748031
 30
0.0
 11
53.31003937007874
 21
31.56791338582677
 31
0.0
  0
LINE
  5
A1D
330
1E
100
AcDbEntity
  8
7
100
AcDbLine
 10
53.31003937007874
 20
31.56791338582677
 30
0.0
 11
53.31988188976378
 21
31.5501968503937
 31
0.0
  0
LINE
  5
A1E
330
1E
100
AcDbEntity
  8
7
100
AcDbLine
 10
53.42125984251968
 20
28.11614173228346
 30
0.0
 11
53.42125984251968
 21
28.08366141732283
 31
0.0
  0
LINE
  5
A1F
330
1E
100
AcDbEntity
  8
7
100
AcDbLine
 10
53.42125984251968
 20
28.08366141732283
 30
0.0
 11
53.42224409448818
 21
28.05314960629921
 31
0.0
  0
LINE
  5
A20
330
1E
100
AcDbEntity
  8
7
100
AcDbLine
 10
53.42224409448818
 20
28.05314960629921
 30
0.0
 11
53.42224409448818
 21
28.02755905511811
 31
0.0
  0
LINE
  5
A21
330
1E
100
AcDbEntity
  8
7
100
AcDbLine
 10
53.42224409448818
 20
28.02755905511811
 30
0.0
 11
53.42224409448818
 21
28.00787401574803
 31
0.0
  0
LINE
  5
A22
330
1E
100
AcDbEntity
  8
7
100
AcDbLine
 10
53.42224409448818
 20
28.00787401574803
 30
0.0
 11
53.42224409448818
 21
27.99507874015748
 31
0.0
  0
LINE
  5
A23
330
1E
100
AcDbEntity
  8
7
100
AcDbLine
 10
53.42224409448818
 20
27.99507874015748
 30
0.0
 11
53.42322834645669
 21
27.99114173228346
 31
0.0
  0
LINE
  5
A24
330
1E
100
AcDbEntity
  8
7
100
AcDbLine
 10
53.33464566929134
 20
30.68700787401574
 30
0.0
 11
53.33464566929134
 21
30.68208661417322
 31
0.0
  0
LINE
  5
A25
330
1E
100
AcDbEntity
  8
7
100
AcDbLine
 10
53.33464566929134
 20
30.68208661417322
 30
0.0
 11
53.33464566929134
 21
30.67125984251968
 31
0.0
  0
LINE
  5
A26
330
1E
100
AcDbEntity
  8
7
100
AcDbLine
 10
53.33464566929134
 20
30.67125984251968
 30
0.0
 11
53.33464566929134
 21
30.64763779527559
 31
0.0
  0
LINE
  5
A27
330
1E
100
AcDbEntity
  8
7
100
AcDbLine
 10
53.33464566929134
 20
30.64763779527559
 30
0.0
 11
53.33464566929134
 21
30.62401574803149
 31
0.0
  0
LINE
  5
A28
330
1E
100
AcDbEntity
  8
7
100
AcDbLine
 10
53.33464566929134
 20
30.62401574803149
 30
0.0
 11
53.33464566929134
 21
30.6003937007874
 31
0.0
  0
LINE
  5
A29
330
1E
100
AcDbEntity
  8
7
100
AcDbLine
 10
53.33858267716535
 20
27.99114173228346
 30
0.0
 11
53.33956692913385
 21
27.99507874015748
 31
0.0
  0
LINE
  5
A2A
330
1E
100
AcDbEntity
  8
7
100
AcDbLine
 10
53.33956692913385
 20
27.99507874015748
 30
0.0
 11
53.33956692913385
 21
28.00787401574803
 31
0.0
  0
LINE
  5
A2B
330
1E
100
AcDbEntity
  8
7
100
AcDbLine
 10
53.33956692913385
 20
28.00787401574803
 30
0.0
 11
53.33956692913385
 21
28.02755905511811
 31
0.0
  0
LINE
  5
A2C
330
1E
100
AcDbEntity
  8
7
100
AcDbLine
 10
53.33956692913385
 20
28.02755905511811
 30
0.0
 11
53.33956692913385
 21
28.05314960629921
 31
0.0
  0
LINE
  5
A2D
330
1E
100
AcDbEntity
  8
7
100
AcDbLine
 10
53.33956692913385
 20
28.05314960629921
 30
0.0
 11
53.33956692913385
 21
28.08366141732283
 31
0.0
  0
LINE
  5
A2E
330
1E
100
AcDbEntity
  8
7
100
AcDbLine
 10
53.33956692913385
 20
28.08366141732283
 30
0.0
 11
53.33956692913385
 21
28.11614173228346
 31
0.0
  0
LINE
  5
A2F
330
1E
100
AcDbEntity
  8
7
100
AcDbLine
 10
53.33464566929134
 20
28.75688976377952
 30
0.0
 11
53.33464566929134
 21
28.73326771653543
 31
0.0
  0
LINE
  5
A30
330
1E
100
AcDbEntity
  8
7
100
AcDbLine
 10
53.33464566929134
 20
28.73326771653543
 30
0.0
 11
53.33464566929134
 21
28.70964566929133
 31
0.0
  0
LINE
  5
A31
330
1E
100
AcDbEntity
  8
7
100
AcDbLine
 10
53.33464566929134
 20
28.70964566929133
 30
0.0
 11
53.33464566929134
 21
28.69192913385827
 31
0.0
  0
LINE
  5
A32
330
1E
100
AcDbEntity
  8
7
100
AcDbLine
 10
53.33464566929134
 20
28.69192913385827
 30
0.0
 11
53.33464566929134
 21
28.6761811023622
 31
0.0
  0
LINE
  5
A33
330
1E
100
AcDbEntity
  8
7
100
AcDbLine
 10
53.33464566929134
 20
28.6761811023622
 30
0.0
 11
53.33464566929134
 21
28.67027559055118
 31
0.0
  0
LINE
  5
A34
330
1E
100
AcDbEntity
  8
7
100
AcDbLine
 10
53.33464566929134
 20
28.67027559055118
 30
0.0
 11
53.33464566929134
 21
28.66929133858267
 31
0.0
  0
LINE
  5
A35
330
1E
100
AcDbEntity
  8
7
100
AcDbLine
 10
53.33956692913385
 20
29.58956692913385
 30
0.0
 11
53.33956692913385
 21
29.58070866141732
 31
0.0
  0
LINE
  5
A36
330
1E
100
AcDbEntity
  8
7
100
AcDbLine
 10
53.33956692913385
 20
29.58070866141732
 30
0.0
 11
53.33956692913385
 21
29.57283464566929
 31
0.0
  0
LINE
  5
A37
330
1E
100
AcDbEntity
  8
7
100
AcDbLine
 10
53.33956692913385
 20
29.57283464566929
 30
0.0
 11
53.33956692913385
 21
29.56692913385826
 31
0.0
  0
LINE
  5
A38
330
1E
100
AcDbEntity
  8
7
100
AcDbLine
 10
53.33956692913385
 20
29.56692913385826
 30
0.0
 11
53.33956692913385
 21
29.56299212598425
 31
0.0
  0
LINE
  5
A39
330
1E
100
AcDbEntity
  8
7
100
AcDbLine
 10
53.33956692913385
 20
29.58956692913385
 30
0.0
 11
53.33956692913385
 21
29.59744094488188
 31
0.0
  0
LINE
  5
A3A
330
1E
100
AcDbEntity
  8
7
100
AcDbLine
 10
53.33956692913385
 20
29.59744094488188
 30
0.0
 11
53.33956692913385
 21
29.60531496062992
 31
0.0
  0
LINE
  5
A3B
330
1E
100
AcDbEntity
  8
7
100
AcDbLine
 10
53.33956692913385
 20
29.63779527559054
 30
0.0
 11
53.33956692913385
 21
29.63681102362204
 31
0.0
  0
LINE
  5
A3C
330
1E
100
AcDbEntity
  8
7
100
AcDbLine
 10
53.33956692913385
 20
29.63681102362204
 30
0.0
 11
53.33956692913385
 21
29.62893700787401
 31
0.0
  0
LINE
  5
A3D
330
1E
100
AcDbEntity
  8
7
100
AcDbLine
 10
53.33956692913385
 20
29.62893700787401
 30
0.0
 11
53.33956692913385
 21
29.62007874015748
 31
0.0
  0
LINE
  5
A3E
330
1E
100
AcDbEntity
  8
7
100
AcDbLine
 10
53.33956692913385
 20
29.62007874015748
 30
0.0
 11
53.33956692913385
 21
29.61023622047244
 31
0.0
  0
LINE
  5
A3F
330
1E
100
AcDbEntity
  8
7
100
AcDbLine
 10
53.33956692913385
 20
29.61023622047244
 30
0.0
 11
53.33956692913385
 21
29.60531496062992
 31
0.0
  0
LINE
  5
A40
330
1E
100
AcDbEntity
  8
7
100
AcDbLine
 10
53.33956692913385
 20
29.7509842519685
 30
0.0
 11
53.33956692913385
 21
29.74212598425197
 31
0.0
  0
LINE
  5
A41
330
1E
100
AcDbEntity
  8
7
100
AcDbLine
 10
53.33956692913385
 20
29.74212598425197
 30
0.0
 11
53.33956692913385
 21
29.73425196850394
 31
0.0
  0
LINE
  5
A42
330
1E
100
AcDbEntity
  8
7
100
AcDbLine
 10
53.33956692913385
 20
29.73425196850394
 30
0.0
 11
53.33956692913385
 21
29.72736220472441
 31
0.0
  0
LINE
  5
A43
330
1E
100
AcDbEntity
  8
7
100
AcDbLine
 10
53.33956692913385
 20
29.72736220472441
 30
0.0
 11
53.33956692913385
 21
29.72145669291338
 31
0.0
  0
LINE
  5
A44
330
1E
100
AcDbEntity
  8
7
100
AcDbLine
 10
53.33956692913385
 20
29.72145669291338
 30
0.0
 11
53.33956692913385
 21
29.71948818897637
 31
0.0
  0
LINE
  5
A45
330
1E
100
AcDbEntity
  8
7
100
AcDbLine
 10
53.33956692913385
 20
29.7509842519685
 30
0.0
 11
53.33956692913385
 21
29.75885826771653
 31
0.0
  0
LINE
  5
A46
330
1E
100
AcDbEntity
  8
7
100
AcDbLine
 10
53.33956692913385
 20
29.75885826771653
 30
0.0
 11
53.33956692913385
 21
29.76673228346456
 31
0.0
  0
LINE
  5
A47
330
1E
100
AcDbEntity
  8
7
100
AcDbLine
 10
53.33956692913385
 20
29.79232283464567
 30
0.0
 11
53.33956692913385
 21
29.78543307086614
 31
0.0
  0
LINE
  5
A48
330
1E
100
AcDbEntity
  8
7
100
AcDbLine
 10
53.33956692913385
 20
29.78543307086614
 30
0.0
 11
53.33956692913385
 21
29.7765748031496
 31
0.0
  0
LINE
  5
A49
330
1E
100
AcDbEntity
  8
7
100
AcDbLine
 10
53.33956692913385
 20
29.7765748031496
 30
0.0
 11
53.33956692913385
 21
29.76673228346456
 31
0.0
  0
LINE
  5
A4A
330
1E
100
AcDbEntity
  8
7
100
AcDbLine
 10
53.42125984251968
 20
31.28248031496063
 30
0.0
 11
53.41633858267716
 21
31.34251968503937
 31
0.0
  0
LINE
  5
A4B
330
1E
100
AcDbEntity
  8
7
100
AcDbLine
 10
53.41633858267716
 20
31.34251968503937
 30
0.0
 11
53.4005905511811
 21
31.4005905511811
 31
0.0
  0
LINE
  5
A4C
330
1E
100
AcDbEntity
  8
7
100
AcDbLine
 10
53.4005905511811
 20
31.4005905511811
 30
0.0
 11
53.3759842519685
 21
31.45472440944882
 31
0.0
  0
LINE
  5
A4D
330
1E
100
AcDbEntity
  8
7
100
AcDbLine
 10
53.3759842519685
 20
31.45472440944882
 30
0.0
 11
53.36417322834645
 21
31.47440944881889
 31
0.0
  0
LINE
  5
A4E
330
1E
100
AcDbEntity
  8
7
100
AcDbLine
 10
53.3248031496063
 20
31.375
 30
0.0
 11
53.33661417322834
 21
31.33267716535433
 31
0.0
  0
LINE
  5
A4F
330
1E
100
AcDbEntity
  8
7
100
AcDbLine
 10
53.33661417322834
 20
31.33267716535433
 30
0.0
 11
53.33956692913385
 21
31.28937007874015
 31
0.0
  0
LINE
  5
A50
330
1E
100
AcDbEntity
  8
7
100
AcDbLine
 10
52.94685039370079
 20
29.60433070866141
 30
0.0
 11
52.94685039370079
 21
29.60629921259842
 31
0.0
  0
LINE
  5
A51
330
1E
100
AcDbEntity
  8
7
100
AcDbLine
 10
52.94685039370079
 20
29.60629921259842
 30
0.0
 11
52.94783464566929
 21
29.60925196850393
 31
0.0
  0
LINE
  5
A52
330
1E
100
AcDbEntity
  8
7
100
AcDbLine
 10
52.94783464566929
 20
29.60925196850393
 30
0.0
 11
52.95275590551181
 21
29.61318897637795
 31
0.0
  0
LINE
  5
A53
330
1E
100
AcDbEntity
  8
7
100
AcDbLine
 10
52.95275590551181
 20
29.61318897637795
 30
0.0
 11
52.97047244094487
 21
29.62106299212598
 31
0.0
  0
LINE
  5
A54
330
1E
100
AcDbEntity
  8
7
100
AcDbLine
 10
52.97047244094487
 20
29.62106299212598
 30
0.0
 11
53.01476377952756
 21
29.63287401574802
 31
0.0
  0
LINE
  5
A55
330
1E
100
AcDbEntity
  8
7
100
AcDbLine
 10
53.01476377952756
 20
29.63287401574802
 30
0.0
 11
53.06003937007874
 21
29.63877952755905
 31
0.0
  0
LINE
  5
A56
330
1E
100
AcDbEntity
  8
7
100
AcDbLine
 10
53.06003937007874
 20
29.63877952755905
 30
0.0
 11
53.06102362204724
 21
29.63877952755905
 31
0.0
  0
LINE
  5
A57
330
1E
100
AcDbEntity
  8
7
100
AcDbLine
 10
52.95964566929133
 20
29.5757874015748
 30
0.0
 11
52.9517716535433
 21
29.57972440944882
 31
0.0
  0
LINE
  5
A58
330
1E
100
AcDbEntity
  8
7
100
AcDbLine
 10
52.9517716535433
 20
29.57972440944882
 30
0.0
 11
52.94881889763779
 21
29.58267716535432
 31
0.0
  0
LINE
  5
A59
330
1E
100
AcDbEntity
  8
7
100
AcDbLine
 10
52.94881889763779
 20
29.58267716535432
 30
0.0
 11
52.94685039370079
 21
29.58562992125984
 31
0.0
  0
LINE
  5
A5A
330
1E
100
AcDbEntity
  8
7
100
AcDbLine
 10
52.94685039370079
 20
29.58562992125984
 30
0.0
 11
52.94685039370079
 21
29.58759842519684
 31
0.0
  0
LINE
  5
A5B
330
1E
100
AcDbEntity
  8
7
100
AcDbLine
 10
53.03543307086613
 20
29.56200787401574
 30
0.0
 11
52.99704724409449
 21
29.56594488188976
 31
0.0
  0
LINE
  5
A5C
330
1E
100
AcDbEntity
  8
7
100
AcDbLine
 10
52.99704724409449
 20
29.56594488188976
 30
0.0
 11
52.97933070866141
 21
29.56988188976378
 31
0.0
  0
LINE
  5
A5D
330
1E
100
AcDbEntity
  8
7
100
AcDbLine
 10
52.97933070866141
 20
29.56988188976378
 30
0.0
 11
52.96751968503937
 21
29.57283464566929
 31
0.0
  0
LINE
  5
A5E
330
1E
100
AcDbEntity
  8
7
100
AcDbLine
 10
52.96751968503937
 20
29.57283464566929
 30
0.0
 11
52.95964566929133
 21
29.5757874015748
 31
0.0
  0
LINE
  5
A5F
330
1E
100
AcDbEntity
  8
7
100
AcDbLine
 10
53.08858267716535
 20
29.07775590551181
 30
0.0
 11
53.09350393700786
 21
29.07381889763779
 31
0.0
  0
LINE
  5
A60
330
1E
100
AcDbEntity
  8
7
100
AcDbLine
 10
53.09350393700786
 20
29.07381889763779
 30
0.0
 11
53.11122047244094
 21
29.06299212598425
 31
0.0
  0
LINE
  5
A61
330
1E
100
AcDbEntity
  8
7
100
AcDbLine
 10
53.11122047244094
 20
29.06299212598425
 30
0.0
 11
53.12795275590551
 21
29.05216535433071
 31
0.0
  0
LINE
  5
A62
330
1E
100
AcDbEntity
  8
7
100
AcDbLine
 10
52.92125984251968
 20
29.06200787401575
 30
0.0
 11
52.91929133858268
 21
29.06397637795275
 31
0.0
  0
LINE
  5
A63
330
1E
100
AcDbEntity
  8
7
100
AcDbLine
 10
52.91929133858268
 20
29.06397637795275
 30
0.0
 11
52.92125984251968
 21
29.06594488188976
 31
0.0
  0
LINE
  5
A64
330
1E
100
AcDbEntity
  8
7
100
AcDbLine
 10
52.92125984251968
 20
29.06594488188976
 30
0.0
 11
52.92421259842519
 21
29.06791338582677
 31
0.0
  0
LINE
  5
A65
330
1E
100
AcDbEntity
  8
7
100
AcDbLine
 10
52.92421259842519
 20
29.06791338582677
 30
0.0
 11
52.93307086614174
 21
29.07086614173228
 31
0.0
  0
LINE
  5
A66
330
1E
100
AcDbEntity
  8
7
100
AcDbLine
 10
52.93307086614174
 20
29.07086614173228
 30
0.0
 11
52.9517716535433
 21
29.07381889763779
 31
0.0
  0
LINE
  5
A67
330
1E
100
AcDbEntity
  8
7
100
AcDbLine
 10
52.9517716535433
 20
29.07381889763779
 30
0.0
 11
52.97244094488188
 21
29.07480314960629
 31
0.0
  0
LINE
  5
A68
330
1E
100
AcDbEntity
  8
7
100
AcDbLine
 10
52.97244094488188
 20
29.07480314960629
 30
0.0
 11
52.99409448818898
 21
29.0757874015748
 31
0.0
  0
LINE
  5
A69
330
1E
100
AcDbEntity
  8
7
100
AcDbLine
 10
52.92125984251968
 20
29.06200787401575
 30
0.0
 11
52.93700787401575
 21
29.05314960629921
 31
0.0
  0
LINE
  5
A6A
330
1E
100
AcDbEntity
  8
7
100
AcDbLine
 10
52.93700787401575
 20
29.05314960629921
 30
0.0
 11
52.94488188976377
 21
29.04724409448819
 31
0.0
  0
LINE
  5
A6B
330
1E
100
AcDbEntity
  8
7
100
AcDbLine
 10
52.94488188976377
 20
30.30905511811023
 30
0.0
 11
52.94094488188976
 21
30.30610236220472
 31
0.0
  0
LINE
  5
A6C
330
1E
100
AcDbEntity
  8
7
100
AcDbLine
 10
52.94094488188976
 20
30.30610236220472
 30
0.0
 11
52.93307086614174
 21
30.3011811023622
 31
0.0
  0
LINE
  5
A6D
330
1E
100
AcDbEntity
  8
7
100
AcDbLine
 10
52.93307086614174
 20
30.3011811023622
 30
0.0
 11
52.92125984251968
 21
30.29429133858267
 31
0.0
  0
LINE
  5
A6E
330
1E
100
AcDbEntity
  8
7
100
AcDbLine
 10
52.99409448818898
 20
30.28051181102362
 30
0.0
 11
52.97047244094487
 21
30.28149606299212
 31
0.0
  0
LINE
  5
A6F
330
1E
100
AcDbEntity
  8
7
100
AcDbLine
 10
52.97047244094487
 20
30.28149606299212
 30
0.0
 11
52.94685039370079
 21
30.28444881889763
 31
0.0
  0
LINE
  5
A70
330
1E
100
AcDbEntity
  8
7
100
AcDbLine
 10
52.94685039370079
 20
30.28444881889763
 30
0.0
 11
52.93602362204724
 21
30.28543307086614
 31
0.0
  0
LINE
  5
A71
330
1E
100
AcDbEntity
  8
7
100
AcDbLine
 10
52.93602362204724
 20
30.28543307086614
 30
0.0
 11
52.9261811023622
 21
30.28838582677165
 31
0.0
  0
LINE
  5
A72
330
1E
100
AcDbEntity
  8
7
100
AcDbLine
 10
52.9261811023622
 20
30.28838582677165
 30
0.0
 11
52.92125984251968
 21
30.29035433070866
 31
0.0
  0
LINE
  5
A73
330
1E
100
AcDbEntity
  8
7
100
AcDbLine
 10
52.92125984251968
 20
30.29035433070866
 30
0.0
 11
52.91929133858268
 21
30.29232283464566
 31
0.0
  0
LINE
  5
A74
330
1E
100
AcDbEntity
  8
7
100
AcDbLine
 10
52.91929133858268
 20
30.29232283464566
 30
0.0
 11
52.92125984251968
 21
30.29429133858267
 31
0.0
  0
LINE
  5
A75
330
1E
100
AcDbEntity
  8
7
100
AcDbLine
 10
53.12795275590551
 20
30.30511811023622
 30
0.0
 11
53.12007874015748
 21
30.29921259842519
 31
0.0
  0
LINE
  5
A76
330
1E
100
AcDbEntity
  8
7
100
AcDbLine
 10
53.12007874015748
 20
30.29921259842519
 30
0.0
 11
53.10826771653543
 21
30.29133858267716
 31
0.0
  0
LINE
  5
A77
330
1E
100
AcDbEntity
  8
7
100
AcDbLine
 10
53.10826771653543
 20
30.29133858267716
 30
0.0
 11
53.08858267716535
 21
30.27952755905511
 31
0.0
  0
LINE
  5
A78
330
1E
100
AcDbEntity
  8
7
100
AcDbLine
 10
52.94685039370079
 20
29.76870078740157
 30
0.0
 11
52.94685039370079
 21
29.77066929133858
 31
0.0
  0
LINE
  5
A79
330
1E
100
AcDbEntity
  8
7
100
AcDbLine
 10
52.94685039370079
 20
29.77066929133858
 30
0.0
 11
52.94783464566929
 21
29.77362204724409
 31
0.0
  0
LINE
  5
A7A
330
1E
100
AcDbEntity
  8
7
100
AcDbLine
 10
52.94783464566929
 20
29.77362204724409
 30
0.0
 11
52.9517716535433
 21
29.7765748031496
 31
0.0
  0
LINE
  5
A7B
330
1E
100
AcDbEntity
  8
7
100
AcDbLine
 10
52.9517716535433
 20
29.7765748031496
 30
0.0
 11
52.96653543307086
 21
29.78346456692913
 31
0.0
  0
LINE
  5
A7C
330
1E
100
AcDbEntity
  8
7
100
AcDbLine
 10
52.96653543307086
 20
29.78346456692913
 30
0.0
 11
53.0009842519685
 21
29.79133858267716
 31
0.0
  0
LINE
  5
A7D
330
1E
100
AcDbEntity
  8
7
100
AcDbLine
 10
53.0009842519685
 20
29.79133858267716
 30
0.0
 11
53.03543307086613
 21
29.79527559055118
 31
0.0
  0
LINE
  5
A7E
330
1E
100
AcDbEntity
  8
7
100
AcDbLine
 10
53.06102362204724
 20
29.71850393700787
 30
0.0
 11
53.02165354330708
 21
29.72244094488189
 31
0.0
  0
LINE
  5
A7F
330
1E
100
AcDbEntity
  8
7
100
AcDbLine
 10
53.02165354330708
 20
29.72244094488189
 30
0.0
 11
52.99606299212598
 21
29.72736220472441
 31
0.0
  0
LINE
  5
A80
330
1E
100
AcDbEntity
  8
7
100
AcDbLine
 10
52.99606299212598
 20
29.72736220472441
 30
0.0
 11
52.97834645669291
 21
29.73228346456692
 31
0.0
  0
LINE
  5
A81
330
1E
100
AcDbEntity
  8
7
100
AcDbLine
 10
52.97834645669291
 20
29.73228346456692
 30
0.0
 11
52.96653543307086
 21
29.73622047244094
 31
0.0
  0
LINE
  5
A82
330
1E
100
AcDbEntity
  8
7
100
AcDbLine
 10
52.96653543307086
 20
29.73622047244094
 30
0.0
 11
52.95866141732282
 21
29.74015748031495
 31
0.0
  0
LINE
  5
A83
330
1E
100
AcDbEntity
  8
7
100
AcDbLine
 10
52.95866141732282
 20
29.74015748031495
 30
0.0
 11
52.9507874015748
 21
29.74507874015748
 31
0.0
  0
LINE
  5
A84
330
1E
100
AcDbEntity
  8
7
100
AcDbLine
 10
52.9507874015748
 20
29.74507874015748
 30
0.0
 11
52.94881889763779
 21
29.74704724409448
 31
0.0
  0
LINE
  5
A85
330
1E
100
AcDbEntity
  8
7
100
AcDbLine
 10
52.94881889763779
 20
29.74704724409448
 30
0.0
 11
52.94685039370079
 21
29.75
 31
0.0
  0
LINE
  5
A86
330
1E
100
AcDbEntity
  8
7
100
AcDbLine
 10
52.94685039370079
 20
29.75
 30
0.0
 11
52.94685039370079
 21
29.751968503937
 31
0.0
  0
LINE
  5
A87
330
1E
100
AcDbEntity
  8
7
100
AcDbLine
 10
53.31496062992126
 20
29.63877952755905
 30
0.0
 11
53.32874015748031
 21
29.63877952755905
 31
0.0
  0
LINE
  5
A88
330
1E
100
AcDbEntity
  8
7
100
AcDbLine
 10
53.32874015748031
 20
29.63877952755905
 30
0.0
 11
53.33759842519684
 21
29.63779527559054
 31
0.0
  0
LINE
  5
A89
330
1E
100
AcDbEntity
  8
7
100
AcDbLine
 10
53.33759842519684
 20
29.63779527559054
 30
0.0
 11
53.33956692913385
 21
29.63779527559054
 31
0.0
  0
LINE
  5
A8A
330
1E
100
AcDbEntity
  8
7
100
AcDbLine
 10
53.2755905511811
 20
29.63877952755905
 30
0.0
 11
53.29625984251968
 21
29.63877952755905
 31
0.0
  0
LINE
  5
A8B
330
1E
100
AcDbEntity
  8
7
100
AcDbLine
 10
53.29625984251968
 20
29.63877952755905
 30
0.0
 11
53.31496062992126
 21
29.63877952755905
 31
0.0
  0
LINE
  5
A8C
330
1E
100
AcDbEntity
  8
7
100
AcDbLine
 10
53.33956692913385
 20
29.71850393700787
 30
0.0
 11
53.33562992125983
 21
29.71850393700787
 31
0.0
  0
LINE
  5
A8D
330
1E
100
AcDbEntity
  8
7
100
AcDbLine
 10
53.33562992125983
 20
29.71850393700787
 30
0.0
 11
53.3248031496063
 21
29.71850393700787
 31
0.0
  0
LINE
  5
A8E
330
1E
100
AcDbEntity
  8
7
100
AcDbLine
 10
53.3248031496063
 20
29.71850393700787
 30
0.0
 11
53.30905511811024
 21
29.71850393700787
 31
0.0
  0
LINE
  5
A8F
330
1E
100
AcDbEntity
  8
7
100
AcDbLine
 10
53.30905511811024
 20
29.71850393700787
 30
0.0
 11
53.28937007874015
 21
29.71850393700787
 31
0.0
  0
LINE
  5
A90
330
1E
100
AcDbEntity
  8
7
100
AcDbLine
 10
53.28937007874015
 20
29.71850393700787
 30
0.0
 11
53.2755905511811
 21
29.71850393700787
 31
0.0
  0
LINE
  5
A91
330
1E
100
AcDbEntity
  8
7
100
AcDbLine
 10
53.2755905511811
 20
29.79527559055118
 30
0.0
 11
53.29625984251968
 21
29.79527559055118
 31
0.0
  0
LINE
  5
A92
330
1E
100
AcDbEntity
  8
7
100
AcDbLine
 10
53.29625984251968
 20
29.79527559055118
 30
0.0
 11
53.31397637795276
 21
29.79429133858267
 31
0.0
  0
LINE
  5
A93
330
1E
100
AcDbEntity
  8
7
100
AcDbLine
 10
53.31397637795276
 20
29.79429133858267
 30
0.0
 11
53.32874015748031
 21
29.79429133858267
 31
0.0
  0
LINE
  5
A94
330
1E
100
AcDbEntity
  8
7
100
AcDbLine
 10
53.32874015748031
 20
29.79429133858267
 30
0.0
 11
53.33661417322834
 21
29.79429133858267
 31
0.0
  0
LINE
  5
A95
330
1E
100
AcDbEntity
  8
7
100
AcDbLine
 10
53.33661417322834
 20
29.79429133858267
 30
0.0
 11
53.33858267716535
 21
29.79429133858267
 31
0.0
  0
LINE
  5
A96
330
1E
100
AcDbEntity
  8
7
100
AcDbLine
 10
46.4271653543307
 20
30.78149606299212
 30
0.0
 11
46.4271653543307
 21
30.88385826771653
 31
0.0
  0
LINE
  5
A97
330
1E
100
AcDbEntity
  8
7
100
AcDbLine
 10
46.4271653543307
 20
30.88385826771653
 30
0.0
 11
46.4271653543307
 21
30.98523622047244
 31
0.0
  0
LINE
  5
A98
330
1E
100
AcDbEntity
  8
7
100
AcDbLine
 10
46.4271653543307
 20
30.98523622047244
 30
0.0
 11
46.4271653543307
 21
31.08464566929133
 31
0.0
  0
LINE
  5
A99
330
1E
100
AcDbEntity
  8
7
100
AcDbLine
 10
46.4271653543307
 20
31.08464566929133
 30
0.0
 11
46.4271653543307
 21
31.18011811023622
 31
0.0
  0
LINE
  5
A9A
330
1E
100
AcDbEntity
  8
7
100
AcDbLine
 10
46.4271653543307
 20
31.18011811023622
 30
0.0
 11
46.4271653543307
 21
31.27362204724409
 31
0.0
  0
LINE
  5
A9B
330
1E
100
AcDbEntity
  8
7
100
AcDbLine
 10
46.4271653543307
 20
31.27362204724409
 30
0.0
 11
46.4271653543307
 21
31.36220472440944
 31
0.0
  0
LINE
  5
A9C
330
1E
100
AcDbEntity
  8
7
100
AcDbLine
 10
46.4271653543307
 20
31.36220472440944
 30
0.0
 11
46.4271653543307
 21
31.44586614173228
 31
0.0
  0
LINE
  5
A9D
330
1E
100
AcDbEntity
  8
7
100
AcDbLine
 10
46.4271653543307
 20
31.44586614173228
 30
0.0
 11
46.4271653543307
 21
31.5246062992126
 31
0.0
  0
LINE
  5
A9E
330
1E
100
AcDbEntity
  8
7
100
AcDbLine
 10
46.4271653543307
 20
31.5246062992126
 30
0.0
 11
46.4271653543307
 21
31.59842519685039
 31
0.0
  0
LINE
  5
A9F
330
1E
100
AcDbEntity
  8
7
100
AcDbLine
 10
46.4271653543307
 20
31.59842519685039
 30
0.0
 11
46.4271653543307
 21
31.66437007874015
 31
0.0
  0
LINE
  5
AA0
330
1E
100
AcDbEntity
  8
7
100
AcDbLine
 10
46.4271653543307
 20
31.66437007874015
 30
0.0
 11
46.4271653543307
 21
31.72440944881889
 31
0.0
  0
LINE
  5
AA1
330
1E
100
AcDbEntity
  8
7
100
AcDbLine
 10
46.4271653543307
 20
31.72440944881889
 30
0.0
 11
46.4271653543307
 21
31.77755905511811
 31
0.0
  0
LINE
  5
AA2
330
1E
100
AcDbEntity
  8
7
100
AcDbLine
 10
46.4271653543307
 20
31.77755905511811
 30
0.0
 11
46.4271653543307
 21
31.82283464566928
 31
0.0
  0
LINE
  5
AA3
330
1E
100
AcDbEntity
  8
7
100
AcDbLine
 10
46.4271653543307
 20
31.82283464566928
 30
0.0
 11
46.4271653543307
 21
31.86023622047244
 31
0.0
  0
LINE
  5
AA4
330
1E
100
AcDbEntity
  8
7
100
AcDbLine
 10
46.4271653543307
 20
31.86023622047244
 30
0.0
 11
46.4271653543307
 21
31.88976377952755
 31
0.0
  0
LINE
  5
AA5
330
1E
100
AcDbEntity
  8
7
100
AcDbLine
 10
46.4271653543307
 20
31.88976377952755
 30
0.0
 11
46.4271653543307
 21
31.91141732283464
 31
0.0
  0
LINE
  5
AA6
330
1E
100
AcDbEntity
  8
7
100
AcDbLine
 10
46.4271653543307
 20
31.91141732283464
 30
0.0
 11
46.4271653543307
 21
31.92421259842519
 31
0.0
  0
LINE
  5
AA7
330
1E
100
AcDbEntity
  8
7
100
AcDbLine
 10
46.4271653543307
 20
31.92421259842519
 30
0.0
 11
46.4271653543307
 21
31.92814960629921
 31
0.0
  0
LINE
  5
AA8
330
1E
100
AcDbEntity
  8
7
100
AcDbLine
 10
46.4271653543307
 20
27.49606299212598
 30
0.0
 11
46.4271653543307
 21
27.53346456692913
 31
0.0
  0
LINE
  5
AA9
330
1E
100
AcDbEntity
  8
7
100
AcDbLine
 10
46.4271653543307
 20
27.53346456692913
 30
0.0
 11
46.4271653543307
 21
27.57874015748031
 31
0.0
  0
LINE
  5
AAA
330
1E
100
AcDbEntity
  8
7
100
AcDbLine
 10
46.4271653543307
 20
27.57874015748031
 30
0.0
 11
46.4271653543307
 21
27.63188976377952
 31
0.0
  0
LINE
  5
AAB
330
1E
100
AcDbEntity
  8
7
100
AcDbLine
 10
46.4271653543307
 20
27.63188976377952
 30
0.0
 11
46.4271653543307
 21
27.69192913385826
 31
0.0
  0
LINE
  5
AAC
330
1E
100
AcDbEntity
  8
7
100
AcDbLine
 10
46.4271653543307
 20
27.69192913385826
 30
0.0
 11
46.4271653543307
 21
27.75885826771653
 31
0.0
  0
LINE
  5
AAD
330
1E
100
AcDbEntity
  8
7
100
AcDbLine
 10
46.4271653543307
 20
27.75885826771653
 30
0.0
 11
46.4271653543307
 21
27.83169291338582
 31
0.0
  0
LINE
  5
AAE
330
1E
100
AcDbEntity
  8
7
100
AcDbLine
 10
46.4271653543307
 20
27.83169291338582
 30
0.0
 11
46.4271653543307
 21
27.91043307086614
 31
0.0
  0
LINE
  5
AAF
330
1E
100
AcDbEntity
  8
7
100
AcDbLine
 10
46.4271653543307
 20
27.91043307086614
 30
0.0
 11
46.4271653543307
 21
27.99507874015748
 31
0.0
  0
LINE
  5
AB0
330
1E
100
AcDbEntity
  8
7
100
AcDbLine
 10
46.4271653543307
 20
27.99507874015748
 30
0.0
 11
46.4271653543307
 21
28.08366141732283
 31
0.0
  0
LINE
  5
AB1
330
1E
100
AcDbEntity
  8
7
100
AcDbLine
 10
46.4271653543307
 20
28.08366141732283
 30
0.0
 11
46.4271653543307
 21
28.1761811023622
 31
0.0
  0
LINE
  5
AB2
330
1E
100
AcDbEntity
  8
7
100
AcDbLine
 10
46.4271653543307
 20
28.1761811023622
 30
0.0
 11
46.4271653543307
 21
28.27263779527559
 31
0.0
  0
LINE
  5
AB3
330
1E
100
AcDbEntity
  8
7
100
AcDbLine
 10
46.4271653543307
 20
28.27263779527559
 30
0.0
 11
46.4271653543307
 21
28.37106299212598
 31
0.0
  0
LINE
  5
AB4
330
1E
100
AcDbEntity
  8
7
100
AcDbLine
 10
46.4271653543307
 20
28.37106299212598
 30
0.0
 11
46.4271653543307
 21
28.47244094488189
 31
0.0
  0
LINE
  5
AB5
330
1E
100
AcDbEntity
  8
7
100
AcDbLine
 10
46.4271653543307
 20
28.47244094488189
 30
0.0
 11
46.4271653543307
 21
28.57480314960629
 31
0.0
  0
LINE
  5
AB6
330
1E
100
AcDbEntity
  8
7
100
AcDbLine
 10
46.4271653543307
 20
28.57480314960629
 30
0.0
 11
46.4271653543307
 21
28.67814960629921
 31
0.0
  0
LINE
  5
AB7
330
1E
100
AcDbEntity
  8
7
100
AcDbLine
 10
46.4271653543307
 20
28.67814960629921
 30
0.0
 11
46.4271653543307
 21
30.67814960629921
 31
0.0
  0
LINE
  5
AB8
330
1E
100
AcDbEntity
  8
7
100
AcDbLine
 10
46.4271653543307
 20
30.67814960629921
 30
0.0
 11
46.4271653543307
 21
30.78149606299212
 31
0.0
  0
LINE
  5
AB9
330
1E
100
AcDbEntity
  8
7
100
AcDbLine
 10
46.4271653543307
 20
27.42814960629921
 30
0.0
 11
46.4271653543307
 21
27.43307086614173
 31
0.0
  0
LINE
  5
ABA
330
1E
100
AcDbEntity
  8
7
100
AcDbLine
 10
46.4271653543307
 20
27.43307086614173
 30
0.0
 11
46.4271653543307
 21
27.44586614173228
 31
0.0
  0
LINE
  5
ABB
330
1E
100
AcDbEntity
  8
7
100
AcDbLine
 10
46.4271653543307
 20
27.44586614173228
 30
0.0
 11
46.4271653543307
 21
27.46653543307086
 31
0.0
  0
LINE
  5
ABC
330
1E
100
AcDbEntity
  8
7
100
AcDbLine
 10
46.4271653543307
 20
27.46653543307086
 30
0.0
 11
46.4271653543307
 21
27.49606299212598
 31
0.0
  0
LINE
  5
ABD
330
1E
100
AcDbEntity
  8
7
100
AcDbLine
 10
53.4271653543307
 20
29.04625984251968
 30
0.0
 11
53.43110236220472
 21
29.03543307086614
 31
0.0
  0
LINE
  5
ABE
330
1E
100
AcDbEntity
  8
7
100
AcDbLine
 10
53.43110236220472
 20
29.03543307086614
 30
0.0
 11
53.44192913385827
 21
29.03149606299212
 31
0.0
  0
LINE
  5
ABF
330
1E
100
AcDbEntity
  8
7
100
AcDbLine
 10
53.4271653543307
 20
30.79625984251968
 30
0.0
 11
53.43110236220472
 21
30.78543307086614
 31
0.0
  0
LINE
  5
AC0
330
1E
100
AcDbEntity
  8
7
100
AcDbLine
 10
53.43110236220472
 20
30.78543307086614
 30
0.0
 11
53.44192913385827
 21
30.78149606299212
 31
0.0
  0
LINE
  5
AC1
330
1E
100
AcDbEntity
  8
7
100
AcDbLine
 10
53.45767716535433
 20
31.06988188976377
 30
0.0
 11
53.45570866141732
 21
31.0757874015748
 31
0.0
  0
LINE
  5
AC2
330
1E
100
AcDbEntity
  8
7
100
AcDbLine
 10
53.45570866141732
 20
31.0757874015748
 30
0.0
 11
53.4507874015748
 21
31.07972440944882
 31
0.0
  0
LINE
  5
AC3
330
1E
100
AcDbEntity
  8
7
100
AcDbLine
 10
53.44192913385827
 20
30.36515748031495
 30
0.0
 11
53.43110236220472
 21
30.36122047244094
 31
0.0
  0
LINE
  5
AC4
330
1E
100
AcDbEntity
  8
7
100
AcDbLine
 10
53.43110236220472
 20
30.36122047244094
 30
0.0
 11
53.4271653543307
 21
30.3503937007874
 31
0.0
  0
LINE
  5
AC5
330
1E
100
AcDbEntity
  8
7
100
AcDbLine
 10
53.44192913385827
 20
28.61515748031496
 30
0.0
 11
53.43110236220472
 21
28.61122047244094
 31
0.0
  0
LINE
  5
AC6
330
1E
100
AcDbEntity
  8
7
100
AcDbLine
 10
53.43110236220472
 20
28.61122047244094
 30
0.0
 11
53.4271653543307
 21
28.6003937007874
 31
0.0
  0
LINE
  5
AC7
330
1E
100
AcDbEntity
  8
7
100
AcDbLine
 10
53.49704724409448
 20
30.3503937007874
 30
0.0
 11
53.49311023622047
 21
30.36122047244094
 31
0.0
  0
LINE
  5
AC8
330
1E
100
AcDbEntity
  8
7
100
AcDbLine
 10
53.49311023622047
 20
30.36122047244094
 30
0.0
 11
53.48228346456693
 21
30.36515748031495
 31
0.0
  0
LINE
  5
AC9
330
1E
100
AcDbEntity
  8
7
100
AcDbLine
 10
53.49212598425197
 20
28.6003937007874
 30
0.0
 11
53.48818897637794
 21
28.61122047244094
 31
0.0
  0
LINE
  5
ACA
330
1E
100
AcDbEntity
  8
7
100
AcDbLine
 10
53.48818897637794
 20
28.61122047244094
 30
0.0
 11
53.47736220472441
 21
28.61515748031496
 31
0.0
  0
LINE
  5
ACB
330
1E
100
AcDbEntity
  8
7
100
AcDbLine
 10
53.58267716535433
 20
29.01673228346457
 30
0.0
 11
53.57775590551181
 21
29.0265748031496
 31
0.0
  0
LINE
  5
ACC
330
1E
100
AcDbEntity
  8
7
100
AcDbLine
 10
53.57775590551181
 20
29.0265748031496
 30
0.0
 11
53.56791338582677
 21
29.03051181102362
 31
0.0
  0
LINE
  5
ACD
330
1E
100
AcDbEntity
  8
7
100
AcDbLine
 10
53.56791338582677
 20
28.5511811023622
 30
0.0
 11
53.57775590551181
 21
28.55511811023621
 31
0.0
  0
LINE
  5
ACE
330
1E
100
AcDbEntity
  8
7
100
AcDbLine
 10
53.57775590551181
 20
28.55511811023621
 30
0.0
 11
53.58267716535433
 21
28.56496062992126
 31
0.0
  0
LINE
  5
ACF
330
1E
100
AcDbEntity
  8
7
100
AcDbLine
 10
53.49212598425197
 20
28.56594488188976
 30
0.0
 11
53.49606299212599
 21
28.55511811023621
 31
0.0
  0
LINE
  5
AD0
330
1E
100
AcDbEntity
  8
7
100
AcDbLine
 10
53.49606299212599
 20
28.55511811023621
 30
0.0
 11
53.50688976377952
 21
28.5511811023622
 31
0.0
  0
LINE
  5
AD1
330
1E
100
AcDbEntity
  8
7
100
AcDbLine
 10
53.58759842519685
 20
30.76673228346456
 30
0.0
 11
53.58267716535433
 21
30.77657480314961
 31
0.0
  0
LINE
  5
AD2
330
1E
100
AcDbEntity
  8
7
100
AcDbLine
 10
53.58267716535433
 20
30.77657480314961
 30
0.0
 11
53.57283464566929
 21
30.78051181102362
 31
0.0
  0
LINE
  5
AD3
330
1E
100
AcDbEntity
  8
7
100
AcDbLine
 10
53.57283464566929
 20
30.3011811023622
 30
0.0
 11
53.58267716535433
 21
30.30511811023622
 31
0.0
  0
LINE
  5
AD4
330
1E
100
AcDbEntity
  8
7
100
AcDbLine
 10
53.58267716535433
 20
30.30511811023622
 30
0.0
 11
53.58759842519685
 21
30.31496062992125
 31
0.0
  0
LINE
  5
AD5
330
1E
100
AcDbEntity
  8
7
100
AcDbLine
 10
53.49704724409448
 20
30.31594488188976
 30
0.0
 11
53.50098425196851
 21
30.30511811023622
 31
0.0
  0
LINE
  5
AD6
330
1E
100
AcDbEntity
  8
7
100
AcDbLine
 10
53.50098425196851
 20
30.30511811023622
 30
0.0
 11
53.51181102362204
 21
30.3011811023622
 31
0.0
  0
LINE
  5
AD7
330
1E
100
AcDbEntity
  8
7
100
AcDbLine
 10
53.58267716535433
 20
28.56496062992126
 30
0.0
 11
53.59645669291338
 21
28.79133858267716
 31
0.0
  0
LINE
  5
AD8
330
1E
100
AcDbEntity
  8
7
100
AcDbLine
 10
53.59645669291338
 20
28.79133858267716
 30
0.0
 11
53.58267716535433
 21
29.01673228346457
 31
0.0
  0
LINE
  5
AD9
330
1E
100
AcDbEntity
  8
7
100
AcDbLine
 10
53.58759842519685
 20
30.31496062992125
 30
0.0
 11
53.6023622047244
 21
30.54133858267716
 31
0.0
  0
LINE
  5
ADA
330
1E
100
AcDbEntity
  8
7
100
AcDbLine
 10
53.6023622047244
 20
30.54133858267716
 30
0.0
 11
53.58759842519685
 21
30.76673228346456
 31
0.0
  0
LINE
  5
ADB
330
1E
100
AcDbEntity
  8
7
100
AcDbLine
 10
41.71259842519684
 20
41.38877952755905
 30
0.0
 11
41.71259842519684
 21
41.37204724409449
 31
0.0
  0
LINE
  5
ADC
330
1E
100
AcDbEntity
  8
7
100
AcDbLine
 10
41.71259842519684
 20
41.37204724409449
 30
0.0
 11
41.71259842519684
 21
41.36614173228347
 31
0.0
  0
LINE
  5
ADD
330
1E
100
AcDbEntity
  8
7
100
AcDbLine
 10
41.71259842519684
 20
41.4261811023622
 30
0.0
 11
41.71259842519684
 21
41.40846456692913
 31
0.0
  0
LINE
  5
ADE
330
1E
100
AcDbEntity
  8
7
100
AcDbLine
 10
41.71259842519684
 20
41.40846456692913
 30
0.0
 11
41.71259842519684
 21
41.39173228346456
 31
0.0
  0
LINE
  5
ADF
330
1E
100
AcDbEntity
  8
7
100
AcDbLine
 10
41.71259842519684
 20
41.45374015748031
 30
0.0
 11
41.71259842519684
 21
41.44192913385826
 31
0.0
  0
LINE
  5
AE0
330
1E
100
AcDbEntity
  8
7
100
AcDbLine
 10
41.71259842519684
 20
41.44192913385826
 30
0.0
 11
41.71259842519684
 21
41.4261811023622
 31
0.0
  0
LINE
  5
AE1
330
1E
100
AcDbEntity
  8
7
100
AcDbLine
 10
40.59842519685039
 20
34.73326771653542
 30
0.0
 11
40.55708661417322
 21
34.73228346456692
 31
0.0
  0
LINE
  5
AE2
330
1E
100
AcDbEntity
  8
7
100
AcDbLine
 10
40.55708661417322
 20
34.73228346456692
 30
0.0
 11
40.52362204724409
 21
34.73228346456692
 31
0.0
  0
LINE
  5
AE3
330
1E
100
AcDbEntity
  8
7
100
AcDbLine
 10
40.52362204724409
 20
34.73228346456692
 30
0.0
 11
40.49704724409449
 21
34.73129921259842
 31
0.0
  0
LINE
  5
AE4
330
1E
100
AcDbEntity
  8
7
100
AcDbLine
 10
40.49704724409449
 20
34.73129921259842
 30
0.0
 11
40.4773622047244
 21
34.73129921259842
 31
0.0
  0
LINE
  5
AE5
330
1E
100
AcDbEntity
  8
7
100
AcDbLine
 10
40.4773622047244
 20
34.73129921259842
 30
0.0
 11
40.46653543307086
 21
34.73129921259842
 31
0.0
  0
LINE
  5
AE6
330
1E
100
AcDbEntity
  8
7
100
AcDbLine
 10
40.46653543307086
 20
34.73129921259842
 30
0.0
 11
40.46259842519684
 21
34.73129921259842
 31
0.0
  0
LINE
  5
AE7
330
1E
100
AcDbEntity
  8
7
100
AcDbLine
 10
41.61417322834645
 20
34.7509842519685
 30
0.0
 11
41.51673228346456
 21
34.74901574803149
 31
0.0
  0
LINE
  5
AE8
330
1E
100
AcDbEntity
  8
7
100
AcDbLine
 10
41.51673228346456
 20
34.74901574803149
 30
0.0
 11
41.42027559055118
 21
34.74803149606299
 31
0.0
  0
LINE
  5
AE9
330
1E
100
AcDbEntity
  8
7
100
AcDbLine
 10
41.42027559055118
 20
34.74803149606299
 30
0.0
 11
41.32578740157479
 21
34.74606299212598
 31
0.0
  0
LINE
  5
AEA
330
1E
100
AcDbEntity
  8
7
100
AcDbLine
 10
41.32578740157479
 20
34.74606299212598
 30
0.0
 11
41.23425196850393
 21
34.74409448818898
 31
0.0
  0
LINE
  5
AEB
330
1E
100
AcDbEntity
  8
7
100
AcDbLine
 10
41.23425196850393
 20
34.74409448818898
 30
0.0
 11
41.14468503937007
 21
34.74311023622047
 31
0.0
  0
LINE
  5
AEC
330
1E
100
AcDbEntity
  8
7
100
AcDbLine
 10
41.14468503937007
 20
34.74311023622047
 30
0.0
 11
41.05905511811023
 21
34.74114173228346
 31
0.0
  0
LINE
  5
AED
330
1E
100
AcDbEntity
  8
7
100
AcDbLine
 10
41.05905511811023
 20
34.74114173228346
 30
0.0
 11
40.9773622047244
 21
34.74015748031496
 31
0.0
  0
LINE
  5
AEE
330
1E
100
AcDbEntity
  8
7
100
AcDbLine
 10
40.9773622047244
 20
34.74015748031496
 30
0.0
 11
40.9005905511811
 21
34.73818897637795
 31
0.0
  0
LINE
  5
AEF
330
1E
100
AcDbEntity
  8
7
100
AcDbLine
 10
40.9005905511811
 20
34.73818897637795
 30
0.0
 11
40.82874015748031
 21
34.73720472440945
 31
0.0
  0
LINE
  5
AF0
330
1E
100
AcDbEntity
  8
7
100
AcDbLine
 10
40.82874015748031
 20
34.73720472440945
 30
0.0
 11
40.76181102362204
 21
34.73622047244095
 31
0.0
  0
LINE
  5
AF1
330
1E
100
AcDbEntity
  8
7
100
AcDbLine
 10
40.76181102362204
 20
34.73622047244095
 30
0.0
 11
40.70078740157479
 21
34.73523622047244
 31
0.0
  0
LINE
  5
AF2
330
1E
100
AcDbEntity
  8
7
100
AcDbLine
 10
40.70078740157479
 20
34.73523622047244
 30
0.0
 11
40.64665354330708
 21
34.73425196850393
 31
0.0
  0
LINE
  5
AF3
330
1E
100
AcDbEntity
  8
7
100
AcDbLine
 10
40.64665354330708
 20
34.73425196850393
 30
0.0
 11
40.59842519685039
 21
34.73326771653542
 31
0.0
  0
LINE
  5
AF4
330
1E
100
AcDbEntity
  8
7
100
AcDbLine
 10
42.8257874015748
 20
34.73326771653542
 30
0.0
 11
42.7775590551181
 21
34.73425196850393
 31
0.0
  0
LINE
  5
AF5
330
1E
100
AcDbEntity
  8
7
100
AcDbLine
 10
42.7775590551181
 20
34.73425196850393
 30
0.0
 11
42.72342519685039
 21
34.73523622047244
 31
0.0
  0
LINE
  5
AF6
330
1E
100
AcDbEntity
  8
7
100
AcDbLine
 10
42.72342519685039
 20
34.73523622047244
 30
0.0
 11
42.66240157480314
 21
34.73622047244095
 31
0.0
  0
LINE
  5
AF7
330
1E
100
AcDbEntity
  8
7
100
AcDbLine
 10
42.66240157480314
 20
34.73622047244095
 30
0.0
 11
42.59645669291338
 21
34.73720472440945
 31
0.0
  0
LINE
  5
AF8
330
1E
100
AcDbEntity
  8
7
100
AcDbLine
 10
42.59645669291338
 20
34.73720472440945
 30
0.0
 11
42.52362204724408
 21
34.73818897637795
 31
0.0
  0
LINE
  5
AF9
330
1E
100
AcDbEntity
  8
7
100
AcDbLine
 10
42.52362204724408
 20
34.73818897637795
 30
0.0
 11
42.44685039370078
 21
34.74015748031496
 31
0.0
  0
LINE
  5
AFA
330
1E
100
AcDbEntity
  8
7
100
AcDbLine
 10
42.44685039370078
 20
34.74015748031496
 30
0.0
 11
42.36515748031496
 21
34.74114173228346
 31
0.0
  0
LINE
  5
AFB
330
1E
100
AcDbEntity
  8
7
100
AcDbLine
 10
42.36515748031496
 20
34.74114173228346
 30
0.0
 11
42.27952755905511
 21
34.74311023622047
 31
0.0
  0
LINE
  5
AFC
330
1E
100
AcDbEntity
  8
7
100
AcDbLine
 10
42.27952755905511
 20
34.74311023622047
 30
0.0
 11
42.19094488188976
 21
34.74409448818898
 31
0.0
  0
LINE
  5
AFD
330
1E
100
AcDbEntity
  8
7
100
AcDbLine
 10
42.19094488188976
 20
34.74409448818898
 30
0.0
 11
42.09842519685039
 21
34.74606299212598
 31
0.0
  0
LINE
  5
AFE
330
1E
100
AcDbEntity
  8
7
100
AcDbLine
 10
42.09842519685039
 20
34.74606299212598
 30
0.0
 11
42.00393700787401
 21
34.74803149606299
 31
0.0
  0
LINE
  5
AFF
330
1E
100
AcDbEntity
  8
7
100
AcDbLine
 10
42.00393700787401
 20
34.74803149606299
 30
0.0
 11
41.90748031496062
 21
34.74901574803149
 31
0.0
  0
LINE
  5
B00
330
1E
100
AcDbEntity
  8
7
100
AcDbLine
 10
41.90748031496062
 20
34.74901574803149
 30
0.0
 11
41.81003937007874
 21
34.7509842519685
 31
0.0
  0
LINE
  5
B01
330
1E
100
AcDbEntity
  8
7
100
AcDbLine
 10
41.81003937007874
 20
34.7509842519685
 30
0.0
 11
41.71259842519684
 21
34.75295275590551
 31
0.0
  0
LINE
  5
B02
330
1E
100
AcDbEntity
  8
7
100
AcDbLine
 10
41.71259842519684
 20
34.75295275590551
 30
0.0
 11
41.61417322834645
 21
34.7509842519685
 31
0.0
  0
LINE
  5
B03
330
1E
100
AcDbEntity
  8
7
100
AcDbLine
 10
42.96259842519684
 20
34.73129921259842
 30
0.0
 11
42.95866141732282
 21
34.73129921259842
 31
0.0
  0
LINE
  5
B04
330
1E
100
AcDbEntity
  8
7
100
AcDbLine
 10
42.95866141732282
 20
34.73129921259842
 30
0.0
 11
42.94685039370079
 21
34.73129921259842
 31
0.0
  0
LINE
  5
B05
330
1E
100
AcDbEntity
  8
7
100
AcDbLine
 10
42.94685039370079
 20
34.73129921259842
 30
0.0
 11
42.92814960629921
 21
34.73129921259842
 31
0.0
  0
LINE
  5
B06
330
1E
100
AcDbEntity
  8
7
100
AcDbLine
 10
42.92814960629921
 20
34.73129921259842
 30
0.0
 11
42.90059055118109
 21
34.73228346456692
 31
0.0
  0
LINE
  5
B07
330
1E
100
AcDbEntity
  8
7
100
AcDbLine
 10
42.90059055118109
 20
34.73228346456692
 30
0.0
 11
42.86712598425196
 21
34.73228346456692
 31
0.0
  0
LINE
  5
B08
330
1E
100
AcDbEntity
  8
7
100
AcDbLine
 10
42.86712598425196
 20
34.73228346456692
 30
0.0
 11
42.8257874015748
 21
34.73326771653542
 31
0.0
  0
LINE
  5
B09
330
1E
100
AcDbEntity
  8
7
100
AcDbLine
 10
42.376968503937
 20
41.31299212598425
 30
0.0
 11
42.39960629921259
 21
41.3759842519685
 31
0.0
  0
LINE
  5
B0A
330
1E
100
AcDbEntity
  8
7
100
AcDbLine
 10
42.39960629921259
 20
41.3759842519685
 30
0.0
 11
42.43799212598425
 21
41.45767716535432
 31
0.0
  0
LINE
  5
B0B
330
1E
100
AcDbEntity
  8
7
100
AcDbLine
 10
42.33956692913385
 20
41.16240157480315
 30
0.0
 11
42.35531496062992
 21
41.23818897637796
 31
0.0
  0
LINE
  5
B0C
330
1E
100
AcDbEntity
  8
7
100
AcDbLine
 10
42.35531496062992
 20
41.23818897637796
 30
0.0
 11
42.376968503937
 21
41.31299212598425
 31
0.0
  0
LINE
  5
B0D
330
1E
100
AcDbEntity
  8
7
100
AcDbLine
 10
42.33169291338582
 20
41.25196850393701
 30
0.0
 11
42.34940944881889
 21
41.31200787401574
 31
0.0
  0
LINE
  5
B0E
330
1E
100
AcDbEntity
  8
7
100
AcDbLine
 10
42.34940944881889
 20
41.31200787401574
 30
0.0
 11
42.40944881889763
 21
41.45275590551181
 31
0.0
  0
LINE
  5
B0F
330
1E
100
AcDbEntity
  8
7
100
AcDbLine
 10
41.01574803149605
 20
41.4517716535433
 30
0.0
 11
41.01968503937007
 21
41.44389763779527
 31
0.0
  0
LINE
  5
B10
330
1E
100
AcDbEntity
  8
7
100
AcDbLine
 10
41.01968503937007
 20
41.44389763779527
 30
0.0
 11
41.04822834645669
 21
41.38287401574802
 31
0.0
  0
LINE
  5
B11
330
1E
100
AcDbEntity
  8
7
100
AcDbLine
 10
41.04822834645669
 20
41.38287401574802
 30
0.0
 11
41.07283464566928
 21
41.31791338582677
 31
0.0
  0
LINE
  5
B12
330
1E
100
AcDbEntity
  8
7
100
AcDbLine
 10
41.07283464566928
 20
41.31791338582677
 30
0.0
 11
41.09251968503936
 21
41.25196850393701
 31
0.0
  0
LINE
  5
B13
330
1E
100
AcDbEntity
  8
7
100
AcDbLine
 10
41.89960629921259
 20
41.36811023622047
 30
0.0
 11
41.89960629921259
 21
41.29232283464566
 31
0.0
  0
LINE
  5
B14
330
1E
100
AcDbEntity
  8
7
100
AcDbLine
 10
41.89960629921259
 20
41.29232283464566
 30
0.0
 11
41.89960629921259
 21
41.21062992125984
 31
0.0
  0
LINE
  5
B15
330
1E
100
AcDbEntity
  8
7
100
AcDbLine
 10
41.52460629921259
 20
41.21062992125984
 30
0.0
 11
41.52460629921259
 21
41.29232283464566
 31
0.0
  0
LINE
  5
B16
330
1E
100
AcDbEntity
  8
7
100
AcDbLine
 10
41.52460629921259
 20
41.29232283464566
 30
0.0
 11
41.52460629921259
 21
41.36811023622047
 31
0.0
  0
LINE
  5
B17
330
1E
100
AcDbEntity
  8
7
100
AcDbLine
 10
41.71259842519684
 20
41.36614173228347
 30
0.0
 11
41.71259842519684
 21
41.26870078740156
 31
0.0
  0
LINE
  5
B18
330
1E
100
AcDbEntity
  8
7
100
AcDbLine
 10
41.71259842519684
 20
41.26870078740156
 30
0.0
 11
41.71259842519684
 21
41.16240157480315
 31
0.0
  0
LINE
  5
B19
330
1E
100
AcDbEntity
  8
7
100
AcDbLine
 10
41.60531496062992
 20
41.67224409448819
 30
0.0
 11
41.65059055118109
 21
41.67421259842519
 31
0.0
  0
LINE
  5
B1A
330
1E
100
AcDbEntity
  8
7
100
AcDbLine
 10
41.65059055118109
 20
41.67421259842519
 30
0.0
 11
41.66141732283464
 21
41.67421259842519
 31
0.0
  0
LINE
  5
B1B
330
1E
100
AcDbEntity
  8
7
100
AcDbLine
 10
41.66141732283464
 20
41.67421259842519
 30
0.0
 11
41.71259842519684
 21
41.67421259842519
 31
0.0
  0
LINE
  5
B1C
330
1E
100
AcDbEntity
  8
7
100
AcDbLine
 10
41.71259842519684
 20
41.67421259842519
 30
0.0
 11
41.76279527559055
 21
41.67421259842519
 31
0.0
  0
LINE
  5
B1D
330
1E
100
AcDbEntity
  8
7
100
AcDbLine
 10
41.76279527559055
 20
41.67421259842519
 30
0.0
 11
41.78248031496063
 21
41.67421259842519
 31
0.0
  0
LINE
  5
B1E
330
1E
100
AcDbEntity
  8
7
100
AcDbLine
 10
41.78248031496063
 20
41.67421259842519
 30
0.0
 11
41.81102362204724
 21
41.67322834645669
 31
0.0
  0
LINE
  5
B1F
330
1E
100
AcDbEntity
  8
7
100
AcDbLine
 10
41.81102362204724
 20
41.67322834645669
 30
0.0
 11
41.83759842519684
 21
41.67125984251969
 31
0.0
  0
LINE
  5
B20
330
1E
100
AcDbEntity
  8
7
100
AcDbLine
 10
41.83759842519684
 20
41.66830708661417
 30
0.0
 11
41.83759842519684
 21
41.66732283464567
 31
0.0
  0
LINE
  5
B21
330
1E
100
AcDbEntity
  8
7
100
AcDbLine
 10
41.83759842519684
 20
41.66732283464567
 30
0.0
 11
41.83759842519684
 21
41.64370078740157
 31
0.0
  0
LINE
  5
B22
330
1E
100
AcDbEntity
  8
7
100
AcDbLine
 10
41.52362204724409
 20
41.59744094488188
 30
0.0
 11
41.52362204724409
 21
41.62303149606299
 31
0.0
  0
LINE
  5
B23
330
1E
100
AcDbEntity
  8
7
100
AcDbLine
 10
41.52362204724409
 20
41.62303149606299
 30
0.0
 11
41.52263779527558
 21
41.63779527559055
 31
0.0
  0
LINE
  5
B24
330
1E
100
AcDbEntity
  8
7
100
AcDbLine
 10
41.52263779527558
 20
41.63779527559055
 30
0.0
 11
41.52263779527558
 21
41.64370078740157
 31
0.0
  0
LINE
  5
B25
330
1E
100
AcDbEntity
  8
7
100
AcDbLine
 10
41.90059055118109
 20
41.59744094488188
 30
0.0
 11
41.9015748031496
 21
41.62303149606299
 31
0.0
  0
LINE
  5
B26
330
1E
100
AcDbEntity
  8
7
100
AcDbLine
 10
41.9015748031496
 20
41.62303149606299
 30
0.0
 11
41.9015748031496
 21
41.63779527559055
 31
0.0
  0
LINE
  5
B27
330
1E
100
AcDbEntity
  8
7
100
AcDbLine
 10
41.9015748031496
 20
41.63779527559055
 30
0.0
 11
41.9025590551181
 21
41.64370078740157
 31
0.0
  0
LINE
  5
B28
330
1E
100
AcDbEntity
  8
7
100
AcDbLine
 10
41.751968503937
 20
41.69881889763779
 30
0.0
 11
41.75590551181102
 21
41.70866141732282
 31
0.0
  0
LINE
  5
B29
330
1E
100
AcDbEntity
  8
7
100
AcDbLine
 10
41.75590551181102
 20
41.70866141732282
 30
0.0
 11
41.76673228346456
 21
41.71358267716534
 31
0.0
  0
LINE
  5
B2A
330
1E
100
AcDbEntity
  8
7
100
AcDbLine
 10
41.76673228346456
 20
41.71259842519684
 30
0.0
 11
41.75590551181102
 21
41.70866141732282
 31
0.0
  0
LINE
  5
B2B
330
1E
100
AcDbEntity
  8
7
100
AcDbLine
 10
41.75590551181102
 20
41.70866141732282
 30
0.0
 11
41.751968503937
 21
41.69783464566928
 31
0.0
  0
LINE
  5
B2C
330
1E
100
AcDbEntity
  8
7
100
AcDbLine
 10
41.9025590551181
 20
41.71259842519684
 30
0.0
 11
41.89173228346456
 21
41.70866141732282
 31
0.0
  0
LINE
  5
B2D
330
1E
100
AcDbEntity
  8
7
100
AcDbLine
 10
41.89173228346456
 20
41.70866141732282
 30
0.0
 11
41.88779527559055
 21
41.69783464566928
 31
0.0
  0
LINE
  5
B2E
330
1E
100
AcDbEntity
  8
7
100
AcDbLine
 10
41.53740157480314
 20
41.69783464566928
 30
0.0
 11
41.53346456692913
 21
41.70866141732282
 31
0.0
  0
LINE
  5
B2F
330
1E
100
AcDbEntity
  8
7
100
AcDbLine
 10
41.53346456692913
 20
41.70866141732282
 30
0.0
 11
41.52263779527558
 21
41.71259842519684
 31
0.0
  0
LINE
  5
B30
330
1E
100
AcDbEntity
  8
7
100
AcDbLine
 10
41.67224409448818
 20
41.69783464566928
 30
0.0
 11
41.66830708661417
 21
41.70866141732282
 31
0.0
  0
LINE
  5
B31
330
1E
100
AcDbEntity
  8
7
100
AcDbLine
 10
41.66830708661417
 20
41.70866141732282
 30
0.0
 11
41.65748031496063
 21
41.71259842519684
 31
0.0
  0
LINE
  5
B32
330
1E
100
AcDbEntity
  8
7
100
AcDbLine
 10
41.88779527559055
 20
41.65846456692913
 30
0.0
 11
41.89173228346456
 21
41.64763779527558
 31
0.0
  0
LINE
  5
B33
330
1E
100
AcDbEntity
  8
7
100
AcDbLine
 10
41.89173228346456
 20
41.64763779527558
 30
0.0
 11
41.9025590551181
 21
41.64370078740157
 31
0.0
  0
LINE
  5
B34
330
1E
100
AcDbEntity
  8
7
100
AcDbLine
 10
41.52263779527558
 20
41.64370078740157
 30
0.0
 11
41.53346456692913
 21
41.64763779527558
 31
0.0
  0
LINE
  5
B35
330
1E
100
AcDbEntity
  8
7
100
AcDbLine
 10
41.53346456692913
 20
41.64763779527558
 30
0.0
 11
41.53740157480314
 21
41.65846456692913
 31
0.0
  0
LINE
  5
B36
330
1E
100
AcDbEntity
  8
7
100
AcDbLine
 10
41.53740157480314
 20
41.69291338582676
 30
0.0
 11
41.53346456692913
 21
41.70374015748031
 31
0.0
  0
LINE
  5
B37
330
1E
100
AcDbEntity
  8
7
100
AcDbLine
 10
41.53346456692913
 20
41.70374015748031
 30
0.0
 11
41.52263779527558
 21
41.70767716535432
 31
0.0
  0
LINE
  5
B38
330
1E
100
AcDbEntity
  8
7
100
AcDbLine
 10
41.93700787401574
 20
41.71358267716534
 30
0.0
 11
41.93307086614173
 21
41.71358267716534
 31
0.0
  0
LINE
  5
B39
330
1E
100
AcDbEntity
  8
7
100
AcDbLine
 10
41.93307086614173
 20
41.71358267716534
 30
0.0
 11
41.92125984251968
 21
41.71358267716534
 31
0.0
  0
LINE
  5
B3A
330
1E
100
AcDbEntity
  8
7
100
AcDbLine
 10
41.92125984251968
 20
41.71358267716534
 30
0.0
 11
41.9015748031496
 21
41.71358267716534
 31
0.0
  0
LINE
  5
B3B
330
1E
100
AcDbEntity
  8
7
100
AcDbLine
 10
41.9015748031496
 20
41.71358267716534
 30
0.0
 11
41.8759842519685
 21
41.71358267716534
 31
0.0
  0
LINE
  5
B3C
330
1E
100
AcDbEntity
  8
7
100
AcDbLine
 10
41.8759842519685
 20
41.71358267716534
 30
0.0
 11
41.84350393700786
 21
41.71358267716534
 31
0.0
  0
LINE
  5
B3D
330
1E
100
AcDbEntity
  8
7
100
AcDbLine
 10
41.84350393700786
 20
41.71358267716534
 30
0.0
 11
41.80708661417322
 21
41.71358267716534
 31
0.0
  0
LINE
  5
B3E
330
1E
100
AcDbEntity
  8
7
100
AcDbLine
 10
41.80708661417322
 20
41.71358267716534
 30
0.0
 11
41.76673228346456
 21
41.71358267716534
 31
0.0
  0
LINE
  5
B3F
330
1E
100
AcDbEntity
  8
7
100
AcDbLine
 10
41.50295275590551
 20
41.71358267716534
 30
0.0
 11
41.49114173228346
 21
41.71358267716534
 31
0.0
  0
LINE
  5
B40
330
1E
100
AcDbEntity
  8
7
100
AcDbLine
 10
41.49114173228346
 20
41.71358267716534
 30
0.0
 11
41.48720472440944
 21
41.71358267716534
 31
0.0
  0
LINE
  5
B41
330
1E
100
AcDbEntity
  8
7
100
AcDbLine
 10
41.65748031496063
 20
41.71358267716534
 30
0.0
 11
41.61712598425196
 21
41.71358267716534
 31
0.0
  0
LINE
  5
B42
330
1E
100
AcDbEntity
  8
7
100
AcDbLine
 10
41.61712598425196
 20
41.71358267716534
 30
0.0
 11
41.58070866141732
 21
41.71358267716534
 31
0.0
  0
LINE
  5
B43
330
1E
100
AcDbEntity
  8
7
100
AcDbLine
 10
41.58070866141732
 20
41.71358267716534
 30
0.0
 11
41.54822834645669
 21
41.71358267716534
 31
0.0
  0
LINE
  5
B44
330
1E
100
AcDbEntity
  8
7
100
AcDbLine
 10
41.54822834645669
 20
41.71358267716534
 30
0.0
 11
41.52263779527558
 21
41.71358267716534
 31
0.0
  0
LINE
  5
B45
330
1E
100
AcDbEntity
  8
7
100
AcDbLine
 10
41.52263779527558
 20
41.71358267716534
 30
0.0
 11
41.50295275590551
 21
41.71358267716534
 31
0.0
  0
LINE
  5
B46
330
1E
100
AcDbEntity
  8
7
100
AcDbLine
 10
41.93700787401574
 20
41.70866141732282
 30
0.0
 11
41.93208661417322
 21
41.70866141732282
 31
0.0
  0
LINE
  5
B47
330
1E
100
AcDbEntity
  8
7
100
AcDbLine
 10
41.93208661417322
 20
41.70866141732282
 30
0.0
 11
41.91633858267716
 21
41.70866141732282
 31
0.0
  0
LINE
  5
B48
330
1E
100
AcDbEntity
  8
7
100
AcDbLine
 10
41.91633858267716
 20
41.70866141732282
 30
0.0
 11
41.89074803149606
 21
41.70866141732282
 31
0.0
  0
LINE
  5
B49
330
1E
100
AcDbEntity
  8
7
100
AcDbLine
 10
41.53346456692913
 20
41.70866141732282
 30
0.0
 11
41.50787401574802
 21
41.70866141732282
 31
0.0
  0
LINE
  5
B4A
330
1E
100
AcDbEntity
  8
7
100
AcDbLine
 10
41.50787401574802
 20
41.70866141732282
 30
0.0
 11
41.49212598425196
 21
41.70866141732282
 31
0.0
  0
LINE
  5
B4B
330
1E
100
AcDbEntity
  8
7
100
AcDbLine
 10
41.49212598425196
 20
41.70866141732282
 30
0.0
 11
41.48720472440944
 21
41.70866141732282
 31
0.0
  0
LINE
  5
B4C
330
1E
100
AcDbEntity
  8
7
100
AcDbLine
 10
41.52460629921259
 20
41.36811023622047
 30
0.0
 11
41.52460629921259
 21
41.37401574803149
 31
0.0
  0
LINE
  5
B4D
330
1E
100
AcDbEntity
  8
7
100
AcDbLine
 10
41.52460629921259
 20
41.37401574803149
 30
0.0
 11
41.52460629921259
 21
41.39074803149606
 31
0.0
  0
LINE
  5
B4E
330
1E
100
AcDbEntity
  8
7
100
AcDbLine
 10
41.52460629921259
 20
41.39074803149606
 30
0.0
 11
41.52460629921259
 21
41.40748031496062
 31
0.0
  0
LINE
  5
B4F
330
1E
100
AcDbEntity
  8
7
100
AcDbLine
 10
41.52460629921259
 20
41.40748031496062
 30
0.0
 11
41.52460629921259
 21
41.4251968503937
 31
0.0
  0
LINE
  5
B50
330
1E
100
AcDbEntity
  8
7
100
AcDbLine
 10
41.52460629921259
 20
41.4251968503937
 30
0.0
 11
41.52460629921259
 21
41.44094488188976
 31
0.0
  0
LINE
  5
B51
330
1E
100
AcDbEntity
  8
7
100
AcDbLine
 10
41.52460629921259
 20
41.44094488188976
 30
0.0
 11
41.52460629921259
 21
41.45275590551181
 31
0.0
  0
LINE
  5
B52
330
1E
100
AcDbEntity
  8
7
100
AcDbLine
 10
41.52460629921259
 20
41.45275590551181
 30
0.0
 11
41.52460629921259
 21
41.4763779527559
 31
0.0
  0
LINE
  5
B53
330
1E
100
AcDbEntity
  8
7
100
AcDbLine
 10
41.89960629921259
 20
41.39074803149606
 30
0.0
 11
41.89960629921259
 21
41.37401574803149
 31
0.0
  0
LINE
  5
B54
330
1E
100
AcDbEntity
  8
7
100
AcDbLine
 10
41.89960629921259
 20
41.37401574803149
 30
0.0
 11
41.89960629921259
 21
41.36811023622047
 31
0.0
  0
LINE
  5
B55
330
1E
100
AcDbEntity
  8
7
100
AcDbLine
 10
41.89960629921259
 20
41.4763779527559
 30
0.0
 11
41.89960629921259
 21
41.45275590551181
 31
0.0
  0
LINE
  5
B56
330
1E
100
AcDbEntity
  8
7
100
AcDbLine
 10
41.89960629921259
 20
41.45275590551181
 30
0.0
 11
41.89960629921259
 21
41.44094488188976
 31
0.0
  0
LINE
  5
B57
330
1E
100
AcDbEntity
  8
7
100
AcDbLine
 10
41.89960629921259
 20
41.44094488188976
 30
0.0
 11
41.89960629921259
 21
41.4251968503937
 31
0.0
  0
LINE
  5
B58
330
1E
100
AcDbEntity
  8
7
100
AcDbLine
 10
41.89960629921259
 20
41.4251968503937
 30
0.0
 11
41.89960629921259
 21
41.40748031496062
 31
0.0
  0
LINE
  5
B59
330
1E
100
AcDbEntity
  8
7
100
AcDbLine
 10
41.89960629921259
 20
41.40748031496062
 30
0.0
 11
41.89960629921259
 21
41.39074803149606
 31
0.0
  0
LINE
  5
B5A
330
1E
100
AcDbEntity
  8
7
100
AcDbLine
 10
42.37499999999999
 20
41.44685039370078
 30
0.0
 11
42.40748031496063
 21
41.44980314960629
 31
0.0
  0
LINE
  5
B5B
330
1E
100
AcDbEntity
  8
7
100
AcDbLine
 10
42.40748031496063
 20
41.44980314960629
 30
0.0
 11
42.43700787401574
 21
41.45669291338582
 31
0.0
  0
LINE
  5
B5C
330
1E
100
AcDbEntity
  8
7
100
AcDbLine
 10
42.43700787401574
 20
41.45669291338582
 30
0.0
 11
42.46358267716535
 21
41.46653543307087
 31
0.0
  0
LINE
  5
B5D
330
1E
100
AcDbEntity
  8
7
100
AcDbLine
 10
42.46358267716535
 20
41.46653543307087
 30
0.0
 11
42.48326771653543
 21
41.48031496062992
 31
0.0
  0
LINE
  5
B5E
330
1E
100
AcDbEntity
  8
7
100
AcDbLine
 10
42.48326771653543
 20
41.48031496062992
 30
0.0
 11
42.49507874015748
 21
41.49507874015748
 31
0.0
  0
LINE
  5
B5F
330
1E
100
AcDbEntity
  8
7
100
AcDbLine
 10
42.49507874015748
 20
41.49507874015748
 30
0.0
 11
42.5
 21
41.51181102362204
 31
0.0
  0
LINE
  5
B60
330
1E
100
AcDbEntity
  8
7
100
AcDbLine
 10
40.92519685039369
 20
41.51181102362204
 30
0.0
 11
40.92913385826771
 21
41.49507874015748
 31
0.0
  0
LINE
  5
B61
330
1E
100
AcDbEntity
  8
7
100
AcDbLine
 10
40.92913385826771
 20
41.49507874015748
 30
0.0
 11
40.94192913385827
 21
41.48031496062992
 31
0.0
  0
LINE
  5
B62
330
1E
100
AcDbEntity
  8
7
100
AcDbLine
 10
40.94192913385827
 20
41.48031496062992
 30
0.0
 11
40.96161417322834
 21
41.46653543307087
 31
0.0
  0
LINE
  5
B63
330
1E
100
AcDbEntity
  8
7
100
AcDbLine
 10
40.96161417322834
 20
41.46653543307087
 30
0.0
 11
40.98720472440944
 21
41.45669291338582
 31
0.0
  0
LINE
  5
B64
330
1E
100
AcDbEntity
  8
7
100
AcDbLine
 10
40.98720472440944
 20
41.45669291338582
 30
0.0
 11
41.01771653543306
 21
41.44980314960629
 31
0.0
  0
LINE
  5
B65
330
1E
100
AcDbEntity
  8
7
100
AcDbLine
 10
41.52460629921259
 20
41.4763779527559
 30
0.0
 11
41.71259842519684
 21
41.47736220472441
 31
0.0
  0
LINE
  5
B66
330
1E
100
AcDbEntity
  8
7
100
AcDbLine
 10
41.71259842519684
 20
41.47736220472441
 30
0.0
 11
41.89960629921259
 21
41.4763779527559
 31
0.0
  0
LINE
  5
B67
330
1E
100
AcDbEntity
  8
7
100
AcDbLine
 10
42.37499999999999
 20
41.51870078740157
 30
0.0
 11
42.40748031496063
 21
41.52066929133858
 31
0.0
  0
LINE
  5
B68
330
1E
100
AcDbEntity
  8
7
100
AcDbLine
 10
42.40748031496063
 20
41.52066929133858
 30
0.0
 11
42.43700787401574
 21
41.52657480314959
 31
0.0
  0
LINE
  5
B69
330
1E
100
AcDbEntity
  8
7
100
AcDbLine
 10
42.43700787401574
 20
41.52657480314959
 30
0.0
 11
42.46358267716535
 21
41.53641732283464
 31
0.0
  0
LINE
  5
B6A
330
1E
100
AcDbEntity
  8
7
100
AcDbLine
 10
42.46358267716535
 20
41.53641732283464
 30
0.0
 11
42.48326771653543
 21
41.54921259842519
 31
0.0
  0
LINE
  5
B6B
330
1E
100
AcDbEntity
  8
7
100
AcDbLine
 10
42.48326771653543
 20
41.54921259842519
 30
0.0
 11
42.49507874015748
 21
41.56496062992125
 31
0.0
  0
LINE
  5
B6C
330
1E
100
AcDbEntity
  8
7
100
AcDbLine
 10
42.49507874015748
 20
41.56496062992125
 30
0.0
 11
42.5
 21
41.58070866141732
 31
0.0
  0
LINE
  5
B6D
330
1E
100
AcDbEntity
  8
7
100
AcDbLine
 10
40.96161417322834
 20
41.53641732283464
 30
0.0
 11
40.98720472440944
 21
41.52657480314959
 31
0.0
  0
LINE
  5
B6E
330
1E
100
AcDbEntity
  8
7
100
AcDbLine
 10
40.98720472440944
 20
41.52657480314959
 30
0.0
 11
41.01771653543306
 21
41.52066929133858
 31
0.0
  0
LINE
  5
B6F
330
1E
100
AcDbEntity
  8
7
100
AcDbLine
 10
41.01771653543306
 20
41.52066929133858
 30
0.0
 11
41.05019685039369
 21
41.51870078740157
 31
0.0
  0
LINE
  5
B70
330
1E
100
AcDbEntity
  8
7
100
AcDbLine
 10
40.92519685039369
 20
41.58070866141732
 30
0.0
 11
40.92913385826771
 21
41.56496062992125
 31
0.0
  0
LINE
  5
B71
330
1E
100
AcDbEntity
  8
7
100
AcDbLine
 10
40.92913385826771
 20
41.56496062992125
 30
0.0
 11
40.94192913385827
 21
41.54921259842519
 31
0.0
  0
LINE
  5
B72
330
1E
100
AcDbEntity
  8
7
100
AcDbLine
 10
40.94192913385827
 20
41.54921259842519
 30
0.0
 11
40.96161417322834
 21
41.53641732283464
 31
0.0
  0
LINE
  5
B73
330
1E
100
AcDbEntity
  8
7
100
AcDbLine
 10
40.92519685039369
 20
41.59153543307087
 30
0.0
 11
40.92519685039369
 21
41.61712598425197
 31
0.0
  0
LINE
  5
B74
330
1E
100
AcDbEntity
  8
7
100
AcDbLine
 10
40.92519685039369
 20
41.61712598425197
 30
0.0
 11
40.92519685039369
 21
41.63287401574803
 31
0.0
  0
LINE
  5
B75
330
1E
100
AcDbEntity
  8
7
100
AcDbLine
 10
40.92519685039369
 20
41.63287401574803
 30
0.0
 11
40.92519685039369
 21
41.63779527559055
 31
0.0
  0
LINE
  5
B76
330
1E
100
AcDbEntity
  8
7
100
AcDbLine
 10
42.5
 20
41.63779527559055
 30
0.0
 11
42.5
 21
41.63287401574803
 31
0.0
  0
LINE
  5
B77
330
1E
100
AcDbEntity
  8
7
100
AcDbLine
 10
42.5
 20
41.63287401574803
 30
0.0
 11
42.5
 21
41.61712598425197
 31
0.0
  0
LINE
  5
B78
330
1E
100
AcDbEntity
  8
7
100
AcDbLine
 10
42.5
 20
41.61712598425197
 30
0.0
 11
42.5
 21
41.59153543307087
 31
0.0
  0
LINE
  5
B79
330
1E
100
AcDbEntity
  8
7
100
AcDbLine
 10
42.5
 20
41.59153543307087
 30
0.0
 11
42.5
 21
41.58070866141732
 31
0.0
  0
LINE
  5
B7A
330
1E
100
AcDbEntity
  8
7
100
AcDbLine
 10
42.5
 20
41.58070866141732
 30
0.0
 11
42.5
 21
41.51181102362204
 31
0.0
  0
LINE
  5
B7B
330
1E
100
AcDbEntity
  8
7
100
AcDbLine
 10
41.09055118110235
 20
41.19586614173228
 30
0.0
 11
41.08956692913385
 21
41.18405511811023
 31
0.0
  0
LINE
  5
B7C
330
1E
100
AcDbEntity
  8
7
100
AcDbLine
 10
41.08956692913385
 20
41.18405511811023
 30
0.0
 11
41.08858267716534
 21
41.1751968503937
 31
0.0
  0
LINE
  5
B7D
330
1E
100
AcDbEntity
  8
7
100
AcDbLine
 10
41.08858267716534
 20
41.1751968503937
 30
0.0
 11
41.08858267716534
 21
41.16830708661416
 31
0.0
  0
LINE
  5
B7E
330
1E
100
AcDbEntity
  8
7
100
AcDbLine
 10
41.08858267716534
 20
41.16830708661416
 30
0.0
 11
41.08759842519684
 21
41.16535433070866
 31
0.0
  0
LINE
  5
B7F
330
1E
100
AcDbEntity
  8
7
100
AcDbLine
 10
41.08759842519684
 20
41.16535433070866
 30
0.0
 11
41.08759842519684
 21
41.16338582677165
 31
0.0
  0
LINE
  5
B80
330
1E
100
AcDbEntity
  8
7
100
AcDbLine
 10
41.08759842519684
 20
41.16338582677165
 30
0.0
 11
41.08661417322834
 21
41.16240157480315
 31
0.0
  0
LINE
  5
B81
330
1E
100
AcDbEntity
  8
7
100
AcDbLine
 10
41.09251968503936
 20
41.25196850393701
 30
0.0
 11
41.09153543307086
 21
41.21358267716535
 31
0.0
  0
LINE
  5
B82
330
1E
100
AcDbEntity
  8
7
100
AcDbLine
 10
41.09153543307086
 20
41.21358267716535
 30
0.0
 11
41.09055118110235
 21
41.19586614173228
 31
0.0
  0
LINE
  5
B83
330
1E
100
AcDbEntity
  8
7
100
AcDbLine
 10
41.57086614173228
 20
41.13779527559055
 30
0.0
 11
41.56299212598425
 21
41.13582677165354
 31
0.0
  0
LINE
  5
B84
330
1E
100
AcDbEntity
  8
7
100
AcDbLine
 10
41.56299212598425
 20
41.13582677165354
 30
0.0
 11
41.55413385826771
 21
41.13681102362204
 31
0.0
  0
LINE
  5
B85
330
1E
100
AcDbEntity
  8
7
100
AcDbLine
 10
41.55413385826771
 20
41.13681102362204
 30
0.0
 11
41.54724409448818
 21
41.14074803149605
 31
0.0
  0
LINE
  5
B86
330
1E
100
AcDbEntity
  8
7
100
AcDbLine
 10
41.54724409448818
 20
41.14074803149605
 30
0.0
 11
41.53937007874016
 21
41.14960629921259
 31
0.0
  0
LINE
  5
B87
330
1E
100
AcDbEntity
  8
7
100
AcDbLine
 10
41.53937007874016
 20
41.14960629921259
 30
0.0
 11
41.53051181102362
 21
41.16830708661416
 31
0.0
  0
LINE
  5
B88
330
1E
100
AcDbEntity
  8
7
100
AcDbLine
 10
41.53051181102362
 20
41.16830708661416
 30
0.0
 11
41.5255905511811
 21
41.18897637795275
 31
0.0
  0
LINE
  5
B89
330
1E
100
AcDbEntity
  8
7
100
AcDbLine
 10
41.5255905511811
 20
41.18897637795275
 30
0.0
 11
41.52460629921259
 21
41.21062992125984
 31
0.0
  0
LINE
  5
B8A
330
1E
100
AcDbEntity
  8
7
100
AcDbLine
 10
41.57086614173228
 20
41.13779527559055
 30
0.0
 11
41.62303149606299
 21
41.15354330708661
 31
0.0
  0
LINE
  5
B8B
330
1E
100
AcDbEntity
  8
7
100
AcDbLine
 10
41.62303149606299
 20
41.15354330708661
 30
0.0
 11
41.67421259842519
 21
41.16141732283464
 31
0.0
  0
LINE
  5
B8C
330
1E
100
AcDbEntity
  8
7
100
AcDbLine
 10
41.74999999999999
 20
41.16141732283464
 30
0.0
 11
41.71259842519684
 21
41.16240157480315
 31
0.0
  0
LINE
  5
B8D
330
1E
100
AcDbEntity
  8
7
100
AcDbLine
 10
41.71259842519684
 20
41.16240157480315
 30
0.0
 11
41.67421259842519
 21
41.16141732283464
 31
0.0
  0
LINE
  5
B8E
330
1E
100
AcDbEntity
  8
7
100
AcDbLine
 10
41.74999999999999
 20
41.16141732283464
 30
0.0
 11
41.78444881889763
 21
41.15748031496063
 31
0.0
  0
LINE
  5
B8F
330
1E
100
AcDbEntity
  8
7
100
AcDbLine
 10
41.78444881889763
 20
41.15748031496063
 30
0.0
 11
41.81889763779527
 21
41.14960629921259
 31
0.0
  0
LINE
  5
B90
330
1E
100
AcDbEntity
  8
7
100
AcDbLine
 10
41.81889763779527
 20
41.14960629921259
 30
0.0
 11
41.85334645669291
 21
41.13779527559055
 31
0.0
  0
LINE
  5
B91
330
1E
100
AcDbEntity
  8
7
100
AcDbLine
 10
41.86318897637795
 20
41.13582677165354
 30
0.0
 11
41.85531496062991
 21
41.13681102362204
 31
0.0
  0
LINE
  5
B92
330
1E
100
AcDbEntity
  8
7
100
AcDbLine
 10
41.85531496062991
 20
41.13681102362204
 30
0.0
 11
41.85334645669291
 21
41.13779527559055
 31
0.0
  0
LINE
  5
B93
330
1E
100
AcDbEntity
  8
7
100
AcDbLine
 10
41.89960629921259
 20
41.21062992125984
 30
0.0
 11
41.89763779527559
 21
41.18602362204724
 31
0.0
  0
LINE
  5
B94
330
1E
100
AcDbEntity
  8
7
100
AcDbLine
 10
41.89763779527559
 20
41.18602362204724
 30
0.0
 11
41.89173228346456
 21
41.16338582677165
 31
0.0
  0
LINE
  5
B95
330
1E
100
AcDbEntity
  8
7
100
AcDbLine
 10
41.89173228346456
 20
41.16338582677165
 30
0.0
 11
41.88681102362204
 21
41.1515748031496
 31
0.0
  0
LINE
  5
B96
330
1E
100
AcDbEntity
  8
7
100
AcDbLine
 10
41.88681102362204
 20
41.1515748031496
 30
0.0
 11
41.87893700787401
 21
41.14271653543307
 31
0.0
  0
LINE
  5
B97
330
1E
100
AcDbEntity
  8
7
100
AcDbLine
 10
41.87893700787401
 20
41.14271653543307
 30
0.0
 11
41.87106299212598
 21
41.13779527559055
 31
0.0
  0
LINE
  5
B98
330
1E
100
AcDbEntity
  8
7
100
AcDbLine
 10
41.87106299212598
 20
41.13779527559055
 30
0.0
 11
41.86318897637795
 21
41.13582677165354
 31
0.0
  0
LINE
  5
B99
330
1E
100
AcDbEntity
  8
7
100
AcDbLine
 10
42.33661417322834
 20
41.16437007874015
 30
0.0
 11
42.33661417322834
 21
41.16830708661416
 31
0.0
  0
LINE
  5
B9A
330
1E
100
AcDbEntity
  8
7
100
AcDbLine
 10
42.33661417322834
 20
41.16830708661416
 30
0.0
 11
42.33464566929133
 21
41.18307086614173
 31
0.0
  0
LINE
  5
B9B
330
1E
100
AcDbEntity
  8
7
100
AcDbLine
 10
42.33464566929133
 20
41.18307086614173
 30
0.0
 11
42.33267716535432
 21
41.21653543307086
 31
0.0
  0
LINE
  5
B9C
330
1E
100
AcDbEntity
  8
7
100
AcDbLine
 10
42.33267716535432
 20
41.21653543307086
 30
0.0
 11
42.33169291338582
 21
41.25196850393701
 31
0.0
  0
LINE
  5
B9D
330
1E
100
AcDbEntity
  8
7
100
AcDbLine
 10
42.33759842519684
 20
41.16240157480315
 30
0.0
 11
42.33759842519684
 21
41.16338582677165
 31
0.0
  0
LINE
  5
B9E
330
1E
100
AcDbEntity
  8
7
100
AcDbLine
 10
42.33759842519684
 20
41.16338582677165
 30
0.0
 11
42.33661417322834
 21
41.16437007874015
 31
0.0
  0
LINE
  5
B9F
330
1E
100
AcDbEntity
  8
7
100
AcDbLine
 10
40.84645669291338
 20
34.64370078740157
 30
0.0
 11
40.7765748031496
 21
34.64370078740157
 31
0.0
  0
LINE
  5
BA0
330
1E
100
AcDbEntity
  8
7
100
AcDbLine
 10
40.7765748031496
 20
34.64370078740157
 30
0.0
 11
40.71259842519684
 21
34.64370078740157
 31
0.0
  0
LINE
  5
BA1
330
1E
100
AcDbEntity
  8
7
100
AcDbLine
 10
40.71259842519684
 20
34.64370078740157
 30
0.0
 11
40.65551181102362
 21
34.64370078740157
 31
0.0
  0
LINE
  5
BA2
330
1E
100
AcDbEntity
  8
7
100
AcDbLine
 10
40.65551181102362
 20
34.64370078740157
 30
0.0
 11
40.60531496062991
 21
34.64370078740157
 31
0.0
  0
LINE
  5
BA3
330
1E
100
AcDbEntity
  8
7
100
AcDbLine
 10
40.60531496062991
 20
34.64370078740157
 30
0.0
 11
40.56200787401574
 21
34.64370078740157
 31
0.0
  0
LINE
  5
BA4
330
1E
100
AcDbEntity
  8
7
100
AcDbLine
 10
40.56200787401574
 20
34.64370078740157
 30
0.0
 11
40.5265748031496
 21
34.64370078740157
 31
0.0
  0
LINE
  5
BA5
330
1E
100
AcDbEntity
  8
7
100
AcDbLine
 10
40.5265748031496
 20
34.64370078740157
 30
0.0
 11
40.4990157480315
 21
34.64370078740157
 31
0.0
  0
LINE
  5
BA6
330
1E
100
AcDbEntity
  8
7
100
AcDbLine
 10
40.4990157480315
 20
34.64370078740157
 30
0.0
 11
40.47834645669291
 21
34.64370078740157
 31
0.0
  0
LINE
  5
BA7
330
1E
100
AcDbEntity
  8
7
100
AcDbLine
 10
40.47834645669291
 20
34.64370078740157
 30
0.0
 11
40.46653543307086
 21
34.64370078740157
 31
0.0
  0
LINE
  5
BA8
330
1E
100
AcDbEntity
  8
7
100
AcDbLine
 10
40.46653543307086
 20
34.64370078740157
 30
0.0
 11
40.46259842519684
 21
34.64370078740157
 31
0.0
  0
LINE
  5
BA9
330
1E
100
AcDbEntity
  8
7
100
AcDbLine
 10
42.24803149606299
 20
34.64370078740157
 30
0.0
 11
42.15551181102362
 21
34.64370078740157
 31
0.0
  0
LINE
  5
BAA
330
1E
100
AcDbEntity
  8
7
100
AcDbLine
 10
42.15551181102362
 20
34.64370078740157
 30
0.0
 11
42.06003937007873
 21
34.64370078740157
 31
0.0
  0
LINE
  5
BAB
330
1E
100
AcDbEntity
  8
7
100
AcDbLine
 10
42.06003937007873
 20
34.64370078740157
 30
0.0
 11
41.96259842519684
 21
34.64370078740157
 31
0.0
  0
LINE
  5
BAC
330
1E
100
AcDbEntity
  8
7
100
AcDbLine
 10
41.96259842519684
 20
34.64370078740157
 30
0.0
 11
41.86318897637795
 21
34.64370078740157
 31
0.0
  0
LINE
  5
BAD
330
1E
100
AcDbEntity
  8
7
100
AcDbLine
 10
41.86318897637795
 20
34.64370078740157
 30
0.0
 11
41.76279527559055
 21
34.64370078740157
 31
0.0
  0
LINE
  5
BAE
330
1E
100
AcDbEntity
  8
7
100
AcDbLine
 10
41.76279527559055
 20
34.64370078740157
 30
0.0
 11
41.66141732283464
 21
34.64370078740157
 31
0.0
  0
LINE
  5
BAF
330
1E
100
AcDbEntity
  8
7
100
AcDbLine
 10
41.66141732283464
 20
34.64370078740157
 30
0.0
 11
41.56200787401575
 21
34.64370078740157
 31
0.0
  0
LINE
  5
BB0
330
1E
100
AcDbEntity
  8
7
100
AcDbLine
 10
41.56200787401575
 20
34.64370078740157
 30
0.0
 11
41.46259842519684
 21
34.64370078740157
 31
0.0
  0
LINE
  5
BB1
330
1E
100
AcDbEntity
  8
7
100
AcDbLine
 10
41.46259842519684
 20
34.64370078740157
 30
0.0
 11
41.36417322834645
 21
34.64370078740157
 31
0.0
  0
LINE
  5
BB2
330
1E
100
AcDbEntity
  8
7
100
AcDbLine
 10
41.36417322834645
 20
34.64370078740157
 30
0.0
 11
41.26870078740156
 21
34.64370078740157
 31
0.0
  0
LINE
  5
BB3
330
1E
100
AcDbEntity
  8
7
100
AcDbLine
 10
41.26870078740156
 20
34.64370078740157
 30
0.0
 11
41.1761811023622
 21
34.64370078740157
 31
0.0
  0
LINE
  5
BB4
330
1E
100
AcDbEntity
  8
7
100
AcDbLine
 10
41.1761811023622
 20
34.64370078740157
 30
0.0
 11
41.08759842519684
 21
34.64370078740157
 31
0.0
  0
LINE
  5
BB5
330
1E
100
AcDbEntity
  8
7
100
AcDbLine
 10
41.08759842519684
 20
34.64370078740157
 30
0.0
 11
41.001968503937
 21
34.64370078740157
 31
0.0
  0
LINE
  5
BB6
330
1E
100
AcDbEntity
  8
7
100
AcDbLine
 10
41.001968503937
 20
34.64370078740157
 30
0.0
 11
40.92125984251968
 21
34.64370078740157
 31
0.0
  0
LINE
  5
BB7
330
1E
100
AcDbEntity
  8
7
100
AcDbLine
 10
40.92125984251968
 20
34.64370078740157
 30
0.0
 11
40.84645669291338
 21
34.64370078740157
 31
0.0
  0
LINE
  5
BB8
330
1E
100
AcDbEntity
  8
7
100
AcDbLine
 10
42.96259842519684
 20
34.64370078740157
 30
0.0
 11
42.95767716535432
 21
34.64370078740157
 31
0.0
  0
LINE
  5
BB9
330
1E
100
AcDbEntity
  8
7
100
AcDbLine
 10
42.95767716535432
 20
34.64370078740157
 30
0.0
 11
42.94586614173228
 21
34.64370078740157
 31
0.0
  0
LINE
  5
BBA
330
1E
100
AcDbEntity
  8
7
100
AcDbLine
 10
42.94586614173228
 20
34.64370078740157
 30
0.0
 11
42.9261811023622
 21
34.64370078740157
 31
0.0
  0
LINE
  5
BBB
330
1E
100
AcDbEntity
  8
7
100
AcDbLine
 10
42.9261811023622
 20
34.64370078740157
 30
0.0
 11
42.89763779527558
 21
34.64370078740157
 31
0.0
  0
LINE
  5
BBC
330
1E
100
AcDbEntity
  8
7
100
AcDbLine
 10
42.89763779527558
 20
34.64370078740157
 30
0.0
 11
42.86220472440944
 21
34.64370078740157
 31
0.0
  0
LINE
  5
BBD
330
1E
100
AcDbEntity
  8
7
100
AcDbLine
 10
42.86220472440944
 20
34.64370078740157
 30
0.0
 11
42.81889763779527
 21
34.64370078740157
 31
0.0
  0
LINE
  5
BBE
330
1E
100
AcDbEntity
  8
7
100
AcDbLine
 10
42.81889763779527
 20
34.64370078740157
 30
0.0
 11
42.76870078740157
 21
34.64370078740157
 31
0.0
  0
LINE
  5
BBF
330
1E
100
AcDbEntity
  8
7
100
AcDbLine
 10
42.76870078740157
 20
34.64370078740157
 30
0.0
 11
42.71161417322834
 21
34.64370078740157
 31
0.0
  0
LINE
  5
BC0
330
1E
100
AcDbEntity
  8
7
100
AcDbLine
 10
42.71161417322834
 20
34.64370078740157
 30
0.0
 11
42.64763779527558
 21
34.64370078740157
 31
0.0
  0
LINE
  5
BC1
330
1E
100
AcDbEntity
  8
7
100
AcDbLine
 10
42.64763779527558
 20
34.64370078740157
 30
0.0
 11
42.5777559055118
 21
34.64370078740157
 31
0.0
  0
LINE
  5
BC2
330
1E
100
AcDbEntity
  8
7
100
AcDbLine
 10
42.5777559055118
 20
34.64370078740157
 30
0.0
 11
42.50295275590551
 21
34.64370078740157
 31
0.0
  0
LINE
  5
BC3
330
1E
100
AcDbEntity
  8
7
100
AcDbLine
 10
42.50295275590551
 20
34.64370078740157
 30
0.0
 11
42.42224409448819
 21
34.64370078740157
 31
0.0
  0
LINE
  5
BC4
330
1E
100
AcDbEntity
  8
7
100
AcDbLine
 10
42.42224409448819
 20
34.64370078740157
 30
0.0
 11
42.33759842519684
 21
34.64370078740157
 31
0.0
  0
LINE
  5
BC5
330
1E
100
AcDbEntity
  8
7
100
AcDbLine
 10
42.33759842519684
 20
34.64370078740157
 30
0.0
 11
42.24803149606299
 21
34.64370078740157
 31
0.0
  0
LINE
  5
BC6
330
1E
100
AcDbEntity
  8
7
100
AcDbLine
 10
41.47244094488189
 20
41.72342519685039
 30
0.0
 11
41.4763779527559
 21
41.71259842519684
 31
0.0
  0
LINE
  5
BC7
330
1E
100
AcDbEntity
  8
7
100
AcDbLine
 10
41.4763779527559
 20
41.71259842519684
 30
0.0
 11
41.48720472440944
 21
41.70866141732282
 31
0.0
  0
LINE
  5
BC8
330
1E
100
AcDbEntity
  8
7
100
AcDbLine
 10
41.93700787401574
 20
41.70866141732282
 30
0.0
 11
41.94783464566929
 21
41.71259842519684
 31
0.0
  0
LINE
  5
BC9
330
1E
100
AcDbEntity
  8
7
100
AcDbLine
 10
41.94783464566929
 20
41.71259842519684
 30
0.0
 11
41.9517716535433
 21
41.72342519685039
 31
0.0
  0
LINE
  5
BCA
330
1E
100
AcDbEntity
  8
7
100
AcDbLine
 10
40.93011811023621
 20
34.84547244094488
 30
0.0
 11
40.95275590551181
 21
34.88779527559055
 31
0.0
  0
LINE
  5
BCB
330
1E
100
AcDbEntity
  8
7
100
AcDbLine
 10
40.95275590551181
 20
34.88779527559055
 30
0.0
 11
40.96751968503936
 21
34.93405511811023
 31
0.0
  0
LINE
  5
BCC
330
1E
100
AcDbEntity
  8
7
100
AcDbLine
 10
40.96751968503936
 20
34.93405511811023
 30
0.0
 11
40.97244094488188
 21
34.98129921259842
 31
0.0
  0
LINE
  5
BCD
330
1E
100
AcDbEntity
  8
7
100
AcDbLine
 10
40.7263779527559
 20
34.73523622047244
 30
0.0
 11
40.77460629921259
 21
34.74114173228346
 31
0.0
  0
LINE
  5
BCE
330
1E
100
AcDbEntity
  8
7
100
AcDbLine
 10
40.77460629921259
 20
34.74114173228346
 30
0.0
 11
40.81988188976377
 21
34.75492125984251
 31
0.0
  0
LINE
  5
BCF
330
1E
100
AcDbEntity
  8
7
100
AcDbLine
 10
40.81988188976377
 20
34.75492125984251
 30
0.0
 11
40.86220472440944
 21
34.77854330708661
 31
0.0
  0
LINE
  5
BD0
330
1E
100
AcDbEntity
  8
7
100
AcDbLine
 10
40.86220472440944
 20
34.77854330708661
 30
0.0
 11
40.89960629921259
 21
34.80905511811023
 31
0.0
  0
LINE
  5
BD1
330
1E
100
AcDbEntity
  8
7
100
AcDbLine
 10
40.89960629921259
 20
34.80905511811023
 30
0.0
 11
40.93011811023621
 21
34.84547244094488
 31
0.0
  0
LINE
  5
BD2
330
1E
100
AcDbEntity
  8
7
100
AcDbLine
 10
42.47145669291338
 20
34.88779527559055
 30
0.0
 11
42.49409448818897
 21
34.84547244094488
 31
0.0
  0
LINE
  5
BD3
330
1E
100
AcDbEntity
  8
7
100
AcDbLine
 10
42.49409448818897
 20
34.84547244094488
 30
0.0
 11
42.52460629921259
 21
34.80905511811023
 31
0.0
  0
LINE
  5
BD4
330
1E
100
AcDbEntity
  8
7
100
AcDbLine
 10
42.52460629921259
 20
34.80905511811023
 30
0.0
 11
42.56200787401574
 21
34.77854330708661
 31
0.0
  0
LINE
  5
BD5
330
1E
100
AcDbEntity
  8
7
100
AcDbLine
 10
42.56200787401574
 20
34.77854330708661
 30
0.0
 11
42.60433070866141
 21
34.75492125984251
 31
0.0
  0
LINE
  5
BD6
330
1E
100
AcDbEntity
  8
7
100
AcDbLine
 10
42.60433070866141
 20
34.75492125984251
 30
0.0
 11
42.64960629921259
 21
34.74114173228346
 31
0.0
  0
LINE
  5
BD7
330
1E
100
AcDbEntity
  8
7
100
AcDbLine
 10
42.64960629921259
 20
34.74114173228346
 30
0.0
 11
42.69783464566929
 21
34.73523622047244
 31
0.0
  0
LINE
  5
BD8
330
1E
100
AcDbEntity
  8
7
100
AcDbLine
 10
42.4517716535433
 20
34.98129921259842
 30
0.0
 11
42.45669291338582
 21
34.93405511811023
 31
0.0
  0
LINE
  5
BD9
330
1E
100
AcDbEntity
  8
7
100
AcDbLine
 10
42.45669291338582
 20
34.93405511811023
 30
0.0
 11
42.47145669291338
 21
34.88779527559055
 31
0.0
  0
LINE
  5
BDA
330
1E
100
AcDbEntity
  8
7
100
AcDbLine
 10
41.48622047244094
 20
41.80413385826772
 30
0.0
 11
41.4763779527559
 21
41.7992125984252
 31
0.0
  0
LINE
  5
BDB
330
1E
100
AcDbEntity
  8
7
100
AcDbLine
 10
41.4763779527559
 20
41.7992125984252
 30
0.0
 11
41.47244094488189
 21
41.78937007874015
 31
0.0
  0
LINE
  5
BDC
330
1E
100
AcDbEntity
  8
7
100
AcDbLine
 10
41.9517716535433
 20
41.78937007874015
 30
0.0
 11
41.94783464566929
 21
41.7992125984252
 31
0.0
  0
LINE
  5
BDD
330
1E
100
AcDbEntity
  8
7
100
AcDbLine
 10
41.94783464566929
 20
41.7992125984252
 30
0.0
 11
41.93799212598425
 21
41.80413385826772
 31
0.0
  0
LINE
  5
BDE
330
1E
100
AcDbEntity
  8
7
100
AcDbLine
 10
41.47244094488189
 20
41.72834645669291
 30
0.0
 11
41.4763779527559
 21
41.71751968503937
 31
0.0
  0
LINE
  5
BDF
330
1E
100
AcDbEntity
  8
7
100
AcDbLine
 10
41.4763779527559
 20
41.71751968503937
 30
0.0
 11
41.48720472440944
 21
41.71358267716534
 31
0.0
  0
LINE
  5
BE0
330
1E
100
AcDbEntity
  8
7
100
AcDbLine
 10
41.93700787401574
 20
41.71358267716534
 30
0.0
 11
41.94783464566929
 21
41.71751968503937
 31
0.0
  0
LINE
  5
BE1
330
1E
100
AcDbEntity
  8
7
100
AcDbLine
 10
41.94783464566929
 20
41.71751968503937
 30
0.0
 11
41.9517716535433
 21
41.72834645669291
 31
0.0
  0
LINE
  5
BE2
330
1E
100
AcDbEntity
  8
7
100
AcDbLine
 10
41.93799212598425
 20
41.80413385826772
 30
0.0
 11
41.71259842519684
 21
41.81791338582677
 31
0.0
  0
LINE
  5
BE3
330
1E
100
AcDbEntity
  8
7
100
AcDbLine
 10
41.71259842519684
 20
41.81791338582677
 30
0.0
 11
41.48622047244094
 21
41.80413385826772
 31
0.0
  0
LINE
  5
BE4
330
1E
100
AcDbEntity
  8
7
100
AcDbLine
 10
41.52460629921259
 20
41.36811023622047
 30
0.0
 11
41.71259842519684
 21
41.36614173228347
 31
0.0
  0
LINE
  5
BE5
330
1E
100
AcDbEntity
  8
7
100
AcDbLine
 10
41.71259842519684
 20
41.36614173228347
 30
0.0
 11
41.89960629921259
 21
41.36811023622047
 31
0.0
  0
LINE
  5
BE6
330
1E
100
AcDbEntity
  8
7
100
AcDbLine
 10
41.66437007874015
 20
30.18503937007874
 30
0.0
 11
41.66141732283464
 21
30.18208661417323
 31
0.0
  0
LINE
  5
BE7
330
1E
100
AcDbEntity
  8
7
100
AcDbLine
 10
41.66141732283464
 20
30.18208661417323
 30
0.0
 11
41.65452755905511
 21
30.17421259842519
 31
0.0
  0
LINE
  5
BE8
330
1E
100
AcDbEntity
  8
7
100
AcDbLine
 10
41.65452755905511
 20
30.17421259842519
 30
0.0
 11
41.64370078740157
 21
30.16141732283464
 31
0.0
  0
LINE
  5
BE9
330
1E
100
AcDbEntity
  8
7
100
AcDbLine
 10
41.64370078740157
 20
30.16141732283464
 30
0.0
 11
41.63484251968504
 21
30.15157480314961
 31
0.0
  0
LINE
  5
BEA
330
1E
100
AcDbEntity
  8
7
100
AcDbLine
 10
41.63484251968504
 20
29.20570866141732
 30
0.0
 11
41.64370078740157
 21
29.19488188976377
 31
0.0
  0
LINE
  5
BEB
330
1E
100
AcDbEntity
  8
7
100
AcDbLine
 10
41.64370078740157
 20
29.19488188976377
 30
0.0
 11
41.65452755905511
 21
29.18208661417322
 31
0.0
  0
LINE
  5
BEC
330
1E
100
AcDbEntity
  8
7
100
AcDbLine
 10
41.65452755905511
 20
29.18208661417322
 30
0.0
 11
41.66141732283464
 21
29.1751968503937
 31
0.0
  0
LINE
  5
BED
330
1E
100
AcDbEntity
  8
7
100
AcDbLine
 10
41.66141732283464
 20
29.1751968503937
 30
0.0
 11
41.66437007874015
 21
29.17125984251968
 31
0.0
  0
LINE
  5
BEE
330
1E
100
AcDbEntity
  8
7
100
AcDbLine
 10
41.66437007874015
 20
29.17125984251968
 30
0.0
 11
41.66535433070865
 21
29.17027559055118
 31
0.0
  0
LINE
  5
BEF
330
1E
100
AcDbEntity
  8
7
100
AcDbLine
 10
41.79035433070866
 20
29.20570866141732
 30
0.0
 11
41.78051181102361
 21
29.19488188976377
 31
0.0
  0
LINE
  5
BF0
330
1E
100
AcDbEntity
  8
7
100
AcDbLine
 10
41.78051181102361
 20
29.19488188976377
 30
0.0
 11
41.76968503937007
 21
29.18208661417322
 31
0.0
  0
LINE
  5
BF1
330
1E
100
AcDbEntity
  8
7
100
AcDbLine
 10
41.76968503937007
 20
29.18208661417322
 30
0.0
 11
41.76279527559055
 21
29.1751968503937
 31
0.0
  0
LINE
  5
BF2
330
1E
100
AcDbEntity
  8
7
100
AcDbLine
 10
41.76279527559055
 20
29.1751968503937
 30
0.0
 11
41.75984251968503
 21
29.17125984251968
 31
0.0
  0
LINE
  5
BF3
330
1E
100
AcDbEntity
  8
7
100
AcDbLine
 10
41.75984251968503
 20
29.17125984251968
 30
0.0
 11
41.75885826771653
 21
29.17027559055118
 31
0.0
  0
LINE
  5
BF4
330
1E
100
AcDbEntity
  8
7
100
AcDbLine
 10
41.75885826771653
 20
30.18700787401574
 30
0.0
 11
41.75984251968503
 21
30.18503937007874
 31
0.0
  0
LINE
  5
BF5
330
1E
100
AcDbEntity
  8
7
100
AcDbLine
 10
41.75984251968503
 20
30.18503937007874
 30
0.0
 11
41.76279527559055
 21
30.18208661417323
 31
0.0
  0
LINE
  5
BF6
330
1E
100
AcDbEntity
  8
7
100
AcDbLine
 10
41.76279527559055
 20
30.18208661417323
 30
0.0
 11
41.76968503937007
 21
30.17421259842519
 31
0.0
  0
LINE
  5
BF7
330
1E
100
AcDbEntity
  8
7
100
AcDbLine
 10
41.76968503937007
 20
30.17421259842519
 30
0.0
 11
41.78051181102361
 21
30.16141732283464
 31
0.0
  0
LINE
  5
BF8
330
1E
100
AcDbEntity
  8
7
100
AcDbLine
 10
41.78051181102361
 20
30.16141732283464
 30
0.0
 11
41.79035433070866
 21
30.15157480314961
 31
0.0
  0
LINE
  5
BF9
330
1E
100
AcDbEntity
  8
7
100
AcDbLine
 10
41.37106299212598
 20
29.3001968503937
 30
0.0
 11
41.42224409448818
 21
29.25885826771653
 31
0.0
  0
LINE
  5
BFA
330
1E
100
AcDbEntity
  8
7
100
AcDbLine
 10
41.42224409448818
 20
29.25885826771653
 30
0.0
 11
41.4783464566929
 21
29.2253937007874
 31
0.0
  0
LINE
  5
BFB
330
1E
100
AcDbEntity
  8
7
100
AcDbLine
 10
41.4783464566929
 20
29.2253937007874
 30
0.0
 11
41.53838582677165
 21
29.19881889763779
 31
0.0
  0
LINE
  5
BFC
330
1E
100
AcDbEntity
  8
7
100
AcDbLine
 10
41.53838582677165
 20
29.19881889763779
 30
0.0
 11
41.6013779527559
 21
29.18011811023621
 31
0.0
  0
LINE
  5
BFD
330
1E
100
AcDbEntity
  8
7
100
AcDbLine
 10
41.6013779527559
 20
29.18011811023621
 30
0.0
 11
41.66633858267716
 21
29.17027559055118
 31
0.0
  0
LINE
  5
BFE
330
1E
100
AcDbEntity
  8
7
100
AcDbLine
 10
41.37106299212598
 20
30.05610236220472
 30
0.0
 11
41.3248031496063
 21
30.00984251968503
 31
0.0
  0
LINE
  5
BFF
330
1E
100
AcDbEntity
  8
7
100
AcDbLine
 10
41.3248031496063
 20
30.00984251968503
 30
0.0
 11
41.28543307086614
 21
29.95669291338582
 31
0.0
  0
LINE
  5
C00
330
1E
100
AcDbEntity
  8
7
100
AcDbLine
 10
41.28543307086614
 20
29.95669291338582
 30
0.0
 11
41.25393700787401
 21
29.89960629921259
 31
0.0
  0
LINE
  5
C01
330
1E
100
AcDbEntity
  8
7
100
AcDbLine
 10
41.25393700787401
 20
29.89960629921259
 30
0.0
 11
41.22933070866142
 21
29.83956692913386
 31
0.0
  0
LINE
  5
C02
330
1E
100
AcDbEntity
  8
7
100
AcDbLine
 10
41.22933070866142
 20
29.83956692913386
 30
0.0
 11
41.21259842519684
 21
29.7755905511811
 31
0.0
  0
LINE
  5
C03
330
1E
100
AcDbEntity
  8
7
100
AcDbLine
 10
41.21259842519684
 20
29.7755905511811
 30
0.0
 11
41.20374015748031
 21
29.71062992125984
 31
0.0
  0
LINE
  5
C04
330
1E
100
AcDbEntity
  8
7
100
AcDbLine
 10
41.20374015748031
 20
29.71062992125984
 30
0.0
 11
41.20374015748031
 21
29.64566929133858
 31
0.0
  0
LINE
  5
C05
330
1E
100
AcDbEntity
  8
7
100
AcDbLine
 10
41.20374015748031
 20
29.64566929133858
 30
0.0
 11
41.21259842519684
 21
29.58070866141732
 31
0.0
  0
LINE
  5
C06
330
1E
100
AcDbEntity
  8
7
100
AcDbLine
 10
41.21259842519684
 20
29.58070866141732
 30
0.0
 11
41.22933070866142
 21
29.51673228346456
 31
0.0
  0
LINE
  5
C07
330
1E
100
AcDbEntity
  8
7
100
AcDbLine
 10
41.22933070866142
 20
29.51673228346456
 30
0.0
 11
41.25393700787401
 21
29.45669291338582
 31
0.0
  0
LINE
  5
C08
330
1E
100
AcDbEntity
  8
7
100
AcDbLine
 10
41.25393700787401
 20
29.45669291338582
 30
0.0
 11
41.28543307086614
 21
29.39960629921259
 31
0.0
  0
LINE
  5
C09
330
1E
100
AcDbEntity
  8
7
100
AcDbLine
 10
41.28543307086614
 20
29.39960629921259
 30
0.0
 11
41.3248031496063
 21
29.34645669291338
 31
0.0
  0
LINE
  5
C0A
330
1E
100
AcDbEntity
  8
7
100
AcDbLine
 10
41.3248031496063
 20
29.34645669291338
 30
0.0
 11
41.37106299212598
 21
29.3001968503937
 31
0.0
  0
LINE
  5
C0B
330
1E
100
AcDbEntity
  8
7
100
AcDbLine
 10
41.66633858267716
 20
30.18602362204724
 30
0.0
 11
41.6013779527559
 21
30.1761811023622
 31
0.0
  0
LINE
  5
C0C
330
1E
100
AcDbEntity
  8
7
100
AcDbLine
 10
41.6013779527559
 20
30.1761811023622
 30
0.0
 11
41.53838582677165
 21
30.15748031496062
 31
0.0
  0
LINE
  5
C0D
330
1E
100
AcDbEntity
  8
7
100
AcDbLine
 10
41.53838582677165
 20
30.15748031496062
 30
0.0
 11
41.4783464566929
 21
30.13090551181102
 31
0.0
  0
LINE
  5
C0E
330
1E
100
AcDbEntity
  8
7
100
AcDbLine
 10
41.4783464566929
 20
30.13090551181102
 30
0.0
 11
41.42224409448818
 21
30.09744094488189
 31
0.0
  0
LINE
  5
C0F
330
1E
100
AcDbEntity
  8
7
100
AcDbLine
 10
41.42224409448818
 20
30.09744094488189
 30
0.0
 11
41.37106299212598
 21
30.05610236220472
 31
0.0
  0
LINE
  5
C10
330
1E
100
AcDbEntity
  8
7
100
AcDbLine
 10
42.05413385826771
 20
30.05610236220472
 30
0.0
 11
42.0029527559055
 21
30.09744094488189
 31
0.0
  0
LINE
  5
C11
330
1E
100
AcDbEntity
  8
7
100
AcDbLine
 10
42.0029527559055
 20
30.09744094488189
 30
0.0
 11
41.94685039370078
 21
30.13090551181102
 31
0.0
  0
LINE
  5
C12
330
1E
100
AcDbEntity
  8
7
100
AcDbLine
 10
41.94685039370078
 20
30.13090551181102
 30
0.0
 11
41.88681102362204
 21
30.15748031496062
 31
0.0
  0
LINE
  5
C13
330
1E
100
AcDbEntity
  8
7
100
AcDbLine
 10
41.88681102362204
 20
30.15748031496062
 30
0.0
 11
41.82381889763779
 21
30.1761811023622
 31
0.0
  0
LINE
  5
C14
330
1E
100
AcDbEntity
  8
7
100
AcDbLine
 10
41.82381889763779
 20
30.1761811023622
 30
0.0
 11
41.75885826771653
 21
30.18602362204724
 31
0.0
  0
LINE
  5
C15
330
1E
100
AcDbEntity
  8
7
100
AcDbLine
 10
41.94685039370078
 20
29.2253937007874
 30
0.0
 11
42.0029527559055
 21
29.25885826771653
 31
0.0
  0
LINE
  5
C16
330
1E
100
AcDbEntity
  8
7
100
AcDbLine
 10
42.0029527559055
 20
29.25885826771653
 30
0.0
 11
42.05413385826771
 21
29.3001968503937
 31
0.0
  0
LINE
  5
C17
330
1E
100
AcDbEntity
  8
7
100
AcDbLine
 10
42.05413385826771
 20
29.3001968503937
 30
0.0
 11
42.1003937007874
 21
29.34645669291338
 31
0.0
  0
LINE
  5
C18
330
1E
100
AcDbEntity
  8
7
100
AcDbLine
 10
42.1003937007874
 20
29.34645669291338
 30
0.0
 11
42.13976377952755
 21
29.39960629921259
 31
0.0
  0
LINE
  5
C19
330
1E
100
AcDbEntity
  8
7
100
AcDbLine
 10
42.13976377952755
 20
29.39960629921259
 30
0.0
 11
42.17125984251968
 21
29.45669291338582
 31
0.0
  0
LINE
  5
C1A
330
1E
100
AcDbEntity
  8
7
100
AcDbLine
 10
42.17125984251968
 20
29.45669291338582
 30
0.0
 11
42.19586614173228
 21
29.51673228346456
 31
0.0
  0
LINE
  5
C1B
330
1E
100
AcDbEntity
  8
7
100
AcDbLine
 10
42.19586614173228
 20
29.51673228346456
 30
0.0
 11
42.21259842519685
 21
29.58070866141732
 31
0.0
  0
LINE
  5
C1C
330
1E
100
AcDbEntity
  8
7
100
AcDbLine
 10
42.21259842519685
 20
29.58070866141732
 30
0.0
 11
42.22145669291339
 21
29.64566929133858
 31
0.0
  0
LINE
  5
C1D
330
1E
100
AcDbEntity
  8
7
100
AcDbLine
 10
42.22145669291339
 20
29.64566929133858
 30
0.0
 11
42.22145669291339
 21
29.71062992125984
 31
0.0
  0
LINE
  5
C1E
330
1E
100
AcDbEntity
  8
7
100
AcDbLine
 10
42.22145669291339
 20
29.71062992125984
 30
0.0
 11
42.21259842519685
 21
29.7755905511811
 31
0.0
  0
LINE
  5
C1F
330
1E
100
AcDbEntity
  8
7
100
AcDbLine
 10
42.21259842519685
 20
29.7755905511811
 30
0.0
 11
42.19586614173228
 21
29.83956692913386
 31
0.0
  0
LINE
  5
C20
330
1E
100
AcDbEntity
  8
7
100
AcDbLine
 10
42.19586614173228
 20
29.83956692913386
 30
0.0
 11
42.17125984251968
 21
29.89960629921259
 31
0.0
  0
LINE
  5
C21
330
1E
100
AcDbEntity
  8
7
100
AcDbLine
 10
42.17125984251968
 20
29.89960629921259
 30
0.0
 11
42.13976377952755
 21
29.95669291338582
 31
0.0
  0
LINE
  5
C22
330
1E
100
AcDbEntity
  8
7
100
AcDbLine
 10
42.13976377952755
 20
29.95669291338582
 30
0.0
 11
42.1003937007874
 21
30.00984251968503
 31
0.0
  0
LINE
  5
C23
330
1E
100
AcDbEntity
  8
7
100
AcDbLine
 10
42.1003937007874
 20
30.00984251968503
 30
0.0
 11
42.05413385826771
 21
30.05610236220472
 31
0.0
  0
LINE
  5
C24
330
1E
100
AcDbEntity
  8
7
100
AcDbLine
 10
41.75885826771653
 20
29.17027559055118
 30
0.0
 11
41.82381889763779
 21
29.18011811023621
 31
0.0
  0
LINE
  5
C25
330
1E
100
AcDbEntity
  8
7
100
AcDbLine
 10
41.82381889763779
 20
29.18011811023621
 30
0.0
 11
41.88681102362204
 21
29.19881889763779
 31
0.0
  0
LINE
  5
C26
330
1E
100
AcDbEntity
  8
7
100
AcDbLine
 10
41.88681102362204
 20
29.19881889763779
 30
0.0
 11
41.94685039370078
 21
29.2253937007874
 31
0.0
  0
LINE
  5
C27
330
1E
100
AcDbEntity
  8
7
100
AcDbLine
 10
41.71456692913385
 20
30.2017716535433
 30
0.0
 11
41.72342519685039
 21
30.2017716535433
 31
0.0
  0
LINE
  5
C28
330
1E
100
AcDbEntity
  8
7
100
AcDbLine
 10
41.72342519685039
 20
30.2017716535433
 30
0.0
 11
41.73326771653543
 21
30.2007874015748
 31
0.0
  0
LINE
  5
C29
330
1E
100
AcDbEntity
  8
7
100
AcDbLine
 10
41.73326771653543
 20
30.2007874015748
 30
0.0
 11
41.74015748031496
 21
30.2007874015748
 31
0.0
  0
LINE
  5
C2A
330
1E
100
AcDbEntity
  8
7
100
AcDbLine
 10
41.74015748031496
 20
30.2007874015748
 30
0.0
 11
41.74409448818898
 21
30.19980314960629
 31
0.0
  0
LINE
  5
C2B
330
1E
100
AcDbEntity
  8
7
100
AcDbLine
 10
41.74409448818898
 20
30.19980314960629
 30
0.0
 11
41.74507874015747
 21
30.19980314960629
 31
0.0
  0
LINE
  5
C2C
330
1E
100
AcDbEntity
  8
7
100
AcDbLine
 10
41.74507874015747
 20
29.15748031496063
 30
0.0
 11
41.74311023622047
 21
29.15649606299212
 31
0.0
  0
LINE
  5
C2D
330
1E
100
AcDbEntity
  8
7
100
AcDbLine
 10
41.74311023622047
 20
29.15649606299212
 30
0.0
 11
41.73818897637795
 21
29.15649606299212
 31
0.0
  0
LINE
  5
C2E
330
1E
100
AcDbEntity
  8
7
100
AcDbLine
 10
41.73818897637795
 20
29.15649606299212
 30
0.0
 11
41.72933070866141
 21
29.15551181102362
 31
0.0
  0
LINE
  5
C2F
330
1E
100
AcDbEntity
  8
7
100
AcDbLine
 10
41.72933070866141
 20
29.15551181102362
 30
0.0
 11
41.71948818897637
 21
29.15551181102362
 31
0.0
  0
LINE
  5
C30
330
1E
100
AcDbEntity
  8
7
100
AcDbLine
 10
41.71948818897637
 20
29.15551181102362
 30
0.0
 11
41.71456692913385
 21
29.15452755905512
 31
0.0
  0
LINE
  5
C31
330
1E
100
AcDbEntity
  8
7
100
AcDbLine
 10
41.71456692913385
 20
30.2007874015748
 30
0.0
 11
41.71259842519684
 21
30.2007874015748
 31
0.0
  0
LINE
  5
C32
330
1E
100
AcDbEntity
  8
7
100
AcDbLine
 10
41.71259842519684
 20
30.2007874015748
 30
0.0
 11
41.71062992125984
 21
30.2007874015748
 31
0.0
  0
LINE
  5
C33
330
1E
100
AcDbEntity
  8
7
100
AcDbLine
 10
41.71062992125984
 20
29.15551181102362
 30
0.0
 11
41.71259842519684
 21
29.15551181102362
 31
0.0
  0
LINE
  5
C34
330
1E
100
AcDbEntity
  8
7
100
AcDbLine
 10
41.71259842519684
 20
29.15551181102362
 30
0.0
 11
41.71456692913385
 21
29.15551181102362
 31
0.0
  0
LINE
  5
C35
330
1E
100
AcDbEntity
  8
7
100
AcDbLine
 10
41.6791338582677
 20
30.19980314960629
 30
0.0
 11
41.68110236220472
 21
30.19980314960629
 31
0.0
  0
LINE
  5
C36
330
1E
100
AcDbEntity
  8
7
100
AcDbLine
 10
41.68110236220472
 20
30.19980314960629
 30
0.0
 11
41.68602362204724
 21
30.2007874015748
 31
0.0
  0
LINE
  5
C37
330
1E
100
AcDbEntity
  8
7
100
AcDbLine
 10
41.68602362204724
 20
30.2007874015748
 30
0.0
 11
41.69389763779527
 21
30.2017716535433
 31
0.0
  0
LINE
  5
C38
330
1E
100
AcDbEntity
  8
7
100
AcDbLine
 10
41.69389763779527
 20
30.2017716535433
 30
0.0
 11
41.70374015748031
 21
30.2017716535433
 31
0.0
  0
LINE
  5
C39
330
1E
100
AcDbEntity
  8
7
100
AcDbLine
 10
41.70374015748031
 20
30.2017716535433
 30
0.0
 11
41.71062992125984
 21
30.2017716535433
 31
0.0
  0
LINE
  5
C3A
330
1E
100
AcDbEntity
  8
7
100
AcDbLine
 10
41.71062992125984
 20
29.15452755905512
 30
0.0
 11
41.7007874015748
 21
29.15551181102362
 31
0.0
  0
LINE
  5
C3B
330
1E
100
AcDbEntity
  8
7
100
AcDbLine
 10
41.7007874015748
 20
29.15551181102362
 30
0.0
 11
41.69192913385827
 21
29.15551181102362
 31
0.0
  0
LINE
  5
C3C
330
1E
100
AcDbEntity
  8
7
100
AcDbLine
 10
41.69192913385827
 20
29.15551181102362
 30
0.0
 11
41.68405511811023
 21
29.15649606299212
 31
0.0
  0
LINE
  5
C3D
330
1E
100
AcDbEntity
  8
7
100
AcDbLine
 10
41.68405511811023
 20
29.15649606299212
 30
0.0
 11
41.68011811023621
 21
29.15649606299212
 31
0.0
  0
LINE
  5
C3E
330
1E
100
AcDbEntity
  8
7
100
AcDbLine
 10
41.68011811023621
 20
29.15649606299212
 30
0.0
 11
41.6791338582677
 21
29.15748031496063
 31
0.0
  0
LINE
  5
C3F
330
1E
100
AcDbEntity
  8
7
100
AcDbLine
 10
40.71358267716535
 20
31.42913385826771
 30
0.0
 11
40.65649606299213
 21
31.34645669291338
 31
0.0
  0
LINE
  5
C40
330
1E
100
AcDbEntity
  8
7
100
AcDbLine
 10
40.65649606299213
 20
31.34645669291338
 30
0.0
 11
40.60531496062991
 21
31.25885826771653
 31
0.0
  0
LINE
  5
C41
330
1E
100
AcDbEntity
  8
7
100
AcDbLine
 10
40.60531496062991
 20
31.25885826771653
 30
0.0
 11
40.56299212598425
 21
31.16830708661417
 31
0.0
  0
LINE
  5
C42
330
1E
100
AcDbEntity
  8
7
100
AcDbLine
 10
40.56299212598425
 20
31.16830708661417
 30
0.0
 11
40.5265748031496
 21
31.07381889763779
 31
0.0
  0
LINE
  5
C43
330
1E
100
AcDbEntity
  8
7
100
AcDbLine
 10
40.5265748031496
 20
31.07381889763779
 30
0.0
 11
40.4990157480315
 21
30.97736220472441
 31
0.0
  0
LINE
  5
C44
330
1E
100
AcDbEntity
  8
7
100
AcDbLine
 10
40.4990157480315
 20
30.97736220472441
 30
0.0
 11
40.47834645669291
 21
30.87893700787401
 31
0.0
  0
LINE
  5
C45
330
1E
100
AcDbEntity
  8
7
100
AcDbLine
 10
40.47834645669291
 20
30.87893700787401
 30
0.0
 11
40.46653543307086
 21
30.77854330708661
 31
0.0
  0
LINE
  5
C46
330
1E
100
AcDbEntity
  8
7
100
AcDbLine
 10
40.46653543307086
 20
30.77854330708661
 30
0.0
 11
40.46259842519684
 21
30.67814960629921
 31
0.0
  0
LINE
  5
C47
330
1E
100
AcDbEntity
  8
7
100
AcDbLine
 10
41.76279527559055
 20
31.92716535433071
 30
0.0
 11
41.66240157480315
 21
31.92716535433071
 31
0.0
  0
LINE
  5
C48
330
1E
100
AcDbEntity
  8
7
100
AcDbLine
 10
41.66240157480315
 20
31.92716535433071
 30
0.0
 11
41.56200787401575
 21
31.91929133858267
 31
0.0
  0
LINE
  5
C49
330
1E
100
AcDbEntity
  8
7
100
AcDbLine
 10
41.56200787401575
 20
31.91929133858267
 30
0.0
 11
41.46259842519684
 21
31.90255905511811
 31
0.0
  0
LINE
  5
C4A
330
1E
100
AcDbEntity
  8
7
100
AcDbLine
 10
41.46259842519684
 20
31.90255905511811
 30
0.0
 11
41.36515748031495
 21
31.87893700787401
 31
0.0
  0
LINE
  5
C4B
330
1E
100
AcDbEntity
  8
7
100
AcDbLine
 10
41.36515748031495
 20
31.87893700787401
 30
0.0
 11
41.26968503937007
 21
31.84645669291338
 31
0.0
  0
LINE
  5
C4C
330
1E
100
AcDbEntity
  8
7
100
AcDbLine
 10
41.26968503937007
 20
31.84645669291338
 30
0.0
 11
41.1771653543307
 21
31.80708661417323
 31
0.0
  0
LINE
  5
C4D
330
1E
100
AcDbEntity
  8
7
100
AcDbLine
 10
41.1771653543307
 20
31.80708661417323
 30
0.0
 11
41.08759842519684
 21
31.76082677165354
 31
0.0
  0
LINE
  5
C4E
330
1E
100
AcDbEntity
  8
7
100
AcDbLine
 10
41.08759842519684
 20
31.76082677165354
 30
0.0
 11
41.00295275590551
 21
31.70669291338582
 31
0.0
  0
LINE
  5
C4F
330
1E
100
AcDbEntity
  8
7
100
AcDbLine
 10
41.00295275590551
 20
31.70669291338582
 30
0.0
 11
40.92224409448818
 21
31.64665354330708
 31
0.0
  0
LINE
  5
C50
330
1E
100
AcDbEntity
  8
7
100
AcDbLine
 10
40.92224409448818
 20
31.64665354330708
 30
0.0
 11
40.84645669291338
 21
31.57972440944881
 31
0.0
  0
LINE
  5
C51
330
1E
100
AcDbEntity
  8
7
100
AcDbLine
 10
40.84645669291338
 20
31.57972440944881
 30
0.0
 11
40.7765748031496
 21
31.50688976377952
 31
0.0
  0
LINE
  5
C52
330
1E
100
AcDbEntity
  8
7
100
AcDbLine
 10
40.7765748031496
 20
31.50688976377952
 30
0.0
 11
40.71358267716535
 21
31.42913385826771
 31
0.0
  0
LINE
  5
C53
330
1E
100
AcDbEntity
  8
7
100
AcDbLine
 10
42.81988188976377
 20
31.25885826771653
 30
0.0
 11
42.76870078740157
 21
31.34645669291338
 31
0.0
  0
LINE
  5
C54
330
1E
100
AcDbEntity
  8
7
100
AcDbLine
 10
42.76870078740157
 20
31.34645669291338
 30
0.0
 11
42.71161417322834
 21
31.42913385826771
 31
0.0
  0
LINE
  5
C55
330
1E
100
AcDbEntity
  8
7
100
AcDbLine
 10
42.71161417322834
 20
31.42913385826771
 30
0.0
 11
42.64862204724408
 21
31.50688976377952
 31
0.0
  0
LINE
  5
C56
330
1E
100
AcDbEntity
  8
7
100
AcDbLine
 10
42.64862204724408
 20
31.50688976377952
 30
0.0
 11
42.57874015748031
 21
31.57972440944881
 31
0.0
  0
LINE
  5
C57
330
1E
100
AcDbEntity
  8
7
100
AcDbLine
 10
42.57874015748031
 20
31.57972440944881
 30
0.0
 11
42.50295275590551
 21
31.64665354330708
 31
0.0
  0
LINE
  5
C58
330
1E
100
AcDbEntity
  8
7
100
AcDbLine
 10
42.50295275590551
 20
31.64665354330708
 30
0.0
 11
42.42224409448819
 21
31.70669291338582
 31
0.0
  0
LINE
  5
C59
330
1E
100
AcDbEntity
  8
7
100
AcDbLine
 10
42.42224409448819
 20
31.70669291338582
 30
0.0
 11
42.33759842519684
 21
31.76082677165354
 31
0.0
  0
LINE
  5
C5A
330
1E
100
AcDbEntity
  8
7
100
AcDbLine
 10
42.33759842519684
 20
31.76082677165354
 30
0.0
 11
42.24803149606299
 21
31.80708661417323
 31
0.0
  0
LINE
  5
C5B
330
1E
100
AcDbEntity
  8
7
100
AcDbLine
 10
42.24803149606299
 20
31.80708661417323
 30
0.0
 11
42.15551181102362
 21
31.84645669291338
 31
0.0
  0
LINE
  5
C5C
330
1E
100
AcDbEntity
  8
7
100
AcDbLine
 10
42.15551181102362
 20
31.84645669291338
 30
0.0
 11
42.06003937007873
 21
31.87893700787401
 31
0.0
  0
LINE
  5
C5D
330
1E
100
AcDbEntity
  8
7
100
AcDbLine
 10
42.06003937007873
 20
31.87893700787401
 30
0.0
 11
41.96259842519684
 21
31.90255905511811
 31
0.0
  0
LINE
  5
C5E
330
1E
100
AcDbEntity
  8
7
100
AcDbLine
 10
41.96259842519684
 20
31.90255905511811
 30
0.0
 11
41.86318897637795
 21
31.91929133858267
 31
0.0
  0
LINE
  5
C5F
330
1E
100
AcDbEntity
  8
7
100
AcDbLine
 10
41.86318897637795
 20
31.91929133858267
 30
0.0
 11
41.76279527559055
 21
31.92716535433071
 31
0.0
  0
LINE
  5
C60
330
1E
100
AcDbEntity
  8
7
100
AcDbLine
 10
42.96259842519684
 20
30.67814960629921
 30
0.0
 11
42.95866141732282
 21
30.77854330708661
 31
0.0
  0
LINE
  5
C61
330
1E
100
AcDbEntity
  8
7
100
AcDbLine
 10
42.95866141732282
 20
30.77854330708661
 30
0.0
 11
42.94685039370079
 21
30.87893700787401
 31
0.0
  0
LINE
  5
C62
330
1E
100
AcDbEntity
  8
7
100
AcDbLine
 10
42.94685039370079
 20
30.87893700787401
 30
0.0
 11
42.9261811023622
 21
30.97736220472441
 31
0.0
  0
LINE
  5
C63
330
1E
100
AcDbEntity
  8
7
100
AcDbLine
 10
42.9261811023622
 20
30.97736220472441
 30
0.0
 11
42.89862204724409
 21
31.07381889763779
 31
0.0
  0
LINE
  5
C64
330
1E
100
AcDbEntity
  8
7
100
AcDbLine
 10
42.89862204724409
 20
31.07381889763779
 30
0.0
 11
42.86220472440944
 21
31.16830708661417
 31
0.0
  0
LINE
  5
C65
330
1E
100
AcDbEntity
  8
7
100
AcDbLine
 10
42.86220472440944
 20
31.16830708661417
 30
0.0
 11
42.81988188976377
 21
31.25885826771653
 31
0.0
  0
LINE
  5
C66
330
1E
100
AcDbEntity
  8
7
100
AcDbLine
 10
42.06003937007873
 20
27.4773622047244
 30
0.0
 11
42.15551181102362
 21
27.50984251968503
 31
0.0
  0
LINE
  5
C67
330
1E
100
AcDbEntity
  8
7
100
AcDbLine
 10
42.15551181102362
 20
27.50984251968503
 30
0.0
 11
42.24803149606299
 21
27.54921259842519
 31
0.0
  0
LINE
  5
C68
330
1E
100
AcDbEntity
  8
7
100
AcDbLine
 10
42.24803149606299
 20
27.54921259842519
 30
0.0
 11
42.33759842519684
 21
27.59547244094488
 31
0.0
  0
LINE
  5
C69
330
1E
100
AcDbEntity
  8
7
100
AcDbLine
 10
42.33759842519684
 20
27.59547244094488
 30
0.0
 11
42.42224409448819
 21
27.64960629921259
 31
0.0
  0
LINE
  5
C6A
330
1E
100
AcDbEntity
  8
7
100
AcDbLine
 10
42.42224409448819
 20
27.64960629921259
 30
0.0
 11
42.50295275590551
 21
27.70964566929134
 31
0.0
  0
LINE
  5
C6B
330
1E
100
AcDbEntity
  8
7
100
AcDbLine
 10
42.50295275590551
 20
27.70964566929134
 30
0.0
 11
42.57874015748031
 21
27.7765748031496
 31
0.0
  0
LINE
  5
C6C
330
1E
100
AcDbEntity
  8
7
100
AcDbLine
 10
42.57874015748031
 20
27.7765748031496
 30
0.0
 11
42.64862204724408
 21
27.84940944881889
 31
0.0
  0
LINE
  5
C6D
330
1E
100
AcDbEntity
  8
7
100
AcDbLine
 10
42.64862204724408
 20
27.84940944881889
 30
0.0
 11
42.71161417322834
 21
27.9271653543307
 31
0.0
  0
LINE
  5
C6E
330
1E
100
AcDbEntity
  8
7
100
AcDbLine
 10
42.71161417322834
 20
27.9271653543307
 30
0.0
 11
42.76870078740157
 21
28.00984251968504
 31
0.0
  0
LINE
  5
C6F
330
1E
100
AcDbEntity
  8
7
100
AcDbLine
 10
42.76870078740157
 20
28.00984251968504
 30
0.0
 11
42.81988188976377
 21
28.09744094488189
 31
0.0
  0
LINE
  5
C70
330
1E
100
AcDbEntity
  8
7
100
AcDbLine
 10
42.81988188976377
 20
28.09744094488189
 30
0.0
 11
42.86220472440944
 21
28.18799212598425
 31
0.0
  0
LINE
  5
C71
330
1E
100
AcDbEntity
  8
7
100
AcDbLine
 10
42.86220472440944
 20
28.18799212598425
 30
0.0
 11
42.89862204724409
 21
28.28248031496062
 31
0.0
  0
LINE
  5
C72
330
1E
100
AcDbEntity
  8
7
100
AcDbLine
 10
42.89862204724409
 20
28.28248031496062
 30
0.0
 11
42.9261811023622
 21
28.37893700787401
 31
0.0
  0
LINE
  5
C73
330
1E
100
AcDbEntity
  8
7
100
AcDbLine
 10
42.9261811023622
 20
28.37893700787401
 30
0.0
 11
42.94685039370079
 21
28.47736220472441
 31
0.0
  0
LINE
  5
C74
330
1E
100
AcDbEntity
  8
7
100
AcDbLine
 10
42.94685039370079
 20
28.47736220472441
 30
0.0
 11
42.95866141732282
 21
28.57775590551181
 31
0.0
  0
LINE
  5
C75
330
1E
100
AcDbEntity
  8
7
100
AcDbLine
 10
40.7765748031496
 20
27.84940944881889
 30
0.0
 11
40.84645669291338
 21
27.7765748031496
 31
0.0
  0
LINE
  5
C76
330
1E
100
AcDbEntity
  8
7
100
AcDbLine
 10
40.84645669291338
 20
27.7765748031496
 30
0.0
 11
40.92224409448818
 21
27.70964566929134
 31
0.0
  0
LINE
  5
C77
330
1E
100
AcDbEntity
  8
7
100
AcDbLine
 10
40.92224409448818
 20
27.70964566929134
 30
0.0
 11
41.00295275590551
 21
27.64960629921259
 31
0.0
  0
LINE
  5
C78
330
1E
100
AcDbEntity
  8
7
100
AcDbLine
 10
41.00295275590551
 20
27.64960629921259
 30
0.0
 11
41.08759842519684
 21
27.59547244094488
 31
0.0
  0
LINE
  5
C79
330
1E
100
AcDbEntity
  8
7
100
AcDbLine
 10
41.08759842519684
 20
27.59547244094488
 30
0.0
 11
41.1771653543307
 21
27.54921259842519
 31
0.0
  0
LINE
  5
C7A
330
1E
100
AcDbEntity
  8
7
100
AcDbLine
 10
41.1771653543307
 20
27.54921259842519
 30
0.0
 11
41.26968503937007
 21
27.50984251968503
 31
0.0
  0
LINE
  5
C7B
330
1E
100
AcDbEntity
  8
7
100
AcDbLine
 10
41.26968503937007
 20
27.50984251968503
 30
0.0
 11
41.36515748031495
 21
27.4773622047244
 31
0.0
  0
LINE
  5
C7C
330
1E
100
AcDbEntity
  8
7
100
AcDbLine
 10
41.36515748031495
 20
27.4773622047244
 30
0.0
 11
41.46259842519684
 21
27.45374015748031
 31
0.0
  0
LINE
  5
C7D
330
1E
100
AcDbEntity
  8
7
100
AcDbLine
 10
41.46259842519684
 20
27.45374015748031
 30
0.0
 11
41.56200787401575
 21
27.43700787401575
 31
0.0
  0
LINE
  5
C7E
330
1E
100
AcDbEntity
  8
7
100
AcDbLine
 10
41.56200787401575
 20
27.43700787401575
 30
0.0
 11
41.66240157480315
 21
27.42913385826771
 31
0.0
  0
LINE
  5
C7F
330
1E
100
AcDbEntity
  8
7
100
AcDbLine
 10
41.66240157480315
 20
27.42913385826771
 30
0.0
 11
41.76279527559055
 21
27.42913385826771
 31
0.0
  0
LINE
  5
C80
330
1E
100
AcDbEntity
  8
7
100
AcDbLine
 10
41.76279527559055
 20
27.42913385826771
 30
0.0
 11
41.86318897637795
 21
27.43700787401575
 31
0.0
  0
LINE
  5
C81
330
1E
100
AcDbEntity
  8
7
100
AcDbLine
 10
41.86318897637795
 20
27.43700787401575
 30
0.0
 11
41.96259842519684
 21
27.45374015748031
 31
0.0
  0
LINE
  5
C82
330
1E
100
AcDbEntity
  8
7
100
AcDbLine
 10
41.96259842519684
 20
27.45374015748031
 30
0.0
 11
42.06003937007873
 21
27.4773622047244
 31
0.0
  0
LINE
  5
C83
330
1E
100
AcDbEntity
  8
7
100
AcDbLine
 10
40.46259842519684
 20
28.67814960629921
 30
0.0
 11
40.46653543307086
 21
28.57775590551181
 31
0.0
  0
LINE
  5
C84
330
1E
100
AcDbEntity
  8
7
100
AcDbLine
 10
40.46653543307086
 20
28.57775590551181
 30
0.0
 11
40.47834645669291
 21
28.47736220472441
 31
0.0
  0
LINE
  5
C85
330
1E
100
AcDbEntity
  8
7
100
AcDbLine
 10
40.47834645669291
 20
28.47736220472441
 30
0.0
 11
40.4990157480315
 21
28.37893700787401
 31
0.0
  0
LINE
  5
C86
330
1E
100
AcDbEntity
  8
7
100
AcDbLine
 10
40.4990157480315
 20
28.37893700787401
 30
0.0
 11
40.5265748031496
 21
28.28248031496062
 31
0.0
  0
LINE
  5
C87
330
1E
100
AcDbEntity
  8
7
100
AcDbLine
 10
40.5265748031496
 20
28.28248031496062
 30
0.0
 11
40.56299212598425
 21
28.18799212598425
 31
0.0
  0
LINE
  5
C88
330
1E
100
AcDbEntity
  8
7
100
AcDbLine
 10
40.56299212598425
 20
28.18799212598425
 30
0.0
 11
40.60531496062991
 21
28.09744094488189
 31
0.0
  0
LINE
  5
C89
330
1E
100
AcDbEntity
  8
7
100
AcDbLine
 10
40.60531496062991
 20
28.09744094488189
 30
0.0
 11
40.65649606299213
 21
28.00984251968504
 31
0.0
  0
LINE
  5
C8A
330
1E
100
AcDbEntity
  8
7
100
AcDbLine
 10
40.65649606299213
 20
28.00984251968504
 30
0.0
 11
40.71358267716535
 21
27.9271653543307
 31
0.0
  0
LINE
  5
C8B
330
1E
100
AcDbEntity
  8
7
100
AcDbLine
 10
40.71358267716535
 20
27.9271653543307
 30
0.0
 11
40.7765748031496
 21
27.84940944881889
 31
0.0
  0
LINE
  5
C8C
330
1E
100
AcDbEntity
  8
7
100
AcDbLine
 10
41.16338582677165
 20
29.60629921259842
 30
0.0
 11
41.15944881889763
 21
29.67814960629921
 31
0.0
  0
LINE
  5
C8D
330
1E
100
AcDbEntity
  8
7
100
AcDbLine
 10
41.15944881889763
 20
29.67814960629921
 30
0.0
 11
41.16338582677165
 21
29.7509842519685
 31
0.0
  0
LINE
  5
C8E
330
1E
100
AcDbEntity
  8
7
100
AcDbLine
 10
41.16338582677165
 20
29.7509842519685
 30
0.0
 11
41.1781496062992
 21
29.82185039370078
 31
0.0
  0
LINE
  5
C8F
330
1E
100
AcDbEntity
  8
7
100
AcDbLine
 10
41.1781496062992
 20
29.82185039370078
 30
0.0
 11
41.2007874015748
 21
29.88976377952755
 31
0.0
  0
LINE
  5
C90
330
1E
100
AcDbEntity
  8
7
100
AcDbLine
 10
41.2007874015748
 20
29.88976377952755
 30
0.0
 11
41.23326771653543
 21
29.95472440944881
 31
0.0
  0
LINE
  5
C91
330
1E
100
AcDbEntity
  8
7
100
AcDbLine
 10
41.23326771653543
 20
29.95472440944881
 30
0.0
 11
41.27362204724408
 21
30.01476377952755
 31
0.0
  0
LINE
  5
C92
330
1E
100
AcDbEntity
  8
7
100
AcDbLine
 10
41.27362204724408
 20
30.01476377952755
 30
0.0
 11
41.32086614173227
 21
30.06988188976377
 31
0.0
  0
LINE
  5
C93
330
1E
100
AcDbEntity
  8
7
100
AcDbLine
 10
41.32086614173227
 20
30.06988188976377
 30
0.0
 11
41.3759842519685
 21
30.11712598425196
 31
0.0
  0
LINE
  5
C94
330
1E
100
AcDbEntity
  8
7
100
AcDbLine
 10
41.3759842519685
 20
30.11712598425196
 30
0.0
 11
41.43602362204724
 21
30.15748031496062
 31
0.0
  0
LINE
  5
C95
330
1E
100
AcDbEntity
  8
7
100
AcDbLine
 10
41.43602362204724
 20
30.15748031496062
 30
0.0
 11
41.5009842519685
 21
30.18897637795275
 31
0.0
  0
LINE
  5
C96
330
1E
100
AcDbEntity
  8
7
100
AcDbLine
 10
41.5009842519685
 20
30.18897637795275
 30
0.0
 11
41.56889763779527
 21
30.21259842519685
 31
0.0
  0
LINE
  5
C97
330
1E
100
AcDbEntity
  8
7
100
AcDbLine
 10
41.56889763779527
 20
30.21259842519685
 30
0.0
 11
41.63976377952756
 21
30.2263779527559
 31
0.0
  0
LINE
  5
C98
330
1E
100
AcDbEntity
  8
7
100
AcDbLine
 10
41.63976377952756
 20
30.2263779527559
 30
0.0
 11
41.71259842519684
 21
30.23129921259842
 31
0.0
  0
LINE
  5
C99
330
1E
100
AcDbEntity
  8
7
100
AcDbLine
 10
41.85531496062991
 20
29.14370078740157
 30
0.0
 11
41.78444881889763
 21
29.12992125984251
 31
0.0
  0
LINE
  5
C9A
330
1E
100
AcDbEntity
  8
7
100
AcDbLine
 10
41.78444881889763
 20
29.12992125984251
 30
0.0
 11
41.71259842519684
 21
29.125
 31
0.0
  0
LINE
  5
C9B
330
1E
100
AcDbEntity
  8
7
100
AcDbLine
 10
41.71259842519684
 20
29.125
 30
0.0
 11
41.63976377952756
 21
29.12992125984251
 31
0.0
  0
LINE
  5
C9C
330
1E
100
AcDbEntity
  8
7
100
AcDbLine
 10
41.63976377952756
 20
29.12992125984251
 30
0.0
 11
41.56889763779527
 21
29.14370078740157
 31
0.0
  0
LINE
  5
C9D
330
1E
100
AcDbEntity
  8
7
100
AcDbLine
 10
41.56889763779527
 20
29.14370078740157
 30
0.0
 11
41.5009842519685
 21
29.16732283464567
 31
0.0
  0
LINE
  5
C9E
330
1E
100
AcDbEntity
  8
7
100
AcDbLine
 10
41.5009842519685
 20
29.16732283464567
 30
0.0
 11
41.43602362204724
 21
29.19980314960629
 31
0.0
  0
LINE
  5
C9F
330
1E
100
AcDbEntity
  8
7
100
AcDbLine
 10
41.43602362204724
 20
29.19980314960629
 30
0.0
 11
41.3759842519685
 21
29.23917322834645
 31
0.0
  0
LINE
  5
CA0
330
1E
100
AcDbEntity
  8
7
100
AcDbLine
 10
41.3759842519685
 20
29.23917322834645
 30
0.0
 11
41.32086614173227
 21
29.28740157480314
 31
0.0
  0
LINE
  5
CA1
330
1E
100
AcDbEntity
  8
7
100
AcDbLine
 10
41.32086614173227
 20
29.28740157480314
 30
0.0
 11
41.27362204724408
 21
29.34153543307086
 31
0.0
  0
LINE
  5
CA2
330
1E
100
AcDbEntity
  8
7
100
AcDbLine
 10
41.27362204724408
 20
29.34153543307086
 30
0.0
 11
41.23326771653543
 21
29.4015748031496
 31
0.0
  0
LINE
  5
CA3
330
1E
100
AcDbEntity
  8
7
100
AcDbLine
 10
41.23326771653543
 20
29.4015748031496
 30
0.0
 11
41.2007874015748
 21
29.46653543307086
 31
0.0
  0
LINE
  5
CA4
330
1E
100
AcDbEntity
  8
7
100
AcDbLine
 10
41.2007874015748
 20
29.46653543307086
 30
0.0
 11
41.1781496062992
 21
29.53543307086614
 31
0.0
  0
LINE
  5
CA5
330
1E
100
AcDbEntity
  8
7
100
AcDbLine
 10
41.1781496062992
 20
29.53543307086614
 30
0.0
 11
41.16338582677165
 21
29.60629921259842
 31
0.0
  0
LINE
  5
CA6
330
1E
100
AcDbEntity
  8
7
100
AcDbLine
 10
42.24606299212598
 20
29.82185039370078
 30
0.0
 11
42.26082677165353
 21
29.7509842519685
 31
0.0
  0
LINE
  5
CA7
330
1E
100
AcDbEntity
  8
7
100
AcDbLine
 10
42.26082677165353
 20
29.7509842519685
 30
0.0
 11
42.26574803149605
 21
29.67814960629921
 31
0.0
  0
LINE
  5
CA8
330
1E
100
AcDbEntity
  8
7
100
AcDbLine
 10
42.26574803149605
 20
29.67814960629921
 30
0.0
 11
42.26082677165353
 21
29.60629921259842
 31
0.0
  0
LINE
  5
CA9
330
1E
100
AcDbEntity
  8
7
100
AcDbLine
 10
42.26082677165353
 20
29.60629921259842
 30
0.0
 11
42.24606299212598
 21
29.53543307086614
 31
0.0
  0
LINE
  5
CAA
330
1E
100
AcDbEntity
  8
7
100
AcDbLine
 10
42.24606299212598
 20
29.53543307086614
 30
0.0
 11
42.22342519685039
 21
29.46653543307086
 31
0.0
  0
LINE
  5
CAB
330
1E
100
AcDbEntity
  8
7
100
AcDbLine
 10
42.22342519685039
 20
29.46653543307086
 30
0.0
 11
42.19094488188976
 21
29.4015748031496
 31
0.0
  0
LINE
  5
CAC
330
1E
100
AcDbEntity
  8
7
100
AcDbLine
 10
42.19094488188976
 20
29.4015748031496
 30
0.0
 11
42.1505905511811
 21
29.34153543307086
 31
0.0
  0
LINE
  5
CAD
330
1E
100
AcDbEntity
  8
7
100
AcDbLine
 10
42.1505905511811
 20
29.34153543307086
 30
0.0
 11
42.1033464566929
 21
29.28740157480314
 31
0.0
  0
LINE
  5
CAE
330
1E
100
AcDbEntity
  8
7
100
AcDbLine
 10
42.1033464566929
 20
29.28740157480314
 30
0.0
 11
42.04921259842519
 21
29.23917322834645
 31
0.0
  0
LINE
  5
CAF
330
1E
100
AcDbEntity
  8
7
100
AcDbLine
 10
42.04921259842519
 20
29.23917322834645
 30
0.0
 11
41.98917322834645
 21
29.19980314960629
 31
0.0
  0
LINE
  5
CB0
330
1E
100
AcDbEntity
  8
7
100
AcDbLine
 10
41.98917322834645
 20
29.19980314960629
 30
0.0
 11
41.92421259842519
 21
29.16732283464567
 31
0.0
  0
LINE
  5
CB1
330
1E
100
AcDbEntity
  8
7
100
AcDbLine
 10
41.92421259842519
 20
29.16732283464567
 30
0.0
 11
41.85531496062991
 21
29.14370078740157
 31
0.0
  0
LINE
  5
CB2
330
1E
100
AcDbEntity
  8
7
100
AcDbLine
 10
41.71259842519684
 20
30.23129921259842
 30
0.0
 11
41.78444881889763
 21
30.2263779527559
 31
0.0
  0
LINE
  5
CB3
330
1E
100
AcDbEntity
  8
7
100
AcDbLine
 10
41.78444881889763
 20
30.2263779527559
 30
0.0
 11
41.85531496062991
 21
30.21259842519685
 31
0.0
  0
LINE
  5
CB4
330
1E
100
AcDbEntity
  8
7
100
AcDbLine
 10
41.85531496062991
 20
30.21259842519685
 30
0.0
 11
41.92421259842519
 21
30.18897637795275
 31
0.0
  0
LINE
  5
CB5
330
1E
100
AcDbEntity
  8
7
100
AcDbLine
 10
41.92421259842519
 20
30.18897637795275
 30
0.0
 11
41.98917322834645
 21
30.15748031496062
 31
0.0
  0
LINE
  5
CB6
330
1E
100
AcDbEntity
  8
7
100
AcDbLine
 10
41.98917322834645
 20
30.15748031496062
 30
0.0
 11
42.04921259842519
 21
30.11712598425196
 31
0.0
  0
LINE
  5
CB7
330
1E
100
AcDbEntity
  8
7
100
AcDbLine
 10
42.04921259842519
 20
30.11712598425196
 30
0.0
 11
42.1033464566929
 21
30.06988188976377
 31
0.0
  0
LINE
  5
CB8
330
1E
100
AcDbEntity
  8
7
100
AcDbLine
 10
42.1033464566929
 20
30.06988188976377
 30
0.0
 11
42.1505905511811
 21
30.01476377952755
 31
0.0
  0
LINE
  5
CB9
330
1E
100
AcDbEntity
  8
7
100
AcDbLine
 10
42.1505905511811
 20
30.01476377952755
 30
0.0
 11
42.19094488188976
 21
29.95472440944881
 31
0.0
  0
LINE
  5
CBA
330
1E
100
AcDbEntity
  8
7
100
AcDbLine
 10
42.19094488188976
 20
29.95472440944881
 30
0.0
 11
42.22342519685039
 21
29.88976377952755
 31
0.0
  0
LINE
  5
CBB
330
1E
100
AcDbEntity
  8
7
100
AcDbLine
 10
42.22342519685039
 20
29.88976377952755
 30
0.0
 11
42.24606299212598
 21
29.82185039370078
 31
0.0
  0
LINE
  5
CBC
330
1E
100
AcDbEntity
  8
3
100
AcDbLine
 10
41.97047244094488
 20
31.11417322834645
 30
0.0
 11
41.98622047244094
 21
31.11811023622047
 31
0.0
  0
LINE
  5
CBD
330
1E
100
AcDbEntity
  8
3
100
AcDbLine
 10
41.98622047244094
 20
31.11811023622047
 30
0.0
 11
41.99901574803149
 21
31.12992125984252
 31
0.0
  0
LINE
  5
CBE
330
1E
100
AcDbEntity
  8
3
100
AcDbLine
 10
41.99901574803149
 20
31.12992125984252
 30
0.0
 11
42.0029527559055
 21
31.14665354330708
 31
0.0
  0
LINE
  5
CBF
330
1E
100
AcDbEntity
  8
3
100
AcDbLine
 10
41.93307086614173
 20
31.16633858267716
 30
0.0
 11
41.93602362204724
 21
31.16043307086614
 31
0.0
  0
LINE
  5
CC0
330
1E
100
AcDbEntity
  8
3
100
AcDbLine
 10
41.93602362204724
 20
31.16043307086614
 30
0.0
 11
41.94192913385826
 21
31.15748031496063
 31
0.0
  0
LINE
  5
CC1
330
1E
100
AcDbEntity
  8
3
100
AcDbLine
 10
41.78149606299212
 20
31.15748031496063
 30
0.0
 11
41.78740157480315
 21
31.16043307086614
 31
0.0
  0
LINE
  5
CC2
330
1E
100
AcDbEntity
  8
3
100
AcDbLine
 10
41.78740157480315
 20
31.16043307086614
 30
0.0
 11
41.79035433070866
 21
31.16633858267716
 31
0.0
  0
LINE
  5
CC3
330
1E
100
AcDbEntity
  8
3
100
AcDbLine
 10
41.81102362204724
 20
31.11417322834645
 30
0.0
 11
41.8267716535433
 21
31.11811023622047
 31
0.0
  0
LINE
  5
CC4
330
1E
100
AcDbEntity
  8
3
100
AcDbLine
 10
41.8267716535433
 20
31.11811023622047
 30
0.0
 11
41.83956692913385
 21
31.12992125984252
 31
0.0
  0
LINE
  5
CC5
330
1E
100
AcDbEntity
  8
3
100
AcDbLine
 10
41.83956692913385
 20
31.12992125984252
 30
0.0
 11
41.84350393700786
 21
31.14665354330708
 31
0.0
  0
LINE
  5
CC6
330
1E
100
AcDbEntity
  8
3
100
AcDbLine
 10
41.79035433070866
 20
31.25
 30
0.0
 11
41.78740157480315
 21
31.25590551181102
 31
0.0
  0
LINE
  5
CC7
330
1E
100
AcDbEntity
  8
3
100
AcDbLine
 10
41.78740157480315
 20
31.25590551181102
 30
0.0
 11
41.78149606299212
 21
31.25885826771653
 31
0.0
  0
LINE
  5
CC8
330
1E
100
AcDbEntity
  8
7
100
AcDbLine
 10
41.43405511811024
 20
31.24015748031496
 30
0.0
 11
41.43996062992125
 21
31.26870078740157
 31
0.0
  0
LINE
  5
CC9
330
1E
100
AcDbEntity
  8
7
100
AcDbLine
 10
41.43996062992125
 20
31.26870078740157
 30
0.0
 11
41.43602362204724
 21
31.29724409448819
 31
0.0
  0
LINE
  5
CCA
330
1E
100
AcDbEntity
  8
7
100
AcDbLine
 10
41.39468503937007
 20
31.19783464566928
 30
0.0
 11
41.41732283464566
 21
31.21555118110236
 31
0.0
  0
LINE
  5
CCB
330
1E
100
AcDbEntity
  8
7
100
AcDbLine
 10
41.41732283464566
 20
31.21555118110236
 30
0.0
 11
41.43405511811024
 21
31.24015748031496
 31
0.0
  0
LINE
  5
CCC
330
1E
100
AcDbEntity
  8
3
100
AcDbLine
 10
41.87303149606299
 20
31.14665354330708
 30
0.0
 11
41.87696850393701
 21
31.13090551181102
 31
0.0
  0
LINE
  5
CCD
330
1E
100
AcDbEntity
  8
3
100
AcDbLine
 10
41.87696850393701
 20
31.13090551181102
 30
0.0
 11
41.88877952755905
 21
31.11811023622047
 31
0.0
  0
LINE
  5
CCE
330
1E
100
AcDbEntity
  8
3
100
AcDbLine
 10
41.88877952755905
 20
31.11811023622047
 30
0.0
 11
41.90551181102361
 21
31.11417322834645
 31
0.0
  0
LINE
  5
CCF
330
1E
100
AcDbEntity
  8
3
100
AcDbLine
 10
41.95570866141731
 20
31.15748031496063
 30
0.0
 11
41.96161417322834
 21
31.16043307086614
 31
0.0
  0
LINE
  5
CD0
330
1E
100
AcDbEntity
  8
3
100
AcDbLine
 10
41.96161417322834
 20
31.16043307086614
 30
0.0
 11
41.96456692913385
 21
31.16633858267716
 31
0.0
  0
LINE
  5
CD1
330
1E
100
AcDbEntity
  8
3
100
AcDbLine
 10
41.33464566929133
 20
31.3001968503937
 30
0.0
 11
41.33169291338582
 21
31.30807086614173
 31
0.0
  0
LINE
  5
CD2
330
1E
100
AcDbEntity
  8
3
100
AcDbLine
 10
41.33169291338582
 20
31.30807086614173
 30
0.0
 11
41.32381889763779
 21
31.31102362204724
 31
0.0
  0
LINE
  5
CD3
330
1E
100
AcDbEntity
  8
3
100
AcDbLine
 10
41.43602362204724
 20
31.24606299212598
 30
0.0
 11
41.43996062992125
 21
31.27165354330708
 31
0.0
  0
LINE
  5
CD4
330
1E
100
AcDbEntity
  8
3
100
AcDbLine
 10
41.43996062992125
 20
31.27165354330708
 30
0.0
 11
41.43602362204724
 21
31.29724409448819
 31
0.0
  0
LINE
  5
CD5
330
1E
100
AcDbEntity
  8
3
100
AcDbLine
 10
41.43602362204724
 20
31.29724409448819
 30
0.0
 11
41.42421259842519
 21
31.31988188976377
 31
0.0
  0
LINE
  5
CD6
330
1E
100
AcDbEntity
  8
3
100
AcDbLine
 10
41.42421259842519
 20
31.31988188976377
 30
0.0
 11
41.40649606299212
 21
31.33759842519685
 31
0.0
  0
LINE
  5
CD7
330
1E
100
AcDbEntity
  8
3
100
AcDbLine
 10
41.40649606299212
 20
31.33759842519685
 30
0.0
 11
41.38385826771653
 21
31.34940944881889
 31
0.0
  0
LINE
  5
CD8
330
1E
100
AcDbEntity
  8
3
100
AcDbLine
 10
41.38385826771653
 20
31.34940944881889
 30
0.0
 11
41.35826771653543
 21
31.35334645669291
 31
0.0
  0
LINE
  5
CD9
330
1E
100
AcDbEntity
  8
3
100
AcDbLine
 10
41.35826771653543
 20
31.18996062992126
 30
0.0
 11
41.38385826771653
 21
31.19389763779527
 31
0.0
  0
LINE
  5
CDA
330
1E
100
AcDbEntity
  8
3
100
AcDbLine
 10
41.38385826771653
 20
31.19389763779527
 30
0.0
 11
41.40649606299212
 21
31.20570866141732
 31
0.0
  0
LINE
  5
CDB
330
1E
100
AcDbEntity
  8
3
100
AcDbLine
 10
41.40649606299212
 20
31.20570866141732
 30
0.0
 11
41.42421259842519
 21
31.22342519685039
 31
0.0
  0
LINE
  5
CDC
330
1E
100
AcDbEntity
  8
3
100
AcDbLine
 10
41.42421259842519
 20
31.22342519685039
 30
0.0
 11
41.43602362204724
 21
31.24606299212598
 31
0.0
  0
LINE
  5
CDD
330
1E
100
AcDbEntity
  8
3
100
AcDbLine
 10
41.84350393700786
 20
31.26476377952755
 30
0.0
 11
41.83956692913385
 21
31.28051181102362
 31
0.0
  0
LINE
  5
CDE
330
1E
100
AcDbEntity
  8
3
100
AcDbLine
 10
41.83956692913385
 20
31.28051181102362
 30
0.0
 11
41.8277559055118
 21
31.29330708661417
 31
0.0
  0
LINE
  5
CDF
330
1E
100
AcDbEntity
  8
3
100
AcDbLine
 10
41.8277559055118
 20
31.29330708661417
 30
0.0
 11
41.81102362204724
 21
31.29724409448819
 31
0.0
  0
LINE
  5
CE0
330
1E
100
AcDbEntity
  8
3
100
AcDbLine
 10
41.32381889763779
 20
31.22834645669291
 30
0.0
 11
41.33169291338582
 21
31.23129921259842
 31
0.0
  0
LINE
  5
CE1
330
1E
100
AcDbEntity
  8
3
100
AcDbLine
 10
41.33169291338582
 20
31.23129921259842
 30
0.0
 11
41.33464566929133
 21
31.23917322834645
 31
0.0
  0
LINE
  5
CE2
330
1E
100
AcDbEntity
  8
7
100
AcDbLine
 10
41.67519685039369
 20
28.04232283464566
 30
0.0
 11
41.67519685039369
 21
28.02657480314961
 31
0.0
  0
LINE
  5
CE3
330
1E
100
AcDbEntity
  8
7
100
AcDbLine
 10
41.67519685039369
 20
28.02657480314961
 30
0.0
 11
41.68405511811023
 21
28.01574803149606
 31
0.0
  0
ENDSEC
  0
SECTION
  2
OBJECTS
  0
DICTIONARY
  5
C
330
0
100
AcDbDictionary
  3
ACAD_GROUP
350
D
  3
ACAD_LAYOUT
350
19
  3
ACAD_MLINESTYLE
350
16
  3
ACAD_PLOTSETTINGS
350
18
  3
ACAD_PLOTSTYLENAME
350
E
  3
ACDBHEADERROUNDTRIPXREC
350
D19
  0
DICTIONARY
  5
D3C
330
1E
100
AcDbDictionary
280
     1
  3
ACAD_LAYOUTSELFREF
360
D3D
  0
DICTIONARY
  5
D3A
330
1A
100
AcDbDictionary
280
     1
  3
ACAD_LAYOUTSELFREF
360
D3B
  0
DICTIONARY
  5
D
102
{ACAD_REACTORS
330
C
102
}
330
C
100
AcDbDictionary
  0
DICTIONARY
  5
19
102
{ACAD_REACTORS
330
C
102
}
330
C
100
AcDbDictionary
  0
DICTIONARY
  5
16
102
{ACAD_REACTORS
330
C
102
}
330
C
100
AcDbDictionary
  3
STANDARD
350
17
  0
DICTIONARY
  5
18
102
{ACAD_REACTORS
330
C
102
}
330
C
100
AcDbDictionary
  0
ACDBDICTIONARYWDFLT
  5
E
102
{ACAD_REACTORS
330
C
102
}
330
C
100
AcDbDictionary
281
     1
  3
Normal
350
F
100
AcDbDictionaryWithDefault
340
F
  0
DICTIONARY
  5
D19
102
{ACAD_REACTORS
330
C
102
}
330
C
100
AcDbDictionary
  3
CEPSNTYPE
350
D23
  3
DIMSTYLEDATA
350
D27
  3
FINGERPRINTGUID
350
D24
  3
HYPERLINKBASE
350
D1C
  3
INSUNITS
350
D22
  3
LAYOUTDICT
350
D1E
  3
LWETCUNION
350
D21
  3
PLOTSETDICT
350
D1F
  3
PLOTSTYLNAMDICT
350
D20
  3
PSVPSCALE
350
D26
  3
PUCSBASE
350
D2A
  3
PUCSORGBACK
350
D30
  3
PUCSORGBOTTOM
350
D2C
  3
PUCSORGFRONT
350
D2F
  3
PUCSORGLEFT
350
D2D
  3
PUCSORGRIGHT
350
D2E
  3
PUCSORGTOP
350
D2B
  3
PUCSORTHOREF
350
D28
  3
PUCSORTHOVIEW
350
D29
  3
STYLESHEET
350
D1D
  3
TSTACKALIGN
350
D1A
  3
TSTACKSIZE
350
D1B
  3
UCSBASE
350
D33
  3
UCSORGBACK
350
D39
  3
UCSORGBOTTOM
350
D35
  3
UCSORGFRONT
350
D38
  3
UCSORGLEFT
350
D36
  3
UCSORGRIGHT
350
D37
  3
UCSORGTOP
350
D34
  3
UCSORTHOREF
350
D31
  3
UCSORTHOVIEW
350
D32
  3
VERSIONGUID
350
D25
  0
XRECORD
  5
D3D
102
{ACAD_REACTORS
330
D3C
102
}
330
D3C
100
AcDbXrecord
340
1E
  0
XRECORD
  5
D3B
102
{ACAD_REACTORS
330
D3A
102
}
330
D3A
100
AcDbXrecord
340
1A
  0
MLINESTYLE
  5
17
102
{ACAD_REACTORS
330
16
102
}
330
16
100
AcDbMlineStyle
  2
STANDARD
 70
     0
  3

 62
   256
 51
90.0
 52
90.0
 71
     2
 49
0.5
 62
   256
  6
BYLAYER
 49
-0.5
 62
   256
  6
BYLAYER
  0
ACDBPLACEHOLDER
  5
F
102
{ACAD_REACTORS
330
E
102
}
330
E
100
AcDbPlaceHolder
280
     0
  0
XRECORD
  5
D23
102
{ACAD_REACTORS
330
D19
102
}
330
D19
100
AcDbXrecord
 90
        0
  0
XRECORD
  5
D27
102
{ACAD_REACTORS
330
D19
102
}
330
D19
100
AcDbXrecord
1000
DSTYLE
1002
{
1070
   279
 70
     2
1002
}
  0
XRECORD
  5
D24
102
{ACAD_REACTORS
330
D19
102
}
330
D19
100
AcDbXrecord
  1
{EE4E5745-2736-42B9-8A0E-B67C80D8E56E}
  0
XRECORD
  5
D1C
102
{ACAD_REACTORS
330
D19
102
}
330
D19
100
AcDbXrecord
  1

  0
XRECORD
  5
D22
102
{ACAD_REACTORS
330
D19
102
}
330
D19
100
AcDbXrecord
 90
        0
  0
XRECORD
  5
D1E
102
{ACAD_REACTORS
330
D19
102
}
330
D19
100
AcDbXrecord
340
19
  0
XRECORD
  5
D21
102
{ACAD_REACTORS
330
D19
102
}
330
D19
100
AcDbXrecord
 90
    14877
  0
XRECORD
  5
D1F
102
{ACAD_REACTORS
330
D19
102
}
330
D19
100
AcDbXrecord
340
18
  0
XRECORD
  5
D20
102
{ACAD_REACTORS
330
D19
102
}
330
D19
100
AcDbXrecord
340
E
  0
XRECORD
  5
D26
102
{ACAD_REACTORS
330
D19
102
}
330
D19
100
AcDbXrecord
 40
0.0
  0
XRECORD
  5
D2A
102
{ACAD_REACTORS
330
D19
102
}
330
D19
100
AcDbXrecord
340
0
  0
XRECORD
  5
D30
102
{ACAD_REACTORS
330
D19
102
}
330
D19
100
AcDbXrecord
 10
0.0
 20
0.0
 30
0.0
  0
XRECORD
  5
D2C
102
{ACAD_REACTORS
330
D19
102
}
330
D19
100
AcDbXrecord
 10
0.0
 20
0.0
 30
0.0
  0
XRECORD
  5
D2F
102
{ACAD_REACTORS
330
D19
102
}
330
D19
100
AcDbXrecord
 10
0.0
 20
0.0
 30
0.0
  0
XRECORD
  5
D2D
102
{ACAD_REACTORS
330
D19
102
}
330
D19
100
AcDbXrecord
 10
0.0
 20
0.0
 30
0.0
  0
XRECORD
  5
D2E
102
{ACAD_REACTORS
330
D19
102
}
330
D19
100
AcDbXrecord
 10
0.0
 20
0.0
 30
0.0
  0
XRECORD
  5
D2B
102
{ACAD_REACTORS
330
D19
102
}
330
D19
100
AcDbXrecord
 10
0.0
 20
0.0
 30
0.0
  0
XRECORD
  5
D28
102
{ACAD_REACTORS
330
D19
102
}
330
D19
100
AcDbXrecord
340
0
  0
XRECORD
  5
D29
102
{ACAD_REACTORS
330
D19
102
}
330
D19
100
AcDbXrecord
 70
     0
  0
XRECORD
  5
D1D
102
{ACAD_REACTORS
330
D19
102
}
330
D19
100
AcDbXrecord
  1

  0
XRECORD
  5
D1A
102
{ACAD_REACTORS
330
D19
102
}
330
D19
100
AcDbXrecord
 90
        1
  0
XRECORD
  5
D1B
102
{ACAD_REACTORS
330
D19
102
}
330
D19
100
AcDbXrecord
 90
       70
  0
XRECORD
  5
D33
102
{ACAD_REACTORS
330
D19
102
}
330
D19
100
AcDbXrecord
340
0
  0
XRECORD
  5
D39
102
{ACAD_REACTORS
330
D19
102
}
330
D19
100
AcDbXrecord
 10
0.0
 20
0.0
 30
0.0
  0
XRECORD
  5
D35
102
{ACAD_REACTORS
330
D19
102
}
330
D19
100
AcDbXrecord
 10
0.0
 20
0.0
 30
0.0
  0
XRECORD
  5
D38
102
{ACAD_REACTORS
330
D19
102
}
330
D19
100
AcDbXrecord
 10
0.0
 20
0.0
 30
0.0
  0
XRECORD
  5
D36
102
{ACAD_REACTORS
330
D19
102
}
330
D19
100
AcDbXrecord
 10
0.0
 20
0.0
 30
0.0
  0
XRECORD
  5
D37
102
{ACAD_REACTORS
330
D19
102
}
330
D19
100
AcDbXrecord
 10
0.0
 20
0.0
 30
0.0
  0
XRECORD
  5
D34
102
{ACAD_REACTORS
330
D19
102
}
330
D19
100
AcDbXrecord
 10
0.0
 20
0.0
 30
0.0
  0
XRECORD
  5
D31
102
{ACAD_REACTORS
330
D19
102
}
330
D19
100
AcDbXrecord
340
0
  0
XRECORD
  5
D32
102
{ACAD_REACTORS
330
D19
102
}
330
D19
100
AcDbXrecord
 70
     0
  0
XRECORD
  5
D25
102
{ACAD_REACTORS
330
D19
102
}
330
D19
100
AcDbXrecord
  1
{C06C232B-E02E-491B-AED0-4D023A01D945}
  0
ENDSEC
  0
EOF
