  0
SECTION
  2
HEADER
  9
$ACADVER
  1
AC1012
  9
$DWGCODEPAGE
  3
ANSI_1252
  9
$INSBASE
 10
0.0
 20
0.0
 30
0.0
  9
$EXTMIN
 10
4.023327765262493
 20
4.948292267387319
 30
-0.0000000000112498
  9
$EXTMAX
 10
7.092077018168321
 20
8.927436661555738
 30
0.0000000000002956
  9
$LIMMIN
 10
0.0
 20
0.0
  9
$LIMMAX
 10
12.0
 20
9.0
  9
$ORTHOMODE
 70
     0
  9
$REGENMODE
 70
     1
  9
$FILLMODE
 70
     1
  9
$QTEXTMODE
 70
     0
  9
$MIRRTEXT
 70
     1
  9
$DRAGMODE
 70
     2
  9
$LTSCALE
 40
1.0
  9
$OSMODE
 70
    33
  9
$ATTMODE
 70
     1
  9
$TEXTSIZE
 40
0.2
  9
$TRACEWID
 40
0.05
  9
$TEXTSTYLE
  7
STANDARD
  9
$CLAYER
  8
0
  9
$CELTYPE
  6
BYLAYER
  9
$CECOLOR
 62
   256
  9
$CELTSCALE
 40
1.0
  9
$DELOBJ
 70
     1
  9
$DISPSILH
 70
     0
  9
$DIMSCALE
 40
1.0
  9
$DIMASZ
 40
0.18
  9
$DIMEXO
 40
0.0625
  9
$DIMDLI
 40
0.38
  9
$DIMRND
 40
0.0
  9
$DIMDLE
 40
0.0
  9
$DIMEXE
 40
0.18
  9
$DIMTP
 40
0.0
  9
$DIMTM
 40
0.0
  9
$DIMTXT
 40
0.18
  9
$DIMCEN
 40
0.09
  9
$DIMTSZ
 40
0.0
  9
$DIMTOL
 70
     0
  9
$DIMLIM
 70
     0
  9
$DIMTIH
 70
     1
  9
$DIMTOH
 70
     1
  9
$DIMSE1
 70
     0
  9
$DIMSE2
 70
     0
  9
$DIMTAD
 70
     0
  9
$DIMZIN
 70
     0
  9
$DIMBLK
  1

  9
$DIMASO
 70
     1
  9
$DIMSHO
 70
     1
  9
$DIMPOST
  1

  9
$DIMAPOST
  1

  9
$DIMALT
 70
     0
  9
$DIMALTD
 70
     2
  9
$DIMALTF
 40
25.4
  9
$DIMLFAC
 40
1.0
  9
$DIMTOFL
 70
     0
  9
$DIMTVP
 40
0.0
  9
$DIMTIX
 70
     0
  9
$DIMSOXD
 70
     0
  9
$DIMSAH
 70
     0
  9
$DIMBLK1
  1

  9
$DIMBLK2
  1

  9
$DIMSTYLE
  2
STANDARD
  9
$DIMCLRD
 70
     0
  9
$DIMCLRE
 70
     0
  9
$DIMCLRT
 70
     0
  9
$DIMTFAC
 40
1.0
  9
$DIMGAP
 40
0.09
  9
$DIMJUST
 70
     0
  9
$DIMSD1
 70
     0
  9
$DIMSD2
 70
     0
  9
$DIMTOLJ
 70
     1
  9
$DIMTZIN
 70
     0
  9
$DIMALTZ
 70
     0
  9
$DIMALTTZ
 70
     0
  9
$DIMFIT
 70
     5
  9
$DIMUPT
 70
     0
  9
$DIMUNIT
 70
     2
  9
$DIMDEC
 70
     4
  9
$DIMTDEC
 70
     4
  9
$DIMALTU
 70
     2
  9
$DIMALTTD
 70
     2
  9
$DIMTXSTY
  7
STANDARD
  9
$DIMAUNIT
 70
     0
  9
$LUNITS
 70
     2
  9
$LUPREC
 70
     4
  9
$SKETCHINC
 40
0.1
  9
$FILLETRAD
 40
0.0
  9
$AUNITS
 70
     0
  9
$AUPREC
 70
     0
  9
$MENU
  1
acad
  9
$ELEVATION
 40
0.0
  9
$PELEVATION
 40
0.0
  9
$THICKNESS
 40
0.0
  9
$LIMCHECK
 70
     0
  9
$BLIPMODE
 70
     0
  9
$CHAMFERA
 40
0.0
  9
$CHAMFERB
 40
0.0
  9
$CHAMFERC
 40
0.0
  9
$CHAMFERD
 40
0.0
  9
$SKPOLY
 70
     0
  9
$TDCREATE
 40
2451901.508958333
  9
$TDUPDATE
 40
2452338.429826620
  9
$TDINDWG
 40
0.0113603241
  9
$TDUSRTIMER
 40
0.0113603241
  9
$USRTIMER
 70
     1
  9
$ANGBASE
 50
0.0
  9
$ANGDIR
 70
     0
  9
$PDMODE
 70
     0
  9
$PDSIZE
 40
0.0
  9
$PLINEWID
 40
0.0
  9
$COORDS
 70
     2
  9
$SPLFRAME
 70
     0
  9
$SPLINETYPE
 70
     6
  9
$SPLINESEGS
 70
     8
  9
$ATTDIA
 70
     0
  9
$ATTREQ
 70
     1
  9
$HANDLING
 70
  4097
  9
$HANDSEED
  5
39CC
  9
$SURFTAB1
 70
     6
  9
$SURFTAB2
 70
     6
  9
$SURFTYPE
 70
     6
  9
$SURFU
 70
     6
  9
$SURFV
 70
     6
  9
$UCSNAME
  2

  9
$UCSORG
 10
0.0
 20
0.0
 30
0.0
  9
$UCSXDIR
 10
1.0
 20
0.0
 30
0.0
  9
$UCSYDIR
 10
0.0
 20
1.0
 30
0.0
  9
$PUCSNAME
  2

  9
$PUCSORG
 10
0.0
 20
0.0
 30
0.0
  9
$PUCSXDIR
 10
1.0
 20
0.0
 30
0.0
  9
$PUCSYDIR
 10
0.0
 20
1.0
 30
0.0
  9
$USERI1
 70
     0
  9
$USERI2
 70
     0
  9
$USERI3
 70
     0
  9
$USERI4
 70
     0
  9
$USERI5
 70
     0
  9
$USERR1
 40
0.0
  9
$USERR2
 40
0.0
  9
$USERR3
 40
0.0
  9
$USERR4
 40
0.0
  9
$USERR5
 40
0.0
  9
$WORLDVIEW
 70
     1
  9
$SHADEDGE
 70
     3
  9
$SHADEDIF
 70
    70
  9
$TILEMODE
 70
     1
  9
$MAXACTVP
 70
    16
  9
$PINSBASE
 10
0.0
 20
0.0
 30
0.0
  9
$PLIMCHECK
 70
     0
  9
$PEXTMIN
 10
1.000000000000000E+20
 20
1.000000000000000E+20
 30
1.000000000000000E+20
  9
$PEXTMAX
 10
-1.000000000000000E+20
 20
-1.000000000000000E+20
 30
-1.000000000000000E+20
  9
$PLIMMIN
 10
0.0
 20
0.0
  9
$PLIMMAX
 10
12.0
 20
9.0
  9
$UNITMODE
 70
     0
  9
$VISRETAIN
 70
     0
  9
$PLINEGEN
 70
     0
  9
$PSLTSCALE
 70
     1
  9
$TREEDEPTH
 70
  3020
  9
$PICKSTYLE
 70
     1
  9
$CMLSTYLE
  2
STANDARD
  9
$CMLJUST
 70
     0
  9
$CMLSCALE
 40
1.0
  9
$SAVEIMAGES
 70
     1
  0
ENDSEC
  0
SECTION
  2
CLASSES
  0
CLASS
  1
ACDBDICTIONARYWDFLT
  2
AcDbDictionaryWithDefault
  3
AutoCAD 2000
 90
    32768
280
     0
281
     0
  0
CLASS
  1
ACDBPLACEHOLDER
  2
AcDbPlaceHolder
  3
AutoCAD 2000
 90
    32768
280
     0
281
     0
  0
CLASS
  1
LAYOUT
  2
AcDbLayout
  3
AutoCAD 2000
 90
    32768
280
     0
281
     0
  0
CLASS
  1
LONG_TRANSACTION
  2
AcDbLongTransaction
  3
AutoCAD 2000
 90
    32768
280
     0
281
     0
  0
CLASS
  1
LWPOLYLINE
  2
AcDbPolyline
  3
AutoCAD 2000
 90
    32768
280
     0
281
     1
  0
CLASS
  1
HATCH
  2
AcDbHatch
  3
AutoCAD 2000
 90
    32768
280
     0
281
     1
  0
CLASS
  1
XRECORD
  2
AcDbXrecord
  3
AutoCAD 2000
 90
    32768
280
     0
281
     0
  0
CLASS
  1
LONG_TRANSACTION
  2
AcDbLongTransaction
  3
AutoCAD 2000
 90
    32768
280
     0
281
     0
  0
CLASS
  1
LWPOLYLINE
  2
AcDbPolyline
  3
AutoCAD 2000
 90
    32768
280
     0
281
     1
  0
CLASS
  1
HATCH
  2
AcDbHatch
  3
AutoCAD 2000
 90
    32768
280
     0
281
     1
  0
CLASS
  1
XRECORD
  2
AcDbXrecord
  3
AutoCAD 2000
 90
    32768
280
     0
281
     0
  0
ENDSEC
  0
SECTION
  2
TABLES
  0
TABLE
  2
VPORT
  5
8
330
0
100
AcDbSymbolTable
 70
     3
  0
VPORT
  5
39C9
330
8
100
AcDbSymbolTableRecord
100
AcDbViewportTableRecord
  2
*ACTIVE
 70
     0
 10
0.0
 20
0.0
 11
1.0
 21
1.0
 12
5.557702391715407
 22
6.937864464471529
 13
0.0
 23
0.0
 14
1.0
 24
1.0
 15
0.0
 25
0.0
 16
0.0
 26
0.0
 36
1.0
 17
0.0
 27
0.0
 37
0.0
 40
4.010150714122977
 41
1.637191157347204
 42
50.0
 43
0.0
 44
0.0
 50
0.0
 51
0.0
 71
     0
 72
   100
 73
     1
 74
     1
 75
     0
 76
     0
 77
     0
 78
     0
  0
ENDTAB
  0
TABLE
  2
LTYPE
  5
5
330
0
100
AcDbSymbolTable
 70
    25
  0
LTYPE
  5
13
330
5
100
AcDbSymbolTableRecord
100
AcDbLinetypeTableRecord
  2
BYBLOCK
 70
     0
  3

 72
    65
 73
     0
 40
0.0
  0
LTYPE
  5
14
330
5
100
AcDbSymbolTableRecord
100
AcDbLinetypeTableRecord
  2
BYLAYER
 70
     0
  3

 72
    65
 73
     0
 40
0.0
  0
LTYPE
  5
15
330
5
100
AcDbSymbolTableRecord
100
AcDbLinetypeTableRecord
  2
CONTINUOUS
 70
     0
  3
Solid line
 72
    65
 73
     0
 40
0.0
  0
LTYPE
  5
22
330
5
100
AcDbSymbolTableRecord
100
AcDbLinetypeTableRecord
  2
BORDER
 70
     0
  3
__ __ . __ __ . __ __ . __ __ . __ __ . __ __ .
 72
    65
 73
     6
 40
1.75
 49
0.5
 74
     0
 49
-0.25
 74
     0
 49
0.5
 74
     0
 49
-0.25
 74
     0
 49
0.5
 74
     0
 49
-0.25
 74
     0
  0
LTYPE
  5
23
330
5
100
AcDbSymbolTableRecord
100
AcDbLinetypeTableRecord
  2
BORDER2
 70
     0
  3
__.__.__.__.__.__.__.__.__.__.__.__.__.__.__.__
 72
    65
 73
     6
 40
0.875
 49
0.25
 74
     0
 49
-0.125
 74
     0
 49
0.25
 74
     0
 49
-0.125
 74
     0
 49
0.25
 74
     0
 49
-0.125
 74
     0
  0
LTYPE
  5
24
330
5
100
AcDbSymbolTableRecord
100
AcDbLinetypeTableRecord
  2
BORDERX2
 70
     0
  3
____  ____  .  ____  ____  .  
 72
    65
 73
     6
 40
3.5
 49
1.0
 74
     0
 49
-0.5
 74
     0
 49
1.0
 74
     0
 49
-0.5
 74
     0
 49
1.0
 74
     0
 49
-0.5
 74
     0
  0
LTYPE
  5
25
330
5
100
AcDbSymbolTableRecord
100
AcDbLinetypeTableRecord
  2
CENTER
 70
     0
  3
____ _ ____ _ ____ _ ____ _ ____ _ ____ _ ____
 72
    65
 73
     4
 40
2.0
 49
1.25
 74
     0
 49
-0.25
 74
     0
 49
0.25
 74
     0
 49
-0.25
 74
     0
  0
LTYPE
  5
26
330
5
100
AcDbSymbolTableRecord
100
AcDbLinetypeTableRecord
  2
CENTER2
 70
     0
  3
____ _ ____ _ ____ _ ____ _ ____ _ ____ _ ____
 72
    65
 73
     4
 40
1.125
 49
0.75
 74
     0
 49
-0.125
 74
     0
 49
0.125
 74
     0
 49
-0.125
 74
     0
  0
LTYPE
  5
27
330
5
100
AcDbSymbolTableRecord
100
AcDbLinetypeTableRecord
  2
CENTERX2
 70
     0
  3
________  __  ________  __  ________  __  
 72
    65
 73
     4
 40
4.0
 49
2.5
 74
     0
 49
-0.5
 74
     0
 49
0.5
 74
     0
 49
-0.5
 74
     0
  0
LTYPE
  5
28
330
5
100
AcDbSymbolTableRecord
100
AcDbLinetypeTableRecord
  2
DASHDOT
 70
     0
  3
__ . __ . __ . __ . __ . __ . __ . 
 72
    65
 73
     4
 40
1.0
 49
0.5
 74
     0
 49
-0.25
 74
     0
 49
0.0
 74
     0
 49
-0.25
 74
     0
  0
LTYPE
  5
29
330
5
100
AcDbSymbolTableRecord
100
AcDbLinetypeTableRecord
  2
DASHDOT2
 70
     0
  3
_._._._._._._._._._._._._._._._.
 72
    65
 73
     4
 40
0.5
 49
0.25
 74
     0
 49
-0.125
 74
     0
 49
0.0
 74
     0
 49
-0.125
 74
     0
  0
LTYPE
  5
2A
330
5
100
AcDbSymbolTableRecord
100
AcDbLinetypeTableRecord
  2
DASHDOTX2
 70
     0
  3
____  .  ____  .  ____  .  ____  .  
 72
    65
 73
     4
 40
2.0
 49
1.0
 74
     0
 49
-0.5
 74
     0
 49
0.0
 74
     0
 49
-0.5
 74
     0
  0
LTYPE
  5
2B
330
5
100
AcDbSymbolTableRecord
100
AcDbLinetypeTableRecord
  2
DASHED
 70
     0
  3
__ __ __ __ __ __ __ __ __ __ __ __ 
 72
    65
 73
     2
 40
0.75
 49
0.5
 74
     0
 49
-0.25
 74
     0
  0
LTYPE
  5
2C
330
5
100
AcDbSymbolTableRecord
100
AcDbLinetypeTableRecord
  2
DASHED2
 70
     0
  3
_ _ _ _ _ _ _ _ _ _ _ _ _ _ _ _ _ _ 
 72
    65
 73
     2
 40
0.375
 49
0.25
 74
     0
 49
-0.125
 74
     0
  0
LTYPE
  5
2D
330
5
100
AcDbSymbolTableRecord
100
AcDbLinetypeTableRecord
  2
DASHEDX2
 70
     0
  3
____  ____  ____  ____  ____  ____  
 72
    65
 73
     2
 40
1.5
 49
1.0
 74
     0
 49
-0.5
 74
     0
  0
LTYPE
  5
2E
330
5
100
AcDbSymbolTableRecord
100
AcDbLinetypeTableRecord
  2
DIVIDE
 70
     0
  3
____ . . ____ . . ____ . . ____ . . 
 72
    65
 73
     6
 40
1.25
 49
0.5
 74
     0
 49
-0.25
 74
     0
 49
0.0
 74
     0
 49
-0.25
 74
     0
 49
0.0
 74
     0
 49
-0.25
 74
     0
  0
LTYPE
  5
2F
330
5
100
AcDbSymbolTableRecord
100
AcDbLinetypeTableRecord
  2
DIVIDE2
 70
     0
  3
__..__..__..__..__..__..__..__..__..
 72
    65
 73
     6
 40
0.625
 49
0.25
 74
     0
 49
-0.125
 74
     0
 49
0.0
 74
     0
 49
-0.125
 74
     0
 49
0.0
 74
     0
 49
-0.125
 74
     0
  0
LTYPE
  5
30
330
5
100
AcDbSymbolTableRecord
100
AcDbLinetypeTableRecord
  2
DIVIDEX2
 70
     0
  3
________  .  .  ________  .  .  ________  .  . 
 72
    65
 73
     6
 40
2.5
 49
1.0
 74
     0
 49
-0.5
 74
     0
 49
0.0
 74
     0
 49
-0.5
 74
     0
 49
0.0
 74
     0
 49
-0.5
 74
     0
  0
LTYPE
  5
31
330
5
100
AcDbSymbolTableRecord
100
AcDbLinetypeTableRecord
  2
DOT
 70
     0
  3
. . . . . . . . . . . . . . . . . . 
 72
    65
 73
     2
 40
0.25
 49
0.0
 74
     0
 49
-0.25
 74
     0
  0
LTYPE
  5
32
330
5
100
AcDbSymbolTableRecord
100
AcDbLinetypeTableRecord
  2
DOT2
 70
     0
  3
....................................
 72
    65
 73
     2
 40
0.125
 49
0.0
 74
     0
 49
-0.125
 74
     0
  0
LTYPE
  5
33
330
5
100
AcDbSymbolTableRecord
100
AcDbLinetypeTableRecord
  2
DOTX2
 70
     0
  3
.  .  .  .  .  .  .  .  .  .  .  .  .  
 72
    65
 73
     2
 40
0.5
 49
0.0
 74
     0
 49
-0.5
 74
     0
  0
LTYPE
  5
34
330
5
100
AcDbSymbolTableRecord
100
AcDbLinetypeTableRecord
  2
HIDDEN
 70
     0
  3
__ __ __ __ __ __ __ __ __ __ __ __ 
 72
    65
 73
     2
 40
0.375
 49
0.25
 74
     0
 49
-0.125
 74
     0
  0
LTYPE
  5
35
330
5
100
AcDbSymbolTableRecord
100
AcDbLinetypeTableRecord
  2
HIDDEN2
 70
     0
  3
_ _ _ _ _ _ _ _ _ _ _ _ _ _ _ _ _ _ 
 72
    65
 73
     2
 40
0.1875
 49
0.125
 74
     0
 49
-0.0625
 74
     0
  0
LTYPE
  5
36
330
5
100
AcDbSymbolTableRecord
100
AcDbLinetypeTableRecord
  2
HIDDENX2
 70
     0
  3
____ ____ ____ ____ ____ ____ ____ 
 72
    65
 73
     2
 40
0.75
 49
0.5
 74
     0
 49
-0.25
 74
     0
  0
LTYPE
  5
37
330
5
100
AcDbSymbolTableRecord
100
AcDbLinetypeTableRecord
  2
PHANTOM
 70
     0
  3
______  __  __  ______  __  __  
 72
    65
 73
     6
 40
2.5
 49
1.25
 74
     0
 49
-0.25
 74
     0
 49
0.25
 74
     0
 49
-0.25
 74
     0
 49
0.25
 74
     0
 49
-0.25
 74
     0
  0
LTYPE
  5
38
330
5
100
AcDbSymbolTableRecord
100
AcDbLinetypeTableRecord
  2
PHANTOM2
 70
     0
  3
___ _ _ ___ _ _ ___ _ _ ___ _ _ 
 72
    65
 73
     6
 40
1.25
 49
0.625
 74
     0
 49
-0.125
 74
     0
 49
0.125
 74
     0
 49
-0.125
 74
     0
 49
0.125
 74
     0
 49
-0.125
 74
     0
  0
LTYPE
  5
39
330
5
100
AcDbSymbolTableRecord
100
AcDbLinetypeTableRecord
  2
PHANTOMX2
 70
     0
  3
___ _ _ ___ _ _ ___ _ _ ___ _ _ 
 72
    65
 73
     6
 40
5.0
 49
2.5
 74
     0
 49
-0.5
 74
     0
 49
0.5
 74
     0
 49
-0.5
 74
     0
 49
0.5
 74
     0
 49
-0.5
 74
     0
  0
ENDTAB
  0
TABLE
  2
LAYER
  5
2
330
0
100
AcDbSymbolTable
 70
   257
  0
LAYER
  5
10
330
2
100
AcDbSymbolTableRecord
100
AcDbLayerTableRecord
  2
0
 70
     0
 62
     7
  6
CONTINUOUS
  0
LAYER
  5
3A
330
2
100
AcDbSymbolTableRecord
100
AcDbLayerTableRecord
  2
1
 70
     0
 62
     1
  6
CONTINUOUS
  0
LAYER
  5
3B
330
2
100
AcDbSymbolTableRecord
100
AcDbLayerTableRecord
  2
2
 70
     0
 62
     2
  6
CONTINUOUS
  0
LAYER
  5
3C
330
2
100
AcDbSymbolTableRecord
100
AcDbLayerTableRecord
  2
3
 70
     0
 62
     3
  6
CONTINUOUS
  0
LAYER
  5
3D
330
2
100
AcDbSymbolTableRecord
100
AcDbLayerTableRecord
  2
4
 70
     0
 62
     4
  6
CONTINUOUS
  0
LAYER
  5
3E
330
2
100
AcDbSymbolTableRecord
100
AcDbLayerTableRecord
  2
5
 70
     0
 62
     5
  6
CONTINUOUS
  0
LAYER
  5
3F
330
2
100
AcDbSymbolTableRecord
100
AcDbLayerTableRecord
  2
6
 70
     0
 62
     6
  6
CONTINUOUS
  0
LAYER
  5
40
330
2
100
AcDbSymbolTableRecord
100
AcDbLayerTableRecord
  2
7
 70
     0
 62
     7
  6
CONTINUOUS
  0
LAYER
  5
41
330
2
100
AcDbSymbolTableRecord
100
AcDbLayerTableRecord
  2
8
 70
     0
 62
     8
  6
CONTINUOUS
  0
LAYER
  5
42
330
2
100
AcDbSymbolTableRecord
100
AcDbLayerTableRecord
  2
9
 70
     0
 62
     9
  6
CONTINUOUS
  0
LAYER
  5
43
330
2
100
AcDbSymbolTableRecord
100
AcDbLayerTableRecord
  2
10
 70
     0
 62
    10
  6
CONTINUOUS
  0
LAYER
  5
44
330
2
100
AcDbSymbolTableRecord
100
AcDbLayerTableRecord
  2
11
 70
     0
 62
    11
  6
CONTINUOUS
  0
LAYER
  5
45
330
2
100
AcDbSymbolTableRecord
100
AcDbLayerTableRecord
  2
12
 70
     0
 62
    12
  6
CONTINUOUS
  0
LAYER
  5
46
330
2
100
AcDbSymbolTableRecord
100
AcDbLayerTableRecord
  2
13
 70
     0
 62
    13
  6
CONTINUOUS
  0
LAYER
  5
47
330
2
100
AcDbSymbolTableRecord
100
AcDbLayerTableRecord
  2
14
 70
     0
 62
    14
  6
CONTINUOUS
  0
LAYER
  5
48
330
2
100
AcDbSymbolTableRecord
100
AcDbLayerTableRecord
  2
15
 70
     0
 62
    15
  6
CONTINUOUS
  0
LAYER
  5
49
330
2
100
AcDbSymbolTableRecord
100
AcDbLayerTableRecord
  2
16
 70
     0
 62
    16
  6
CONTINUOUS
  0
LAYER
  5
4A
330
2
100
AcDbSymbolTableRecord
100
AcDbLayerTableRecord
  2
17
 70
     0
 62
    17
  6
CONTINUOUS
  0
LAYER
  5
4B
330
2
100
AcDbSymbolTableRecord
100
AcDbLayerTableRecord
  2
18
 70
     0
 62
    18
  6
CONTINUOUS
  0
LAYER
  5
4C
330
2
100
AcDbSymbolTableRecord
100
AcDbLayerTableRecord
  2
19
 70
     0
 62
    19
  6
CONTINUOUS
  0
LAYER
  5
4D
330
2
100
AcDbSymbolTableRecord
100
AcDbLayerTableRecord
  2
20
 70
     0
 62
    20
  6
CONTINUOUS
  0
LAYER
  5
4E
330
2
100
AcDbSymbolTableRecord
100
AcDbLayerTableRecord
  2
21
 70
     0
 62
    21
  6
CONTINUOUS
  0
LAYER
  5
4F
330
2
100
AcDbSymbolTableRecord
100
AcDbLayerTableRecord
  2
22
 70
     0
 62
    22
  6
CONTINUOUS
  0
LAYER
  5
50
330
2
100
AcDbSymbolTableRecord
100
AcDbLayerTableRecord
  2
23
 70
     0
 62
    23
  6
CONTINUOUS
  0
LAYER
  5
51
330
2
100
AcDbSymbolTableRecord
100
AcDbLayerTableRecord
  2
24
 70
     0
 62
    24
  6
CONTINUOUS
  0
LAYER
  5
52
330
2
100
AcDbSymbolTableRecord
100
AcDbLayerTableRecord
  2
25
 70
     0
 62
    25
  6
CONTINUOUS
  0
LAYER
  5
53
330
2
100
AcDbSymbolTableRecord
100
AcDbLayerTableRecord
  2
26
 70
     0
 62
    26
  6
CONTINUOUS
  0
LAYER
  5
54
330
2
100
AcDbSymbolTableRecord
100
AcDbLayerTableRecord
  2
27
 70
     0
 62
    27
  6
CONTINUOUS
  0
LAYER
  5
55
330
2
100
AcDbSymbolTableRecord
100
AcDbLayerTableRecord
  2
28
 70
     0
 62
    28
  6
CONTINUOUS
  0
LAYER
  5
56
330
2
100
AcDbSymbolTableRecord
100
AcDbLayerTableRecord
  2
29
 70
     0
 62
    29
  6
CONTINUOUS
  0
LAYER
  5
57
330
2
100
AcDbSymbolTableRecord
100
AcDbLayerTableRecord
  2
30
 70
     0
 62
    30
  6
CONTINUOUS
  0
LAYER
  5
58
330
2
100
AcDbSymbolTableRecord
100
AcDbLayerTableRecord
  2
31
 70
     0
 62
    31
  6
CONTINUOUS
  0
LAYER
  5
59
330
2
100
AcDbSymbolTableRecord
100
AcDbLayerTableRecord
  2
32
 70
     0
 62
    32
  6
CONTINUOUS
  0
LAYER
  5
5A
330
2
100
AcDbSymbolTableRecord
100
AcDbLayerTableRecord
  2
33
 70
     0
 62
    33
  6
CONTINUOUS
  0
LAYER
  5
5B
330
2
100
AcDbSymbolTableRecord
100
AcDbLayerTableRecord
  2
34
 70
     0
 62
    34
  6
CONTINUOUS
  0
LAYER
  5
5C
330
2
100
AcDbSymbolTableRecord
100
AcDbLayerTableRecord
  2
35
 70
     0
 62
    35
  6
CONTINUOUS
  0
LAYER
  5
5D
330
2
100
AcDbSymbolTableRecord
100
AcDbLayerTableRecord
  2
36
 70
     0
 62
    36
  6
CONTINUOUS
  0
LAYER
  5
5E
330
2
100
AcDbSymbolTableRecord
100
AcDbLayerTableRecord
  2
37
 70
     0
 62
    37
  6
CONTINUOUS
  0
LAYER
  5
5F
330
2
100
AcDbSymbolTableRecord
100
AcDbLayerTableRecord
  2
38
 70
     0
 62
    38
  6
CONTINUOUS
  0
LAYER
  5
60
330
2
100
AcDbSymbolTableRecord
100
AcDbLayerTableRecord
  2
39
 70
     0
 62
    39
  6
CONTINUOUS
  0
LAYER
  5
61
330
2
100
AcDbSymbolTableRecord
100
AcDbLayerTableRecord
  2
40
 70
     0
 62
    40
  6
CONTINUOUS
  0
LAYER
  5
62
330
2
100
AcDbSymbolTableRecord
100
AcDbLayerTableRecord
  2
41
 70
     0
 62
    41
  6
CONTINUOUS
  0
LAYER
  5
63
330
2
100
AcDbSymbolTableRecord
100
AcDbLayerTableRecord
  2
42
 70
     0
 62
    42
  6
CONTINUOUS
  0
LAYER
  5
64
330
2
100
AcDbSymbolTableRecord
100
AcDbLayerTableRecord
  2
43
 70
     0
 62
    43
  6
CONTINUOUS
  0
LAYER
  5
65
330
2
100
AcDbSymbolTableRecord
100
AcDbLayerTableRecord
  2
44
 70
     0
 62
    44
  6
CONTINUOUS
  0
LAYER
  5
66
330
2
100
AcDbSymbolTableRecord
100
AcDbLayerTableRecord
  2
45
 70
     0
 62
    45
  6
CONTINUOUS
  0
LAYER
  5
67
330
2
100
AcDbSymbolTableRecord
100
AcDbLayerTableRecord
  2
46
 70
     0
 62
    46
  6
CONTINUOUS
  0
LAYER
  5
68
330
2
100
AcDbSymbolTableRecord
100
AcDbLayerTableRecord
  2
47
 70
     0
 62
    47
  6
CONTINUOUS
  0
LAYER
  5
69
330
2
100
AcDbSymbolTableRecord
100
AcDbLayerTableRecord
  2
48
 70
     0
 62
    48
  6
CONTINUOUS
  0
LAYER
  5
6A
330
2
100
AcDbSymbolTableRecord
100
AcDbLayerTableRecord
  2
49
 70
     0
 62
    49
  6
CONTINUOUS
  0
LAYER
  5
6B
330
2
100
AcDbSymbolTableRecord
100
AcDbLayerTableRecord
  2
50
 70
     0
 62
    50
  6
CONTINUOUS
  0
LAYER
  5
6C
330
2
100
AcDbSymbolTableRecord
100
AcDbLayerTableRecord
  2
51
 70
     0
 62
    51
  6
CONTINUOUS
  0
LAYER
  5
6D
330
2
100
AcDbSymbolTableRecord
100
AcDbLayerTableRecord
  2
52
 70
     0
 62
    52
  6
CONTINUOUS
  0
LAYER
  5
6E
330
2
100
AcDbSymbolTableRecord
100
AcDbLayerTableRecord
  2
53
 70
     0
 62
    53
  6
CONTINUOUS
  0
LAYER
  5
6F
330
2
100
AcDbSymbolTableRecord
100
AcDbLayerTableRecord
  2
54
 70
     0
 62
    54
  6
CONTINUOUS
  0
LAYER
  5
70
330
2
100
AcDbSymbolTableRecord
100
AcDbLayerTableRecord
  2
55
 70
     0
 62
    55
  6
CONTINUOUS
  0
LAYER
  5
71
330
2
100
AcDbSymbolTableRecord
100
AcDbLayerTableRecord
  2
56
 70
     0
 62
    56
  6
CONTINUOUS
  0
LAYER
  5
72
330
2
100
AcDbSymbolTableRecord
100
AcDbLayerTableRecord
  2
57
 70
     0
 62
    57
  6
CONTINUOUS
  0
LAYER
  5
73
330
2
100
AcDbSymbolTableRecord
100
AcDbLayerTableRecord
  2
58
 70
     0
 62
    58
  6
CONTINUOUS
  0
LAYER
  5
74
330
2
100
AcDbSymbolTableRecord
100
AcDbLayerTableRecord
  2
59
 70
     0
 62
    59
  6
CONTINUOUS
  0
LAYER
  5
75
330
2
100
AcDbSymbolTableRecord
100
AcDbLayerTableRecord
  2
60
 70
     0
 62
    60
  6
CONTINUOUS
  0
LAYER
  5
76
330
2
100
AcDbSymbolTableRecord
100
AcDbLayerTableRecord
  2
61
 70
     0
 62
    61
  6
CONTINUOUS
  0
LAYER
  5
77
330
2
100
AcDbSymbolTableRecord
100
AcDbLayerTableRecord
  2
62
 70
     0
 62
    62
  6
CONTINUOUS
  0
LAYER
  5
78
330
2
100
AcDbSymbolTableRecord
100
AcDbLayerTableRecord
  2
63
 70
     0
 62
    63
  6
CONTINUOUS
  0
LAYER
  5
79
330
2
100
AcDbSymbolTableRecord
100
AcDbLayerTableRecord
  2
64
 70
     0
 62
    64
  6
CONTINUOUS
  0
LAYER
  5
7A
330
2
100
AcDbSymbolTableRecord
100
AcDbLayerTableRecord
  2
65
 70
     0
 62
    65
  6
CONTINUOUS
  0
LAYER
  5
7B
330
2
100
AcDbSymbolTableRecord
100
AcDbLayerTableRecord
  2
66
 70
     0
 62
    66
  6
CONTINUOUS
  0
LAYER
  5
7C
330
2
100
AcDbSymbolTableRecord
100
AcDbLayerTableRecord
  2
67
 70
     0
 62
    67
  6
CONTINUOUS
  0
LAYER
  5
7D
330
2
100
AcDbSymbolTableRecord
100
AcDbLayerTableRecord
  2
68
 70
     0
 62
    68
  6
CONTINUOUS
  0
LAYER
  5
7E
330
2
100
AcDbSymbolTableRecord
100
AcDbLayerTableRecord
  2
69
 70
     0
 62
    69
  6
CONTINUOUS
  0
LAYER
  5
7F
330
2
100
AcDbSymbolTableRecord
100
AcDbLayerTableRecord
  2
70
 70
     0
 62
    70
  6
CONTINUOUS
  0
LAYER
  5
80
330
2
100
AcDbSymbolTableRecord
100
AcDbLayerTableRecord
  2
71
 70
     0
 62
    71
  6
CONTINUOUS
  0
LAYER
  5
81
330
2
100
AcDbSymbolTableRecord
100
AcDbLayerTableRecord
  2
72
 70
     0
 62
    72
  6
CONTINUOUS
  0
LAYER
  5
82
330
2
100
AcDbSymbolTableRecord
100
AcDbLayerTableRecord
  2
73
 70
     0
 62
    73
  6
CONTINUOUS
  0
LAYER
  5
83
330
2
100
AcDbSymbolTableRecord
100
AcDbLayerTableRecord
  2
74
 70
     0
 62
    74
  6
CONTINUOUS
  0
LAYER
  5
84
330
2
100
AcDbSymbolTableRecord
100
AcDbLayerTableRecord
  2
75
 70
     0
 62
    75
  6
CONTINUOUS
  0
LAYER
  5
85
330
2
100
AcDbSymbolTableRecord
100
AcDbLayerTableRecord
  2
76
 70
     0
 62
    76
  6
CONTINUOUS
  0
LAYER
  5
86
330
2
100
AcDbSymbolTableRecord
100
AcDbLayerTableRecord
  2
77
 70
     0
 62
    77
  6
CONTINUOUS
  0
LAYER
  5
87
330
2
100
AcDbSymbolTableRecord
100
AcDbLayerTableRecord
  2
78
 70
     0
 62
    78
  6
CONTINUOUS
  0
LAYER
  5
88
330
2
100
AcDbSymbolTableRecord
100
AcDbLayerTableRecord
  2
79
 70
     0
 62
    79
  6
CONTINUOUS
  0
LAYER
  5
89
330
2
100
AcDbSymbolTableRecord
100
AcDbLayerTableRecord
  2
80
 70
     0
 62
    80
  6
CONTINUOUS
  0
LAYER
  5
8A
330
2
100
AcDbSymbolTableRecord
100
AcDbLayerTableRecord
  2
81
 70
     0
 62
    81
  6
CONTINUOUS
  0
LAYER
  5
8B
330
2
100
AcDbSymbolTableRecord
100
AcDbLayerTableRecord
  2
82
 70
     0
 62
    82
  6
CONTINUOUS
  0
LAYER
  5
8C
330
2
100
AcDbSymbolTableRecord
100
AcDbLayerTableRecord
  2
83
 70
     0
 62
    83
  6
CONTINUOUS
  0
LAYER
  5
8D
330
2
100
AcDbSymbolTableRecord
100
AcDbLayerTableRecord
  2
84
 70
     0
 62
    84
  6
CONTINUOUS
  0
LAYER
  5
8E
330
2
100
AcDbSymbolTableRecord
100
AcDbLayerTableRecord
  2
85
 70
     0
 62
    85
  6
CONTINUOUS
  0
LAYER
  5
8F
330
2
100
AcDbSymbolTableRecord
100
AcDbLayerTableRecord
  2
86
 70
     0
 62
    86
  6
CONTINUOUS
  0
LAYER
  5
90
330
2
100
AcDbSymbolTableRecord
100
AcDbLayerTableRecord
  2
87
 70
     0
 62
    87
  6
CONTINUOUS
  0
LAYER
  5
91
330
2
100
AcDbSymbolTableRecord
100
AcDbLayerTableRecord
  2
88
 70
     0
 62
    88
  6
CONTINUOUS
  0
LAYER
  5
92
330
2
100
AcDbSymbolTableRecord
100
AcDbLayerTableRecord
  2
89
 70
     0
 62
    89
  6
CONTINUOUS
  0
LAYER
  5
93
330
2
100
AcDbSymbolTableRecord
100
AcDbLayerTableRecord
  2
90
 70
     0
 62
    90
  6
CONTINUOUS
  0
LAYER
  5
94
330
2
100
AcDbSymbolTableRecord
100
AcDbLayerTableRecord
  2
91
 70
     0
 62
    91
  6
CONTINUOUS
  0
LAYER
  5
95
330
2
100
AcDbSymbolTableRecord
100
AcDbLayerTableRecord
  2
92
 70
     0
 62
    92
  6
CONTINUOUS
  0
LAYER
  5
96
330
2
100
AcDbSymbolTableRecord
100
AcDbLayerTableRecord
  2
93
 70
     0
 62
    93
  6
CONTINUOUS
  0
LAYER
  5
97
330
2
100
AcDbSymbolTableRecord
100
AcDbLayerTableRecord
  2
94
 70
     0
 62
    94
  6
CONTINUOUS
  0
LAYER
  5
98
330
2
100
AcDbSymbolTableRecord
100
AcDbLayerTableRecord
  2
95
 70
     0
 62
    95
  6
CONTINUOUS
  0
LAYER
  5
99
330
2
100
AcDbSymbolTableRecord
100
AcDbLayerTableRecord
  2
96
 70
     0
 62
    96
  6
CONTINUOUS
  0
LAYER
  5
9A
330
2
100
AcDbSymbolTableRecord
100
AcDbLayerTableRecord
  2
97
 70
     0
 62
    97
  6
CONTINUOUS
  0
LAYER
  5
9B
330
2
100
AcDbSymbolTableRecord
100
AcDbLayerTableRecord
  2
98
 70
     0
 62
    98
  6
CONTINUOUS
  0
LAYER
  5
9C
330
2
100
AcDbSymbolTableRecord
100
AcDbLayerTableRecord
  2
99
 70
     0
 62
    99
  6
CONTINUOUS
  0
LAYER
  5
9D
330
2
100
AcDbSymbolTableRecord
100
AcDbLayerTableRecord
  2
100
 70
     0
 62
   100
  6
CONTINUOUS
  0
LAYER
  5
9E
330
2
100
AcDbSymbolTableRecord
100
AcDbLayerTableRecord
  2
101
 70
     0
 62
   101
  6
CONTINUOUS
  0
LAYER
  5
9F
330
2
100
AcDbSymbolTableRecord
100
AcDbLayerTableRecord
  2
102
 70
     0
 62
   102
  6
CONTINUOUS
  0
LAYER
  5
A0
330
2
100
AcDbSymbolTableRecord
100
AcDbLayerTableRecord
  2
103
 70
     0
 62
   103
  6
CONTINUOUS
  0
LAYER
  5
A1
330
2
100
AcDbSymbolTableRecord
100
AcDbLayerTableRecord
  2
104
 70
     0
 62
   104
  6
CONTINUOUS
  0
LAYER
  5
A2
330
2
100
AcDbSymbolTableRecord
100
AcDbLayerTableRecord
  2
105
 70
     0
 62
   105
  6
CONTINUOUS
  0
LAYER
  5
A3
330
2
100
AcDbSymbolTableRecord
100
AcDbLayerTableRecord
  2
106
 70
     0
 62
   106
  6
CONTINUOUS
  0
LAYER
  5
A4
330
2
100
AcDbSymbolTableRecord
100
AcDbLayerTableRecord
  2
107
 70
     0
 62
   107
  6
CONTINUOUS
  0
LAYER
  5
A5
330
2
100
AcDbSymbolTableRecord
100
AcDbLayerTableRecord
  2
108
 70
     0
 62
   108
  6
CONTINUOUS
  0
LAYER
  5
A6
330
2
100
AcDbSymbolTableRecord
100
AcDbLayerTableRecord
  2
109
 70
     0
 62
   109
  6
CONTINUOUS
  0
LAYER
  5
A7
330
2
100
AcDbSymbolTableRecord
100
AcDbLayerTableRecord
  2
110
 70
     0
 62
   110
  6
CONTINUOUS
  0
LAYER
  5
A8
330
2
100
AcDbSymbolTableRecord
100
AcDbLayerTableRecord
  2
111
 70
     0
 62
   111
  6
CONTINUOUS
  0
LAYER
  5
A9
330
2
100
AcDbSymbolTableRecord
100
AcDbLayerTableRecord
  2
112
 70
     0
 62
   112
  6
CONTINUOUS
  0
LAYER
  5
AA
330
2
100
AcDbSymbolTableRecord
100
AcDbLayerTableRecord
  2
113
 70
     0
 62
   113
  6
CONTINUOUS
  0
LAYER
  5
AB
330
2
100
AcDbSymbolTableRecord
100
AcDbLayerTableRecord
  2
114
 70
     0
 62
   114
  6
CONTINUOUS
  0
LAYER
  5
AC
330
2
100
AcDbSymbolTableRecord
100
AcDbLayerTableRecord
  2
115
 70
     0
 62
   115
  6
CONTINUOUS
  0
LAYER
  5
AD
330
2
100
AcDbSymbolTableRecord
100
AcDbLayerTableRecord
  2
116
 70
     0
 62
   116
  6
CONTINUOUS
  0
LAYER
  5
AE
330
2
100
AcDbSymbolTableRecord
100
AcDbLayerTableRecord
  2
117
 70
     0
 62
   117
  6
CONTINUOUS
  0
LAYER
  5
AF
330
2
100
AcDbSymbolTableRecord
100
AcDbLayerTableRecord
  2
118
 70
     0
 62
   118
  6
CONTINUOUS
  0
LAYER
  5
B0
330
2
100
AcDbSymbolTableRecord
100
AcDbLayerTableRecord
  2
119
 70
     0
 62
   119
  6
CONTINUOUS
  0
LAYER
  5
B1
330
2
100
AcDbSymbolTableRecord
100
AcDbLayerTableRecord
  2
120
 70
     0
 62
   120
  6
CONTINUOUS
  0
LAYER
  5
B2
330
2
100
AcDbSymbolTableRecord
100
AcDbLayerTableRecord
  2
121
 70
     0
 62
   121
  6
CONTINUOUS
  0
LAYER
  5
B3
330
2
100
AcDbSymbolTableRecord
100
AcDbLayerTableRecord
  2
122
 70
     0
 62
   122
  6
CONTINUOUS
  0
LAYER
  5
B4
330
2
100
AcDbSymbolTableRecord
100
AcDbLayerTableRecord
  2
123
 70
     0
 62
   123
  6
CONTINUOUS
  0
LAYER
  5
B5
330
2
100
AcDbSymbolTableRecord
100
AcDbLayerTableRecord
  2
124
 70
     0
 62
   124
  6
CONTINUOUS
  0
LAYER
  5
B6
330
2
100
AcDbSymbolTableRecord
100
AcDbLayerTableRecord
  2
125
 70
     0
 62
   125
  6
CONTINUOUS
  0
LAYER
  5
B7
330
2
100
AcDbSymbolTableRecord
100
AcDbLayerTableRecord
  2
126
 70
     0
 62
   126
  6
CONTINUOUS
  0
LAYER
  5
B8
330
2
100
AcDbSymbolTableRecord
100
AcDbLayerTableRecord
  2
127
 70
     0
 62
   127
  6
CONTINUOUS
  0
LAYER
  5
B9
330
2
100
AcDbSymbolTableRecord
100
AcDbLayerTableRecord
  2
128
 70
     0
 62
   128
  6
CONTINUOUS
  0
LAYER
  5
BA
330
2
100
AcDbSymbolTableRecord
100
AcDbLayerTableRecord
  2
129
 70
     0
 62
   129
  6
CONTINUOUS
  0
LAYER
  5
BB
330
2
100
AcDbSymbolTableRecord
100
AcDbLayerTableRecord
  2
130
 70
     0
 62
   130
  6
CONTINUOUS
  0
LAYER
  5
BC
330
2
100
AcDbSymbolTableRecord
100
AcDbLayerTableRecord
  2
131
 70
     0
 62
   131
  6
CONTINUOUS
  0
LAYER
  5
BD
330
2
100
AcDbSymbolTableRecord
100
AcDbLayerTableRecord
  2
132
 70
     0
 62
   132
  6
CONTINUOUS
  0
LAYER
  5
BE
330
2
100
AcDbSymbolTableRecord
100
AcDbLayerTableRecord
  2
133
 70
     0
 62
   133
  6
CONTINUOUS
  0
LAYER
  5
BF
330
2
100
AcDbSymbolTableRecord
100
AcDbLayerTableRecord
  2
134
 70
     0
 62
   134
  6
CONTINUOUS
  0
LAYER
  5
C0
330
2
100
AcDbSymbolTableRecord
100
AcDbLayerTableRecord
  2
135
 70
     0
 62
   135
  6
CONTINUOUS
  0
LAYER
  5
C1
330
2
100
AcDbSymbolTableRecord
100
AcDbLayerTableRecord
  2
136
 70
     0
 62
   136
  6
CONTINUOUS
  0
LAYER
  5
C2
330
2
100
AcDbSymbolTableRecord
100
AcDbLayerTableRecord
  2
137
 70
     0
 62
   137
  6
CONTINUOUS
  0
LAYER
  5
C3
330
2
100
AcDbSymbolTableRecord
100
AcDbLayerTableRecord
  2
138
 70
     0
 62
   138
  6
CONTINUOUS
  0
LAYER
  5
C4
330
2
100
AcDbSymbolTableRecord
100
AcDbLayerTableRecord
  2
139
 70
     0
 62
   139
  6
CONTINUOUS
  0
LAYER
  5
C5
330
2
100
AcDbSymbolTableRecord
100
AcDbLayerTableRecord
  2
140
 70
     0
 62
   140
  6
CONTINUOUS
  0
LAYER
  5
C6
330
2
100
AcDbSymbolTableRecord
100
AcDbLayerTableRecord
  2
141
 70
     0
 62
   141
  6
CONTINUOUS
  0
LAYER
  5
C7
330
2
100
AcDbSymbolTableRecord
100
AcDbLayerTableRecord
  2
142
 70
     0
 62
   142
  6
CONTINUOUS
  0
LAYER
  5
C8
330
2
100
AcDbSymbolTableRecord
100
AcDbLayerTableRecord
  2
143
 70
     0
 62
   143
  6
CONTINUOUS
  0
LAYER
  5
C9
330
2
100
AcDbSymbolTableRecord
100
AcDbLayerTableRecord
  2
144
 70
     0
 62
   144
  6
CONTINUOUS
  0
LAYER
  5
CA
330
2
100
AcDbSymbolTableRecord
100
AcDbLayerTableRecord
  2
145
 70
     0
 62
   145
  6
CONTINUOUS
  0
LAYER
  5
CB
330
2
100
AcDbSymbolTableRecord
100
AcDbLayerTableRecord
  2
146
 70
     0
 62
   146
  6
CONTINUOUS
  0
LAYER
  5
CC
330
2
100
AcDbSymbolTableRecord
100
AcDbLayerTableRecord
  2
147
 70
     0
 62
   147
  6
CONTINUOUS
  0
LAYER
  5
CD
330
2
100
AcDbSymbolTableRecord
100
AcDbLayerTableRecord
  2
148
 70
     0
 62
   148
  6
CONTINUOUS
  0
LAYER
  5
CE
330
2
100
AcDbSymbolTableRecord
100
AcDbLayerTableRecord
  2
149
 70
     0
 62
   149
  6
CONTINUOUS
  0
LAYER
  5
CF
330
2
100
AcDbSymbolTableRecord
100
AcDbLayerTableRecord
  2
150
 70
     0
 62
   150
  6
CONTINUOUS
  0
LAYER
  5
D0
330
2
100
AcDbSymbolTableRecord
100
AcDbLayerTableRecord
  2
151
 70
     0
 62
   151
  6
CONTINUOUS
  0
LAYER
  5
D1
330
2
100
AcDbSymbolTableRecord
100
AcDbLayerTableRecord
  2
152
 70
     0
 62
   152
  6
CONTINUOUS
  0
LAYER
  5
D2
330
2
100
AcDbSymbolTableRecord
100
AcDbLayerTableRecord
  2
153
 70
     0
 62
   153
  6
CONTINUOUS
  0
LAYER
  5
D3
330
2
100
AcDbSymbolTableRecord
100
AcDbLayerTableRecord
  2
154
 70
     0
 62
   154
  6
CONTINUOUS
  0
LAYER
  5
D4
330
2
100
AcDbSymbolTableRecord
100
AcDbLayerTableRecord
  2
155
 70
     0
 62
   155
  6
CONTINUOUS
  0
LAYER
  5
D5
330
2
100
AcDbSymbolTableRecord
100
AcDbLayerTableRecord
  2
156
 70
     0
 62
   156
  6
CONTINUOUS
  0
LAYER
  5
D6
330
2
100
AcDbSymbolTableRecord
100
AcDbLayerTableRecord
  2
157
 70
     0
 62
   157
  6
CONTINUOUS
  0
LAYER
  5
D7
330
2
100
AcDbSymbolTableRecord
100
AcDbLayerTableRecord
  2
158
 70
     0
 62
   158
  6
CONTINUOUS
  0
LAYER
  5
D8
330
2
100
AcDbSymbolTableRecord
100
AcDbLayerTableRecord
  2
159
 70
     0
 62
   159
  6
CONTINUOUS
  0
LAYER
  5
D9
330
2
100
AcDbSymbolTableRecord
100
AcDbLayerTableRecord
  2
160
 70
     0
 62
   160
  6
CONTINUOUS
  0
LAYER
  5
DA
330
2
100
AcDbSymbolTableRecord
100
AcDbLayerTableRecord
  2
161
 70
     0
 62
   161
  6
CONTINUOUS
  0
LAYER
  5
DB
330
2
100
AcDbSymbolTableRecord
100
AcDbLayerTableRecord
  2
162
 70
     0
 62
   162
  6
CONTINUOUS
  0
LAYER
  5
DC
330
2
100
AcDbSymbolTableRecord
100
AcDbLayerTableRecord
  2
163
 70
     0
 62
   163
  6
CONTINUOUS
  0
LAYER
  5
DD
330
2
100
AcDbSymbolTableRecord
100
AcDbLayerTableRecord
  2
164
 70
     0
 62
   164
  6
CONTINUOUS
  0
LAYER
  5
DE
330
2
100
AcDbSymbolTableRecord
100
AcDbLayerTableRecord
  2
165
 70
     0
 62
   165
  6
CONTINUOUS
  0
LAYER
  5
DF
330
2
100
AcDbSymbolTableRecord
100
AcDbLayerTableRecord
  2
166
 70
     0
 62
   166
  6
CONTINUOUS
  0
LAYER
  5
E0
330
2
100
AcDbSymbolTableRecord
100
AcDbLayerTableRecord
  2
167
 70
     0
 62
   167
  6
CONTINUOUS
  0
LAYER
  5
E1
330
2
100
AcDbSymbolTableRecord
100
AcDbLayerTableRecord
  2
168
 70
     0
 62
   168
  6
CONTINUOUS
  0
LAYER
  5
E2
330
2
100
AcDbSymbolTableRecord
100
AcDbLayerTableRecord
  2
169
 70
     0
 62
   169
  6
CONTINUOUS
  0
LAYER
  5
E3
330
2
100
AcDbSymbolTableRecord
100
AcDbLayerTableRecord
  2
170
 70
     0
 62
   170
  6
CONTINUOUS
  0
LAYER
  5
E4
330
2
100
AcDbSymbolTableRecord
100
AcDbLayerTableRecord
  2
171
 70
     0
 62
   171
  6
CONTINUOUS
  0
LAYER
  5
E5
330
2
100
AcDbSymbolTableRecord
100
AcDbLayerTableRecord
  2
172
 70
     0
 62
   172
  6
CONTINUOUS
  0
LAYER
  5
E6
330
2
100
AcDbSymbolTableRecord
100
AcDbLayerTableRecord
  2
173
 70
     0
 62
   173
  6
CONTINUOUS
  0
LAYER
  5
E7
330
2
100
AcDbSymbolTableRecord
100
AcDbLayerTableRecord
  2
174
 70
     0
 62
   174
  6
CONTINUOUS
  0
LAYER
  5
E8
330
2
100
AcDbSymbolTableRecord
100
AcDbLayerTableRecord
  2
175
 70
     0
 62
   175
  6
CONTINUOUS
  0
LAYER
  5
E9
330
2
100
AcDbSymbolTableRecord
100
AcDbLayerTableRecord
  2
176
 70
     0
 62
   176
  6
CONTINUOUS
  0
LAYER
  5
EA
330
2
100
AcDbSymbolTableRecord
100
AcDbLayerTableRecord
  2
177
 70
     0
 62
   177
  6
CONTINUOUS
  0
LAYER
  5
EB
330
2
100
AcDbSymbolTableRecord
100
AcDbLayerTableRecord
  2
178
 70
     0
 62
   178
  6
CONTINUOUS
  0
LAYER
  5
EC
330
2
100
AcDbSymbolTableRecord
100
AcDbLayerTableRecord
  2
179
 70
     0
 62
   179
  6
CONTINUOUS
  0
LAYER
  5
ED
330
2
100
AcDbSymbolTableRecord
100
AcDbLayerTableRecord
  2
180
 70
     0
 62
   180
  6
CONTINUOUS
  0
LAYER
  5
EE
330
2
100
AcDbSymbolTableRecord
100
AcDbLayerTableRecord
  2
181
 70
     0
 62
   181
  6
CONTINUOUS
  0
LAYER
  5
EF
330
2
100
AcDbSymbolTableRecord
100
AcDbLayerTableRecord
  2
182
 70
     0
 62
   182
  6
CONTINUOUS
  0
LAYER
  5
F0
330
2
100
AcDbSymbolTableRecord
100
AcDbLayerTableRecord
  2
183
 70
     0
 62
   183
  6
CONTINUOUS
  0
LAYER
  5
F1
330
2
100
AcDbSymbolTableRecord
100
AcDbLayerTableRecord
  2
184
 70
     0
 62
   184
  6
CONTINUOUS
  0
LAYER
  5
F2
330
2
100
AcDbSymbolTableRecord
100
AcDbLayerTableRecord
  2
185
 70
     0
 62
   185
  6
CONTINUOUS
  0
LAYER
  5
F3
330
2
100
AcDbSymbolTableRecord
100
AcDbLayerTableRecord
  2
186
 70
     0
 62
   186
  6
CONTINUOUS
  0
LAYER
  5
F4
330
2
100
AcDbSymbolTableRecord
100
AcDbLayerTableRecord
  2
187
 70
     0
 62
   187
  6
CONTINUOUS
  0
LAYER
  5
F5
330
2
100
AcDbSymbolTableRecord
100
AcDbLayerTableRecord
  2
188
 70
     0
 62
   188
  6
CONTINUOUS
  0
LAYER
  5
F6
330
2
100
AcDbSymbolTableRecord
100
AcDbLayerTableRecord
  2
189
 70
     0
 62
   189
  6
CONTINUOUS
  0
LAYER
  5
F7
330
2
100
AcDbSymbolTableRecord
100
AcDbLayerTableRecord
  2
190
 70
     0
 62
   190
  6
CONTINUOUS
  0
LAYER
  5
F8
330
2
100
AcDbSymbolTableRecord
100
AcDbLayerTableRecord
  2
191
 70
     0
 62
   191
  6
CONTINUOUS
  0
LAYER
  5
F9
330
2
100
AcDbSymbolTableRecord
100
AcDbLayerTableRecord
  2
192
 70
     0
 62
   192
  6
CONTINUOUS
  0
LAYER
  5
FA
330
2
100
AcDbSymbolTableRecord
100
AcDbLayerTableRecord
  2
193
 70
     0
 62
   193
  6
CONTINUOUS
  0
LAYER
  5
FB
330
2
100
AcDbSymbolTableRecord
100
AcDbLayerTableRecord
  2
194
 70
     0
 62
   194
  6
CONTINUOUS
  0
LAYER
  5
FC
330
2
100
AcDbSymbolTableRecord
100
AcDbLayerTableRecord
  2
195
 70
     0
 62
   195
  6
CONTINUOUS
  0
LAYER
  5
FD
330
2
100
AcDbSymbolTableRecord
100
AcDbLayerTableRecord
  2
196
 70
     0
 62
   196
  6
CONTINUOUS
  0
LAYER
  5
FE
330
2
100
AcDbSymbolTableRecord
100
AcDbLayerTableRecord
  2
197
 70
     0
 62
   197
  6
CONTINUOUS
  0
LAYER
  5
FF
330
2
100
AcDbSymbolTableRecord
100
AcDbLayerTableRecord
  2
198
 70
     0
 62
   198
  6
CONTINUOUS
  0
LAYER
  5
100
330
2
100
AcDbSymbolTableRecord
100
AcDbLayerTableRecord
  2
199
 70
     0
 62
   199
  6
CONTINUOUS
  0
LAYER
  5
101
330
2
100
AcDbSymbolTableRecord
100
AcDbLayerTableRecord
  2
200
 70
     0
 62
   200
  6
CONTINUOUS
  0
LAYER
  5
102
330
2
100
AcDbSymbolTableRecord
100
AcDbLayerTableRecord
  2
201
 70
     0
 62
   201
  6
CONTINUOUS
  0
LAYER
  5
103
330
2
100
AcDbSymbolTableRecord
100
AcDbLayerTableRecord
  2
202
 70
     0
 62
   202
  6
CONTINUOUS
  0
LAYER
  5
104
330
2
100
AcDbSymbolTableRecord
100
AcDbLayerTableRecord
  2
203
 70
     0
 62
   203
  6
CONTINUOUS
  0
LAYER
  5
105
330
2
100
AcDbSymbolTableRecord
100
AcDbLayerTableRecord
  2
204
 70
     0
 62
   204
  6
CONTINUOUS
  0
LAYER
  5
106
330
2
100
AcDbSymbolTableRecord
100
AcDbLayerTableRecord
  2
205
 70
     0
 62
   205
  6
CONTINUOUS
  0
LAYER
  5
107
330
2
100
AcDbSymbolTableRecord
100
AcDbLayerTableRecord
  2
206
 70
     0
 62
   206
  6
CONTINUOUS
  0
LAYER
  5
108
330
2
100
AcDbSymbolTableRecord
100
AcDbLayerTableRecord
  2
207
 70
     0
 62
   207
  6
CONTINUOUS
  0
LAYER
  5
109
330
2
100
AcDbSymbolTableRecord
100
AcDbLayerTableRecord
  2
208
 70
     0
 62
   208
  6
CONTINUOUS
  0
LAYER
  5
10A
330
2
100
AcDbSymbolTableRecord
100
AcDbLayerTableRecord
  2
209
 70
     0
 62
   209
  6
CONTINUOUS
  0
LAYER
  5
10B
330
2
100
AcDbSymbolTableRecord
100
AcDbLayerTableRecord
  2
210
 70
     0
 62
   210
  6
CONTINUOUS
  0
LAYER
  5
10C
330
2
100
AcDbSymbolTableRecord
100
AcDbLayerTableRecord
  2
211
 70
     0
 62
   211
  6
CONTINUOUS
  0
LAYER
  5
10D
330
2
100
AcDbSymbolTableRecord
100
AcDbLayerTableRecord
  2
212
 70
     0
 62
   212
  6
CONTINUOUS
  0
LAYER
  5
10E
330
2
100
AcDbSymbolTableRecord
100
AcDbLayerTableRecord
  2
213
 70
     0
 62
   213
  6
CONTINUOUS
  0
LAYER
  5
10F
330
2
100
AcDbSymbolTableRecord
100
AcDbLayerTableRecord
  2
214
 70
     0
 62
   214
  6
CONTINUOUS
  0
LAYER
  5
110
330
2
100
AcDbSymbolTableRecord
100
AcDbLayerTableRecord
  2
215
 70
     0
 62
   215
  6
CONTINUOUS
  0
LAYER
  5
111
330
2
100
AcDbSymbolTableRecord
100
AcDbLayerTableRecord
  2
216
 70
     0
 62
   216
  6
CONTINUOUS
  0
LAYER
  5
112
330
2
100
AcDbSymbolTableRecord
100
AcDbLayerTableRecord
  2
217
 70
     0
 62
   217
  6
CONTINUOUS
  0
LAYER
  5
113
330
2
100
AcDbSymbolTableRecord
100
AcDbLayerTableRecord
  2
218
 70
     0
 62
   218
  6
CONTINUOUS
  0
LAYER
  5
114
330
2
100
AcDbSymbolTableRecord
100
AcDbLayerTableRecord
  2
219
 70
     0
 62
   219
  6
CONTINUOUS
  0
LAYER
  5
115
330
2
100
AcDbSymbolTableRecord
100
AcDbLayerTableRecord
  2
220
 70
     0
 62
   220
  6
CONTINUOUS
  0
LAYER
  5
116
330
2
100
AcDbSymbolTableRecord
100
AcDbLayerTableRecord
  2
221
 70
     0
 62
   221
  6
CONTINUOUS
  0
LAYER
  5
117
330
2
100
AcDbSymbolTableRecord
100
AcDbLayerTableRecord
  2
222
 70
     0
 62
   222
  6
CONTINUOUS
  0
LAYER
  5
118
330
2
100
AcDbSymbolTableRecord
100
AcDbLayerTableRecord
  2
223
 70
     0
 62
   223
  6
CONTINUOUS
  0
LAYER
  5
119
330
2
100
AcDbSymbolTableRecord
100
AcDbLayerTableRecord
  2
224
 70
     0
 62
   224
  6
CONTINUOUS
  0
LAYER
  5
11A
330
2
100
AcDbSymbolTableRecord
100
AcDbLayerTableRecord
  2
225
 70
     0
 62
   225
  6
CONTINUOUS
  0
LAYER
  5
11B
330
2
100
AcDbSymbolTableRecord
100
AcDbLayerTableRecord
  2
226
 70
     0
 62
   226
  6
CONTINUOUS
  0
LAYER
  5
11C
330
2
100
AcDbSymbolTableRecord
100
AcDbLayerTableRecord
  2
227
 70
     0
 62
   227
  6
CONTINUOUS
  0
LAYER
  5
11D
330
2
100
AcDbSymbolTableRecord
100
AcDbLayerTableRecord
  2
228
 70
     0
 62
   228
  6
CONTINUOUS
  0
LAYER
  5
11E
330
2
100
AcDbSymbolTableRecord
100
AcDbLayerTableRecord
  2
229
 70
     0
 62
   229
  6
CONTINUOUS
  0
LAYER
  5
11F
330
2
100
AcDbSymbolTableRecord
100
AcDbLayerTableRecord
  2
230
 70
     0
 62
   230
  6
CONTINUOUS
  0
LAYER
  5
120
330
2
100
AcDbSymbolTableRecord
100
AcDbLayerTableRecord
  2
231
 70
     0
 62
   231
  6
CONTINUOUS
  0
LAYER
  5
121
330
2
100
AcDbSymbolTableRecord
100
AcDbLayerTableRecord
  2
232
 70
     0
 62
   232
  6
CONTINUOUS
  0
LAYER
  5
122
330
2
100
AcDbSymbolTableRecord
100
AcDbLayerTableRecord
  2
233
 70
     0
 62
   233
  6
CONTINUOUS
  0
LAYER
  5
123
330
2
100
AcDbSymbolTableRecord
100
AcDbLayerTableRecord
  2
234
 70
     0
 62
   234
  6
CONTINUOUS
  0
LAYER
  5
124
330
2
100
AcDbSymbolTableRecord
100
AcDbLayerTableRecord
  2
235
 70
     0
 62
   235
  6
CONTINUOUS
  0
LAYER
  5
125
330
2
100
AcDbSymbolTableRecord
100
AcDbLayerTableRecord
  2
236
 70
     0
 62
   236
  6
CONTINUOUS
  0
LAYER
  5
126
330
2
100
AcDbSymbolTableRecord
100
AcDbLayerTableRecord
  2
237
 70
     0
 62
   237
  6
CONTINUOUS
  0
LAYER
  5
127
330
2
100
AcDbSymbolTableRecord
100
AcDbLayerTableRecord
  2
238
 70
     0
 62
   238
  6
CONTINUOUS
  0
LAYER
  5
128
330
2
100
AcDbSymbolTableRecord
100
AcDbLayerTableRecord
  2
239
 70
     0
 62
   239
  6
CONTINUOUS
  0
LAYER
  5
129
330
2
100
AcDbSymbolTableRecord
100
AcDbLayerTableRecord
  2
240
 70
     0
 62
   240
  6
CONTINUOUS
  0
LAYER
  5
12A
330
2
100
AcDbSymbolTableRecord
100
AcDbLayerTableRecord
  2
241
 70
     0
 62
   241
  6
CONTINUOUS
  0
LAYER
  5
12B
330
2
100
AcDbSymbolTableRecord
100
AcDbLayerTableRecord
  2
242
 70
     0
 62
   242
  6
CONTINUOUS
  0
LAYER
  5
12C
330
2
100
AcDbSymbolTableRecord
100
AcDbLayerTableRecord
  2
243
 70
     0
 62
   243
  6
CONTINUOUS
  0
LAYER
  5
12D
330
2
100
AcDbSymbolTableRecord
100
AcDbLayerTableRecord
  2
244
 70
     0
 62
   244
  6
CONTINUOUS
  0
LAYER
  5
12E
330
2
100
AcDbSymbolTableRecord
100
AcDbLayerTableRecord
  2
245
 70
     0
 62
   245
  6
CONTINUOUS
  0
LAYER
  5
12F
330
2
100
AcDbSymbolTableRecord
100
AcDbLayerTableRecord
  2
246
 70
     0
 62
   246
  6
CONTINUOUS
  0
LAYER
  5
130
330
2
100
AcDbSymbolTableRecord
100
AcDbLayerTableRecord
  2
247
 70
     0
 62
   247
  6
CONTINUOUS
  0
LAYER
  5
131
330
2
100
AcDbSymbolTableRecord
100
AcDbLayerTableRecord
  2
248
 70
     0
 62
   248
  6
CONTINUOUS
  0
LAYER
  5
132
330
2
100
AcDbSymbolTableRecord
100
AcDbLayerTableRecord
  2
249
 70
     0
 62
   249
  6
CONTINUOUS
  0
LAYER
  5
133
330
2
100
AcDbSymbolTableRecord
100
AcDbLayerTableRecord
  2
250
 70
     0
 62
   250
  6
CONTINUOUS
  0
LAYER
  5
134
330
2
100
AcDbSymbolTableRecord
100
AcDbLayerTableRecord
  2
251
 70
     0
 62
   251
  6
CONTINUOUS
  0
LAYER
  5
135
330
2
100
AcDbSymbolTableRecord
100
AcDbLayerTableRecord
  2
252
 70
     0
 62
   252
  6
CONTINUOUS
  0
LAYER
  5
136
330
2
100
AcDbSymbolTableRecord
100
AcDbLayerTableRecord
  2
253
 70
     0
 62
   253
  6
CONTINUOUS
  0
LAYER
  5
137
330
2
100
AcDbSymbolTableRecord
100
AcDbLayerTableRecord
  2
254
 70
     0
 62
   254
  6
CONTINUOUS
  0
LAYER
  5
138
330
2
100
AcDbSymbolTableRecord
100
AcDbLayerTableRecord
  2
255
 70
     0
 62
   255
  6
CONTINUOUS
  0
LAYER
  5
3988
330
2
100
AcDbSymbolTableRecord
100
AcDbLayerTableRecord
  2
DEFPOINTS
 70
     0
 62
     7
  6
CONTINUOUS
  0
ENDTAB
  0
TABLE
  2
STYLE
  5
3
330
0
100
AcDbSymbolTable
 70
     1
  0
STYLE
  5
11
330
3
100
AcDbSymbolTableRecord
100
AcDbTextStyleTableRecord
  2
STANDARD
 70
     0
 40
0.0
 41
1.0
 50
0.0
 71
     0
 42
0.2
  3
monotxt
  4

  0
ENDTAB
  0
TABLE
  2
VIEW
  5
6
330
0
100
AcDbSymbolTable
 70
     0
  0
ENDTAB
  0
TABLE
  2
UCS
  5
7
330
0
100
AcDbSymbolTable
 70
     0
  0
ENDTAB
  0
TABLE
  2
APPID
  5
9
330
0
100
AcDbSymbolTable
 70
     1
  0
APPID
  5
12
330
9
100
AcDbSymbolTableRecord
100
AcDbRegAppTableRecord
  2
ACAD
 70
     0
  0
ENDTAB
  0
TABLE
  2
DIMSTYLE
  5
A
330
0
100
AcDbSymbolTable
 70
     1
  0
DIMSTYLE
105
2B68
102
{ACAD_REACTORS
330
3987
102
}
330
A
100
AcDbSymbolTableRecord
100
AcDbDimStyleTableRecord
  2
STANDARD
 70
     0
  3

  4

  5

  6

  7

 40
1.0
 41
0.18
 42
0.0625
 43
0.38
 44
0.18
 45
0.0
 46
0.0
 47
0.0
 48
0.0
140
0.18
141
0.09
142
0.0
143
25.4
144
1.0
145
0.0
146
1.0
147
0.09
 71
     0
 72
     0
 73
     1
 74
     1
 75
     0
 76
     0
 77
     0
 78
     0
170
     0
171
     2
172
     0
173
     0
174
     0
175
     0
176
     0
177
     0
178
     0
270
     2
271
     4
272
     4
273
     2
274
     2
340
11
275
     0
280
     0
281
     0
282
     0
283
     1
284
     0
285
     0
286
     0
287
     3
288
     0
  0
ENDTAB
  0
TABLE
  2
BLOCK_RECORD
  5
1
330
0
100
AcDbSymbolTable
 70
     1
  0
BLOCK_RECORD
  5
1E
102
{ACAD_XDICTIONARY
360
3951
102
}
330
1
100
AcDbSymbolTableRecord
100
AcDbBlockTableRecord
  2
*MODEL_SPACE
  0
BLOCK_RECORD
  5
1A
102
{ACAD_XDICTIONARY
360
3953
102
}
330
1
100
AcDbSymbolTableRecord
100
AcDbBlockTableRecord
  2
*PAPER_SPACE
  0
BLOCK_RECORD
  5
3989
330
1
100
AcDbSymbolTableRecord
100
AcDbBlockTableRecord
  2
*D0
  0
ENDTAB
  0
ENDSEC
  0
SECTION
  2
BLOCKS
  0
BLOCK
  5
13B
330
1E
100
AcDbEntity
  8
0
100
AcDbBlockBegin
  2
*MODEL_SPACE
 70
     0
 10
0.0
 20
0.0
 30
0.0
  3
*MODEL_SPACE
  1

  0
ENDBLK
  5
13C
330
1E
100
AcDbEntity
  8
0
100
AcDbBlockEnd
  0
BLOCK
  5
139
330
1A
100
AcDbEntity
 67
     1
  8
0
100
AcDbBlockBegin
  2
*PAPER_SPACE
 70
     0
 10
0.0
 20
0.0
 30
0.0
  3
*PAPER_SPACE
  1

  0
ENDBLK
  5
13A
330
1A
100
AcDbEntity
 67
     1
  8
0
100
AcDbBlockEnd
  0
BLOCK
  5
3993
330
3989
100
AcDbEntity
  8
0
100
AcDbBlockBegin
  2
*D0
 70
     1
 10
0.0
 20
0.0
 30
0.0
  3
*D0
  1

  0
LINE
  5
398A
330
3989
100
AcDbEntity
  8
0
 62
     0
100
AcDbLine
 10
6.080793332192065
 20
7.074006916443337
 30
0.0
 11
6.080793332192065
 21
6.233097761885156
 31
0.0
  0
LINE
  5
398B
330
3989
100
AcDbEntity
  8
0
 62
     0
100
AcDbLine
 10
7.085714592034587
 20
7.074006916443337
 30
0.0
 11
7.085714592034587
 21
6.233097761885156
 31
0.0
  0
LINE
  5
398C
330
3989
100
AcDbEntity
  8
0
 62
     0
100
AcDbLine
 10
6.260793332192065
 20
6.413097761885156
 30
0.0
 11
6.905714592034588
 21
6.413097761885156
 31
0.0
  0
MTEXT
  5
398D
330
3989
100
AcDbEntity
  8
0
 62
     0
100
AcDbMText
 10
6.583253962113326
 20
5.828097761885156
 30
0.0
 40
0.18
 41
0.0
 71
     5
 72
     1
  1
\A1;1.0049
1001
ACAD
1000
MTEXTBEGIN
1070
    73
1070
     1
1070
    44
1040
1.0
1070
    74
1070
     0
1000
MTEXTEND
  0
SOLID
  5
398E
330
3989
100
AcDbEntity
  8
0
 62
     0
100
AcDbTrace
 10
6.260793332192065
 20
6.443097761885156
 30
0.0
 11
6.260793332192065
 21
6.383097761885156
 31
0.0
 12
6.080793332192065
 22
6.413097761885156
 32
0.0
 13
6.080793332192065
 23
6.413097761885156
 33
0.0
  0
SOLID
  5
398F
330
3989
100
AcDbEntity
  8
0
 62
     0
100
AcDbTrace
 10
6.905714592034588
 20
6.443097761885156
 30
0.0
 11
6.905714592034588
 21
6.383097761885156
 31
0.0
 12
7.085714592034587
 22
6.413097761885156
 32
0.0
 13
7.085714592034587
 23
6.413097761885156
 33
0.0
  0
POINT
  5
3990
330
3989
100
AcDbEntity
  8
DEFPOINTS
 62
     0
100
AcDbPoint
 10
6.080793332192065
 20
7.136506916443337
 30
0.0
  0
POINT
  5
3991
330
3989
100
AcDbEntity
  8
DEFPOINTS
 62
     0
100
AcDbPoint
 10
7.085714592034587
 20
7.136506916443337
 30
0.0
  0
POINT
  5
3992
330
3989
100
AcDbEntity
  8
DEFPOINTS
 62
     0
100
AcDbPoint
 10
7.085714592034587
 20
6.413097761885156
 30
0.0
  0
ENDBLK
  5
3994
330
3989
100
AcDbEntity
  8
0
100
AcDbBlockEnd
  0
ENDSEC
  0
SECTION
  2
ENTITIES
  0
LINE
  5
27D1
330
1E
100
AcDbEntity
  8
7
100
AcDbLine
 10
4.038385826771652
 20
5.372047244094487
 30
0.0
 11
4.043307086614173
 21
5.372047244094487
 31
0.0
  0
LINE
  5
27D9
330
1E
100
AcDbEntity
  8
7
100
AcDbLine
 10
4.953740157480314
 20
5.372047244094487
 30
0.0
 11
4.127952755905511
 21
5.372047244094487
 31
0.0
  0
LINE
  5
27E2
330
1E
100
AcDbEntity
  8
7
100
AcDbLine
 10
4.641732283464566
 20
5.400590551181101
 30
0.0
 11
4.640748031496062
 21
5.424212598425196
 31
0.0
  0
LINE
  5
27E3
330
1E
100
AcDbEntity
  8
7
100
AcDbLine
 10
4.64271653543307
 20
5.372047244094487
 30
0.0
 11
4.641732283464566
 21
5.400590551181101
 31
0.0
  0
LINE
  5
27EA
330
1E
100
AcDbEntity
  8
7
100
AcDbLine
 10
4.80511811023622
 20
5.451771653543306
 30
0.0
 11
4.808070866141731
 21
5.372047244094487
 31
0.0
  0
LINE
  5
27EB
330
1E
100
AcDbEntity
  8
7
100
AcDbLine
 10
4.80511811023622
 20
5.451771653543306
 30
0.0
 11
4.639763779527558
 21
5.451771653543306
 31
0.0
  0
LINE
  5
27EC
330
1E
100
AcDbEntity
  8
7
100
AcDbLine
 10
4.439960629921259
 20
5.400590551181101
 30
0.0
 11
4.440944881889763
 21
5.424212598425196
 31
0.0
  0
LINE
  5
27F3
330
1E
100
AcDbEntity
  8
7
100
AcDbLine
 10
4.438976377952755
 20
5.372047244094487
 30
0.0
 11
4.439960629921259
 21
5.400590551181101
 31
0.0
  0
LINE
  5
27F4
330
1E
100
AcDbEntity
  8
7
100
AcDbLine
 10
4.276574803149605
 20
5.451771653543306
 30
0.0
 11
4.441929133858267
 21
5.451771653543306
 31
0.0
  0
LINE
  5
27F5
330
1E
100
AcDbEntity
  8
7
100
AcDbLine
 10
4.276574803149605
 20
5.451771653543306
 30
0.0
 11
4.273622047244094
 21
5.372047244094487
 31
0.0
  0
LINE
  5
27F6
330
1E
100
AcDbEntity
  8
7
100
AcDbLine
 10
4.639763779527558
 20
5.451771653543306
 30
0.0
 11
4.441929133858267
 21
5.451771653543306
 31
0.0
  0
LINE
  5
27F7
330
1E
100
AcDbEntity
  8
7
100
AcDbLine
 10
4.640748031496062
 20
5.424212598425196
 30
0.0
 11
4.440944881889763
 21
5.424212598425196
 31
0.0
  0
LINE
  5
27F8
330
1E
100
AcDbEntity
  8
7
100
AcDbLine
 10
4.641732283464566
 20
5.400590551181101
 30
0.0
 11
4.439960629921259
 21
5.400590551181101
 31
0.0
  0
LINE
  5
27F9
330
1E
100
AcDbEntity
  8
7
100
AcDbLine
 10
4.917322834645668
 20
5.372047244094487
 30
0.0
 11
4.919291338582676
 21
5.511811023622047
 31
0.0
  0
LINE
  5
27FA
330
1E
100
AcDbEntity
  8
7
100
AcDbLine
 10
4.164370078740157
 20
5.372047244094487
 30
0.0
 11
4.162401574803149
 21
5.511811023622047
 31
0.0
  0
LINE
  5
27FB
330
1E
100
AcDbEntity
  8
7
100
AcDbLine
 10
4.113188976377952
 20
5.162401574803149
 30
0.0
 11
4.085629921259842
 21
5.162401574803149
 31
0.0
  0
LINE
  5
2803
330
1E
100
AcDbEntity
  8
7
100
AcDbLine
 10
4.127952755905511
 20
5.372047244094487
 30
0.0
 11
4.113188976377952
 21
5.162401574803149
 31
0.0
  0
LINE
  5
2804
330
1E
100
AcDbEntity
  8
7
100
AcDbLine
 10
4.023622047244094
 20
5.162401574803149
 30
0.0
 11
4.038385826771652
 21
5.372047244094487
 31
0.0
  0
LINE
  5
2810
330
1E
100
AcDbEntity
  8
7
100
AcDbLine
 10
5.043307086614173
 20
5.372047244094487
 30
0.0
 11
5.058070866141731
 21
5.162401574803149
 31
0.0
  0
LINE
  5
2811
330
1E
100
AcDbEntity
  8
7
100
AcDbLine
 10
4.968503937007874
 20
5.162401574803149
 30
0.0
 11
4.953740157480314
 21
5.372047244094487
 31
0.0
  0
LINE
  5
2812
330
1E
100
AcDbEntity
  8
7
100
AcDbLine
 10
4.968503937007874
 20
5.162401574803149
 30
0.0
 11
4.113188976377952
 21
5.162401574803149
 31
0.0
  0
LINE
  5
2813
330
1E
100
AcDbEntity
  8
7
100
AcDbLine
 10
4.196850393700787
 20
5.511811023622047
 30
0.0
 11
4.162401574803149
 21
5.511811023622047
 31
0.0
  0
LINE
  5
281E
330
1E
100
AcDbEntity
  8
7
100
AcDbLine
 10
4.112204724409448
 20
5.372047244094487
 30
0.0
 11
4.122047244094487
 21
5.511811023622047
 31
0.0
  0
LINE
  5
2829
330
1E
100
AcDbEntity
  8
7
100
AcDbLine
 10
4.939960629921259
 20
5.511811023622047
 30
0.0
 11
4.949803149606299
 21
5.372047244094487
 31
0.0
  0
LINE
  5
282A
330
1E
100
AcDbEntity
  8
7
100
AcDbLine
 10
4.969488188976377
 20
5.372047244094487
 30
0.0
 11
4.959645669291337
 21
5.511811023622047
 31
0.0
  0
LINE
  5
282B
330
1E
100
AcDbEntity
  8
7
100
AcDbLine
 10
4.201771653543306
 20
5.372047244094487
 30
0.0
 11
4.196850393700787
 21
5.511811023622047
 31
0.0
  0
LINE
  5
282C
330
1E
100
AcDbEntity
  8
7
100
AcDbLine
 10
4.879921259842519
 20
5.372047244094487
 30
0.0
 11
4.884842519685038
 21
5.511811023622047
 31
0.0
  0
LINE
  5
282D
330
1E
100
AcDbEntity
  8
7
100
AcDbLine
 10
4.214566929133858
 20
7.53543307086614
 30
0.0
 11
4.214566929133858
 21
7.558070866141731
 31
0.0
  0
LINE
  5
282E
330
1E
100
AcDbEntity
  8
7
100
AcDbLine
 10
4.891732283464566
 20
7.461614173228346
 30
0.0
 11
4.867125984251968
 21
7.461614173228346
 31
0.0
  0
LINE
  5
282F
330
1E
100
AcDbEntity
  8
7
100
AcDbLine
 10
4.847440944881889
 20
7.995078740157479
 30
0.0
 11
4.901574803149605
 21
7.995078740157479
 31
0.0
  0
LINE
  5
2830
330
1E
100
AcDbEntity
  8
7
100
AcDbLine
 10
4.896653543307086
 20
7.896653543307087
 30
0.0
 11
4.874015748031495
 21
7.896653543307087
 31
0.0
  0
LINE
  5
2831
330
1E
100
AcDbEntity
  8
7
100
AcDbLine
 10
4.242125984251968
 20
7.813976377952755
 30
0.0
 11
4.242125984251968
 21
7.824803149606298
 31
0.0
  0
LINE
  5
2832
330
1E
100
AcDbEntity
  8
7
100
AcDbLine
 10
4.242125984251968
 20
7.59251968503937
 30
0.0
 11
4.187007874015748
 21
7.59251968503937
 31
0.0
  0
LINE
  5
2833
330
1E
100
AcDbEntity
  8
7
100
AcDbLine
 10
4.187007874015748
 20
7.818897637795275
 30
0.0
 11
4.242125984251968
 21
7.819881889763779
 31
0.0
  0
LINE
  5
2834
330
1E
100
AcDbEntity
  8
7
100
AcDbLine
 10
4.869094488188975
 20
7.886811023622046
 30
0.0
 11
4.869094488188975
 21
7.853346456692912
 31
0.0
  0
LINE
  5
2835
330
1E
100
AcDbEntity
  8
7
100
AcDbLine
 10
4.847440944881889
 20
7.826771653543307
 30
0.0
 11
4.858267716535432
 21
7.83759842519685
 31
0.0
  0
LINE
  5
2836
330
1E
100
AcDbEntity
  8
7
100
AcDbLine
 10
4.858267716535432
 20
7.794291338582675
 30
0.0
 11
4.847440944881889
 21
7.80511811023622
 31
0.0
  0
LINE
  5
2837
330
1E
100
AcDbEntity
  8
7
100
AcDbLine
 10
4.890748031496062
 20
7.836614173228346
 30
0.0
 11
4.901574803149605
 21
7.825787401574803
 31
0.0
  0
LINE
  5
2838
330
1E
100
AcDbEntity
  8
7
100
AcDbLine
 10
4.231299212598425
 20
7.773622047244094
 30
0.0
 11
4.187007874015748
 21
7.773622047244094
 31
0.0
  0
LINE
  5
2839
330
1E
100
AcDbEntity
  8
7
100
AcDbLine
 10
4.901574803149605
 20
7.988188976377951
 30
0.0
 11
4.901574803149605
 21
8.001968503937007
 31
0.0
  0
LINE
  5
283F
330
1E
100
AcDbEntity
  8
7
100
AcDbLine
 10
4.890748031496062
 20
7.794291338582675
 30
0.0
 11
4.858267716535432
 21
7.794291338582675
 31
0.0
  0
LINE
  5
2840
330
1E
100
AcDbEntity
  8
7
100
AcDbLine
 10
4.888779527559054
 20
7.622047244094487
 30
0.0
 11
4.888779527559054
 21
7.633858267716535
 31
0.0
  0
LINE
  5
2841
330
1E
100
AcDbEntity
  8
7
100
AcDbLine
 10
4.897637795275589
 20
7.483267716535433
 30
0.0
 11
4.833661417322834
 21
7.484251968503937
 31
0.0
  0
LINE
  5
2842
330
1E
100
AcDbEntity
  8
7
100
AcDbLine
 10
4.242125984251968
 20
7.524606299212598
 30
0.0
 11
4.187007874015748
 21
7.547244094488188
 31
0.0
  0
LINE
  5
2843
330
1E
100
AcDbEntity
  8
7
100
AcDbLine
 10
4.231299212598425
 20
7.729330708661416
 30
0.0
 11
4.242125984251968
 21
7.739173228346455
 31
0.0
  0
LINE
  5
2844
330
1E
100
AcDbEntity
  8
7
100
AcDbLine
 10
4.908464566929133
 20
7.622047244094487
 30
0.0
 11
4.888779527559054
 21
7.622047244094487
 31
0.0
  0
LINE
  5
2845
330
1E
100
AcDbEntity
  8
7
100
AcDbLine
 10
4.208661417322834
 20
7.500984251968503
 30
0.0
 11
4.214566929133858
 21
7.489173228346455
 31
0.0
  0
LINE
  5
2846
330
1E
100
AcDbEntity
  8
7
100
AcDbLine
 10
4.888779527559054
 20
7.633858267716535
 30
0.0
 11
4.890748031496062
 21
7.63779527559055
 31
0.0
  0
LINE
  5
2847
330
1E
100
AcDbEntity
  8
7
100
AcDbLine
 10
4.867125984251968
 20
7.461614173228346
 30
0.0
 11
4.8503937007874
 21
7.443897637795275
 31
0.0
  0
LINE
  5
2848
330
1E
100
AcDbEntity
  8
7
100
AcDbLine
 10
4.847440944881889
 20
7.886811023622046
 30
0.0
 11
4.852362204724409
 21
7.891732283464566
 31
0.0
  0
LINE
  5
2849
330
1E
100
AcDbEntity
  8
7
100
AcDbLine
 10
4.187007874015748
 20
7.547244094488188
 30
0.0
 11
4.242125984251968
 21
7.568897637795275
 31
0.0
  0
LINE
  5
284A
330
1E
100
AcDbEntity
  8
7
100
AcDbLine
 10
4.901574803149605
 20
7.80511811023622
 30
0.0
 11
4.890748031496062
 21
7.794291338582675
 31
0.0
  0
LINE
  5
284B
330
1E
100
AcDbEntity
  8
7
100
AcDbLine
 10
4.869094488188975
 20
7.853346456692912
 30
0.0
 11
4.901574803149605
 21
7.853346456692912
 31
0.0
  0
LINE
  5
284C
330
1E
100
AcDbEntity
  8
7
100
AcDbLine
 10
4.19783464566929
 20
7.705708661417322
 30
0.0
 11
4.187007874015748
 21
7.693897637795275
 31
0.0
  0
LINE
  5
284D
330
1E
100
AcDbEntity
  8
7
100
AcDbLine
 10
4.214566929133858
 20
7.489173228346455
 30
0.0
 11
4.214566929133858
 21
7.456692913385825
 31
0.0
  0
LINE
  5
284E
330
1E
100
AcDbEntity
  8
7
100
AcDbLine
 10
4.187007874015748
 20
7.729330708661416
 30
0.0
 11
4.231299212598425
 21
7.729330708661416
 31
0.0
  0
LINE
  5
284F
330
1E
100
AcDbEntity
  8
7
100
AcDbLine
 10
4.901574803149605
 20
7.913385826771653
 30
0.0
 11
4.847440944881889
 21
7.957677165354329
 31
0.0
  0
LINE
  5
2850
330
1E
100
AcDbEntity
  8
7
100
AcDbLine
 10
4.191929133858267
 20
7.500984251968503
 30
0.0
 11
4.208661417322834
 21
7.500984251968503
 31
0.0
  0
LINE
  5
2851
330
1E
100
AcDbEntity
  8
7
100
AcDbLine
 10
4.901574803149605
 20
7.957677165354329
 30
0.0
 11
4.847440944881889
 21
7.913385826771653
 31
0.0
  0
LINE
  5
2852
330
1E
100
AcDbEntity
  8
7
100
AcDbLine
 10
4.908464566929133
 20
7.63779527559055
 30
0.0
 11
4.898622047244094
 21
7.633858267716535
 31
0.0
  0
LINE
  5
2853
330
1E
100
AcDbEntity
  8
7
100
AcDbLine
 10
4.869094488188975
 20
7.853346456692912
 30
0.0
 11
4.847440944881889
 21
7.853346456692912
 31
0.0
  0
LINE
  5
2854
330
1E
100
AcDbEntity
  8
7
100
AcDbLine
 10
4.890748031496062
 20
7.63779527559055
 30
0.0
 11
4.896653543307086
 21
7.63779527559055
 31
0.0
  0
LINE
  5
2855
330
1E
100
AcDbEntity
  8
7
100
AcDbLine
 10
4.852362204724409
 20
7.885826771653542
 30
0.0
 11
4.846456692913385
 21
7.896653543307087
 31
0.0
  0
LINE
  5
2856
330
1E
100
AcDbEntity
  8
7
100
AcDbLine
 10
4.242125984251968
 20
7.739173228346455
 30
0.0
 11
4.242125984251968
 21
7.761811023622046
 31
0.0
  0
LINE
  5
2857
330
1E
100
AcDbEntity
  8
7
100
AcDbLine
 10
4.187007874015748
 20
7.66043307086614
 30
0.0
 11
4.242125984251968
 21
7.66043307086614
 31
0.0
  0
LINE
  5
2858
330
1E
100
AcDbEntity
  8
7
100
AcDbLine
 10
4.867125984251968
 20
7.63779527559055
 30
0.0
 11
4.830708661417322
 21
7.63779527559055
 31
0.0
  0
LINE
  5
2859
330
1E
100
AcDbEntity
  8
7
100
AcDbLine
 10
4.187007874015748
 20
7.693897637795275
 30
0.0
 11
4.187007874015748
 21
7.66043307086614
 31
0.0
  0
LINE
  5
285A
330
1E
100
AcDbEntity
  8
7
100
AcDbLine
 10
4.893700787401574
 20
7.653543307086613
 30
0.0
 11
4.848425196850393
 21
7.654527559055118
 31
0.0
  0
LINE
  5
285B
330
1E
100
AcDbEntity
  8
7
100
AcDbLine
 10
4.242125984251968
 20
7.66043307086614
 30
0.0
 11
4.242125984251968
 21
7.693897637795275
 31
0.0
  0
LINE
  5
285C
330
1E
100
AcDbEntity
  8
7
100
AcDbLine
 10
4.898622047244094
 20
7.633858267716535
 30
0.0
 11
4.898622047244094
 21
7.622047244094487
 31
0.0
  0
LINE
  5
285D
330
1E
100
AcDbEntity
  8
7
100
AcDbLine
 10
4.896653543307086
 20
7.63779527559055
 30
0.0
 11
4.898622047244094
 21
7.633858267716535
 31
0.0
  0
LINE
  5
285E
330
1E
100
AcDbEntity
  8
7
100
AcDbLine
 10
4.863188976377952
 20
7.891732283464566
 30
0.0
 11
4.869094488188975
 21
7.886811023622046
 31
0.0
  0
LINE
  5
285F
330
1E
100
AcDbEntity
  8
7
100
AcDbLine
 10
4.242125984251968
 20
7.456692913385825
 30
0.0
 11
4.187007874015748
 21
7.456692913385825
 31
0.0
  0
LINE
  5
2860
330
1E
100
AcDbEntity
  8
7
100
AcDbLine
 10
4.901574803149605
 20
7.853346456692912
 30
0.0
 11
4.901574803149605
 21
7.885826771653542
 31
0.0
  0
LINE
  5
2861
330
1E
100
AcDbEntity
  8
7
100
AcDbLine
 10
4.867125984251968
 20
7.617125984251968
 30
0.0
 11
4.830708661417322
 21
7.618110236220472
 31
0.0
  0
LINE
  5
2862
330
1E
100
AcDbEntity
  8
7
100
AcDbLine
 10
4.242125984251968
 20
7.636811023622046
 30
0.0
 11
4.187007874015748
 21
7.636811023622046
 31
0.0
  0
LINE
  5
2863
330
1E
100
AcDbEntity
  8
7
100
AcDbLine
 10
4.874015748031495
 20
7.896653543307087
 30
0.0
 11
4.869094488188975
 21
7.886811023622046
 31
0.0
  0
LINE
  5
2864
330
1E
100
AcDbEntity
  8
7
100
AcDbLine
 10
4.863188976377952
 20
7.483267716535433
 30
0.0
 11
4.863188976377952
 21
7.503937007874014
 31
0.0
  0
LINE
  5
2865
330
1E
100
AcDbEntity
  8
7
100
AcDbLine
 10
4.852362204724409
 20
7.891732283464566
 30
0.0
 11
4.863188976377952
 21
7.891732283464566
 31
0.0
  0
LINE
  5
2866
330
1E
100
AcDbEntity
  8
7
100
AcDbLine
 10
4.231299212598425
 20
7.705708661417322
 30
0.0
 11
4.19783464566929
 21
7.705708661417322
 31
0.0
  0
LINE
  5
2867
330
1E
100
AcDbEntity
  8
7
100
AcDbLine
 10
4.187007874015748
 20
7.88779527559055
 30
0.0
 11
4.242125984251968
 21
7.88779527559055
 31
0.0
  0
LINE
  5
2868
330
1E
100
AcDbEntity
  8
7
100
AcDbLine
 10
4.83267716535433
 20
7.46259842519685
 30
0.0
 11
4.848425196850393
 21
7.46259842519685
 31
0.0
  0
LINE
  5
2869
330
1E
100
AcDbEntity
  8
7
100
AcDbLine
 10
4.242125984251968
 20
7.693897637795275
 30
0.0
 11
4.231299212598425
 21
7.705708661417322
 31
0.0
  0
LINE
  5
286A
330
1E
100
AcDbEntity
  8
7
100
AcDbLine
 10
4.847440944881889
 20
7.80511811023622
 30
0.0
 11
4.847440944881889
 21
7.826771653543307
 31
0.0
  0
LINE
  5
286B
330
1E
100
AcDbEntity
  8
7
100
AcDbLine
 10
4.847440944881889
 20
7.853346456692912
 30
0.0
 11
4.847440944881889
 21
7.886811023622046
 31
0.0
  0
LINE
  5
286C
330
1E
100
AcDbEntity
  8
7
100
AcDbLine
 10
4.187007874015748
 20
7.59251968503937
 30
0.0
 11
4.242125984251968
 21
7.636811023622046
 31
0.0
  0
LINE
  5
286D
330
1E
100
AcDbEntity
  8
7
100
AcDbLine
 10
4.893700787401574
 20
7.653543307086613
 30
0.0
 11
4.893700787401574
 21
7.674212598425196
 31
0.0
  0
LINE
  5
286E
330
1E
100
AcDbEntity
  8
7
100
AcDbLine
 10
4.187007874015748
 20
7.909448818897637
 30
0.0
 11
4.187007874015748
 21
7.865157480314961
 31
0.0
  0
LINE
  5
286F
330
1E
100
AcDbEntity
  8
7
100
AcDbLine
 10
4.187007874015748
 20
7.813976377952755
 30
0.0
 11
4.187007874015748
 21
7.824803149606298
 31
0.0
  0
LINE
  5
2870
330
1E
100
AcDbEntity
  8
7
100
AcDbLine
 10
4.852362204724409
 20
7.991141732283464
 30
0.0
 11
4.847440944881889
 21
7.995078740157479
 31
0.0
  0
LINE
  5
2871
330
1E
100
AcDbEntity
  8
7
100
AcDbLine
 10
4.242125984251968
 20
7.761811023622046
 30
0.0
 11
4.231299212598425
 21
7.773622047244094
 31
0.0
  0
LINE
  5
2872
330
1E
100
AcDbEntity
  8
7
100
AcDbLine
 10
4.901574803149605
 20
7.825787401574803
 30
0.0
 11
4.901574803149605
 21
7.80511811023622
 31
0.0
  0
LINE
  5
2879
330
1E
100
AcDbEntity
  8
7
100
AcDbLine
 10
4.871062992125984
 20
7.442913385826772
 30
0.0
 11
4.883858267716535
 21
7.449803149606298
 31
0.0
  0
LINE
  5
287A
330
1E
100
AcDbEntity
  8
7
100
AcDbLine
 10
4.883858267716535
 20
7.449803149606298
 30
0.0
 11
4.891732283464566
 21
7.461614173228346
 31
0.0
  0
LINE
  5
28C6
330
1E
100
AcDbEntity
  8
7
100
AcDbLine
 10
4.949803149606299
 20
6.939960629921259
 30
0.0
 11
4.917322834645668
 21
6.939960629921259
 31
0.0
  0
LINE
  5
28C7
330
1E
100
AcDbEntity
  8
7
100
AcDbLine
 10
4.917322834645668
 20
6.924212598425196
 30
0.0
 11
4.917322834645668
 21
6.939960629921259
 31
0.0
  0
LINE
  5
28C8
330
1E
100
AcDbEntity
  8
7
100
AcDbLine
 10
4.653543307086613
 20
6.924212598425196
 30
0.0
 11
4.917322834645668
 21
6.924212598425196
 31
0.0
  0
LINE
  5
28CE
330
1E
100
AcDbEntity
  8
7
100
AcDbLine
 10
4.429133858267715
 20
6.924212598425196
 30
0.0
 11
4.434055118110236
 21
6.963582677165353
 31
0.0
  0
LINE
  5
28CF
330
1E
100
AcDbEntity
  8
7
100
AcDbLine
 10
4.164370078740157
 20
6.924212598425196
 30
0.0
 11
4.429133858267715
 21
6.924212598425196
 31
0.0
  0
LINE
  5
28D0
330
1E
100
AcDbEntity
  8
7
100
AcDbLine
 10
4.164370078740157
 20
6.939960629921259
 30
0.0
 11
4.164370078740157
 21
6.924212598425196
 31
0.0
  0
LINE
  5
28D1
330
1E
100
AcDbEntity
  8
7
100
AcDbLine
 10
4.164370078740157
 20
6.939960629921259
 30
0.0
 11
4.132874015748031
 21
6.939960629921259
 31
0.0
  0
LINE
  5
28E7
330
1E
100
AcDbEntity
  8
7
100
AcDbLine
 10
4.038385826771652
 20
8.240157480314961
 30
0.0
 11
4.038385826771652
 21
8.412401574803149
 31
0.0
  0
LINE
  5
28E8
330
1E
100
AcDbEntity
  8
7
100
AcDbLine
 10
4.099409448818897
 20
8.240157480314961
 30
0.0
 11
4.038385826771652
 21
8.240157480314961
 31
0.0
  0
LINE
  5
28E9
330
1E
100
AcDbEntity
  8
7
100
AcDbLine
 10
4.099409448818897
 20
7.988188976377951
 30
0.0
 11
4.099409448818897
 21
8.240157480314961
 31
0.0
  0
LINE
  5
28EA
330
1E
100
AcDbEntity
  8
7
100
AcDbLine
 10
4.038385826771652
 20
7.988188976377951
 30
0.0
 11
4.099409448818897
 21
7.988188976377951
 31
0.0
  0
LINE
  5
28EB
330
1E
100
AcDbEntity
  8
7
100
AcDbLine
 10
4.038385826771652
 20
6.955708661417322
 30
0.0
 11
4.038385826771652
 21
7.988188976377951
 31
0.0
  0
LINE
  5
28F4
330
1E
100
AcDbEntity
  8
7
100
AcDbLine
 10
4.953740157480314
 20
6.866141732283463
 30
0.0
 11
4.127952755905511
 21
6.866141732283463
 31
0.0
  0
LINE
  5
28F5
330
1E
100
AcDbEntity
  8
7
100
AcDbLine
 10
4.953740157480314
 20
6.866141732283463
 30
0.0
 11
4.981299212598425
 21
6.871062992125984
 31
0.0
  0
LINE
  5
28FD
330
1E
100
AcDbEntity
  8
7
100
AcDbLine
 10
5.043307086614173
 20
7.988188976377951
 30
0.0
 11
5.043307086614173
 21
6.955708661417322
 31
0.0
  0
LINE
  5
2904
330
1E
100
AcDbEntity
  8
7
100
AcDbLine
 10
5.043307086614173
 20
8.412401574803149
 30
0.0
 11
5.043307086614173
 21
8.240157480314961
 31
0.0
  0
LINE
  5
290C
330
1E
100
AcDbEntity
  8
7
100
AcDbLine
 10
4.939960629921259
 20
7.943897637795275
 30
0.0
 11
4.939960629921259
 21
8.237204724409448
 31
0.0
  0
LINE
  5
290D
330
1E
100
AcDbEntity
  8
7
100
AcDbLine
 10
4.969488188976377
 20
7.943897637795275
 30
0.0
 11
4.939960629921259
 21
7.943897637795275
 31
0.0
  0
LINE
  5
290E
330
1E
100
AcDbEntity
  8
7
100
AcDbLine
 10
4.238188976377952
 20
8.436023622047244
 30
0.0
 11
4.361220472440944
 21
8.436023622047244
 31
0.0
  0
LINE
  5
290F
330
1E
100
AcDbEntity
  8
7
100
AcDbLine
 10
4.364173228346456
 20
8.446850393700787
 30
0.0
 11
4.361220472440944
 21
8.436023622047244
 31
0.0
  0
LINE
  5
2915
330
1E
100
AcDbEntity
  8
7
100
AcDbLine
 10
4.162401574803149
 20
8.659448818897637
 30
0.0
 11
4.14271653543307
 21
8.659448818897637
 31
0.0
  0
LINE
  5
2916
330
1E
100
AcDbEntity
  8
7
100
AcDbLine
 10
4.164370078740157
 20
8.664370078740157
 30
0.0
 11
4.162401574803149
 21
8.659448818897637
 31
0.0
  0
LINE
  5
2917
330
1E
100
AcDbEntity
  8
7
100
AcDbLine
 10
4.164370078740157
 20
8.664370078740157
 30
0.0
 11
4.357283464566928
 21
8.664370078740157
 31
0.0
  0
LINE
  5
2918
330
1E
100
AcDbEntity
  8
7
100
AcDbLine
 10
4.364173228346456
 20
8.672244094488188
 30
0.0
 11
4.357283464566928
 21
8.664370078740157
 31
0.0
  0
LINE
  5
2919
330
1E
100
AcDbEntity
  8
7
100
AcDbLine
 10
4.2253937007874
 20
8.672244094488188
 30
0.0
 11
4.364173228346456
 21
8.672244094488188
 31
0.0
  0
LINE
  5
291A
330
1E
100
AcDbEntity
  8
7
100
AcDbLine
 10
4.2253937007874
 20
8.672244094488188
 30
0.0
 11
4.193897637795275
 21
8.668307086614172
 31
0.0
  0
LINE
  5
291B
330
1E
100
AcDbEntity
  8
7
100
AcDbLine
 10
4.357283464566928
 20
8.664370078740157
 30
0.0
 11
4.357283464566928
 21
8.457677165354329
 31
0.0
  0
LINE
  5
2922
330
1E
100
AcDbEntity
  8
7
100
AcDbLine
 10
4.357283464566928
 20
8.457677165354329
 30
0.0
 11
4.201771653543306
 21
8.457677165354329
 31
0.0
  0
LINE
  5
2923
330
1E
100
AcDbEntity
  8
7
100
AcDbLine
 10
4.357283464566928
 20
8.457677165354329
 30
0.0
 11
4.361220472440944
 21
8.452755905511811
 31
0.0
  0
LINE
  5
2929
330
1E
100
AcDbEntity
  8
7
100
AcDbLine
 10
5.049212598425196
 20
8.651574803149605
 30
0.0
 11
5.043307086614173
 21
8.412401574803149
 31
0.0
  0
LINE
  5
2935
330
1E
100
AcDbEntity
  8
7
100
AcDbLine
 10
4.880905511811023
 20
8.743110236220472
 30
0.0
 11
4.961614173228346
 21
8.743110236220472
 31
0.0
  0
LINE
  5
2936
330
1E
100
AcDbEntity
  8
7
100
AcDbLine
 10
4.888779527559054
 20
8.668307086614172
 30
0.0
 11
4.880905511811023
 21
8.743110236220472
 31
0.0
  0
LINE
  5
2937
330
1E
100
AcDbEntity
  8
7
100
AcDbLine
 10
4.955708661417322
 20
8.668307086614172
 30
0.0
 11
4.888779527559054
 21
8.668307086614172
 31
0.0
  0
LINE
  5
293E
330
1E
100
AcDbEntity
  8
7
100
AcDbLine
 10
4.970472440944881
 20
8.431102362204724
 30
0.0
 11
4.9753937007874
 21
8.64763779527559
 31
0.0
  0
LINE
  5
293F
330
1E
100
AcDbEntity
  8
7
100
AcDbLine
 10
4.969488188976377
 20
8.412401574803149
 30
0.0
 11
4.970472440944881
 21
8.431102362204724
 31
0.0
  0
LINE
  5
2940
330
1E
100
AcDbEntity
  8
7
100
AcDbLine
 10
4.114173228346456
 20
8.746062992125983
 30
0.0
 11
4.2253937007874
 21
8.746062992125983
 31
0.0
  0
LINE
  5
2946
330
1E
100
AcDbEntity
  8
7
100
AcDbLine
 10
4.2253937007874
 20
8.746062992125983
 30
0.0
 11
4.200787401574802
 21
8.743110236220472
 31
0.0
  0
LINE
  5
2947
330
1E
100
AcDbEntity
  8
7
100
AcDbLine
 10
4.875
 20
8.123031496062992
 30
0.0
 11
4.875
 21
8.404527559055118
 31
0.0
  0
LINE
  5
2969
330
1E
100
AcDbEntity
  8
7
100
AcDbLine
 10
4.660433070866141
 20
8.291338582677164
 30
0.0
 11
4.660433070866141
 21
8.292322834645668
 31
0.0
  0
LINE
  5
296A
330
1E
100
AcDbEntity
  8
7
100
AcDbLine
 10
4.659448818897637
 20
8.307086614173227
 30
0.0
 11
4.655511811023621
 21
8.314960629921259
 31
0.0
  0
LINE
  5
296B
330
1E
100
AcDbEntity
  8
7
100
AcDbLine
 10
4.641732283464566
 20
8.308070866141731
 30
0.0
 11
4.640748031496062
 21
8.309055118110235
 31
0.0
  0
LINE
  5
296C
330
1E
100
AcDbEntity
  8
7
100
AcDbLine
 10
4.643700787401574
 20
8.276574803149605
 30
0.0
 11
4.641732283464566
 21
8.308070866141731
 31
0.0
  0
LINE
  5
296D
330
1E
100
AcDbEntity
  8
7
100
AcDbLine
 10
4.644685039370078
 20
8.276574803149605
 30
0.0
 11
4.643700787401574
 21
8.276574803149605
 31
0.0
  0
LINE
  5
2979
330
1E
100
AcDbEntity
  8
7
100
AcDbLine
 10
4.655511811023621
 20
8.314960629921259
 30
0.0
 11
4.644685039370078
 21
8.314960629921259
 31
0.0
  0
LINE
  5
297A
330
1E
100
AcDbEntity
  8
7
100
AcDbLine
 10
4.80511811023622
 20
8.339566929133857
 30
0.0
 11
4.812007874015747
 21
8.307086614173227
 31
0.0
  0
LINE
  5
297B
330
1E
100
AcDbEntity
  8
7
100
AcDbLine
 10
4.80511811023622
 20
8.339566929133857
 30
0.0
 11
4.639763779527558
 21
8.339566929133857
 31
0.0
  0
LINE
  5
2981
330
1E
100
AcDbEntity
  8
7
100
AcDbLine
 10
4.20767716535433
 20
8.123031496062992
 30
0.0
 11
4.20767716535433
 21
8.404527559055118
 31
0.0
  0
LINE
  5
2987
330
1E
100
AcDbEntity
  8
7
100
AcDbLine
 10
4.270669291338582
 20
8.307086614173227
 30
0.0
 11
4.422244094488188
 21
8.307086614173227
 31
0.0
  0
LINE
  5
298D
330
1E
100
AcDbEntity
  8
7
100
AcDbLine
 10
4.421259842519684
 20
8.292322834645668
 30
0.0
 11
4.269685039370078
 21
8.292322834645668
 31
0.0
  0
LINE
  5
29A1
330
1E
100
AcDbEntity
  8
7
100
AcDbLine
 10
4.269685039370078
 20
8.292322834645668
 30
0.0
 11
4.269685039370078
 21
8.123031496062992
 31
0.0
  0
LINE
  5
29A2
330
1E
100
AcDbEntity
  8
7
100
AcDbLine
 10
4.269685039370078
 20
8.391732283464566
 30
0.0
 11
4.269685039370078
 21
8.292322834645668
 31
0.0
  0
LINE
  5
29A3
330
1E
100
AcDbEntity
  8
7
100
AcDbLine
 10
4.422244094488188
 20
8.307086614173227
 30
0.0
 11
4.426181102362204
 21
8.314960629921259
 31
0.0
  0
LINE
  5
29A4
330
1E
100
AcDbEntity
  8
7
100
AcDbLine
 10
4.421259842519684
 20
8.291338582677164
 30
0.0
 11
4.421259842519684
 21
8.292322834645668
 31
0.0
  0
LINE
  5
29A5
330
1E
100
AcDbEntity
  8
7
100
AcDbLine
 10
4.439960629921259
 20
8.308070866141731
 30
0.0
 11
4.440944881889763
 21
8.309055118110235
 31
0.0
  0
LINE
  5
29AC
330
1E
100
AcDbEntity
  8
7
100
AcDbLine
 10
4.437007874015748
 20
8.314960629921259
 30
0.0
 11
4.441929133858267
 21
8.339566929133857
 31
0.0
  0
LINE
  5
29AD
330
1E
100
AcDbEntity
  8
7
100
AcDbLine
 10
4.437007874015748
 20
8.276574803149605
 30
0.0
 11
4.437007874015748
 21
8.314960629921259
 31
0.0
  0
LINE
  5
29B3
330
1E
100
AcDbEntity
  8
7
100
AcDbLine
 10
4.276574803149605
 20
8.339566929133857
 30
0.0
 11
4.441929133858267
 21
8.339566929133857
 31
0.0
  0
LINE
  5
29B4
330
1E
100
AcDbEntity
  8
7
100
AcDbLine
 10
4.276574803149605
 20
8.339566929133857
 30
0.0
 11
4.270669291338582
 21
8.307086614173227
 31
0.0
  0
LINE
  5
29B5
330
1E
100
AcDbEntity
  8
7
100
AcDbLine
 10
4.426181102362204
 20
8.314960629921259
 30
0.0
 11
4.437007874015748
 21
8.314960629921259
 31
0.0
  0
LINE
  5
29B6
330
1E
100
AcDbEntity
  8
7
100
AcDbLine
 10
4.276574803149605
 20
8.38779527559055
 30
0.0
 11
4.276574803149605
 21
8.339566929133857
 31
0.0
  0
LINE
  5
29B7
330
1E
100
AcDbEntity
  8
7
100
AcDbLine
 10
4.269685039370078
 20
8.391732283464566
 30
0.0
 11
4.276574803149605
 21
8.38779527559055
 31
0.0
  0
LINE
  5
29B8
330
1E
100
AcDbEntity
  8
7
100
AcDbLine
 10
4.720472440944881
 20
8.436023622047244
 30
0.0
 11
4.843503937007874
 21
8.436023622047244
 31
0.0
  0
LINE
  5
29B9
330
1E
100
AcDbEntity
  8
7
100
AcDbLine
 10
4.720472440944881
 20
8.436023622047244
 30
0.0
 11
4.717519685039369
 21
8.446850393700787
 31
0.0
  0
LINE
  5
29BA
330
1E
100
AcDbEntity
  8
7
100
AcDbLine
 10
4.621062992125984
 20
8.251968503937007
 30
0.0
 11
4.460629921259842
 21
8.251968503937007
 31
0.0
  0
LINE
  5
29BB
330
1E
100
AcDbEntity
  8
7
100
AcDbLine
 10
4.643700787401574
 20
8.276574803149605
 30
0.0
 11
4.437992125984251
 21
8.276574803149605
 31
0.0
  0
LINE
  5
29BC
330
1E
100
AcDbEntity
  8
7
100
AcDbLine
 10
4.276574803149605
 20
8.38779527559055
 30
0.0
 11
4.80511811023622
 21
8.38779527559055
 31
0.0
  0
LINE
  5
29BD
330
1E
100
AcDbEntity
  8
7
100
AcDbLine
 10
4.269685039370078
 20
8.391732283464566
 30
0.0
 11
4.812007874015747
 21
8.391732283464566
 31
0.0
  0
LINE
  5
29BE
330
1E
100
AcDbEntity
  8
7
100
AcDbLine
 10
4.639763779527558
 20
8.339566929133857
 30
0.0
 11
4.441929133858267
 21
8.339566929133857
 31
0.0
  0
LINE
  5
29BF
330
1E
100
AcDbEntity
  8
7
100
AcDbLine
 10
4.640748031496062
 20
8.309055118110235
 30
0.0
 11
4.440944881889763
 21
8.309055118110235
 31
0.0
  0
LINE
  5
29C0
330
1E
100
AcDbEntity
  8
7
100
AcDbLine
 10
4.641732283464566
 20
8.308070866141731
 30
0.0
 11
4.439960629921259
 21
8.308070866141731
 31
0.0
  0
LINE
  5
29C1
330
1E
100
AcDbEntity
  8
7
100
AcDbLine
 10
4.666338582677164
 20
6.926181102362204
 30
0.0
 11
4.659448818897637
 21
6.9251968503937
 31
0.0
  0
LINE
  5
29C2
330
1E
100
AcDbEntity
  8
7
100
AcDbLine
 10
4.666338582677164
 20
7.011811023622047
 30
0.0
 11
4.666338582677164
 21
6.926181102362204
 31
0.0
  0
LINE
  5
29C3
330
1E
100
AcDbEntity
  8
7
100
AcDbLine
 10
4.416338582677164
 20
6.926181102362204
 30
0.0
 11
4.416338582677164
 21
7.011811023622047
 31
0.0
  0
LINE
  5
29C4
330
1E
100
AcDbEntity
  8
7
100
AcDbLine
 10
4.422244094488188
 20
6.9251968503937
 30
0.0
 11
4.416338582677164
 21
6.926181102362204
 31
0.0
  0
LINE
  5
29C5
330
1E
100
AcDbEntity
  8
7
100
AcDbLine
 10
4.429133858267715
 20
6.9251968503937
 30
0.0
 11
4.422244094488188
 21
6.9251968503937
 31
0.0
  0
LINE
  5
29C6
330
1E
100
AcDbEntity
  8
7
100
AcDbLine
 10
4.659448818897637
 20
6.9251968503937
 30
0.0
 11
4.65255905511811
 21
6.9251968503937
 31
0.0
  0
LINE
  5
29C7
330
1E
100
AcDbEntity
  8
7
100
AcDbLine
 10
4.416338582677164
 20
7.011811023622047
 30
0.0
 11
4.666338582677164
 21
7.011811023622047
 31
0.0
  0
LINE
  5
29C8
330
1E
100
AcDbEntity
  8
7
100
AcDbLine
 10
4.919291338582676
 20
7.120078740157479
 30
0.0
 11
4.919291338582676
 21
6.949803149606299
 31
0.0
  0
LINE
  5
29C9
330
1E
100
AcDbEntity
  8
7
100
AcDbLine
 10
4.919291338582676
 20
7.120078740157479
 30
0.0
 11
4.915354330708661
 21
7.111220472440944
 31
0.0
  0
LINE
  5
29CA
330
1E
100
AcDbEntity
  8
7
100
AcDbLine
 10
4.915354330708661
 20
6.926181102362204
 30
0.0
 11
4.915354330708661
 21
7.111220472440944
 31
0.0
  0
LINE
  5
29CB
330
1E
100
AcDbEntity
  8
7
100
AcDbLine
 10
4.915354330708661
 20
6.926181102362204
 30
0.0
 11
4.917322834645668
 21
6.924212598425196
 31
0.0
  0
LINE
  5
29CC
330
1E
100
AcDbEntity
  8
7
100
AcDbLine
 10
4.917322834645668
 20
6.939960629921259
 30
0.0
 11
4.919291338582676
 21
6.949803149606299
 31
0.0
  0
LINE
  5
29CD
330
1E
100
AcDbEntity
  8
7
100
AcDbLine
 10
4.166338582677164
 20
7.111220472440944
 30
0.0
 11
4.166338582677164
 21
6.926181102362204
 31
0.0
  0
LINE
  5
29CE
330
1E
100
AcDbEntity
  8
7
100
AcDbLine
 10
4.166338582677164
 20
7.111220472440944
 30
0.0
 11
4.162401574803149
 21
7.120078740157479
 31
0.0
  0
LINE
  5
29CF
330
1E
100
AcDbEntity
  8
7
100
AcDbLine
 10
4.162401574803149
 20
7.120078740157479
 30
0.0
 11
4.162401574803149
 21
6.949803149606299
 31
0.0
  0
LINE
  5
29D0
330
1E
100
AcDbEntity
  8
7
100
AcDbLine
 10
4.164370078740157
 20
6.939960629921259
 30
0.0
 11
4.162401574803149
 21
6.949803149606299
 31
0.0
  0
LINE
  5
29D1
330
1E
100
AcDbEntity
  8
7
100
AcDbLine
 10
4.166338582677164
 20
6.926181102362204
 30
0.0
 11
4.164370078740157
 21
6.924212598425196
 31
0.0
  0
LINE
  5
29D2
330
1E
100
AcDbEntity
  8
7
100
AcDbLine
 10
4.166338582677164
 20
6.926181102362204
 30
0.0
 11
4.416338582677164
 21
6.926181102362204
 31
0.0
  0
LINE
  5
29DA
330
1E
100
AcDbEntity
  8
7
100
AcDbLine
 10
4.028543307086613
 20
6.913385826771652
 30
0.0
 11
4.023622047244094
 21
6.941929133858267
 31
0.0
  0
LINE
  5
29DB
330
1E
100
AcDbEntity
  8
7
100
AcDbLine
 10
4.127952755905511
 20
6.866141732283463
 30
0.0
 11
4.113188976377952
 21
6.851377952755905
 31
0.0
  0
LINE
  5
29DC
330
1E
100
AcDbEntity
  8
7
100
AcDbLine
 10
4.023622047244094
 20
6.941929133858267
 30
0.0
 11
4.038385826771652
 21
6.955708661417322
 31
0.0
  0
LINE
  5
29E5
330
1E
100
AcDbEntity
  8
7
100
AcDbLine
 10
5.043307086614173
 20
6.955708661417322
 30
0.0
 11
5.058070866141731
 21
6.941929133858267
 31
0.0
  0
LINE
  5
29E6
330
1E
100
AcDbEntity
  8
7
100
AcDbLine
 10
4.968503937007874
 20
6.851377952755905
 30
0.0
 11
4.953740157480314
 21
6.866141732283463
 31
0.0
  0
LINE
  5
29E7
330
1E
100
AcDbEntity
  8
7
100
AcDbLine
 10
4.969488188976377
 20
7.943897637795275
 30
0.0
 11
4.965551181102362
 21
7.939960629921259
 31
0.0
  0
LINE
  5
29E8
330
1E
100
AcDbEntity
  8
7
100
AcDbLine
 10
4.965551181102362
 20
7.364173228346455
 30
0.0
 11
4.965551181102362
 21
7.939960629921259
 31
0.0
  0
LINE
  5
29E9
330
1E
100
AcDbEntity
  8
7
100
AcDbLine
 10
4.969488188976377
 20
7.36023622047244
 30
0.0
 11
4.965551181102362
 21
7.364173228346455
 31
0.0
  0
LINE
  5
29EA
330
1E
100
AcDbEntity
  8
7
100
AcDbLine
 10
4.875984251968503
 20
7.364173228346455
 30
0.0
 11
4.965551181102362
 21
7.364173228346455
 31
0.0
  0
LINE
  5
29EB
330
1E
100
AcDbEntity
  8
7
100
AcDbLine
 10
4.935039370078739
 20
7.939960629921259
 30
0.0
 11
4.965551181102362
 21
7.939960629921259
 31
0.0
  0
LINE
  5
29EC
330
1E
100
AcDbEntity
  8
7
100
AcDbLine
 10
4.935039370078739
 20
8.233267716535433
 30
0.0
 11
4.935039370078739
 21
7.939960629921259
 31
0.0
  0
LINE
  5
29ED
330
1E
100
AcDbEntity
  8
7
100
AcDbLine
 10
4.875984251968503
 20
8.233267716535433
 30
0.0
 11
4.935039370078739
 21
8.233267716535433
 31
0.0
  0
LINE
  5
29EE
330
1E
100
AcDbEntity
  8
7
100
AcDbLine
 10
4.875984251968503
 20
8.452755905511811
 30
0.0
 11
4.875984251968503
 21
8.233267716535433
 31
0.0
  0
LINE
  5
29EF
330
1E
100
AcDbEntity
  8
7
100
AcDbLine
 10
4.720472440944881
 20
8.452755905511811
 30
0.0
 11
4.875984251968503
 21
8.452755905511811
 31
0.0
  0
LINE
  5
29F0
330
1E
100
AcDbEntity
  8
7
100
AcDbLine
 10
4.720472440944881
 20
8.452755905511811
 30
0.0
 11
4.720472440944881
 21
8.436023622047244
 31
0.0
  0
LINE
  5
29FD
330
1E
100
AcDbEntity
  8
7
100
AcDbLine
 10
4.361220472440944
 20
8.436023622047244
 30
0.0
 11
4.361220472440944
 21
8.452755905511811
 31
0.0
  0
LINE
  5
2A06
330
1E
100
AcDbEntity
  8
7
100
AcDbLine
 10
4.206692913385826
 20
7.364173228346455
 30
0.0
 11
4.117125984251968
 21
7.364173228346455
 31
0.0
  0
LINE
  5
2A07
330
1E
100
AcDbEntity
  8
7
100
AcDbLine
 10
4.206692913385826
 20
7.111220472440944
 30
0.0
 11
4.206692913385826
 21
7.364173228346455
 31
0.0
  0
LINE
  5
2A08
330
1E
100
AcDbEntity
  8
7
100
AcDbLine
 10
4.166338582677164
 20
7.111220472440944
 30
0.0
 11
4.206692913385826
 21
7.111220472440944
 31
0.0
  0
LINE
  5
2A09
330
1E
100
AcDbEntity
  8
7
100
AcDbLine
 10
4.666338582677164
 20
6.926181102362204
 30
0.0
 11
4.915354330708661
 21
6.926181102362204
 31
0.0
  0
LINE
  5
2A57
330
1E
100
AcDbEntity
  8
7
100
AcDbLine
 10
4.117125984251968
 20
7.939960629921259
 30
0.0
 11
4.112204724409448
 21
7.943897637795275
 31
0.0
  0
LINE
  5
2A58
330
1E
100
AcDbEntity
  8
7
100
AcDbLine
 10
4.112204724409448
 20
7.36023622047244
 30
0.0
 11
4.117125984251968
 21
7.364173228346455
 31
0.0
  0
LINE
  5
2A61
330
1E
100
AcDbEntity
  8
7
100
AcDbLine
 10
4.038385826771652
 20
8.412401574803149
 30
0.0
 11
4.032480314960629
 21
8.651574803149605
 31
0.0
  0
LINE
  5
2A62
330
1E
100
AcDbEntity
  8
7
100
AcDbLine
 10
4.112204724409448
 20
8.431102362204724
 30
0.0
 11
4.112204724409448
 21
8.412401574803149
 31
0.0
  0
LINE
  5
2A63
330
1E
100
AcDbEntity
  8
7
100
AcDbLine
 10
4.106299212598425
 20
8.64763779527559
 30
0.0
 11
4.112204724409448
 21
8.431102362204724
 31
0.0
  0
LINE
  5
2A6A
330
1E
100
AcDbEntity
  8
7
100
AcDbLine
 10
4.200787401574802
 20
8.743110236220472
 30
0.0
 11
4.193897637795275
 21
8.668307086614172
 31
0.0
  0
LINE
  5
2A6B
330
1E
100
AcDbEntity
  8
7
100
AcDbLine
 10
5.058070866141731
 20
8.656496062992125
 30
0.0
 11
5.058070866141731
 21
6.941929133858267
 31
0.0
  0
LINE
  5
2A6C
330
1E
100
AcDbEntity
  8
7
100
AcDbLine
 10
5.058070866141731
 20
8.656496062992125
 30
0.0
 11
5.049212598425196
 21
8.651574803149605
 31
0.0
  0
LINE
  5
2A6D
330
1E
100
AcDbEntity
  8
7
100
AcDbLine
 10
5.047244094488188
 20
8.239173228346455
 30
0.0
 11
5.043307086614173
 21
8.240157480314961
 31
0.0
  0
LINE
  5
2A6E
330
1E
100
AcDbEntity
  8
7
100
AcDbLine
 10
5.047244094488188
 20
7.989173228346455
 30
0.0
 11
5.047244094488188
 21
8.239173228346455
 31
0.0
  0
LINE
  5
2A6F
330
1E
100
AcDbEntity
  8
7
100
AcDbLine
 10
5.047244094488188
 20
7.989173228346455
 30
0.0
 11
5.043307086614173
 21
7.988188976377951
 31
0.0
  0
LINE
  5
2A70
330
1E
100
AcDbEntity
  8
7
100
AcDbLine
 10
4.961614173228346
 20
8.743110236220472
 30
0.0
 11
4.968503937007874
 21
8.746062992125983
 31
0.0
  0
LINE
  5
2A71
330
1E
100
AcDbEntity
  8
7
100
AcDbLine
 10
4.857283464566928
 20
8.746062992125983
 30
0.0
 11
4.968503937007874
 21
8.746062992125983
 31
0.0
  0
LINE
  5
2A72
330
1E
100
AcDbEntity
  8
7
100
AcDbLine
 10
4.857283464566928
 20
8.746062992125983
 30
0.0
 11
4.880905511811023
 21
8.743110236220472
 31
0.0
  0
LINE
  5
2A73
330
1E
100
AcDbEntity
  8
7
100
AcDbLine
 10
4.032480314960629
 20
8.651574803149605
 30
0.0
 11
4.023622047244094
 21
8.656496062992125
 31
0.0
  0
LINE
  5
2A74
330
1E
100
AcDbEntity
  8
7
100
AcDbLine
 10
4.023622047244094
 20
6.941929133858267
 30
0.0
 11
4.023622047244094
 21
8.656496062992125
 31
0.0
  0
LINE
  5
2A75
330
1E
100
AcDbEntity
  8
7
100
AcDbLine
 10
4.035433070866141
 20
7.989173228346455
 30
0.0
 11
4.038385826771652
 21
7.988188976377951
 31
0.0
  0
LINE
  5
2A7B
330
1E
100
AcDbEntity
  8
7
100
AcDbLine
 10
4.968503937007874
 20
6.851377952755905
 30
0.0
 11
4.113188976377952
 21
6.851377952755905
 31
0.0
  0
LINE
  5
2A7C
330
1E
100
AcDbEntity
  8
7
100
AcDbLine
 10
4.196850393700787
 20
7.120078740157479
 30
0.0
 11
4.162401574803149
 21
7.120078740157479
 31
0.0
  0
LINE
  5
2A7D
330
1E
100
AcDbEntity
  8
7
100
AcDbLine
 10
4.196850393700787
 20
7.35531496062992
 30
0.0
 11
4.196850393700787
 21
7.120078740157479
 31
0.0
  0
LINE
  5
2A7E
330
1E
100
AcDbEntity
  8
7
100
AcDbLine
 10
4.122047244094487
 20
7.35531496062992
 30
0.0
 11
4.196850393700787
 21
7.35531496062992
 31
0.0
  0
LINE
  5
2A7F
330
1E
100
AcDbEntity
  8
7
100
AcDbLine
 10
4.122047244094487
 20
6.970472440944881
 30
0.0
 11
4.122047244094487
 21
7.35531496062992
 31
0.0
  0
LINE
  5
2A8A
330
1E
100
AcDbEntity
  8
7
100
AcDbLine
 10
4.112204724409448
 20
7.166338582677164
 30
0.0
 11
4.119094488188975
 21
7.168307086614173
 31
0.0
  0
LINE
  5
2A8B
330
1E
100
AcDbEntity
  8
7
100
AcDbLine
 10
4.112204724409448
 20
6.960629921259842
 30
0.0
 11
4.122047244094487
 21
6.970472440944881
 31
0.0
  0
LINE
  5
2A8C
330
1E
100
AcDbEntity
  8
7
100
AcDbLine
 10
4.112204724409448
 20
7.36023622047244
 30
0.0
 11
4.122047244094487
 21
7.35531496062992
 31
0.0
  0
LINE
  5
2A8D
330
1E
100
AcDbEntity
  8
7
100
AcDbLine
 10
4.119094488188975
 20
7.307086614173227
 30
0.0
 11
4.112204724409448
 21
7.309055118110235
 31
0.0
  0
LINE
  5
2A8E
330
1E
100
AcDbEntity
  8
7
100
AcDbLine
 10
4.119094488188975
 20
7.168307086614173
 30
0.0
 11
4.119094488188975
 21
7.307086614173227
 31
0.0
  0
LINE
  5
2A96
330
1E
100
AcDbEntity
  8
7
100
AcDbLine
 10
4.919291338582676
 20
6.949803149606299
 30
0.0
 11
4.939960629921259
 21
6.949803149606299
 31
0.0
  0
LINE
  5
2A9D
330
1E
100
AcDbEntity
  8
7
100
AcDbLine
 10
4.963582677165353
 20
7.168307086614173
 30
0.0
 11
4.969488188976377
 21
7.166338582677164
 31
0.0
  0
LINE
  5
2A9E
330
1E
100
AcDbEntity
  8
7
100
AcDbLine
 10
4.963582677165353
 20
7.168307086614173
 30
0.0
 11
4.963582677165353
 21
7.307086614173227
 31
0.0
  0
LINE
  5
2A9F
330
1E
100
AcDbEntity
  8
7
100
AcDbLine
 10
4.969488188976377
 20
7.309055118110235
 30
0.0
 11
4.963582677165353
 21
7.307086614173227
 31
0.0
  0
LINE
  5
2AA0
330
1E
100
AcDbEntity
  8
7
100
AcDbLine
 10
4.969488188976377
 20
7.36023622047244
 30
0.0
 11
4.959645669291337
 21
7.35531496062992
 31
0.0
  0
LINE
  5
2AA1
330
1E
100
AcDbEntity
  8
7
100
AcDbLine
 10
4.969488188976377
 20
6.960629921259842
 30
0.0
 11
4.959645669291337
 21
6.970472440944881
 31
0.0
  0
LINE
  5
2AA2
330
1E
100
AcDbEntity
  8
7
100
AcDbLine
 10
4.917322834645668
 20
8.482283464566929
 30
0.0
 11
4.917322834645668
 21
8.664370078740157
 31
0.0
  0
LINE
  5
2AA3
330
1E
100
AcDbEntity
  8
7
100
AcDbLine
 10
4.919291338582676
 20
8.477362204724409
 30
0.0
 11
4.917322834645668
 21
8.482283464566929
 31
0.0
  0
LINE
  5
2AA4
330
1E
100
AcDbEntity
  8
7
100
AcDbLine
 10
4.919291338582676
 20
8.477362204724409
 30
0.0
 11
4.919291338582676
 21
8.659448818897637
 31
0.0
  0
LINE
  5
2AA5
330
1E
100
AcDbEntity
  8
7
100
AcDbLine
 10
4.917322834645668
 20
8.664370078740157
 30
0.0
 11
4.919291338582676
 21
8.659448818897637
 31
0.0
  0
LINE
  5
2AA6
330
1E
100
AcDbEntity
  8
7
100
AcDbLine
 10
4.959645669291337
 20
8.639763779527559
 30
0.0
 11
4.959645669291337
 21
8.242125984251968
 31
0.0
  0
LINE
  5
2AAC
330
1E
100
AcDbEntity
  8
7
100
AcDbLine
 10
4.919291338582676
 20
8.659448818897637
 30
0.0
 11
4.939960629921259
 21
8.659448818897637
 31
0.0
  0
LINE
  5
2AAD
330
1E
100
AcDbEntity
  8
7
100
AcDbLine
 10
4.884842519685038
 20
8.477362204724409
 30
0.0
 11
4.919291338582676
 21
8.477362204724409
 31
0.0
  0
LINE
  5
2AAE
330
1E
100
AcDbEntity
  8
7
100
AcDbLine
 10
4.884842519685038
 20
8.242125984251968
 30
0.0
 11
4.884842519685038
 21
8.477362204724409
 31
0.0
  0
LINE
  5
2AAF
330
1E
100
AcDbEntity
  8
7
100
AcDbLine
 10
4.959645669291337
 20
8.242125984251968
 30
0.0
 11
4.884842519685038
 21
8.242125984251968
 31
0.0
  0
LINE
  5
2AB0
330
1E
100
AcDbEntity
  8
7
100
AcDbLine
 10
4.939960629921259
 20
8.659448818897637
 30
0.0
 11
4.955708661417322
 21
8.668307086614172
 31
0.0
  0
LINE
  5
2AB1
330
1E
100
AcDbEntity
  8
7
100
AcDbLine
 10
4.857283464566928
 20
8.672244094488188
 30
0.0
 11
4.888779527559054
 21
8.668307086614172
 31
0.0
  0
LINE
  5
2AB2
330
1E
100
AcDbEntity
  8
7
100
AcDbLine
 10
4.717519685039369
 20
8.672244094488188
 30
0.0
 11
4.857283464566928
 21
8.672244094488188
 31
0.0
  0
LINE
  5
2AB3
330
1E
100
AcDbEntity
  8
7
100
AcDbLine
 10
4.724409448818897
 20
8.664370078740157
 30
0.0
 11
4.717519685039369
 21
8.672244094488188
 31
0.0
  0
LINE
  5
2AB4
330
1E
100
AcDbEntity
  8
7
100
AcDbLine
 10
4.724409448818897
 20
8.664370078740157
 30
0.0
 11
4.917322834645668
 21
8.664370078740157
 31
0.0
  0
LINE
  5
2AB5
330
1E
100
AcDbEntity
  8
7
100
AcDbLine
 10
4.9753937007874
 20
8.64763779527559
 30
0.0
 11
4.959645669291337
 21
8.639763779527559
 31
0.0
  0
LINE
  5
2AB6
330
1E
100
AcDbEntity
  8
7
100
AcDbLine
 10
4.969488188976377
 20
8.237204724409448
 30
0.0
 11
4.959645669291337
 21
8.242125984251968
 31
0.0
  0
LINE
  5
2AB7
330
1E
100
AcDbEntity
  8
7
100
AcDbLine
 10
4.963582677165353
 20
8.290354330708661
 30
0.0
 11
4.969488188976377
 21
8.288385826771653
 31
0.0
  0
LINE
  5
2AB8
330
1E
100
AcDbEntity
  8
7
100
AcDbLine
 10
4.963582677165353
 20
8.429133858267716
 30
0.0
 11
4.963582677165353
 21
8.290354330708661
 31
0.0
  0
LINE
  5
2AB9
330
1E
100
AcDbEntity
  8
7
100
AcDbLine
 10
4.970472440944881
 20
8.431102362204724
 30
0.0
 11
4.963582677165353
 21
8.429133858267716
 31
0.0
  0
LINE
  5
2ABA
330
1E
100
AcDbEntity
  8
7
100
AcDbLine
 10
4.162401574803149
 20
8.477362204724409
 30
0.0
 11
4.162401574803149
 21
8.659448818897637
 31
0.0
  0
LINE
  5
2ABB
330
1E
100
AcDbEntity
  8
7
100
AcDbLine
 10
4.164370078740157
 20
8.482283464566929
 30
0.0
 11
4.162401574803149
 21
8.477362204724409
 31
0.0
  0
LINE
  5
2AC5
330
1E
100
AcDbEntity
  8
7
100
AcDbLine
 10
4.122047244094487
 20
8.639763779527559
 30
0.0
 11
4.106299212598425
 21
8.64763779527559
 31
0.0
  0
LINE
  5
2AC6
330
1E
100
AcDbEntity
  8
7
100
AcDbLine
 10
4.119094488188975
 20
8.429133858267716
 30
0.0
 11
4.112204724409448
 21
8.431102362204724
 31
0.0
  0
LINE
  5
2AC7
330
1E
100
AcDbEntity
  8
7
100
AcDbLine
 10
4.119094488188975
 20
8.429133858267716
 30
0.0
 11
4.119094488188975
 21
8.290354330708661
 31
0.0
  0
LINE
  5
2AC8
330
1E
100
AcDbEntity
  8
7
100
AcDbLine
 10
4.112204724409448
 20
8.288385826771653
 30
0.0
 11
4.119094488188975
 21
8.290354330708661
 31
0.0
  0
LINE
  5
2AC9
330
1E
100
AcDbEntity
  8
7
100
AcDbLine
 10
4.112204724409448
 20
8.237204724409448
 30
0.0
 11
4.122047244094487
 21
8.242125984251968
 31
0.0
  0
LINE
  5
2ACA
330
1E
100
AcDbEntity
  8
7
100
AcDbLine
 10
4.206692913385826
 20
7.111220472440944
 30
0.0
 11
4.196850393700787
 21
7.120078740157479
 31
0.0
  0
LINE
  5
2ACB
330
1E
100
AcDbEntity
  8
7
100
AcDbLine
 10
4.206692913385826
 20
7.364173228346455
 30
0.0
 11
4.196850393700787
 21
7.35531496062992
 31
0.0
  0
LINE
  5
2ACC
330
1E
100
AcDbEntity
  8
7
100
AcDbLine
 10
4.875984251968503
 20
7.111220472440944
 30
0.0
 11
4.884842519685038
 21
7.120078740157479
 31
0.0
  0
LINE
  5
2ACD
330
1E
100
AcDbEntity
  8
7
100
AcDbLine
 10
4.875984251968503
 20
7.364173228346455
 30
0.0
 11
4.884842519685038
 21
7.35531496062992
 31
0.0
  0
LINE
  5
2ACE
330
1E
100
AcDbEntity
  8
7
100
AcDbLine
 10
4.146653543307086
 20
8.233267716535433
 30
0.0
 11
4.14271653543307
 21
8.237204724409448
 31
0.0
  0
LINE
  5
2ACF
330
1E
100
AcDbEntity
  8
7
100
AcDbLine
 10
4.206692913385826
 20
8.233267716535433
 30
0.0
 11
4.196850393700787
 21
8.242125984251968
 31
0.0
  0
LINE
  5
2AD0
330
1E
100
AcDbEntity
  8
7
100
AcDbLine
 10
4.201771653543306
 20
8.482283464566929
 30
0.0
 11
4.196850393700787
 21
8.477362204724409
 31
0.0
  0
LINE
  5
2AD1
330
1E
100
AcDbEntity
  8
7
100
AcDbLine
 10
4.875984251968503
 20
8.233267716535433
 30
0.0
 11
4.884842519685038
 21
8.242125984251968
 31
0.0
  0
LINE
  5
2AD2
330
1E
100
AcDbEntity
  8
7
100
AcDbLine
 10
4.939960629921259
 20
8.237204724409448
 30
0.0
 11
4.935039370078739
 21
8.233267716535433
 31
0.0
  0
LINE
  5
2AD3
330
1E
100
AcDbEntity
  8
7
100
AcDbLine
 10
4.879921259842519
 20
8.482283464566929
 30
0.0
 11
4.917322834645668
 21
8.482283464566929
 31
0.0
  0
LINE
  5
2AD4
330
1E
100
AcDbEntity
  8
7
100
AcDbLine
 10
4.879921259842519
 20
8.482283464566929
 30
0.0
 11
4.884842519685038
 21
8.477362204724409
 31
0.0
  0
LINE
  5
2AD5
330
1E
100
AcDbEntity
  8
7
100
AcDbLine
 10
4.879921259842519
 20
8.457677165354329
 30
0.0
 11
4.879921259842519
 21
8.482283464566929
 31
0.0
  0
LINE
  5
2AD6
330
1E
100
AcDbEntity
  8
7
100
AcDbLine
 10
4.875984251968503
 20
8.452755905511811
 30
0.0
 11
4.879921259842519
 21
8.457677165354329
 31
0.0
  0
LINE
  5
2AD7
330
1E
100
AcDbEntity
  8
7
100
AcDbLine
 10
4.2253937007874
 20
8.672244094488188
 30
0.0
 11
4.2253937007874
 21
8.746062992125983
 31
0.0
  0
LINE
  5
2AD8
330
1E
100
AcDbEntity
  8
7
100
AcDbLine
 10
4.857283464566928
 20
8.746062992125983
 30
0.0
 11
4.857283464566928
 21
8.672244094488188
 31
0.0
  0
LINE
  5
2AD9
330
1E
100
AcDbEntity
  8
7
100
AcDbLine
 10
4.724409448818897
 20
8.457677165354329
 30
0.0
 11
4.724409448818897
 21
8.664370078740157
 31
0.0
  0
LINE
  5
2ADA
330
1E
100
AcDbEntity
  8
7
100
AcDbLine
 10
4.879921259842519
 20
8.457677165354329
 30
0.0
 11
4.724409448818897
 21
8.457677165354329
 31
0.0
  0
LINE
  5
2ADB
330
1E
100
AcDbEntity
  8
7
100
AcDbLine
 10
4.720472440944881
 20
8.452755905511811
 30
0.0
 11
4.724409448818897
 21
8.457677165354329
 31
0.0
  0
LINE
  5
2ADC
330
1E
100
AcDbEntity
  8
7
100
AcDbLine
 10
4.364173228346456
 20
8.446850393700787
 30
0.0
 11
4.364173228346456
 21
8.672244094488188
 31
0.0
  0
LINE
  5
2ADD
330
1E
100
AcDbEntity
  8
7
100
AcDbLine
 10
4.717519685039369
 20
8.672244094488188
 30
0.0
 11
4.717519685039369
 21
8.446850393700787
 31
0.0
  0
LINE
  5
2ADE
330
1E
100
AcDbEntity
  8
7
100
AcDbLine
 10
4.098425196850393
 20
7.989173228346455
 30
0.0
 11
4.099409448818897
 21
7.988188976377951
 31
0.0
  0
LINE
  5
2ADF
330
1E
100
AcDbEntity
  8
7
100
AcDbLine
 10
4.098425196850393
 20
7.989173228346455
 30
0.0
 11
4.035433070866141
 21
7.989173228346455
 31
0.0
  0
LINE
  5
2AE0
330
1E
100
AcDbEntity
  8
7
100
AcDbLine
 10
4.098425196850393
 20
8.239173228346455
 30
0.0
 11
4.099409448818897
 21
8.240157480314961
 31
0.0
  0
LINE
  5
2AE1
330
1E
100
AcDbEntity
  8
7
100
AcDbLine
 10
4.098425196850393
 20
8.239173228346455
 30
0.0
 11
4.098425196850393
 21
7.989173228346455
 31
0.0
  0
LINE
  5
2AE2
330
1E
100
AcDbEntity
  8
7
100
AcDbLine
 10
4.035433070866141
 20
8.239173228346455
 30
0.0
 11
4.098425196850393
 21
8.239173228346455
 31
0.0
  0
LINE
  5
2AE3
330
1E
100
AcDbEntity
  8
7
100
AcDbLine
 10
4.983267716535432
 20
7.989173228346455
 30
0.0
 11
5.047244094488188
 21
7.989173228346455
 31
0.0
  0
LINE
  5
2AE4
330
1E
100
AcDbEntity
  8
7
100
AcDbLine
 10
4.983267716535432
 20
7.989173228346455
 30
0.0
 11
4.982283464566928
 21
7.988188976377951
 31
0.0
  0
LINE
  5
2AE5
330
1E
100
AcDbEntity
  8
7
100
AcDbLine
 10
4.983267716535432
 20
8.239173228346455
 30
0.0
 11
4.983267716535432
 21
7.989173228346455
 31
0.0
  0
LINE
  5
2AE6
330
1E
100
AcDbEntity
  8
7
100
AcDbLine
 10
4.983267716535432
 20
8.239173228346455
 30
0.0
 11
4.982283464566928
 21
8.240157480314961
 31
0.0
  0
LINE
  5
2AE7
330
1E
100
AcDbEntity
  8
7
100
AcDbLine
 10
5.047244094488188
 20
8.239173228346455
 30
0.0
 11
4.983267716535432
 21
8.239173228346455
 31
0.0
  0
LINE
  5
2B66
330
1E
100
AcDbEntity
  8
7
100
AcDbLine
 10
4.146653543307086
 20
7.939960629921259
 30
0.0
 11
4.14271653543307
 21
7.943897637795275
 31
0.0
  0
LINE
  5
2B67
330
1E
100
AcDbEntity
  8
7
100
AcDbLine
 10
4.935039370078739
 20
7.939960629921259
 30
0.0
 11
4.939960629921259
 21
7.943897637795275
 31
0.0
  0
LINE
  5
2B6B
330
1E
100
AcDbEntity
  8
7
100
AcDbLine
 10
6.074887820381043
 20
8.832373058175619
 30
0.0
 11
6.080793332192065
 21
8.593199829829163
 31
0.0
  0
LINE
  5
2B6D
330
1E
100
AcDbEntity
  8
7
100
AcDbLine
 10
6.247131914869232
 20
8.923908491246486
 30
0.0
 11
6.162486245577895
 21
8.923908491246486
 31
0.0
  0
LINE
  5
2B6E
330
1E
100
AcDbEntity
  8
7
100
AcDbLine
 10
7.004021678648761
 20
8.923908491246486
 30
0.0
 11
6.919376009357421
 21
8.923908491246486
 31
0.0
  0
LINE
  5
2B70
330
1E
100
AcDbEntity
  8
7
100
AcDbLine
 10
7.085714592034587
 20
8.593199829829163
 30
0.0
 11
7.09162010384561
 21
8.832373058175619
 31
0.0
  0
LINE
  5
2B74
330
1E
100
AcDbEntity
  8
7
100
AcDbLine
 10
6.271738214081832
 20
8.926861247151997
 30
0.0
 11
6.247131914869232
 21
8.923908491246486
 31
0.0
  0
LINE
  5
2B75
330
1E
100
AcDbEntity
  8
7
100
AcDbLine
 10
6.895753962113328
 20
8.926861247151997
 30
0.0
 11
6.919376009357421
 21
8.923908491246486
 31
0.0
  0
LINE
  5
2B76
330
1E
100
AcDbEntity
  8
7
100
AcDbLine
 10
6.271738214081832
 20
8.926861247151997
 30
0.0
 11
6.895753962113328
 21
8.926861247151997
 31
0.0
  0
LINE
  5
2B77
330
1E
100
AcDbEntity
  8
7
100
AcDbLine
 10
6.170360261325924
 20
7.046939987309478
 30
0.0
 11
6.263864198333799
 21
7.046939987309478
 31
0.0
  0
LINE
  5
2B7A
330
1E
100
AcDbEntity
  8
7
100
AcDbLine
 10
6.080793332192065
 20
8.593199829829163
 30
0.0
 11
6.080793332192065
 21
7.136506916443337
 31
0.0
  0
LINE
  5
2B7B
330
1E
100
AcDbEntity
  8
7
100
AcDbLine
 10
7.085714592034587
 20
7.136506916443337
 30
0.0
 11
7.085714592034587
 21
8.593199829829163
 31
0.0
  0
LINE
  5
2B7F
330
1E
100
AcDbEntity
  8
7
100
AcDbLine
 10
6.274690969987343
 20
7.089262821955147
 30
0.0
 11
6.263864198333799
 21
7.046939987309478
 31
0.0
  0
LINE
  5
2B80
330
1E
100
AcDbEntity
  8
7
100
AcDbLine
 10
6.892801206207813
 20
7.089262821955147
 30
0.0
 11
6.274690969987343
 21
7.089262821955147
 31
0.0
  0
LINE
  5
2B81
330
1E
100
AcDbEntity
  8
7
100
AcDbLine
 10
6.902643725892854
 20
7.046939987309478
 30
0.0
 11
6.892801206207813
 21
7.089262821955147
 31
0.0
  0
LINE
  5
2B84
330
1E
100
AcDbEntity
  8
7
100
AcDbLine
 10
6.080793332192065
 20
7.136506916443337
 30
0.0
 11
6.124100418806239
 21
7.17981400305751
 31
0.0
  0
LINE
  5
2B87
330
1E
100
AcDbEntity
  8
7
100
AcDbLine
 10
7.09162010384561
 20
8.832373058175619
 30
0.0
 11
7.055202781010965
 21
8.814656522742549
 31
0.0
  0
LINE
  5
2B89
330
1E
100
AcDbEntity
  8
7
100
AcDbLine
 10
6.999100418806239
 20
7.17981400305751
 30
0.0
 11
6.999100418806239
 21
7.838278569986641
 31
0.0
  0
LINE
  5
2B92
330
1E
100
AcDbEntity
  8
7
100
AcDbLine
 10
6.972525615656635
 20
7.093199829829163
 30
0.0
 11
6.952840576286554
 21
7.090247073923652
 31
0.0
  0
LINE
  5
2B98
330
1E
100
AcDbEntity
  8
7
100
AcDbLine
 10
6.130990182585769
 20
7.838278569986641
 30
0.0
 11
6.124100418806239
 21
7.838278569986641
 31
0.0
  0
LINE
  5
2BA1
330
1E
100
AcDbEntity
  8
7
100
AcDbLine
 10
6.933155536916476
 20
5.832373058175619
 30
0.0
 11
6.933155536916476
 21
5.843199829829163
 31
0.0
  0
LINE
  5
2BA2
330
1E
100
AcDbEntity
  8
7
100
AcDbLine
 10
6.233352387310176
 20
5.843199829829163
 30
0.0
 11
6.233352387310176
 21
5.832373058175619
 31
0.0
  0
LINE
  5
2BA3
330
1E
100
AcDbEntity
  8
7
100
AcDbLine
 10
6.16642325345191
 20
5.824499042427589
 30
0.0
 11
6.162486245577895
 21
5.823514790459086
 31
0.0
  0
LINE
  5
2BA8
330
1E
100
AcDbEntity
  8
7
100
AcDbLine
 10
6.507958686522776
 20
4.948514790459086
 30
0.0
 11
6.507958686522776
 21
5.297924239277982
 31
0.0
  0
LINE
  5
2BA9
330
1E
100
AcDbEntity
  8
7
100
AcDbLine
 10
6.65854923770388
 20
4.948514790459086
 30
0.0
 11
6.507958686522776
 21
4.948514790459086
 31
0.0
  0
LINE
  5
2BAB
330
1E
100
AcDbEntity
  8
7
100
AcDbLine
 10
6.522722466050336
 20
5.312688018805541
 30
0.0
 11
6.643785458176317
 21
5.312688018805541
 31
0.0
  0
LINE
  5
2BAE
330
1E
100
AcDbEntity
  8
7
100
AcDbLine
 10
6.362289395184191
 20
5.490837625104754
 30
0.0
 11
6.349494119593643
 21
4.948514790459086
 31
0.0
  0
LINE
  5
2BAF
330
1E
100
AcDbEntity
  8
7
100
AcDbLine
 10
6.345557111719628
 20
5.488869121167745
 30
0.0
 11
6.362289395184191
 21
5.490837625104754
 31
0.0
  0
LINE
  5
2BB0
330
1E
100
AcDbEntity
  8
7
100
AcDbLine
 10
6.331777584160569
 20
4.948514790459086
 30
0.0
 11
6.345557111719628
 21
5.488869121167745
 31
0.0
  0
LINE
  5
2BB1
330
1E
100
AcDbEntity
  8
7
100
AcDbLine
 10
6.331777584160569
 20
4.948514790459086
 30
0.0
 11
6.349494119593643
 21
4.948514790459086
 31
0.0
  0
LINE
  5
2BB5
330
1E
100
AcDbEntity
  8
7
100
AcDbLine
 10
6.433155536916476
 20
5.55973526290003
 30
0.0
 11
6.733352387310176
 21
5.55973526290003
 31
0.0
  0
LINE
  5
2BB6
330
1E
100
AcDbEntity
  8
7
100
AcDbLine
 10
6.733352387310176
 20
5.574499042427589
 30
0.0
 11
6.433155536916476
 21
5.574499042427589
 31
0.0
  0
LINE
  5
2BB8
330
1E
100
AcDbEntity
  8
7
100
AcDbLine
 10
6.074887820381043
 20
5.071546286522076
 30
0.0
 11
6.080793332192065
 21
5.159144711718926
 31
0.0
  0
LINE
  5
2BBA
330
1E
100
AcDbEntity
  8
7
100
AcDbLine
 10
6.247131914869232
 20
5.038081719592943
 30
0.0
 11
6.162486245577895
 21
5.038081719592943
 31
0.0
  0
LINE
  5
2BBD
330
1E
100
AcDbEntity
  8
7
100
AcDbLine
 10
7.004021678648761
 20
5.038081719592943
 30
0.0
 11
6.919376009357421
 21
5.038081719592943
 31
0.0
  0
LINE
  5
2BBF
330
1E
100
AcDbEntity
  8
7
100
AcDbLine
 10
7.085714592034587
 20
5.159144711718926
 30
0.0
 11
7.09162010384561
 21
5.071546286522076
 31
0.0
  0
LINE
  5
2BC1
330
1E
100
AcDbEntity
  8
7
100
AcDbLine
 10
6.271738214081832
 20
4.948514790459086
 30
0.0
 11
6.240242151089706
 21
5.064656522742549
 31
0.0
  0
LINE
  5
2BC2
330
1E
100
AcDbEntity
  8
7
100
AcDbLine
 10
6.895753962113328
 20
4.948514790459086
 30
0.0
 11
6.926265773136947
 21
5.064656522742549
 31
0.0
  0
LINE
  5
2BC3
330
1E
100
AcDbEntity
  8
7
100
AcDbLine
 10
6.452840576286554
 20
4.948514790459086
 30
0.0
 11
6.507958686522776
 21
4.948514790459086
 31
0.0
  0
LINE
  5
2BC5
330
1E
100
AcDbEntity
  8
7
100
AcDbLine
 10
6.271738214081832
 20
4.948514790459086
 30
0.0
 11
6.331777584160569
 21
4.948514790459086
 31
0.0
  0
LINE
  5
2BC6
330
1E
100
AcDbEntity
  8
7
100
AcDbLine
 10
6.834730340066084
 20
4.948514790459086
 30
0.0
 11
6.895753962113328
 21
4.948514790459086
 31
0.0
  0
LINE
  5
2BC8
330
1E
100
AcDbEntity
  8
7
100
AcDbLine
 10
6.65854923770388
 20
4.948514790459086
 30
0.0
 11
6.714651599908602
 21
4.948514790459086
 31
0.0
  0
LINE
  5
2BC9
330
1E
100
AcDbEntity
  8
7
100
AcDbLine
 10
6.170360261325924
 20
5.159144711718926
 30
0.0
 11
6.263864198333799
 21
5.159144711718926
 31
0.0
  0
LINE
  5
2BCD
330
1E
100
AcDbEntity
  8
7
100
AcDbLine
 10
6.274690969987343
 20
5.761506916443337
 30
0.0
 11
6.263864198333799
 21
5.159144711718926
 31
0.0
  0
LINE
  5
2BCE
330
1E
100
AcDbEntity
  8
7
100
AcDbLine
 10
6.892801206207813
 20
5.761506916443337
 30
0.0
 11
6.274690969987343
 21
5.761506916443337
 31
0.0
  0
LINE
  5
2BCF
330
1E
100
AcDbEntity
  8
7
100
AcDbLine
 10
6.902643725892854
 20
5.159144711718926
 30
0.0
 11
6.892801206207813
 21
5.761506916443337
 31
0.0
  0
LINE
  5
2BD0
330
1E
100
AcDbEntity
  8
7
100
AcDbLine
 10
6.080793332192065
 20
5.159144711718926
 30
0.0
 11
6.124100418806239
 21
5.779223451876408
 31
0.0
  0
LINE
  5
2BD1
330
1E
100
AcDbEntity
  8
7
100
AcDbLine
 10
7.042407505420413
 20
5.779223451876408
 30
0.0
 11
7.085714592034587
 21
5.159144711718926
 31
0.0
  0
LINE
  5
2BD4
330
1E
100
AcDbEntity
  8
7
100
AcDbLine
 10
7.002053174711754
 20
5.064656522742549
 30
0.0
 11
6.996147662900728
 21
5.159144711718926
 31
0.0
  0
LINE
  5
2BD5
330
1E
100
AcDbEntity
  8
7
100
AcDbLine
 10
6.895753962113328
 20
5.574499042427589
 30
0.0
 11
6.871147662900728
 21
5.5774517983331
 31
0.0
  0
LINE
  5
2BD7
330
1E
100
AcDbEntity
  8
7
100
AcDbLine
 10
6.170360261325924
 20
5.159144711718926
 30
0.0
 11
6.164454749514902
 21
5.064656522742549
 31
0.0
  0
LINE
  5
2BD8
330
1E
100
AcDbEntity
  8
7
100
AcDbLine
 10
6.248116166837736
 20
5.845168333766171
 30
0.0
 11
6.248116166837736
 21
5.835325814081132
 31
0.0
  0
LINE
  5
2BD9
330
1E
100
AcDbEntity
  8
7
100
AcDbLine
 10
6.918391757388917
 20
5.835325814081132
 30
0.0
 11
6.918391757388917
 21
5.845168333766171
 31
0.0
  0
LINE
  5
2BDA
330
1E
100
AcDbEntity
  8
7
100
AcDbLine
 10
6.248116166837736
 20
5.845168333766171
 30
0.0
 11
6.414454749514902
 21
5.858947861325226
 31
0.0
  0
LINE
  5
2BE0
330
1E
100
AcDbEntity
  8
7
100
AcDbLine
 10
6.732368135341673
 20
4.948514790459086
 30
0.0
 11
6.732368135341673
 21
5.297924239277982
 31
0.0
  0
LINE
  5
2BE1
330
1E
100
AcDbEntity
  8
7
100
AcDbLine
 10
6.452840576286554
 20
4.948514790459086
 30
0.0
 11
6.452840576286554
 21
5.297924239277982
 31
0.0
  0
LINE
  5
2BE2
330
1E
100
AcDbEntity
  8
7
100
AcDbLine
 10
6.507958686522776
 20
5.297924239277982
 30
0.0
 11
6.452840576286554
 21
5.297924239277982
 31
0.0
  0
LINE
  5
2BE3
330
1E
100
AcDbEntity
  8
7
100
AcDbLine
 10
6.714651599908602
 20
4.948514790459086
 30
0.0
 11
6.714651599908602
 21
5.297924239277982
 31
0.0
  0
LINE
  5
2BE4
330
1E
100
AcDbEntity
  8
7
100
AcDbLine
 10
6.65854923770388
 20
5.297924239277982
 30
0.0
 11
6.714651599908602
 21
5.297924239277982
 31
0.0
  0
LINE
  5
2BE5
330
1E
100
AcDbEntity
  8
7
100
AcDbLine
 10
6.43413978888498
 20
5.297924239277982
 30
0.0
 11
6.452840576286554
 21
5.297924239277982
 31
0.0
  0
LINE
  5
2BE6
330
1E
100
AcDbEntity
  8
7
100
AcDbLine
 10
6.522722466050336
 20
5.312688018805541
 30
0.0
 11
6.522722466050336
 21
5.369774632978771
 31
0.0
  0
LINE
  5
2BE9
330
1E
100
AcDbEntity
  8
7
100
AcDbLine
 10
6.643785458176317
 20
5.386506916443337
 30
0.0
 11
6.643785458176317
 21
5.369774632978771
 31
0.0
  0
LINE
  5
2BEA
330
1E
100
AcDbEntity
  8
7
100
AcDbLine
 10
6.643785458176317
 20
5.312688018805541
 30
0.0
 11
6.643785458176317
 21
5.369774632978771
 31
0.0
  0
LINE
  5
2BEC
330
1E
100
AcDbEntity
  8
7
100
AcDbLine
 10
6.732368135341673
 20
5.297924239277982
 30
0.0
 11
6.714651599908602
 21
5.297924239277982
 31
0.0
  0
LINE
  5
3433
330
1E
100
AcDbEntity
  8
7
100
AcDbLine
 10
6.95874608809758
 20
5.830404554238612
 30
0.0
 11
6.957761836129073
 21
5.824499042427589
 31
0.0
  0
LINE
  5
3434
330
1E
100
AcDbEntity
  8
7
100
AcDbLine
 10
6.957761836129073
 20
5.824499042427589
 30
0.0
 11
6.955793332192065
 21
5.807766758963023
 31
0.0
  0
LINE
  5
3435
330
1E
100
AcDbEntity
  8
7
100
AcDbLine
 10
6.955793332192065
 20
5.807766758963023
 30
0.0
 11
6.952840576286554
 21
5.784144711718926
 31
0.0
  0
LINE
  5
3436
330
1E
100
AcDbEntity
  8
7
100
AcDbLine
 10
6.207761836129076
 20
5.830404554238612
 30
0.0
 11
6.20874608809758
 21
5.824499042427589
 31
0.0
  0
LINE
  5
3437
330
1E
100
AcDbEntity
  8
7
100
AcDbLine
 10
6.20874608809758
 20
5.824499042427589
 30
0.0
 11
6.211698844003091
 21
5.807766758963023
 31
0.0
  0
LINE
  5
3438
330
1E
100
AcDbEntity
  8
7
100
AcDbLine
 10
6.211698844003091
 20
5.807766758963023
 30
0.0
 11
6.214651599908602
 21
5.784144711718926
 31
0.0
  0
LINE
  5
3439
330
1E
100
AcDbEntity
  8
7
100
AcDbLine
 10
6.214651599908602
 20
5.784144711718926
 30
0.0
 11
6.18413978888498
 21
5.783160459750423
 31
0.0
  0
LINE
  5
343A
330
1E
100
AcDbEntity
  8
7
100
AcDbLine
 10
6.18413978888498
 20
5.783160459750423
 30
0.0
 11
6.157564985735376
 21
5.782176207781919
 31
0.0
  0
LINE
  5
343B
330
1E
100
AcDbEntity
  8
7
100
AcDbLine
 10
6.157564985735376
 20
5.782176207781919
 30
0.0
 11
6.137879946365295
 21
5.781191955813415
 31
0.0
  0
LINE
  5
343C
330
1E
100
AcDbEntity
  8
7
100
AcDbLine
 10
6.137879946365295
 20
5.781191955813415
 30
0.0
 11
6.12606892274325
 21
5.779223451876408
 31
0.0
  0
LINE
  5
343D
330
1E
100
AcDbEntity
  8
7
100
AcDbLine
 10
6.12606892274325
 20
5.779223451876408
 30
0.0
 11
6.124100418806239
 21
5.779223451876408
 31
0.0
  0
LINE
  5
343E
330
1E
100
AcDbEntity
  8
7
100
AcDbLine
 10
7.042407505420413
 20
5.779223451876408
 30
0.0
 11
7.037486245577895
 21
5.780207703844912
 31
0.0
  0
LINE
  5
343F
330
1E
100
AcDbEntity
  8
7
100
AcDbLine
 10
7.037486245577895
 20
5.780207703844912
 30
0.0
 11
7.022722466050336
 21
5.781191955813415
 31
0.0
  0
LINE
  5
3440
330
1E
100
AcDbEntity
  8
7
100
AcDbLine
 10
7.022722466050336
 20
5.781191955813415
 30
0.0
 11
7.000084670774743
 21
5.783160459750423
 31
0.0
  0
LINE
  5
3441
330
1E
100
AcDbEntity
  8
7
100
AcDbLine
 10
7.000084670774743
 20
5.783160459750423
 30
0.0
 11
6.972525615656635
 21
5.784144711718926
 31
0.0
  0
LINE
  5
3442
330
1E
100
AcDbEntity
  8
7
100
AcDbLine
 10
6.972525615656635
 20
5.784144711718926
 30
0.0
 11
6.952840576286554
 21
5.784144711718926
 31
0.0
  0
LINE
  5
3443
330
1E
100
AcDbEntity
  8
7
100
AcDbLine
 10
6.714651599908602
 20
5.297924239277982
 30
0.0
 11
6.70874608809758
 21
5.325483294396093
 31
0.0
  0
LINE
  5
3444
330
1E
100
AcDbEntity
  8
7
100
AcDbLine
 10
6.70874608809758
 20
5.325483294396093
 30
0.0
 11
6.693982308570021
 21
5.348121089671682
 31
0.0
  0
LINE
  5
3445
330
1E
100
AcDbEntity
  8
7
100
AcDbLine
 10
6.693982308570021
 20
5.348121089671682
 30
0.0
 11
6.671344513294428
 21
5.363869121167745
 31
0.0
  0
LINE
  5
3446
330
1E
100
AcDbEntity
  8
7
100
AcDbLine
 10
6.671344513294428
 20
5.363869121167745
 30
0.0
 11
6.643785458176317
 21
5.369774632978771
 31
0.0
  0
LINE
  5
3447
330
1E
100
AcDbEntity
  8
7
100
AcDbLine
 10
6.522722466050336
 20
5.386506916443337
 30
0.0
 11
6.522722466050336
 21
5.369774632978771
 31
0.0
  0
LINE
  5
3448
330
1E
100
AcDbEntity
  8
7
100
AcDbLine
 10
6.522722466050336
 20
5.369774632978771
 30
0.0
 11
6.643785458176317
 21
5.369774632978771
 31
0.0
  0
LINE
  5
3449
330
1E
100
AcDbEntity
  8
7
100
AcDbLine
 10
6.452840576286554
 20
5.297924239277982
 30
0.0
 11
6.457761836129076
 21
5.325483294396093
 31
0.0
  0
LINE
  5
344A
330
1E
100
AcDbEntity
  8
7
100
AcDbLine
 10
6.457761836129076
 20
5.325483294396093
 30
0.0
 11
6.472525615656635
 21
5.348121089671682
 31
0.0
  0
LINE
  5
344B
330
1E
100
AcDbEntity
  8
7
100
AcDbLine
 10
6.472525615656635
 20
5.348121089671682
 30
0.0
 11
6.496147662900728
 21
5.363869121167745
 31
0.0
  0
LINE
  5
344C
330
1E
100
AcDbEntity
  8
7
100
AcDbLine
 10
6.496147662900728
 20
5.363869121167745
 30
0.0
 11
6.522722466050336
 21
5.369774632978771
 31
0.0
  0
LINE
  5
344D
330
1E
100
AcDbEntity
  8
7
100
AcDbLine
 10
6.732368135341673
 20
5.297924239277982
 30
0.0
 11
6.728431127467658
 21
5.325483294396093
 31
0.0
  0
LINE
  5
344E
330
1E
100
AcDbEntity
  8
7
100
AcDbLine
 10
6.728431127467658
 20
5.325483294396093
 30
0.0
 11
6.715635851877106
 21
5.350089593608691
 31
0.0
  0
LINE
  5
344F
330
1E
100
AcDbEntity
  8
7
100
AcDbLine
 10
6.715635851877106
 20
5.350089593608691
 30
0.0
 11
6.695950812507028
 21
5.369774632978771
 31
0.0
  0
LINE
  5
3450
330
1E
100
AcDbEntity
  8
7
100
AcDbLine
 10
6.695950812507028
 20
5.369774632978771
 30
0.0
 11
6.671344513294428
 21
5.382569908569321
 31
0.0
  0
LINE
  5
3451
330
1E
100
AcDbEntity
  8
7
100
AcDbLine
 10
6.671344513294428
 20
5.382569908569321
 30
0.0
 11
6.643785458176317
 21
5.386506916443337
 31
0.0
  0
LINE
  5
3452
330
1E
100
AcDbEntity
  8
7
100
AcDbLine
 10
6.439061048727502
 20
5.325483294396093
 30
0.0
 11
6.450872072349547
 21
5.350089593608691
 31
0.0
  0
LINE
  5
3453
330
1E
100
AcDbEntity
  8
7
100
AcDbLine
 10
6.450872072349547
 20
5.350089593608691
 30
0.0
 11
6.470557111719628
 21
5.369774632978771
 31
0.0
  0
LINE
  5
3454
330
1E
100
AcDbEntity
  8
7
100
AcDbLine
 10
6.470557111719628
 20
5.369774632978771
 30
0.0
 11
6.495163410932224
 21
5.382569908569321
 31
0.0
  0
LINE
  5
3455
330
1E
100
AcDbEntity
  8
7
100
AcDbLine
 10
6.495163410932224
 20
5.382569908569321
 30
0.0
 11
6.522722466050336
 21
5.386506916443337
 31
0.0
  0
LINE
  5
3456
330
1E
100
AcDbEntity
  8
7
100
AcDbLine
 10
6.522722466050336
 20
5.386506916443337
 30
0.0
 11
6.643785458176317
 21
5.386506916443337
 31
0.0
  0
LINE
  5
3457
330
1E
100
AcDbEntity
  8
7
100
AcDbLine
 10
6.43413978888498
 20
4.948514790459086
 30
0.0
 11
6.43413978888498
 21
5.297924239277982
 31
0.0
  0
LINE
  5
3458
330
1E
100
AcDbEntity
  8
7
100
AcDbLine
 10
6.43413978888498
 20
5.297924239277982
 30
0.0
 11
6.439061048727502
 21
5.325483294396093
 31
0.0
  0
LINE
  5
3459
330
1E
100
AcDbEntity
  8
7
100
AcDbLine
 10
6.233352387310176
 20
5.843199829829163
 30
0.0
 11
6.235320891247184
 21
5.843199829829163
 31
0.0
  0
LINE
  5
345A
330
1E
100
AcDbEntity
  8
7
100
AcDbLine
 10
6.235320891247184
 20
5.843199829829163
 30
0.0
 11
6.238273647152695
 21
5.844184081797667
 31
0.0
  0
LINE
  5
345B
330
1E
100
AcDbEntity
  8
7
100
AcDbLine
 10
6.238273647152695
 20
5.844184081797667
 30
0.0
 11
6.242210655026713
 21
5.844184081797667
 31
0.0
  0
LINE
  5
345C
330
1E
100
AcDbEntity
  8
7
100
AcDbLine
 10
6.242210655026713
 20
5.844184081797667
 30
0.0
 11
6.247131914869232
 21
5.845168333766171
 31
0.0
  0
LINE
  5
345D
330
1E
100
AcDbEntity
  8
7
100
AcDbLine
 10
6.247131914869232
 20
5.845168333766171
 30
0.0
 11
6.248116166837736
 21
5.845168333766171
 31
0.0
  0
LINE
  5
345E
330
1E
100
AcDbEntity
  8
7
100
AcDbLine
 10
6.414454749514902
 20
5.858947861325226
 30
0.0
 11
6.580793332192065
 21
5.863869121167745
 31
0.0
  0
LINE
  5
345F
330
1E
100
AcDbEntity
  8
7
100
AcDbLine
 10
6.580793332192065
 20
5.863869121167745
 30
0.0
 11
6.750084670774743
 21
5.858947861325226
 31
0.0
  0
LINE
  5
3460
330
1E
100
AcDbEntity
  8
7
100
AcDbLine
 10
6.750084670774743
 20
5.858947861325226
 30
0.0
 11
6.918391757388917
 21
5.845168333766171
 31
0.0
  0
LINE
  5
3461
330
1E
100
AcDbEntity
  8
7
100
AcDbLine
 10
6.918391757388917
 20
5.845168333766171
 30
0.0
 11
6.923313017231436
 21
5.844184081797667
 31
0.0
  0
LINE
  5
3462
330
1E
100
AcDbEntity
  8
7
100
AcDbLine
 10
6.923313017231436
 20
5.844184081797667
 30
0.0
 11
6.928234277073958
 21
5.844184081797667
 31
0.0
  0
LINE
  5
3463
330
1E
100
AcDbEntity
  8
7
100
AcDbLine
 10
6.928234277073958
 20
5.844184081797667
 30
0.0
 11
6.931187032979469
 21
5.843199829829163
 31
0.0
  0
LINE
  5
3464
330
1E
100
AcDbEntity
  8
7
100
AcDbLine
 10
6.931187032979469
 20
5.843199829829163
 30
0.0
 11
6.933155536916476
 21
5.843199829829163
 31
0.0
  0
LINE
  5
3465
330
1E
100
AcDbEntity
  8
7
100
AcDbLine
 10
6.871147662900728
 20
5.5774517983331
 30
0.0
 11
6.720557111719628
 21
5.588278569986645
 31
0.0
  0
LINE
  5
3466
330
1E
100
AcDbEntity
  8
7
100
AcDbLine
 10
6.720557111719628
 20
5.588278569986645
 30
0.0
 11
6.567998056601517
 21
5.591231325892156
 31
0.0
  0
LINE
  5
3467
330
1E
100
AcDbEntity
  8
7
100
AcDbLine
 10
6.567998056601517
 20
5.591231325892156
 30
0.0
 11
6.270753962113328
 21
5.573514790459086
 31
0.0
  0
LINE
  5
3468
330
1E
100
AcDbEntity
  8
7
100
AcDbLine
 10
6.169376009357421
 20
5.825483294396093
 30
0.0
 11
6.175281521168443
 21
5.826467546364597
 31
0.0
  0
LINE
  5
3469
330
1E
100
AcDbEntity
  8
7
100
AcDbLine
 10
6.175281521168443
 20
5.826467546364597
 30
0.0
 11
6.185124040853484
 21
5.8274517983331
 31
0.0
  0
LINE
  5
346A
330
1E
100
AcDbEntity
  8
7
100
AcDbLine
 10
6.185124040853484
 20
5.8274517983331
 30
0.0
 11
6.196935064475532
 21
5.829420302270108
 31
0.0
  0
LINE
  5
346B
330
1E
100
AcDbEntity
  8
7
100
AcDbLine
 10
6.196935064475532
 20
5.829420302270108
 30
0.0
 11
6.207761836129076
 21
5.830404554238612
 31
0.0
  0
LINE
  5
346C
330
1E
100
AcDbEntity
  8
7
100
AcDbLine
 10
6.207761836129076
 20
5.830404554238612
 30
0.0
 11
6.307171284947973
 21
5.841231325892156
 31
0.0
  0
LINE
  5
346D
330
1E
100
AcDbEntity
  8
7
100
AcDbLine
 10
6.307171284947973
 20
5.841231325892156
 30
0.0
 11
6.506974434554273
 21
5.853042349514202
 31
0.0
  0
LINE
  5
346E
330
1E
100
AcDbEntity
  8
7
100
AcDbLine
 10
6.506974434554273
 20
5.853042349514202
 30
0.0
 11
6.70874608809758
 21
5.851073845577195
 31
0.0
  0
LINE
  5
346F
330
1E
100
AcDbEntity
  8
7
100
AcDbLine
 10
6.70874608809758
 20
5.851073845577195
 30
0.0
 11
6.83374608809758
 21
5.843199829829163
 31
0.0
  0
LINE
  5
3470
330
1E
100
AcDbEntity
  8
7
100
AcDbLine
 10
6.83374608809758
 20
5.843199829829163
 30
0.0
 11
6.95874608809758
 21
5.830404554238612
 31
0.0
  0
LINE
  5
3471
330
1E
100
AcDbEntity
  8
7
100
AcDbLine
 10
6.95874608809758
 20
5.830404554238612
 30
0.0
 11
6.972525615656635
 21
5.828436050301604
 31
0.0
  0
LINE
  5
3472
330
1E
100
AcDbEntity
  8
7
100
AcDbLine
 10
6.972525615656635
 20
5.828436050301604
 30
0.0
 11
6.985320891247184
 21
5.826467546364597
 31
0.0
  0
LINE
  5
3473
330
1E
100
AcDbEntity
  8
7
100
AcDbLine
 10
6.985320891247184
 20
5.826467546364597
 30
0.0
 11
6.996147662900728
 21
5.825483294396093
 31
0.0
  0
LINE
  5
3474
330
1E
100
AcDbEntity
  8
7
100
AcDbLine
 10
6.902643725892854
 20
5.159144711718926
 30
0.0
 11
6.996147662900728
 21
5.159144711718926
 31
0.0
  0
LINE
  5
3475
330
1E
100
AcDbEntity
  8
7
100
AcDbLine
 10
6.996147662900728
 20
5.159144711718926
 30
0.0
 11
6.952840576286554
 21
5.784144711718926
 31
0.0
  0
LINE
  5
3476
330
1E
100
AcDbEntity
  8
7
100
AcDbLine
 10
6.952840576286554
 20
5.784144711718926
 30
0.0
 11
6.769769710144821
 21
5.801861247151997
 31
0.0
  0
LINE
  5
3477
330
1E
100
AcDbEntity
  8
7
100
AcDbLine
 10
6.769769710144821
 20
5.801861247151997
 30
0.0
 11
6.586698844003091
 21
5.807766758963023
 31
0.0
  0
LINE
  5
3478
330
1E
100
AcDbEntity
  8
7
100
AcDbLine
 10
6.586698844003091
 20
5.807766758963023
 30
0.0
 11
6.400675221955847
 21
5.801861247151997
 31
0.0
  0
LINE
  5
3479
330
1E
100
AcDbEntity
  8
7
100
AcDbLine
 10
6.400675221955847
 20
5.801861247151997
 30
0.0
 11
6.214651599908602
 21
5.784144711718926
 31
0.0
  0
LINE
  5
347A
330
1E
100
AcDbEntity
  8
7
100
AcDbLine
 10
6.214651599908602
 20
5.784144711718926
 30
0.0
 11
6.170360261325924
 21
5.159144711718926
 31
0.0
  0
LINE
  5
347B
330
1E
100
AcDbEntity
  8
7
100
AcDbLine
 10
7.085714592034587
 20
5.159144711718926
 30
0.0
 11
7.081777584160569
 21
5.159144711718926
 31
0.0
  0
LINE
  5
347C
330
1E
100
AcDbEntity
  8
7
100
AcDbLine
 10
7.081777584160569
 20
5.159144711718926
 30
0.0
 11
7.068982308570021
 21
5.159144711718926
 31
0.0
  0
LINE
  5
347D
330
1E
100
AcDbEntity
  8
7
100
AcDbLine
 10
7.068982308570021
 20
5.159144711718926
 30
0.0
 11
7.049297269199939
 21
5.159144711718926
 31
0.0
  0
LINE
  5
347E
330
1E
100
AcDbEntity
  8
7
100
AcDbLine
 10
7.049297269199939
 20
5.159144711718926
 30
0.0
 11
7.023706718018839
 21
5.159144711718926
 31
0.0
  0
LINE
  5
347F
330
1E
100
AcDbEntity
  8
7
100
AcDbLine
 10
7.023706718018839
 20
5.159144711718926
 30
0.0
 11
6.996147662900728
 21
5.159144711718926
 31
0.0
  0
LINE
  5
3480
330
1E
100
AcDbEntity
  8
7
100
AcDbLine
 10
6.170360261325924
 20
5.159144711718926
 30
0.0
 11
6.142801206207813
 21
5.159144711718926
 31
0.0
  0
LINE
  5
3481
330
1E
100
AcDbEntity
  8
7
100
AcDbLine
 10
6.142801206207813
 20
5.159144711718926
 30
0.0
 11
6.118194906995217
 21
5.159144711718926
 31
0.0
  0
LINE
  5
3482
330
1E
100
AcDbEntity
  8
7
100
AcDbLine
 10
6.118194906995217
 20
5.159144711718926
 30
0.0
 11
6.097525615656635
 21
5.159144711718926
 31
0.0
  0
LINE
  5
3483
330
1E
100
AcDbEntity
  8
7
100
AcDbLine
 10
6.097525615656635
 20
5.159144711718926
 30
0.0
 11
6.085714592034587
 21
5.159144711718926
 31
0.0
  0
LINE
  5
3484
330
1E
100
AcDbEntity
  8
7
100
AcDbLine
 10
6.085714592034587
 20
5.159144711718926
 30
0.0
 11
6.080793332192065
 21
5.159144711718926
 31
0.0
  0
LINE
  5
3485
330
1E
100
AcDbEntity
  8
7
100
AcDbLine
 10
6.817013804633013
 20
4.948514790459086
 30
0.0
 11
6.732368135341673
 21
4.948514790459086
 31
0.0
  0
LINE
  5
3486
330
1E
100
AcDbEntity
  8
7
100
AcDbLine
 10
6.732368135341673
 20
4.948514790459086
 30
0.0
 11
6.714651599908602
 21
4.948514790459086
 31
0.0
  0
LINE
  5
3487
330
1E
100
AcDbEntity
  8
7
100
AcDbLine
 10
6.452840576286554
 20
4.948514790459086
 30
0.0
 11
6.43413978888498
 21
4.948514790459086
 31
0.0
  0
LINE
  5
3488
330
1E
100
AcDbEntity
  8
7
100
AcDbLine
 10
6.43413978888498
 20
4.948514790459086
 30
0.0
 11
6.349494119593643
 21
4.948514790459086
 31
0.0
  0
LINE
  5
3489
330
1E
100
AcDbEntity
  8
7
100
AcDbLine
 10
7.015832702270806
 20
5.159144711718926
 30
0.0
 11
7.021738214081832
 21
5.071546286522076
 31
0.0
  0
LINE
  5
348A
330
1E
100
AcDbEntity
  8
7
100
AcDbLine
 10
7.021738214081832
 20
5.071546286522076
 30
0.0
 11
7.019769710144821
 21
5.06760927864806
 31
0.0
  0
LINE
  5
348B
330
1E
100
AcDbEntity
  8
7
100
AcDbLine
 10
7.019769710144821
 20
5.06760927864806
 30
0.0
 11
7.012879946365295
 21
5.065640774711052
 31
0.0
  0
LINE
  5
348C
330
1E
100
AcDbEntity
  8
7
100
AcDbLine
 10
7.012879946365295
 20
5.065640774711052
 30
0.0
 11
7.002053174711754
 21
5.064656522742549
 31
0.0
  0
LINE
  5
348D
330
1E
100
AcDbEntity
  8
7
100
AcDbLine
 10
7.002053174711754
 20
5.064656522742549
 30
0.0
 11
6.926265773136947
 21
5.064656522742549
 31
0.0
  0
LINE
  5
348E
330
1E
100
AcDbEntity
  8
7
100
AcDbLine
 10
7.004021678648761
 20
5.038081719592943
 30
0.0
 11
7.031580733766869
 21
5.04005022352995
 31
0.0
  0
LINE
  5
348F
330
1E
100
AcDbEntity
  8
7
100
AcDbLine
 10
7.031580733766869
 20
5.04005022352995
 30
0.0
 11
7.057171284947973
 21
5.044971483372471
 31
0.0
  0
LINE
  5
3490
330
1E
100
AcDbEntity
  8
7
100
AcDbLine
 10
7.057171284947973
 20
5.044971483372471
 30
0.0
 11
7.075872072349547
 21
5.051861247151997
 31
0.0
  0
LINE
  5
3491
330
1E
100
AcDbEntity
  8
7
100
AcDbLine
 10
7.075872072349547
 20
5.051861247151997
 30
0.0
 11
7.088667347940099
 21
5.061703766837037
 31
0.0
  0
LINE
  5
3492
330
1E
100
AcDbEntity
  8
7
100
AcDbLine
 10
7.088667347940099
 20
5.061703766837037
 30
0.0
 11
7.09162010384561
 21
5.071546286522076
 31
0.0
  0
LINE
  5
3493
330
1E
100
AcDbEntity
  8
7
100
AcDbLine
 10
6.154612229829862
 20
5.065640774711052
 30
0.0
 11
6.146738214081832
 21
5.06760927864806
 31
0.0
  0
LINE
  5
3494
330
1E
100
AcDbEntity
  8
7
100
AcDbLine
 10
6.146738214081832
 20
5.06760927864806
 30
0.0
 11
6.144769710144821
 21
5.071546286522076
 31
0.0
  0
LINE
  5
3495
330
1E
100
AcDbEntity
  8
7
100
AcDbLine
 10
6.144769710144821
 20
5.071546286522076
 30
0.0
 11
6.150675221955847
 21
5.159144711718926
 31
0.0
  0
LINE
  5
3496
330
1E
100
AcDbEntity
  8
7
100
AcDbLine
 10
6.240242151089706
 20
5.064656522742549
 30
0.0
 11
6.164454749514902
 21
5.064656522742549
 31
0.0
  0
LINE
  5
3497
330
1E
100
AcDbEntity
  8
7
100
AcDbLine
 10
6.164454749514902
 20
5.064656522742549
 30
0.0
 11
6.154612229829862
 21
5.065640774711052
 31
0.0
  0
LINE
  5
3498
330
1E
100
AcDbEntity
  8
7
100
AcDbLine
 10
6.074887820381043
 20
5.071546286522076
 30
0.0
 11
6.078824828255058
 21
5.061703766837037
 31
0.0
  0
LINE
  5
3499
330
1E
100
AcDbEntity
  8
7
100
AcDbLine
 10
6.078824828255058
 20
5.061703766837037
 30
0.0
 11
6.090635851877106
 21
5.051861247151997
 31
0.0
  0
LINE
  5
349A
330
1E
100
AcDbEntity
  8
7
100
AcDbLine
 10
6.090635851877106
 20
5.051861247151997
 30
0.0
 11
6.110320891247184
 21
5.044971483372471
 31
0.0
  0
LINE
  5
349B
330
1E
100
AcDbEntity
  8
7
100
AcDbLine
 10
6.110320891247184
 20
5.044971483372471
 30
0.0
 11
6.134927190459784
 21
5.04005022352995
 31
0.0
  0
LINE
  5
349C
330
1E
100
AcDbEntity
  8
7
100
AcDbLine
 10
6.134927190459784
 20
5.04005022352995
 30
0.0
 11
6.162486245577895
 21
5.038081719592943
 31
0.0
  0
LINE
  5
349D
330
1E
100
AcDbEntity
  8
7
100
AcDbLine
 10
6.804218529042461
 20
5.490837625104754
 30
0.0
 11
6.817013804633013
 21
4.948514790459086
 31
0.0
  0
LINE
  5
349E
330
1E
100
AcDbEntity
  8
7
100
AcDbLine
 10
6.817013804633013
 20
4.948514790459086
 30
0.0
 11
6.834730340066084
 21
4.948514790459086
 31
0.0
  0
LINE
  5
349F
330
1E
100
AcDbEntity
  8
7
100
AcDbLine
 10
6.834730340066084
 20
4.948514790459086
 30
0.0
 11
6.821935064475532
 21
5.488869121167745
 31
0.0
  0
LINE
  5
34A0
330
1E
100
AcDbEntity
  8
7
100
AcDbLine
 10
6.381974434554273
 20
5.558751010931526
 30
0.0
 11
6.363273647152695
 21
5.539065971561447
 31
0.0
  0
LINE
  5
34A1
330
1E
100
AcDbEntity
  8
7
100
AcDbLine
 10
6.363273647152695
 20
5.539065971561447
 30
0.0
 11
6.350478371562147
 21
5.515443924317352
 31
0.0
  0
LINE
  5
34A2
330
1E
100
AcDbEntity
  8
7
100
AcDbLine
 10
6.350478371562147
 20
5.515443924317352
 30
0.0
 11
6.345557111719628
 21
5.488869121167745
 31
0.0
  0
LINE
  5
34A3
330
1E
100
AcDbEntity
  8
7
100
AcDbLine
 10
6.433155536916476
 20
5.55973526290003
 30
0.0
 11
6.433155536916476
 21
5.574499042427589
 31
0.0
  0
LINE
  5
34A4
330
1E
100
AcDbEntity
  8
7
100
AcDbLine
 10
6.433155536916476
 20
5.574499042427589
 30
0.0
 11
6.406580733766869
 21
5.570562034553573
 31
0.0
  0
LINE
  5
34A5
330
1E
100
AcDbEntity
  8
7
100
AcDbLine
 10
6.406580733766869
 20
5.570562034553573
 30
0.0
 11
6.381974434554273
 21
5.558751010931526
 31
0.0
  0
LINE
  5
34A6
330
1E
100
AcDbEntity
  8
7
100
AcDbLine
 10
6.433155536916476
 20
5.55973526290003
 30
0.0
 11
6.411501993609391
 21
5.555798255026013
 31
0.0
  0
LINE
  5
34A7
330
1E
100
AcDbEntity
  8
7
100
AcDbLine
 10
6.411501993609391
 20
5.555798255026013
 30
0.0
 11
6.392801206207813
 21
5.545955735340974
 31
0.0
  0
LINE
  5
34A8
330
1E
100
AcDbEntity
  8
7
100
AcDbLine
 10
6.392801206207813
 20
5.545955735340974
 30
0.0
 11
6.377053174711754
 21
5.531191955813415
 31
0.0
  0
LINE
  5
34A9
330
1E
100
AcDbEntity
  8
7
100
AcDbLine
 10
6.377053174711754
 20
5.531191955813415
 30
0.0
 11
6.36622640305821
 21
5.511506916443337
 31
0.0
  0
LINE
  5
34AA
330
1E
100
AcDbEntity
  8
7
100
AcDbLine
 10
6.36622640305821
 20
5.511506916443337
 30
0.0
 11
6.362289395184191
 21
5.490837625104754
 31
0.0
  0
LINE
  5
34AB
330
1E
100
AcDbEntity
  8
7
100
AcDbLine
 10
6.821935064475532
 20
5.488869121167745
 30
0.0
 11
6.817013804633013
 21
5.515443924317352
 31
0.0
  0
LINE
  5
34AC
330
1E
100
AcDbEntity
  8
7
100
AcDbLine
 10
6.817013804633013
 20
5.515443924317352
 30
0.0
 11
6.804218529042461
 21
5.539065971561447
 31
0.0
  0
LINE
  5
34AD
330
1E
100
AcDbEntity
  8
7
100
AcDbLine
 10
6.804218529042461
 20
5.539065971561447
 30
0.0
 11
6.784533489672384
 21
5.558751010931526
 31
0.0
  0
LINE
  5
34AE
330
1E
100
AcDbEntity
  8
7
100
AcDbLine
 10
6.784533489672384
 20
5.558751010931526
 30
0.0
 11
6.759927190459784
 21
5.570562034553573
 31
0.0
  0
LINE
  5
34AF
330
1E
100
AcDbEntity
  8
7
100
AcDbLine
 10
6.759927190459784
 20
5.570562034553573
 30
0.0
 11
6.733352387310176
 21
5.574499042427589
 31
0.0
  0
LINE
  5
34B0
330
1E
100
AcDbEntity
  8
7
100
AcDbLine
 10
6.733352387310176
 20
5.574499042427589
 30
0.0
 11
6.733352387310176
 21
5.55973526290003
 31
0.0
  0
LINE
  5
34B1
330
1E
100
AcDbEntity
  8
7
100
AcDbLine
 10
6.733352387310176
 20
5.55973526290003
 30
0.0
 11
6.755005930617265
 21
5.555798255026013
 31
0.0
  0
LINE
  5
34B2
330
1E
100
AcDbEntity
  8
7
100
AcDbLine
 10
6.755005930617265
 20
5.555798255026013
 30
0.0
 11
6.774690969987343
 21
5.545955735340974
 31
0.0
  0
LINE
  5
34B3
330
1E
100
AcDbEntity
  8
7
100
AcDbLine
 10
6.774690969987343
 20
5.545955735340974
 30
0.0
 11
6.789454749514902
 21
5.531191955813415
 31
0.0
  0
LINE
  5
34B4
330
1E
100
AcDbEntity
  8
7
100
AcDbLine
 10
6.789454749514902
 20
5.531191955813415
 30
0.0
 11
6.800281521168443
 21
5.511506916443337
 31
0.0
  0
LINE
  5
34B5
330
1E
100
AcDbEntity
  8
7
100
AcDbLine
 10
6.800281521168443
 20
5.511506916443337
 30
0.0
 11
6.804218529042461
 21
5.490837625104754
 31
0.0
  0
LINE
  5
34B6
330
1E
100
AcDbEntity
  8
7
100
AcDbLine
 10
6.804218529042461
 20
5.490837625104754
 30
0.0
 11
6.821935064475532
 21
5.488869121167745
 31
0.0
  0
LINE
  5
34B7
330
1E
100
AcDbEntity
  8
7
100
AcDbLine
 10
6.65854923770388
 20
4.948514790459086
 30
0.0
 11
6.65854923770388
 21
5.297924239277982
 31
0.0
  0
LINE
  5
34B8
330
1E
100
AcDbEntity
  8
7
100
AcDbLine
 10
6.65854923770388
 20
5.297924239277982
 30
0.0
 11
6.654612229829862
 21
5.308751010931526
 31
0.0
  0
LINE
  5
34B9
330
1E
100
AcDbEntity
  8
7
100
AcDbLine
 10
6.654612229829862
 20
5.308751010931526
 30
0.0
 11
6.643785458176317
 21
5.312688018805541
 31
0.0
  0
LINE
  5
34BA
330
1E
100
AcDbEntity
  8
7
100
AcDbLine
 10
6.507958686522776
 20
5.297924239277982
 30
0.0
 11
6.512879946365295
 21
5.308751010931526
 31
0.0
  0
LINE
  5
34BB
330
1E
100
AcDbEntity
  8
7
100
AcDbLine
 10
6.512879946365295
 20
5.308751010931526
 30
0.0
 11
6.522722466050336
 21
5.312688018805541
 31
0.0
  0
LINE
  5
34BC
330
1E
100
AcDbEntity
  8
7
100
AcDbLine
 10
7.007958686522776
 20
5.822530538490582
 30
0.0
 11
7.003037426680258
 21
5.824499042427589
 31
0.0
  0
LINE
  5
34BD
330
1E
100
AcDbEntity
  8
7
100
AcDbLine
 10
7.003037426680258
 20
5.824499042427589
 30
0.0
 11
6.998116166837736
 21
5.825483294396093
 31
0.0
  0
LINE
  5
34BE
330
1E
100
AcDbEntity
  8
7
100
AcDbLine
 10
7.04142325345191
 20
5.779223451876408
 30
0.0
 11
7.04142325345191
 21
5.781191955813415
 31
0.0
  0
LINE
  5
34BF
330
1E
100
AcDbEntity
  8
7
100
AcDbLine
 10
7.04142325345191
 20
5.781191955813415
 30
0.0
 11
7.039454749514902
 21
5.79005022352995
 31
0.0
  0
LINE
  5
34C0
330
1E
100
AcDbEntity
  8
7
100
AcDbLine
 10
7.039454749514902
 20
5.79005022352995
 30
0.0
 11
7.03354923770388
 21
5.802845499120502
 31
0.0
  0
LINE
  5
34C1
330
1E
100
AcDbEntity
  8
7
100
AcDbLine
 10
7.03354923770388
 20
5.802845499120502
 30
0.0
 11
7.024690969987343
 21
5.813672270774045
 31
0.0
  0
LINE
  5
34C2
330
1E
100
AcDbEntity
  8
7
100
AcDbLine
 10
7.024690969987343
 20
5.813672270774045
 30
0.0
 11
7.012879946365295
 21
5.820562034553573
 31
0.0
  0
LINE
  5
34C3
330
1E
100
AcDbEntity
  8
7
100
AcDbLine
 10
7.012879946365295
 20
5.820562034553573
 30
0.0
 11
7.007958686522776
 21
5.822530538490582
 31
0.0
  0
LINE
  5
34C4
330
1E
100
AcDbEntity
  8
7
100
AcDbLine
 10
6.162486245577895
 20
5.823514790459086
 30
0.0
 11
6.157564985735376
 21
5.822530538490582
 31
0.0
  0
LINE
  5
34C5
330
1E
100
AcDbEntity
  8
7
100
AcDbLine
 10
6.157564985735376
 20
5.822530538490582
 30
0.0
 11
6.15165947392435
 21
5.820562034553573
 31
0.0
  0
LINE
  5
34C6
330
1E
100
AcDbEntity
  8
7
100
AcDbLine
 10
6.15165947392435
 20
5.820562034553573
 30
0.0
 11
6.145753962113328
 21
5.816625026679556
 31
0.0
  0
LINE
  5
34C7
330
1E
100
AcDbEntity
  8
7
100
AcDbLine
 10
6.145753962113328
 20
5.816625026679556
 30
0.0
 11
6.135911442428287
 21
5.806782506994519
 31
0.0
  0
LINE
  5
34C8
330
1E
100
AcDbEntity
  8
7
100
AcDbLine
 10
6.135911442428287
 20
5.806782506994519
 30
0.0
 11
6.131974434554273
 21
5.801861247151997
 31
0.0
  0
LINE
  5
34C9
330
1E
100
AcDbEntity
  8
7
100
AcDbLine
 10
6.131974434554273
 20
5.801861247151997
 30
0.0
 11
6.128037426680258
 21
5.794971483372471
 31
0.0
  0
LINE
  5
34CA
330
1E
100
AcDbEntity
  8
7
100
AcDbLine
 10
6.128037426680258
 20
5.794971483372471
 30
0.0
 11
6.125084670774743
 21
5.78512896368743
 31
0.0
  0
LINE
  5
34CB
330
1E
100
AcDbEntity
  8
7
100
AcDbLine
 10
6.125084670774743
 20
5.78512896368743
 30
0.0
 11
6.124100418806239
 21
5.779223451876408
 31
0.0
  0
LINE
  5
34CC
330
1E
100
AcDbEntity
  8
7
100
AcDbLine
 10
7.042407505420413
 20
7.838278569986641
 30
0.0
 11
7.035517741640887
 21
7.838278569986641
 31
0.0
  0
LINE
  5
34CD
330
1E
100
AcDbEntity
  8
7
100
AcDbLine
 10
7.035517741640887
 20
7.838278569986641
 30
0.0
 11
7.020753962113328
 21
7.838278569986641
 31
0.0
  0
LINE
  5
34CE
330
1E
100
AcDbEntity
  8
7
100
AcDbLine
 10
7.020753962113328
 20
7.838278569986641
 30
0.0
 11
6.999100418806239
 21
7.838278569986641
 31
0.0
  0
LINE
  5
34CF
330
1E
100
AcDbEntity
  8
7
100
AcDbLine
 10
6.999100418806239
 20
7.17981400305751
 30
0.0
 11
7.020753962113328
 21
7.17981400305751
 31
0.0
  0
LINE
  5
34D0
330
1E
100
AcDbEntity
  8
7
100
AcDbLine
 10
7.020753962113328
 20
7.17981400305751
 30
0.0
 11
7.035517741640887
 21
7.17981400305751
 31
0.0
  0
LINE
  5
34D1
330
1E
100
AcDbEntity
  8
7
100
AcDbLine
 10
7.035517741640887
 20
7.17981400305751
 30
0.0
 11
7.042407505420413
 21
7.17981400305751
 31
0.0
  0
LINE
  5
34D2
330
1E
100
AcDbEntity
  8
7
100
AcDbLine
 10
7.055202781010965
 20
8.814656522742549
 30
0.0
 11
7.049297269199939
 21
8.822530538490582
 31
0.0
  0
LINE
  5
34D3
330
1E
100
AcDbEntity
  8
7
100
AcDbLine
 10
7.049297269199939
 20
8.822530538490582
 30
0.0
 11
7.03354923770388
 21
8.828436050301604
 31
0.0
  0
LINE
  5
34D4
330
1E
100
AcDbEntity
  8
7
100
AcDbLine
 10
7.03354923770388
 20
8.828436050301604
 30
0.0
 11
7.011895694396791
 21
8.832373058175619
 31
0.0
  0
LINE
  5
34D5
330
1E
100
AcDbEntity
  8
7
100
AcDbLine
 10
6.95874608809758
 20
7.140443924317352
 30
0.0
 11
6.957761836129073
 21
7.116821877073258
 31
0.0
  0
LINE
  5
34D6
330
1E
100
AcDbEntity
  8
7
100
AcDbLine
 10
6.957761836129073
 20
7.116821877073258
 30
0.0
 11
6.955793332192065
 21
7.098121089671684
 31
0.0
  0
LINE
  5
34D7
330
1E
100
AcDbEntity
  8
7
100
AcDbLine
 10
6.955793332192065
 20
7.098121089671684
 30
0.0
 11
6.952840576286554
 21
7.090247073923652
 31
0.0
  0
LINE
  5
34D8
330
1E
100
AcDbEntity
  8
7
100
AcDbLine
 10
6.96662010384561
 20
8.904223451876408
 30
0.0
 11
6.969572859751124
 21
8.895365184159871
 31
0.0
  0
LINE
  5
34D9
330
1E
100
AcDbEntity
  8
7
100
AcDbLine
 10
6.969572859751124
 20
8.895365184159871
 30
0.0
 11
6.972525615656635
 21
8.872727388884282
 31
0.0
  0
LINE
  5
34DA
330
1E
100
AcDbEntity
  8
7
100
AcDbLine
 10
6.207761836129076
 20
7.140443924317352
 30
0.0
 11
6.20874608809758
 21
7.116821877073258
 31
0.0
  0
LINE
  5
34DB
330
1E
100
AcDbEntity
  8
7
100
AcDbLine
 10
6.20874608809758
 20
7.116821877073258
 30
0.0
 11
6.211698844003091
 21
7.098121089671684
 31
0.0
  0
LINE
  5
34DC
330
1E
100
AcDbEntity
  8
7
100
AcDbLine
 10
6.211698844003091
 20
7.098121089671684
 30
0.0
 11
6.214651599908602
 21
7.090247073923652
 31
0.0
  0
LINE
  5
34DD
330
1E
100
AcDbEntity
  8
7
100
AcDbLine
 10
6.200872072349547
 20
8.904223451876408
 30
0.0
 11
6.196935064475532
 21
8.895365184159871
 31
0.0
  0
LINE
  5
34DE
330
1E
100
AcDbEntity
  8
7
100
AcDbLine
 10
6.196935064475532
 20
8.895365184159871
 30
0.0
 11
6.193982308570021
 21
8.872727388884282
 31
0.0
  0
LINE
  5
34DF
330
1E
100
AcDbEntity
  8
7
100
AcDbLine
 10
6.167407505420413
 20
7.17981400305751
 30
0.0
 11
6.145753962113328
 21
7.17981400305751
 31
0.0
  0
LINE
  5
34E0
330
1E
100
AcDbEntity
  8
7
100
AcDbLine
 10
6.145753962113328
 20
7.17981400305751
 30
0.0
 11
6.130990182585769
 21
7.17981400305751
 31
0.0
  0
LINE
  5
34E1
330
1E
100
AcDbEntity
  8
7
100
AcDbLine
 10
6.130990182585769
 20
7.17981400305751
 30
0.0
 11
6.124100418806239
 21
7.17981400305751
 31
0.0
  0
LINE
  5
34E2
330
1E
100
AcDbEntity
  8
7
100
AcDbLine
 10
6.167407505420413
 20
7.838278569986641
 30
0.0
 11
6.145753962113328
 21
7.838278569986641
 31
0.0
  0
LINE
  5
34E3
330
1E
100
AcDbEntity
  8
7
100
AcDbLine
 10
6.145753962113328
 20
7.838278569986641
 30
0.0
 11
6.130990182585769
 21
7.838278569986641
 31
0.0
  0
LINE
  5
34E4
330
1E
100
AcDbEntity
  8
7
100
AcDbLine
 10
6.111305143215687
 20
8.814656522742549
 30
0.0
 11
6.118194906995217
 21
8.822530538490582
 31
0.0
  0
LINE
  5
34E5
330
1E
100
AcDbEntity
  8
7
100
AcDbLine
 10
6.118194906995217
 20
8.822530538490582
 30
0.0
 11
6.132958686522776
 21
8.828436050301604
 31
0.0
  0
LINE
  5
34E6
330
1E
100
AcDbEntity
  8
7
100
AcDbLine
 10
6.132958686522776
 20
8.828436050301604
 30
0.0
 11
6.154612229829862
 21
8.832373058175619
 31
0.0
  0
LINE
  5
34E7
330
1E
100
AcDbEntity
  8
7
100
AcDbLine
 10
6.214651599908602
 20
7.090247073923652
 30
0.0
 11
6.18413978888498
 21
7.096152585734675
 31
0.0
  0
LINE
  5
34E8
330
1E
100
AcDbEntity
  8
7
100
AcDbLine
 10
6.18413978888498
 20
7.096152585734675
 30
0.0
 11
6.157564985735376
 21
7.10993211329373
 31
0.0
  0
LINE
  5
34E9
330
1E
100
AcDbEntity
  8
7
100
AcDbLine
 10
6.157564985735376
 20
7.10993211329373
 30
0.0
 11
6.137879946365295
 21
7.132569908569321
 31
0.0
  0
LINE
  5
34EA
330
1E
100
AcDbEntity
  8
7
100
AcDbLine
 10
6.137879946365295
 20
7.132569908569321
 30
0.0
 11
6.12606892274325
 21
7.161113215655936
 31
0.0
  0
LINE
  5
34EB
330
1E
100
AcDbEntity
  8
7
100
AcDbLine
 10
6.12606892274325
 20
7.161113215655936
 30
0.0
 11
6.124100418806239
 21
7.17981400305751
 31
0.0
  0
LINE
  5
34EC
330
1E
100
AcDbEntity
  8
7
100
AcDbLine
 10
6.111305143215687
 20
8.814656522742549
 30
0.0
 11
6.11622640305821
 21
8.844184081797667
 31
0.0
  0
LINE
  5
34ED
330
1E
100
AcDbEntity
  8
7
100
AcDbLine
 10
6.11622640305821
 20
8.844184081797667
 30
0.0
 11
6.130990182585769
 21
8.870758884947271
 31
0.0
  0
LINE
  5
34EE
330
1E
100
AcDbEntity
  8
7
100
AcDbLine
 10
6.130990182585769
 20
8.870758884947271
 30
0.0
 11
6.153627977861358
 21
8.891428176285856
 31
0.0
  0
LINE
  5
34EF
330
1E
100
AcDbEntity
  8
7
100
AcDbLine
 10
6.153627977861358
 20
8.891428176285856
 30
0.0
 11
6.181187032979469
 21
8.9022549479394
 31
0.0
  0
LINE
  5
34F0
330
1E
100
AcDbEntity
  8
7
100
AcDbLine
 10
6.181187032979469
 20
8.9022549479394
 30
0.0
 11
6.200872072349547
 21
8.904223451876408
 31
0.0
  0
LINE
  5
34F1
330
1E
100
AcDbEntity
  8
7
100
AcDbLine
 10
6.96662010384561
 20
8.904223451876408
 30
0.0
 11
6.995163410932224
 21
8.899302192033886
 31
0.0
  0
LINE
  5
34F2
330
1E
100
AcDbEntity
  8
7
100
AcDbLine
 10
6.995163410932224
 20
8.899302192033886
 30
0.0
 11
7.021738214081832
 21
8.885522664474834
 31
0.0
  0
LINE
  5
34F3
330
1E
100
AcDbEntity
  8
7
100
AcDbLine
 10
7.021738214081832
 20
8.885522664474834
 30
0.0
 11
7.04142325345191
 21
8.863869121167745
 31
0.0
  0
LINE
  5
34F4
330
1E
100
AcDbEntity
  8
7
100
AcDbLine
 10
7.04142325345191
 20
8.863869121167745
 30
0.0
 11
7.053234277073958
 21
8.836310066049634
 31
0.0
  0
LINE
  5
34F5
330
1E
100
AcDbEntity
  8
7
100
AcDbLine
 10
7.053234277073958
 20
8.836310066049634
 30
0.0
 11
7.055202781010965
 21
8.814656522742549
 31
0.0
  0
LINE
  5
34F6
330
1E
100
AcDbEntity
  8
7
100
AcDbLine
 10
7.042407505420413
 20
7.17981400305751
 30
0.0
 11
7.037486245577895
 21
7.150286444002391
 31
0.0
  0
LINE
  5
34F7
330
1E
100
AcDbEntity
  8
7
100
AcDbLine
 10
7.037486245577895
 20
7.150286444002391
 30
0.0
 11
7.022722466050336
 21
7.123711640852786
 31
0.0
  0
LINE
  5
34F8
330
1E
100
AcDbEntity
  8
7
100
AcDbLine
 10
7.022722466050336
 20
7.123711640852786
 30
0.0
 11
7.000084670774743
 21
7.104026601482706
 31
0.0
  0
LINE
  5
34F9
330
1E
100
AcDbEntity
  8
7
100
AcDbLine
 10
7.000084670774743
 20
7.104026601482706
 30
0.0
 11
6.972525615656635
 21
7.093199829829163
 31
0.0
  0
LINE
  5
34FA
330
1E
100
AcDbEntity
  8
7
100
AcDbLine
 10
6.162486245577895
 20
8.923908491246486
 30
0.0
 11
6.200872072349547
 21
8.904223451876408
 31
0.0
  0
LINE
  5
34FB
330
1E
100
AcDbEntity
  8
7
100
AcDbLine
 10
6.200872072349547
 20
8.904223451876408
 30
0.0
 11
6.389848450302302
 21
8.904223451876408
 31
0.0
  0
LINE
  5
34FC
330
1E
100
AcDbEntity
  8
7
100
AcDbLine
 10
6.389848450302302
 20
8.904223451876408
 30
0.0
 11
6.579809080223562
 21
8.903239199907904
 31
0.0
  0
LINE
  5
34FD
330
1E
100
AcDbEntity
  8
7
100
AcDbLine
 10
6.579809080223562
 20
8.903239199907904
 30
0.0
 11
6.772722466050336
 21
8.904223451876408
 31
0.0
  0
LINE
  5
34FE
330
1E
100
AcDbEntity
  8
7
100
AcDbLine
 10
6.772722466050336
 20
8.904223451876408
 30
0.0
 11
6.96662010384561
 21
8.904223451876408
 31
0.0
  0
LINE
  5
34FF
330
1E
100
AcDbEntity
  8
7
100
AcDbLine
 10
6.96662010384561
 20
8.904223451876408
 30
0.0
 11
7.004021678648761
 21
8.923908491246486
 31
0.0
  0
LINE
  5
3500
330
1E
100
AcDbEntity
  8
7
100
AcDbLine
 10
6.248116166837736
 20
7.188672270774045
 30
0.0
 11
6.243194906995217
 21
7.188672270774045
 31
0.0
  0
LINE
  5
3501
330
1E
100
AcDbEntity
  8
7
100
AcDbLine
 10
6.243194906995217
 20
7.188672270774045
 30
0.0
 11
6.239257899121202
 21
7.185719514868534
 31
0.0
  0
LINE
  5
3502
330
1E
100
AcDbEntity
  8
7
100
AcDbLine
 10
6.239257899121202
 20
7.185719514868534
 30
0.0
 11
6.235320891247184
 21
7.181782506994517
 31
0.0
  0
LINE
  5
3503
330
1E
100
AcDbEntity
  8
7
100
AcDbLine
 10
6.235320891247184
 20
7.181782506994517
 30
0.0
 11
6.233352387310176
 21
7.176861247151999
 31
0.0
  0
LINE
  5
3504
330
1E
100
AcDbEntity
  8
7
100
AcDbLine
 10
6.233352387310176
 20
7.176861247151999
 30
0.0
 11
6.233352387310176
 21
7.171939987309478
 31
0.0
  0
LINE
  5
3505
330
1E
100
AcDbEntity
  8
7
100
AcDbLine
 10
6.233352387310176
 20
7.171939987309478
 30
0.0
 11
6.235320891247184
 21
7.167018727466958
 31
0.0
  0
LINE
  5
3506
330
1E
100
AcDbEntity
  8
7
100
AcDbLine
 10
6.235320891247184
 20
7.167018727466958
 30
0.0
 11
6.238273647152695
 21
7.163081719592943
 31
0.0
  0
LINE
  5
3507
330
1E
100
AcDbEntity
  8
7
100
AcDbLine
 10
6.238273647152695
 20
7.163081719592943
 30
0.0
 11
6.242210655026713
 21
7.160128963687432
 31
0.0
  0
LINE
  5
3508
330
1E
100
AcDbEntity
  8
7
100
AcDbLine
 10
6.242210655026713
 20
7.160128963687432
 30
0.0
 11
6.247131914869232
 21
7.159144711718926
 31
0.0
  0
LINE
  5
3509
330
1E
100
AcDbEntity
  8
7
100
AcDbLine
 10
6.247131914869232
 20
7.159144711718926
 30
0.0
 11
6.248116166837736
 21
7.159144711718926
 31
0.0
  0
LINE
  5
350A
330
1E
100
AcDbEntity
  8
7
100
AcDbLine
 10
6.933155536916476
 20
7.175876995183495
 30
0.0
 11
6.932171284947973
 21
7.180798255026013
 31
0.0
  0
LINE
  5
350B
330
1E
100
AcDbEntity
  8
7
100
AcDbLine
 10
6.932171284947973
 20
7.180798255026013
 30
0.0
 11
6.929218529042461
 21
7.18473526290003
 31
0.0
  0
LINE
  5
350C
330
1E
100
AcDbEntity
  8
7
100
AcDbLine
 10
6.929218529042461
 20
7.18473526290003
 30
0.0
 11
6.925281521168443
 21
7.187688018805541
 31
0.0
  0
LINE
  5
350D
330
1E
100
AcDbEntity
  8
7
100
AcDbLine
 10
6.925281521168443
 20
7.187688018805541
 30
0.0
 11
6.920360261325924
 21
7.188672270774045
 31
0.0
  0
LINE
  5
350E
330
1E
100
AcDbEntity
  8
7
100
AcDbLine
 10
6.920360261325924
 20
7.188672270774045
 30
0.0
 11
6.918391757388917
 21
7.188672270774045
 31
0.0
  0
LINE
  5
350F
330
1E
100
AcDbEntity
  8
7
100
AcDbLine
 10
6.918391757388917
 20
7.159144711718926
 30
0.0
 11
6.923313017231436
 21
7.160128963687432
 31
0.0
  0
LINE
  5
3510
330
1E
100
AcDbEntity
  8
7
100
AcDbLine
 10
6.923313017231436
 20
7.160128963687432
 30
0.0
 11
6.928234277073958
 21
7.162097467624439
 31
0.0
  0
LINE
  5
3511
330
1E
100
AcDbEntity
  8
7
100
AcDbLine
 10
6.928234277073958
 20
7.162097467624439
 30
0.0
 11
6.931187032979469
 21
7.166034475498454
 31
0.0
  0
LINE
  5
3512
330
1E
100
AcDbEntity
  8
7
100
AcDbLine
 10
6.931187032979469
 20
7.166034475498454
 30
0.0
 11
6.933155536916476
 21
7.170955735340974
 31
0.0
  0
LINE
  5
3513
330
1E
100
AcDbEntity
  8
7
100
AcDbLine
 10
6.933155536916476
 20
7.170955735340974
 30
0.0
 11
6.933155536916476
 21
7.175876995183495
 31
0.0
  0
LINE
  5
3514
330
1E
100
AcDbEntity
  8
7
100
AcDbLine
 10
6.918391757388917
 20
7.188672270774045
 30
0.0
 11
6.752053174711754
 21
7.188672270774045
 31
0.0
  0
LINE
  5
3515
330
1E
100
AcDbEntity
  8
7
100
AcDbLine
 10
6.752053174711754
 20
7.188672270774045
 30
0.0
 11
6.585714592034587
 21
7.188672270774045
 31
0.0
  0
LINE
  5
3516
330
1E
100
AcDbEntity
  8
7
100
AcDbLine
 10
6.585714592034587
 20
7.188672270774045
 30
0.0
 11
6.417407505420413
 21
7.188672270774045
 31
0.0
  0
LINE
  5
3517
330
1E
100
AcDbEntity
  8
7
100
AcDbLine
 10
6.417407505420413
 20
7.188672270774045
 30
0.0
 11
6.248116166837736
 21
7.188672270774045
 31
0.0
  0
LINE
  5
3518
330
1E
100
AcDbEntity
  8
7
100
AcDbLine
 10
6.248116166837736
 20
7.159144711718926
 30
0.0
 11
6.414454749514902
 21
7.159144711718926
 31
0.0
  0
LINE
  5
3519
330
1E
100
AcDbEntity
  8
7
100
AcDbLine
 10
6.414454749514902
 20
7.159144711718926
 30
0.0
 11
6.580793332192065
 21
7.159144711718926
 31
0.0
  0
LINE
  5
351A
330
1E
100
AcDbEntity
  8
7
100
AcDbLine
 10
6.580793332192065
 20
7.159144711718926
 30
0.0
 11
6.750084670774743
 21
7.159144711718926
 31
0.0
  0
LINE
  5
351B
330
1E
100
AcDbEntity
  8
7
100
AcDbLine
 10
6.750084670774743
 20
7.159144711718926
 30
0.0
 11
6.918391757388917
 21
7.159144711718926
 31
0.0
  0
LINE
  5
351C
330
1E
100
AcDbEntity
  8
7
100
AcDbLine
 10
6.167407505420413
 20
7.838278569986641
 30
0.0
 11
6.167407505420413
 21
7.17981400305751
 31
0.0
  0
LINE
  5
351D
330
1E
100
AcDbEntity
  8
7
100
AcDbLine
 10
6.167407505420413
 20
7.17981400305751
 30
0.0
 11
6.169376009357421
 21
7.167018727466958
 31
0.0
  0
LINE
  5
351E
330
1E
100
AcDbEntity
  8
7
100
AcDbLine
 10
6.169376009357421
 20
7.167018727466958
 30
0.0
 11
6.175281521168443
 21
7.156191955813415
 31
0.0
  0
LINE
  5
351F
330
1E
100
AcDbEntity
  8
7
100
AcDbLine
 10
6.175281521168443
 20
7.156191955813415
 30
0.0
 11
6.185124040853484
 21
7.14733368809688
 31
0.0
  0
LINE
  5
3520
330
1E
100
AcDbEntity
  8
7
100
AcDbLine
 10
6.185124040853484
 20
7.14733368809688
 30
0.0
 11
6.196935064475532
 21
7.141428176285856
 31
0.0
  0
LINE
  5
3521
330
1E
100
AcDbEntity
  8
7
100
AcDbLine
 10
6.196935064475532
 20
7.141428176285856
 30
0.0
 11
6.207761836129076
 21
7.140443924317352
 31
0.0
  0
LINE
  5
3522
330
1E
100
AcDbEntity
  8
7
100
AcDbLine
 10
6.207761836129076
 20
7.140443924317352
 30
0.0
 11
6.307171284947973
 21
7.141428176285856
 31
0.0
  0
LINE
  5
3523
330
1E
100
AcDbEntity
  8
7
100
AcDbLine
 10
6.307171284947973
 20
7.141428176285856
 30
0.0
 11
6.506974434554273
 21
7.14241242825436
 31
0.0
  0
LINE
  5
3524
330
1E
100
AcDbEntity
  8
7
100
AcDbLine
 10
6.506974434554273
 20
7.14241242825436
 30
0.0
 11
6.70874608809758
 21
7.14241242825436
 31
0.0
  0
LINE
  5
3525
330
1E
100
AcDbEntity
  8
7
100
AcDbLine
 10
6.70874608809758
 20
7.14241242825436
 30
0.0
 11
6.83374608809758
 21
7.141428176285856
 31
0.0
  0
LINE
  5
3526
330
1E
100
AcDbEntity
  8
7
100
AcDbLine
 10
6.83374608809758
 20
7.141428176285856
 30
0.0
 11
6.95874608809758
 21
7.140443924317352
 31
0.0
  0
LINE
  5
3527
330
1E
100
AcDbEntity
  8
7
100
AcDbLine
 10
6.95874608809758
 20
7.140443924317352
 30
0.0
 11
6.972525615656635
 21
7.14241242825436
 31
0.0
  0
LINE
  5
3528
330
1E
100
AcDbEntity
  8
7
100
AcDbLine
 10
6.972525615656635
 20
7.14241242825436
 30
0.0
 11
6.985320891247184
 21
7.149302192033887
 31
0.0
  0
LINE
  5
3529
330
1E
100
AcDbEntity
  8
7
100
AcDbLine
 10
6.985320891247184
 20
7.149302192033887
 30
0.0
 11
6.994179158963721
 21
7.160128963687432
 31
0.0
  0
LINE
  5
352A
330
1E
100
AcDbEntity
  8
7
100
AcDbLine
 10
6.994179158963721
 20
7.160128963687432
 30
0.0
 11
6.999100418806239
 21
7.171939987309478
 31
0.0
  0
LINE
  5
352B
330
1E
100
AcDbEntity
  8
7
100
AcDbLine
 10
6.999100418806239
 20
7.171939987309478
 30
0.0
 11
6.999100418806239
 21
7.17981400305751
 31
0.0
  0
LINE
  5
352C
330
1E
100
AcDbEntity
  8
7
100
AcDbLine
 10
7.044376009357421
 20
8.218199829829163
 30
0.0
 11
7.043391757388917
 21
8.093199829829163
 31
0.0
  0
LINE
  5
352D
330
1E
100
AcDbEntity
  8
7
100
AcDbLine
 10
7.043391757388917
 20
8.093199829829163
 30
0.0
 11
7.042407505420413
 21
7.965247073923652
 31
0.0
  0
LINE
  5
352E
330
1E
100
AcDbEntity
  8
7
100
AcDbLine
 10
7.042407505420413
 20
7.965247073923652
 30
0.0
 11
7.042407505420413
 21
7.838278569986641
 31
0.0
  0
LINE
  5
352F
330
1E
100
AcDbEntity
  8
7
100
AcDbLine
 10
7.042407505420413
 20
7.838278569986641
 30
0.0
 11
7.042407505420413
 21
7.17981400305751
 31
0.0
  0
LINE
  5
3530
330
1E
100
AcDbEntity
  8
7
100
AcDbLine
 10
7.042407505420413
 20
7.17981400305751
 30
0.0
 11
7.085714592034587
 21
7.136506916443337
 31
0.0
  0
LINE
  5
3531
330
1E
100
AcDbEntity
  8
7
100
AcDbLine
 10
7.055202781010965
 20
8.814656522742549
 30
0.0
 11
7.052250025105454
 21
8.699499042427589
 31
0.0
  0
LINE
  5
3532
330
1E
100
AcDbEntity
  8
7
100
AcDbLine
 10
7.052250025105454
 20
8.699499042427589
 30
0.0
 11
7.050281521168443
 21
8.582373058175619
 31
0.0
  0
LINE
  5
3533
330
1E
100
AcDbEntity
  8
7
100
AcDbLine
 10
7.050281521168443
 20
8.582373058175619
 30
0.0
 11
7.047328765262932
 21
8.463278569986641
 31
0.0
  0
LINE
  5
3534
330
1E
100
AcDbEntity
  8
7
100
AcDbLine
 10
7.047328765262932
 20
8.463278569986641
 30
0.0
 11
7.046344513294428
 21
8.343199829829163
 31
0.0
  0
LINE
  5
3535
330
1E
100
AcDbEntity
  8
7
100
AcDbLine
 10
7.046344513294428
 20
8.343199829829163
 30
0.0
 11
7.044376009357421
 21
8.218199829829163
 31
0.0
  0
LINE
  5
3536
330
1E
100
AcDbEntity
  8
7
100
AcDbLine
 10
6.117210655026713
 20
8.572530538490582
 30
0.0
 11
6.114257899121202
 21
8.694577782585071
 31
0.0
  0
LINE
  5
3537
330
1E
100
AcDbEntity
  8
7
100
AcDbLine
 10
6.114257899121202
 20
8.694577782585071
 30
0.0
 11
6.111305143215687
 21
8.814656522742549
 31
0.0
  0
LINE
  5
3538
330
1E
100
AcDbEntity
  8
7
100
AcDbLine
 10
6.111305143215687
 20
8.814656522742549
 30
0.0
 11
6.074887820381043
 21
8.832373058175619
 31
0.0
  0
LINE
  5
3539
330
1E
100
AcDbEntity
  8
7
100
AcDbLine
 10
6.124100418806239
 20
7.17981400305751
 30
0.0
 11
6.124100418806239
 21
7.838278569986641
 31
0.0
  0
LINE
  5
353A
330
1E
100
AcDbEntity
  8
7
100
AcDbLine
 10
6.124100418806239
 20
7.838278569986641
 30
0.0
 11
6.124100418806239
 21
7.96032581408113
 31
0.0
  0
LINE
  5
353B
330
1E
100
AcDbEntity
  8
7
100
AcDbLine
 10
6.124100418806239
 20
7.96032581408113
 30
0.0
 11
6.123116166837736
 21
8.082373058175619
 31
0.0
  0
LINE
  5
353C
330
1E
100
AcDbEntity
  8
7
100
AcDbLine
 10
6.123116166837736
 20
8.082373058175619
 30
0.0
 11
6.122131914869232
 21
8.204420302270108
 31
0.0
  0
LINE
  5
353D
330
1E
100
AcDbEntity
  8
7
100
AcDbLine
 10
6.122131914869232
 20
8.204420302270108
 30
0.0
 11
6.121147662900728
 21
8.326467546364597
 31
0.0
  0
LINE
  5
353E
330
1E
100
AcDbEntity
  8
7
100
AcDbLine
 10
6.121147662900728
 20
8.326467546364597
 30
0.0
 11
6.119179158963721
 21
8.450483294396093
 31
0.0
  0
LINE
  5
353F
330
1E
100
AcDbEntity
  8
7
100
AcDbLine
 10
6.119179158963721
 20
8.450483294396093
 30
0.0
 11
6.117210655026713
 21
8.572530538490582
 31
0.0
  0
LINE
  5
3540
330
1E
100
AcDbEntity
  8
7
100
AcDbLine
 10
6.902643725892854
 20
7.046939987309478
 30
0.0
 11
6.996147662900728
 21
7.046939987309478
 31
0.0
  0
LINE
  5
3541
330
1E
100
AcDbEntity
  8
7
100
AcDbLine
 10
6.996147662900728
 20
7.046939987309478
 30
0.0
 11
6.952840576286554
 21
7.090247073923652
 31
0.0
  0
LINE
  5
3542
330
1E
100
AcDbEntity
  8
7
100
AcDbLine
 10
6.952840576286554
 20
7.090247073923652
 30
0.0
 11
6.769769710144821
 21
7.09221557786066
 31
0.0
  0
LINE
  5
3543
330
1E
100
AcDbEntity
  8
7
100
AcDbLine
 10
6.769769710144821
 20
7.09221557786066
 30
0.0
 11
6.586698844003091
 21
7.09221557786066
 31
0.0
  0
LINE
  5
3544
330
1E
100
AcDbEntity
  8
7
100
AcDbLine
 10
6.586698844003091
 20
7.09221557786066
 30
0.0
 11
6.400675221955847
 21
7.09221557786066
 31
0.0
  0
LINE
  5
3545
330
1E
100
AcDbEntity
  8
7
100
AcDbLine
 10
6.400675221955847
 20
7.09221557786066
 30
0.0
 11
6.214651599908602
 21
7.090247073923652
 31
0.0
  0
LINE
  5
3546
330
1E
100
AcDbEntity
  8
7
100
AcDbLine
 10
6.214651599908602
 20
7.090247073923652
 30
0.0
 11
6.170360261325924
 21
7.046939987309478
 31
0.0
  0
LINE
  5
3547
330
1E
100
AcDbEntity
  8
7
100
AcDbLine
 10
7.049297269199939
 20
7.063672270774045
 30
0.0
 11
7.023706718018839
 21
7.050876995183495
 31
0.0
  0
LINE
  5
3548
330
1E
100
AcDbEntity
  8
7
100
AcDbLine
 10
7.023706718018839
 20
7.050876995183495
 30
0.0
 11
6.996147662900728
 21
7.046939987309478
 31
0.0
  0
LINE
  5
3549
330
1E
100
AcDbEntity
  8
7
100
AcDbLine
 10
7.085714592034587
 20
7.136506916443337
 30
0.0
 11
7.081777584160569
 21
7.108947861325226
 31
0.0
  0
LINE
  5
354A
330
1E
100
AcDbEntity
  8
7
100
AcDbLine
 10
7.081777584160569
 20
7.108947861325226
 30
0.0
 11
7.068982308570021
 21
7.084341562112628
 31
0.0
  0
LINE
  5
354B
330
1E
100
AcDbEntity
  8
7
100
AcDbLine
 10
7.068982308570021
 20
7.084341562112628
 30
0.0
 11
7.049297269199939
 21
7.063672270774045
 31
0.0
  0
LINE
  5
354C
330
1E
100
AcDbEntity
  8
7
100
AcDbLine
 10
6.118194906995217
 20
7.063672270774045
 30
0.0
 11
6.097525615656635
 21
7.084341562112628
 31
0.0
  0
LINE
  5
354D
330
1E
100
AcDbEntity
  8
7
100
AcDbLine
 10
6.097525615656635
 20
7.084341562112628
 30
0.0
 11
6.085714592034587
 21
7.108947861325226
 31
0.0
  0
LINE
  5
354E
330
1E
100
AcDbEntity
  8
7
100
AcDbLine
 10
6.085714592034587
 20
7.108947861325226
 30
0.0
 11
6.080793332192065
 21
7.136506916443337
 31
0.0
  0
LINE
  5
354F
330
1E
100
AcDbEntity
  8
7
100
AcDbLine
 10
6.170360261325924
 20
7.046939987309478
 30
0.0
 11
6.142801206207813
 21
7.050876995183495
 31
0.0
  0
LINE
  5
3550
330
1E
100
AcDbEntity
  8
7
100
AcDbLine
 10
6.142801206207813
 20
7.050876995183495
 30
0.0
 11
6.118194906995217
 21
7.063672270774045
 31
0.0
  0
LINE
  5
3551
330
1E
100
AcDbEntity
  8
7
100
AcDbLine
 10
6.673313017231436
 20
8.872727388884282
 30
0.0
 11
6.472525615656635
 21
8.872727388884282
 31
0.0
  0
LINE
  5
3552
330
1E
100
AcDbEntity
  8
7
100
AcDbLine
 10
6.472525615656635
 20
8.872727388884282
 30
0.0
 11
6.332761836129076
 21
8.872727388884282
 31
0.0
  0
LINE
  5
3553
330
1E
100
AcDbEntity
  8
7
100
AcDbLine
 10
6.332761836129076
 20
8.872727388884282
 30
0.0
 11
6.193982308570021
 21
8.872727388884282
 31
0.0
  0
LINE
  5
3554
330
1E
100
AcDbEntity
  8
7
100
AcDbLine
 10
6.193982308570021
 20
8.872727388884282
 30
0.0
 11
6.182171284947973
 21
8.871743136915778
 31
0.0
  0
LINE
  5
3555
330
1E
100
AcDbEntity
  8
7
100
AcDbLine
 10
6.182171284947973
 20
8.871743136915778
 30
0.0
 11
6.171344513294428
 21
8.865837625104752
 31
0.0
  0
LINE
  5
3556
330
1E
100
AcDbEntity
  8
7
100
AcDbLine
 10
6.171344513294428
 20
8.865837625104752
 30
0.0
 11
6.162486245577895
 21
8.856979357388219
 31
0.0
  0
LINE
  5
3557
330
1E
100
AcDbEntity
  8
7
100
AcDbLine
 10
6.162486245577895
 20
8.856979357388219
 30
0.0
 11
6.156580733766869
 21
8.846152585734675
 31
0.0
  0
LINE
  5
3558
330
1E
100
AcDbEntity
  8
7
100
AcDbLine
 10
6.156580733766869
 20
8.846152585734675
 30
0.0
 11
6.154612229829862
 21
8.832373058175619
 31
0.0
  0
LINE
  5
3559
330
1E
100
AcDbEntity
  8
7
100
AcDbLine
 10
6.154612229829862
 20
8.832373058175619
 30
0.0
 11
6.156580733766869
 21
8.737884869199241
 31
0.0
  0
LINE
  5
355A
330
1E
100
AcDbEntity
  8
7
100
AcDbLine
 10
6.156580733766869
 20
8.737884869199241
 30
0.0
 11
6.160517741640887
 21
8.546939987309478
 31
0.0
  0
LINE
  5
355B
330
1E
100
AcDbEntity
  8
7
100
AcDbLine
 10
6.160517741640887
 20
8.546939987309478
 30
0.0
 11
6.163470497546398
 21
8.351073845577197
 31
0.0
  0
LINE
  5
355C
330
1E
100
AcDbEntity
  8
7
100
AcDbLine
 10
6.163470497546398
 20
8.351073845577197
 30
0.0
 11
6.165439001483406
 21
8.180798255026012
 31
0.0
  0
LINE
  5
355D
330
1E
100
AcDbEntity
  8
7
100
AcDbLine
 10
6.165439001483406
 20
8.180798255026012
 30
0.0
 11
6.16642325345191
 21
8.00953841250633
 31
0.0
  0
LINE
  5
355E
330
1E
100
AcDbEntity
  8
7
100
AcDbLine
 10
6.16642325345191
 20
8.00953841250633
 30
0.0
 11
6.167407505420413
 21
7.838278569986641
 31
0.0
  0
LINE
  5
355F
330
1E
100
AcDbEntity
  8
7
100
AcDbLine
 10
6.58374608809758
 20
7.838278569986641
 30
0.0
 11
6.792407505420413
 21
7.838278569986641
 31
0.0
  0
LINE
  5
3560
330
1E
100
AcDbEntity
  8
7
100
AcDbLine
 10
6.792407505420413
 20
7.838278569986641
 30
0.0
 11
6.999100418806239
 21
7.838278569986641
 31
0.0
  0
LINE
  5
3561
330
1E
100
AcDbEntity
  8
7
100
AcDbLine
 10
6.999100418806239
 20
7.838278569986641
 30
0.0
 11
7.000084670774743
 21
7.937688018805541
 31
0.0
  0
LINE
  5
3562
330
1E
100
AcDbEntity
  8
7
100
AcDbLine
 10
7.000084670774743
 20
7.937688018805541
 30
0.0
 11
7.00106892274325
 21
8.138475420380345
 31
0.0
  0
LINE
  5
3563
330
1E
100
AcDbEntity
  8
7
100
AcDbLine
 10
7.00106892274325
 20
8.138475420380345
 30
0.0
 11
7.003037426680258
 21
8.336310066049634
 31
0.0
  0
LINE
  5
3564
330
1E
100
AcDbEntity
  8
7
100
AcDbLine
 10
7.003037426680258
 20
8.336310066049634
 30
0.0
 11
7.005005930617265
 21
8.504617152663811
 31
0.0
  0
LINE
  5
3565
330
1E
100
AcDbEntity
  8
7
100
AcDbLine
 10
7.005005930617265
 20
8.504617152663811
 30
0.0
 11
7.007958686522776
 21
8.669971483372471
 31
0.0
  0
LINE
  5
3566
330
1E
100
AcDbEntity
  8
7
100
AcDbLine
 10
7.007958686522776
 20
8.669971483372471
 30
0.0
 11
7.011895694396791
 21
8.832373058175619
 31
0.0
  0
LINE
  5
3567
330
1E
100
AcDbEntity
  8
7
100
AcDbLine
 10
7.011895694396791
 20
8.832373058175619
 30
0.0
 11
7.009927190459784
 21
8.846152585734675
 31
0.0
  0
LINE
  5
3568
330
1E
100
AcDbEntity
  8
7
100
AcDbLine
 10
7.009927190459784
 20
8.846152585734675
 30
0.0
 11
7.003037426680258
 21
8.858947861325226
 31
0.0
  0
LINE
  5
3569
330
1E
100
AcDbEntity
  8
7
100
AcDbLine
 10
7.003037426680258
 20
8.858947861325226
 30
0.0
 11
6.993194906995217
 21
8.86780612904176
 31
0.0
  0
LINE
  5
356A
330
1E
100
AcDbEntity
  8
7
100
AcDbLine
 10
6.993194906995217
 20
8.86780612904176
 30
0.0
 11
6.981383883373169
 21
8.872727388884282
 31
0.0
  0
LINE
  5
356B
330
1E
100
AcDbEntity
  8
7
100
AcDbLine
 10
6.981383883373169
 20
8.872727388884282
 30
0.0
 11
6.972525615656635
 21
8.872727388884282
 31
0.0
  0
LINE
  5
356C
330
1E
100
AcDbEntity
  8
7
100
AcDbLine
 10
6.972525615656635
 20
8.872727388884282
 30
0.0
 11
6.873116166837736
 21
8.872727388884282
 31
0.0
  0
LINE
  5
356D
330
1E
100
AcDbEntity
  8
7
100
AcDbLine
 10
6.873116166837736
 20
8.872727388884282
 30
0.0
 11
6.673313017231436
 21
8.872727388884282
 31
0.0
  0
LINE
  5
356E
330
1E
100
AcDbEntity
  8
7
100
AcDbLine
 10
6.167407505420413
 20
7.838278569986641
 30
0.0
 11
6.374100418806239
 21
7.838278569986641
 31
0.0
  0
LINE
  5
356F
330
1E
100
AcDbEntity
  8
7
100
AcDbLine
 10
6.374100418806239
 20
7.838278569986641
 30
0.0
 11
6.58374608809758
 21
7.838278569986641
 31
0.0
  0
LINE
  5
3570
330
1E
100
AcDbEntity
  8
7
100
AcDbLine
 10
7.004021678648761
 20
8.923908491246486
 30
0.0
 11
7.031580733766869
 21
8.918987231403967
 31
0.0
  0
LINE
  5
3571
330
1E
100
AcDbEntity
  8
7
100
AcDbLine
 10
7.031580733766869
 20
8.918987231403967
 30
0.0
 11
7.057171284947973
 21
8.906191955813415
 31
0.0
  0
LINE
  5
3572
330
1E
100
AcDbEntity
  8
7
100
AcDbLine
 10
7.057171284947973
 20
8.906191955813415
 30
0.0
 11
7.075872072349547
 21
8.885522664474834
 31
0.0
  0
LINE
  5
3573
330
1E
100
AcDbEntity
  8
7
100
AcDbLine
 10
7.075872072349547
 20
8.885522664474834
 30
0.0
 11
7.088667347940099
 21
8.860916365262234
 31
0.0
  0
LINE
  5
3574
330
1E
100
AcDbEntity
  8
7
100
AcDbLine
 10
7.088667347940099
 20
8.860916365262234
 30
0.0
 11
7.09162010384561
 21
8.832373058175619
 31
0.0
  0
LINE
  5
3575
330
1E
100
AcDbEntity
  8
7
100
AcDbLine
 10
6.074887820381043
 20
8.832373058175619
 30
0.0
 11
6.078824828255058
 21
8.860916365262234
 31
0.0
  0
LINE
  5
3576
330
1E
100
AcDbEntity
  8
7
100
AcDbLine
 10
6.078824828255058
 20
8.860916365262234
 30
0.0
 11
6.090635851877106
 21
8.885522664474834
 31
0.0
  0
LINE
  5
3577
330
1E
100
AcDbEntity
  8
7
100
AcDbLine
 10
6.090635851877106
 20
8.885522664474834
 30
0.0
 11
6.110320891247184
 21
8.906191955813415
 31
0.0
  0
LINE
  5
3578
330
1E
100
AcDbEntity
  8
7
100
AcDbLine
 10
6.110320891247184
 20
8.906191955813415
 30
0.0
 11
6.134927190459784
 21
8.918987231403967
 31
0.0
  0
LINE
  5
3579
330
1E
100
AcDbEntity
  8
7
100
AcDbLine
 10
6.134927190459784
 20
8.918987231403967
 30
0.0
 11
6.162486245577895
 21
8.923908491246486
 31
0.0
  0
LINE
  5
357A
330
1E
100
AcDbEntity
  8
7
100
AcDbLine
 10
4.041338582677164
 20
8.708661417322835
 30
0.0
 11
4.061023622047243
 21
8.729330708661416
 31
0.0
  0
LINE
  5
357B
330
1E
100
AcDbEntity
  8
7
100
AcDbLine
 10
4.061023622047243
 20
8.729330708661416
 30
0.0
 11
4.085629921259842
 21
8.742125984251968
 31
0.0
  0
LINE
  5
357C
330
1E
100
AcDbEntity
  8
7
100
AcDbLine
 10
4.085629921259842
 20
8.742125984251968
 30
0.0
 11
4.114173228346456
 21
8.746062992125983
 31
0.0
  0
LINE
  5
357D
330
1E
100
AcDbEntity
  8
7
100
AcDbLine
 10
4.023622047244094
 20
8.656496062992125
 30
0.0
 11
4.028543307086613
 21
8.684055118110235
 31
0.0
  0
LINE
  5
357E
330
1E
100
AcDbEntity
  8
7
100
AcDbLine
 10
4.028543307086613
 20
8.684055118110235
 30
0.0
 11
4.041338582677164
 21
8.708661417322835
 31
0.0
  0
LINE
  5
357F
330
1E
100
AcDbEntity
  8
7
100
AcDbLine
 10
4.968503937007874
 20
8.746062992125983
 30
0.0
 11
4.996062992125984
 21
8.742125984251968
 31
0.0
  0
LINE
  5
3580
330
1E
100
AcDbEntity
  8
7
100
AcDbLine
 10
4.996062992125984
 20
8.742125984251968
 30
0.0
 11
5.020669291338582
 21
8.729330708661416
 31
0.0
  0
LINE
  5
3581
330
1E
100
AcDbEntity
  8
7
100
AcDbLine
 10
5.020669291338582
 20
8.729330708661416
 30
0.0
 11
5.041338582677164
 21
8.708661417322835
 31
0.0
  0
LINE
  5
3582
330
1E
100
AcDbEntity
  8
7
100
AcDbLine
 10
5.041338582677164
 20
8.708661417322835
 30
0.0
 11
5.054133858267715
 21
8.684055118110235
 31
0.0
  0
LINE
  5
3583
330
1E
100
AcDbEntity
  8
7
100
AcDbLine
 10
5.054133858267715
 20
8.684055118110235
 30
0.0
 11
5.058070866141731
 21
8.656496062992125
 31
0.0
  0
LINE
  5
3584
330
1E
100
AcDbEntity
  8
7
100
AcDbLine
 10
4.569881889763779
 20
7.921259842519685
 30
0.0
 11
4.551181102362204
 21
7.902559055118109
 31
0.0
  0
LINE
  5
3585
330
1E
100
AcDbEntity
  8
7
100
AcDbLine
 10
4.551181102362204
 20
7.902559055118109
 30
0.0
 11
4.538385826771652
 21
7.877952755905511
 31
0.0
  0
LINE
  5
3586
330
1E
100
AcDbEntity
  8
7
100
AcDbLine
 10
4.538385826771652
 20
7.877952755905511
 30
0.0
 11
4.534448818897637
 21
7.851377952755905
 31
0.0
  0
LINE
  5
3587
330
1E
100
AcDbEntity
  8
7
100
AcDbLine
 10
4.569881889763779
 20
7.781496062992125
 30
0.0
 11
4.594488188976377
 21
7.768700787401574
 31
0.0
  0
LINE
  5
3588
330
1E
100
AcDbEntity
  8
7
100
AcDbLine
 10
4.594488188976377
 20
7.768700787401574
 30
0.0
 11
4.621062992125984
 21
7.764763779527559
 31
0.0
  0
LINE
  5
3589
330
1E
100
AcDbEntity
  8
7
100
AcDbLine
 10
4.621062992125984
 20
7.764763779527559
 30
0.0
 11
4.647637795275589
 21
7.768700787401574
 31
0.0
  0
LINE
  5
358A
330
1E
100
AcDbEntity
  8
7
100
AcDbLine
 10
4.647637795275589
 20
7.768700787401574
 30
0.0
 11
4.672244094488188
 21
7.781496062992125
 31
0.0
  0
LINE
  5
358B
330
1E
100
AcDbEntity
  8
7
100
AcDbLine
 10
4.672244094488188
 20
7.781496062992125
 30
0.0
 11
4.690944881889763
 21
7.8001968503937
 31
0.0
  0
LINE
  5
358C
330
1E
100
AcDbEntity
  8
7
100
AcDbLine
 10
4.690944881889763
 20
7.8001968503937
 30
0.0
 11
4.703740157480314
 21
7.824803149606298
 31
0.0
  0
LINE
  5
358D
330
1E
100
AcDbEntity
  8
7
100
AcDbLine
 10
4.703740157480314
 20
7.824803149606298
 30
0.0
 11
4.70767716535433
 21
7.851377952755905
 31
0.0
  0
LINE
  5
358E
330
1E
100
AcDbEntity
  8
7
100
AcDbLine
 10
4.70767716535433
 20
7.851377952755905
 30
0.0
 11
4.703740157480314
 21
7.877952755905511
 31
0.0
  0
LINE
  5
358F
330
1E
100
AcDbEntity
  8
7
100
AcDbLine
 10
4.703740157480314
 20
7.877952755905511
 30
0.0
 11
4.690944881889763
 21
7.902559055118109
 31
0.0
  0
LINE
  5
3590
330
1E
100
AcDbEntity
  8
7
100
AcDbLine
 10
4.690944881889763
 20
7.902559055118109
 30
0.0
 11
4.672244094488188
 21
7.921259842519685
 31
0.0
  0
LINE
  5
3591
330
1E
100
AcDbEntity
  8
7
100
AcDbLine
 10
4.672244094488188
 20
7.921259842519685
 30
0.0
 11
4.647637795275589
 21
7.934055118110235
 31
0.0
  0
LINE
  5
3592
330
1E
100
AcDbEntity
  8
7
100
AcDbLine
 10
4.647637795275589
 20
7.934055118110235
 30
0.0
 11
4.621062992125984
 21
7.937992125984251
 31
0.0
  0
LINE
  5
3593
330
1E
100
AcDbEntity
  8
7
100
AcDbLine
 10
4.621062992125984
 20
7.937992125984251
 30
0.0
 11
4.594488188976377
 21
7.934055118110235
 31
0.0
  0
LINE
  5
3594
330
1E
100
AcDbEntity
  8
7
100
AcDbLine
 10
4.594488188976377
 20
7.934055118110235
 30
0.0
 11
4.569881889763779
 21
7.921259842519685
 31
0.0
  0
LINE
  5
3595
330
1E
100
AcDbEntity
  8
7
100
AcDbLine
 10
4.534448818897637
 20
7.851377952755905
 30
0.0
 11
4.538385826771652
 21
7.824803149606298
 31
0.0
  0
LINE
  5
3596
330
1E
100
AcDbEntity
  8
7
100
AcDbLine
 10
4.538385826771652
 20
7.824803149606298
 30
0.0
 11
4.551181102362204
 21
7.8001968503937
 31
0.0
  0
LINE
  5
3597
330
1E
100
AcDbEntity
  8
7
100
AcDbLine
 10
4.551181102362204
 20
7.8001968503937
 30
0.0
 11
4.569881889763779
 21
7.781496062992125
 31
0.0
  0
LINE
  5
3598
330
1E
100
AcDbEntity
  8
7
100
AcDbLine
 10
4.690944881889763
 20
7.902559055118109
 30
0.0
 11
4.672244094488188
 21
7.921259842519685
 31
0.0
  0
LINE
  5
3599
330
1E
100
AcDbEntity
  8
7
100
AcDbLine
 10
4.672244094488188
 20
7.921259842519685
 30
0.0
 11
4.647637795275589
 21
7.934055118110235
 31
0.0
  0
LINE
  5
359A
330
1E
100
AcDbEntity
  8
7
100
AcDbLine
 10
4.647637795275589
 20
7.934055118110235
 30
0.0
 11
4.621062992125984
 21
7.937992125984251
 31
0.0
  0
LINE
  5
359B
330
1E
100
AcDbEntity
  8
7
100
AcDbLine
 10
4.621062992125984
 20
7.937992125984251
 30
0.0
 11
4.594488188976377
 21
7.934055118110235
 31
0.0
  0
LINE
  5
359C
330
1E
100
AcDbEntity
  8
7
100
AcDbLine
 10
4.594488188976377
 20
7.934055118110235
 30
0.0
 11
4.569881889763779
 21
7.921259842519685
 31
0.0
  0
LINE
  5
359D
330
1E
100
AcDbEntity
  8
7
100
AcDbLine
 10
4.569881889763779
 20
7.921259842519685
 30
0.0
 11
4.551181102362204
 21
7.902559055118109
 31
0.0
  0
LINE
  5
359E
330
1E
100
AcDbEntity
  8
7
100
AcDbLine
 10
4.551181102362204
 20
7.902559055118109
 30
0.0
 11
4.538385826771652
 21
7.877952755905511
 31
0.0
  0
LINE
  5
359F
330
1E
100
AcDbEntity
  8
7
100
AcDbLine
 10
4.538385826771652
 20
7.877952755905511
 30
0.0
 11
4.534448818897637
 21
7.851377952755905
 31
0.0
  0
LINE
  5
35A0
330
1E
100
AcDbEntity
  8
7
100
AcDbLine
 10
4.534448818897637
 20
7.851377952755905
 30
0.0
 11
4.538385826771652
 21
7.824803149606298
 31
0.0
  0
LINE
  5
35A1
330
1E
100
AcDbEntity
  8
7
100
AcDbLine
 10
4.538385826771652
 20
7.824803149606298
 30
0.0
 11
4.551181102362204
 21
7.8001968503937
 31
0.0
  0
LINE
  5
35A2
330
1E
100
AcDbEntity
  8
7
100
AcDbLine
 10
4.551181102362204
 20
7.8001968503937
 30
0.0
 11
4.569881889763779
 21
7.781496062992125
 31
0.0
  0
LINE
  5
35A3
330
1E
100
AcDbEntity
  8
7
100
AcDbLine
 10
4.569881889763779
 20
7.781496062992125
 30
0.0
 11
4.594488188976377
 21
7.768700787401574
 31
0.0
  0
LINE
  5
35A4
330
1E
100
AcDbEntity
  8
7
100
AcDbLine
 10
4.594488188976377
 20
7.768700787401574
 30
0.0
 11
4.621062992125984
 21
7.764763779527559
 31
0.0
  0
LINE
  5
35A5
330
1E
100
AcDbEntity
  8
7
100
AcDbLine
 10
4.621062992125984
 20
7.764763779527559
 30
0.0
 11
4.647637795275589
 21
7.768700787401574
 31
0.0
  0
LINE
  5
35A6
330
1E
100
AcDbEntity
  8
7
100
AcDbLine
 10
4.647637795275589
 20
7.768700787401574
 30
0.0
 11
4.672244094488188
 21
7.781496062992125
 31
0.0
  0
LINE
  5
35A7
330
1E
100
AcDbEntity
  8
7
100
AcDbLine
 10
4.672244094488188
 20
7.781496062992125
 30
0.0
 11
4.690944881889763
 21
7.8001968503937
 31
0.0
  0
LINE
  5
35A8
330
1E
100
AcDbEntity
  8
7
100
AcDbLine
 10
4.690944881889763
 20
7.8001968503937
 30
0.0
 11
4.703740157480314
 21
7.824803149606298
 31
0.0
  0
LINE
  5
35A9
330
1E
100
AcDbEntity
  8
7
100
AcDbLine
 10
4.703740157480314
 20
7.824803149606298
 30
0.0
 11
4.70767716535433
 21
7.851377952755905
 31
0.0
  0
LINE
  5
35AA
330
1E
100
AcDbEntity
  8
7
100
AcDbLine
 10
4.70767716535433
 20
7.851377952755905
 30
0.0
 11
4.703740157480314
 21
7.877952755905511
 31
0.0
  0
LINE
  5
35AB
330
1E
100
AcDbEntity
  8
7
100
AcDbLine
 10
4.703740157480314
 20
7.877952755905511
 30
0.0
 11
4.690944881889763
 21
7.902559055118109
 31
0.0
  0
LINE
  5
35AC
330
1E
100
AcDbEntity
  8
7
100
AcDbLine
 10
4.487204724409448
 20
7.209645669291337
 30
0.0
 11
4.511811023622047
 21
7.222440944881889
 31
0.0
  0
LINE
  5
35AD
330
1E
100
AcDbEntity
  8
7
100
AcDbLine
 10
4.511811023622047
 20
7.222440944881889
 30
0.0
 11
4.530511811023621
 21
7.241141732283463
 31
0.0
  0
LINE
  5
35AE
330
1E
100
AcDbEntity
  8
7
100
AcDbLine
 10
4.530511811023621
 20
7.241141732283463
 30
0.0
 11
4.543307086614173
 21
7.265748031496062
 31
0.0
  0
LINE
  5
35AF
330
1E
100
AcDbEntity
  8
7
100
AcDbLine
 10
4.543307086614173
 20
7.265748031496062
 30
0.0
 11
4.547244094488188
 21
7.292322834645668
 31
0.0
  0
LINE
  5
35B0
330
1E
100
AcDbEntity
  8
7
100
AcDbLine
 10
4.547244094488188
 20
7.292322834645668
 30
0.0
 11
4.543307086614173
 21
7.318897637795275
 31
0.0
  0
LINE
  5
35B1
330
1E
100
AcDbEntity
  8
7
100
AcDbLine
 10
4.543307086614173
 20
7.318897637795275
 30
0.0
 11
4.530511811023621
 21
7.343503937007874
 31
0.0
  0
LINE
  5
35B2
330
1E
100
AcDbEntity
  8
7
100
AcDbLine
 10
4.530511811023621
 20
7.343503937007874
 30
0.0
 11
4.511811023622047
 21
7.362204724409448
 31
0.0
  0
LINE
  5
35B3
330
1E
100
AcDbEntity
  8
7
100
AcDbLine
 10
4.511811023622047
 20
7.362204724409448
 30
0.0
 11
4.487204724409448
 21
7.375
 31
0.0
  0
LINE
  5
35B4
330
1E
100
AcDbEntity
  8
7
100
AcDbLine
 10
4.487204724409448
 20
7.375
 30
0.0
 11
4.460629921259842
 21
7.378937007874014
 31
0.0
  0
LINE
  5
35B5
330
1E
100
AcDbEntity
  8
7
100
AcDbLine
 10
4.460629921259842
 20
7.378937007874014
 30
0.0
 11
4.434055118110236
 21
7.375
 31
0.0
  0
LINE
  5
35B6
330
1E
100
AcDbEntity
  8
7
100
AcDbLine
 10
4.434055118110236
 20
7.375
 30
0.0
 11
4.409448818897637
 21
7.362204724409448
 31
0.0
  0
LINE
  5
35B7
330
1E
100
AcDbEntity
  8
7
100
AcDbLine
 10
4.409448818897637
 20
7.362204724409448
 30
0.0
 11
4.390748031496062
 21
7.343503937007874
 31
0.0
  0
LINE
  5
35B8
330
1E
100
AcDbEntity
  8
7
100
AcDbLine
 10
4.390748031496062
 20
7.343503937007874
 30
0.0
 11
4.377952755905511
 21
7.318897637795275
 31
0.0
  0
LINE
  5
35B9
330
1E
100
AcDbEntity
  8
7
100
AcDbLine
 10
4.377952755905511
 20
7.318897637795275
 30
0.0
 11
4.374015748031495
 21
7.292322834645668
 31
0.0
  0
LINE
  5
35BA
330
1E
100
AcDbEntity
  8
7
100
AcDbLine
 10
4.374015748031495
 20
7.292322834645668
 30
0.0
 11
4.377952755905511
 21
7.265748031496062
 31
0.0
  0
LINE
  5
35BB
330
1E
100
AcDbEntity
  8
7
100
AcDbLine
 10
4.377952755905511
 20
7.265748031496062
 30
0.0
 11
4.390748031496062
 21
7.241141732283463
 31
0.0
  0
LINE
  5
35BC
330
1E
100
AcDbEntity
  8
7
100
AcDbLine
 10
4.390748031496062
 20
7.241141732283463
 30
0.0
 11
4.409448818897637
 21
7.222440944881889
 31
0.0
  0
LINE
  5
35BD
330
1E
100
AcDbEntity
  8
7
100
AcDbLine
 10
4.409448818897637
 20
7.222440944881889
 30
0.0
 11
4.434055118110236
 21
7.209645669291337
 31
0.0
  0
LINE
  5
35BE
330
1E
100
AcDbEntity
  8
7
100
AcDbLine
 10
4.434055118110236
 20
7.209645669291337
 30
0.0
 11
4.460629921259842
 21
7.205708661417322
 31
0.0
  0
LINE
  5
35BF
330
1E
100
AcDbEntity
  8
7
100
AcDbLine
 10
4.460629921259842
 20
7.205708661417322
 30
0.0
 11
4.487204724409448
 21
7.209645669291337
 31
0.0
  0
LINE
  5
35C0
330
1E
100
AcDbEntity
  8
7
100
AcDbLine
 10
4.460629921259842
 20
7.378937007874014
 30
0.0
 11
4.434055118110236
 21
7.375
 31
0.0
  0
LINE
  5
35C1
330
1E
100
AcDbEntity
  8
7
100
AcDbLine
 10
4.434055118110236
 20
7.375
 30
0.0
 11
4.409448818897637
 21
7.362204724409448
 31
0.0
  0
LINE
  5
35C2
330
1E
100
AcDbEntity
  8
7
100
AcDbLine
 10
4.409448818897637
 20
7.362204724409448
 30
0.0
 11
4.390748031496062
 21
7.343503937007874
 31
0.0
  0
LINE
  5
35C3
330
1E
100
AcDbEntity
  8
7
100
AcDbLine
 10
4.390748031496062
 20
7.343503937007874
 30
0.0
 11
4.377952755905511
 21
7.318897637795275
 31
0.0
  0
LINE
  5
35C4
330
1E
100
AcDbEntity
  8
7
100
AcDbLine
 10
4.377952755905511
 20
7.318897637795275
 30
0.0
 11
4.374015748031495
 21
7.292322834645668
 31
0.0
  0
LINE
  5
35C5
330
1E
100
AcDbEntity
  8
7
100
AcDbLine
 10
4.374015748031495
 20
7.292322834645668
 30
0.0
 11
4.377952755905511
 21
7.265748031496062
 31
0.0
  0
LINE
  5
35C6
330
1E
100
AcDbEntity
  8
7
100
AcDbLine
 10
4.377952755905511
 20
7.265748031496062
 30
0.0
 11
4.390748031496062
 21
7.241141732283463
 31
0.0
  0
LINE
  5
35C7
330
1E
100
AcDbEntity
  8
7
100
AcDbLine
 10
4.390748031496062
 20
7.241141732283463
 30
0.0
 11
4.409448818897637
 21
7.222440944881889
 31
0.0
  0
LINE
  5
35C8
330
1E
100
AcDbEntity
  8
7
100
AcDbLine
 10
4.409448818897637
 20
7.222440944881889
 30
0.0
 11
4.434055118110236
 21
7.209645669291337
 31
0.0
  0
LINE
  5
35C9
330
1E
100
AcDbEntity
  8
7
100
AcDbLine
 10
4.434055118110236
 20
7.209645669291337
 30
0.0
 11
4.460629921259842
 21
7.205708661417322
 31
0.0
  0
LINE
  5
35CA
330
1E
100
AcDbEntity
  8
7
100
AcDbLine
 10
4.460629921259842
 20
7.205708661417322
 30
0.0
 11
4.487204724409448
 21
7.209645669291337
 31
0.0
  0
LINE
  5
35CB
330
1E
100
AcDbEntity
  8
7
100
AcDbLine
 10
4.487204724409448
 20
7.209645669291337
 30
0.0
 11
4.511811023622047
 21
7.222440944881889
 31
0.0
  0
LINE
  5
35CC
330
1E
100
AcDbEntity
  8
7
100
AcDbLine
 10
4.511811023622047
 20
7.222440944881889
 30
0.0
 11
4.530511811023621
 21
7.241141732283463
 31
0.0
  0
LINE
  5
35CD
330
1E
100
AcDbEntity
  8
7
100
AcDbLine
 10
4.530511811023621
 20
7.241141732283463
 30
0.0
 11
4.543307086614173
 21
7.265748031496062
 31
0.0
  0
LINE
  5
35CE
330
1E
100
AcDbEntity
  8
7
100
AcDbLine
 10
4.543307086614173
 20
7.265748031496062
 30
0.0
 11
4.547244094488188
 21
7.292322834645668
 31
0.0
  0
LINE
  5
35CF
330
1E
100
AcDbEntity
  8
7
100
AcDbLine
 10
4.547244094488188
 20
7.292322834645668
 30
0.0
 11
4.543307086614173
 21
7.318897637795275
 31
0.0
  0
LINE
  5
35D0
330
1E
100
AcDbEntity
  8
7
100
AcDbLine
 10
4.543307086614173
 20
7.318897637795275
 30
0.0
 11
4.530511811023621
 21
7.343503937007874
 31
0.0
  0
LINE
  5
35D1
330
1E
100
AcDbEntity
  8
7
100
AcDbLine
 10
4.530511811023621
 20
7.343503937007874
 30
0.0
 11
4.511811023622047
 21
7.362204724409448
 31
0.0
  0
LINE
  5
35D2
330
1E
100
AcDbEntity
  8
7
100
AcDbLine
 10
4.511811023622047
 20
7.362204724409448
 30
0.0
 11
4.487204724409448
 21
7.375
 31
0.0
  0
LINE
  5
35D3
330
1E
100
AcDbEntity
  8
7
100
AcDbLine
 10
4.487204724409448
 20
7.375
 30
0.0
 11
4.460629921259842
 21
7.378937007874014
 31
0.0
  0
LINE
  5
35D4
330
1E
100
AcDbEntity
  8
7
100
AcDbLine
 10
4.14271653543307
 20
8.659448818897637
 30
0.0
 11
4.127952755905511
 21
8.653543307086613
 31
0.0
  0
LINE
  5
35D5
330
1E
100
AcDbEntity
  8
7
100
AcDbLine
 10
4.127952755905511
 20
8.653543307086613
 30
0.0
 11
4.122047244094487
 21
8.639763779527559
 31
0.0
  0
LINE
  5
35D6
330
1E
100
AcDbEntity
  8
7
100
AcDbLine
 10
4.122047244094487
 20
8.639763779527559
 30
0.0
 11
4.122047244094487
 21
8.242125984251968
 31
0.0
  0
LINE
  5
35D7
330
1E
100
AcDbEntity
  8
7
100
AcDbLine
 10
4.122047244094487
 20
8.242125984251968
 30
0.0
 11
4.196850393700787
 21
8.242125984251968
 31
0.0
  0
LINE
  5
35D8
330
1E
100
AcDbEntity
  8
7
100
AcDbLine
 10
4.196850393700787
 20
8.242125984251968
 30
0.0
 11
4.196850393700787
 21
8.477362204724409
 31
0.0
  0
LINE
  5
35D9
330
1E
100
AcDbEntity
  8
7
100
AcDbLine
 10
4.196850393700787
 20
8.477362204724409
 30
0.0
 11
4.162401574803149
 21
8.477362204724409
 31
0.0
  0
LINE
  5
35DA
330
1E
100
AcDbEntity
  8
7
100
AcDbLine
 10
4.959645669291337
 20
8.639763779527559
 30
0.0
 11
4.953740157480314
 21
8.653543307086613
 31
0.0
  0
LINE
  5
35DB
330
1E
100
AcDbEntity
  8
7
100
AcDbLine
 10
4.953740157480314
 20
8.653543307086613
 30
0.0
 11
4.939960629921259
 21
8.659448818897637
 31
0.0
  0
LINE
  5
35DC
330
1E
100
AcDbEntity
  8
7
100
AcDbLine
 10
4.959645669291337
 20
6.970472440944881
 30
0.0
 11
4.953740157480314
 21
6.955708661417322
 31
0.0
  0
LINE
  5
35DD
330
1E
100
AcDbEntity
  8
7
100
AcDbLine
 10
4.953740157480314
 20
6.955708661417322
 30
0.0
 11
4.939960629921259
 21
6.949803149606299
 31
0.0
  0
LINE
  5
35DE
330
1E
100
AcDbEntity
  8
7
100
AcDbLine
 10
4.939960629921259
 20
6.949803149606299
 30
0.0
 11
4.949803149606299
 21
6.939960629921259
 31
0.0
  0
LINE
  5
35DF
330
1E
100
AcDbEntity
  8
7
100
AcDbLine
 10
4.959645669291337
 20
6.970472440944881
 30
0.0
 11
4.959645669291337
 21
7.35531496062992
 31
0.0
  0
LINE
  5
35E0
330
1E
100
AcDbEntity
  8
7
100
AcDbLine
 10
4.959645669291337
 20
7.35531496062992
 30
0.0
 11
4.884842519685038
 21
7.35531496062992
 31
0.0
  0
LINE
  5
35E1
330
1E
100
AcDbEntity
  8
7
100
AcDbLine
 10
4.884842519685038
 20
7.35531496062992
 30
0.0
 11
4.884842519685038
 21
7.120078740157479
 31
0.0
  0
LINE
  5
35E2
330
1E
100
AcDbEntity
  8
7
100
AcDbLine
 10
4.884842519685038
 20
7.120078740157479
 30
0.0
 11
4.919291338582676
 21
7.120078740157479
 31
0.0
  0
LINE
  5
35E3
330
1E
100
AcDbEntity
  8
7
100
AcDbLine
 10
4.162401574803149
 20
6.949803149606299
 30
0.0
 11
4.14271653543307
 21
6.949803149606299
 31
0.0
  0
LINE
  5
35E4
330
1E
100
AcDbEntity
  8
7
100
AcDbLine
 10
4.14271653543307
 20
6.949803149606299
 30
0.0
 11
4.132874015748031
 21
6.939960629921259
 31
0.0
  0
LINE
  5
35E5
330
1E
100
AcDbEntity
  8
7
100
AcDbLine
 10
4.122047244094487
 20
6.970472440944881
 30
0.0
 11
4.127952755905511
 21
6.955708661417322
 31
0.0
  0
LINE
  5
35E6
330
1E
100
AcDbEntity
  8
7
100
AcDbLine
 10
4.127952755905511
 20
6.955708661417322
 30
0.0
 11
4.14271653543307
 21
6.949803149606299
 31
0.0
  0
LINE
  5
35E7
330
1E
100
AcDbEntity
  8
7
100
AcDbLine
 10
4.035433070866141
 20
7.989173228346455
 30
0.0
 11
4.035433070866141
 21
8.239173228346455
 31
0.0
  0
LINE
  5
35E8
330
1E
100
AcDbEntity
  8
7
100
AcDbLine
 10
4.035433070866141
 20
8.239173228346455
 30
0.0
 11
4.038385826771652
 21
8.240157480314961
 31
0.0
  0
LINE
  5
35E9
330
1E
100
AcDbEntity
  8
7
100
AcDbLine
 10
4.106299212598425
 20
8.64763779527559
 30
0.0
 11
4.109251968503937
 21
8.657480314960629
 31
0.0
  0
LINE
  5
35EA
330
1E
100
AcDbEntity
  8
7
100
AcDbLine
 10
4.109251968503937
 20
8.657480314960629
 30
0.0
 11
4.116141732283463
 21
8.665354330708661
 31
0.0
  0
LINE
  5
35EB
330
1E
100
AcDbEntity
  8
7
100
AcDbLine
 10
4.116141732283463
 20
8.665354330708661
 30
0.0
 11
4.125984251968503
 21
8.668307086614172
 31
0.0
  0
LINE
  5
35EC
330
1E
100
AcDbEntity
  8
7
100
AcDbLine
 10
4.120078740157479
 20
8.743110236220472
 30
0.0
 11
4.092519685039369
 21
8.738188976377951
 31
0.0
  0
LINE
  5
35ED
330
1E
100
AcDbEntity
  8
7
100
AcDbLine
 10
4.092519685039369
 20
8.738188976377951
 30
0.0
 11
4.067913385826771
 21
8.725393700787401
 31
0.0
  0
LINE
  5
35EE
330
1E
100
AcDbEntity
  8
7
100
AcDbLine
 10
4.067913385826771
 20
8.725393700787401
 30
0.0
 11
4.048228346456692
 21
8.705708661417322
 31
0.0
  0
LINE
  5
35EF
330
1E
100
AcDbEntity
  8
7
100
AcDbLine
 10
4.048228346456692
 20
8.705708661417322
 30
0.0
 11
4.036417322834645
 21
8.68011811023622
 31
0.0
  0
LINE
  5
35F0
330
1E
100
AcDbEntity
  8
7
100
AcDbLine
 10
4.036417322834645
 20
8.68011811023622
 30
0.0
 11
4.032480314960629
 21
8.651574803149605
 31
0.0
  0
LINE
  5
35F1
330
1E
100
AcDbEntity
  8
7
100
AcDbLine
 10
4.566929133858267
 20
7.405511811023622
 30
0.0
 11
4.538385826771652
 21
7.427165354330707
 31
0.0
  0
LINE
  5
35F2
330
1E
100
AcDbEntity
  8
7
100
AcDbLine
 10
4.538385826771652
 20
7.427165354330707
 30
0.0
 11
4.504921259842519
 21
7.440944881889762
 31
0.0
  0
LINE
  5
35F3
330
1E
100
AcDbEntity
  8
7
100
AcDbLine
 10
4.504921259842519
 20
7.440944881889762
 30
0.0
 11
4.469488188976377
 21
7.44783464566929
 31
0.0
  0
LINE
  5
35F4
330
1E
100
AcDbEntity
  8
7
100
AcDbLine
 10
4.469488188976377
 20
7.44783464566929
 30
0.0
 11
4.434055118110236
 21
7.445866141732283
 31
0.0
  0
LINE
  5
35F5
330
1E
100
AcDbEntity
  8
7
100
AcDbLine
 10
4.434055118110236
 20
7.445866141732283
 30
0.0
 11
4.398622047244094
 21
7.435039370078738
 31
0.0
  0
LINE
  5
35F6
330
1E
100
AcDbEntity
  8
7
100
AcDbLine
 10
4.398622047244094
 20
7.435039370078738
 30
0.0
 11
4.368110236220472
 21
7.417322834645668
 31
0.0
  0
LINE
  5
35F7
330
1E
100
AcDbEntity
  8
7
100
AcDbLine
 10
4.368110236220472
 20
7.417322834645668
 30
0.0
 11
4.341535433070865
 21
7.39271653543307
 31
0.0
  0
LINE
  5
35F8
330
1E
100
AcDbEntity
  8
7
100
AcDbLine
 10
4.341535433070865
 20
7.39271653543307
 30
0.0
 11
4.321850393700787
 21
7.362204724409448
 31
0.0
  0
LINE
  5
35F9
330
1E
100
AcDbEntity
  8
7
100
AcDbLine
 10
4.321850393700787
 20
7.362204724409448
 30
0.0
 11
4.309055118110236
 21
7.327755905511811
 31
0.0
  0
LINE
  5
35FA
330
1E
100
AcDbEntity
  8
7
100
AcDbLine
 10
4.309055118110236
 20
7.327755905511811
 30
0.0
 11
4.30511811023622
 21
7.292322834645668
 31
0.0
  0
LINE
  5
35FB
330
1E
100
AcDbEntity
  8
7
100
AcDbLine
 10
4.321850393700787
 20
7.222440944881889
 30
0.0
 11
4.341535433070865
 21
7.191929133858267
 31
0.0
  0
LINE
  5
35FC
330
1E
100
AcDbEntity
  8
7
100
AcDbLine
 10
4.341535433070865
 20
7.191929133858267
 30
0.0
 11
4.368110236220472
 21
7.167322834645668
 31
0.0
  0
LINE
  5
35FD
330
1E
100
AcDbEntity
  8
7
100
AcDbLine
 10
4.368110236220472
 20
7.167322834645668
 30
0.0
 11
4.398622047244094
 21
7.149606299212598
 31
0.0
  0
LINE
  5
35FE
330
1E
100
AcDbEntity
  8
7
100
AcDbLine
 10
4.398622047244094
 20
7.149606299212598
 30
0.0
 11
4.434055118110236
 21
7.138779527559054
 31
0.0
  0
LINE
  5
35FF
330
1E
100
AcDbEntity
  8
7
100
AcDbLine
 10
4.434055118110236
 20
7.138779527559054
 30
0.0
 11
4.469488188976377
 21
7.136811023622047
 31
0.0
  0
LINE
  5
3600
330
1E
100
AcDbEntity
  8
7
100
AcDbLine
 10
4.469488188976377
 20
7.136811023622047
 30
0.0
 11
4.504921259842519
 21
7.143700787401574
 31
0.0
  0
LINE
  5
3601
330
1E
100
AcDbEntity
  8
7
100
AcDbLine
 10
4.504921259842519
 20
7.143700787401574
 30
0.0
 11
4.538385826771652
 21
7.157480314960629
 31
0.0
  0
LINE
  5
3602
330
1E
100
AcDbEntity
  8
7
100
AcDbLine
 10
4.538385826771652
 20
7.157480314960629
 30
0.0
 11
4.566929133858267
 21
7.179133858267715
 31
0.0
  0
LINE
  5
3603
330
1E
100
AcDbEntity
  8
7
100
AcDbLine
 10
4.566929133858267
 20
7.179133858267715
 30
0.0
 11
4.590551181102362
 21
7.206692913385826
 31
0.0
  0
LINE
  5
3604
330
1E
100
AcDbEntity
  8
7
100
AcDbLine
 10
4.590551181102362
 20
7.206692913385826
 30
0.0
 11
4.606299212598425
 21
7.239173228346456
 31
0.0
  0
LINE
  5
3605
330
1E
100
AcDbEntity
  8
7
100
AcDbLine
 10
4.606299212598425
 20
7.239173228346456
 30
0.0
 11
4.61515748031496
 21
7.274606299212598
 31
0.0
  0
LINE
  5
3606
330
1E
100
AcDbEntity
  8
7
100
AcDbLine
 10
4.61515748031496
 20
7.274606299212598
 30
0.0
 11
4.61515748031496
 21
7.310039370078738
 31
0.0
  0
LINE
  5
3607
330
1E
100
AcDbEntity
  8
7
100
AcDbLine
 10
4.61515748031496
 20
7.310039370078738
 30
0.0
 11
4.606299212598425
 21
7.345472440944881
 31
0.0
  0
LINE
  5
3608
330
1E
100
AcDbEntity
  8
7
100
AcDbLine
 10
4.606299212598425
 20
7.345472440944881
 30
0.0
 11
4.590551181102362
 21
7.377952755905511
 31
0.0
  0
LINE
  5
3609
330
1E
100
AcDbEntity
  8
7
100
AcDbLine
 10
4.590551181102362
 20
7.377952755905511
 30
0.0
 11
4.566929133858267
 21
7.405511811023622
 31
0.0
  0
LINE
  5
360A
330
1E
100
AcDbEntity
  8
7
100
AcDbLine
 10
4.30511811023622
 20
7.292322834645668
 30
0.0
 11
4.309055118110236
 21
7.256889763779527
 31
0.0
  0
LINE
  5
360B
330
1E
100
AcDbEntity
  8
7
100
AcDbLine
 10
4.309055118110236
 20
7.256889763779527
 30
0.0
 11
4.321850393700787
 21
7.222440944881889
 31
0.0
  0
LINE
  5
360C
330
1E
100
AcDbEntity
  8
7
100
AcDbLine
 10
4.629921259842519
 20
8.006889763779527
 30
0.0
 11
4.594488188976377
 21
8.004921259842518
 31
0.0
  0
LINE
  5
360D
330
1E
100
AcDbEntity
  8
7
100
AcDbLine
 10
4.594488188976377
 20
8.004921259842518
 30
0.0
 11
4.559055118110236
 21
7.994094488188975
 31
0.0
  0
LINE
  5
360E
330
1E
100
AcDbEntity
  8
7
100
AcDbLine
 10
4.559055118110236
 20
7.994094488188975
 30
0.0
 11
4.528543307086613
 21
7.976377952755905
 31
0.0
  0
LINE
  5
360F
330
1E
100
AcDbEntity
  8
7
100
AcDbLine
 10
4.528543307086613
 20
7.976377952755905
 30
0.0
 11
4.501968503937007
 21
7.951771653543307
 31
0.0
  0
LINE
  5
3610
330
1E
100
AcDbEntity
  8
7
100
AcDbLine
 10
4.501968503937007
 20
7.951771653543307
 30
0.0
 11
4.482283464566928
 21
7.921259842519685
 31
0.0
  0
LINE
  5
3611
330
1E
100
AcDbEntity
  8
7
100
AcDbLine
 10
4.482283464566928
 20
7.921259842519685
 30
0.0
 11
4.469488188976377
 21
7.886811023622046
 31
0.0
  0
LINE
  5
3612
330
1E
100
AcDbEntity
  8
7
100
AcDbLine
 10
4.469488188976377
 20
7.886811023622046
 30
0.0
 11
4.465551181102362
 21
7.851377952755905
 31
0.0
  0
LINE
  5
3613
330
1E
100
AcDbEntity
  8
7
100
AcDbLine
 10
4.559055118110236
 20
7.708661417322835
 30
0.0
 11
4.594488188976377
 21
7.69783464566929
 31
0.0
  0
LINE
  5
3614
330
1E
100
AcDbEntity
  8
7
100
AcDbLine
 10
4.594488188976377
 20
7.69783464566929
 30
0.0
 11
4.629921259842519
 21
7.695866141732283
 31
0.0
  0
LINE
  5
3615
330
1E
100
AcDbEntity
  8
7
100
AcDbLine
 10
4.629921259842519
 20
7.695866141732283
 30
0.0
 11
4.665354330708661
 21
7.702755905511811
 31
0.0
  0
LINE
  5
3616
330
1E
100
AcDbEntity
  8
7
100
AcDbLine
 10
4.665354330708661
 20
7.702755905511811
 30
0.0
 11
4.698818897637795
 21
7.716535433070866
 31
0.0
  0
LINE
  5
3617
330
1E
100
AcDbEntity
  8
7
100
AcDbLine
 10
4.698818897637795
 20
7.716535433070866
 30
0.0
 11
4.727362204724409
 21
7.738188976377951
 31
0.0
  0
LINE
  5
3618
330
1E
100
AcDbEntity
  8
7
100
AcDbLine
 10
4.727362204724409
 20
7.738188976377951
 30
0.0
 11
4.750984251968503
 21
7.765748031496062
 31
0.0
  0
LINE
  5
3619
330
1E
100
AcDbEntity
  8
7
100
AcDbLine
 10
4.750984251968503
 20
7.765748031496062
 30
0.0
 11
4.766732283464566
 21
7.798228346456692
 31
0.0
  0
LINE
  5
361A
330
1E
100
AcDbEntity
  8
7
100
AcDbLine
 10
4.766732283464566
 20
7.798228346456692
 30
0.0
 11
4.775590551181101
 21
7.833661417322835
 31
0.0
  0
LINE
  5
361B
330
1E
100
AcDbEntity
  8
7
100
AcDbLine
 10
4.775590551181101
 20
7.833661417322835
 30
0.0
 11
4.775590551181101
 21
7.869094488188975
 31
0.0
  0
LINE
  5
361C
330
1E
100
AcDbEntity
  8
7
100
AcDbLine
 10
4.775590551181101
 20
7.869094488188975
 30
0.0
 11
4.766732283464566
 21
7.904527559055118
 31
0.0
  0
LINE
  5
361D
330
1E
100
AcDbEntity
  8
7
100
AcDbLine
 10
4.766732283464566
 20
7.904527559055118
 30
0.0
 11
4.750984251968503
 21
7.937007874015748
 31
0.0
  0
LINE
  5
361E
330
1E
100
AcDbEntity
  8
7
100
AcDbLine
 10
4.750984251968503
 20
7.937007874015748
 30
0.0
 11
4.727362204724409
 21
7.964566929133857
 31
0.0
  0
LINE
  5
361F
330
1E
100
AcDbEntity
  8
7
100
AcDbLine
 10
4.727362204724409
 20
7.964566929133857
 30
0.0
 11
4.698818897637795
 21
7.986220472440944
 31
0.0
  0
LINE
  5
3620
330
1E
100
AcDbEntity
  8
7
100
AcDbLine
 10
4.698818897637795
 20
7.986220472440944
 30
0.0
 11
4.665354330708661
 21
8.0
 31
0.0
  0
LINE
  5
3621
330
1E
100
AcDbEntity
  8
7
100
AcDbLine
 10
4.665354330708661
 20
8.0
 30
0.0
 11
4.629921259842519
 21
8.006889763779527
 31
0.0
  0
LINE
  5
3622
330
1E
100
AcDbEntity
  8
7
100
AcDbLine
 10
4.465551181102362
 20
7.851377952755905
 30
0.0
 11
4.469488188976377
 21
7.815944881889762
 31
0.0
  0
LINE
  5
3623
330
1E
100
AcDbEntity
  8
7
100
AcDbLine
 10
4.469488188976377
 20
7.815944881889762
 30
0.0
 11
4.482283464566928
 21
7.781496062992125
 31
0.0
  0
LINE
  5
3624
330
1E
100
AcDbEntity
  8
7
100
AcDbLine
 10
4.482283464566928
 20
7.781496062992125
 30
0.0
 11
4.501968503937007
 21
7.750984251968503
 31
0.0
  0
LINE
  5
3625
330
1E
100
AcDbEntity
  8
7
100
AcDbLine
 10
4.501968503937007
 20
7.750984251968503
 30
0.0
 11
4.528543307086613
 21
7.726377952755905
 31
0.0
  0
LINE
  5
3626
330
1E
100
AcDbEntity
  8
7
100
AcDbLine
 10
4.528543307086613
 20
7.726377952755905
 30
0.0
 11
4.559055118110236
 21
7.708661417322835
 31
0.0
  0
LINE
  5
3627
330
1E
100
AcDbEntity
  8
7
100
AcDbLine
 10
4.915354330708661
 20
7.111220472440944
 30
0.0
 11
4.875984251968503
 21
7.111220472440944
 31
0.0
  0
LINE
  5
3628
330
1E
100
AcDbEntity
  8
7
100
AcDbLine
 10
4.875984251968503
 20
7.111220472440944
 30
0.0
 11
4.875984251968503
 21
7.364173228346455
 31
0.0
  0
LINE
  5
3629
330
1E
100
AcDbEntity
  8
7
100
AcDbLine
 10
4.206692913385826
 20
8.452755905511811
 30
0.0
 11
4.206692913385826
 21
8.233267716535433
 31
0.0
  0
LINE
  5
362A
330
1E
100
AcDbEntity
  8
7
100
AcDbLine
 10
4.206692913385826
 20
8.233267716535433
 30
0.0
 11
4.146653543307086
 21
8.233267716535433
 31
0.0
  0
LINE
  5
362B
330
1E
100
AcDbEntity
  8
7
100
AcDbLine
 10
4.146653543307086
 20
8.233267716535433
 30
0.0
 11
4.146653543307086
 21
7.939960629921259
 31
0.0
  0
LINE
  5
362C
330
1E
100
AcDbEntity
  8
7
100
AcDbLine
 10
4.146653543307086
 20
7.939960629921259
 30
0.0
 11
4.117125984251968
 21
7.939960629921259
 31
0.0
  0
LINE
  5
362D
330
1E
100
AcDbEntity
  8
7
100
AcDbLine
 10
4.117125984251968
 20
7.939960629921259
 30
0.0
 11
4.117125984251968
 21
7.364173228346455
 31
0.0
  0
LINE
  5
362E
330
1E
100
AcDbEntity
  8
7
100
AcDbLine
 10
4.20767716535433
 20
8.404527559055118
 30
0.0
 11
4.211614173228346
 21
8.420275590551181
 31
0.0
  0
LINE
  5
362F
330
1E
100
AcDbEntity
  8
7
100
AcDbLine
 10
4.211614173228346
 20
8.420275590551181
 30
0.0
 11
4.222440944881889
 21
8.431102362204724
 31
0.0
  0
LINE
  5
3630
330
1E
100
AcDbEntity
  8
7
100
AcDbLine
 10
4.222440944881889
 20
8.431102362204724
 30
0.0
 11
4.238188976377952
 21
8.436023622047244
 31
0.0
  0
LINE
  5
3631
330
1E
100
AcDbEntity
  8
7
100
AcDbLine
 10
4.843503937007874
 20
8.436023622047244
 30
0.0
 11
4.859251968503937
 21
8.431102362204724
 31
0.0
  0
LINE
  5
3632
330
1E
100
AcDbEntity
  8
7
100
AcDbLine
 10
4.859251968503937
 20
8.431102362204724
 30
0.0
 11
4.871062992125984
 21
8.420275590551181
 31
0.0
  0
LINE
  5
3633
330
1E
100
AcDbEntity
  8
7
100
AcDbLine
 10
4.871062992125984
 20
8.420275590551181
 30
0.0
 11
4.875
 21
8.404527559055118
 31
0.0
  0
LINE
  5
3634
330
1E
100
AcDbEntity
  8
7
100
AcDbLine
 10
5.058070866141731
 20
6.941929133858267
 30
0.0
 11
5.054133858267715
 21
6.913385826771652
 31
0.0
  0
LINE
  5
3635
330
1E
100
AcDbEntity
  8
7
100
AcDbLine
 10
5.054133858267715
 20
6.913385826771652
 30
0.0
 11
5.041338582677164
 21
6.888779527559054
 31
0.0
  0
LINE
  5
3636
330
1E
100
AcDbEntity
  8
7
100
AcDbLine
 10
5.041338582677164
 20
6.888779527559054
 30
0.0
 11
5.021653543307086
 21
6.869094488188975
 31
0.0
  0
LINE
  5
3637
330
1E
100
AcDbEntity
  8
7
100
AcDbLine
 10
5.021653543307086
 20
6.869094488188975
 30
0.0
 11
4.996062992125984
 21
6.856299212598425
 31
0.0
  0
LINE
  5
3638
330
1E
100
AcDbEntity
  8
7
100
AcDbLine
 10
4.996062992125984
 20
6.856299212598425
 30
0.0
 11
4.968503937007874
 21
6.851377952755905
 31
0.0
  0
LINE
  5
3639
330
1E
100
AcDbEntity
  8
7
100
AcDbLine
 10
4.113188976377952
 20
6.851377952755905
 30
0.0
 11
4.085629921259842
 21
6.856299212598425
 31
0.0
  0
LINE
  5
363A
330
1E
100
AcDbEntity
  8
7
100
AcDbLine
 10
4.085629921259842
 20
6.856299212598425
 30
0.0
 11
4.061023622047243
 21
6.869094488188975
 31
0.0
  0
LINE
  5
363B
330
1E
100
AcDbEntity
  8
7
100
AcDbLine
 10
4.061023622047243
 20
6.869094488188975
 30
0.0
 11
4.041338582677164
 21
6.888779527559054
 31
0.0
  0
LINE
  5
363C
330
1E
100
AcDbEntity
  8
7
100
AcDbLine
 10
4.041338582677164
 20
6.888779527559054
 30
0.0
 11
4.028543307086613
 21
6.913385826771652
 31
0.0
  0
LINE
  5
363D
330
1E
100
AcDbEntity
  8
7
100
AcDbLine
 10
4.437007874015748
 20
8.276574803149605
 30
0.0
 11
4.437992125984251
 21
8.276574803149605
 31
0.0
  0
LINE
  5
363E
330
1E
100
AcDbEntity
  8
7
100
AcDbLine
 10
4.437992125984251
 20
8.276574803149605
 30
0.0
 11
4.439960629921259
 21
8.308070866141731
 31
0.0
  0
LINE
  5
363F
330
1E
100
AcDbEntity
  8
7
100
AcDbLine
 10
4.441929133858267
 20
8.339566929133857
 30
0.0
 11
4.441929133858267
 21
8.324803149606298
 31
0.0
  0
LINE
  5
3640
330
1E
100
AcDbEntity
  8
7
100
AcDbLine
 10
4.441929133858267
 20
8.324803149606298
 30
0.0
 11
4.441929133858267
 21
8.313976377952755
 31
0.0
  0
LINE
  5
3641
330
1E
100
AcDbEntity
  8
7
100
AcDbLine
 10
4.441929133858267
 20
8.313976377952755
 30
0.0
 11
4.440944881889763
 21
8.309055118110235
 31
0.0
  0
LINE
  5
3642
330
1E
100
AcDbEntity
  8
7
100
AcDbLine
 10
4.433070866141731
 20
8.26279527559055
 30
0.0
 11
4.424212598425196
 21
8.276574803149605
 31
0.0
  0
LINE
  5
3643
330
1E
100
AcDbEntity
  8
7
100
AcDbLine
 10
4.424212598425196
 20
8.276574803149605
 30
0.0
 11
4.421259842519684
 21
8.291338582677164
 31
0.0
  0
LINE
  5
3644
330
1E
100
AcDbEntity
  8
7
100
AcDbLine
 10
4.460629921259842
 20
8.251968503937007
 30
0.0
 11
4.445866141732283
 21
8.254921259842518
 31
0.0
  0
LINE
  5
3645
330
1E
100
AcDbEntity
  8
7
100
AcDbLine
 10
4.445866141732283
 20
8.254921259842518
 30
0.0
 11
4.433070866141731
 21
8.26279527559055
 31
0.0
  0
LINE
  5
3646
330
1E
100
AcDbEntity
  8
7
100
AcDbLine
 10
4.20767716535433
 20
8.123031496062992
 30
0.0
 11
4.211614173228346
 21
8.108267716535433
 31
0.0
  0
LINE
  5
3647
330
1E
100
AcDbEntity
  8
7
100
AcDbLine
 10
4.211614173228346
 20
8.108267716535433
 30
0.0
 11
4.222440944881889
 21
8.096456692913385
 31
0.0
  0
LINE
  5
3648
330
1E
100
AcDbEntity
  8
7
100
AcDbLine
 10
4.222440944881889
 20
8.096456692913385
 30
0.0
 11
4.238188976377952
 21
8.09251968503937
 31
0.0
  0
LINE
  5
3649
330
1E
100
AcDbEntity
  8
7
100
AcDbLine
 10
4.238188976377952
 20
8.09251968503937
 30
0.0
 11
4.252952755905511
 21
8.096456692913385
 31
0.0
  0
LINE
  5
364A
330
1E
100
AcDbEntity
  8
7
100
AcDbLine
 10
4.252952755905511
 20
8.096456692913385
 30
0.0
 11
4.264763779527558
 21
8.107283464566929
 31
0.0
  0
LINE
  5
364B
330
1E
100
AcDbEntity
  8
7
100
AcDbLine
 10
4.264763779527558
 20
8.107283464566929
 30
0.0
 11
4.268700787401574
 21
8.123031496062992
 31
0.0
  0
LINE
  5
364C
330
1E
100
AcDbEntity
  8
7
100
AcDbLine
 10
4.269685039370078
 20
8.292322834645668
 30
0.0
 11
4.269685039370078
 21
8.301181102362203
 31
0.0
  0
LINE
  5
364D
330
1E
100
AcDbEntity
  8
7
100
AcDbLine
 10
4.269685039370078
 20
8.301181102362203
 30
0.0
 11
4.270669291338582
 21
8.307086614173227
 31
0.0
  0
LINE
  5
364E
330
1E
100
AcDbEntity
  8
7
100
AcDbLine
 10
4.422244094488188
 20
8.307086614173227
 30
0.0
 11
4.421259842519684
 21
8.301181102362203
 31
0.0
  0
LINE
  5
364F
330
1E
100
AcDbEntity
  8
7
100
AcDbLine
 10
4.421259842519684
 20
8.301181102362203
 30
0.0
 11
4.421259842519684
 21
8.292322834645668
 31
0.0
  0
LINE
  5
3650
330
1E
100
AcDbEntity
  8
7
100
AcDbLine
 10
4.812007874015747
 20
8.391732283464566
 30
0.0
 11
4.80511811023622
 21
8.38779527559055
 31
0.0
  0
LINE
  5
3651
330
1E
100
AcDbEntity
  8
7
100
AcDbLine
 10
4.80511811023622
 20
8.38779527559055
 30
0.0
 11
4.80511811023622
 21
8.339566929133857
 31
0.0
  0
LINE
  5
3652
330
1E
100
AcDbEntity
  8
7
100
AcDbLine
 10
4.639763779527558
 20
8.339566929133857
 30
0.0
 11
4.639763779527558
 21
8.324803149606298
 31
0.0
  0
LINE
  5
3653
330
1E
100
AcDbEntity
  8
7
100
AcDbLine
 10
4.639763779527558
 20
8.324803149606298
 30
0.0
 11
4.640748031496062
 21
8.313976377952755
 31
0.0
  0
LINE
  5
3654
330
1E
100
AcDbEntity
  8
7
100
AcDbLine
 10
4.640748031496062
 20
8.313976377952755
 30
0.0
 11
4.640748031496062
 21
8.309055118110235
 31
0.0
  0
LINE
  5
3655
330
1E
100
AcDbEntity
  8
7
100
AcDbLine
 10
4.644685039370078
 20
8.276574803149605
 30
0.0
 11
4.644685039370078
 21
8.314960629921259
 31
0.0
  0
LINE
  5
3656
330
1E
100
AcDbEntity
  8
7
100
AcDbLine
 10
4.644685039370078
 20
8.314960629921259
 30
0.0
 11
4.639763779527558
 21
8.339566929133857
 31
0.0
  0
LINE
  5
3657
330
1E
100
AcDbEntity
  8
7
100
AcDbLine
 10
4.812007874015747
 20
8.391732283464566
 30
0.0
 11
4.812007874015747
 21
8.292322834645668
 31
0.0
  0
LINE
  5
3658
330
1E
100
AcDbEntity
  8
7
100
AcDbLine
 10
4.812007874015747
 20
8.292322834645668
 30
0.0
 11
4.812007874015747
 21
8.123031496062992
 31
0.0
  0
LINE
  5
3659
330
1E
100
AcDbEntity
  8
7
100
AcDbLine
 10
4.621062992125984
 20
8.251968503937007
 30
0.0
 11
4.635826771653542
 21
8.254921259842518
 31
0.0
  0
LINE
  5
365A
330
1E
100
AcDbEntity
  8
7
100
AcDbLine
 10
4.635826771653542
 20
8.254921259842518
 30
0.0
 11
4.649606299212598
 21
8.26279527559055
 31
0.0
  0
LINE
  5
365B
330
1E
100
AcDbEntity
  8
7
100
AcDbLine
 10
4.649606299212598
 20
8.26279527559055
 30
0.0
 11
4.657480314960629
 21
8.276574803149605
 31
0.0
  0
LINE
  5
365C
330
1E
100
AcDbEntity
  8
7
100
AcDbLine
 10
4.657480314960629
 20
8.276574803149605
 30
0.0
 11
4.660433070866141
 21
8.291338582677164
 31
0.0
  0
LINE
  5
365D
330
1E
100
AcDbEntity
  8
7
100
AcDbLine
 10
4.827755905511811
 20
8.096456692913385
 30
0.0
 11
4.843503937007874
 21
8.09251968503937
 31
0.0
  0
LINE
  5
365E
330
1E
100
AcDbEntity
  8
7
100
AcDbLine
 10
4.843503937007874
 20
8.09251968503937
 30
0.0
 11
4.858267716535432
 21
8.096456692913385
 31
0.0
  0
LINE
  5
365F
330
1E
100
AcDbEntity
  8
7
100
AcDbLine
 10
4.858267716535432
 20
8.096456692913385
 30
0.0
 11
4.870078740157479
 21
8.107283464566929
 31
0.0
  0
LINE
  5
3660
330
1E
100
AcDbEntity
  8
7
100
AcDbLine
 10
4.870078740157479
 20
8.107283464566929
 30
0.0
 11
4.874015748031495
 21
8.123031496062992
 31
0.0
  0
LINE
  5
3661
330
1E
100
AcDbEntity
  8
7
100
AcDbLine
 10
4.812992125984251
 20
8.123031496062992
 30
0.0
 11
4.816929133858267
 21
8.108267716535433
 31
0.0
  0
LINE
  5
3662
330
1E
100
AcDbEntity
  8
7
100
AcDbLine
 10
4.816929133858267
 20
8.108267716535433
 30
0.0
 11
4.827755905511811
 21
8.096456692913385
 31
0.0
  0
LINE
  5
3663
330
1E
100
AcDbEntity
  8
7
100
AcDbLine
 10
4.659448818897637
 20
8.307086614173227
 30
0.0
 11
4.660433070866141
 21
8.301181102362203
 31
0.0
  0
LINE
  5
3664
330
1E
100
AcDbEntity
  8
7
100
AcDbLine
 10
4.660433070866141
 20
8.301181102362203
 30
0.0
 11
4.660433070866141
 21
8.292322834645668
 31
0.0
  0
LINE
  5
3665
330
1E
100
AcDbEntity
  8
7
100
AcDbLine
 10
4.660433070866141
 20
8.292322834645668
 30
0.0
 11
4.812007874015747
 21
8.292322834645668
 31
0.0
  0
LINE
  5
3666
330
1E
100
AcDbEntity
  8
7
100
AcDbLine
 10
4.812007874015747
 20
8.292322834645668
 30
0.0
 11
4.812007874015747
 21
8.301181102362203
 31
0.0
  0
LINE
  5
3667
330
1E
100
AcDbEntity
  8
7
100
AcDbLine
 10
4.812007874015747
 20
8.301181102362203
 30
0.0
 11
4.812007874015747
 21
8.307086614173227
 31
0.0
  0
LINE
  5
3668
330
1E
100
AcDbEntity
  8
7
100
AcDbLine
 10
4.812007874015747
 20
8.307086614173227
 30
0.0
 11
4.659448818897637
 21
8.307086614173227
 31
0.0
  0
LINE
  5
3669
330
1E
100
AcDbEntity
  8
7
100
AcDbLine
 10
4.114173228346456
 20
8.746062992125983
 30
0.0
 11
4.120078740157479
 21
8.743110236220472
 31
0.0
  0
LINE
  5
366A
330
1E
100
AcDbEntity
  8
7
100
AcDbLine
 10
4.120078740157479
 20
8.743110236220472
 30
0.0
 11
4.200787401574802
 21
8.743110236220472
 31
0.0
  0
LINE
  5
366B
330
1E
100
AcDbEntity
  8
7
100
AcDbLine
 10
4.955708661417322
 20
8.668307086614172
 30
0.0
 11
4.965551181102362
 21
8.665354330708661
 31
0.0
  0
LINE
  5
366C
330
1E
100
AcDbEntity
  8
7
100
AcDbLine
 10
4.965551181102362
 20
8.665354330708661
 30
0.0
 11
4.973425196850393
 21
8.657480314960629
 31
0.0
  0
LINE
  5
366D
330
1E
100
AcDbEntity
  8
7
100
AcDbLine
 10
4.973425196850393
 20
8.657480314960629
 30
0.0
 11
4.9753937007874
 21
8.64763779527559
 31
0.0
  0
LINE
  5
366E
330
1E
100
AcDbEntity
  8
7
100
AcDbLine
 10
5.014763779527558
 20
8.725393700787401
 30
0.0
 11
4.989173228346456
 21
8.738188976377951
 31
0.0
  0
LINE
  5
366F
330
1E
100
AcDbEntity
  8
7
100
AcDbLine
 10
4.989173228346456
 20
8.738188976377951
 30
0.0
 11
4.961614173228346
 21
8.743110236220472
 31
0.0
  0
LINE
  5
3670
330
1E
100
AcDbEntity
  8
7
100
AcDbLine
 10
5.049212598425196
 20
8.651574803149605
 30
0.0
 11
5.046259842519684
 21
8.68011811023622
 31
0.0
  0
LINE
  5
3671
330
1E
100
AcDbEntity
  8
7
100
AcDbLine
 10
5.046259842519684
 20
8.68011811023622
 30
0.0
 11
5.033464566929133
 21
8.705708661417322
 31
0.0
  0
LINE
  5
3672
330
1E
100
AcDbEntity
  8
7
100
AcDbLine
 10
5.033464566929133
 20
8.705708661417322
 30
0.0
 11
5.014763779527558
 21
8.725393700787401
 31
0.0
  0
LINE
  5
3673
330
1E
100
AcDbEntity
  8
7
100
AcDbLine
 10
4.201771653543306
 20
8.457677165354329
 30
0.0
 11
4.206692913385826
 21
8.452755905511811
 31
0.0
  0
LINE
  5
3674
330
1E
100
AcDbEntity
  8
7
100
AcDbLine
 10
4.206692913385826
 20
8.452755905511811
 30
0.0
 11
4.361220472440944
 21
8.452755905511811
 31
0.0
  0
LINE
  5
3675
330
1E
100
AcDbEntity
  8
7
100
AcDbLine
 10
4.164370078740157
 20
8.664370078740157
 30
0.0
 11
4.164370078740157
 21
8.482283464566929
 31
0.0
  0
LINE
  5
3676
330
1E
100
AcDbEntity
  8
7
100
AcDbLine
 10
4.164370078740157
 20
8.482283464566929
 30
0.0
 11
4.201771653543306
 21
8.482283464566929
 31
0.0
  0
LINE
  5
3677
330
1E
100
AcDbEntity
  8
7
100
AcDbLine
 10
4.201771653543306
 20
8.482283464566929
 30
0.0
 11
4.201771653543306
 21
8.457677165354329
 31
0.0
  0
LINE
  5
3678
330
1E
100
AcDbEntity
  8
7
100
AcDbLine
 10
4.193897637795275
 20
8.668307086614172
 30
0.0
 11
4.125984251968503
 21
8.668307086614172
 31
0.0
  0
LINE
  5
3679
330
1E
100
AcDbEntity
  8
7
100
AcDbLine
 10
4.125984251968503
 20
8.668307086614172
 30
0.0
 11
4.14271653543307
 21
8.659448818897637
 31
0.0
  0
LINE
  5
367A
330
1E
100
AcDbEntity
  8
7
100
AcDbLine
 10
5.043307086614173
 20
8.412401574803149
 30
0.0
 11
4.969488188976377
 21
8.412401574803149
 31
0.0
  0
LINE
  5
367B
330
1E
100
AcDbEntity
  8
7
100
AcDbLine
 10
4.969488188976377
 20
8.412401574803149
 30
0.0
 11
4.969488188976377
 21
8.288385826771653
 31
0.0
  0
LINE
  5
367C
330
1E
100
AcDbEntity
  8
7
100
AcDbLine
 10
4.969488188976377
 20
8.288385826771653
 30
0.0
 11
4.969488188976377
 21
8.237204724409448
 31
0.0
  0
LINE
  5
367D
330
1E
100
AcDbEntity
  8
7
100
AcDbLine
 10
4.969488188976377
 20
8.237204724409448
 30
0.0
 11
4.939960629921259
 21
8.237204724409448
 31
0.0
  0
LINE
  5
367E
330
1E
100
AcDbEntity
  8
7
100
AcDbLine
 10
5.043307086614173
 20
7.988188976377951
 30
0.0
 11
4.982283464566928
 21
7.988188976377951
 31
0.0
  0
LINE
  5
367F
330
1E
100
AcDbEntity
  8
7
100
AcDbLine
 10
4.982283464566928
 20
7.988188976377951
 30
0.0
 11
4.982283464566928
 21
8.240157480314961
 31
0.0
  0
LINE
  5
3680
330
1E
100
AcDbEntity
  8
7
100
AcDbLine
 10
4.982283464566928
 20
8.240157480314961
 30
0.0
 11
5.043307086614173
 21
8.240157480314961
 31
0.0
  0
LINE
  5
3681
330
1E
100
AcDbEntity
  8
7
100
AcDbLine
 10
4.981299212598425
 20
6.871062992125984
 30
0.0
 11
5.006889763779526
 21
6.883858267716535
 31
0.0
  0
LINE
  5
3682
330
1E
100
AcDbEntity
  8
7
100
AcDbLine
 10
5.006889763779526
 20
6.883858267716535
 30
0.0
 11
5.026574803149605
 21
6.903543307086613
 31
0.0
  0
LINE
  5
3683
330
1E
100
AcDbEntity
  8
7
100
AcDbLine
 10
5.026574803149605
 20
6.903543307086613
 30
0.0
 11
5.039370078740157
 21
6.928149606299212
 31
0.0
  0
LINE
  5
3684
330
1E
100
AcDbEntity
  8
7
100
AcDbLine
 10
5.039370078740157
 20
6.928149606299212
 30
0.0
 11
5.043307086614173
 21
6.955708661417322
 31
0.0
  0
LINE
  5
3685
330
1E
100
AcDbEntity
  8
7
100
AcDbLine
 10
4.038385826771652
 20
6.955708661417322
 30
0.0
 11
4.043307086614173
 21
6.928149606299212
 31
0.0
  0
LINE
  5
3686
330
1E
100
AcDbEntity
  8
7
100
AcDbLine
 10
4.043307086614173
 20
6.928149606299212
 30
0.0
 11
4.056102362204724
 21
6.903543307086613
 31
0.0
  0
LINE
  5
3687
330
1E
100
AcDbEntity
  8
7
100
AcDbLine
 10
4.056102362204724
 20
6.903543307086613
 30
0.0
 11
4.075787401574802
 21
6.883858267716535
 31
0.0
  0
LINE
  5
3688
330
1E
100
AcDbEntity
  8
7
100
AcDbLine
 10
4.075787401574802
 20
6.883858267716535
 30
0.0
 11
4.1003937007874
 21
6.871062992125984
 31
0.0
  0
LINE
  5
3689
330
1E
100
AcDbEntity
  8
7
100
AcDbLine
 10
4.1003937007874
 20
6.871062992125984
 30
0.0
 11
4.127952755905511
 21
6.866141732283463
 31
0.0
  0
LINE
  5
368A
330
1E
100
AcDbEntity
  8
7
100
AcDbLine
 10
4.112204724409448
 20
8.237204724409448
 30
0.0
 11
4.112204724409448
 21
8.288385826771653
 31
0.0
  0
LINE
  5
368B
330
1E
100
AcDbEntity
  8
7
100
AcDbLine
 10
4.112204724409448
 20
8.288385826771653
 30
0.0
 11
4.112204724409448
 21
8.412401574803149
 31
0.0
  0
LINE
  5
368C
330
1E
100
AcDbEntity
  8
7
100
AcDbLine
 10
4.112204724409448
 20
8.412401574803149
 30
0.0
 11
4.038385826771652
 21
8.412401574803149
 31
0.0
  0
LINE
  5
368D
330
1E
100
AcDbEntity
  8
7
100
AcDbLine
 10
4.112204724409448
 20
6.960629921259842
 30
0.0
 11
4.112204724409448
 21
7.166338582677164
 31
0.0
  0
LINE
  5
368E
330
1E
100
AcDbEntity
  8
7
100
AcDbLine
 10
4.112204724409448
 20
7.166338582677164
 30
0.0
 11
4.112204724409448
 21
7.309055118110235
 31
0.0
  0
LINE
  5
368F
330
1E
100
AcDbEntity
  8
7
100
AcDbLine
 10
4.112204724409448
 20
7.309055118110235
 30
0.0
 11
4.112204724409448
 21
7.36023622047244
 31
0.0
  0
LINE
  5
3690
330
1E
100
AcDbEntity
  8
7
100
AcDbLine
 10
4.112204724409448
 20
7.36023622047244
 30
0.0
 11
4.112204724409448
 21
7.943897637795275
 31
0.0
  0
LINE
  5
3691
330
1E
100
AcDbEntity
  8
7
100
AcDbLine
 10
4.112204724409448
 20
7.943897637795275
 30
0.0
 11
4.14271653543307
 21
7.943897637795275
 31
0.0
  0
LINE
  5
3692
330
1E
100
AcDbEntity
  8
7
100
AcDbLine
 10
4.14271653543307
 20
7.943897637795275
 30
0.0
 11
4.14271653543307
 21
8.237204724409448
 31
0.0
  0
LINE
  5
3693
330
1E
100
AcDbEntity
  8
7
100
AcDbLine
 10
4.14271653543307
 20
8.237204724409448
 30
0.0
 11
4.112204724409448
 21
8.237204724409448
 31
0.0
  0
LINE
  5
3694
330
1E
100
AcDbEntity
  8
7
100
AcDbLine
 10
4.112204724409448
 20
6.960629921259842
 30
0.0
 11
4.118110236220472
 21
6.945866141732283
 31
0.0
  0
LINE
  5
3695
330
1E
100
AcDbEntity
  8
7
100
AcDbLine
 10
4.118110236220472
 20
6.945866141732283
 30
0.0
 11
4.132874015748031
 21
6.939960629921259
 31
0.0
  0
LINE
  5
3696
330
1E
100
AcDbEntity
  8
7
100
AcDbLine
 10
4.653543307086613
 20
6.924212598425196
 30
0.0
 11
4.648622047244094
 21
6.963582677165353
 31
0.0
  0
LINE
  5
3697
330
1E
100
AcDbEntity
  8
7
100
AcDbLine
 10
4.648622047244094
 20
6.963582677165353
 30
0.0
 11
4.434055118110236
 21
6.963582677165353
 31
0.0
  0
LINE
  5
3698
330
1E
100
AcDbEntity
  8
7
100
AcDbLine
 10
4.949803149606299
 20
6.939960629921259
 30
0.0
 11
4.963582677165353
 21
6.945866141732283
 31
0.0
  0
LINE
  5
3699
330
1E
100
AcDbEntity
  8
7
100
AcDbLine
 10
4.963582677165353
 20
6.945866141732283
 30
0.0
 11
4.969488188976377
 21
6.960629921259842
 31
0.0
  0
LINE
  5
369A
330
1E
100
AcDbEntity
  8
7
100
AcDbLine
 10
4.969488188976377
 20
7.943897637795275
 30
0.0
 11
4.969488188976377
 21
7.36023622047244
 31
0.0
  0
LINE
  5
369B
330
1E
100
AcDbEntity
  8
7
100
AcDbLine
 10
4.969488188976377
 20
7.36023622047244
 30
0.0
 11
4.969488188976377
 21
7.309055118110235
 31
0.0
  0
LINE
  5
369C
330
1E
100
AcDbEntity
  8
7
100
AcDbLine
 10
4.969488188976377
 20
7.309055118110235
 30
0.0
 11
4.969488188976377
 21
7.166338582677164
 31
0.0
  0
LINE
  5
369D
330
1E
100
AcDbEntity
  8
7
100
AcDbLine
 10
4.969488188976377
 20
7.166338582677164
 30
0.0
 11
4.969488188976377
 21
6.960629921259842
 31
0.0
  0
LINE
  5
369E
330
1E
100
AcDbEntity
  8
7
100
AcDbLine
 10
4.831692913385826
 20
7.510826771653542
 30
0.0
 11
4.818897637795275
 21
7.495078740157479
 31
0.0
  0
LINE
  5
369F
330
1E
100
AcDbEntity
  8
7
100
AcDbLine
 10
4.818897637795275
 20
7.495078740157479
 30
0.0
 11
4.812992125984251
 21
7.475393700787401
 31
0.0
  0
LINE
  5
36A0
330
1E
100
AcDbEntity
  8
7
100
AcDbLine
 10
4.812992125984251
 20
7.475393700787401
 30
0.0
 11
4.815944881889763
 21
7.455708661417322
 31
0.0
  0
LINE
  5
36A1
330
1E
100
AcDbEntity
  8
7
100
AcDbLine
 10
4.815944881889763
 20
7.455708661417322
 30
0.0
 11
4.826771653543306
 21
7.437992125984251
 31
0.0
  0
LINE
  5
36A2
330
1E
100
AcDbEntity
  8
7
100
AcDbLine
 10
4.826771653543306
 20
7.437992125984251
 30
0.0
 11
4.842519685039369
 21
7.426181102362203
 31
0.0
  0
LINE
  5
36A3
330
1E
100
AcDbEntity
  8
7
100
AcDbLine
 10
4.842519685039369
 20
7.426181102362203
 30
0.0
 11
4.863188976377952
 21
7.422244094488188
 31
0.0
  0
LINE
  5
36A4
330
1E
100
AcDbEntity
  8
7
100
AcDbLine
 10
4.863188976377952
 20
7.422244094488188
 30
0.0
 11
4.882874015748031
 21
7.426181102362203
 31
0.0
  0
LINE
  5
36A5
330
1E
100
AcDbEntity
  8
7
100
AcDbLine
 10
4.882874015748031
 20
7.426181102362203
 30
0.0
 11
4.899606299212598
 21
7.437992125984251
 31
0.0
  0
LINE
  5
36A6
330
1E
100
AcDbEntity
  8
7
100
AcDbLine
 10
4.899606299212598
 20
7.437992125984251
 30
0.0
 11
4.910433070866141
 21
7.454724409448818
 31
0.0
  0
LINE
  5
36A7
330
1E
100
AcDbEntity
  8
7
100
AcDbLine
 10
4.910433070866141
 20
7.454724409448818
 30
0.0
 11
4.913385826771652
 21
7.475393700787401
 31
0.0
  0
LINE
  5
36A8
330
1E
100
AcDbEntity
  8
7
100
AcDbLine
 10
4.913385826771652
 20
7.475393700787401
 30
0.0
 11
4.908464566929133
 21
7.494094488188975
 31
0.0
  0
LINE
  5
36A9
330
1E
100
AcDbEntity
  8
7
100
AcDbLine
 10
4.908464566929133
 20
7.494094488188975
 30
0.0
 11
4.895669291338582
 21
7.510826771653542
 31
0.0
  0
LINE
  5
36AA
330
1E
100
AcDbEntity
  8
7
100
AcDbLine
 10
4.834645669291337
 20
7.46259842519685
 30
0.0
 11
4.840551181102362
 21
7.451771653543307
 31
0.0
  0
LINE
  5
36AB
330
1E
100
AcDbEntity
  8
7
100
AcDbLine
 10
4.840551181102362
 20
7.451771653543307
 30
0.0
 11
4.851377952755905
 21
7.444881889763779
 31
0.0
  0
LINE
  5
36AC
330
1E
100
AcDbEntity
  8
7
100
AcDbLine
 10
4.882874015748031
 20
7.496062992125983
 30
0.0
 11
4.86515748031496
 21
7.502952755905511
 31
0.0
  0
LINE
  5
36AD
330
1E
100
AcDbEntity
  8
7
100
AcDbLine
 10
4.86515748031496
 20
7.502952755905511
 30
0.0
 11
4.846456692913385
 21
7.498031496062992
 31
0.0
  0
LINE
  5
36AE
330
1E
100
AcDbEntity
  8
7
100
AcDbLine
 10
4.846456692913385
 20
7.498031496062992
 30
0.0
 11
4.834645669291337
 21
7.483267716535433
 31
0.0
  0
LINE
  5
36AF
330
1E
100
AcDbEntity
  8
7
100
AcDbLine
 10
4.913385826771652
 20
7.621062992125983
 30
0.0
 11
4.915354330708661
 21
7.632874015748031
 31
0.0
  0
LINE
  5
36B0
330
1E
100
AcDbEntity
  8
7
100
AcDbLine
 10
4.915354330708661
 20
7.632874015748031
 30
0.0
 11
4.909448818897637
 21
7.64271653543307
 31
0.0
  0
LINE
  5
36B1
330
1E
100
AcDbEntity
  8
7
100
AcDbLine
 10
4.909448818897637
 20
7.64271653543307
 30
0.0
 11
4.898622047244094
 21
7.646653543307087
 31
0.0
  0
LINE
  5
36B2
330
1E
100
AcDbEntity
  8
7
100
AcDbLine
 10
4.898622047244094
 20
7.646653543307087
 30
0.0
 11
4.88779527559055
 21
7.64271653543307
 31
0.0
  0
LINE
  5
36B3
330
1E
100
AcDbEntity
  8
7
100
AcDbLine
 10
4.88779527559055
 20
7.64271653543307
 30
0.0
 11
4.881889763779526
 21
7.632874015748031
 31
0.0
  0
LINE
  5
36B4
330
1E
100
AcDbEntity
  8
7
100
AcDbLine
 10
4.881889763779526
 20
7.632874015748031
 30
0.0
 11
4.883858267716535
 21
7.622047244094487
 31
0.0
  0
LINE
  5
36B5
330
1E
100
AcDbEntity
  8
7
100
AcDbLine
 10
4.883858267716535
 20
7.622047244094487
 30
0.0
 11
4.89271653543307
 21
7.614173228346455
 31
0.0
  0
LINE
  5
36B6
330
1E
100
AcDbEntity
  8
7
100
AcDbLine
 10
4.89271653543307
 20
7.614173228346455
 30
0.0
 11
4.904527559055117
 21
7.614173228346455
 31
0.0
  0
LINE
  5
36B7
330
1E
100
AcDbEntity
  8
7
100
AcDbLine
 10
4.904527559055117
 20
7.614173228346455
 30
0.0
 11
4.913385826771652
 21
7.621062992125983
 31
0.0
  0
LINE
  5
36B8
330
1E
100
AcDbEntity
  8
7
100
AcDbLine
 10
4.901574803149605
 20
7.604330708661416
 30
0.0
 11
4.913385826771652
 21
7.622047244094487
 31
0.0
  0
LINE
  5
36B9
330
1E
100
AcDbEntity
  8
7
100
AcDbLine
 10
4.913385826771652
 20
7.622047244094487
 30
0.0
 11
4.917322834645668
 21
7.64271653543307
 31
0.0
  0
LINE
  5
36BA
330
1E
100
AcDbEntity
  8
7
100
AcDbLine
 10
4.917322834645668
 20
7.64271653543307
 30
0.0
 11
4.913385826771652
 21
7.662401574803149
 31
0.0
  0
LINE
  5
36BB
330
1E
100
AcDbEntity
  8
7
100
AcDbLine
 10
4.913385826771652
 20
7.662401574803149
 30
0.0
 11
4.90255905511811
 21
7.68011811023622
 31
0.0
  0
LINE
  5
36BC
330
1E
100
AcDbEntity
  8
7
100
AcDbLine
 10
4.90255905511811
 20
7.68011811023622
 30
0.0
 11
4.884842519685038
 21
7.691929133858266
 31
0.0
  0
LINE
  5
36BD
330
1E
100
AcDbEntity
  8
7
100
AcDbLine
 10
4.884842519685038
 20
7.691929133858266
 30
0.0
 11
4.864173228346456
 21
7.695866141732283
 31
0.0
  0
LINE
  5
36BE
330
1E
100
AcDbEntity
  8
7
100
AcDbLine
 10
4.864173228346456
 20
7.695866141732283
 30
0.0
 11
4.844488188976377
 21
7.691929133858266
 31
0.0
  0
LINE
  5
36BF
330
1E
100
AcDbEntity
  8
7
100
AcDbLine
 10
4.844488188976377
 20
7.691929133858266
 30
0.0
 11
4.826771653543306
 21
7.681102362204724
 31
0.0
  0
LINE
  5
36C0
330
1E
100
AcDbEntity
  8
7
100
AcDbLine
 10
4.826771653543306
 20
7.681102362204724
 30
0.0
 11
4.814960629921259
 21
7.663385826771653
 31
0.0
  0
LINE
  5
36C1
330
1E
100
AcDbEntity
  8
7
100
AcDbLine
 10
4.814960629921259
 20
7.663385826771653
 30
0.0
 11
4.811023622047243
 21
7.64271653543307
 31
0.0
  0
LINE
  5
36C2
330
1E
100
AcDbEntity
  8
7
100
AcDbLine
 10
4.811023622047243
 20
7.64271653543307
 30
0.0
 11
4.814960629921259
 21
7.623031496062992
 31
0.0
  0
LINE
  5
36C3
330
1E
100
AcDbEntity
  8
7
100
AcDbLine
 10
4.814960629921259
 20
7.623031496062992
 30
0.0
 11
4.825787401574802
 21
7.60531496062992
 31
0.0
  0
LINE
  5
36C4
330
1E
100
AcDbEntity
  8
7
100
AcDbLine
 10
4.825787401574802
 20
7.60531496062992
 30
0.0
 11
4.843503937007874
 21
7.593503937007874
 31
0.0
  0
LINE
  5
36C5
330
1E
100
AcDbEntity
  8
7
100
AcDbLine
 10
4.843503937007874
 20
7.593503937007874
 30
0.0
 11
4.864173228346456
 21
7.589566929133857
 31
0.0
  0
LINE
  5
36C6
330
1E
100
AcDbEntity
  8
7
100
AcDbLine
 10
4.864173228346456
 20
7.589566929133857
 30
0.0
 11
4.883858267716535
 21
7.593503937007874
 31
0.0
  0
LINE
  5
36C7
330
1E
100
AcDbEntity
  8
7
100
AcDbLine
 10
4.883858267716535
 20
7.593503937007874
 30
0.0
 11
4.901574803149605
 21
7.604330708661416
 31
0.0
  0
LINE
  5
36C8
330
1E
100
AcDbEntity
  8
7
100
AcDbLine
 10
4.867125984251968
 20
7.617125984251968
 30
0.0
 11
4.875984251968503
 21
7.622047244094487
 31
0.0
  0
LINE
  5
36C9
330
1E
100
AcDbEntity
  8
7
100
AcDbLine
 10
4.875984251968503
 20
7.622047244094487
 30
0.0
 11
4.875984251968503
 21
7.631889763779527
 31
0.0
  0
LINE
  5
36CA
330
1E
100
AcDbEntity
  8
7
100
AcDbLine
 10
4.875984251968503
 20
7.631889763779527
 30
0.0
 11
4.867125984251968
 21
7.636811023622046
 31
0.0
  0
LINE
  5
36CB
330
1E
100
AcDbEntity
  8
7
100
AcDbLine
 10
4.187007874015748
 20
7.456692913385825
 30
0.0
 11
4.187007874015748
 21
7.490157480314961
 31
0.0
  0
LINE
  5
36CC
330
1E
100
AcDbEntity
  8
7
100
AcDbLine
 10
4.187007874015748
 20
7.490157480314961
 30
0.0
 11
4.191929133858267
 21
7.500984251968503
 31
0.0
  0
LINE
  5
36CD
330
1E
100
AcDbEntity
  8
7
100
AcDbLine
 10
4.959645669291337
 20
5.511811023622047
 30
0.0
 11
4.953740157480314
 21
5.511811023622047
 31
0.0
  0
LINE
  5
36CE
330
1E
100
AcDbEntity
  8
7
100
AcDbLine
 10
4.953740157480314
 20
5.511811023622047
 30
0.0
 11
4.939960629921259
 21
5.511811023622047
 31
0.0
  0
LINE
  5
36CF
330
1E
100
AcDbEntity
  8
7
100
AcDbLine
 10
4.884842519685038
 20
5.511811023622047
 30
0.0
 11
4.919291338582676
 21
5.511811023622047
 31
0.0
  0
LINE
  5
36D0
330
1E
100
AcDbEntity
  8
7
100
AcDbLine
 10
4.919291338582676
 20
5.511811023622047
 30
0.0
 11
4.939960629921259
 21
5.511811023622047
 31
0.0
  0
LINE
  5
36D1
330
1E
100
AcDbEntity
  8
7
100
AcDbLine
 10
4.162401574803149
 20
5.511811023622047
 30
0.0
 11
4.14271653543307
 21
5.511811023622047
 31
0.0
  0
LINE
  5
36D2
330
1E
100
AcDbEntity
  8
7
100
AcDbLine
 10
4.14271653543307
 20
5.511811023622047
 30
0.0
 11
4.132874015748031
 21
5.372047244094487
 31
0.0
  0
LINE
  5
36D3
330
1E
100
AcDbEntity
  8
7
100
AcDbLine
 10
4.122047244094487
 20
5.511811023622047
 30
0.0
 11
4.127952755905511
 21
5.511811023622047
 31
0.0
  0
LINE
  5
36D4
330
1E
100
AcDbEntity
  8
7
100
AcDbLine
 10
4.127952755905511
 20
5.511811023622047
 30
0.0
 11
4.14271653543307
 21
5.511811023622047
 31
0.0
  0
LINE
  5
36D5
330
1E
100
AcDbEntity
  8
7
100
AcDbLine
 10
5.021653543307086
 20
5.162401574803149
 30
0.0
 11
4.996062992125984
 21
5.162401574803149
 31
0.0
  0
LINE
  5
36D6
330
1E
100
AcDbEntity
  8
7
100
AcDbLine
 10
4.996062992125984
 20
5.162401574803149
 30
0.0
 11
4.968503937007874
 21
5.162401574803149
 31
0.0
  0
LINE
  5
36D7
330
1E
100
AcDbEntity
  8
7
100
AcDbLine
 10
5.058070866141731
 20
5.162401574803149
 30
0.0
 11
5.054133858267715
 21
5.162401574803149
 31
0.0
  0
LINE
  5
36D8
330
1E
100
AcDbEntity
  8
7
100
AcDbLine
 10
5.054133858267715
 20
5.162401574803149
 30
0.0
 11
5.041338582677164
 21
5.162401574803149
 31
0.0
  0
LINE
  5
36D9
330
1E
100
AcDbEntity
  8
7
100
AcDbLine
 10
5.041338582677164
 20
5.162401574803149
 30
0.0
 11
5.021653543307086
 21
5.162401574803149
 31
0.0
  0
LINE
  5
36DA
330
1E
100
AcDbEntity
  8
7
100
AcDbLine
 10
4.085629921259842
 20
5.162401574803149
 30
0.0
 11
4.061023622047243
 21
5.162401574803149
 31
0.0
  0
LINE
  5
36DB
330
1E
100
AcDbEntity
  8
7
100
AcDbLine
 10
4.061023622047243
 20
5.162401574803149
 30
0.0
 11
4.041338582677164
 21
5.162401574803149
 31
0.0
  0
LINE
  5
36DC
330
1E
100
AcDbEntity
  8
7
100
AcDbLine
 10
4.041338582677164
 20
5.162401574803149
 30
0.0
 11
4.028543307086613
 21
5.162401574803149
 31
0.0
  0
LINE
  5
36DD
330
1E
100
AcDbEntity
  8
7
100
AcDbLine
 10
4.028543307086613
 20
5.162401574803149
 30
0.0
 11
4.023622047244094
 21
5.162401574803149
 31
0.0
  0
LINE
  5
36DE
330
1E
100
AcDbEntity
  8
7
100
AcDbLine
 10
4.441929133858267
 20
5.451771653543306
 30
0.0
 11
4.441929133858267
 21
5.44783464566929
 31
0.0
  0
LINE
  5
36DF
330
1E
100
AcDbEntity
  8
7
100
AcDbLine
 10
4.441929133858267
 20
5.44783464566929
 30
0.0
 11
4.441929133858267
 21
5.437992125984251
 31
0.0
  0
LINE
  5
36E0
330
1E
100
AcDbEntity
  8
7
100
AcDbLine
 10
4.441929133858267
 20
5.437992125984251
 30
0.0
 11
4.440944881889763
 21
5.424212598425196
 31
0.0
  0
LINE
  5
36E1
330
1E
100
AcDbEntity
  8
7
100
AcDbLine
 10
4.639763779527558
 20
5.451771653543306
 30
0.0
 11
4.639763779527558
 21
5.44783464566929
 31
0.0
  0
LINE
  5
36E2
330
1E
100
AcDbEntity
  8
7
100
AcDbLine
 10
4.639763779527558
 20
5.44783464566929
 30
0.0
 11
4.640748031496062
 21
5.437992125984251
 31
0.0
  0
LINE
  5
36E3
330
1E
100
AcDbEntity
  8
7
100
AcDbLine
 10
4.640748031496062
 20
5.437992125984251
 30
0.0
 11
4.640748031496062
 21
5.424212598425196
 31
0.0
  0
LINE
  5
36E4
330
1E
100
AcDbEntity
  8
7
100
AcDbLine
 10
4.953740157480314
 20
5.372047244094487
 30
0.0
 11
4.981299212598425
 21
5.372047244094487
 31
0.0
  0
LINE
  5
36E5
330
1E
100
AcDbEntity
  8
7
100
AcDbLine
 10
4.981299212598425
 20
5.372047244094487
 30
0.0
 11
5.006889763779526
 21
5.372047244094487
 31
0.0
  0
LINE
  5
36E6
330
1E
100
AcDbEntity
  8
7
100
AcDbLine
 10
5.006889763779526
 20
5.372047244094487
 30
0.0
 11
5.026574803149605
 21
5.372047244094487
 31
0.0
  0
LINE
  5
36E7
330
1E
100
AcDbEntity
  8
7
100
AcDbLine
 10
5.026574803149605
 20
5.372047244094487
 30
0.0
 11
5.039370078740157
 21
5.372047244094487
 31
0.0
  0
LINE
  5
36E8
330
1E
100
AcDbEntity
  8
7
100
AcDbLine
 10
5.039370078740157
 20
5.372047244094487
 30
0.0
 11
5.043307086614173
 21
5.372047244094487
 31
0.0
  0
LINE
  5
36E9
330
1E
100
AcDbEntity
  8
7
100
AcDbLine
 10
4.043307086614173
 20
5.372047244094487
 30
0.0
 11
4.056102362204724
 21
5.372047244094487
 31
0.0
  0
LINE
  5
36EA
330
1E
100
AcDbEntity
  8
7
100
AcDbLine
 10
4.056102362204724
 20
5.372047244094487
 30
0.0
 11
4.075787401574802
 21
5.372047244094487
 31
0.0
  0
LINE
  5
36EB
330
1E
100
AcDbEntity
  8
7
100
AcDbLine
 10
4.075787401574802
 20
5.372047244094487
 30
0.0
 11
4.1003937007874
 21
5.372047244094487
 31
0.0
  0
LINE
  5
36EC
330
1E
100
AcDbEntity
  8
7
100
AcDbLine
 10
4.1003937007874
 20
5.372047244094487
 30
0.0
 11
4.127952755905511
 21
5.372047244094487
 31
0.0
  0
ENDSEC
  0
SECTION
  2
OBJECTS
  0
DICTIONARY
  5
C
330
0
100
AcDbDictionary
  3
ACAD_GROUP
350
D
  3
ACAD_LAYOUT
350
19
  3
ACAD_MLINESTYLE
350
16
  3
ACAD_PLOTSETTINGS
350
18
1001
ACAD
1000
TREAT_AS_HARD
1070
     0
  0
DICTIONARY
  5
3951
330
1E
100
AcDbDictionary
  3
ACAD_LAYOUTSELFREF
350
39CB
1001
ACAD
1000
TREAT_AS_HARD
1070
     1
  0
DICTIONARY
  5
3953
330
1A
100
AcDbDictionary
  3
ACAD_LAYOUTSELFREF
350
39CA
1001
ACAD
1000
TREAT_AS_HARD
1070
     1
  0
DICTIONARY
  5
D
102
{ACAD_REACTORS
330
C
102
}
330
C
100
AcDbDictionary
1001
ACAD
1000
TREAT_AS_HARD
1070
     0
  0
DICTIONARY
  5
19
102
{ACAD_REACTORS
330
C
102
}
330
C
100
AcDbDictionary
1001
ACAD
1000
TREAT_AS_HARD
1070
     0
  0
DICTIONARY
  5
16
102
{ACAD_REACTORS
330
C
102
}
330
C
100
AcDbDictionary
  3
STANDARD
350
17
1001
ACAD
1000
TREAT_AS_HARD
1070
     0
  0
DICTIONARY
  5
18
102
{ACAD_REACTORS
330
C
102
}
330
C
100
AcDbDictionary
1001
ACAD
1000
TREAT_AS_HARD
1070
     0
  0
XRECORD
  5
39CB
102
{ACAD_REACTORS
330
3951
102
}
330
3951
100
AcDbXrecord
340
1E
  0
XRECORD
  5
39CA
102
{ACAD_REACTORS
330
3953
102
}
330
3953
100
AcDbXrecord
340
1A
  0
MLINESTYLE
  5
17
102
{ACAD_REACTORS
330
16
102
}
330
16
100
AcDbMlineStyle
  2
STANDARD
 70
     0
  3

 62
   256
 51
90.0
 52
90.0
 71
     2
 49
0.5
 62
   256
  6
BYLAYER
 49
-0.5
 62
   256
  6
BYLAYER
  0
ENDSEC
  0
EOF
