  0
SECTION
  2
HEADER
  9
$ACADVER
  1
AC1012
  9
$DWGCODEPAGE
  3
ANSI_1252
  9
$INSBASE
 10
0.0
 20
0.0
 30
0.0
  9
$EXTMIN
 10
11.5059814866469
 20
11.62326053253288
 30
-0.0015258207003583
  9
$EXTMAX
 10
17.68945315956307
 20
16.12353518549764
 30
0.0000000349246037
  9
$LIMMIN
 10
0.0
 20
0.0
  9
$LIMMAX
 10
12.0
 20
9.0
  9
$ORTHOMODE
 70
     0
  9
$REGENMODE
 70
     1
  9
$FILLMODE
 70
     1
  9
$QTEXTMODE
 70
     0
  9
$MIRRTEXT
 70
     1
  9
$DRAGMODE
 70
     2
  9
$LTSCALE
 40
1.0
  9
$OSMODE
 70
    33
  9
$ATTMODE
 70
     1
  9
$TEXTSIZE
 40
0.2
  9
$TRACEWID
 40
0.05
  9
$TEXTSTYLE
  7
STANDARD
  9
$CLAYER
  8
0
  9
$CELTYPE
  6
BYLAYER
  9
$CECOLOR
 62
   256
  9
$CELTSCALE
 40
1.0
  9
$DELOBJ
 70
     1
  9
$DISPSILH
 70
     0
  9
$DIMSCALE
 40
1.0
  9
$DIMASZ
 40
0.18
  9
$DIMEXO
 40
0.0625
  9
$DIMDLI
 40
0.38
  9
$DIMRND
 40
0.0
  9
$DIMDLE
 40
0.0
  9
$DIMEXE
 40
0.18
  9
$DIMTP
 40
0.0
  9
$DIMTM
 40
0.0
  9
$DIMTXT
 40
0.18
  9
$DIMCEN
 40
0.09
  9
$DIMTSZ
 40
0.0
  9
$DIMTOL
 70
     0
  9
$DIMLIM
 70
     0
  9
$DIMTIH
 70
     1
  9
$DIMTOH
 70
     1
  9
$DIMSE1
 70
     0
  9
$DIMSE2
 70
     0
  9
$DIMTAD
 70
     0
  9
$DIMZIN
 70
     0
  9
$DIMBLK
  1

  9
$DIMASO
 70
     1
  9
$DIMSHO
 70
     1
  9
$DIMPOST
  1

  9
$DIMAPOST
  1

  9
$DIMALT
 70
     0
  9
$DIMALTD
 70
     2
  9
$DIMALTF
 40
25.4
  9
$DIMLFAC
 40
1.0
  9
$DIMTOFL
 70
     0
  9
$DIMTVP
 40
0.0
  9
$DIMTIX
 70
     0
  9
$DIMSOXD
 70
     0
  9
$DIMSAH
 70
     0
  9
$DIMBLK1
  1

  9
$DIMBLK2
  1

  9
$DIMSTYLE
  2
STANDARD
  9
$DIMCLRD
 70
     0
  9
$DIMCLRE
 70
     0
  9
$DIMCLRT
 70
     0
  9
$DIMTFAC
 40
1.0
  9
$DIMGAP
 40
0.09
  9
$DIMJUST
 70
     0
  9
$DIMSD1
 70
     0
  9
$DIMSD2
 70
     0
  9
$DIMTOLJ
 70
     1
  9
$DIMTZIN
 70
     0
  9
$DIMALTZ
 70
     0
  9
$DIMALTTZ
 70
     0
  9
$DIMFIT
 70
     5
  9
$DIMUPT
 70
     0
  9
$DIMUNIT
 70
     2
  9
$DIMDEC
 70
     4
  9
$DIMTDEC
 70
     4
  9
$DIMALTU
 70
     2
  9
$DIMALTTD
 70
     2
  9
$DIMTXSTY
  7
STANDARD
  9
$DIMAUNIT
 70
     0
  9
$LUNITS
 70
     2
  9
$LUPREC
 70
     4
  9
$SKETCHINC
 40
0.1
  9
$FILLETRAD
 40
0.0
  9
$AUNITS
 70
     0
  9
$AUPREC
 70
     0
  9
$MENU
  1
acad
  9
$ELEVATION
 40
0.0
  9
$PELEVATION
 40
0.0
  9
$THICKNESS
 40
0.0
  9
$LIMCHECK
 70
     0
  9
$BLIPMODE
 70
     0
  9
$CHAMFERA
 40
0.0
  9
$CHAMFERB
 40
0.0
  9
$CHAMFERC
 40
0.0
  9
$CHAMFERD
 40
0.0
  9
$SKPOLY
 70
     0
  9
$TDCREATE
 40
2452489.405486111
  9
$TDUPDATE
 40
2452489.431054166
  9
$TDINDWG
 40
0.0008031366
  9
$TDUSRTIMER
 40
0.0008031366
  9
$USRTIMER
 70
     1
  9
$ANGBASE
 50
0.0
  9
$ANGDIR
 70
     0
  9
$PDMODE
 70
     0
  9
$PDSIZE
 40
0.0
  9
$PLINEWID
 40
0.0
  9
$COORDS
 70
     0
  9
$SPLFRAME
 70
     0
  9
$SPLINETYPE
 70
     6
  9
$SPLINESEGS
 70
     8
  9
$ATTDIA
 70
     0
  9
$ATTREQ
 70
     1
  9
$HANDLING
 70
  4097
  9
$HANDSEED
  5
440B
  9
$SURFTAB1
 70
     6
  9
$SURFTAB2
 70
     6
  9
$SURFTYPE
 70
     6
  9
$SURFU
 70
     6
  9
$SURFV
 70
     6
  9
$UCSNAME
  2

  9
$UCSORG
 10
0.0
 20
0.0
 30
0.0
  9
$UCSXDIR
 10
1.0
 20
0.0
 30
0.0
  9
$UCSYDIR
 10
0.0
 20
1.0
 30
0.0
  9
$PUCSNAME
  2

  9
$PUCSORG
 10
0.0
 20
0.0
 30
0.0
  9
$PUCSXDIR
 10
1.0
 20
0.0
 30
0.0
  9
$PUCSYDIR
 10
0.0
 20
1.0
 30
0.0
  9
$USERI1
 70
     0
  9
$USERI2
 70
     0
  9
$USERI3
 70
     0
  9
$USERI4
 70
     0
  9
$USERI5
 70
     0
  9
$USERR1
 40
0.0
  9
$USERR2
 40
0.0
  9
$USERR3
 40
0.0
  9
$USERR4
 40
0.0
  9
$USERR5
 40
0.0
  9
$WORLDVIEW
 70
     1
  9
$SHADEDGE
 70
     3
  9
$SHADEDIF
 70
    70
  9
$TILEMODE
 70
     1
  9
$MAXACTVP
 70
    16
  9
$PINSBASE
 10
0.0
 20
0.0
 30
0.0
  9
$PLIMCHECK
 70
     0
  9
$PEXTMIN
 10
1.000000000000000E+20
 20
1.000000000000000E+20
 30
1.000000000000000E+20
  9
$PEXTMAX
 10
-1.000000000000000E+20
 20
-1.000000000000000E+20
 30
-1.000000000000000E+20
  9
$PLIMMIN
 10
0.0
 20
0.0
  9
$PLIMMAX
 10
12.0
 20
9.0
  9
$UNITMODE
 70
     0
  9
$VISRETAIN
 70
     0
  9
$PLINEGEN
 70
     0
  9
$PSLTSCALE
 70
     1
  9
$TREEDEPTH
 70
  3020
  9
$PICKSTYLE
 70
     1
  9
$CMLSTYLE
  2
STANDARD
  9
$CMLJUST
 70
     0
  9
$CMLSCALE
 40
1.0
  9
$SAVEIMAGES
 70
     1
  0
ENDSEC
  0
SECTION
  2
CLASSES
  0
CLASS
  1
ACDBDICTIONARYWDFLT
  2
AcDbDictionaryWithDefault
  3
AutoCAD 2000
 90
    32768
280
     0
281
     0
  0
CLASS
  1
ACDBPLACEHOLDER
  2
AcDbPlaceHolder
  3
AutoCAD 2000
 90
    32768
280
     0
281
     0
  0
CLASS
  1
LAYOUT
  2
AcDbLayout
  3
AutoCAD 2000
 90
    32768
280
     0
281
     0
  0
CLASS
  1
LONG_TRANSACTION
  2
AcDbLongTransaction
  3
AutoCAD 2000
 90
    32768
280
     0
281
     0
  0
CLASS
  1
LWPOLYLINE
  2
AcDbPolyline
  3
AutoCAD 2000
 90
    32768
280
     0
281
     1
  0
CLASS
  1
HATCH
  2
AcDbHatch
  3
AutoCAD 2000
 90
    32768
280
     0
281
     1
  0
CLASS
  1
XRECORD
  2
AcDbXrecord
  3
AutoCAD 2000
 90
    32768
280
     0
281
     0
  0
ENDSEC
  0
SECTION
  2
TABLES
  0
TABLE
  2
VPORT
  5
8
330
0
100
AcDbSymbolTable
 70
     3
  0
VPORT
  5
4406
330
8
100
AcDbSymbolTableRecord
100
AcDbViewportTableRecord
  2
*ACTIVE
 70
     0
 10
0.0
 20
0.0
 11
1.0
 21
1.0
 12
14.59771732310498
 22
13.87339785901526
 13
0.0
 23
0.0
 14
1.0
 24
1.0
 15
0.0
 25
0.0
 16
0.0
 26
0.0
 36
1.0
 17
0.0
 27
0.0
 37
0.0
 40
4.535617124061337
 41
1.618610747051113
 42
50.0
 43
0.0
 44
0.0
 50
0.0
 51
0.0
 71
     0
 72
   100
 73
     1
 74
     1
 75
     0
 76
     0
 77
     0
 78
     0
  0
ENDTAB
  0
TABLE
  2
LTYPE
  5
5
330
0
100
AcDbSymbolTable
 70
    25
  0
LTYPE
  5
13
330
5
100
AcDbSymbolTableRecord
100
AcDbLinetypeTableRecord
  2
BYBLOCK
 70
     0
  3

 72
    65
 73
     0
 40
0.0
  0
LTYPE
  5
14
330
5
100
AcDbSymbolTableRecord
100
AcDbLinetypeTableRecord
  2
BYLAYER
 70
     0
  3

 72
    65
 73
     0
 40
0.0
  0
LTYPE
  5
15
330
5
100
AcDbSymbolTableRecord
100
AcDbLinetypeTableRecord
  2
CONTINUOUS
 70
     0
  3
Solid line
 72
    65
 73
     0
 40
0.0
  0
LTYPE
  5
22
330
5
100
AcDbSymbolTableRecord
100
AcDbLinetypeTableRecord
  2
BORDER
 70
     0
  3
__ __ . __ __ . __ __ . __ __ . __ __ . __ __ .
 72
    65
 73
     6
 40
1.75
 49
0.5
 74
     0
 49
-0.25
 74
     0
 49
0.5
 74
     0
 49
-0.25
 74
     0
 49
0.5
 74
     0
 49
-0.25
 74
     0
  0
LTYPE
  5
23
330
5
100
AcDbSymbolTableRecord
100
AcDbLinetypeTableRecord
  2
BORDER2
 70
     0
  3
__.__.__.__.__.__.__.__.__.__.__.__.__.__.__.__
 72
    65
 73
     6
 40
0.875
 49
0.25
 74
     0
 49
-0.125
 74
     0
 49
0.25
 74
     0
 49
-0.125
 74
     0
 49
0.25
 74
     0
 49
-0.125
 74
     0
  0
LTYPE
  5
24
330
5
100
AcDbSymbolTableRecord
100
AcDbLinetypeTableRecord
  2
BORDERX2
 70
     0
  3
____  ____  .  ____  ____  .  
 72
    65
 73
     6
 40
3.5
 49
1.0
 74
     0
 49
-0.5
 74
     0
 49
1.0
 74
     0
 49
-0.5
 74
     0
 49
1.0
 74
     0
 49
-0.5
 74
     0
  0
LTYPE
  5
25
330
5
100
AcDbSymbolTableRecord
100
AcDbLinetypeTableRecord
  2
CENTER
 70
     0
  3
____ _ ____ _ ____ _ ____ _ ____ _ ____ _ ____
 72
    65
 73
     4
 40
2.0
 49
1.25
 74
     0
 49
-0.25
 74
     0
 49
0.25
 74
     0
 49
-0.25
 74
     0
  0
LTYPE
  5
26
330
5
100
AcDbSymbolTableRecord
100
AcDbLinetypeTableRecord
  2
CENTER2
 70
     0
  3
____ _ ____ _ ____ _ ____ _ ____ _ ____ _ ____
 72
    65
 73
     4
 40
1.125
 49
0.75
 74
     0
 49
-0.125
 74
     0
 49
0.125
 74
     0
 49
-0.125
 74
     0
  0
LTYPE
  5
27
330
5
100
AcDbSymbolTableRecord
100
AcDbLinetypeTableRecord
  2
CENTERX2
 70
     0
  3
________  __  ________  __  ________  __  
 72
    65
 73
     4
 40
4.0
 49
2.5
 74
     0
 49
-0.5
 74
     0
 49
0.5
 74
     0
 49
-0.5
 74
     0
  0
LTYPE
  5
28
330
5
100
AcDbSymbolTableRecord
100
AcDbLinetypeTableRecord
  2
DASHDOT
 70
     0
  3
__ . __ . __ . __ . __ . __ . __ . 
 72
    65
 73
     4
 40
1.0
 49
0.5
 74
     0
 49
-0.25
 74
     0
 49
0.0
 74
     0
 49
-0.25
 74
     0
  0
LTYPE
  5
29
330
5
100
AcDbSymbolTableRecord
100
AcDbLinetypeTableRecord
  2
DASHDOT2
 70
     0
  3
_._._._._._._._._._._._._._._._.
 72
    65
 73
     4
 40
0.5
 49
0.25
 74
     0
 49
-0.125
 74
     0
 49
0.0
 74
     0
 49
-0.125
 74
     0
  0
LTYPE
  5
2A
330
5
100
AcDbSymbolTableRecord
100
AcDbLinetypeTableRecord
  2
DASHDOTX2
 70
     0
  3
____  .  ____  .  ____  .  ____  .  
 72
    65
 73
     4
 40
2.0
 49
1.0
 74
     0
 49
-0.5
 74
     0
 49
0.0
 74
     0
 49
-0.5
 74
     0
  0
LTYPE
  5
2B
330
5
100
AcDbSymbolTableRecord
100
AcDbLinetypeTableRecord
  2
DASHED
 70
     0
  3
__ __ __ __ __ __ __ __ __ __ __ __ 
 72
    65
 73
     2
 40
0.75
 49
0.5
 74
     0
 49
-0.25
 74
     0
  0
LTYPE
  5
2C
330
5
100
AcDbSymbolTableRecord
100
AcDbLinetypeTableRecord
  2
DASHED2
 70
     0
  3
_ _ _ _ _ _ _ _ _ _ _ _ _ _ _ _ _ _ 
 72
    65
 73
     2
 40
0.375
 49
0.25
 74
     0
 49
-0.125
 74
     0
  0
LTYPE
  5
2D
330
5
100
AcDbSymbolTableRecord
100
AcDbLinetypeTableRecord
  2
DASHEDX2
 70
     0
  3
____  ____  ____  ____  ____  ____  
 72
    65
 73
     2
 40
1.5
 49
1.0
 74
     0
 49
-0.5
 74
     0
  0
LTYPE
  5
2E
330
5
100
AcDbSymbolTableRecord
100
AcDbLinetypeTableRecord
  2
DIVIDE
 70
     0
  3
____ . . ____ . . ____ . . ____ . . 
 72
    65
 73
     6
 40
1.25
 49
0.5
 74
     0
 49
-0.25
 74
     0
 49
0.0
 74
     0
 49
-0.25
 74
     0
 49
0.0
 74
     0
 49
-0.25
 74
     0
  0
LTYPE
  5
2F
330
5
100
AcDbSymbolTableRecord
100
AcDbLinetypeTableRecord
  2
DIVIDE2
 70
     0
  3
__..__..__..__..__..__..__..__..__..
 72
    65
 73
     6
 40
0.625
 49
0.25
 74
     0
 49
-0.125
 74
     0
 49
0.0
 74
     0
 49
-0.125
 74
     0
 49
0.0
 74
     0
 49
-0.125
 74
     0
  0
LTYPE
  5
30
330
5
100
AcDbSymbolTableRecord
100
AcDbLinetypeTableRecord
  2
DIVIDEX2
 70
     0
  3
________  .  .  ________  .  .  ________  .  . 
 72
    65
 73
     6
 40
2.5
 49
1.0
 74
     0
 49
-0.5
 74
     0
 49
0.0
 74
     0
 49
-0.5
 74
     0
 49
0.0
 74
     0
 49
-0.5
 74
     0
  0
LTYPE
  5
31
330
5
100
AcDbSymbolTableRecord
100
AcDbLinetypeTableRecord
  2
DOT
 70
     0
  3
. . . . . . . . . . . . . . . . . . 
 72
    65
 73
     2
 40
0.25
 49
0.0
 74
     0
 49
-0.25
 74
     0
  0
LTYPE
  5
32
330
5
100
AcDbSymbolTableRecord
100
AcDbLinetypeTableRecord
  2
DOT2
 70
     0
  3
....................................
 72
    65
 73
     2
 40
0.125
 49
0.0
 74
     0
 49
-0.125
 74
     0
  0
LTYPE
  5
33
330
5
100
AcDbSymbolTableRecord
100
AcDbLinetypeTableRecord
  2
DOTX2
 70
     0
  3
.  .  .  .  .  .  .  .  .  .  .  .  .  
 72
    65
 73
     2
 40
0.5
 49
0.0
 74
     0
 49
-0.5
 74
     0
  0
LTYPE
  5
34
330
5
100
AcDbSymbolTableRecord
100
AcDbLinetypeTableRecord
  2
HIDDEN
 70
     0
  3
__ __ __ __ __ __ __ __ __ __ __ __ 
 72
    65
 73
     2
 40
0.375
 49
0.25
 74
     0
 49
-0.125
 74
     0
  0
LTYPE
  5
35
330
5
100
AcDbSymbolTableRecord
100
AcDbLinetypeTableRecord
  2
HIDDEN2
 70
     0
  3
_ _ _ _ _ _ _ _ _ _ _ _ _ _ _ _ _ _ 
 72
    65
 73
     2
 40
0.1875
 49
0.125
 74
     0
 49
-0.0625
 74
     0
  0
LTYPE
  5
36
330
5
100
AcDbSymbolTableRecord
100
AcDbLinetypeTableRecord
  2
HIDDENX2
 70
     0
  3
____ ____ ____ ____ ____ ____ ____ 
 72
    65
 73
     2
 40
0.75
 49
0.5
 74
     0
 49
-0.25
 74
     0
  0
LTYPE
  5
37
330
5
100
AcDbSymbolTableRecord
100
AcDbLinetypeTableRecord
  2
PHANTOM
 70
     0
  3
______  __  __  ______  __  __  
 72
    65
 73
     6
 40
2.5
 49
1.25
 74
     0
 49
-0.25
 74
     0
 49
0.25
 74
     0
 49
-0.25
 74
     0
 49
0.25
 74
     0
 49
-0.25
 74
     0
  0
LTYPE
  5
38
330
5
100
AcDbSymbolTableRecord
100
AcDbLinetypeTableRecord
  2
PHANTOM2
 70
     0
  3
___ _ _ ___ _ _ ___ _ _ ___ _ _ 
 72
    65
 73
     6
 40
1.25
 49
0.625
 74
     0
 49
-0.125
 74
     0
 49
0.125
 74
     0
 49
-0.125
 74
     0
 49
0.125
 74
     0
 49
-0.125
 74
     0
  0
LTYPE
  5
39
330
5
100
AcDbSymbolTableRecord
100
AcDbLinetypeTableRecord
  2
PHANTOMX2
 70
     0
  3
___ _ _ ___ _ _ ___ _ _ ___ _ _ 
 72
    65
 73
     6
 40
5.0
 49
2.5
 74
     0
 49
-0.5
 74
     0
 49
0.5
 74
     0
 49
-0.5
 74
     0
 49
0.5
 74
     0
 49
-0.5
 74
     0
  0
ENDTAB
  0
TABLE
  2
LAYER
  5
2
330
0
100
AcDbSymbolTable
 70
   257
  0
LAYER
  5
10
330
2
100
AcDbSymbolTableRecord
100
AcDbLayerTableRecord
  2
0
 70
     0
 62
     7
  6
CONTINUOUS
  0
LAYER
  5
3A
330
2
100
AcDbSymbolTableRecord
100
AcDbLayerTableRecord
  2
1
 70
     0
 62
     1
  6
CONTINUOUS
  0
LAYER
  5
3B
330
2
100
AcDbSymbolTableRecord
100
AcDbLayerTableRecord
  2
2
 70
     0
 62
     2
  6
CONTINUOUS
  0
LAYER
  5
3C
330
2
100
AcDbSymbolTableRecord
100
AcDbLayerTableRecord
  2
3
 70
     0
 62
     3
  6
CONTINUOUS
  0
LAYER
  5
3D
330
2
100
AcDbSymbolTableRecord
100
AcDbLayerTableRecord
  2
4
 70
     0
 62
     4
  6
CONTINUOUS
  0
LAYER
  5
3E
330
2
100
AcDbSymbolTableRecord
100
AcDbLayerTableRecord
  2
5
 70
     0
 62
     5
  6
CONTINUOUS
  0
LAYER
  5
3F
330
2
100
AcDbSymbolTableRecord
100
AcDbLayerTableRecord
  2
6
 70
     0
 62
     6
  6
CONTINUOUS
  0
LAYER
  5
40
330
2
100
AcDbSymbolTableRecord
100
AcDbLayerTableRecord
  2
7
 70
     0
 62
     7
  6
CONTINUOUS
  0
LAYER
  5
41
330
2
100
AcDbSymbolTableRecord
100
AcDbLayerTableRecord
  2
8
 70
     0
 62
     8
  6
CONTINUOUS
  0
LAYER
  5
42
330
2
100
AcDbSymbolTableRecord
100
AcDbLayerTableRecord
  2
9
 70
     0
 62
     9
  6
CONTINUOUS
  0
LAYER
  5
43
330
2
100
AcDbSymbolTableRecord
100
AcDbLayerTableRecord
  2
10
 70
     0
 62
    10
  6
CONTINUOUS
  0
LAYER
  5
44
330
2
100
AcDbSymbolTableRecord
100
AcDbLayerTableRecord
  2
11
 70
     0
 62
    11
  6
CONTINUOUS
  0
LAYER
  5
45
330
2
100
AcDbSymbolTableRecord
100
AcDbLayerTableRecord
  2
12
 70
     0
 62
    12
  6
CONTINUOUS
  0
LAYER
  5
46
330
2
100
AcDbSymbolTableRecord
100
AcDbLayerTableRecord
  2
13
 70
     0
 62
    13
  6
CONTINUOUS
  0
LAYER
  5
47
330
2
100
AcDbSymbolTableRecord
100
AcDbLayerTableRecord
  2
14
 70
     0
 62
    14
  6
CONTINUOUS
  0
LAYER
  5
48
330
2
100
AcDbSymbolTableRecord
100
AcDbLayerTableRecord
  2
15
 70
     0
 62
    15
  6
CONTINUOUS
  0
LAYER
  5
49
330
2
100
AcDbSymbolTableRecord
100
AcDbLayerTableRecord
  2
16
 70
     0
 62
    16
  6
CONTINUOUS
  0
LAYER
  5
4A
330
2
100
AcDbSymbolTableRecord
100
AcDbLayerTableRecord
  2
17
 70
     0
 62
    17
  6
CONTINUOUS
  0
LAYER
  5
4B
330
2
100
AcDbSymbolTableRecord
100
AcDbLayerTableRecord
  2
18
 70
     0
 62
    18
  6
CONTINUOUS
  0
LAYER
  5
4C
330
2
100
AcDbSymbolTableRecord
100
AcDbLayerTableRecord
  2
19
 70
     0
 62
    19
  6
CONTINUOUS
  0
LAYER
  5
4D
330
2
100
AcDbSymbolTableRecord
100
AcDbLayerTableRecord
  2
20
 70
     0
 62
    20
  6
CONTINUOUS
  0
LAYER
  5
4E
330
2
100
AcDbSymbolTableRecord
100
AcDbLayerTableRecord
  2
21
 70
     0
 62
    21
  6
CONTINUOUS
  0
LAYER
  5
4F
330
2
100
AcDbSymbolTableRecord
100
AcDbLayerTableRecord
  2
22
 70
     0
 62
    22
  6
CONTINUOUS
  0
LAYER
  5
50
330
2
100
AcDbSymbolTableRecord
100
AcDbLayerTableRecord
  2
23
 70
     0
 62
    23
  6
CONTINUOUS
  0
LAYER
  5
51
330
2
100
AcDbSymbolTableRecord
100
AcDbLayerTableRecord
  2
24
 70
     0
 62
    24
  6
CONTINUOUS
  0
LAYER
  5
52
330
2
100
AcDbSymbolTableRecord
100
AcDbLayerTableRecord
  2
25
 70
     0
 62
    25
  6
CONTINUOUS
  0
LAYER
  5
53
330
2
100
AcDbSymbolTableRecord
100
AcDbLayerTableRecord
  2
26
 70
     0
 62
    26
  6
CONTINUOUS
  0
LAYER
  5
54
330
2
100
AcDbSymbolTableRecord
100
AcDbLayerTableRecord
  2
27
 70
     0
 62
    27
  6
CONTINUOUS
  0
LAYER
  5
55
330
2
100
AcDbSymbolTableRecord
100
AcDbLayerTableRecord
  2
28
 70
     0
 62
    28
  6
CONTINUOUS
  0
LAYER
  5
56
330
2
100
AcDbSymbolTableRecord
100
AcDbLayerTableRecord
  2
29
 70
     0
 62
    29
  6
CONTINUOUS
  0
LAYER
  5
57
330
2
100
AcDbSymbolTableRecord
100
AcDbLayerTableRecord
  2
30
 70
     0
 62
    30
  6
CONTINUOUS
  0
LAYER
  5
58
330
2
100
AcDbSymbolTableRecord
100
AcDbLayerTableRecord
  2
31
 70
     0
 62
    31
  6
CONTINUOUS
  0
LAYER
  5
59
330
2
100
AcDbSymbolTableRecord
100
AcDbLayerTableRecord
  2
32
 70
     0
 62
    32
  6
CONTINUOUS
  0
LAYER
  5
5A
330
2
100
AcDbSymbolTableRecord
100
AcDbLayerTableRecord
  2
33
 70
     0
 62
    33
  6
CONTINUOUS
  0
LAYER
  5
5B
330
2
100
AcDbSymbolTableRecord
100
AcDbLayerTableRecord
  2
34
 70
     0
 62
    34
  6
CONTINUOUS
  0
LAYER
  5
5C
330
2
100
AcDbSymbolTableRecord
100
AcDbLayerTableRecord
  2
35
 70
     0
 62
    35
  6
CONTINUOUS
  0
LAYER
  5
5D
330
2
100
AcDbSymbolTableRecord
100
AcDbLayerTableRecord
  2
36
 70
     0
 62
    36
  6
CONTINUOUS
  0
LAYER
  5
5E
330
2
100
AcDbSymbolTableRecord
100
AcDbLayerTableRecord
  2
37
 70
     0
 62
    37
  6
CONTINUOUS
  0
LAYER
  5
5F
330
2
100
AcDbSymbolTableRecord
100
AcDbLayerTableRecord
  2
38
 70
     0
 62
    38
  6
CONTINUOUS
  0
LAYER
  5
60
330
2
100
AcDbSymbolTableRecord
100
AcDbLayerTableRecord
  2
39
 70
     0
 62
    39
  6
CONTINUOUS
  0
LAYER
  5
61
330
2
100
AcDbSymbolTableRecord
100
AcDbLayerTableRecord
  2
40
 70
     0
 62
    40
  6
CONTINUOUS
  0
LAYER
  5
62
330
2
100
AcDbSymbolTableRecord
100
AcDbLayerTableRecord
  2
41
 70
     0
 62
    41
  6
CONTINUOUS
  0
LAYER
  5
63
330
2
100
AcDbSymbolTableRecord
100
AcDbLayerTableRecord
  2
42
 70
     0
 62
    42
  6
CONTINUOUS
  0
LAYER
  5
64
330
2
100
AcDbSymbolTableRecord
100
AcDbLayerTableRecord
  2
43
 70
     0
 62
    43
  6
CONTINUOUS
  0
LAYER
  5
65
330
2
100
AcDbSymbolTableRecord
100
AcDbLayerTableRecord
  2
44
 70
     0
 62
    44
  6
CONTINUOUS
  0
LAYER
  5
66
330
2
100
AcDbSymbolTableRecord
100
AcDbLayerTableRecord
  2
45
 70
     0
 62
    45
  6
CONTINUOUS
  0
LAYER
  5
67
330
2
100
AcDbSymbolTableRecord
100
AcDbLayerTableRecord
  2
46
 70
     0
 62
    46
  6
CONTINUOUS
  0
LAYER
  5
68
330
2
100
AcDbSymbolTableRecord
100
AcDbLayerTableRecord
  2
47
 70
     0
 62
    47
  6
CONTINUOUS
  0
LAYER
  5
69
330
2
100
AcDbSymbolTableRecord
100
AcDbLayerTableRecord
  2
48
 70
     0
 62
    48
  6
CONTINUOUS
  0
LAYER
  5
6A
330
2
100
AcDbSymbolTableRecord
100
AcDbLayerTableRecord
  2
49
 70
     0
 62
    49
  6
CONTINUOUS
  0
LAYER
  5
6B
330
2
100
AcDbSymbolTableRecord
100
AcDbLayerTableRecord
  2
50
 70
     0
 62
    50
  6
CONTINUOUS
  0
LAYER
  5
6C
330
2
100
AcDbSymbolTableRecord
100
AcDbLayerTableRecord
  2
51
 70
     0
 62
    51
  6
CONTINUOUS
  0
LAYER
  5
6D
330
2
100
AcDbSymbolTableRecord
100
AcDbLayerTableRecord
  2
52
 70
     0
 62
    52
  6
CONTINUOUS
  0
LAYER
  5
6E
330
2
100
AcDbSymbolTableRecord
100
AcDbLayerTableRecord
  2
53
 70
     0
 62
    53
  6
CONTINUOUS
  0
LAYER
  5
6F
330
2
100
AcDbSymbolTableRecord
100
AcDbLayerTableRecord
  2
54
 70
     0
 62
    54
  6
CONTINUOUS
  0
LAYER
  5
70
330
2
100
AcDbSymbolTableRecord
100
AcDbLayerTableRecord
  2
55
 70
     0
 62
    55
  6
CONTINUOUS
  0
LAYER
  5
71
330
2
100
AcDbSymbolTableRecord
100
AcDbLayerTableRecord
  2
56
 70
     0
 62
    56
  6
CONTINUOUS
  0
LAYER
  5
72
330
2
100
AcDbSymbolTableRecord
100
AcDbLayerTableRecord
  2
57
 70
     0
 62
    57
  6
CONTINUOUS
  0
LAYER
  5
73
330
2
100
AcDbSymbolTableRecord
100
AcDbLayerTableRecord
  2
58
 70
     0
 62
    58
  6
CONTINUOUS
  0
LAYER
  5
74
330
2
100
AcDbSymbolTableRecord
100
AcDbLayerTableRecord
  2
59
 70
     0
 62
    59
  6
CONTINUOUS
  0
LAYER
  5
75
330
2
100
AcDbSymbolTableRecord
100
AcDbLayerTableRecord
  2
60
 70
     0
 62
    60
  6
CONTINUOUS
  0
LAYER
  5
76
330
2
100
AcDbSymbolTableRecord
100
AcDbLayerTableRecord
  2
61
 70
     0
 62
    61
  6
CONTINUOUS
  0
LAYER
  5
77
330
2
100
AcDbSymbolTableRecord
100
AcDbLayerTableRecord
  2
62
 70
     0
 62
    62
  6
CONTINUOUS
  0
LAYER
  5
78
330
2
100
AcDbSymbolTableRecord
100
AcDbLayerTableRecord
  2
63
 70
     0
 62
    63
  6
CONTINUOUS
  0
LAYER
  5
79
330
2
100
AcDbSymbolTableRecord
100
AcDbLayerTableRecord
  2
64
 70
     0
 62
    64
  6
CONTINUOUS
  0
LAYER
  5
7A
330
2
100
AcDbSymbolTableRecord
100
AcDbLayerTableRecord
  2
65
 70
     0
 62
    65
  6
CONTINUOUS
  0
LAYER
  5
7B
330
2
100
AcDbSymbolTableRecord
100
AcDbLayerTableRecord
  2
66
 70
     0
 62
    66
  6
CONTINUOUS
  0
LAYER
  5
7C
330
2
100
AcDbSymbolTableRecord
100
AcDbLayerTableRecord
  2
67
 70
     0
 62
    67
  6
CONTINUOUS
  0
LAYER
  5
7D
330
2
100
AcDbSymbolTableRecord
100
AcDbLayerTableRecord
  2
68
 70
     0
 62
    68
  6
CONTINUOUS
  0
LAYER
  5
7E
330
2
100
AcDbSymbolTableRecord
100
AcDbLayerTableRecord
  2
69
 70
     0
 62
    69
  6
CONTINUOUS
  0
LAYER
  5
7F
330
2
100
AcDbSymbolTableRecord
100
AcDbLayerTableRecord
  2
70
 70
     0
 62
    70
  6
CONTINUOUS
  0
LAYER
  5
80
330
2
100
AcDbSymbolTableRecord
100
AcDbLayerTableRecord
  2
71
 70
     0
 62
    71
  6
CONTINUOUS
  0
LAYER
  5
81
330
2
100
AcDbSymbolTableRecord
100
AcDbLayerTableRecord
  2
72
 70
     0
 62
    72
  6
CONTINUOUS
  0
LAYER
  5
82
330
2
100
AcDbSymbolTableRecord
100
AcDbLayerTableRecord
  2
73
 70
     0
 62
    73
  6
CONTINUOUS
  0
LAYER
  5
83
330
2
100
AcDbSymbolTableRecord
100
AcDbLayerTableRecord
  2
74
 70
     0
 62
    74
  6
CONTINUOUS
  0
LAYER
  5
84
330
2
100
AcDbSymbolTableRecord
100
AcDbLayerTableRecord
  2
75
 70
     0
 62
    75
  6
CONTINUOUS
  0
LAYER
  5
85
330
2
100
AcDbSymbolTableRecord
100
AcDbLayerTableRecord
  2
76
 70
     0
 62
    76
  6
CONTINUOUS
  0
LAYER
  5
86
330
2
100
AcDbSymbolTableRecord
100
AcDbLayerTableRecord
  2
77
 70
     0
 62
    77
  6
CONTINUOUS
  0
LAYER
  5
87
330
2
100
AcDbSymbolTableRecord
100
AcDbLayerTableRecord
  2
78
 70
     0
 62
    78
  6
CONTINUOUS
  0
LAYER
  5
88
330
2
100
AcDbSymbolTableRecord
100
AcDbLayerTableRecord
  2
79
 70
     0
 62
    79
  6
CONTINUOUS
  0
LAYER
  5
89
330
2
100
AcDbSymbolTableRecord
100
AcDbLayerTableRecord
  2
80
 70
     0
 62
    80
  6
CONTINUOUS
  0
LAYER
  5
8A
330
2
100
AcDbSymbolTableRecord
100
AcDbLayerTableRecord
  2
81
 70
     0
 62
    81
  6
CONTINUOUS
  0
LAYER
  5
8B
330
2
100
AcDbSymbolTableRecord
100
AcDbLayerTableRecord
  2
82
 70
     0
 62
    82
  6
CONTINUOUS
  0
LAYER
  5
8C
330
2
100
AcDbSymbolTableRecord
100
AcDbLayerTableRecord
  2
83
 70
     0
 62
    83
  6
CONTINUOUS
  0
LAYER
  5
8D
330
2
100
AcDbSymbolTableRecord
100
AcDbLayerTableRecord
  2
84
 70
     0
 62
    84
  6
CONTINUOUS
  0
LAYER
  5
8E
330
2
100
AcDbSymbolTableRecord
100
AcDbLayerTableRecord
  2
85
 70
     0
 62
    85
  6
CONTINUOUS
  0
LAYER
  5
8F
330
2
100
AcDbSymbolTableRecord
100
AcDbLayerTableRecord
  2
86
 70
     0
 62
    86
  6
CONTINUOUS
  0
LAYER
  5
90
330
2
100
AcDbSymbolTableRecord
100
AcDbLayerTableRecord
  2
87
 70
     0
 62
    87
  6
CONTINUOUS
  0
LAYER
  5
91
330
2
100
AcDbSymbolTableRecord
100
AcDbLayerTableRecord
  2
88
 70
     0
 62
    88
  6
CONTINUOUS
  0
LAYER
  5
92
330
2
100
AcDbSymbolTableRecord
100
AcDbLayerTableRecord
  2
89
 70
     0
 62
    89
  6
CONTINUOUS
  0
LAYER
  5
93
330
2
100
AcDbSymbolTableRecord
100
AcDbLayerTableRecord
  2
90
 70
     0
 62
    90
  6
CONTINUOUS
  0
LAYER
  5
94
330
2
100
AcDbSymbolTableRecord
100
AcDbLayerTableRecord
  2
91
 70
     0
 62
    91
  6
CONTINUOUS
  0
LAYER
  5
95
330
2
100
AcDbSymbolTableRecord
100
AcDbLayerTableRecord
  2
92
 70
     0
 62
    92
  6
CONTINUOUS
  0
LAYER
  5
96
330
2
100
AcDbSymbolTableRecord
100
AcDbLayerTableRecord
  2
93
 70
     0
 62
    93
  6
CONTINUOUS
  0
LAYER
  5
97
330
2
100
AcDbSymbolTableRecord
100
AcDbLayerTableRecord
  2
94
 70
     0
 62
    94
  6
CONTINUOUS
  0
LAYER
  5
98
330
2
100
AcDbSymbolTableRecord
100
AcDbLayerTableRecord
  2
95
 70
     0
 62
    95
  6
CONTINUOUS
  0
LAYER
  5
99
330
2
100
AcDbSymbolTableRecord
100
AcDbLayerTableRecord
  2
96
 70
     0
 62
    96
  6
CONTINUOUS
  0
LAYER
  5
9A
330
2
100
AcDbSymbolTableRecord
100
AcDbLayerTableRecord
  2
97
 70
     0
 62
    97
  6
CONTINUOUS
  0
LAYER
  5
9B
330
2
100
AcDbSymbolTableRecord
100
AcDbLayerTableRecord
  2
98
 70
     0
 62
    98
  6
CONTINUOUS
  0
LAYER
  5
9C
330
2
100
AcDbSymbolTableRecord
100
AcDbLayerTableRecord
  2
99
 70
     0
 62
    99
  6
CONTINUOUS
  0
LAYER
  5
9D
330
2
100
AcDbSymbolTableRecord
100
AcDbLayerTableRecord
  2
100
 70
     0
 62
   100
  6
CONTINUOUS
  0
LAYER
  5
9E
330
2
100
AcDbSymbolTableRecord
100
AcDbLayerTableRecord
  2
101
 70
     0
 62
   101
  6
CONTINUOUS
  0
LAYER
  5
9F
330
2
100
AcDbSymbolTableRecord
100
AcDbLayerTableRecord
  2
102
 70
     0
 62
   102
  6
CONTINUOUS
  0
LAYER
  5
A0
330
2
100
AcDbSymbolTableRecord
100
AcDbLayerTableRecord
  2
103
 70
     0
 62
   103
  6
CONTINUOUS
  0
LAYER
  5
A1
330
2
100
AcDbSymbolTableRecord
100
AcDbLayerTableRecord
  2
104
 70
     0
 62
   104
  6
CONTINUOUS
  0
LAYER
  5
A2
330
2
100
AcDbSymbolTableRecord
100
AcDbLayerTableRecord
  2
105
 70
     0
 62
   105
  6
CONTINUOUS
  0
LAYER
  5
A3
330
2
100
AcDbSymbolTableRecord
100
AcDbLayerTableRecord
  2
106
 70
     0
 62
   106
  6
CONTINUOUS
  0
LAYER
  5
A4
330
2
100
AcDbSymbolTableRecord
100
AcDbLayerTableRecord
  2
107
 70
     0
 62
   107
  6
CONTINUOUS
  0
LAYER
  5
A5
330
2
100
AcDbSymbolTableRecord
100
AcDbLayerTableRecord
  2
108
 70
     0
 62
   108
  6
CONTINUOUS
  0
LAYER
  5
A6
330
2
100
AcDbSymbolTableRecord
100
AcDbLayerTableRecord
  2
109
 70
     0
 62
   109
  6
CONTINUOUS
  0
LAYER
  5
A7
330
2
100
AcDbSymbolTableRecord
100
AcDbLayerTableRecord
  2
110
 70
     0
 62
   110
  6
CONTINUOUS
  0
LAYER
  5
A8
330
2
100
AcDbSymbolTableRecord
100
AcDbLayerTableRecord
  2
111
 70
     0
 62
   111
  6
CONTINUOUS
  0
LAYER
  5
A9
330
2
100
AcDbSymbolTableRecord
100
AcDbLayerTableRecord
  2
112
 70
     0
 62
   112
  6
CONTINUOUS
  0
LAYER
  5
AA
330
2
100
AcDbSymbolTableRecord
100
AcDbLayerTableRecord
  2
113
 70
     0
 62
   113
  6
CONTINUOUS
  0
LAYER
  5
AB
330
2
100
AcDbSymbolTableRecord
100
AcDbLayerTableRecord
  2
114
 70
     0
 62
   114
  6
CONTINUOUS
  0
LAYER
  5
AC
330
2
100
AcDbSymbolTableRecord
100
AcDbLayerTableRecord
  2
115
 70
     0
 62
   115
  6
CONTINUOUS
  0
LAYER
  5
AD
330
2
100
AcDbSymbolTableRecord
100
AcDbLayerTableRecord
  2
116
 70
     0
 62
   116
  6
CONTINUOUS
  0
LAYER
  5
AE
330
2
100
AcDbSymbolTableRecord
100
AcDbLayerTableRecord
  2
117
 70
     0
 62
   117
  6
CONTINUOUS
  0
LAYER
  5
AF
330
2
100
AcDbSymbolTableRecord
100
AcDbLayerTableRecord
  2
118
 70
     0
 62
   118
  6
CONTINUOUS
  0
LAYER
  5
B0
330
2
100
AcDbSymbolTableRecord
100
AcDbLayerTableRecord
  2
119
 70
     0
 62
   119
  6
CONTINUOUS
  0
LAYER
  5
B1
330
2
100
AcDbSymbolTableRecord
100
AcDbLayerTableRecord
  2
120
 70
     0
 62
   120
  6
CONTINUOUS
  0
LAYER
  5
B2
330
2
100
AcDbSymbolTableRecord
100
AcDbLayerTableRecord
  2
121
 70
     0
 62
   121
  6
CONTINUOUS
  0
LAYER
  5
B3
330
2
100
AcDbSymbolTableRecord
100
AcDbLayerTableRecord
  2
122
 70
     0
 62
   122
  6
CONTINUOUS
  0
LAYER
  5
B4
330
2
100
AcDbSymbolTableRecord
100
AcDbLayerTableRecord
  2
123
 70
     0
 62
   123
  6
CONTINUOUS
  0
LAYER
  5
B5
330
2
100
AcDbSymbolTableRecord
100
AcDbLayerTableRecord
  2
124
 70
     0
 62
   124
  6
CONTINUOUS
  0
LAYER
  5
B6
330
2
100
AcDbSymbolTableRecord
100
AcDbLayerTableRecord
  2
125
 70
     0
 62
   125
  6
CONTINUOUS
  0
LAYER
  5
B7
330
2
100
AcDbSymbolTableRecord
100
AcDbLayerTableRecord
  2
126
 70
     0
 62
   126
  6
CONTINUOUS
  0
LAYER
  5
B8
330
2
100
AcDbSymbolTableRecord
100
AcDbLayerTableRecord
  2
127
 70
     0
 62
   127
  6
CONTINUOUS
  0
LAYER
  5
B9
330
2
100
AcDbSymbolTableRecord
100
AcDbLayerTableRecord
  2
128
 70
     0
 62
   128
  6
CONTINUOUS
  0
LAYER
  5
BA
330
2
100
AcDbSymbolTableRecord
100
AcDbLayerTableRecord
  2
129
 70
     0
 62
   129
  6
CONTINUOUS
  0
LAYER
  5
BB
330
2
100
AcDbSymbolTableRecord
100
AcDbLayerTableRecord
  2
130
 70
     0
 62
   130
  6
CONTINUOUS
  0
LAYER
  5
BC
330
2
100
AcDbSymbolTableRecord
100
AcDbLayerTableRecord
  2
131
 70
     0
 62
   131
  6
CONTINUOUS
  0
LAYER
  5
BD
330
2
100
AcDbSymbolTableRecord
100
AcDbLayerTableRecord
  2
132
 70
     0
 62
   132
  6
CONTINUOUS
  0
LAYER
  5
BE
330
2
100
AcDbSymbolTableRecord
100
AcDbLayerTableRecord
  2
133
 70
     0
 62
   133
  6
CONTINUOUS
  0
LAYER
  5
BF
330
2
100
AcDbSymbolTableRecord
100
AcDbLayerTableRecord
  2
134
 70
     0
 62
   134
  6
CONTINUOUS
  0
LAYER
  5
C0
330
2
100
AcDbSymbolTableRecord
100
AcDbLayerTableRecord
  2
135
 70
     0
 62
   135
  6
CONTINUOUS
  0
LAYER
  5
C1
330
2
100
AcDbSymbolTableRecord
100
AcDbLayerTableRecord
  2
136
 70
     0
 62
   136
  6
CONTINUOUS
  0
LAYER
  5
C2
330
2
100
AcDbSymbolTableRecord
100
AcDbLayerTableRecord
  2
137
 70
     0
 62
   137
  6
CONTINUOUS
  0
LAYER
  5
C3
330
2
100
AcDbSymbolTableRecord
100
AcDbLayerTableRecord
  2
138
 70
     0
 62
   138
  6
CONTINUOUS
  0
LAYER
  5
C4
330
2
100
AcDbSymbolTableRecord
100
AcDbLayerTableRecord
  2
139
 70
     0
 62
   139
  6
CONTINUOUS
  0
LAYER
  5
C5
330
2
100
AcDbSymbolTableRecord
100
AcDbLayerTableRecord
  2
140
 70
     0
 62
   140
  6
CONTINUOUS
  0
LAYER
  5
C6
330
2
100
AcDbSymbolTableRecord
100
AcDbLayerTableRecord
  2
141
 70
     0
 62
   141
  6
CONTINUOUS
  0
LAYER
  5
C7
330
2
100
AcDbSymbolTableRecord
100
AcDbLayerTableRecord
  2
142
 70
     0
 62
   142
  6
CONTINUOUS
  0
LAYER
  5
C8
330
2
100
AcDbSymbolTableRecord
100
AcDbLayerTableRecord
  2
143
 70
     0
 62
   143
  6
CONTINUOUS
  0
LAYER
  5
C9
330
2
100
AcDbSymbolTableRecord
100
AcDbLayerTableRecord
  2
144
 70
     0
 62
   144
  6
CONTINUOUS
  0
LAYER
  5
CA
330
2
100
AcDbSymbolTableRecord
100
AcDbLayerTableRecord
  2
145
 70
     0
 62
   145
  6
CONTINUOUS
  0
LAYER
  5
CB
330
2
100
AcDbSymbolTableRecord
100
AcDbLayerTableRecord
  2
146
 70
     0
 62
   146
  6
CONTINUOUS
  0
LAYER
  5
CC
330
2
100
AcDbSymbolTableRecord
100
AcDbLayerTableRecord
  2
147
 70
     0
 62
   147
  6
CONTINUOUS
  0
LAYER
  5
CD
330
2
100
AcDbSymbolTableRecord
100
AcDbLayerTableRecord
  2
148
 70
     0
 62
   148
  6
CONTINUOUS
  0
LAYER
  5
CE
330
2
100
AcDbSymbolTableRecord
100
AcDbLayerTableRecord
  2
149
 70
     0
 62
   149
  6
CONTINUOUS
  0
LAYER
  5
CF
330
2
100
AcDbSymbolTableRecord
100
AcDbLayerTableRecord
  2
150
 70
     0
 62
   150
  6
CONTINUOUS
  0
LAYER
  5
D0
330
2
100
AcDbSymbolTableRecord
100
AcDbLayerTableRecord
  2
151
 70
     0
 62
   151
  6
CONTINUOUS
  0
LAYER
  5
D1
330
2
100
AcDbSymbolTableRecord
100
AcDbLayerTableRecord
  2
152
 70
     0
 62
   152
  6
CONTINUOUS
  0
LAYER
  5
D2
330
2
100
AcDbSymbolTableRecord
100
AcDbLayerTableRecord
  2
153
 70
     0
 62
   153
  6
CONTINUOUS
  0
LAYER
  5
D3
330
2
100
AcDbSymbolTableRecord
100
AcDbLayerTableRecord
  2
154
 70
     0
 62
   154
  6
CONTINUOUS
  0
LAYER
  5
D4
330
2
100
AcDbSymbolTableRecord
100
AcDbLayerTableRecord
  2
155
 70
     0
 62
   155
  6
CONTINUOUS
  0
LAYER
  5
D5
330
2
100
AcDbSymbolTableRecord
100
AcDbLayerTableRecord
  2
156
 70
     0
 62
   156
  6
CONTINUOUS
  0
LAYER
  5
D6
330
2
100
AcDbSymbolTableRecord
100
AcDbLayerTableRecord
  2
157
 70
     0
 62
   157
  6
CONTINUOUS
  0
LAYER
  5
D7
330
2
100
AcDbSymbolTableRecord
100
AcDbLayerTableRecord
  2
158
 70
     0
 62
   158
  6
CONTINUOUS
  0
LAYER
  5
D8
330
2
100
AcDbSymbolTableRecord
100
AcDbLayerTableRecord
  2
159
 70
     0
 62
   159
  6
CONTINUOUS
  0
LAYER
  5
D9
330
2
100
AcDbSymbolTableRecord
100
AcDbLayerTableRecord
  2
160
 70
     0
 62
   160
  6
CONTINUOUS
  0
LAYER
  5
DA
330
2
100
AcDbSymbolTableRecord
100
AcDbLayerTableRecord
  2
161
 70
     0
 62
   161
  6
CONTINUOUS
  0
LAYER
  5
DB
330
2
100
AcDbSymbolTableRecord
100
AcDbLayerTableRecord
  2
162
 70
     0
 62
   162
  6
CONTINUOUS
  0
LAYER
  5
DC
330
2
100
AcDbSymbolTableRecord
100
AcDbLayerTableRecord
  2
163
 70
     0
 62
   163
  6
CONTINUOUS
  0
LAYER
  5
DD
330
2
100
AcDbSymbolTableRecord
100
AcDbLayerTableRecord
  2
164
 70
     0
 62
   164
  6
CONTINUOUS
  0
LAYER
  5
DE
330
2
100
AcDbSymbolTableRecord
100
AcDbLayerTableRecord
  2
165
 70
     0
 62
   165
  6
CONTINUOUS
  0
LAYER
  5
DF
330
2
100
AcDbSymbolTableRecord
100
AcDbLayerTableRecord
  2
166
 70
     0
 62
   166
  6
CONTINUOUS
  0
LAYER
  5
E0
330
2
100
AcDbSymbolTableRecord
100
AcDbLayerTableRecord
  2
167
 70
     0
 62
   167
  6
CONTINUOUS
  0
LAYER
  5
E1
330
2
100
AcDbSymbolTableRecord
100
AcDbLayerTableRecord
  2
168
 70
     0
 62
   168
  6
CONTINUOUS
  0
LAYER
  5
E2
330
2
100
AcDbSymbolTableRecord
100
AcDbLayerTableRecord
  2
169
 70
     0
 62
   169
  6
CONTINUOUS
  0
LAYER
  5
E3
330
2
100
AcDbSymbolTableRecord
100
AcDbLayerTableRecord
  2
170
 70
     0
 62
   170
  6
CONTINUOUS
  0
LAYER
  5
E4
330
2
100
AcDbSymbolTableRecord
100
AcDbLayerTableRecord
  2
171
 70
     0
 62
   171
  6
CONTINUOUS
  0
LAYER
  5
E5
330
2
100
AcDbSymbolTableRecord
100
AcDbLayerTableRecord
  2
172
 70
     0
 62
   172
  6
CONTINUOUS
  0
LAYER
  5
E6
330
2
100
AcDbSymbolTableRecord
100
AcDbLayerTableRecord
  2
173
 70
     0
 62
   173
  6
CONTINUOUS
  0
LAYER
  5
E7
330
2
100
AcDbSymbolTableRecord
100
AcDbLayerTableRecord
  2
174
 70
     0
 62
   174
  6
CONTINUOUS
  0
LAYER
  5
E8
330
2
100
AcDbSymbolTableRecord
100
AcDbLayerTableRecord
  2
175
 70
     0
 62
   175
  6
CONTINUOUS
  0
LAYER
  5
E9
330
2
100
AcDbSymbolTableRecord
100
AcDbLayerTableRecord
  2
176
 70
     0
 62
   176
  6
CONTINUOUS
  0
LAYER
  5
EA
330
2
100
AcDbSymbolTableRecord
100
AcDbLayerTableRecord
  2
177
 70
     0
 62
   177
  6
CONTINUOUS
  0
LAYER
  5
EB
330
2
100
AcDbSymbolTableRecord
100
AcDbLayerTableRecord
  2
178
 70
     0
 62
   178
  6
CONTINUOUS
  0
LAYER
  5
EC
330
2
100
AcDbSymbolTableRecord
100
AcDbLayerTableRecord
  2
179
 70
     0
 62
   179
  6
CONTINUOUS
  0
LAYER
  5
ED
330
2
100
AcDbSymbolTableRecord
100
AcDbLayerTableRecord
  2
180
 70
     0
 62
   180
  6
CONTINUOUS
  0
LAYER
  5
EE
330
2
100
AcDbSymbolTableRecord
100
AcDbLayerTableRecord
  2
181
 70
     0
 62
   181
  6
CONTINUOUS
  0
LAYER
  5
EF
330
2
100
AcDbSymbolTableRecord
100
AcDbLayerTableRecord
  2
182
 70
     0
 62
   182
  6
CONTINUOUS
  0
LAYER
  5
F0
330
2
100
AcDbSymbolTableRecord
100
AcDbLayerTableRecord
  2
183
 70
     0
 62
   183
  6
CONTINUOUS
  0
LAYER
  5
F1
330
2
100
AcDbSymbolTableRecord
100
AcDbLayerTableRecord
  2
184
 70
     0
 62
   184
  6
CONTINUOUS
  0
LAYER
  5
F2
330
2
100
AcDbSymbolTableRecord
100
AcDbLayerTableRecord
  2
185
 70
     0
 62
   185
  6
CONTINUOUS
  0
LAYER
  5
F3
330
2
100
AcDbSymbolTableRecord
100
AcDbLayerTableRecord
  2
186
 70
     0
 62
   186
  6
CONTINUOUS
  0
LAYER
  5
F4
330
2
100
AcDbSymbolTableRecord
100
AcDbLayerTableRecord
  2
187
 70
     0
 62
   187
  6
CONTINUOUS
  0
LAYER
  5
F5
330
2
100
AcDbSymbolTableRecord
100
AcDbLayerTableRecord
  2
188
 70
     0
 62
   188
  6
CONTINUOUS
  0
LAYER
  5
F6
330
2
100
AcDbSymbolTableRecord
100
AcDbLayerTableRecord
  2
189
 70
     0
 62
   189
  6
CONTINUOUS
  0
LAYER
  5
F7
330
2
100
AcDbSymbolTableRecord
100
AcDbLayerTableRecord
  2
190
 70
     0
 62
   190
  6
CONTINUOUS
  0
LAYER
  5
F8
330
2
100
AcDbSymbolTableRecord
100
AcDbLayerTableRecord
  2
191
 70
     0
 62
   191
  6
CONTINUOUS
  0
LAYER
  5
F9
330
2
100
AcDbSymbolTableRecord
100
AcDbLayerTableRecord
  2
192
 70
     0
 62
   192
  6
CONTINUOUS
  0
LAYER
  5
FA
330
2
100
AcDbSymbolTableRecord
100
AcDbLayerTableRecord
  2
193
 70
     0
 62
   193
  6
CONTINUOUS
  0
LAYER
  5
FB
330
2
100
AcDbSymbolTableRecord
100
AcDbLayerTableRecord
  2
194
 70
     0
 62
   194
  6
CONTINUOUS
  0
LAYER
  5
FC
330
2
100
AcDbSymbolTableRecord
100
AcDbLayerTableRecord
  2
195
 70
     0
 62
   195
  6
CONTINUOUS
  0
LAYER
  5
FD
330
2
100
AcDbSymbolTableRecord
100
AcDbLayerTableRecord
  2
196
 70
     0
 62
   196
  6
CONTINUOUS
  0
LAYER
  5
FE
330
2
100
AcDbSymbolTableRecord
100
AcDbLayerTableRecord
  2
197
 70
     0
 62
   197
  6
CONTINUOUS
  0
LAYER
  5
FF
330
2
100
AcDbSymbolTableRecord
100
AcDbLayerTableRecord
  2
198
 70
     0
 62
   198
  6
CONTINUOUS
  0
LAYER
  5
100
330
2
100
AcDbSymbolTableRecord
100
AcDbLayerTableRecord
  2
199
 70
     0
 62
   199
  6
CONTINUOUS
  0
LAYER
  5
101
330
2
100
AcDbSymbolTableRecord
100
AcDbLayerTableRecord
  2
200
 70
     0
 62
   200
  6
CONTINUOUS
  0
LAYER
  5
102
330
2
100
AcDbSymbolTableRecord
100
AcDbLayerTableRecord
  2
201
 70
     0
 62
   201
  6
CONTINUOUS
  0
LAYER
  5
103
330
2
100
AcDbSymbolTableRecord
100
AcDbLayerTableRecord
  2
202
 70
     0
 62
   202
  6
CONTINUOUS
  0
LAYER
  5
104
330
2
100
AcDbSymbolTableRecord
100
AcDbLayerTableRecord
  2
203
 70
     0
 62
   203
  6
CONTINUOUS
  0
LAYER
  5
105
330
2
100
AcDbSymbolTableRecord
100
AcDbLayerTableRecord
  2
204
 70
     0
 62
   204
  6
CONTINUOUS
  0
LAYER
  5
106
330
2
100
AcDbSymbolTableRecord
100
AcDbLayerTableRecord
  2
205
 70
     0
 62
   205
  6
CONTINUOUS
  0
LAYER
  5
107
330
2
100
AcDbSymbolTableRecord
100
AcDbLayerTableRecord
  2
206
 70
     0
 62
   206
  6
CONTINUOUS
  0
LAYER
  5
108
330
2
100
AcDbSymbolTableRecord
100
AcDbLayerTableRecord
  2
207
 70
     0
 62
   207
  6
CONTINUOUS
  0
LAYER
  5
109
330
2
100
AcDbSymbolTableRecord
100
AcDbLayerTableRecord
  2
208
 70
     0
 62
   208
  6
CONTINUOUS
  0
LAYER
  5
10A
330
2
100
AcDbSymbolTableRecord
100
AcDbLayerTableRecord
  2
209
 70
     0
 62
   209
  6
CONTINUOUS
  0
LAYER
  5
10B
330
2
100
AcDbSymbolTableRecord
100
AcDbLayerTableRecord
  2
210
 70
     0
 62
   210
  6
CONTINUOUS
  0
LAYER
  5
10C
330
2
100
AcDbSymbolTableRecord
100
AcDbLayerTableRecord
  2
211
 70
     0
 62
   211
  6
CONTINUOUS
  0
LAYER
  5
10D
330
2
100
AcDbSymbolTableRecord
100
AcDbLayerTableRecord
  2
212
 70
     0
 62
   212
  6
CONTINUOUS
  0
LAYER
  5
10E
330
2
100
AcDbSymbolTableRecord
100
AcDbLayerTableRecord
  2
213
 70
     0
 62
   213
  6
CONTINUOUS
  0
LAYER
  5
10F
330
2
100
AcDbSymbolTableRecord
100
AcDbLayerTableRecord
  2
214
 70
     0
 62
   214
  6
CONTINUOUS
  0
LAYER
  5
110
330
2
100
AcDbSymbolTableRecord
100
AcDbLayerTableRecord
  2
215
 70
     0
 62
   215
  6
CONTINUOUS
  0
LAYER
  5
111
330
2
100
AcDbSymbolTableRecord
100
AcDbLayerTableRecord
  2
216
 70
     0
 62
   216
  6
CONTINUOUS
  0
LAYER
  5
112
330
2
100
AcDbSymbolTableRecord
100
AcDbLayerTableRecord
  2
217
 70
     0
 62
   217
  6
CONTINUOUS
  0
LAYER
  5
113
330
2
100
AcDbSymbolTableRecord
100
AcDbLayerTableRecord
  2
218
 70
     0
 62
   218
  6
CONTINUOUS
  0
LAYER
  5
114
330
2
100
AcDbSymbolTableRecord
100
AcDbLayerTableRecord
  2
219
 70
     0
 62
   219
  6
CONTINUOUS
  0
LAYER
  5
115
330
2
100
AcDbSymbolTableRecord
100
AcDbLayerTableRecord
  2
220
 70
     0
 62
   220
  6
CONTINUOUS
  0
LAYER
  5
116
330
2
100
AcDbSymbolTableRecord
100
AcDbLayerTableRecord
  2
221
 70
     0
 62
   221
  6
CONTINUOUS
  0
LAYER
  5
117
330
2
100
AcDbSymbolTableRecord
100
AcDbLayerTableRecord
  2
222
 70
     0
 62
   222
  6
CONTINUOUS
  0
LAYER
  5
118
330
2
100
AcDbSymbolTableRecord
100
AcDbLayerTableRecord
  2
223
 70
     0
 62
   223
  6
CONTINUOUS
  0
LAYER
  5
119
330
2
100
AcDbSymbolTableRecord
100
AcDbLayerTableRecord
  2
224
 70
     0
 62
   224
  6
CONTINUOUS
  0
LAYER
  5
11A
330
2
100
AcDbSymbolTableRecord
100
AcDbLayerTableRecord
  2
225
 70
     0
 62
   225
  6
CONTINUOUS
  0
LAYER
  5
11B
330
2
100
AcDbSymbolTableRecord
100
AcDbLayerTableRecord
  2
226
 70
     0
 62
   226
  6
CONTINUOUS
  0
LAYER
  5
11C
330
2
100
AcDbSymbolTableRecord
100
AcDbLayerTableRecord
  2
227
 70
     0
 62
   227
  6
CONTINUOUS
  0
LAYER
  5
11D
330
2
100
AcDbSymbolTableRecord
100
AcDbLayerTableRecord
  2
228
 70
     0
 62
   228
  6
CONTINUOUS
  0
LAYER
  5
11E
330
2
100
AcDbSymbolTableRecord
100
AcDbLayerTableRecord
  2
229
 70
     0
 62
   229
  6
CONTINUOUS
  0
LAYER
  5
11F
330
2
100
AcDbSymbolTableRecord
100
AcDbLayerTableRecord
  2
230
 70
     0
 62
   230
  6
CONTINUOUS
  0
LAYER
  5
120
330
2
100
AcDbSymbolTableRecord
100
AcDbLayerTableRecord
  2
231
 70
     0
 62
   231
  6
CONTINUOUS
  0
LAYER
  5
121
330
2
100
AcDbSymbolTableRecord
100
AcDbLayerTableRecord
  2
232
 70
     0
 62
   232
  6
CONTINUOUS
  0
LAYER
  5
122
330
2
100
AcDbSymbolTableRecord
100
AcDbLayerTableRecord
  2
233
 70
     0
 62
   233
  6
CONTINUOUS
  0
LAYER
  5
123
330
2
100
AcDbSymbolTableRecord
100
AcDbLayerTableRecord
  2
234
 70
     0
 62
   234
  6
CONTINUOUS
  0
LAYER
  5
124
330
2
100
AcDbSymbolTableRecord
100
AcDbLayerTableRecord
  2
235
 70
     0
 62
   235
  6
CONTINUOUS
  0
LAYER
  5
125
330
2
100
AcDbSymbolTableRecord
100
AcDbLayerTableRecord
  2
236
 70
     0
 62
   236
  6
CONTINUOUS
  0
LAYER
  5
126
330
2
100
AcDbSymbolTableRecord
100
AcDbLayerTableRecord
  2
237
 70
     0
 62
   237
  6
CONTINUOUS
  0
LAYER
  5
127
330
2
100
AcDbSymbolTableRecord
100
AcDbLayerTableRecord
  2
238
 70
     0
 62
   238
  6
CONTINUOUS
  0
LAYER
  5
128
330
2
100
AcDbSymbolTableRecord
100
AcDbLayerTableRecord
  2
239
 70
     0
 62
   239
  6
CONTINUOUS
  0
LAYER
  5
129
330
2
100
AcDbSymbolTableRecord
100
AcDbLayerTableRecord
  2
240
 70
     0
 62
   240
  6
CONTINUOUS
  0
LAYER
  5
12A
330
2
100
AcDbSymbolTableRecord
100
AcDbLayerTableRecord
  2
241
 70
     0
 62
   241
  6
CONTINUOUS
  0
LAYER
  5
12B
330
2
100
AcDbSymbolTableRecord
100
AcDbLayerTableRecord
  2
242
 70
     0
 62
   242
  6
CONTINUOUS
  0
LAYER
  5
12C
330
2
100
AcDbSymbolTableRecord
100
AcDbLayerTableRecord
  2
243
 70
     0
 62
   243
  6
CONTINUOUS
  0
LAYER
  5
12D
330
2
100
AcDbSymbolTableRecord
100
AcDbLayerTableRecord
  2
244
 70
     0
 62
   244
  6
CONTINUOUS
  0
LAYER
  5
12E
330
2
100
AcDbSymbolTableRecord
100
AcDbLayerTableRecord
  2
245
 70
     0
 62
   245
  6
CONTINUOUS
  0
LAYER
  5
12F
330
2
100
AcDbSymbolTableRecord
100
AcDbLayerTableRecord
  2
246
 70
     0
 62
   246
  6
CONTINUOUS
  0
LAYER
  5
130
330
2
100
AcDbSymbolTableRecord
100
AcDbLayerTableRecord
  2
247
 70
     0
 62
   247
  6
CONTINUOUS
  0
LAYER
  5
131
330
2
100
AcDbSymbolTableRecord
100
AcDbLayerTableRecord
  2
248
 70
     0
 62
   248
  6
CONTINUOUS
  0
LAYER
  5
132
330
2
100
AcDbSymbolTableRecord
100
AcDbLayerTableRecord
  2
249
 70
     0
 62
   249
  6
CONTINUOUS
  0
LAYER
  5
133
330
2
100
AcDbSymbolTableRecord
100
AcDbLayerTableRecord
  2
250
 70
     0
 62
   250
  6
CONTINUOUS
  0
LAYER
  5
134
330
2
100
AcDbSymbolTableRecord
100
AcDbLayerTableRecord
  2
251
 70
     0
 62
   251
  6
CONTINUOUS
  0
LAYER
  5
135
330
2
100
AcDbSymbolTableRecord
100
AcDbLayerTableRecord
  2
252
 70
     0
 62
   252
  6
CONTINUOUS
  0
LAYER
  5
136
330
2
100
AcDbSymbolTableRecord
100
AcDbLayerTableRecord
  2
253
 70
     0
 62
   253
  6
CONTINUOUS
  0
LAYER
  5
137
330
2
100
AcDbSymbolTableRecord
100
AcDbLayerTableRecord
  2
254
 70
     0
 62
   254
  6
CONTINUOUS
  0
LAYER
  5
138
330
2
100
AcDbSymbolTableRecord
100
AcDbLayerTableRecord
  2
255
 70
     0
 62
   255
  6
CONTINUOUS
  0
LAYER
  5
43B8
330
2
100
AcDbSymbolTableRecord
100
AcDbLayerTableRecord
  2
DEFPOINTS
 70
     0
 62
     7
  6
CONTINUOUS
  0
ENDTAB
  0
TABLE
  2
STYLE
  5
3
330
0
100
AcDbSymbolTable
 70
     1
  0
STYLE
  5
11
330
3
100
AcDbSymbolTableRecord
100
AcDbTextStyleTableRecord
  2
STANDARD
 70
     0
 40
0.0
 41
1.0
 50
0.0
 71
     0
 42
0.2
  3
monotxt
  4

  0
ENDTAB
  0
TABLE
  2
VIEW
  5
6
330
0
100
AcDbSymbolTable
 70
     0
  0
ENDTAB
  0
TABLE
  2
UCS
  5
7
330
0
100
AcDbSymbolTable
 70
     0
  0
ENDTAB
  0
TABLE
  2
APPID
  5
9
330
0
100
AcDbSymbolTable
 70
     1
  0
APPID
  5
12
330
9
100
AcDbSymbolTableRecord
100
AcDbRegAppTableRecord
  2
ACAD
 70
     0
  0
ENDTAB
  0
TABLE
  2
DIMSTYLE
  5
A
330
0
100
AcDbSymbolTable
 70
     1
  0
DIMSTYLE
105
2F79
102
{ACAD_REACTORS
330
43B7
102
}
330
A
100
AcDbSymbolTableRecord
100
AcDbDimStyleTableRecord
  2
STANDARD
 70
     0
  3

  4

  5

  6

  7

 40
1.0
 41
0.18
 42
0.0625
 43
0.38
 44
0.18
 45
0.0
 46
0.0
 47
0.0
 48
0.0
140
0.18
141
0.09
142
0.0
143
25.4
144
1.0
145
0.0
146
1.0
147
0.09
 71
     0
 72
     0
 73
     1
 74
     1
 75
     0
 76
     0
 77
     0
 78
     0
170
     0
171
     2
172
     0
173
     0
174
     0
175
     0
176
     0
177
     0
178
     0
270
     2
271
     4
272
     4
273
     2
274
     2
340
11
275
     0
280
     0
281
     0
282
     0
283
     1
284
     0
285
     0
286
     0
287
     3
288
     0
  0
ENDTAB
  0
TABLE
  2
BLOCK_RECORD
  5
1
330
0
100
AcDbSymbolTable
 70
     1
  0
BLOCK_RECORD
  5
1E
102
{ACAD_XDICTIONARY
360
4409
102
}
330
1
100
AcDbSymbolTableRecord
100
AcDbBlockTableRecord
  2
*MODEL_SPACE
  0
BLOCK_RECORD
  5
1A
102
{ACAD_XDICTIONARY
360
4407
102
}
330
1
100
AcDbSymbolTableRecord
100
AcDbBlockTableRecord
  2
*PAPER_SPACE
  0
BLOCK_RECORD
  5
43B9
330
1
100
AcDbSymbolTableRecord
100
AcDbBlockTableRecord
  2
*D0
  0
ENDTAB
  0
ENDSEC
  0
SECTION
  2
BLOCKS
  0
BLOCK
  5
13B
330
1E
100
AcDbEntity
  8
0
100
AcDbBlockBegin
  2
*MODEL_SPACE
 70
     0
 10
0.0
 20
0.0
 30
0.0
  3
*MODEL_SPACE
  1

  0
ENDBLK
  5
13C
330
1E
100
AcDbEntity
  8
0
100
AcDbBlockEnd
  0
BLOCK
  5
139
330
1A
100
AcDbEntity
 67
     1
  8
0
100
AcDbBlockBegin
  2
*PAPER_SPACE
 70
     0
 10
0.0
 20
0.0
 30
0.0
  3
*PAPER_SPACE
  1

  0
ENDBLK
  5
13A
330
1A
100
AcDbEntity
 67
     1
  8
0
100
AcDbBlockEnd
  0
BLOCK
  5
43C4
330
43B9
100
AcDbEntity
  8
0
100
AcDbBlockBegin
  2
*D0
 70
     1
 10
0.0
 20
0.0
 30
0.0
  3
*D0
  1

  0
LINE
  5
43C6
330
43B9
100
AcDbEntity
  8
0
 62
     0
100
AcDbLine
 10
14.2593217271114
 20
16.12350222448526
 30
0.0
 11
15.28550759491443
 21
16.12350222448526
 31
0.0
  0
LINE
  5
43C7
330
43B9
100
AcDbEntity
  8
0
 62
     0
100
AcDbLine
 10
14.25669705519539
 20
11.62612689640128
 30
0.0
 11
15.28550759491443
 21
11.62612689640128
 31
0.0
  0
LINE
  5
43C8
330
43B9
100
AcDbEntity
  8
0
 62
     0
100
AcDbLine
 10
15.10550759491443
 20
15.94350222448526
 30
0.0
 11
15.10550759491443
 21
14.05481456044327
 31
0.0
  0
LINE
  5
43C9
330
43B9
100
AcDbEntity
  8
0
 62
     0
100
AcDbLine
 10
15.10550759491443
 20
11.80612689640128
 30
0.0
 11
15.10550759491443
 21
13.69481456044327
 31
0.0
  0
SOLID
  5
43CA
330
43B9
100
AcDbEntity
  8
0
 62
     0
100
AcDbTrace
 10
15.07550759491443
 20
15.94350222448526
 30
0.0
 11
15.13550759491443
 21
15.94350222448526
 31
0.0
 12
15.10550759491443
 22
16.12350222448526
 32
0.0
 13
15.10550759491443
 23
16.12350222448526
 33
0.0
  0
SOLID
  5
43CB
330
43B9
100
AcDbEntity
  8
0
 62
     0
100
AcDbTrace
 10
15.07550759491443
 20
11.80612689640128
 30
0.0
 11
15.13550759491443
 21
11.80612689640128
 31
0.0
 12
15.10550759491443
 22
11.62612689640128
 32
0.0
 13
15.10550759491443
 23
11.62612689640128
 33
0.0
  0
MTEXT
  5
43CC
330
43B9
100
AcDbEntity
  8
0
 62
     0
100
AcDbMText
 10
15.10550759491443
 20
13.87481456044327
 30
0.0
 40
0.18
 41
0.0
 71
     5
 72
     1
  1
\A1;4.4974
1001
ACAD
1000
MTEXTBEGIN
1070
    73
1070
     1
1070
    44
1040
1.0
1070
    74
1070
     0
1000
MTEXTEND
  0
POINT
  5
43CD
330
43B9
100
AcDbEntity
  8
DEFPOINTS
 62
     0
100
AcDbPoint
 10
14.19682172711141
 20
16.12350222448526
 30
0.0
  0
POINT
  5
43CE
330
43B9
100
AcDbEntity
  8
DEFPOINTS
 62
     0
100
AcDbPoint
 10
14.1941970551954
 20
11.62612689640128
 30
0.0
  0
POINT
  5
43CF
330
43B9
100
AcDbEntity
  8
DEFPOINTS
 62
     0
100
AcDbPoint
 10
15.10550759491443
 20
11.62612689640128
 30
0.0
  0
ENDBLK
  5
43C5
330
43B9
100
AcDbEntity
  8
0
100
AcDbBlockEnd
  0
ENDSEC
  0
SECTION
  2
ENTITIES
  0
LINE
  5
28CF
330
1E
100
AcDbEntity
  8
7
100
AcDbLine
 10
13.20338340690143
 20
12.35447335309419
 30
0.0
 11
12.55902645152085
 21
12.35447335309419
 31
0.0
  0
LINE
  5
28D6
330
1E
100
AcDbEntity
  8
7
100
AcDbLine
 10
13.20338340690143
 20
12.16155996726742
 30
0.0
 11
13.22831779010353
 21
12.16155996726742
 31
0.0
  0
LINE
  5
28D7
330
1E
100
AcDbEntity
  8
7
100
AcDbLine
 10
13.20338340690143
 20
12.16155996726742
 30
0.0
 11
13.20338340690143
 21
12.11037886490522
 31
0.0
  0
LINE
  5
28D8
330
1E
100
AcDbEntity
  8
7
100
AcDbLine
 10
12.55902645152085
 20
12.11037886490522
 30
0.0
 11
13.20338340690143
 21
12.11037886490522
 31
0.0
  0
LINE
  5
28D9
330
1E
100
AcDbEntity
  8
7
100
AcDbLine
 10
12.55902645152085
 20
12.16155996726742
 30
0.0
 11
12.55902645152085
 21
12.11037886490522
 31
0.0
  0
LINE
  5
28DA
330
1E
100
AcDbEntity
  8
7
100
AcDbLine
 10
12.55902645152085
 20
12.16155996726742
 30
0.0
 11
12.53540440427676
 21
12.16155996726742
 31
0.0
  0
LINE
  5
28DB
330
1E
100
AcDbEntity
  8
7
100
AcDbLine
 10
12.53540440427676
 20
12.30329225073199
 30
0.0
 11
12.53540440427676
 21
12.16155996726742
 31
0.0
  0
LINE
  5
28DC
330
1E
100
AcDbEntity
  8
7
100
AcDbLine
 10
12.55902645152085
 20
12.30329225073199
 30
0.0
 11
12.53540440427676
 21
12.30329225073199
 31
0.0
  0
LINE
  5
28DD
330
1E
100
AcDbEntity
  8
7
100
AcDbLine
 10
12.55902645152085
 20
12.35447335309419
 30
0.0
 11
12.55902645152085
 21
12.30329225073199
 31
0.0
  0
LINE
  5
28DE
330
1E
100
AcDbEntity
  8
7
100
AcDbLine
 10
14.02884272448673
 20
11.85184868117818
 30
0.0
 11
14.02884272448673
 21
15.89515576779235
 31
0.0
  0
LINE
  5
28DF
330
1E
100
AcDbEntity
  8
7
100
AcDbLine
 10
11.73487946989355
 20
15.89515576779235
 30
0.0
 11
14.02884272448673
 21
15.89515576779235
 31
0.0
  0
LINE
  5
28E0
330
1E
100
AcDbEntity
  8
7
100
AcDbLine
 10
11.73487946989355
 20
11.85184868117818
 30
0.0
 11
11.73487946989355
 21
15.89515576779235
 31
0.0
  0
LINE
  5
28E1
330
1E
100
AcDbEntity
  8
7
100
AcDbLine
 10
14.02884272448673
 20
11.85184868117818
 30
0.0
 11
11.73487946989355
 21
11.85184868117818
 31
0.0
  0
LINE
  5
28E2
330
1E
100
AcDbEntity
  8
7
100
AcDbLine
 10
13.5209687087387
 20
14.18780668642753
 30
0.0
 11
13.5209687087387
 21
14.13662558406532
 31
0.0
  0
LINE
  5
28E3
330
1E
100
AcDbEntity
  8
7
100
AcDbLine
 10
12.24275348564159
 20
14.13662558406532
 30
0.0
 11
13.5209687087387
 21
14.13662558406532
 31
0.0
  0
LINE
  5
28E4
330
1E
100
AcDbEntity
  8
7
100
AcDbLine
 10
12.24275348564159
 20
14.18780668642753
 30
0.0
 11
12.24275348564159
 21
14.13662558406532
 31
0.0
  0
LINE
  5
28E5
330
1E
100
AcDbEntity
  8
7
100
AcDbLine
 10
12.21781910243949
 20
14.18780668642753
 30
0.0
 11
12.24275348564159
 21
14.18780668642753
 31
0.0
  0
LINE
  5
28E6
330
1E
100
AcDbEntity
  8
7
100
AcDbLine
 10
12.21781910243949
 20
14.18780668642753
 30
0.0
 11
12.21781910243949
 21
14.32953896989209
 31
0.0
  0
LINE
  5
28E7
330
1E
100
AcDbEntity
  8
7
100
AcDbLine
 10
12.24275348564159
 20
14.32953896989209
 30
0.0
 11
12.21781910243949
 21
14.32953896989209
 31
0.0
  0
LINE
  5
28E8
330
1E
100
AcDbEntity
  8
7
100
AcDbLine
 10
12.24275348564159
 20
14.3807200722543
 30
0.0
 11
12.24275348564159
 21
14.32953896989209
 31
0.0
  0
LINE
  5
28E9
330
1E
100
AcDbEntity
  8
7
100
AcDbLine
 10
13.5209687087387
 20
14.3807200722543
 30
0.0
 11
12.24275348564159
 21
14.3807200722543
 31
0.0
  0
LINE
  5
28EF
330
1E
100
AcDbEntity
  8
7
100
AcDbLine
 10
13.5459030919408
 20
14.18780668642753
 30
0.0
 11
13.5459030919408
 21
14.32953896989209
 31
0.0
  0
LINE
  5
28F0
330
1E
100
AcDbEntity
  8
7
100
AcDbLine
 10
13.5459030919408
 20
14.18780668642753
 30
0.0
 11
13.5209687087387
 21
14.18780668642753
 31
0.0
  0
LINE
  5
28F1
330
1E
100
AcDbEntity
  8
7
100
AcDbLine
 10
13.20338340690143
 20
15.39121875991834
 30
0.0
 11
13.20338340690143
 21
15.44239986228054
 31
0.0
  0
LINE
  5
28FC
330
1E
100
AcDbEntity
  8
7
100
AcDbLine
 10
12.55902645152085
 20
15.58544448170311
 30
0.0
 11
12.53540440427676
 21
15.58544448170311
 31
0.0
  0
LINE
  5
2902
330
1E
100
AcDbEntity
  8
7
100
AcDbLine
 10
13.20338340690143
 20
15.58544448170311
 30
0.0
 11
13.20338340690143
 21
15.63531324810732
 31
0.0
  0
LINE
  5
2903
330
1E
100
AcDbEntity
  8
7
100
AcDbLine
 10
13.20338340690143
 20
15.58544448170311
 30
0.0
 11
13.22831779010353
 21
15.58544448170311
 31
0.0
  0
LINE
  5
2904
330
1E
100
AcDbEntity
  8
7
100
AcDbLine
 10
13.22831779010353
 20
15.44239986228054
 30
0.0
 11
13.22831779010353
 21
15.58544448170311
 31
0.0
  0
LINE
  5
2905
330
1E
100
AcDbEntity
  8
7
100
AcDbLine
 10
13.20338340690143
 20
15.44239986228054
 30
0.0
 11
13.22831779010353
 21
15.44239986228054
 31
0.0
  0
LINE
  5
2906
330
1E
100
AcDbEntity
  8
7
100
AcDbLine
 10
12.95272723892243
 20
13.36628437671624
 30
0.0
 11
12.95272723892243
 21
13.30066757881598
 31
0.0
  0
LINE
  5
290F
330
1E
100
AcDbEntity
  8
7
100
AcDbLine
 10
12.25062750138962
 20
14.02770169955089
 30
0.0
 11
12.25062750138962
 21
13.36628437671624
 31
0.0
  0
LINE
  5
2915
330
1E
100
AcDbEntity
  8
7
100
AcDbLine
 10
13.4448532231744
 20
13.36628437671624
 30
0.0
 11
13.51309469299067
 21
13.36628437671624
 31
0.0
  0
LINE
  5
2916
330
1E
100
AcDbEntity
  8
7
100
AcDbLine
 10
13.4448532231744
 20
13.30066757881598
 30
0.0
 11
13.4448532231744
 21
13.36628437671624
 31
0.0
  0
LINE
  5
2917
330
1E
100
AcDbEntity
  8
7
100
AcDbLine
 10
12.95272723892243
 20
13.30066757881598
 30
0.0
 11
13.4448532231744
 21
13.30066757881598
 31
0.0
  0
LINE
  5
2918
330
1E
100
AcDbEntity
  8
7
100
AcDbLine
 10
11.50653301320064
 20
11.6825573425955
 30
0.0
 11
11.50653301320064
 21
16.06313477041703
 31
0.0
  0
LINE
  5
2928
330
1E
100
AcDbEntity
  8
7
100
AcDbLine
 10
14.25718918117965
 20
11.6825573425955
 30
0.0
 11
14.25718918117965
 21
16.06313477041703
 31
0.0
  0
LINE
  5
2938
330
1E
100
AcDbEntity
  8
7
100
AcDbLine
 10
11.51047002107466
 20
16.06051009850101
 30
0.0
 11
11.51047002107466
 21
11.68649435046952
 31
0.0
  0
LINE
  5
2939
330
1E
100
AcDbEntity
  8
7
100
AcDbLine
 10
11.50653301320064
 20
16.06313477041703
 30
0.0
 11
11.51047002107466
 21
16.06051009850101
 31
0.0
  0
LINE
  5
293A
330
1E
100
AcDbEntity
  8
7
100
AcDbLine
 10
11.51047002107466
 20
11.68649435046952
 30
0.0
 11
11.50653301320064
 21
11.6825573425955
 31
0.0
  0
LINE
  5
2964
330
1E
100
AcDbEntity
  8
7
100
AcDbLine
 10
11.69157238327938
 20
15.92665183078448
 30
0.0
 11
11.73487946989355
 21
15.89515576779235
 31
0.0
  0
LINE
  5
2970
330
1E
100
AcDbEntity
  8
7
100
AcDbLine
 10
12.46060125467046
 20
13.31379093839603
 30
0.0
 11
12.43697920742636
 21
13.30197991477398
 31
0.0
  0
LINE
  5
2976
330
1E
100
AcDbEntity
  8
7
100
AcDbLine
 10
12.46191359062846
 20
13.34003765755614
 30
0.0
 11
12.46191359062846
 21
13.32822663393409
 31
0.0
  0
LINE
  5
297C
330
1E
100
AcDbEntity
  8
7
100
AcDbLine
 10
12.46060125467046
 20
13.3807200722543
 30
0.0
 11
12.46060125467046
 21
13.37547072842228
 31
0.0
  0
LINE
  5
297D
330
1E
100
AcDbEntity
  8
7
100
AcDbLine
 10
12.46060125467046
 20
13.41090379928842
 30
0.0
 11
12.46060125467046
 21
13.3807200722543
 31
0.0
  0
LINE
  5
297E
330
1E
100
AcDbEntity
  8
7
100
AcDbLine
 10
12.66663800007728
 20
13.41090379928842
 30
0.0
 11
12.66663800007728
 21
13.3807200722543
 31
0.0
  0
LINE
  5
297F
330
1E
100
AcDbEntity
  8
7
100
AcDbLine
 10
12.66663800007728
 20
13.37547072842228
 30
0.0
 11
12.66663800007728
 21
13.3807200722543
 31
0.0
  0
LINE
  5
2985
330
1E
100
AcDbEntity
  8
7
100
AcDbLine
 10
12.66663800007728
 20
13.34003765755614
 30
0.0
 11
12.66663800007728
 21
13.32822663393409
 31
0.0
  0
LINE
  5
298B
330
1E
100
AcDbEntity
  8
7
100
AcDbLine
 10
12.69157238327938
 20
13.30197991477398
 30
0.0
 11
12.66795033603529
 21
13.31379093839603
 31
0.0
  0
LINE
  5
2992
330
1E
100
AcDbEntity
  8
7
100
AcDbLine
 10
13.097084194303
 20
13.34003765755614
 30
0.0
 11
13.097084194303
 21
13.32822663393409
 31
0.0
  0
LINE
  5
2999
330
1E
100
AcDbEntity
  8
7
100
AcDbLine
 10
13.095771858345
 20
13.41090379928842
 30
0.0
 11
13.095771858345
 21
13.3807200722543
 31
0.0
  0
LINE
  5
29A5
330
1E
100
AcDbEntity
  8
7
100
AcDbLine
 10
12.8214936431219
 20
12.15762295939341
 30
0.0
 11
12.94222855125839
 21
12.15762295939341
 31
0.0
  0
LINE
  5
29B4
330
1E
100
AcDbEntity
  8
7
100
AcDbLine
 10
12.94222855125839
 20
12.307229258606
 30
0.0
 11
12.8214936431219
 21
12.307229258606
 31
0.0
  0
LINE
  5
29C3
330
1E
100
AcDbEntity
  8
7
100
AcDbLine
 10
12.8214936431219
 20
12.34659933734616
 30
0.0
 11
12.94222855125839
 21
12.34659933734616
 31
0.0
  0
LINE
  5
29D4
330
1E
100
AcDbEntity
  8
7
100
AcDbLine
 10
12.94222855125839
 20
12.11956521661125
 30
0.0
 11
12.8214936431219
 21
12.11956521661125
 31
0.0
  0
LINE
  5
29D5
330
1E
100
AcDbEntity
  8
7
100
AcDbLine
 10
12.94222855125839
 20
12.11956521661125
 30
0.0
 11
12.97766162212453
 21
12.12481456044327
 31
0.0
  0
LINE
  5
29E8
330
1E
100
AcDbEntity
  8
7
100
AcDbLine
 10
11.51834403682269
 20
11.6563106234354
 30
0.0
 11
11.51047002107466
 21
11.68649435046952
 31
0.0
  0
LINE
  5
29E9
330
1E
100
AcDbEntity
  8
7
100
AcDbLine
 10
14.1968217271114
 20
11.62350222448527
 30
0.0
 11
14.19419705519539
 21
11.62612689640128
 31
0.0
  0
LINE
  5
2A0A
330
1E
100
AcDbEntity
  8
7
100
AcDbLine
 10
12.8214936431219
 20
12.34659933734616
 30
0.0
 11
12.8214936431219
 21
12.34791167330417
 31
0.0
  0
LINE
  5
2A17
330
1E
100
AcDbEntity
  8
7
100
AcDbLine
 10
12.78606057225576
 20
12.12350222448527
 30
0.0
 11
12.8214936431219
 21
12.11825288065325
 31
0.0
  0
LINE
  5
2A1D
330
1E
100
AcDbEntity
  8
7
100
AcDbLine
 10
12.94222855125839
 20
12.11956521661125
 30
0.0
 11
12.94222855125839
 21
12.11825288065325
 31
0.0
  0
LINE
  5
2A33
330
1E
100
AcDbEntity
  8
7
100
AcDbLine
 10
13.20075873498542
 20
12.35316101713619
 30
0.0
 11
13.20075873498542
 21
12.30066757881598
 31
0.0
  0
LINE
  5
2A34
330
1E
100
AcDbEntity
  8
7
100
AcDbLine
 10
12.56296345939487
 20
12.35316101713619
 30
0.0
 11
13.20075873498542
 21
12.35316101713619
 31
0.0
  0
LINE
  5
2A3B
330
1E
100
AcDbEntity
  8
7
100
AcDbLine
 10
12.56296345939487
 20
12.16549697514144
 30
0.0
 11
12.53671674023476
 21
12.16549697514144
 31
0.0
  0
LINE
  5
2A3C
330
1E
100
AcDbEntity
  8
7
100
AcDbLine
 10
12.56296345939487
 20
12.16549697514144
 30
0.0
 11
12.56296345939487
 21
12.11169120086322
 31
0.0
  0
LINE
  5
2A3D
330
1E
100
AcDbEntity
  8
7
100
AcDbLine
 10
13.20075873498542
 20
12.11169120086322
 30
0.0
 11
12.56296345939487
 21
12.11169120086322
 31
0.0
  0
LINE
  5
2A3E
330
1E
100
AcDbEntity
  8
7
100
AcDbLine
 10
13.20075873498542
 20
12.16549697514144
 30
0.0
 11
13.20075873498542
 21
12.11169120086322
 31
0.0
  0
LINE
  5
2A3F
330
1E
100
AcDbEntity
  8
7
100
AcDbLine
 10
13.20075873498542
 20
12.16549697514144
 30
0.0
 11
13.22700545414552
 21
12.16549697514144
 31
0.0
  0
LINE
  5
2A40
330
1E
100
AcDbEntity
  8
7
100
AcDbLine
 10
13.22700545414552
 20
12.30066757881598
 30
0.0
 11
13.22700545414552
 21
12.16549697514144
 31
0.0
  0
LINE
  5
2A41
330
1E
100
AcDbEntity
  8
7
100
AcDbLine
 10
13.20075873498542
 20
12.30066757881598
 30
0.0
 11
13.22700545414552
 21
12.30066757881598
 31
0.0
  0
LINE
  5
2A42
330
1E
100
AcDbEntity
  8
7
100
AcDbLine
 10
12.53671674023476
 20
12.30066757881598
 30
0.0
 11
12.53540440427676
 21
12.30329225073199
 31
0.0
  0
LINE
  5
2A43
330
1E
100
AcDbEntity
  8
7
100
AcDbLine
 10
12.53540440427676
 20
12.16287230322542
 30
0.0
 11
12.53540440427676
 21
12.16155996726742
 31
0.0
  0
LINE
  5
2A44
330
1E
100
AcDbEntity
  8
7
100
AcDbLine
 10
12.53540440427676
 20
12.16287230322542
 30
0.0
 11
12.53671674023476
 21
12.16549697514144
 31
0.0
  0
LINE
  5
2A45
330
1E
100
AcDbEntity
  8
7
100
AcDbLine
 10
13.22700545414552
 20
12.16287230322542
 30
0.0
 11
13.22700545414552
 21
12.16549697514144
 31
0.0
  0
LINE
  5
2A46
330
1E
100
AcDbEntity
  8
7
100
AcDbLine
 10
13.22700545414552
 20
12.16287230322542
 30
0.0
 11
13.22831779010353
 21
12.16155996726742
 31
0.0
  0
LINE
  5
2A47
330
1E
100
AcDbEntity
  8
7
100
AcDbLine
 10
13.22700545414552
 20
12.30329225073199
 30
0.0
 11
13.22831779010353
 21
12.30329225073199
 31
0.0
  0
LINE
  5
2A48
330
1E
100
AcDbEntity
  8
7
100
AcDbLine
 10
13.22700545414552
 20
12.30066757881598
 30
0.0
 11
13.22700545414552
 21
12.30329225073199
 31
0.0
  0
LINE
  5
2A49
330
1E
100
AcDbEntity
  8
7
100
AcDbLine
 10
13.20207107094343
 20
12.11037886490522
 30
0.0
 11
13.20075873498542
 21
12.11169120086322
 31
0.0
  0
LINE
  5
2A4A
330
1E
100
AcDbEntity
  8
7
100
AcDbLine
 10
13.20207107094343
 20
12.35447335309419
 30
0.0
 11
13.20075873498542
 21
12.35316101713619
 31
0.0
  0
LINE
  5
2A4B
330
1E
100
AcDbEntity
  8
7
100
AcDbLine
 10
13.20338340690143
 20
12.35447335309419
 30
0.0
 11
13.20207107094343
 21
12.35447335309419
 31
0.0
  0
LINE
  5
2A51
330
1E
100
AcDbEntity
  8
7
100
AcDbLine
 10
12.56033878747886
 20
12.11037886490522
 30
0.0
 11
12.56296345939487
 21
12.11169120086322
 31
0.0
  0
LINE
  5
2A52
330
1E
100
AcDbEntity
  8
7
100
AcDbLine
 10
12.55902645152085
 20
12.11037886490522
 30
0.0
 11
12.56033878747886
 21
12.11037886490522
 31
0.0
  0
LINE
  5
2A53
330
1E
100
AcDbEntity
  8
7
100
AcDbLine
 10
13.20338340690143
 20
12.11037886490522
 30
0.0
 11
13.20207107094343
 21
12.11037886490522
 31
0.0
  0
LINE
  5
2A54
330
1E
100
AcDbEntity
  8
7
100
AcDbLine
 10
13.20207107094343
 20
12.16287230322542
 30
0.0
 11
13.22700545414552
 21
12.16287230322542
 31
0.0
  0
LINE
  5
2A55
330
1E
100
AcDbEntity
  8
7
100
AcDbLine
 10
13.20207107094343
 20
12.11037886490522
 30
0.0
 11
13.20207107094343
 21
12.16287230322542
 31
0.0
  0
LINE
  5
2A56
330
1E
100
AcDbEntity
  8
7
100
AcDbLine
 10
13.20207107094343
 20
12.30329225073199
 30
0.0
 11
13.22700545414552
 21
12.30329225073199
 31
0.0
  0
LINE
  5
2A57
330
1E
100
AcDbEntity
  8
7
100
AcDbLine
 10
13.20207107094343
 20
12.30329225073199
 30
0.0
 11
13.20207107094343
 21
12.35447335309419
 31
0.0
  0
LINE
  5
2A58
330
1E
100
AcDbEntity
  8
7
100
AcDbLine
 10
12.56033878747886
 20
12.30329225073199
 30
0.0
 11
12.53540440427676
 21
12.30329225073199
 31
0.0
  0
LINE
  5
2A59
330
1E
100
AcDbEntity
  8
7
100
AcDbLine
 10
12.56033878747886
 20
12.30329225073199
 30
0.0
 11
12.56033878747886
 21
12.35447335309419
 31
0.0
  0
LINE
  5
2A5A
330
1E
100
AcDbEntity
  8
7
100
AcDbLine
 10
12.56033878747886
 20
12.16287230322542
 30
0.0
 11
12.53540440427676
 21
12.16287230322542
 31
0.0
  0
LINE
  5
2A5B
330
1E
100
AcDbEntity
  8
7
100
AcDbLine
 10
12.56033878747886
 20
12.11037886490522
 30
0.0
 11
12.56033878747886
 21
12.16287230322542
 31
0.0
  0
LINE
  5
2A5C
330
1E
100
AcDbEntity
  8
7
100
AcDbLine
 10
12.56033878747886
 20
12.16287230322542
 30
0.0
 11
12.55902645152085
 21
12.16155996726742
 31
0.0
  0
LINE
  5
2A5D
330
1E
100
AcDbEntity
  8
7
100
AcDbLine
 10
12.55902645152085
 20
12.30329225073199
 30
0.0
 11
12.56033878747886
 21
12.30329225073199
 31
0.0
  0
LINE
  5
2A5E
330
1E
100
AcDbEntity
  8
7
100
AcDbLine
 10
13.20207107094343
 20
12.16287230322542
 30
0.0
 11
13.20338340690143
 21
12.16155996726742
 31
0.0
  0
LINE
  5
2A5F
330
1E
100
AcDbEntity
  8
7
100
AcDbLine
 10
13.20338340690143
 20
12.30329225073199
 30
0.0
 11
13.20207107094343
 21
12.30329225073199
 31
0.0
  0
LINE
  5
2A60
330
1E
100
AcDbEntity
  8
7
100
AcDbLine
 10
13.45797658275445
 20
12.07363345808107
 30
0.0
 11
13.44747789509041
 21
12.07363345808107
 31
0.0
  0
LINE
  5
2A61
330
1E
100
AcDbEntity
  8
7
100
AcDbLine
 10
13.44747789509041
 20
12.11300353682123
 30
0.0
 11
13.44747789509041
 21
12.07363345808107
 31
0.0
  0
LINE
  5
2A62
330
1E
100
AcDbEntity
  8
7
100
AcDbLine
 10
13.45797658275445
 20
12.11300353682123
 30
0.0
 11
13.44747789509041
 21
12.11300353682123
 31
0.0
  0
LINE
  5
2A68
330
1E
100
AcDbEntity
  8
7
100
AcDbLine
 10
13.46453826254447
 20
12.1077541929892
 30
0.0
 11
13.46453826254447
 21
12.07888280191309
 31
0.0
  0
LINE
  5
2A73
330
1E
100
AcDbEntity
  8
7
100
AcDbLine
 10
13.51178235703266
 20
12.05132374679498
 30
0.0
 11
13.52359338065471
 21
12.07494579403907
 31
0.0
  0
LINE
  5
2A74
330
1E
100
AcDbEntity
  8
7
100
AcDbLine
 10
13.53540440427676
 20
12.1064418570312
 30
0.0
 11
13.51178235703266
 21
12.1064418570312
 31
0.0
  0
LINE
  5
2A7A
330
1E
100
AcDbEntity
  8
7
100
AcDbLine
 10
13.3962967927282
 20
12.13268857619131
 30
0.0
 11
13.47503695020852
 21
12.13268857619131
 31
0.0
  0
LINE
  5
2A7B
330
1E
100
AcDbEntity
  8
7
100
AcDbLine
 10
13.3962967927282
 20
12.13268857619131
 30
0.0
 11
13.3962967927282
 21
12.01982768380285
 31
0.0
  0
LINE
  5
2A7C
330
1E
100
AcDbEntity
  8
7
100
AcDbLine
 10
13.44747789509041
 20
12.01982768380285
 30
0.0
 11
13.3962967927282
 21
12.01982768380285
 31
0.0
  0
LINE
  5
2A7D
330
1E
100
AcDbEntity
  8
7
100
AcDbLine
 10
13.44747789509041
 20
12.055260754669
 30
0.0
 11
13.44747789509041
 21
12.01982768380285
 31
0.0
  0
LINE
  5
2A7E
330
1E
100
AcDbEntity
  8
7
100
AcDbLine
 10
13.44747789509041
 20
12.055260754669
 30
0.0
 11
13.47503695020852
 21
12.055260754669
 31
0.0
  0
LINE
  5
2A84
330
1E
100
AcDbEntity
  8
7
100
AcDbLine
 10
13.47634928616652
 20
12.01982768380285
 30
0.0
 11
13.49209731766259
 21
12.05919776254301
 31
0.0
  0
LINE
  5
2A85
330
1E
100
AcDbEntity
  8
7
100
AcDbLine
 10
13.50128366936862
 20
12.01982768380285
 30
0.0
 11
13.47634928616652
 21
12.01982768380285
 31
0.0
  0
LINE
  5
2A86
330
1E
100
AcDbEntity
  8
7
100
AcDbLine
 10
13.50128366936862
 20
12.01982768380285
 30
0.0
 11
13.50653301320065
 21
12.0316387074249
 31
0.0
  0
LINE
  5
2A87
330
1E
100
AcDbEntity
  8
7
100
AcDbLine
 10
13.53934141215077
 20
12.0316387074249
 30
0.0
 11
13.50653301320065
 21
12.0316387074249
 31
0.0
  0
LINE
  5
2A88
330
1E
100
AcDbEntity
  8
7
100
AcDbLine
 10
13.5459030919408
 20
12.01982768380285
 30
0.0
 11
13.53934141215077
 21
12.0316387074249
 31
0.0
  0
LINE
  5
2A89
330
1E
100
AcDbEntity
  8
7
100
AcDbLine
 10
13.5459030919408
 20
12.01982768380285
 30
0.0
 11
13.58527317068096
 21
12.01982768380285
 31
0.0
  0
LINE
  5
2A8A
330
1E
100
AcDbEntity
  8
7
100
AcDbLine
 10
13.58527317068096
 20
12.056573090627
 30
0.0
 11
13.58527317068096
 21
12.01982768380285
 31
0.0
  0
LINE
  5
2A8B
330
1E
100
AcDbEntity
  8
7
100
AcDbLine
 10
13.60102120217702
 20
12.01982768380285
 30
0.0
 11
13.58527317068096
 21
12.056573090627
 31
0.0
  0
LINE
  5
2A96
330
1E
100
AcDbEntity
  8
7
100
AcDbLine
 10
13.53540440427676
 20
12.1064418570312
 30
0.0
 11
13.56033878747886
 21
12.05001141083698
 31
0.0
  0
LINE
  5
2A97
330
1E
100
AcDbEntity
  8
7
100
AcDbLine
 10
13.66663800007728
 20
12.08806915361913
 30
0.0
 11
13.66663800007728
 21
12.03951272317293
 31
0.0
  0
LINE
  5
2A98
330
1E
100
AcDbEntity
  8
7
100
AcDbLine
 10
13.67451201582531
 20
12.08806915361913
 30
0.0
 11
13.66663800007728
 21
12.08806915361913
 31
0.0
  0
LINE
  5
2A9E
330
1E
100
AcDbEntity
  8
7
100
AcDbLine
 10
13.67976135965734
 20
12.04344973104695
 30
0.0
 11
13.67976135965734
 21
12.08413214574511
 31
0.0
  0
LINE
  5
2AA4
330
1E
100
AcDbEntity
  8
7
100
AcDbLine
 10
13.67451201582531
 20
12.03951272317293
 30
0.0
 11
13.66663800007728
 21
12.03951272317293
 31
0.0
  0
LINE
  5
2AAF
330
1E
100
AcDbEntity
  8
7
100
AcDbLine
 10
13.70469574285943
 20
12.03557571529892
 30
0.0
 11
13.70469574285943
 21
12.09069382553514
 31
0.0
  0
LINE
  5
2AB5
330
1E
100
AcDbEntity
  8
7
100
AcDbLine
 10
13.68894771136337
 20
12.1064418570312
 30
0.0
 11
13.64039128091718
 21
12.1064418570312
 31
0.0
  0
LINE
  5
2AB6
330
1E
100
AcDbEntity
  8
7
100
AcDbLine
 10
13.71781910243949
 20
12.1064418570312
 30
0.0
 11
13.71781910243949
 21
12.03557571529892
 31
0.0
  0
LINE
  5
2ABC
330
1E
100
AcDbEntity
  8
7
100
AcDbLine
 10
13.76506319692768
 20
12.01982768380285
 30
0.0
 11
13.73356713393555
 21
12.01982768380285
 31
0.0
  0
LINE
  5
2ACD
330
1E
100
AcDbEntity
  8
7
100
AcDbLine
 10
13.75718918117964
 20
12.03951272317293
 30
0.0
 11
13.75193983734762
 21
12.03951272317293
 31
0.0
  0
LINE
  5
2ADD
330
1E
100
AcDbEntity
  8
7
100
AcDbLine
 10
13.81755663524788
 20
12.1064418570312
 30
0.0
 11
13.81755663524788
 21
12.01982768380285
 31
0.0
  0
LINE
  5
2ADE
330
1E
100
AcDbEntity
  8
7
100
AcDbLine
 10
13.81755663524788
 20
12.1064418570312
 30
0.0
 11
13.79393458800379
 21
12.1064418570312
 31
0.0
  0
LINE
  5
2AE4
330
1E
100
AcDbEntity
  8
7
100
AcDbLine
 10
13.87661175335812
 20
12.08806915361913
 30
0.0
 11
13.87661175335812
 21
12.01982768380285
 31
0.0
  0
LINE
  5
2AEB
330
1E
100
AcDbEntity
  8
7
100
AcDbLine
 10
13.83199233078594
 20
12.08806915361913
 30
0.0
 11
13.83199233078594
 21
12.1064418570312
 31
0.0
  0
LINE
  5
2AEC
330
1E
100
AcDbEntity
  8
7
100
AcDbLine
 10
13.84905269824001
 20
12.08806915361913
 30
0.0
 11
13.83199233078594
 21
12.08806915361913
 31
0.0
  0
LINE
  5
2AED
330
1E
100
AcDbEntity
  8
7
100
AcDbLine
 10
12.8214936431219
 20
15.40040511162438
 30
0.0
 11
12.94222855125839
 21
15.40040511162438
 31
0.0
  0
LINE
  5
2AFB
330
1E
100
AcDbEntity
  8
7
100
AcDbLine
 10
12.94222855125839
 20
15.62743923235928
 30
0.0
 11
12.8214936431219
 21
15.62743923235928
 31
0.0
  0
LINE
  5
2B14
330
1E
100
AcDbEntity
  8
7
100
AcDbLine
 10
12.94222855125839
 20
15.43846285440653
 30
0.0
 11
12.8214936431219
 21
15.43846285440653
 31
0.0
  0
LINE
  5
2B15
330
1E
100
AcDbEntity
  8
7
100
AcDbLine
 10
12.8214936431219
 20
15.58806915361913
 30
0.0
 11
12.79262225204579
 21
15.5828198097871
 31
0.0
  0
LINE
  5
2B20
330
1E
100
AcDbEntity
  8
7
100
AcDbLine
 10
12.8214936431219
 20
15.58938148957713
 30
0.0
 11
12.94222855125839
 21
15.58938148957713
 31
0.0
  0
LINE
  5
2B21
330
1E
100
AcDbEntity
  8
7
100
AcDbLine
 10
12.56427579535287
 20
14.22323975729367
 30
0.0
 11
12.58396083472295
 21
14.22848910112569
 31
0.0
  0
LINE
  5
2B40
330
1E
100
AcDbEntity
  8
7
100
AcDbLine
 10
12.8214936431219
 20
15.62875156831729
 30
0.0
 11
12.94222855125839
 21
15.62875156831729
 31
0.0
  0
LINE
  5
2B41
330
1E
100
AcDbEntity
  8
7
100
AcDbLine
 10
12.8214936431219
 20
15.62743923235928
 30
0.0
 11
12.8214936431219
 21
15.62875156831729
 31
0.0
  0
LINE
  5
2B42
330
1E
100
AcDbEntity
  8
7
100
AcDbLine
 10
12.94222855125839
 20
15.62743923235928
 30
0.0
 11
12.94222855125839
 21
15.62875156831729
 31
0.0
  0
LINE
  5
2B4F
330
1E
100
AcDbEntity
  8
7
100
AcDbLine
 10
12.78606057225576
 20
15.40434211949839
 30
0.0
 11
12.8214936431219
 21
15.39909277566637
 31
0.0
  0
LINE
  5
2B50
330
1E
100
AcDbEntity
  8
7
100
AcDbLine
 10
12.8214936431219
 20
15.40040511162438
 30
0.0
 11
12.8214936431219
 21
15.39909277566637
 31
0.0
  0
LINE
  5
2B51
330
1E
100
AcDbEntity
  8
7
100
AcDbLine
 10
12.94222855125839
 20
15.39909277566637
 30
0.0
 11
12.8214936431219
 21
15.39909277566637
 31
0.0
  0
LINE
  5
2B52
330
1E
100
AcDbEntity
  8
7
100
AcDbLine
 10
12.94222855125839
 20
15.40040511162438
 30
0.0
 11
12.94222855125839
 21
15.39909277566637
 31
0.0
  0
LINE
  5
2B85
330
1E
100
AcDbEntity
  8
7
100
AcDbLine
 10
12.65220230453923
 20
13.98833162081073
 30
0.0
 11
12.47634928616652
 21
13.98833162081073
 31
0.0
  0
LINE
  5
2B86
330
1E
100
AcDbEntity
  8
7
100
AcDbLine
 10
13.11151988984106
 20
13.98833162081073
 30
0.0
 11
13.28606057225576
 21
13.98833162081073
 31
0.0
  0
LINE
  5
2B87
330
1E
100
AcDbEntity
  8
7
100
AcDbLine
 10
13.11151988984106
 20
14.02638936359288
 30
0.0
 11
13.28606057225576
 21
14.02638936359288
 31
0.0
  0
LINE
  5
2B88
330
1E
100
AcDbEntity
  8
7
100
AcDbLine
 10
13.11151988984106
 20
14.02638936359288
 30
0.0
 11
13.11151988984106
 21
13.98833162081073
 31
0.0
  0
LINE
  5
2B89
330
1E
100
AcDbEntity
  8
7
100
AcDbLine
 10
13.28606057225576
 20
14.02638936359288
 30
0.0
 11
13.28606057225576
 21
13.98833162081073
 31
0.0
  0
LINE
  5
2B8F
330
1E
100
AcDbEntity
  8
7
100
AcDbLine
 10
12.65220230453923
 20
14.02638936359288
 30
0.0
 11
12.65220230453923
 21
13.98833162081073
 31
0.0
  0
LINE
  5
2B90
330
1E
100
AcDbEntity
  8
7
100
AcDbLine
 10
12.56296345939487
 20
15.63531324810732
 30
0.0
 11
12.56296345939487
 21
15.5815074738291
 31
0.0
  0
LINE
  5
2B91
330
1E
100
AcDbEntity
  8
7
100
AcDbLine
 10
12.56033878747886
 20
15.63531324810732
 30
0.0
 11
12.56296345939487
 21
15.63531324810732
 31
0.0
  0
LINE
  5
2B97
330
1E
100
AcDbEntity
  8
7
100
AcDbLine
 10
12.56296345939487
 20
15.39253109587634
 30
0.0
 11
13.20075873498542
 21
15.39253109587634
 31
0.0
  0
LINE
  5
2B98
330
1E
100
AcDbEntity
  8
7
100
AcDbLine
 10
13.20075873498542
 20
15.44633687015456
 30
0.0
 11
13.20075873498542
 21
15.39253109587634
 31
0.0
  0
LINE
  5
2B99
330
1E
100
AcDbEntity
  8
7
100
AcDbLine
 10
13.22700545414552
 20
15.44633687015456
 30
0.0
 11
13.20075873498542
 21
15.44633687015456
 31
0.0
  0
LINE
  5
2B9F
330
1E
100
AcDbEntity
  8
7
100
AcDbLine
 10
13.20075873498542
 20
15.63531324810732
 30
0.0
 11
12.56296345939487
 21
15.63531324810732
 31
0.0
  0
LINE
  5
2BA0
330
1E
100
AcDbEntity
  8
7
100
AcDbLine
 10
12.53671674023476
 20
15.5815074738291
 30
0.0
 11
12.56296345939487
 21
15.5815074738291
 31
0.0
  0
LINE
  5
2BA1
330
1E
100
AcDbEntity
  8
7
100
AcDbLine
 10
12.53671674023476
 20
15.44633687015456
 30
0.0
 11
12.53671674023476
 21
15.5815074738291
 31
0.0
  0
LINE
  5
2BA7
330
1E
100
AcDbEntity
  8
7
100
AcDbLine
 10
13.20207107094343
 20
15.39253109587634
 30
0.0
 11
13.20075873498542
 21
15.39253109587634
 31
0.0
  0
LINE
  5
2BA8
330
1E
100
AcDbEntity
  8
7
100
AcDbLine
 10
12.56033878747886
 20
15.39253109587634
 30
0.0
 11
12.56296345939487
 21
15.39253109587634
 31
0.0
  0
LINE
  5
2BA9
330
1E
100
AcDbEntity
  8
7
100
AcDbLine
 10
12.2453781575576
 20
14.37940773629629
 30
0.0
 11
12.2453781575576
 21
14.32560196201808
 31
0.0
  0
LINE
  5
2BAA
330
1E
100
AcDbEntity
  8
7
100
AcDbLine
 10
12.24275348564159
 20
14.37940773629629
 30
0.0
 11
12.2453781575576
 21
14.37940773629629
 31
0.0
  0
LINE
  5
2BAB
330
1E
100
AcDbEntity
  8
7
100
AcDbLine
 10
13.51834403682269
 20
14.37940773629629
 30
0.0
 11
13.51834403682269
 21
14.32560196201808
 31
0.0
  0
LINE
  5
2BAC
330
1E
100
AcDbEntity
  8
7
100
AcDbLine
 10
13.5196563727807
 20
14.37940773629629
 30
0.0
 11
13.51834403682269
 21
14.37940773629629
 31
0.0
  0
LINE
  5
2BAD
330
1E
100
AcDbEntity
  8
7
100
AcDbLine
 10
13.51834403682269
 20
14.13662558406532
 30
0.0
 11
12.2453781575576
 21
14.13662558406532
 31
0.0
  0
LINE
  5
2BAE
330
1E
100
AcDbEntity
  8
7
100
AcDbLine
 10
13.51834403682269
 20
14.19043135834353
 30
0.0
 11
13.51834403682269
 21
14.13662558406532
 31
0.0
  0
LINE
  5
2BAF
330
1E
100
AcDbEntity
  8
7
100
AcDbLine
 10
13.51834403682269
 20
14.19043135834353
 30
0.0
 11
13.54459075598279
 21
14.19043135834353
 31
0.0
  0
LINE
  5
2BB0
330
1E
100
AcDbEntity
  8
7
100
AcDbLine
 10
13.54459075598279
 20
14.32560196201808
 30
0.0
 11
13.54459075598279
 21
14.19043135834353
 31
0.0
  0
LINE
  5
2BB1
330
1E
100
AcDbEntity
  8
7
100
AcDbLine
 10
13.51834403682269
 20
14.32560196201808
 30
0.0
 11
13.54459075598279
 21
14.32560196201808
 31
0.0
  0
LINE
  5
2BB2
330
1E
100
AcDbEntity
  8
7
100
AcDbLine
 10
12.2453781575576
 20
14.37940773629629
 30
0.0
 11
13.51834403682269
 21
14.37940773629629
 31
0.0
  0
LINE
  5
2BB8
330
1E
100
AcDbEntity
  8
7
100
AcDbLine
 10
12.2453781575576
 20
14.19043135834353
 30
0.0
 11
12.21913143839749
 21
14.19043135834353
 31
0.0
  0
LINE
  5
2BB9
330
1E
100
AcDbEntity
  8
7
100
AcDbLine
 10
12.2453781575576
 20
14.19043135834353
 30
0.0
 11
12.2453781575576
 21
14.13662558406532
 31
0.0
  0
LINE
  5
2BBA
330
1E
100
AcDbEntity
  8
7
100
AcDbLine
 10
13.5196563727807
 20
14.13662558406532
 30
0.0
 11
13.51834403682269
 21
14.13662558406532
 31
0.0
  0
LINE
  5
2BBB
330
1E
100
AcDbEntity
  8
7
100
AcDbLine
 10
12.24275348564159
 20
14.13662558406532
 30
0.0
 11
12.2453781575576
 21
14.13662558406532
 31
0.0
  0
LINE
  5
2BBC
330
1E
100
AcDbEntity
  8
7
100
AcDbLine
 10
12.47634928616652
 20
14.02638936359288
 30
0.0
 11
12.25193983734762
 21
14.02638936359288
 31
0.0
  0
LINE
  5
2BBD
330
1E
100
AcDbEntity
  8
7
100
AcDbLine
 10
13.11151988984106
 20
14.02638936359288
 30
0.0
 11
12.65220230453923
 21
14.02638936359288
 31
0.0
  0
LINE
  5
2BBE
330
1E
100
AcDbEntity
  8
7
100
AcDbLine
 10
13.28606057225576
 20
14.02638936359288
 30
0.0
 11
13.51178235703266
 21
14.02638936359288
 31
0.0
  0
LINE
  5
2BBF
330
1E
100
AcDbEntity
  8
7
100
AcDbLine
 10
12.31886897120589
 20
13.36628437671624
 30
0.0
 11
12.31886897120589
 21
13.30197991477398
 31
0.0
  0
LINE
  5
2BC0
330
1E
100
AcDbEntity
  8
7
100
AcDbLine
 10
12.31886897120589
 20
13.36628437671624
 30
0.0
 11
12.25193983734762
 21
13.36628437671624
 31
0.0
  0
LINE
  5
2BC1
330
1E
100
AcDbEntity
  8
7
100
AcDbLine
 10
12.80968261949985
 20
13.30197991477398
 30
0.0
 11
12.80968261949985
 21
13.36628437671624
 31
0.0
  0
LINE
  5
2BC7
330
1E
100
AcDbEntity
  8
7
100
AcDbLine
 10
13.4448532231744
 20
13.36628437671624
 30
0.0
 11
13.51178235703266
 21
13.36628437671624
 31
0.0
  0
LINE
  5
2BC8
330
1E
100
AcDbEntity
  8
7
100
AcDbLine
 10
13.4448532231744
 20
13.36628437671624
 30
0.0
 11
13.4448532231744
 21
13.30197991477398
 31
0.0
  0
LINE
  5
2BC9
330
1E
100
AcDbEntity
  8
7
100
AcDbLine
 10
13.20207107094343
 20
15.58413214574511
 30
0.0
 11
13.22700545414552
 21
15.58413214574511
 31
0.0
  0
LINE
  5
2BCA
330
1E
100
AcDbEntity
  8
7
100
AcDbLine
 10
13.20207107094343
 20
15.58413214574511
 30
0.0
 11
13.20207107094343
 21
15.63531324810732
 31
0.0
  0
LINE
  5
2BCB
330
1E
100
AcDbEntity
  8
7
100
AcDbLine
 10
13.22700545414552
 20
15.5815074738291
 30
0.0
 11
13.22700545414552
 21
15.58413214574511
 31
0.0
  0
LINE
  5
2BCC
330
1E
100
AcDbEntity
  8
7
100
AcDbLine
 10
13.22700545414552
 20
15.44633687015456
 30
0.0
 11
13.22700545414552
 21
15.44371219823855
 31
0.0
  0
LINE
  5
2BCD
330
1E
100
AcDbEntity
  8
7
100
AcDbLine
 10
13.20207107094343
 20
15.44371219823855
 30
0.0
 11
13.20207107094343
 21
15.39253109587634
 31
0.0
  0
LINE
  5
2BCE
330
1E
100
AcDbEntity
  8
7
100
AcDbLine
 10
13.20207107094343
 20
15.44371219823855
 30
0.0
 11
13.22700545414552
 21
15.44371219823855
 31
0.0
  0
LINE
  5
2BCF
330
1E
100
AcDbEntity
  8
7
100
AcDbLine
 10
12.56033878747886
 20
15.44371219823855
 30
0.0
 11
12.53540440427676
 21
15.44371219823855
 31
0.0
  0
LINE
  5
2BD0
330
1E
100
AcDbEntity
  8
7
100
AcDbLine
 10
12.56033878747886
 20
15.44371219823855
 30
0.0
 11
12.56033878747886
 21
15.39253109587634
 31
0.0
  0
LINE
  5
2BD1
330
1E
100
AcDbEntity
  8
7
100
AcDbLine
 10
12.53671674023476
 20
15.44633687015456
 30
0.0
 11
12.53540440427676
 21
15.44371219823855
 31
0.0
  0
LINE
  5
2BD2
330
1E
100
AcDbEntity
  8
7
100
AcDbLine
 10
12.53671674023476
 20
15.5815074738291
 30
0.0
 11
12.53540440427676
 21
15.58413214574511
 31
0.0
  0
LINE
  5
2BD3
330
1E
100
AcDbEntity
  8
7
100
AcDbLine
 10
12.56033878747886
 20
15.58413214574511
 30
0.0
 11
12.53540440427676
 21
15.58413214574511
 31
0.0
  0
LINE
  5
2BD4
330
1E
100
AcDbEntity
  8
7
100
AcDbLine
 10
12.56033878747886
 20
15.58413214574511
 30
0.0
 11
12.56033878747886
 21
15.63531324810732
 31
0.0
  0
LINE
  5
2BD5
330
1E
100
AcDbEntity
  8
7
100
AcDbLine
 10
12.24275348564159
 20
14.18780668642753
 30
0.0
 11
12.21781910243949
 21
14.18780668642753
 31
0.0
  0
LINE
  5
2BD6
330
1E
100
AcDbEntity
  8
7
100
AcDbLine
 10
12.24275348564159
 20
14.13662558406532
 30
0.0
 11
12.24275348564159
 21
14.18780668642753
 31
0.0
  0
LINE
  5
2BD7
330
1E
100
AcDbEntity
  8
7
100
AcDbLine
 10
12.21781910243949
 20
14.18780668642753
 30
0.0
 11
12.21913143839749
 21
14.19043135834353
 31
0.0
  0
LINE
  5
2BD8
330
1E
100
AcDbEntity
  8
7
100
AcDbLine
 10
12.24275348564159
 20
14.32822663393409
 30
0.0
 11
12.24275348564159
 21
14.37940773629629
 31
0.0
  0
LINE
  5
2BDE
330
1E
100
AcDbEntity
  8
7
100
AcDbLine
 10
13.5196563727807
 20
14.32822663393409
 30
0.0
 11
13.54459075598279
 21
14.32822663393409
 31
0.0
  0
LINE
  5
2BDF
330
1E
100
AcDbEntity
  8
7
100
AcDbLine
 10
13.5196563727807
 20
14.32822663393409
 30
0.0
 11
13.5196563727807
 21
14.37940773629629
 31
0.0
  0
LINE
  5
2BE0
330
1E
100
AcDbEntity
  8
7
100
AcDbLine
 10
13.54459075598279
 20
14.32822663393409
 30
0.0
 11
13.54459075598279
 21
14.32560196201808
 31
0.0
  0
LINE
  5
2BE1
330
1E
100
AcDbEntity
  8
7
100
AcDbLine
 10
13.54459075598279
 20
14.18780668642753
 30
0.0
 11
13.54459075598279
 21
14.19043135834353
 31
0.0
  0
LINE
  5
2BE7
330
1E
100
AcDbEntity
  8
7
100
AcDbLine
 10
13.4448532231744
 20
13.30066757881598
 30
0.0
 11
13.4448532231744
 21
13.30197991477398
 31
0.0
  0
LINE
  5
2BE8
330
1E
100
AcDbEntity
  8
7
100
AcDbLine
 10
13.51178235703266
 20
13.36628437671624
 30
0.0
 11
13.51309469299067
 21
13.36628437671624
 31
0.0
  0
LINE
  5
2BE9
330
1E
100
AcDbEntity
  8
7
100
AcDbLine
 10
13.51309469299067
 20
14.02770169955089
 30
0.0
 11
13.51178235703266
 21
14.02638936359288
 31
0.0
  0
LINE
  5
2BEA
330
1E
100
AcDbEntity
  8
7
100
AcDbLine
 10
13.51178235703266
 20
13.36628437671624
 30
0.0
 11
13.51178235703266
 21
14.02638936359288
 31
0.0
  0
LINE
  5
2BEB
330
1E
100
AcDbEntity
  8
7
100
AcDbLine
 10
12.25062750138962
 20
14.02770169955089
 30
0.0
 11
12.25193983734762
 21
14.02638936359288
 31
0.0
  0
LINE
  5
2BEC
330
1E
100
AcDbEntity
  8
7
100
AcDbLine
 10
12.25193983734762
 20
13.36628437671624
 30
0.0
 11
12.25062750138962
 21
13.36628437671624
 31
0.0
  0
LINE
  5
2BED
330
1E
100
AcDbEntity
  8
7
100
AcDbLine
 10
12.25193983734762
 20
13.36628437671624
 30
0.0
 11
12.25193983734762
 21
14.02638936359288
 31
0.0
  0
LINE
  5
2BEE
330
1E
100
AcDbEntity
  8
7
100
AcDbLine
 10
12.31886897120589
 20
13.30066757881598
 30
0.0
 11
12.31886897120589
 21
13.30197991477398
 31
0.0
  0
LINE
  5
2BEF
330
1E
100
AcDbEntity
  8
7
100
AcDbLine
 10
12.80968261949985
 20
13.30197991477398
 30
0.0
 11
12.80968261949985
 21
13.30066757881598
 31
0.0
  0
LINE
  5
2BF0
330
1E
100
AcDbEntity
  8
7
100
AcDbLine
 10
12.95272723892243
 20
13.36628437671624
 30
0.0
 11
12.95403957488043
 21
13.36628437671624
 31
0.0
  0
LINE
  5
2BF1
330
1E
100
AcDbEntity
  8
7
100
AcDbLine
 10
12.95403957488043
 20
13.30197991477398
 30
0.0
 11
12.95272723892243
 21
13.30066757881598
 31
0.0
  0
LINE
  5
2BF2
330
1E
100
AcDbEntity
  8
7
100
AcDbLine
 10
13.22700545414552
 20
15.44371219823855
 30
0.0
 11
13.22831779010353
 21
15.44239986228054
 31
0.0
  0
LINE
  5
2BF3
330
1E
100
AcDbEntity
  8
7
100
AcDbLine
 10
13.20338340690143
 20
15.44239986228054
 30
0.0
 11
13.20207107094343
 21
15.44371219823855
 31
0.0
  0
LINE
  5
2BF4
330
1E
100
AcDbEntity
  8
7
100
AcDbLine
 10
13.22700545414552
 20
15.58413214574511
 30
0.0
 11
13.22831779010353
 21
15.58544448170311
 31
0.0
  0
LINE
  5
2BF5
330
1E
100
AcDbEntity
  8
7
100
AcDbLine
 10
13.20207107094343
 20
15.58413214574511
 30
0.0
 11
13.20338340690143
 21
15.58544448170311
 31
0.0
  0
LINE
  5
2BF6
330
1E
100
AcDbEntity
  8
7
100
AcDbLine
 10
13.20338340690143
 20
15.63531324810732
 30
0.0
 11
13.20207107094343
 21
15.63531324810732
 31
0.0
  0
LINE
  5
2BF7
330
1E
100
AcDbEntity
  8
7
100
AcDbLine
 10
12.55902645152085
 20
15.63531324810732
 30
0.0
 11
12.56033878747886
 21
15.63531324810732
 31
0.0
  0
LINE
  5
2BF8
330
1E
100
AcDbEntity
  8
7
100
AcDbLine
 10
12.56033878747886
 20
15.58413214574511
 30
0.0
 11
12.55902645152085
 21
15.58544448170311
 31
0.0
  0
LINE
  5
2BF9
330
1E
100
AcDbEntity
  8
7
100
AcDbLine
 10
12.53540440427676
 20
15.58413214574511
 30
0.0
 11
12.53540440427676
 21
15.58544448170311
 31
0.0
  0
LINE
  5
2BFA
330
1E
100
AcDbEntity
  8
7
100
AcDbLine
 10
12.53540440427676
 20
15.44371219823855
 30
0.0
 11
12.53540440427676
 21
15.44239986228054
 31
0.0
  0
LINE
  5
2BFB
330
1E
100
AcDbEntity
  8
7
100
AcDbLine
 10
12.55902645152085
 20
15.44239986228054
 30
0.0
 11
12.56033878747886
 21
15.44371219823855
 31
0.0
  0
LINE
  5
2BFC
330
1E
100
AcDbEntity
  8
7
100
AcDbLine
 10
12.55902645152085
 20
15.39121875991834
 30
0.0
 11
12.56033878747886
 21
15.39253109587634
 31
0.0
  0
LINE
  5
2BFD
330
1E
100
AcDbEntity
  8
7
100
AcDbLine
 10
13.20338340690143
 20
15.39121875991834
 30
0.0
 11
13.20207107094343
 21
15.39253109587634
 31
0.0
  0
LINE
  5
2BFE
330
1E
100
AcDbEntity
  8
7
100
AcDbLine
 10
13.5459030919408
 20
14.18780668642753
 30
0.0
 11
13.54459075598279
 21
14.18780668642753
 31
0.0
  0
LINE
  5
2BFF
330
1E
100
AcDbEntity
  8
7
100
AcDbLine
 10
13.5196563727807
 20
14.18780668642753
 30
0.0
 11
13.5209687087387
 21
14.18780668642753
 31
0.0
  0
LINE
  5
2C00
330
1E
100
AcDbEntity
  8
7
100
AcDbLine
 10
13.5459030919408
 20
14.32953896989209
 30
0.0
 11
13.54459075598279
 21
14.32822663393409
 31
0.0
  0
LINE
  5
2C01
330
1E
100
AcDbEntity
  8
7
100
AcDbLine
 10
13.5209687087387
 20
14.32953896989209
 30
0.0
 11
13.5196563727807
 21
14.32822663393409
 31
0.0
  0
LINE
  5
2C02
330
1E
100
AcDbEntity
  8
7
100
AcDbLine
 10
13.5209687087387
 20
14.3807200722543
 30
0.0
 11
13.5196563727807
 21
14.37940773629629
 31
0.0
  0
LINE
  5
2C03
330
1E
100
AcDbEntity
  8
7
100
AcDbLine
 10
12.24275348564159
 20
14.3807200722543
 30
0.0
 11
12.24275348564159
 21
14.37940773629629
 31
0.0
  0
LINE
  5
2C04
330
1E
100
AcDbEntity
  8
7
100
AcDbLine
 10
12.24275348564159
 20
14.32953896989209
 30
0.0
 11
12.24275348564159
 21
14.32822663393409
 31
0.0
  0
LINE
  5
2C05
330
1E
100
AcDbEntity
  8
7
100
AcDbLine
 10
12.21781910243949
 20
14.32953896989209
 30
0.0
 11
12.21781910243949
 21
14.32822663393409
 31
0.0
  0
LINE
  5
2C06
330
1E
100
AcDbEntity
  8
7
100
AcDbLine
 10
13.5209687087387
 20
14.13662558406532
 30
0.0
 11
13.5196563727807
 21
14.13662558406532
 31
0.0
  0
LINE
  5
2C21
330
1E
100
AcDbEntity
  8
7
100
AcDbLine
 10
14.19419705519539
 20
16.11956521661125
 30
0.0
 11
14.1968217271114
 21
16.12350222448527
 31
0.0
  0
LINE
  5
2C22
330
1E
100
AcDbEntity
  8
7
100
AcDbLine
 10
11.5695251391849
 20
16.11956521661125
 30
0.0
 11
11.56690046726888
 21
16.12350222448527
 31
0.0
  0
LINE
  5
2C2F
330
1E
100
AcDbEntity
  8
7
100
AcDbLine
 10
12.31886897120589
 20
13.30197991477398
 30
0.0
 11
12.43697920742636
 21
13.30197991477398
 31
0.0
  0
LINE
  5
2C30
330
1E
100
AcDbEntity
  8
7
100
AcDbLine
 10
12.69157238327938
 20
13.30197991477398
 30
0.0
 11
12.80968261949985
 21
13.30197991477398
 31
0.0
  0
LINE
  5
2C31
330
1E
100
AcDbEntity
  8
7
100
AcDbLine
 10
12.46060125467046
 20
13.31379093839603
 30
0.0
 11
12.66795033603529
 21
13.31379093839603
 31
0.0
  0
LINE
  5
2C32
330
1E
100
AcDbEntity
  8
7
100
AcDbLine
 10
12.66663800007728
 20
13.32822663393409
 30
0.0
 11
12.46191359062846
 21
13.32822663393409
 31
0.0
  0
LINE
  5
2C33
330
1E
100
AcDbEntity
  8
7
100
AcDbLine
 10
12.66663800007728
 20
13.34003765755614
 30
0.0
 11
12.46191359062846
 21
13.34003765755614
 31
0.0
  0
LINE
  5
2C34
330
1E
100
AcDbEntity
  8
7
100
AcDbLine
 10
12.46060125467046
 20
13.37547072842228
 30
0.0
 11
12.66663800007728
 21
13.37547072842228
 31
0.0
  0
LINE
  5
2C35
330
1E
100
AcDbEntity
  8
7
100
AcDbLine
 10
12.66663800007728
 20
13.3807200722543
 30
0.0
 11
12.46060125467046
 21
13.3807200722543
 31
0.0
  0
LINE
  5
2C36
330
1E
100
AcDbEntity
  8
7
100
AcDbLine
 10
12.66663800007728
 20
13.41090379928842
 30
0.0
 11
12.46060125467046
 21
13.41090379928842
 31
0.0
  0
LINE
  5
2C37
330
1E
100
AcDbEntity
  8
7
100
AcDbLine
 10
13.07214981110091
 20
13.30197991477398
 30
0.0
 11
12.95403957488043
 21
13.30197991477398
 31
0.0
  0
LINE
  5
2C38
330
1E
100
AcDbEntity
  8
7
100
AcDbLine
 10
13.4448532231744
 20
13.30197991477398
 30
0.0
 11
13.32674298695392
 21
13.30197991477398
 31
0.0
  0
LINE
  5
2C39
330
1E
100
AcDbEntity
  8
7
100
AcDbLine
 10
13.30180860375183
 20
13.31379093839603
 30
0.0
 11
13.095771858345
 21
13.31379093839603
 31
0.0
  0
LINE
  5
2C3A
330
1E
100
AcDbEntity
  8
7
100
AcDbLine
 10
13.097084194303
 20
13.32822663393409
 30
0.0
 11
13.30180860375183
 21
13.32822663393409
 31
0.0
  0
LINE
  5
2C3B
330
1E
100
AcDbEntity
  8
7
100
AcDbLine
 10
13.097084194303
 20
13.34003765755614
 30
0.0
 11
13.30180860375183
 21
13.34003765755614
 31
0.0
  0
LINE
  5
2C3C
330
1E
100
AcDbEntity
  8
7
100
AcDbLine
 10
13.30180860375183
 20
13.37547072842228
 30
0.0
 11
13.095771858345
 21
13.37547072842228
 31
0.0
  0
LINE
  5
2C3D
330
1E
100
AcDbEntity
  8
7
100
AcDbLine
 10
13.095771858345
 20
13.3807200722543
 30
0.0
 11
13.30180860375183
 21
13.3807200722543
 31
0.0
  0
LINE
  5
2C3E
330
1E
100
AcDbEntity
  8
7
100
AcDbLine
 10
13.095771858345
 20
13.41090379928842
 30
0.0
 11
13.30180860375183
 21
13.41090379928842
 31
0.0
  0
LINE
  5
2C3F
330
1E
100
AcDbEntity
  8
7
100
AcDbLine
 10
16.93304219955235
 20
11.85184868117818
 30
0.0
 11
16.93304219955235
 21
15.89515576779235
 31
0.0
  0
LINE
  5
2C47
330
1E
100
AcDbEntity
  8
7
100
AcDbLine
 10
17.20863275073345
 20
11.6825573425955
 30
0.0
 11
17.20863275073345
 21
16.06313477041703
 31
0.0
  0
LINE
  5
2C71
330
1E
100
AcDbEntity
  8
7
100
AcDbLine
 10
17.27687422054972
 20
13.06575944233304
 30
0.0
 11
17.27687422054972
 21
13.98833162081073
 31
0.0
  0
LINE
  5
2C79
330
1E
100
AcDbEntity
  8
7
100
AcDbLine
 10
17.44485322317439
 20
13.41090379928842
 30
0.0
 11
17.45403957488043
 21
13.40959146333041
 31
0.0
  0
LINE
  5
2C85
330
1E
100
AcDbEntity
  8
7
100
AcDbLine
 10
17.67582435178332
 20
13.25342348432779
 30
0.0
 11
17.27687422054972
 21
13.22455209325167
 31
0.0
  0
LINE
  5
2C94
330
1E
100
AcDbEntity
  8
7
100
AcDbLine
 10
17.27687422054972
 20
13.98833162081073
 30
0.0
 11
17.20863275073345
 21
14.06182243445902
 31
0.0
  0
LINE
  5
2C95
330
1E
100
AcDbEntity
  8
7
100
AcDbLine
 10
17.27687422054972
 20
13.06575944233304
 30
0.0
 11
17.20863275073345
 21
13.06575944233304
 31
0.0
  0
LINE
  5
2CB0
330
1E
100
AcDbEntity
  8
7
100
AcDbLine
 10
16.92385584784631
 20
12.13268857619131
 30
0.0
 11
16.93304219955235
 21
12.13268857619131
 31
0.0
  0
LINE
  5
2CB1
330
1E
100
AcDbEntity
  8
7
100
AcDbLine
 10
16.92385584784631
 20
12.08806915361913
 30
0.0
 11
16.92385584784631
 21
12.01982768380285
 31
0.0
  0
LINE
  5
2CB7
330
1E
100
AcDbEntity
  8
7
100
AcDbLine
 10
16.92385584784631
 20
12.08806915361913
 30
0.0
 11
16.93304219955235
 21
12.08806915361913
 31
0.0
  0
LINE
  5
2CB8
330
1E
100
AcDbEntity
  8
7
100
AcDbLine
 10
16.92385584784631
 20
12.01982768380285
 30
0.0
 11
16.93304219955235
 21
12.01982768380285
 31
0.0
  0
LINE
  5
3021
330
1E
100
AcDbEntity
  8
7
100
AcDbLine
 10
17.1469529607072
 20
16.06051009850101
 30
0.0
 11
17.14564062474919
 21
16.09069382553514
 31
0.0
  0
LINE
  5
3022
330
1E
100
AcDbEntity
  8
7
100
AcDbLine
 10
17.14564062474919
 20
16.09069382553514
 30
0.0
 11
17.14564062474919
 21
16.11169120086322
 31
0.0
  0
LINE
  5
3023
330
1E
100
AcDbEntity
  8
7
100
AcDbLine
 10
17.14564062474919
 20
16.11169120086322
 30
0.0
 11
17.1469529607072
 21
16.11956521661125
 31
0.0
  0
LINE
  5
3024
330
1E
100
AcDbEntity
  8
7
100
AcDbLine
 10
16.95010256700641
 20
15.97914526910469
 30
0.0
 11
16.96847527041849
 21
16.01720301188684
 31
0.0
  0
LINE
  5
3025
330
1E
100
AcDbEntity
  8
7
100
AcDbLine
 10
16.96847527041849
 20
16.01720301188684
 30
0.0
 11
16.99472198957859
 21
16.05001141083698
 31
0.0
  0
LINE
  5
3026
330
1E
100
AcDbEntity
  8
7
100
AcDbLine
 10
16.99472198957859
 20
16.05001141083698
 30
0.0
 11
17.02753038852873
 21
16.07888280191309
 31
0.0
  0
LINE
  5
3027
330
1E
100
AcDbEntity
  8
7
100
AcDbLine
 10
17.02753038852873
 20
16.07888280191309
 30
0.0
 11
17.06427579535287
 21
16.09988017724117
 31
0.0
  0
LINE
  5
3028
330
1E
100
AcDbEntity
  8
7
100
AcDbLine
 10
17.06427579535287
 20
16.09988017724117
 30
0.0
 11
17.10495821005103
 21
16.11431587277923
 31
0.0
  0
LINE
  5
3029
330
1E
100
AcDbEntity
  8
7
100
AcDbLine
 10
17.10495821005103
 20
16.11431587277923
 30
0.0
 11
17.1469529607072
 21
16.11956521661125
 31
0.0
  0
LINE
  5
302A
330
1E
100
AcDbEntity
  8
7
100
AcDbLine
 10
17.1469529607072
 20
16.11956521661125
 30
0.0
 11
17.20863275073345
 21
16.12350222448527
 31
0.0
  0
LINE
  5
302B
330
1E
100
AcDbEntity
  8
7
100
AcDbLine
 10
16.93304219955235
 20
15.89515576779235
 30
0.0
 11
16.93697920742636
 21
15.93846285440653
 31
0.0
  0
LINE
  5
302C
330
1E
100
AcDbEntity
  8
7
100
AcDbLine
 10
16.93697920742636
 20
15.93846285440653
 30
0.0
 11
16.95010256700641
 21
15.97914526910469
 31
0.0
  0
LINE
  5
302D
330
1E
100
AcDbEntity
  8
7
100
AcDbLine
 10
16.92385584784631
 20
12.08806915361913
 30
0.0
 11
16.92385584784631
 21
12.1064418570312
 31
0.0
  0
LINE
  5
302E
330
1E
100
AcDbEntity
  8
7
100
AcDbLine
 10
16.92385584784631
 20
12.1064418570312
 30
0.0
 11
16.93304219955235
 21
12.1064418570312
 31
0.0
  0
LINE
  5
302F
330
1E
100
AcDbEntity
  8
7
100
AcDbLine
 10
16.92385584784631
 20
12.1064418570312
 30
0.0
 11
16.92385584784631
 21
12.12612689640128
 31
0.0
  0
LINE
  5
3030
330
1E
100
AcDbEntity
  8
7
100
AcDbLine
 10
16.92385584784631
 20
12.12612689640128
 30
0.0
 11
16.92385584784631
 21
12.13268857619131
 31
0.0
  0
LINE
  5
3031
330
1E
100
AcDbEntity
  8
7
100
AcDbLine
 10
17.1469529607072
 20
11.62612689640128
 30
0.0
 11
17.10495821005103
 21
11.63268857619131
 31
0.0
  0
LINE
  5
3032
330
1E
100
AcDbEntity
  8
7
100
AcDbLine
 10
17.10495821005103
 20
11.63268857619131
 30
0.0
 11
17.06427579535287
 21
11.64712427172936
 31
0.0
  0
LINE
  5
3033
330
1E
100
AcDbEntity
  8
7
100
AcDbLine
 10
17.06427579535287
 20
11.64712427172936
 30
0.0
 11
17.02753038852873
 21
11.66812164705745
 31
0.0
  0
LINE
  5
3034
330
1E
100
AcDbEntity
  8
7
100
AcDbLine
 10
17.02753038852873
 20
11.66812164705745
 30
0.0
 11
16.99472198957859
 21
11.69699303813356
 31
0.0
  0
LINE
  5
3035
330
1E
100
AcDbEntity
  8
7
100
AcDbLine
 10
16.99472198957859
 20
11.69699303813356
 30
0.0
 11
16.96847527041849
 21
11.72980143708369
 31
0.0
  0
LINE
  5
3036
330
1E
100
AcDbEntity
  8
7
100
AcDbLine
 10
16.96847527041849
 20
11.72980143708369
 30
0.0
 11
16.95010256700641
 21
11.76785917986584
 31
0.0
  0
LINE
  5
3037
330
1E
100
AcDbEntity
  8
7
100
AcDbLine
 10
16.95010256700641
 20
11.76785917986584
 30
0.0
 11
16.93697920742636
 21
11.80854159456401
 31
0.0
  0
LINE
  5
3038
330
1E
100
AcDbEntity
  8
7
100
AcDbLine
 10
16.93697920742636
 20
11.80854159456401
 30
0.0
 11
16.93304219955235
 21
11.85184868117818
 31
0.0
  0
LINE
  5
3039
330
1E
100
AcDbEntity
  8
7
100
AcDbLine
 10
17.14564062474919
 20
11.63400091214931
 30
0.0
 11
17.14564062474919
 21
11.6563106234354
 31
0.0
  0
LINE
  5
303A
330
1E
100
AcDbEntity
  8
7
100
AcDbLine
 10
17.14564062474919
 20
11.6563106234354
 30
0.0
 11
17.1469529607072
 21
11.68649435046952
 31
0.0
  0
LINE
  5
303B
330
1E
100
AcDbEntity
  8
7
100
AcDbLine
 10
17.20863275073345
 20
11.62350222448527
 30
0.0
 11
17.1469529607072
 21
11.62612689640128
 31
0.0
  0
LINE
  5
303C
330
1E
100
AcDbEntity
  8
7
100
AcDbLine
 10
17.1469529607072
 20
11.62612689640128
 30
0.0
 11
17.14564062474919
 21
11.63400091214931
 31
0.0
  0
LINE
  5
303D
330
1E
100
AcDbEntity
  8
7
100
AcDbLine
 10
17.68894771136337
 20
13.26785917986584
 30
0.0
 11
17.68894771136337
 21
13.28885655519393
 31
0.0
  0
LINE
  5
303E
330
1E
100
AcDbEntity
  8
7
100
AcDbLine
 10
17.68894771136337
 20
13.28885655519393
 30
0.0
 11
17.68501070348935
 21
13.29935524285797
 31
0.0
  0
LINE
  5
303F
330
1E
100
AcDbEntity
  8
7
100
AcDbLine
 10
17.68501070348935
 20
13.29935524285797
 30
0.0
 11
17.67451201582531
 21
13.30329225073199
 31
0.0
  0
LINE
  5
3040
330
1E
100
AcDbEntity
  8
7
100
AcDbLine
 10
17.67451201582531
 20
13.30329225073199
 30
0.0
 11
17.60102120217702
 21
13.30460458668999
 31
0.0
  0
LINE
  5
3041
330
1E
100
AcDbEntity
  8
7
100
AcDbLine
 10
17.60102120217702
 20
13.30460458668999
 30
0.0
 11
17.57346214705891
 21
13.31116626648002
 31
0.0
  0
LINE
  5
3042
330
1E
100
AcDbEntity
  8
7
100
AcDbLine
 10
17.57346214705891
 20
13.31116626648002
 30
0.0
 11
17.55246477173082
 21
13.33085130585009
 31
0.0
  0
LINE
  5
3043
330
1E
100
AcDbEntity
  8
7
100
AcDbLine
 10
17.67582435178332
 20
13.25342348432779
 30
0.0
 11
17.68501070348935
 21
13.2573604922018
 31
0.0
  0
LINE
  5
3044
330
1E
100
AcDbEntity
  8
7
100
AcDbLine
 10
17.68501070348935
 20
13.2573604922018
 30
0.0
 11
17.68894771136337
 21
13.26785917986584
 31
0.0
  0
LINE
  5
3045
330
1E
100
AcDbEntity
  8
7
100
AcDbLine
 10
17.44485322317439
 20
13.41090379928842
 30
0.0
 11
17.44485322317439
 21
13.3807200722543
 31
0.0
  0
LINE
  5
3046
330
1E
100
AcDbEntity
  8
7
100
AcDbLine
 10
17.44485322317439
 20
13.3807200722543
 30
0.0
 11
17.4461655591324
 21
13.37547072842228
 31
0.0
  0
LINE
  5
3047
330
1E
100
AcDbEntity
  8
7
100
AcDbLine
 10
17.4461655591324
 20
13.37547072842228
 30
0.0
 11
17.45535191083843
 21
13.35841036096821
 31
0.0
  0
LINE
  5
3048
330
1E
100
AcDbEntity
  8
7
100
AcDbLine
 10
17.45535191083843
 20
13.35841036096821
 30
0.0
 11
17.45797658275444
 21
13.34003765755614
 31
0.0
  0
LINE
  5
3049
330
1E
100
AcDbEntity
  8
7
100
AcDbLine
 10
17.45797658275444
 20
13.34003765755614
 30
0.0
 11
17.45797658275444
 21
13.32822663393409
 31
0.0
  0
LINE
  5
304A
330
1E
100
AcDbEntity
  8
7
100
AcDbLine
 10
17.45797658275444
 20
13.32822663393409
 30
0.0
 11
17.45272723892242
 21
13.31772794627005
 31
0.0
  0
LINE
  5
304B
330
1E
100
AcDbEntity
  8
7
100
AcDbLine
 10
17.45272723892242
 20
13.31772794627005
 30
0.0
 11
17.44222855125838
 21
13.31379093839603
 31
0.0
  0
LINE
  5
304C
330
1E
100
AcDbEntity
  8
7
100
AcDbLine
 10
17.44222855125838
 20
13.31379093839603
 30
0.0
 11
17.27687422054972
 21
13.30985393052201
 31
0.0
  0
LINE
  5
304D
330
1E
100
AcDbEntity
  8
7
100
AcDbLine
 10
17.55246477173082
 20
13.33085130585009
 30
0.0
 11
17.52621805257072
 21
13.36759671267424
 31
0.0
  0
LINE
  5
304E
330
1E
100
AcDbEntity
  8
7
100
AcDbLine
 10
17.52621805257072
 20
13.36759671267424
 30
0.0
 11
17.50653301320064
 21
13.38859408800233
 31
0.0
  0
LINE
  5
304F
330
1E
100
AcDbEntity
  8
7
100
AcDbLine
 10
17.50653301320064
 20
13.38859408800233
 30
0.0
 11
17.48159862999854
 21
13.40302978354039
 31
0.0
  0
LINE
  5
3050
330
1E
100
AcDbEntity
  8
7
100
AcDbLine
 10
17.48159862999854
 20
13.40302978354039
 30
0.0
 11
17.45403957488043
 21
13.40959146333041
 31
0.0
  0
LINE
  5
3051
330
1E
100
AcDbEntity
  8
7
100
AcDbLine
 10
17.02753038852873
 20
11.71667807750364
 30
0.0
 11
17.06427579535287
 21
11.70093004600758
 31
0.0
  0
LINE
  5
3052
330
1E
100
AcDbEntity
  8
7
100
AcDbLine
 10
17.06427579535287
 20
11.70093004600758
 30
0.0
 11
17.10495821005103
 21
11.69043135834354
 31
0.0
  0
LINE
  5
3053
330
1E
100
AcDbEntity
  8
7
100
AcDbLine
 10
17.10495821005103
 20
11.69043135834354
 30
0.0
 11
17.1469529607072
 21
11.68649435046952
 31
0.0
  0
LINE
  5
3054
330
1E
100
AcDbEntity
  8
7
100
AcDbLine
 10
16.93304219955235
 20
11.85184868117818
 30
0.0
 11
16.93697920742636
 21
11.82035261818606
 31
0.0
  0
LINE
  5
3055
330
1E
100
AcDbEntity
  8
7
100
AcDbLine
 10
16.93697920742636
 20
11.82035261818606
 30
0.0
 11
16.95010256700641
 21
11.79016889115193
 31
0.0
  0
LINE
  5
3056
330
1E
100
AcDbEntity
  8
7
100
AcDbLine
 10
16.95010256700641
 20
11.79016889115193
 30
0.0
 11
16.96847527041849
 21
11.76260983603382
 31
0.0
  0
LINE
  5
3057
330
1E
100
AcDbEntity
  8
7
100
AcDbLine
 10
16.96847527041849
 20
11.76260983603382
 30
0.0
 11
16.99472198957859
 21
11.73767545283173
 31
0.0
  0
LINE
  5
3058
330
1E
100
AcDbEntity
  8
7
100
AcDbLine
 10
16.99472198957859
 20
11.73767545283173
 30
0.0
 11
17.02753038852873
 21
11.71667807750364
 31
0.0
  0
LINE
  5
3059
330
1E
100
AcDbEntity
  8
7
100
AcDbLine
 10
17.06427579535287
 20
16.04476206700495
 30
0.0
 11
17.02753038852873
 21
16.02901403550889
 31
0.0
  0
LINE
  5
305A
330
1E
100
AcDbEntity
  8
7
100
AcDbLine
 10
17.02753038852873
 20
16.02901403550889
 30
0.0
 11
16.99472198957859
 21
16.00932899613881
 31
0.0
  0
LINE
  5
305B
330
1E
100
AcDbEntity
  8
7
100
AcDbLine
 10
16.99472198957859
 20
16.00932899613881
 30
0.0
 11
16.96847527041849
 21
15.98439461293671
 31
0.0
  0
LINE
  5
305C
330
1E
100
AcDbEntity
  8
7
100
AcDbLine
 10
16.96847527041849
 20
15.98439461293671
 30
0.0
 11
16.95010256700641
 21
15.9568355578186
 31
0.0
  0
LINE
  5
305D
330
1E
100
AcDbEntity
  8
7
100
AcDbLine
 10
16.95010256700641
 20
15.9568355578186
 30
0.0
 11
16.93697920742636
 21
15.92665183078448
 31
0.0
  0
LINE
  5
305E
330
1E
100
AcDbEntity
  8
7
100
AcDbLine
 10
16.93697920742636
 20
15.92665183078448
 30
0.0
 11
16.93304219955235
 21
15.89515576779235
 31
0.0
  0
LINE
  5
305F
330
1E
100
AcDbEntity
  8
7
100
AcDbLine
 10
17.1469529607072
 20
16.06051009850101
 30
0.0
 11
17.10495821005103
 21
16.055260754669
 31
0.0
  0
LINE
  5
3060
330
1E
100
AcDbEntity
  8
7
100
AcDbLine
 10
17.10495821005103
 20
16.055260754669
 30
0.0
 11
17.06427579535287
 21
16.04476206700495
 31
0.0
  0
LINE
  5
3061
330
1E
100
AcDbEntity
  8
7
100
AcDbLine
 10
17.20863275073345
 20
16.06313477041703
 30
0.0
 11
17.1469529607072
 21
16.06051009850101
 31
0.0
  0
LINE
  5
3062
330
1E
100
AcDbEntity
  8
7
100
AcDbLine
 10
17.1469529607072
 20
16.06051009850101
 30
0.0
 11
17.1469529607072
 21
11.68649435046952
 31
0.0
  0
LINE
  5
3063
330
1E
100
AcDbEntity
  8
7
100
AcDbLine
 10
17.1469529607072
 20
11.68649435046952
 30
0.0
 11
17.20863275073345
 21
11.6825573425955
 31
0.0
  0
LINE
  5
3064
330
1E
100
AcDbEntity
  8
7
100
AcDbLine
 10
17.20863275073345
 20
11.6825573425955
 30
0.0
 11
17.20863275073345
 21
11.66024763130941
 31
0.0
  0
LINE
  5
3065
330
1E
100
AcDbEntity
  8
7
100
AcDbLine
 10
17.20863275073345
 20
11.66024763130941
 30
0.0
 11
17.20863275073345
 21
11.64056259193934
 31
0.0
  0
LINE
  5
3066
330
1E
100
AcDbEntity
  8
7
100
AcDbLine
 10
17.20863275073345
 20
11.64056259193934
 30
0.0
 11
17.20863275073345
 21
11.62743923235928
 31
0.0
  0
LINE
  5
3067
330
1E
100
AcDbEntity
  8
7
100
AcDbLine
 10
17.20863275073345
 20
11.62743923235928
 30
0.0
 11
17.20863275073345
 21
11.62350222448527
 31
0.0
  0
LINE
  5
3068
330
1E
100
AcDbEntity
  8
7
100
AcDbLine
 10
17.20863275073345
 20
16.12350222448527
 30
0.0
 11
17.20863275073345
 21
16.11825288065325
 31
0.0
  0
LINE
  5
3069
330
1E
100
AcDbEntity
  8
7
100
AcDbLine
 10
17.20863275073345
 20
16.11825288065325
 30
0.0
 11
17.20863275073345
 21
16.1051295210732
 31
0.0
  0
LINE
  5
306A
330
1E
100
AcDbEntity
  8
7
100
AcDbLine
 10
17.20863275073345
 20
16.1051295210732
 30
0.0
 11
17.20863275073345
 21
16.08675681766112
 31
0.0
  0
LINE
  5
306B
330
1E
100
AcDbEntity
  8
7
100
AcDbLine
 10
17.20863275073345
 20
16.08675681766112
 30
0.0
 11
17.20863275073345
 21
16.06313477041703
 31
0.0
  0
LINE
  5
306C
330
1E
100
AcDbEntity
  8
7
100
AcDbLine
 10
14.25325217330563
 20
16.06051009850101
 30
0.0
 11
14.2453781575576
 21
16.09069382553514
 31
0.0
  0
LINE
  5
306D
330
1E
100
AcDbEntity
  8
7
100
AcDbLine
 10
14.2453781575576
 20
16.09069382553514
 30
0.0
 11
14.22306844627151
 21
16.11169120086322
 31
0.0
  0
LINE
  5
306E
330
1E
100
AcDbEntity
  8
7
100
AcDbLine
 10
14.22306844627151
 20
16.11169120086322
 30
0.0
 11
14.19419705519539
 21
16.11956521661125
 31
0.0
  0
LINE
  5
306F
330
1E
100
AcDbEntity
  8
7
100
AcDbLine
 10
11.51047002107466
 20
16.06051009850101
 30
0.0
 11
11.51834403682269
 21
16.09069382553514
 31
0.0
  0
LINE
  5
3070
330
1E
100
AcDbEntity
  8
7
100
AcDbLine
 10
11.51834403682269
 20
16.09069382553514
 30
0.0
 11
11.53934141215077
 21
16.11169120086322
 31
0.0
  0
LINE
  5
3071
330
1E
100
AcDbEntity
  8
7
100
AcDbLine
 10
11.53934141215077
 20
16.11169120086322
 30
0.0
 11
11.5695251391849
 21
16.11956521661125
 31
0.0
  0
LINE
  5
3072
330
1E
100
AcDbEntity
  8
7
100
AcDbLine
 10
14.14170361687518
 20
16.05001141083698
 30
0.0
 11
14.16270099220326
 21
16.07888280191309
 31
0.0
  0
LINE
  5
3073
330
1E
100
AcDbEntity
  8
7
100
AcDbLine
 10
14.16270099220326
 20
16.07888280191309
 30
0.0
 11
14.17844902369933
 21
16.09988017724117
 31
0.0
  0
LINE
  5
3074
330
1E
100
AcDbEntity
  8
7
100
AcDbLine
 10
14.17844902369933
 20
16.09988017724117
 30
0.0
 11
14.18894771136337
 21
16.11431587277923
 31
0.0
  0
LINE
  5
3075
330
1E
100
AcDbEntity
  8
7
100
AcDbLine
 10
14.18894771136337
 20
16.11431587277923
 30
0.0
 11
14.19419705519539
 21
16.11956521661125
 31
0.0
  0
LINE
  5
3076
330
1E
100
AcDbEntity
  8
7
100
AcDbLine
 10
14.19419705519539
 20
16.11956521661125
 30
0.0
 11
11.5695251391849
 21
16.11956521661125
 31
0.0
  0
LINE
  5
3077
330
1E
100
AcDbEntity
  8
7
100
AcDbLine
 10
14.02884272448673
 20
15.89515576779235
 30
0.0
 11
14.06033878747886
 21
15.93846285440653
 31
0.0
  0
LINE
  5
3078
330
1E
100
AcDbEntity
  8
7
100
AcDbLine
 10
14.06033878747886
 20
15.93846285440653
 30
0.0
 11
14.09052251451298
 21
15.97914526910469
 31
0.0
  0
LINE
  5
3079
330
1E
100
AcDbEntity
  8
7
100
AcDbLine
 10
14.09052251451298
 20
15.97914526910469
 30
0.0
 11
14.11808156963109
 21
16.01720301188684
 31
0.0
  0
LINE
  5
307A
330
1E
100
AcDbEntity
  8
7
100
AcDbLine
 10
14.11808156963109
 20
16.01720301188684
 30
0.0
 11
14.14170361687518
 21
16.05001141083698
 31
0.0
  0
LINE
  5
307B
330
1E
100
AcDbEntity
  8
7
100
AcDbLine
 10
11.73487946989355
 20
15.89515576779235
 30
0.0
 11
11.70338340690143
 21
15.93846285440653
 31
0.0
  0
LINE
  5
307C
330
1E
100
AcDbEntity
  8
7
100
AcDbLine
 10
11.70338340690143
 20
15.93846285440653
 30
0.0
 11
11.67319967986731
 21
15.97914526910469
 31
0.0
  0
LINE
  5
307D
330
1E
100
AcDbEntity
  8
7
100
AcDbLine
 10
11.67319967986731
 20
15.97914526910469
 30
0.0
 11
11.6456406247492
 21
16.01720301188684
 31
0.0
  0
LINE
  5
307E
330
1E
100
AcDbEntity
  8
7
100
AcDbLine
 10
11.6456406247492
 20
16.01720301188684
 30
0.0
 11
11.6207062415471
 21
16.05001141083698
 31
0.0
  0
LINE
  5
307F
330
1E
100
AcDbEntity
  8
7
100
AcDbLine
 10
11.6207062415471
 20
16.05001141083698
 30
0.0
 11
11.60102120217702
 21
16.07888280191309
 31
0.0
  0
LINE
  5
3080
330
1E
100
AcDbEntity
  8
7
100
AcDbLine
 10
11.60102120217702
 20
16.07888280191309
 30
0.0
 11
11.58527317068096
 21
16.09988017724117
 31
0.0
  0
LINE
  5
3081
330
1E
100
AcDbEntity
  8
7
100
AcDbLine
 10
11.58527317068096
 20
16.09988017724117
 30
0.0
 11
11.57477448301692
 21
16.11431587277923
 31
0.0
  0
LINE
  5
3082
330
1E
100
AcDbEntity
  8
7
100
AcDbLine
 10
11.57477448301692
 20
16.11431587277923
 30
0.0
 11
11.5695251391849
 21
16.11956521661125
 31
0.0
  0
LINE
  5
3083
330
1E
100
AcDbEntity
  8
7
100
AcDbLine
 10
13.5196563727807
 20
14.13662558406532
 30
0.0
 11
13.5196563727807
 21
14.18780668642753
 31
0.0
  0
LINE
  5
3084
330
1E
100
AcDbEntity
  8
7
100
AcDbLine
 10
13.5196563727807
 20
14.18780668642753
 30
0.0
 11
13.54459075598279
 21
14.18780668642753
 31
0.0
  0
LINE
  5
3085
330
1E
100
AcDbEntity
  8
7
100
AcDbLine
 10
12.24275348564159
 20
14.32822663393409
 30
0.0
 11
12.21781910243949
 21
14.32822663393409
 31
0.0
  0
LINE
  5
3086
330
1E
100
AcDbEntity
  8
7
100
AcDbLine
 10
12.21781910243949
 20
14.32822663393409
 30
0.0
 11
12.21913143839749
 21
14.32560196201808
 31
0.0
  0
LINE
  5
3087
330
1E
100
AcDbEntity
  8
7
100
AcDbLine
 10
12.95403957488043
 20
13.30197991477398
 30
0.0
 11
12.95403957488043
 21
13.36628437671624
 31
0.0
  0
LINE
  5
3088
330
1E
100
AcDbEntity
  8
7
100
AcDbLine
 10
12.95403957488043
 20
13.36628437671624
 30
0.0
 11
12.80968261949985
 21
13.36628437671624
 31
0.0
  0
LINE
  5
3089
330
1E
100
AcDbEntity
  8
7
100
AcDbLine
 10
12.2453781575576
 20
14.32560196201808
 30
0.0
 11
12.21913143839749
 21
14.32560196201808
 31
0.0
  0
LINE
  5
308A
330
1E
100
AcDbEntity
  8
7
100
AcDbLine
 10
12.21913143839749
 20
14.32560196201808
 30
0.0
 11
12.21913143839749
 21
14.19043135834353
 31
0.0
  0
LINE
  5
308B
330
1E
100
AcDbEntity
  8
7
100
AcDbLine
 10
12.53671674023476
 20
15.44633687015456
 30
0.0
 11
12.56296345939487
 21
15.44633687015456
 31
0.0
  0
LINE
  5
308C
330
1E
100
AcDbEntity
  8
7
100
AcDbLine
 10
12.56296345939487
 20
15.44633687015456
 30
0.0
 11
12.56296345939487
 21
15.39253109587634
 31
0.0
  0
LINE
  5
308D
330
1E
100
AcDbEntity
  8
7
100
AcDbLine
 10
13.22700545414552
 20
15.44633687015456
 30
0.0
 11
13.22700545414552
 21
15.5815074738291
 31
0.0
  0
LINE
  5
308E
330
1E
100
AcDbEntity
  8
7
100
AcDbLine
 10
13.22700545414552
 20
15.5815074738291
 30
0.0
 11
13.20075873498542
 21
15.5815074738291
 31
0.0
  0
LINE
  5
308F
330
1E
100
AcDbEntity
  8
7
100
AcDbLine
 10
13.20207107094343
 20
15.63531324810732
 30
0.0
 11
13.20075873498542
 21
15.63531324810732
 31
0.0
  0
LINE
  5
3090
330
1E
100
AcDbEntity
  8
7
100
AcDbLine
 10
13.20075873498542
 20
15.63531324810732
 30
0.0
 11
13.20075873498542
 21
15.5815074738291
 31
0.0
  0
LINE
  5
3091
330
1E
100
AcDbEntity
  8
7
100
AcDbLine
 10
12.65220230453923
 20
14.02638936359288
 30
0.0
 11
12.47634928616652
 21
14.02638936359288
 31
0.0
  0
LINE
  5
3092
330
1E
100
AcDbEntity
  8
7
100
AcDbLine
 10
12.47634928616652
 20
14.02638936359288
 30
0.0
 11
12.47634928616652
 21
13.98833162081073
 31
0.0
  0
LINE
  5
3093
330
1E
100
AcDbEntity
  8
7
100
AcDbLine
 10
13.18894771136337
 20
14.22455209325167
 30
0.0
 11
13.20994508669146
 21
14.22455209325167
 31
0.0
  0
LINE
  5
3094
330
1E
100
AcDbEntity
  8
7
100
AcDbLine
 10
13.20994508669146
 20
14.22455209325167
 30
0.0
 11
13.22569311818752
 21
14.23505078091571
 31
0.0
  0
LINE
  5
3095
330
1E
100
AcDbEntity
  8
7
100
AcDbLine
 10
13.22569311818752
 20
14.23505078091571
 30
0.0
 11
13.23487946989356
 21
14.25342348432779
 31
0.0
  0
LINE
  5
3096
330
1E
100
AcDbEntity
  8
7
100
AcDbLine
 10
13.23487946989356
 20
14.25342348432779
 30
0.0
 11
13.23225479797755
 21
14.27310852369787
 31
0.0
  0
LINE
  5
3097
330
1E
100
AcDbEntity
  8
7
100
AcDbLine
 10
13.23225479797755
 20
14.27310852369787
 30
0.0
 11
13.21913143839749
 21
14.28885655519393
 31
0.0
  0
LINE
  5
3098
330
1E
100
AcDbEntity
  8
7
100
AcDbLine
 10
13.21913143839749
 20
14.28885655519393
 30
0.0
 11
13.19944639902741
 21
14.29410589902595
 31
0.0
  0
LINE
  5
3099
330
1E
100
AcDbEntity
  8
7
100
AcDbLine
 10
13.19944639902741
 20
14.29410589902595
 30
0.0
 11
13.17976135965734
 21
14.28885655519393
 31
0.0
  0
LINE
  5
309A
330
1E
100
AcDbEntity
  8
7
100
AcDbLine
 10
13.17976135965734
 20
14.28885655519393
 30
0.0
 11
13.16663800007728
 21
14.27310852369787
 31
0.0
  0
LINE
  5
309B
330
1E
100
AcDbEntity
  8
7
100
AcDbLine
 10
13.16663800007728
 20
14.27310852369787
 30
0.0
 11
13.16401332816127
 21
14.25342348432779
 31
0.0
  0
LINE
  5
309C
330
1E
100
AcDbEntity
  8
7
100
AcDbLine
 10
13.16401332816127
 20
14.25342348432779
 30
0.0
 11
13.17319967986731
 21
14.23505078091571
 31
0.0
  0
LINE
  5
309D
330
1E
100
AcDbEntity
  8
7
100
AcDbLine
 10
13.17319967986731
 20
14.23505078091571
 30
0.0
 11
13.18894771136337
 21
14.22455209325167
 31
0.0
  0
LINE
  5
309E
330
1E
100
AcDbEntity
  8
7
100
AcDbLine
 10
12.57477448301692
 20
14.29279356306794
 30
0.0
 11
12.55377710768883
 21
14.29279356306794
 31
0.0
  0
LINE
  5
309F
330
1E
100
AcDbEntity
  8
7
100
AcDbLine
 10
12.55377710768883
 20
14.29279356306794
 30
0.0
 11
12.53802907619277
 21
14.2822948754039
 31
0.0
  0
LINE
  5
30A0
330
1E
100
AcDbEntity
  8
7
100
AcDbLine
 10
12.53802907619277
 20
14.2822948754039
 30
0.0
 11
12.52884272448673
 21
14.26392217199183
 31
0.0
  0
LINE
  5
30A1
330
1E
100
AcDbEntity
  8
7
100
AcDbLine
 10
12.52884272448673
 20
14.26392217199183
 30
0.0
 11
12.53146739640274
 21
14.24423713262175
 31
0.0
  0
LINE
  5
30A2
330
1E
100
AcDbEntity
  8
7
100
AcDbLine
 10
12.53146739640274
 20
14.24423713262175
 30
0.0
 11
12.5445907559828
 21
14.22848910112569
 31
0.0
  0
LINE
  5
30A3
330
1E
100
AcDbEntity
  8
7
100
AcDbLine
 10
12.5445907559828
 20
14.22848910112569
 30
0.0
 11
12.56427579535287
 21
14.22323975729367
 31
0.0
  0
LINE
  5
30A4
330
1E
100
AcDbEntity
  8
7
100
AcDbLine
 10
12.56427579535287
 20
14.22323975729367
 30
0.0
 11
12.58396083472295
 21
14.22848910112569
 31
0.0
  0
LINE
  5
30A5
330
1E
100
AcDbEntity
  8
7
100
AcDbLine
 10
12.58396083472295
 20
14.22848910112569
 30
0.0
 11
12.597084194303
 21
14.24423713262175
 31
0.0
  0
LINE
  5
30A6
330
1E
100
AcDbEntity
  8
7
100
AcDbLine
 10
12.597084194303
 20
14.24423713262175
 30
0.0
 11
12.59970886621901
 21
14.26392217199183
 31
0.0
  0
LINE
  5
30A7
330
1E
100
AcDbEntity
  8
7
100
AcDbLine
 10
12.59970886621901
 20
14.26392217199183
 30
0.0
 11
12.59052251451298
 21
14.2822948754039
 31
0.0
  0
LINE
  5
30A8
330
1E
100
AcDbEntity
  8
7
100
AcDbLine
 10
12.59052251451298
 20
14.2822948754039
 30
0.0
 11
12.57477448301692
 21
14.29279356306794
 31
0.0
  0
LINE
  5
30A9
330
1E
100
AcDbEntity
  8
7
100
AcDbLine
 10
13.05115243577282
 20
15.47783293314668
 30
0.0
 11
13.05640177960484
 21
15.51326600401283
 31
0.0
  0
LINE
  5
30AA
330
1E
100
AcDbEntity
  8
7
100
AcDbLine
 10
13.05640177960484
 20
15.51326600401283
 30
0.0
 11
13.05115243577282
 21
15.54869907487897
 31
0.0
  0
LINE
  5
30AB
330
1E
100
AcDbEntity
  8
7
100
AcDbLine
 10
13.05115243577282
 20
15.54869907487897
 30
0.0
 11
13.03409206831875
 21
15.58019513787109
 31
0.0
  0
LINE
  5
30AC
330
1E
100
AcDbEntity
  8
7
100
AcDbLine
 10
13.03409206831875
 20
15.58019513787109
 30
0.0
 11
13.00915768511665
 21
15.6051295210732
 31
0.0
  0
LINE
  5
30AD
330
1E
100
AcDbEntity
  8
7
100
AcDbLine
 10
13.00915768511665
 20
15.6051295210732
 30
0.0
 11
12.97766162212453
 21
15.62218988852726
 31
0.0
  0
LINE
  5
30AE
330
1E
100
AcDbEntity
  8
7
100
AcDbLine
 10
12.97766162212453
 20
15.62218988852726
 30
0.0
 11
12.94222855125839
 21
15.62743923235928
 31
0.0
  0
LINE
  5
30AF
330
1E
100
AcDbEntity
  8
7
100
AcDbLine
 10
12.94222855125839
 20
15.39909277566637
 30
0.0
 11
12.97766162212453
 21
15.40434211949839
 31
0.0
  0
LINE
  5
30B0
330
1E
100
AcDbEntity
  8
7
100
AcDbLine
 10
12.97766162212453
 20
15.40434211949839
 30
0.0
 11
13.00915768511665
 21
15.42140248695246
 31
0.0
  0
LINE
  5
30B1
330
1E
100
AcDbEntity
  8
7
100
AcDbLine
 10
13.00915768511665
 20
15.42140248695246
 30
0.0
 11
13.03409206831875
 21
15.44633687015456
 31
0.0
  0
LINE
  5
30B2
330
1E
100
AcDbEntity
  8
7
100
AcDbLine
 10
13.03409206831875
 20
15.44633687015456
 30
0.0
 11
13.05115243577282
 21
15.47783293314668
 31
0.0
  0
LINE
  5
30B3
330
1E
100
AcDbEntity
  8
7
100
AcDbLine
 10
12.8214936431219
 20
15.62743923235928
 30
0.0
 11
12.78606057225576
 21
15.62218988852726
 31
0.0
  0
LINE
  5
30B4
330
1E
100
AcDbEntity
  8
7
100
AcDbLine
 10
12.78606057225576
 20
15.62218988852726
 30
0.0
 11
12.75456450926363
 21
15.6051295210732
 31
0.0
  0
LINE
  5
30B5
330
1E
100
AcDbEntity
  8
7
100
AcDbLine
 10
12.75456450926363
 20
15.6051295210732
 30
0.0
 11
12.72963012606154
 21
15.58019513787109
 31
0.0
  0
LINE
  5
30B6
330
1E
100
AcDbEntity
  8
7
100
AcDbLine
 10
12.72963012606154
 20
15.58019513787109
 30
0.0
 11
12.71256975860747
 21
15.54869907487897
 31
0.0
  0
LINE
  5
30B7
330
1E
100
AcDbEntity
  8
7
100
AcDbLine
 10
12.71256975860747
 20
15.54869907487897
 30
0.0
 11
12.70732041477545
 21
15.51326600401283
 31
0.0
  0
LINE
  5
30B8
330
1E
100
AcDbEntity
  8
7
100
AcDbLine
 10
12.70732041477545
 20
15.51326600401283
 30
0.0
 11
12.71256975860747
 21
15.47783293314668
 31
0.0
  0
LINE
  5
30B9
330
1E
100
AcDbEntity
  8
7
100
AcDbLine
 10
12.71256975860747
 20
15.47783293314668
 30
0.0
 11
12.72963012606154
 21
15.44633687015456
 31
0.0
  0
LINE
  5
30BA
330
1E
100
AcDbEntity
  8
7
100
AcDbLine
 10
12.72963012606154
 20
15.44633687015456
 30
0.0
 11
12.75456450926363
 21
15.42140248695246
 31
0.0
  0
LINE
  5
30BB
330
1E
100
AcDbEntity
  8
7
100
AcDbLine
 10
12.75456450926363
 20
15.42140248695246
 30
0.0
 11
12.78606057225576
 21
15.40434211949839
 31
0.0
  0
LINE
  5
30BC
330
1E
100
AcDbEntity
  8
7
100
AcDbLine
 10
13.23225479797755
 20
14.24423713262175
 30
0.0
 11
13.23487946989356
 21
14.26392217199183
 31
0.0
  0
LINE
  5
30BD
330
1E
100
AcDbEntity
  8
7
100
AcDbLine
 10
13.23487946989356
 20
14.26392217199183
 30
0.0
 11
13.22569311818752
 21
14.2822948754039
 31
0.0
  0
LINE
  5
30BE
330
1E
100
AcDbEntity
  8
7
100
AcDbLine
 10
13.22569311818752
 20
14.2822948754039
 30
0.0
 11
13.20994508669146
 21
14.29279356306794
 31
0.0
  0
LINE
  5
30BF
330
1E
100
AcDbEntity
  8
7
100
AcDbLine
 10
13.20994508669146
 20
14.29279356306794
 30
0.0
 11
13.18894771136337
 21
14.29279356306794
 31
0.0
  0
LINE
  5
30C0
330
1E
100
AcDbEntity
  8
7
100
AcDbLine
 10
13.18894771136337
 20
14.29279356306794
 30
0.0
 11
13.17319967986731
 21
14.2822948754039
 31
0.0
  0
LINE
  5
30C1
330
1E
100
AcDbEntity
  8
7
100
AcDbLine
 10
13.17319967986731
 20
14.2822948754039
 30
0.0
 11
13.16401332816127
 21
14.26392217199183
 31
0.0
  0
LINE
  5
30C2
330
1E
100
AcDbEntity
  8
7
100
AcDbLine
 10
13.16401332816127
 20
14.26392217199183
 30
0.0
 11
13.16663800007728
 21
14.24423713262175
 31
0.0
  0
LINE
  5
30C3
330
1E
100
AcDbEntity
  8
7
100
AcDbLine
 10
13.16663800007728
 20
14.24423713262175
 30
0.0
 11
13.17976135965734
 21
14.22848910112569
 31
0.0
  0
LINE
  5
30C4
330
1E
100
AcDbEntity
  8
7
100
AcDbLine
 10
13.17976135965734
 20
14.22848910112569
 30
0.0
 11
13.19944639902741
 21
14.22323975729367
 31
0.0
  0
LINE
  5
30C5
330
1E
100
AcDbEntity
  8
7
100
AcDbLine
 10
13.19944639902741
 20
14.22323975729367
 30
0.0
 11
13.21913143839749
 21
14.22848910112569
 31
0.0
  0
LINE
  5
30C6
330
1E
100
AcDbEntity
  8
7
100
AcDbLine
 10
13.21913143839749
 20
14.22848910112569
 30
0.0
 11
13.23225479797755
 21
14.24423713262175
 31
0.0
  0
LINE
  5
30C7
330
1E
100
AcDbEntity
  8
7
100
AcDbLine
 10
12.58396083472295
 20
14.22848910112569
 30
0.0
 11
12.597084194303
 21
14.24423713262175
 31
0.0
  0
LINE
  5
30C8
330
1E
100
AcDbEntity
  8
7
100
AcDbLine
 10
12.597084194303
 20
14.24423713262175
 30
0.0
 11
12.59970886621901
 21
14.26392217199183
 31
0.0
  0
LINE
  5
30C9
330
1E
100
AcDbEntity
  8
7
100
AcDbLine
 10
12.59970886621901
 20
14.26392217199183
 30
0.0
 11
12.59052251451298
 21
14.2822948754039
 31
0.0
  0
LINE
  5
30CA
330
1E
100
AcDbEntity
  8
7
100
AcDbLine
 10
12.59052251451298
 20
14.2822948754039
 30
0.0
 11
12.57477448301692
 21
14.29279356306794
 31
0.0
  0
LINE
  5
30CB
330
1E
100
AcDbEntity
  8
7
100
AcDbLine
 10
12.57477448301692
 20
14.29279356306794
 30
0.0
 11
12.55377710768883
 21
14.29279356306794
 31
0.0
  0
LINE
  5
30CC
330
1E
100
AcDbEntity
  8
7
100
AcDbLine
 10
12.55377710768883
 20
14.29279356306794
 30
0.0
 11
12.53802907619277
 21
14.2822948754039
 31
0.0
  0
LINE
  5
30CD
330
1E
100
AcDbEntity
  8
7
100
AcDbLine
 10
12.53802907619277
 20
14.2822948754039
 30
0.0
 11
12.52884272448673
 21
14.26392217199183
 31
0.0
  0
LINE
  5
30CE
330
1E
100
AcDbEntity
  8
7
100
AcDbLine
 10
12.52884272448673
 20
14.26392217199183
 30
0.0
 11
12.53146739640274
 21
14.24423713262175
 31
0.0
  0
LINE
  5
30CF
330
1E
100
AcDbEntity
  8
7
100
AcDbLine
 10
12.53146739640274
 20
14.24423713262175
 30
0.0
 11
12.5445907559828
 21
14.22848910112569
 31
0.0
  0
LINE
  5
30D0
330
1E
100
AcDbEntity
  8
7
100
AcDbLine
 10
12.5445907559828
 20
14.22848910112569
 30
0.0
 11
12.56427579535287
 21
14.22323975729367
 31
0.0
  0
LINE
  5
30D1
330
1E
100
AcDbEntity
  8
7
100
AcDbLine
 10
12.79262225204579
 20
15.5828198097871
 30
0.0
 11
12.76900020480169
 21
15.56575944233304
 31
0.0
  0
LINE
  5
30D2
330
1E
100
AcDbEntity
  8
7
100
AcDbLine
 10
12.76900020480169
 20
15.56575944233304
 30
0.0
 11
12.75193983734762
 21
15.54213739508894
 31
0.0
  0
LINE
  5
30D3
330
1E
100
AcDbEntity
  8
7
100
AcDbLine
 10
12.75193983734762
 20
15.54213739508894
 30
0.0
 11
12.7466904935156
 21
15.51326600401283
 31
0.0
  0
LINE
  5
30D4
330
1E
100
AcDbEntity
  8
7
100
AcDbLine
 10
12.7466904935156
 20
15.51326600401283
 30
0.0
 11
12.75193983734762
 21
15.48439461293671
 31
0.0
  0
LINE
  5
30D5
330
1E
100
AcDbEntity
  8
7
100
AcDbLine
 10
12.75193983734762
 20
15.48439461293671
 30
0.0
 11
12.76900020480169
 21
15.46077256569262
 31
0.0
  0
LINE
  5
30D6
330
1E
100
AcDbEntity
  8
7
100
AcDbLine
 10
12.76900020480169
 20
15.46077256569262
 30
0.0
 11
12.79262225204579
 21
15.44371219823855
 31
0.0
  0
LINE
  5
30D7
330
1E
100
AcDbEntity
  8
7
100
AcDbLine
 10
12.79262225204579
 20
15.44371219823855
 30
0.0
 11
12.8214936431219
 21
15.43846285440653
 31
0.0
  0
LINE
  5
30D8
330
1E
100
AcDbEntity
  8
7
100
AcDbLine
 10
12.94222855125839
 20
15.43846285440653
 30
0.0
 11
12.9710999423345
 21
15.44371219823855
 31
0.0
  0
LINE
  5
30D9
330
1E
100
AcDbEntity
  8
7
100
AcDbLine
 10
12.9710999423345
 20
15.44371219823855
 30
0.0
 11
12.99472198957859
 21
15.46077256569262
 31
0.0
  0
LINE
  5
30DA
330
1E
100
AcDbEntity
  8
7
100
AcDbLine
 10
12.99472198957859
 20
15.46077256569262
 30
0.0
 11
13.01178235703266
 21
15.48439461293671
 31
0.0
  0
LINE
  5
30DB
330
1E
100
AcDbEntity
  8
7
100
AcDbLine
 10
13.01178235703266
 20
15.48439461293671
 30
0.0
 11
13.01703170086468
 21
15.51326600401283
 31
0.0
  0
LINE
  5
30DC
330
1E
100
AcDbEntity
  8
7
100
AcDbLine
 10
13.01703170086468
 20
15.51326600401283
 30
0.0
 11
13.01178235703266
 21
15.54213739508894
 31
0.0
  0
LINE
  5
30DD
330
1E
100
AcDbEntity
  8
7
100
AcDbLine
 10
13.01178235703266
 20
15.54213739508894
 30
0.0
 11
12.99472198957859
 21
15.56575944233304
 31
0.0
  0
LINE
  5
30DE
330
1E
100
AcDbEntity
  8
7
100
AcDbLine
 10
12.99472198957859
 20
15.56575944233304
 30
0.0
 11
12.9710999423345
 21
15.5828198097871
 31
0.0
  0
LINE
  5
30DF
330
1E
100
AcDbEntity
  8
7
100
AcDbLine
 10
12.9710999423345
 20
15.5828198097871
 30
0.0
 11
12.94222855125839
 21
15.58806915361913
 31
0.0
  0
LINE
  5
30E0
330
1E
100
AcDbEntity
  8
7
100
AcDbLine
 10
12.8214936431219
 20
15.62612689640128
 30
0.0
 11
12.78606057225576
 21
15.62087755256926
 31
0.0
  0
LINE
  5
30E1
330
1E
100
AcDbEntity
  8
7
100
AcDbLine
 10
12.78606057225576
 20
15.62087755256926
 30
0.0
 11
12.75456450926363
 21
15.6051295210732
 31
0.0
  0
LINE
  5
30E2
330
1E
100
AcDbEntity
  8
7
100
AcDbLine
 10
12.75456450926363
 20
15.6051295210732
 30
0.0
 11
12.72963012606154
 21
15.58019513787109
 31
0.0
  0
LINE
  5
30E3
330
1E
100
AcDbEntity
  8
7
100
AcDbLine
 10
12.72963012606154
 20
15.58019513787109
 30
0.0
 11
12.71388209456547
 21
15.54869907487897
 31
0.0
  0
LINE
  5
30E4
330
1E
100
AcDbEntity
  8
7
100
AcDbLine
 10
12.71388209456547
 20
15.54869907487897
 30
0.0
 11
12.70863275073345
 21
15.51326600401283
 31
0.0
  0
LINE
  5
30E5
330
1E
100
AcDbEntity
  8
7
100
AcDbLine
 10
12.70863275073345
 20
15.51326600401283
 30
0.0
 11
12.71388209456547
 21
15.47783293314668
 31
0.0
  0
LINE
  5
30E6
330
1E
100
AcDbEntity
  8
7
100
AcDbLine
 10
12.71388209456547
 20
15.47783293314668
 30
0.0
 11
12.72963012606154
 21
15.44633687015456
 31
0.0
  0
LINE
  5
30E7
330
1E
100
AcDbEntity
  8
7
100
AcDbLine
 10
12.72963012606154
 20
15.44633687015456
 30
0.0
 11
12.75456450926363
 21
15.42140248695246
 31
0.0
  0
LINE
  5
30E8
330
1E
100
AcDbEntity
  8
7
100
AcDbLine
 10
12.75456450926363
 20
15.42140248695246
 30
0.0
 11
12.78606057225576
 21
15.4056544554564
 31
0.0
  0
LINE
  5
30E9
330
1E
100
AcDbEntity
  8
7
100
AcDbLine
 10
12.78606057225576
 20
15.4056544554564
 30
0.0
 11
12.8214936431219
 21
15.40040511162438
 31
0.0
  0
LINE
  5
30EA
330
1E
100
AcDbEntity
  8
7
100
AcDbLine
 10
12.94222855125839
 20
15.40040511162438
 30
0.0
 11
12.97766162212453
 21
15.4056544554564
 31
0.0
  0
LINE
  5
30EB
330
1E
100
AcDbEntity
  8
7
100
AcDbLine
 10
12.97766162212453
 20
15.4056544554564
 30
0.0
 11
13.00915768511665
 21
15.42140248695246
 31
0.0
  0
LINE
  5
30EC
330
1E
100
AcDbEntity
  8
7
100
AcDbLine
 10
13.00915768511665
 20
15.42140248695246
 30
0.0
 11
13.03409206831875
 21
15.44633687015456
 31
0.0
  0
LINE
  5
30ED
330
1E
100
AcDbEntity
  8
7
100
AcDbLine
 10
13.03409206831875
 20
15.44633687015456
 30
0.0
 11
13.04984009981482
 21
15.47783293314668
 31
0.0
  0
LINE
  5
30EE
330
1E
100
AcDbEntity
  8
7
100
AcDbLine
 10
13.04984009981482
 20
15.47783293314668
 30
0.0
 11
13.05508944364684
 21
15.51326600401283
 31
0.0
  0
LINE
  5
30EF
330
1E
100
AcDbEntity
  8
7
100
AcDbLine
 10
13.05508944364684
 20
15.51326600401283
 30
0.0
 11
13.04984009981482
 21
15.54869907487897
 31
0.0
  0
LINE
  5
30F0
330
1E
100
AcDbEntity
  8
7
100
AcDbLine
 10
13.04984009981482
 20
15.54869907487897
 30
0.0
 11
13.03409206831875
 21
15.58019513787109
 31
0.0
  0
LINE
  5
30F1
330
1E
100
AcDbEntity
  8
7
100
AcDbLine
 10
13.03409206831875
 20
15.58019513787109
 30
0.0
 11
13.00915768511665
 21
15.6051295210732
 31
0.0
  0
LINE
  5
30F2
330
1E
100
AcDbEntity
  8
7
100
AcDbLine
 10
13.00915768511665
 20
15.6051295210732
 30
0.0
 11
12.97766162212453
 21
15.62087755256926
 31
0.0
  0
LINE
  5
30F3
330
1E
100
AcDbEntity
  8
7
100
AcDbLine
 10
12.97766162212453
 20
15.62087755256926
 30
0.0
 11
12.94222855125839
 21
15.62612689640128
 31
0.0
  0
LINE
  5
30F4
330
1E
100
AcDbEntity
  8
7
100
AcDbLine
 10
13.87661175335812
 20
12.08806915361913
 30
0.0
 11
13.8962967927282
 21
12.08806915361913
 31
0.0
  0
LINE
  5
30F5
330
1E
100
AcDbEntity
  8
7
100
AcDbLine
 10
13.8962967927282
 20
12.08806915361913
 30
0.0
 11
13.8962967927282
 21
12.1064418570312
 31
0.0
  0
LINE
  5
30F6
330
1E
100
AcDbEntity
  8
7
100
AcDbLine
 10
13.8962967927282
 20
12.1064418570312
 30
0.0
 11
13.83199233078594
 21
12.1064418570312
 31
0.0
  0
LINE
  5
30F7
330
1E
100
AcDbEntity
  8
7
100
AcDbLine
 10
13.84905269824001
 20
12.08806915361913
 30
0.0
 11
13.84905269824001
 21
12.01982768380285
 31
0.0
  0
LINE
  5
30F8
330
1E
100
AcDbEntity
  8
7
100
AcDbLine
 10
13.84905269824001
 20
12.01982768380285
 30
0.0
 11
13.87661175335812
 21
12.01982768380285
 31
0.0
  0
LINE
  5
30F9
330
1E
100
AcDbEntity
  8
7
100
AcDbLine
 10
13.79393458800379
 20
12.1064418570312
 30
0.0
 11
13.79393458800379
 21
12.01982768380285
 31
0.0
  0
LINE
  5
30FA
330
1E
100
AcDbEntity
  8
7
100
AcDbLine
 10
13.79393458800379
 20
12.01982768380285
 30
0.0
 11
13.81755663524788
 21
12.01982768380285
 31
0.0
  0
LINE
  5
30FB
330
1E
100
AcDbEntity
  8
7
100
AcDbLine
 10
13.7466904935156
 20
12.04344973104695
 30
0.0
 11
13.7466904935156
 21
12.1064418570312
 31
0.0
  0
LINE
  5
30FC
330
1E
100
AcDbEntity
  8
7
100
AcDbLine
 10
13.7466904935156
 20
12.1064418570312
 30
0.0
 11
13.71781910243949
 21
12.1064418570312
 31
0.0
  0
LINE
  5
30FD
330
1E
100
AcDbEntity
  8
7
100
AcDbLine
 10
13.74800282947361
 20
12.04344973104695
 30
0.0
 11
13.74931516543161
 21
12.04082505913094
 31
0.0
  0
LINE
  5
30FE
330
1E
100
AcDbEntity
  8
7
100
AcDbLine
 10
13.74931516543161
 20
12.04082505913094
 30
0.0
 11
13.75193983734762
 21
12.03951272317293
 31
0.0
  0
LINE
  5
30FF
330
1E
100
AcDbEntity
  8
7
100
AcDbLine
 10
13.75718918117964
 20
12.03951272317293
 30
0.0
 11
13.75981385309565
 21
12.04082505913094
 31
0.0
  0
LINE
  5
3100
330
1E
100
AcDbEntity
  8
7
100
AcDbLine
 10
13.75981385309565
 20
12.04082505913094
 30
0.0
 11
13.76112618905366
 21
12.04344973104695
 31
0.0
  0
LINE
  5
3101
330
1E
100
AcDbEntity
  8
7
100
AcDbLine
 10
13.78081122842374
 20
12.03557571529892
 30
0.0
 11
13.78081122842374
 21
12.1064418570312
 31
0.0
  0
LINE
  5
3102
330
1E
100
AcDbEntity
  8
7
100
AcDbLine
 10
13.78081122842374
 20
12.1064418570312
 30
0.0
 11
13.76243852501167
 21
12.1064418570312
 31
0.0
  0
LINE
  5
3103
330
1E
100
AcDbEntity
  8
7
100
AcDbLine
 10
13.76243852501167
 20
12.1064418570312
 30
0.0
 11
13.76243852501167
 21
12.04344973104695
 31
0.0
  0
LINE
  5
3104
330
1E
100
AcDbEntity
  8
7
100
AcDbLine
 10
13.76506319692768
 20
12.02114001976086
 30
0.0
 11
13.77556188459172
 21
12.02507702763488
 31
0.0
  0
LINE
  5
3105
330
1E
100
AcDbEntity
  8
7
100
AcDbLine
 10
13.77556188459172
 20
12.02507702763488
 30
0.0
 11
13.77949889246574
 21
12.03557571529892
 31
0.0
  0
LINE
  5
3106
330
1E
100
AcDbEntity
  8
7
100
AcDbLine
 10
13.71913143839749
 20
12.03557571529892
 30
0.0
 11
13.72306844627151
 21
12.02507702763488
 31
0.0
  0
LINE
  5
3107
330
1E
100
AcDbEntity
  8
7
100
AcDbLine
 10
13.72306844627151
 20
12.02507702763488
 30
0.0
 11
13.73356713393555
 21
12.02114001976086
 31
0.0
  0
LINE
  5
3108
330
1E
100
AcDbEntity
  8
7
100
AcDbLine
 10
13.70338340690143
 20
12.09069382553514
 30
0.0
 11
13.69944639902741
 21
12.10119251319918
 31
0.0
  0
LINE
  5
3109
330
1E
100
AcDbEntity
  8
7
100
AcDbLine
 10
13.69944639902741
 20
12.10119251319918
 30
0.0
 11
13.68894771136337
 21
12.10512952107319
 31
0.0
  0
LINE
  5
310A
330
1E
100
AcDbEntity
  8
7
100
AcDbLine
 10
13.68894771136337
 20
12.02114001976086
 30
0.0
 11
13.69944639902741
 21
12.02507702763488
 31
0.0
  0
LINE
  5
310B
330
1E
100
AcDbEntity
  8
7
100
AcDbLine
 10
13.69944639902741
 20
12.02507702763488
 30
0.0
 11
13.70338340690143
 21
12.03557571529892
 31
0.0
  0
LINE
  5
310C
330
1E
100
AcDbEntity
  8
7
100
AcDbLine
 10
13.64039128091718
 20
12.1064418570312
 30
0.0
 11
13.64039128091718
 21
12.01982768380285
 31
0.0
  0
LINE
  5
310D
330
1E
100
AcDbEntity
  8
7
100
AcDbLine
 10
13.64039128091718
 20
12.01982768380285
 30
0.0
 11
13.68894771136337
 21
12.01982768380285
 31
0.0
  0
LINE
  5
310E
330
1E
100
AcDbEntity
  8
7
100
AcDbLine
 10
13.67451201582531
 20
12.03951272317293
 30
0.0
 11
13.67713668774133
 21
12.04082505913094
 31
0.0
  0
LINE
  5
310F
330
1E
100
AcDbEntity
  8
7
100
AcDbLine
 10
13.67713668774133
 20
12.04082505913094
 30
0.0
 11
13.67844902369933
 21
12.04344973104695
 31
0.0
  0
LINE
  5
3110
330
1E
100
AcDbEntity
  8
7
100
AcDbLine
 10
13.67844902369933
 20
12.08413214574511
 30
0.0
 11
13.67713668774133
 21
12.08675681766112
 31
0.0
  0
LINE
  5
3111
330
1E
100
AcDbEntity
  8
7
100
AcDbLine
 10
13.67713668774133
 20
12.08675681766112
 30
0.0
 11
13.67451201582531
 21
12.08806915361913
 31
0.0
  0
LINE
  5
3112
330
1E
100
AcDbEntity
  8
7
100
AcDbLine
 10
13.60102120217702
 20
12.01982768380285
 30
0.0
 11
13.62726792133712
 21
12.01982768380285
 31
0.0
  0
LINE
  5
3113
330
1E
100
AcDbEntity
  8
7
100
AcDbLine
 10
13.62726792133712
 20
12.01982768380285
 30
0.0
 11
13.62726792133712
 21
12.1064418570312
 31
0.0
  0
LINE
  5
3114
330
1E
100
AcDbEntity
  8
7
100
AcDbLine
 10
13.62726792133712
 20
12.1064418570312
 30
0.0
 11
13.60495821005104
 21
12.1064418570312
 31
0.0
  0
LINE
  5
3115
330
1E
100
AcDbEntity
  8
7
100
AcDbLine
 10
13.60495821005104
 20
12.1064418570312
 30
0.0
 11
13.60495821005104
 21
12.07363345808107
 31
0.0
  0
LINE
  5
3116
330
1E
100
AcDbEntity
  8
7
100
AcDbLine
 10
13.60495821005104
 20
12.07363345808107
 30
0.0
 11
13.58921017855497
 21
12.1064418570312
 31
0.0
  0
LINE
  5
3117
330
1E
100
AcDbEntity
  8
7
100
AcDbLine
 10
13.58921017855497
 20
12.1064418570312
 30
0.0
 11
13.56033878747886
 21
12.1064418570312
 31
0.0
  0
LINE
  5
3118
330
1E
100
AcDbEntity
  8
7
100
AcDbLine
 10
13.56033878747886
 20
12.1064418570312
 30
0.0
 11
13.56033878747886
 21
12.05001141083698
 31
0.0
  0
LINE
  5
3119
330
1E
100
AcDbEntity
  8
7
100
AcDbLine
 10
13.47503695020852
 20
12.055260754669
 30
0.0
 11
13.48422330191455
 21
12.056573090627
 31
0.0
  0
LINE
  5
311A
330
1E
100
AcDbEntity
  8
7
100
AcDbLine
 10
13.48422330191455
 20
12.056573090627
 30
0.0
 11
13.49209731766259
 21
12.05919776254301
 31
0.0
  0
LINE
  5
311B
330
1E
100
AcDbEntity
  8
7
100
AcDbLine
 10
13.51047002107466
 20
12.10512952107319
 30
0.0
 11
13.4973466614946
 21
12.12481456044327
 31
0.0
  0
LINE
  5
311C
330
1E
100
AcDbEntity
  8
7
100
AcDbLine
 10
13.4973466614946
 20
12.12481456044327
 30
0.0
 11
13.47503695020852
 21
12.1313762402333
 31
0.0
  0
LINE
  5
311D
330
1E
100
AcDbEntity
  8
7
100
AcDbLine
 10
13.52359338065471
 20
12.07494579403907
 30
0.0
 11
13.53409206831875
 21
12.05132374679498
 31
0.0
  0
LINE
  5
311E
330
1E
100
AcDbEntity
  8
7
100
AcDbLine
 10
13.53409206831875
 20
12.05132374679498
 30
0.0
 11
13.51178235703266
 21
12.05132374679498
 31
0.0
  0
LINE
  5
311F
330
1E
100
AcDbEntity
  8
7
100
AcDbLine
 10
13.45797658275445
 20
12.07363345808107
 30
0.0
 11
13.46191359062846
 21
12.07494579403907
 31
0.0
  0
LINE
  5
3120
330
1E
100
AcDbEntity
  8
7
100
AcDbLine
 10
13.46191359062846
 20
12.07494579403907
 30
0.0
 11
13.46322592658647
 21
12.07888280191309
 31
0.0
  0
LINE
  5
3121
330
1E
100
AcDbEntity
  8
7
100
AcDbLine
 10
13.46322592658647
 20
12.1077541929892
 30
0.0
 11
13.46191359062846
 21
12.11169120086322
 31
0.0
  0
LINE
  5
3122
330
1E
100
AcDbEntity
  8
7
100
AcDbLine
 10
13.46191359062846
 20
12.11169120086322
 30
0.0
 11
13.45797658275445
 21
12.11300353682123
 31
0.0
  0
LINE
  5
3123
330
1E
100
AcDbEntity
  8
7
100
AcDbLine
 10
12.55902645152085
 20
12.35447335309419
 30
0.0
 11
12.56033878747886
 21
12.35447335309419
 31
0.0
  0
LINE
  5
3124
330
1E
100
AcDbEntity
  8
7
100
AcDbLine
 10
12.56033878747886
 20
12.35447335309419
 30
0.0
 11
12.56296345939487
 21
12.35316101713619
 31
0.0
  0
LINE
  5
3125
330
1E
100
AcDbEntity
  8
7
100
AcDbLine
 10
12.56296345939487
 20
12.35316101713619
 30
0.0
 11
12.56296345939487
 21
12.30066757881598
 31
0.0
  0
LINE
  5
3126
330
1E
100
AcDbEntity
  8
7
100
AcDbLine
 10
12.56296345939487
 20
12.30066757881598
 30
0.0
 11
12.53671674023476
 21
12.30066757881598
 31
0.0
  0
LINE
  5
3127
330
1E
100
AcDbEntity
  8
7
100
AcDbLine
 10
12.53671674023476
 20
12.30066757881598
 30
0.0
 11
12.53671674023476
 21
12.16549697514144
 31
0.0
  0
LINE
  5
3128
330
1E
100
AcDbEntity
  8
7
100
AcDbLine
 10
12.94222855125839
 20
12.34659933734616
 30
0.0
 11
12.94222855125839
 21
12.34791167330417
 31
0.0
  0
LINE
  5
3129
330
1E
100
AcDbEntity
  8
7
100
AcDbLine
 10
12.94222855125839
 20
12.34791167330417
 30
0.0
 11
12.8214936431219
 21
12.34791167330417
 31
0.0
  0
LINE
  5
312A
330
1E
100
AcDbEntity
  8
7
100
AcDbLine
 10
13.05115243577282
 20
12.26785917986584
 30
0.0
 11
13.03409206831875
 21
12.29935524285797
 31
0.0
  0
LINE
  5
312B
330
1E
100
AcDbEntity
  8
7
100
AcDbLine
 10
13.03409206831875
 20
12.29935524285797
 30
0.0
 11
13.00915768511665
 21
12.32428962606007
 31
0.0
  0
LINE
  5
312C
330
1E
100
AcDbEntity
  8
7
100
AcDbLine
 10
13.00915768511665
 20
12.32428962606007
 30
0.0
 11
12.97766162212453
 21
12.34134999351414
 31
0.0
  0
LINE
  5
312D
330
1E
100
AcDbEntity
  8
7
100
AcDbLine
 10
12.97766162212453
 20
12.34134999351414
 30
0.0
 11
12.94222855125839
 21
12.34659933734616
 31
0.0
  0
LINE
  5
312E
330
1E
100
AcDbEntity
  8
7
100
AcDbLine
 10
12.94222855125839
 20
12.11825288065325
 30
0.0
 11
12.97766162212453
 21
12.12350222448527
 31
0.0
  0
LINE
  5
312F
330
1E
100
AcDbEntity
  8
7
100
AcDbLine
 10
12.97766162212453
 20
12.12350222448527
 30
0.0
 11
13.00915768511665
 21
12.14056259193934
 31
0.0
  0
LINE
  5
3130
330
1E
100
AcDbEntity
  8
7
100
AcDbLine
 10
13.00915768511665
 20
12.14056259193934
 30
0.0
 11
13.03409206831875
 21
12.16549697514144
 31
0.0
  0
LINE
  5
3131
330
1E
100
AcDbEntity
  8
7
100
AcDbLine
 10
13.03409206831875
 20
12.16549697514144
 30
0.0
 11
13.05115243577282
 21
12.19699303813356
 31
0.0
  0
LINE
  5
3132
330
1E
100
AcDbEntity
  8
7
100
AcDbLine
 10
13.05115243577282
 20
12.19699303813356
 30
0.0
 11
13.05640177960484
 21
12.2324261089997
 31
0.0
  0
LINE
  5
3133
330
1E
100
AcDbEntity
  8
7
100
AcDbLine
 10
13.05640177960484
 20
12.2324261089997
 30
0.0
 11
13.05115243577282
 21
12.26785917986584
 31
0.0
  0
LINE
  5
3134
330
1E
100
AcDbEntity
  8
7
100
AcDbLine
 10
12.8214936431219
 20
12.11956521661125
 30
0.0
 11
12.8214936431219
 21
12.11825288065325
 31
0.0
  0
LINE
  5
3135
330
1E
100
AcDbEntity
  8
7
100
AcDbLine
 10
12.8214936431219
 20
12.11825288065325
 30
0.0
 11
12.94222855125839
 21
12.11825288065325
 31
0.0
  0
LINE
  5
3136
330
1E
100
AcDbEntity
  8
7
100
AcDbLine
 10
12.8214936431219
 20
12.34659933734616
 30
0.0
 11
12.78606057225576
 21
12.34134999351414
 31
0.0
  0
LINE
  5
3137
330
1E
100
AcDbEntity
  8
7
100
AcDbLine
 10
12.78606057225576
 20
12.34134999351414
 30
0.0
 11
12.75456450926363
 21
12.32428962606007
 31
0.0
  0
LINE
  5
3138
330
1E
100
AcDbEntity
  8
7
100
AcDbLine
 10
12.75456450926363
 20
12.32428962606007
 30
0.0
 11
12.72963012606154
 21
12.29935524285797
 31
0.0
  0
LINE
  5
3139
330
1E
100
AcDbEntity
  8
7
100
AcDbLine
 10
12.72963012606154
 20
12.29935524285797
 30
0.0
 11
12.71256975860747
 21
12.26785917986584
 31
0.0
  0
LINE
  5
313A
330
1E
100
AcDbEntity
  8
7
100
AcDbLine
 10
12.71256975860747
 20
12.26785917986584
 30
0.0
 11
12.70732041477545
 21
12.2324261089997
 31
0.0
  0
LINE
  5
313B
330
1E
100
AcDbEntity
  8
7
100
AcDbLine
 10
12.70732041477545
 20
12.2324261089997
 30
0.0
 11
12.71256975860747
 21
12.19699303813356
 31
0.0
  0
LINE
  5
313C
330
1E
100
AcDbEntity
  8
7
100
AcDbLine
 10
12.71256975860747
 20
12.19699303813356
 30
0.0
 11
12.72963012606154
 21
12.16549697514144
 31
0.0
  0
LINE
  5
313D
330
1E
100
AcDbEntity
  8
7
100
AcDbLine
 10
12.72963012606154
 20
12.16549697514144
 30
0.0
 11
12.75456450926363
 21
12.14056259193934
 31
0.0
  0
LINE
  5
313E
330
1E
100
AcDbEntity
  8
7
100
AcDbLine
 10
12.75456450926363
 20
12.14056259193934
 30
0.0
 11
12.78606057225576
 21
12.12350222448527
 31
0.0
  0
LINE
  5
313F
330
1E
100
AcDbEntity
  8
7
100
AcDbLine
 10
11.5695251391849
 20
11.62612689640128
 30
0.0
 11
11.57477448301692
 21
11.63268857619131
 31
0.0
  0
LINE
  5
3140
330
1E
100
AcDbEntity
  8
7
100
AcDbLine
 10
11.57477448301692
 20
11.63268857619131
 30
0.0
 11
11.58527317068096
 21
11.64712427172936
 31
0.0
  0
LINE
  5
3141
330
1E
100
AcDbEntity
  8
7
100
AcDbLine
 10
11.58527317068096
 20
11.64712427172936
 30
0.0
 11
11.60102120217702
 21
11.66812164705745
 31
0.0
  0
LINE
  5
3142
330
1E
100
AcDbEntity
  8
7
100
AcDbLine
 10
11.60102120217702
 20
11.66812164705745
 30
0.0
 11
11.6207062415471
 21
11.69699303813356
 31
0.0
  0
LINE
  5
3143
330
1E
100
AcDbEntity
  8
7
100
AcDbLine
 10
11.6207062415471
 20
11.69699303813356
 30
0.0
 11
11.6456406247492
 21
11.72980143708369
 31
0.0
  0
LINE
  5
3144
330
1E
100
AcDbEntity
  8
7
100
AcDbLine
 10
11.6456406247492
 20
11.72980143708369
 30
0.0
 11
11.67319967986731
 21
11.76785917986584
 31
0.0
  0
LINE
  5
3145
330
1E
100
AcDbEntity
  8
7
100
AcDbLine
 10
11.67319967986731
 20
11.76785917986584
 30
0.0
 11
11.70338340690143
 21
11.80854159456401
 31
0.0
  0
LINE
  5
3146
330
1E
100
AcDbEntity
  8
7
100
AcDbLine
 10
11.70338340690143
 20
11.80854159456401
 30
0.0
 11
11.73487946989355
 21
11.85184868117818
 31
0.0
  0
LINE
  5
3147
330
1E
100
AcDbEntity
  8
7
100
AcDbLine
 10
14.14170361687518
 20
11.69699303813356
 30
0.0
 11
14.11808156963109
 21
11.72980143708369
 31
0.0
  0
LINE
  5
3148
330
1E
100
AcDbEntity
  8
7
100
AcDbLine
 10
14.11808156963109
 20
11.72980143708369
 30
0.0
 11
14.09052251451298
 21
11.76785917986584
 31
0.0
  0
LINE
  5
3149
330
1E
100
AcDbEntity
  8
7
100
AcDbLine
 10
14.09052251451298
 20
11.76785917986584
 30
0.0
 11
14.06033878747886
 21
11.80854159456401
 31
0.0
  0
LINE
  5
314A
330
1E
100
AcDbEntity
  8
7
100
AcDbLine
 10
14.06033878747886
 20
11.80854159456401
 30
0.0
 11
14.02884272448673
 21
11.85184868117818
 31
0.0
  0
LINE
  5
314B
330
1E
100
AcDbEntity
  8
7
100
AcDbLine
 10
14.19419705519539
 20
11.62612689640128
 30
0.0
 11
14.18894771136337
 21
11.63268857619131
 31
0.0
  0
LINE
  5
314C
330
1E
100
AcDbEntity
  8
7
100
AcDbLine
 10
14.18894771136337
 20
11.63268857619131
 30
0.0
 11
14.17844902369933
 21
11.64712427172936
 31
0.0
  0
LINE
  5
314D
330
1E
100
AcDbEntity
  8
7
100
AcDbLine
 10
14.17844902369933
 20
11.64712427172936
 30
0.0
 11
14.16270099220326
 21
11.66812164705745
 31
0.0
  0
LINE
  5
314E
330
1E
100
AcDbEntity
  8
7
100
AcDbLine
 10
14.16270099220326
 20
11.66812164705745
 30
0.0
 11
14.14170361687518
 21
11.69699303813356
 31
0.0
  0
LINE
  5
314F
330
1E
100
AcDbEntity
  8
7
100
AcDbLine
 10
11.5695251391849
 20
11.62612689640128
 30
0.0
 11
14.19419705519539
 21
11.62612689640128
 31
0.0
  0
LINE
  5
3150
330
1E
100
AcDbEntity
  8
7
100
AcDbLine
 10
14.19419705519539
 20
11.62612689640128
 30
0.0
 11
14.22306844627151
 21
11.63400091214931
 31
0.0
  0
LINE
  5
3151
330
1E
100
AcDbEntity
  8
7
100
AcDbLine
 10
14.22306844627151
 20
11.63400091214931
 30
0.0
 11
14.2453781575576
 21
11.6563106234354
 31
0.0
  0
LINE
  5
3152
330
1E
100
AcDbEntity
  8
7
100
AcDbLine
 10
14.2453781575576
 20
11.6563106234354
 30
0.0
 11
14.25325217330563
 21
11.68649435046952
 31
0.0
  0
LINE
  5
3153
330
1E
100
AcDbEntity
  8
7
100
AcDbLine
 10
11.56690046726888
 20
11.62350222448527
 30
0.0
 11
11.5695251391849
 21
11.62612689640128
 31
0.0
  0
LINE
  5
3154
330
1E
100
AcDbEntity
  8
7
100
AcDbLine
 10
11.5695251391849
 20
11.62612689640128
 30
0.0
 11
11.53934141215077
 21
11.63400091214931
 31
0.0
  0
LINE
  5
3155
330
1E
100
AcDbEntity
  8
7
100
AcDbLine
 10
11.53934141215077
 20
11.63400091214931
 30
0.0
 11
11.51834403682269
 21
11.6563106234354
 31
0.0
  0
LINE
  5
3156
330
1E
100
AcDbEntity
  8
7
100
AcDbLine
 10
12.97766162212453
 20
12.12481456044327
 30
0.0
 11
13.00915768511665
 21
12.14056259193934
 31
0.0
  0
LINE
  5
3157
330
1E
100
AcDbEntity
  8
7
100
AcDbLine
 10
13.00915768511665
 20
12.14056259193934
 30
0.0
 11
13.03409206831875
 21
12.16549697514144
 31
0.0
  0
LINE
  5
3158
330
1E
100
AcDbEntity
  8
7
100
AcDbLine
 10
13.03409206831875
 20
12.16549697514144
 30
0.0
 11
13.04984009981482
 21
12.19699303813356
 31
0.0
  0
LINE
  5
3159
330
1E
100
AcDbEntity
  8
7
100
AcDbLine
 10
13.04984009981482
 20
12.19699303813356
 30
0.0
 11
13.05508944364684
 21
12.2324261089997
 31
0.0
  0
LINE
  5
315A
330
1E
100
AcDbEntity
  8
7
100
AcDbLine
 10
13.05508944364684
 20
12.2324261089997
 30
0.0
 11
13.04984009981482
 21
12.26785917986584
 31
0.0
  0
LINE
  5
315B
330
1E
100
AcDbEntity
  8
7
100
AcDbLine
 10
13.04984009981482
 20
12.26785917986584
 30
0.0
 11
13.03409206831875
 21
12.29935524285797
 31
0.0
  0
LINE
  5
315C
330
1E
100
AcDbEntity
  8
7
100
AcDbLine
 10
13.03409206831875
 20
12.29935524285797
 30
0.0
 11
13.00915768511665
 21
12.32428962606007
 31
0.0
  0
LINE
  5
315D
330
1E
100
AcDbEntity
  8
7
100
AcDbLine
 10
13.00915768511665
 20
12.32428962606007
 30
0.0
 11
12.97766162212453
 21
12.34003765755613
 31
0.0
  0
LINE
  5
315E
330
1E
100
AcDbEntity
  8
7
100
AcDbLine
 10
12.97766162212453
 20
12.34003765755613
 30
0.0
 11
12.94222855125839
 21
12.34528700138816
 31
0.0
  0
LINE
  5
315F
330
1E
100
AcDbEntity
  8
7
100
AcDbLine
 10
12.72963012606154
 20
12.29935524285797
 30
0.0
 11
12.71388209456547
 21
12.26785917986584
 31
0.0
  0
LINE
  5
3160
330
1E
100
AcDbEntity
  8
7
100
AcDbLine
 10
12.71388209456547
 20
12.26785917986584
 30
0.0
 11
12.70863275073345
 21
12.2324261089997
 31
0.0
  0
LINE
  5
3161
330
1E
100
AcDbEntity
  8
7
100
AcDbLine
 10
12.70863275073345
 20
12.2324261089997
 30
0.0
 11
12.71388209456547
 21
12.19699303813356
 31
0.0
  0
LINE
  5
3162
330
1E
100
AcDbEntity
  8
7
100
AcDbLine
 10
12.71388209456547
 20
12.19699303813356
 30
0.0
 11
12.72963012606154
 21
12.16549697514144
 31
0.0
  0
LINE
  5
3163
330
1E
100
AcDbEntity
  8
7
100
AcDbLine
 10
12.72963012606154
 20
12.16549697514144
 30
0.0
 11
12.75456450926363
 21
12.14056259193934
 31
0.0
  0
LINE
  5
3164
330
1E
100
AcDbEntity
  8
7
100
AcDbLine
 10
12.75456450926363
 20
12.14056259193934
 30
0.0
 11
12.78606057225576
 21
12.12481456044327
 31
0.0
  0
LINE
  5
3165
330
1E
100
AcDbEntity
  8
7
100
AcDbLine
 10
12.78606057225576
 20
12.12481456044327
 30
0.0
 11
12.8214936431219
 21
12.11956521661125
 31
0.0
  0
LINE
  5
3166
330
1E
100
AcDbEntity
  8
7
100
AcDbLine
 10
12.8214936431219
 20
12.34528700138816
 30
0.0
 11
12.78606057225576
 21
12.34003765755613
 31
0.0
  0
LINE
  5
3167
330
1E
100
AcDbEntity
  8
7
100
AcDbLine
 10
12.78606057225576
 20
12.34003765755613
 30
0.0
 11
12.75456450926363
 21
12.32428962606007
 31
0.0
  0
LINE
  5
3168
330
1E
100
AcDbEntity
  8
7
100
AcDbLine
 10
12.75456450926363
 20
12.32428962606007
 30
0.0
 11
12.72963012606154
 21
12.29935524285797
 31
0.0
  0
LINE
  5
3169
330
1E
100
AcDbEntity
  8
7
100
AcDbLine
 10
13.01178235703266
 20
12.20355471792359
 30
0.0
 11
13.01703170086468
 21
12.2324261089997
 31
0.0
  0
LINE
  5
316A
330
1E
100
AcDbEntity
  8
7
100
AcDbLine
 10
13.01703170086468
 20
12.2324261089997
 30
0.0
 11
13.01178235703266
 21
12.26129750007582
 31
0.0
  0
LINE
  5
316B
330
1E
100
AcDbEntity
  8
7
100
AcDbLine
 10
13.01178235703266
 20
12.26129750007582
 30
0.0
 11
12.99472198957859
 21
12.28491954731991
 31
0.0
  0
LINE
  5
316C
330
1E
100
AcDbEntity
  8
7
100
AcDbLine
 10
12.99472198957859
 20
12.28491954731991
 30
0.0
 11
12.9710999423345
 21
12.30197991477398
 31
0.0
  0
LINE
  5
316D
330
1E
100
AcDbEntity
  8
7
100
AcDbLine
 10
12.9710999423345
 20
12.30197991477398
 30
0.0
 11
12.94222855125839
 21
12.307229258606
 31
0.0
  0
LINE
  5
316E
330
1E
100
AcDbEntity
  8
7
100
AcDbLine
 10
12.94222855125839
 20
12.15762295939341
 30
0.0
 11
12.9710999423345
 21
12.16287230322542
 31
0.0
  0
LINE
  5
316F
330
1E
100
AcDbEntity
  8
7
100
AcDbLine
 10
12.9710999423345
 20
12.16287230322542
 30
0.0
 11
12.99472198957859
 21
12.17993267067949
 31
0.0
  0
LINE
  5
3170
330
1E
100
AcDbEntity
  8
7
100
AcDbLine
 10
12.99472198957859
 20
12.17993267067949
 30
0.0
 11
13.01178235703266
 21
12.20355471792359
 31
0.0
  0
LINE
  5
3171
330
1E
100
AcDbEntity
  8
7
100
AcDbLine
 10
12.76900020480169
 20
12.28491954731991
 30
0.0
 11
12.75193983734762
 21
12.26129750007582
 31
0.0
  0
LINE
  5
3172
330
1E
100
AcDbEntity
  8
7
100
AcDbLine
 10
12.75193983734762
 20
12.26129750007582
 30
0.0
 11
12.7466904935156
 21
12.2324261089997
 31
0.0
  0
LINE
  5
3173
330
1E
100
AcDbEntity
  8
7
100
AcDbLine
 10
12.7466904935156
 20
12.2324261089997
 30
0.0
 11
12.75193983734762
 21
12.20355471792359
 31
0.0
  0
LINE
  5
3174
330
1E
100
AcDbEntity
  8
7
100
AcDbLine
 10
12.75193983734762
 20
12.20355471792359
 30
0.0
 11
12.76900020480169
 21
12.17993267067949
 31
0.0
  0
LINE
  5
3175
330
1E
100
AcDbEntity
  8
7
100
AcDbLine
 10
12.76900020480169
 20
12.17993267067949
 30
0.0
 11
12.79262225204579
 21
12.16287230322542
 31
0.0
  0
LINE
  5
3176
330
1E
100
AcDbEntity
  8
7
100
AcDbLine
 10
12.79262225204579
 20
12.16287230322542
 30
0.0
 11
12.8214936431219
 21
12.15762295939341
 31
0.0
  0
LINE
  5
3177
330
1E
100
AcDbEntity
  8
7
100
AcDbLine
 10
12.8214936431219
 20
12.307229258606
 30
0.0
 11
12.79262225204579
 21
12.30197991477398
 31
0.0
  0
LINE
  5
3178
330
1E
100
AcDbEntity
  8
7
100
AcDbLine
 10
12.79262225204579
 20
12.30197991477398
 30
0.0
 11
12.76900020480169
 21
12.28491954731991
 31
0.0
  0
LINE
  5
3179
330
1E
100
AcDbEntity
  8
7
100
AcDbLine
 10
13.30180860375183
 20
13.41090379928842
 30
0.0
 11
13.30180860375183
 21
13.3807200722543
 31
0.0
  0
LINE
  5
317A
330
1E
100
AcDbEntity
  8
7
100
AcDbLine
 10
13.30180860375183
 20
13.3807200722543
 30
0.0
 11
13.30180860375183
 21
13.37547072842228
 31
0.0
  0
LINE
  5
317B
330
1E
100
AcDbEntity
  8
7
100
AcDbLine
 10
13.30180860375183
 20
13.37547072842228
 30
0.0
 11
13.30180860375183
 21
13.35841036096821
 31
0.0
  0
LINE
  5
317C
330
1E
100
AcDbEntity
  8
7
100
AcDbLine
 10
13.30180860375183
 20
13.35841036096821
 30
0.0
 11
13.30180860375183
 21
13.34003765755614
 31
0.0
  0
LINE
  5
317D
330
1E
100
AcDbEntity
  8
7
100
AcDbLine
 10
13.30180860375183
 20
13.34003765755614
 30
0.0
 11
13.30180860375183
 21
13.32822663393409
 31
0.0
  0
LINE
  5
317E
330
1E
100
AcDbEntity
  8
7
100
AcDbLine
 10
13.30180860375183
 20
13.32822663393409
 30
0.0
 11
13.30180860375183
 21
13.31772794627005
 31
0.0
  0
LINE
  5
317F
330
1E
100
AcDbEntity
  8
7
100
AcDbLine
 10
13.30180860375183
 20
13.31772794627005
 30
0.0
 11
13.30180860375183
 21
13.31379093839603
 31
0.0
  0
LINE
  5
3180
330
1E
100
AcDbEntity
  8
7
100
AcDbLine
 10
13.30180860375183
 20
13.31379093839603
 30
0.0
 11
13.32674298695392
 21
13.30197991477398
 31
0.0
  0
LINE
  5
3181
330
1E
100
AcDbEntity
  8
7
100
AcDbLine
 10
13.097084194303
 20
13.34003765755614
 30
0.0
 11
13.097084194303
 21
13.35841036096821
 31
0.0
  0
LINE
  5
3182
330
1E
100
AcDbEntity
  8
7
100
AcDbLine
 10
13.097084194303
 20
13.35841036096821
 30
0.0
 11
13.095771858345
 21
13.37547072842228
 31
0.0
  0
LINE
  5
3183
330
1E
100
AcDbEntity
  8
7
100
AcDbLine
 10
13.095771858345
 20
13.37547072842228
 30
0.0
 11
13.095771858345
 21
13.3807200722543
 31
0.0
  0
LINE
  5
3184
330
1E
100
AcDbEntity
  8
7
100
AcDbLine
 10
13.07214981110091
 20
13.30197991477398
 30
0.0
 11
13.095771858345
 21
13.31379093839603
 31
0.0
  0
LINE
  5
3185
330
1E
100
AcDbEntity
  8
7
100
AcDbLine
 10
13.095771858345
 20
13.31379093839603
 30
0.0
 11
13.097084194303
 21
13.31772794627005
 31
0.0
  0
LINE
  5
3186
330
1E
100
AcDbEntity
  8
7
100
AcDbLine
 10
13.097084194303
 20
13.31772794627005
 30
0.0
 11
13.097084194303
 21
13.32822663393409
 31
0.0
  0
LINE
  5
3187
330
1E
100
AcDbEntity
  8
7
100
AcDbLine
 10
12.66795033603529
 20
13.31379093839603
 30
0.0
 11
12.66663800007728
 21
13.31772794627005
 31
0.0
  0
LINE
  5
3188
330
1E
100
AcDbEntity
  8
7
100
AcDbLine
 10
12.66663800007728
 20
13.31772794627005
 30
0.0
 11
12.66663800007728
 21
13.32822663393409
 31
0.0
  0
LINE
  5
3189
330
1E
100
AcDbEntity
  8
7
100
AcDbLine
 10
12.66663800007728
 20
13.34003765755614
 30
0.0
 11
12.66663800007728
 21
13.35841036096821
 31
0.0
  0
LINE
  5
318A
330
1E
100
AcDbEntity
  8
7
100
AcDbLine
 10
12.66663800007728
 20
13.35841036096821
 30
0.0
 11
12.66663800007728
 21
13.37547072842228
 31
0.0
  0
LINE
  5
318B
330
1E
100
AcDbEntity
  8
7
100
AcDbLine
 10
12.46060125467046
 20
13.37547072842228
 30
0.0
 11
12.46191359062846
 21
13.35841036096821
 31
0.0
  0
LINE
  5
318C
330
1E
100
AcDbEntity
  8
7
100
AcDbLine
 10
12.46191359062846
 20
13.35841036096821
 30
0.0
 11
12.46191359062846
 21
13.34003765755614
 31
0.0
  0
LINE
  5
318D
330
1E
100
AcDbEntity
  8
7
100
AcDbLine
 10
12.46191359062846
 20
13.32822663393409
 30
0.0
 11
12.46191359062846
 21
13.31772794627005
 31
0.0
  0
LINE
  5
318E
330
1E
100
AcDbEntity
  8
7
100
AcDbLine
 10
12.46191359062846
 20
13.31772794627005
 30
0.0
 11
12.46060125467046
 21
13.31379093839603
 31
0.0
  0
LINE
  5
318F
330
1E
100
AcDbEntity
  8
7
100
AcDbLine
 10
11.73487946989355
 20
11.85184868117818
 30
0.0
 11
11.69157238327938
 21
11.82035261818606
 31
0.0
  0
LINE
  5
3190
330
1E
100
AcDbEntity
  8
7
100
AcDbLine
 10
11.69157238327938
 20
11.82035261818606
 30
0.0
 11
11.65088996858122
 21
11.79016889115193
 31
0.0
  0
LINE
  5
3191
330
1E
100
AcDbEntity
  8
7
100
AcDbLine
 10
11.65088996858122
 20
11.79016889115193
 30
0.0
 11
11.61283222579907
 21
11.76260983603382
 31
0.0
  0
LINE
  5
3192
330
1E
100
AcDbEntity
  8
7
100
AcDbLine
 10
11.61283222579907
 20
11.76260983603382
 30
0.0
 11
11.58002382684893
 21
11.73767545283173
 31
0.0
  0
LINE
  5
3193
330
1E
100
AcDbEntity
  8
7
100
AcDbLine
 10
11.58002382684893
 20
11.73767545283173
 30
0.0
 11
11.55115243577282
 21
11.71667807750364
 31
0.0
  0
LINE
  5
3194
330
1E
100
AcDbEntity
  8
7
100
AcDbLine
 10
11.55115243577282
 20
11.71667807750364
 30
0.0
 11
11.53015506044474
 21
11.70093004600758
 31
0.0
  0
LINE
  5
3195
330
1E
100
AcDbEntity
  8
7
100
AcDbLine
 10
11.53015506044474
 20
11.70093004600758
 30
0.0
 11
11.51571936490668
 21
11.69043135834354
 31
0.0
  0
LINE
  5
3196
330
1E
100
AcDbEntity
  8
7
100
AcDbLine
 10
11.51571936490668
 20
11.69043135834354
 30
0.0
 11
11.51047002107466
 21
11.68649435046952
 31
0.0
  0
LINE
  5
3197
330
1E
100
AcDbEntity
  8
7
100
AcDbLine
 10
11.51047002107466
 20
16.06051009850101
 30
0.0
 11
11.51571936490668
 21
16.055260754669
 31
0.0
  0
LINE
  5
3198
330
1E
100
AcDbEntity
  8
7
100
AcDbLine
 10
11.51571936490668
 20
16.055260754669
 30
0.0
 11
11.53015506044474
 21
16.04476206700495
 31
0.0
  0
LINE
  5
3199
330
1E
100
AcDbEntity
  8
7
100
AcDbLine
 10
11.53015506044474
 20
16.04476206700495
 30
0.0
 11
11.55115243577282
 21
16.02901403550889
 31
0.0
  0
LINE
  5
319A
330
1E
100
AcDbEntity
  8
7
100
AcDbLine
 10
11.55115243577282
 20
16.02901403550889
 30
0.0
 11
11.58002382684893
 21
16.00932899613881
 31
0.0
  0
LINE
  5
319B
330
1E
100
AcDbEntity
  8
7
100
AcDbLine
 10
11.58002382684893
 20
16.00932899613881
 30
0.0
 11
11.61283222579907
 21
15.98439461293671
 31
0.0
  0
LINE
  5
319C
330
1E
100
AcDbEntity
  8
7
100
AcDbLine
 10
11.61283222579907
 20
15.98439461293671
 30
0.0
 11
11.65088996858122
 21
15.9568355578186
 31
0.0
  0
LINE
  5
319D
330
1E
100
AcDbEntity
  8
7
100
AcDbLine
 10
11.65088996858122
 20
15.9568355578186
 30
0.0
 11
11.69157238327938
 21
15.92665183078448
 31
0.0
  0
LINE
  5
319E
330
1E
100
AcDbEntity
  8
7
100
AcDbLine
 10
14.14957763262322
 20
11.76260983603382
 30
0.0
 11
14.18369836753135
 21
11.73767545283173
 31
0.0
  0
LINE
  5
319F
330
1E
100
AcDbEntity
  8
7
100
AcDbLine
 10
14.18369836753135
 20
11.73767545283173
 30
0.0
 11
14.21125742264946
 21
11.71667807750364
 31
0.0
  0
LINE
  5
31A0
330
1E
100
AcDbEntity
  8
7
100
AcDbLine
 10
14.21125742264946
 20
11.71667807750364
 30
0.0
 11
14.23356713393555
 21
11.70093004600758
 31
0.0
  0
LINE
  5
31A1
330
1E
100
AcDbEntity
  8
7
100
AcDbLine
 10
14.23356713393555
 20
11.70093004600758
 30
0.0
 11
14.2466904935156
 21
11.69043135834354
 31
0.0
  0
LINE
  5
31A2
330
1E
100
AcDbEntity
  8
7
100
AcDbLine
 10
14.2466904935156
 20
11.69043135834354
 30
0.0
 11
14.25325217330563
 21
11.68649435046952
 31
0.0
  0
LINE
  5
31A3
330
1E
100
AcDbEntity
  8
7
100
AcDbLine
 10
14.02884272448673
 20
11.85184868117818
 30
0.0
 11
14.0708374751429
 21
11.82035261818606
 31
0.0
  0
LINE
  5
31A4
330
1E
100
AcDbEntity
  8
7
100
AcDbLine
 10
14.0708374751429
 20
11.82035261818606
 30
0.0
 11
14.11151988984106
 21
11.79016889115193
 31
0.0
  0
LINE
  5
31A5
330
1E
100
AcDbEntity
  8
7
100
AcDbLine
 10
14.11151988984106
 20
11.79016889115193
 30
0.0
 11
14.14957763262322
 21
11.76260983603382
 31
0.0
  0
LINE
  5
31A6
330
1E
100
AcDbEntity
  8
7
100
AcDbLine
 10
14.25325217330563
 20
16.06051009850101
 30
0.0
 11
14.2466904935156
 21
16.055260754669
 31
0.0
  0
LINE
  5
31A7
330
1E
100
AcDbEntity
  8
7
100
AcDbLine
 10
14.2466904935156
 20
16.055260754669
 30
0.0
 11
14.23356713393555
 21
16.04476206700495
 31
0.0
  0
LINE
  5
31A8
330
1E
100
AcDbEntity
  8
7
100
AcDbLine
 10
14.23356713393555
 20
16.04476206700495
 30
0.0
 11
14.21125742264946
 21
16.02901403550889
 31
0.0
  0
LINE
  5
31A9
330
1E
100
AcDbEntity
  8
7
100
AcDbLine
 10
14.21125742264946
 20
16.02901403550889
 30
0.0
 11
14.18369836753135
 21
16.00932899613881
 31
0.0
  0
LINE
  5
31AA
330
1E
100
AcDbEntity
  8
7
100
AcDbLine
 10
14.18369836753135
 20
16.00932899613881
 30
0.0
 11
14.14957763262322
 21
15.98439461293671
 31
0.0
  0
LINE
  5
31AB
330
1E
100
AcDbEntity
  8
7
100
AcDbLine
 10
14.14957763262322
 20
15.98439461293671
 30
0.0
 11
14.11151988984106
 21
15.9568355578186
 31
0.0
  0
LINE
  5
31AC
330
1E
100
AcDbEntity
  8
7
100
AcDbLine
 10
14.11151988984106
 20
15.9568355578186
 30
0.0
 11
14.0708374751429
 21
15.92665183078448
 31
0.0
  0
LINE
  5
31AD
330
1E
100
AcDbEntity
  8
7
100
AcDbLine
 10
14.0708374751429
 20
15.92665183078448
 30
0.0
 11
14.02884272448673
 21
15.89515576779235
 31
0.0
  0
LINE
  5
31AE
330
1E
100
AcDbEntity
  8
7
100
AcDbLine
 10
14.25718918117965
 20
16.06313477041703
 30
0.0
 11
14.25325217330563
 21
16.06051009850101
 31
0.0
  0
LINE
  5
31AF
330
1E
100
AcDbEntity
  8
7
100
AcDbLine
 10
14.25325217330563
 20
16.06051009850101
 30
0.0
 11
14.25325217330563
 21
11.68649435046952
 31
0.0
  0
LINE
  5
31B0
330
1E
100
AcDbEntity
  8
7
100
AcDbLine
 10
14.25325217330563
 20
11.68649435046952
 30
0.0
 11
14.25718918117965
 21
11.6825573425955
 31
0.0
  0
LINE
  5
31B1
330
1E
100
AcDbEntity
  8
7
100
AcDbLine
 10
11.50653301320064
 20
11.6825573425955
 30
0.0
 11
11.51178235703266
 21
11.66024763130941
 31
0.0
  0
LINE
  5
31B2
330
1E
100
AcDbEntity
  8
7
100
AcDbLine
 10
11.51178235703266
 20
11.66024763130941
 30
0.0
 11
11.52359338065471
 21
11.64056259193934
 31
0.0
  0
LINE
  5
31B3
330
1E
100
AcDbEntity
  8
7
100
AcDbLine
 10
11.52359338065471
 20
11.64056259193934
 30
0.0
 11
11.54327842002479
 21
11.62743923235928
 31
0.0
  0
LINE
  5
31B4
330
1E
100
AcDbEntity
  8
7
100
AcDbLine
 10
11.54327842002479
 20
11.62743923235928
 30
0.0
 11
11.56690046726888
 21
11.62350222448527
 31
0.0
  0
LINE
  5
31B5
330
1E
100
AcDbEntity
  8
7
100
AcDbLine
 10
14.25718918117965
 20
11.6825573425955
 30
0.0
 11
14.25193983734762
 21
11.66024763130941
 31
0.0
  0
LINE
  5
31B6
330
1E
100
AcDbEntity
  8
7
100
AcDbLine
 10
14.25193983734762
 20
11.66024763130941
 30
0.0
 11
14.23881647776757
 21
11.64056259193934
 31
0.0
  0
LINE
  5
31B7
330
1E
100
AcDbEntity
  8
7
100
AcDbLine
 10
14.23881647776757
 20
11.64056259193934
 30
0.0
 11
14.21913143839749
 21
11.62743923235928
 31
0.0
  0
LINE
  5
31B8
330
1E
100
AcDbEntity
  8
7
100
AcDbLine
 10
14.21913143839749
 20
11.62743923235928
 30
0.0
 11
14.1968217271114
 21
11.62350222448527
 31
0.0
  0
LINE
  5
31B9
330
1E
100
AcDbEntity
  8
7
100
AcDbLine
 10
14.1968217271114
 20
11.62350222448527
 30
0.0
 11
11.56690046726888
 21
11.62350222448527
 31
0.0
  0
LINE
  5
31BA
330
1E
100
AcDbEntity
  8
7
100
AcDbLine
 10
11.56690046726888
 20
16.12350222448527
 30
0.0
 11
14.1968217271114
 21
16.12350222448527
 31
0.0
  0
LINE
  5
31BB
330
1E
100
AcDbEntity
  8
7
100
AcDbLine
 10
14.1968217271114
 20
16.12350222448527
 30
0.0
 11
14.21913143839749
 21
16.11825288065325
 31
0.0
  0
LINE
  5
31BC
330
1E
100
AcDbEntity
  8
7
100
AcDbLine
 10
14.21913143839749
 20
16.11825288065325
 30
0.0
 11
14.23881647776757
 21
16.1051295210732
 31
0.0
  0
LINE
  5
31BD
330
1E
100
AcDbEntity
  8
7
100
AcDbLine
 10
14.23881647776757
 20
16.1051295210732
 30
0.0
 11
14.25193983734762
 21
16.08675681766112
 31
0.0
  0
LINE
  5
31BE
330
1E
100
AcDbEntity
  8
7
100
AcDbLine
 10
14.25193983734762
 20
16.08675681766112
 30
0.0
 11
14.25718918117965
 21
16.06313477041703
 31
0.0
  0
LINE
  5
31BF
330
1E
100
AcDbEntity
  8
7
100
AcDbLine
 10
11.56690046726888
 20
16.12350222448527
 30
0.0
 11
11.54327842002479
 21
16.11825288065325
 31
0.0
  0
LINE
  5
31C0
330
1E
100
AcDbEntity
  8
7
100
AcDbLine
 10
11.54327842002479
 20
16.11825288065325
 30
0.0
 11
11.52359338065471
 21
16.1051295210732
 31
0.0
  0
LINE
  5
31C1
330
1E
100
AcDbEntity
  8
7
100
AcDbLine
 10
11.52359338065471
 20
16.1051295210732
 30
0.0
 11
11.51178235703266
 21
16.08675681766112
 31
0.0
  0
LINE
  5
31C2
330
1E
100
AcDbEntity
  8
7
100
AcDbLine
 10
11.51178235703266
 20
16.08675681766112
 30
0.0
 11
11.50653301320064
 21
16.06313477041703
 31
0.0
  0
LINE
  5
31C3
330
1E
100
AcDbEntity
  8
7
100
AcDbLine
 10
12.25062750138962
 20
14.02770169955089
 30
0.0
 11
13.51309469299067
 21
14.02770169955089
 31
0.0
  0
LINE
  5
31C4
330
1E
100
AcDbEntity
  8
7
100
AcDbLine
 10
13.51309469299067
 20
14.02770169955089
 30
0.0
 11
13.51309469299067
 21
13.36628437671624
 31
0.0
  0
LINE
  5
31C5
330
1E
100
AcDbEntity
  8
7
100
AcDbLine
 10
12.95272723892243
 20
13.36628437671624
 30
0.0
 11
12.80968261949985
 21
13.36628437671624
 31
0.0
  0
LINE
  5
31C6
330
1E
100
AcDbEntity
  8
7
100
AcDbLine
 10
12.80968261949985
 20
13.36628437671624
 30
0.0
 11
12.80968261949985
 21
13.30066757881598
 31
0.0
  0
LINE
  5
31C7
330
1E
100
AcDbEntity
  8
7
100
AcDbLine
 10
12.80968261949985
 20
13.30066757881598
 30
0.0
 11
12.31886897120589
 21
13.30066757881598
 31
0.0
  0
LINE
  5
31C8
330
1E
100
AcDbEntity
  8
7
100
AcDbLine
 10
12.31886897120589
 20
13.30066757881598
 30
0.0
 11
12.31886897120589
 21
13.36628437671624
 31
0.0
  0
LINE
  5
31C9
330
1E
100
AcDbEntity
  8
7
100
AcDbLine
 10
12.31886897120589
 20
13.36628437671624
 30
0.0
 11
12.25062750138962
 21
13.36628437671624
 31
0.0
  0
LINE
  5
31CA
330
1E
100
AcDbEntity
  8
7
100
AcDbLine
 10
12.55902645152085
 20
15.58544448170311
 30
0.0
 11
12.55902645152085
 21
15.63531324810732
 31
0.0
  0
LINE
  5
31CB
330
1E
100
AcDbEntity
  8
7
100
AcDbLine
 10
12.55902645152085
 20
15.63531324810732
 30
0.0
 11
13.20338340690143
 21
15.63531324810732
 31
0.0
  0
LINE
  5
31CC
330
1E
100
AcDbEntity
  8
7
100
AcDbLine
 10
12.55902645152085
 20
15.44239986228054
 30
0.0
 11
12.53540440427676
 21
15.44239986228054
 31
0.0
  0
LINE
  5
31CD
330
1E
100
AcDbEntity
  8
7
100
AcDbLine
 10
12.53540440427676
 20
15.44239986228054
 30
0.0
 11
12.53540440427676
 21
15.58544448170311
 31
0.0
  0
LINE
  5
31CE
330
1E
100
AcDbEntity
  8
7
100
AcDbLine
 10
13.20338340690143
 20
15.39121875991834
 30
0.0
 11
12.55902645152085
 21
15.39121875991834
 31
0.0
  0
LINE
  5
31CF
330
1E
100
AcDbEntity
  8
7
100
AcDbLine
 10
12.55902645152085
 20
15.39121875991834
 30
0.0
 11
12.55902645152085
 21
15.44239986228054
 31
0.0
  0
LINE
  5
31D0
330
1E
100
AcDbEntity
  8
7
100
AcDbLine
 10
13.5209687087387
 20
14.3807200722543
 30
0.0
 11
13.5209687087387
 21
14.32953896989209
 31
0.0
  0
LINE
  5
31D1
330
1E
100
AcDbEntity
  8
7
100
AcDbLine
 10
13.5209687087387
 20
14.32953896989209
 30
0.0
 11
13.5459030919408
 21
14.32953896989209
 31
0.0
  0
LINE
  5
31D2
330
1E
100
AcDbEntity
  8
7
100
AcDbLine
 10
13.20338340690143
 20
12.35447335309419
 30
0.0
 11
13.20338340690143
 21
12.30329225073199
 31
0.0
  0
LINE
  5
31D3
330
1E
100
AcDbEntity
  8
7
100
AcDbLine
 10
13.20338340690143
 20
12.30329225073199
 30
0.0
 11
13.22831779010353
 21
12.30329225073199
 31
0.0
  0
LINE
  5
31D4
330
1E
100
AcDbEntity
  8
7
100
AcDbLine
 10
13.22831779010353
 20
12.30329225073199
 30
0.0
 11
13.22831779010353
 21
12.16155996726742
 31
0.0
  0
ENDSEC
  0
SECTION
  2
OBJECTS
  0
DICTIONARY
  5
C
330
0
100
AcDbDictionary
  3
ACAD_GROUP
350
D
  3
ACAD_MLINESTYLE
350
16
  3
ACAD_PLOTSETTINGS
350
18
  3
ACAD_LAYOUT
350
19
1001
ACAD
1000
TREAT_AS_HARD
1070
     0
  0
DICTIONARY
  5
4409
330
1E
100
AcDbDictionary
  3
ACAD_LAYOUTSELFREF
350
440A
  0
DICTIONARY
  5
4407
330
1A
100
AcDbDictionary
  3
ACAD_LAYOUTSELFREF
350
4408
  0
DICTIONARY
  5
D
102
{ACAD_REACTORS
330
C
102
}
330
C
100
AcDbDictionary
1001
ACAD
1000
TREAT_AS_HARD
1070
     0
  0
DICTIONARY
  5
16
102
{ACAD_REACTORS
330
C
102
}
330
C
100
AcDbDictionary
  3
STANDARD
350
17
1001
ACAD
1000
TREAT_AS_HARD
1070
     0
  0
DICTIONARY
  5
18
102
{ACAD_REACTORS
330
C
102
}
330
C
100
AcDbDictionary
1001
ACAD
1000
TREAT_AS_HARD
1070
     0
  0
DICTIONARY
  5
19
102
{ACAD_REACTORS
330
C
102
}
330
C
100
AcDbDictionary
1001
ACAD
1000
TREAT_AS_HARD
1070
     0
  0
XRECORD
  5
440A
102
{ACAD_REACTORS
330
4409
102
}
330
4409
100
AcDbXrecord
340
1E
  0
XRECORD
  5
4408
102
{ACAD_REACTORS
330
4407
102
}
330
4407
100
AcDbXrecord
340
1A
  0
MLINESTYLE
  5
17
102
{ACAD_REACTORS
330
16
102
}
330
16
100
AcDbMlineStyle
  2
STANDARD
 70
     0
  3

 62
   256
 51
90.0
 52
90.0
 71
     2
 49
0.5
 62
   256
  6
BYLAYER
 49
-0.5
 62
   256
  6
BYLAYER
  0
ENDSEC
  0
EOF
