  0
SECTION
  2
HEADER
  9
$ACADVER
  1
AC1012
  9
$DWGCODEPAGE
  3
ANSI_1252
  9
$INSBASE
 10
0.0
 20
0.0
 30
0.0
  9
$EXTMIN
 10
11.10772709165202
 20
11.87594607970205
 30
-0.0015258207003583
  9
$EXTMAX
 10
17.09161380339834
 20
16.37622073266681
 30
0.0000000349246037
  9
$LIMMIN
 10
0.0
 20
0.0
  9
$LIMMAX
 10
12.0
 20
9.0
  9
$ORTHOMODE
 70
     0
  9
$REGENMODE
 70
     1
  9
$FILLMODE
 70
     1
  9
$QTEXTMODE
 70
     0
  9
$MIRRTEXT
 70
     1
  9
$DRAGMODE
 70
     2
  9
$LTSCALE
 40
1.0
  9
$OSMODE
 70
    33
  9
$ATTMODE
 70
     1
  9
$TEXTSIZE
 40
0.2
  9
$TRACEWID
 40
0.05
  9
$TEXTSTYLE
  7
STANDARD
  9
$CLAYER
  8
0
  9
$CELTYPE
  6
BYLAYER
  9
$CECOLOR
 62
   256
  9
$CELTSCALE
 40
1.0
  9
$DELOBJ
 70
     1
  9
$DISPSILH
 70
     0
  9
$DIMSCALE
 40
1.0
  9
$DIMASZ
 40
0.18
  9
$DIMEXO
 40
0.0625
  9
$DIMDLI
 40
0.38
  9
$DIMRND
 40
0.0
  9
$DIMDLE
 40
0.0
  9
$DIMEXE
 40
0.18
  9
$DIMTP
 40
0.0
  9
$DIMTM
 40
0.0
  9
$DIMTXT
 40
0.18
  9
$DIMCEN
 40
0.09
  9
$DIMTSZ
 40
0.0
  9
$DIMTOL
 70
     0
  9
$DIMLIM
 70
     0
  9
$DIMTIH
 70
     1
  9
$DIMTOH
 70
     1
  9
$DIMSE1
 70
     0
  9
$DIMSE2
 70
     0
  9
$DIMTAD
 70
     0
  9
$DIMZIN
 70
     0
  9
$DIMBLK
  1

  9
$DIMASO
 70
     1
  9
$DIMSHO
 70
     1
  9
$DIMPOST
  1

  9
$DIMAPOST
  1

  9
$DIMALT
 70
     0
  9
$DIMALTD
 70
     2
  9
$DIMALTF
 40
25.4
  9
$DIMLFAC
 40
1.0
  9
$DIMTOFL
 70
     0
  9
$DIMTVP
 40
0.0
  9
$DIMTIX
 70
     0
  9
$DIMSOXD
 70
     0
  9
$DIMSAH
 70
     0
  9
$DIMBLK1
  1

  9
$DIMBLK2
  1

  9
$DIMSTYLE
  2
STANDARD
  9
$DIMCLRD
 70
     0
  9
$DIMCLRE
 70
     0
  9
$DIMCLRT
 70
     0
  9
$DIMTFAC
 40
1.0
  9
$DIMGAP
 40
0.09
  9
$DIMJUST
 70
     0
  9
$DIMSD1
 70
     0
  9
$DIMSD2
 70
     0
  9
$DIMTOLJ
 70
     1
  9
$DIMTZIN
 70
     0
  9
$DIMALTZ
 70
     0
  9
$DIMALTTZ
 70
     0
  9
$DIMFIT
 70
     5
  9
$DIMUPT
 70
     0
  9
$DIMUNIT
 70
     2
  9
$DIMDEC
 70
     4
  9
$DIMTDEC
 70
     4
  9
$DIMALTU
 70
     2
  9
$DIMALTTD
 70
     2
  9
$DIMTXSTY
  7
STANDARD
  9
$DIMAUNIT
 70
     0
  9
$LUNITS
 70
     2
  9
$LUPREC
 70
     4
  9
$SKETCHINC
 40
0.1
  9
$FILLETRAD
 40
0.0
  9
$AUNITS
 70
     0
  9
$AUPREC
 70
     0
  9
$MENU
  1
acad
  9
$ELEVATION
 40
0.0
  9
$PELEVATION
 40
0.0
  9
$THICKNESS
 40
0.0
  9
$LIMCHECK
 70
     0
  9
$BLIPMODE
 70
     0
  9
$CHAMFERA
 40
0.0
  9
$CHAMFERB
 40
0.0
  9
$CHAMFERC
 40
0.0
  9
$CHAMFERD
 40
0.0
  9
$SKPOLY
 70
     0
  9
$TDCREATE
 40
2452489.374085648
  9
$TDUPDATE
 40
2452489.407983958
  9
$TDINDWG
 40
0.0011474537
  9
$TDUSRTIMER
 40
0.0011474537
  9
$USRTIMER
 70
     1
  9
$ANGBASE
 50
0.0
  9
$ANGDIR
 70
     0
  9
$PDMODE
 70
     0
  9
$PDSIZE
 40
0.0
  9
$PLINEWID
 40
0.0
  9
$COORDS
 70
     0
  9
$SPLFRAME
 70
     0
  9
$SPLINETYPE
 70
     6
  9
$SPLINESEGS
 70
     8
  9
$ATTDIA
 70
     0
  9
$ATTREQ
 70
     1
  9
$HANDLING
 70
  4097
  9
$HANDSEED
  5
46E3
  9
$SURFTAB1
 70
     6
  9
$SURFTAB2
 70
     6
  9
$SURFTYPE
 70
     6
  9
$SURFU
 70
     6
  9
$SURFV
 70
     6
  9
$UCSNAME
  2

  9
$UCSORG
 10
0.0
 20
0.0
 30
0.0
  9
$UCSXDIR
 10
1.0
 20
0.0
 30
0.0
  9
$UCSYDIR
 10
0.0
 20
1.0
 30
0.0
  9
$PUCSNAME
  2

  9
$PUCSORG
 10
0.0
 20
0.0
 30
0.0
  9
$PUCSXDIR
 10
1.0
 20
0.0
 30
0.0
  9
$PUCSYDIR
 10
0.0
 20
1.0
 30
0.0
  9
$USERI1
 70
     0
  9
$USERI2
 70
     0
  9
$USERI3
 70
     0
  9
$USERI4
 70
     0
  9
$USERI5
 70
     0
  9
$USERR1
 40
0.0
  9
$USERR2
 40
0.0
  9
$USERR3
 40
0.0
  9
$USERR4
 40
0.0
  9
$USERR5
 40
0.0
  9
$WORLDVIEW
 70
     1
  9
$SHADEDGE
 70
     3
  9
$SHADEDIF
 70
    70
  9
$TILEMODE
 70
     1
  9
$MAXACTVP
 70
    16
  9
$PINSBASE
 10
0.0
 20
0.0
 30
0.0
  9
$PLIMCHECK
 70
     0
  9
$PEXTMIN
 10
1.000000000000000E+20
 20
1.000000000000000E+20
 30
1.000000000000000E+20
  9
$PEXTMAX
 10
-1.000000000000000E+20
 20
-1.000000000000000E+20
 30
-1.000000000000000E+20
  9
$PLIMMIN
 10
0.0
 20
0.0
  9
$PLIMMAX
 10
12.0
 20
9.0
  9
$UNITMODE
 70
     0
  9
$VISRETAIN
 70
     0
  9
$PLINEGEN
 70
     0
  9
$PSLTSCALE
 70
     1
  9
$TREEDEPTH
 70
  3020
  9
$PICKSTYLE
 70
     1
  9
$CMLSTYLE
  2
STANDARD
  9
$CMLJUST
 70
     0
  9
$CMLSCALE
 40
1.0
  9
$SAVEIMAGES
 70
     1
  0
ENDSEC
  0
SECTION
  2
CLASSES
  0
CLASS
  1
ACDBDICTIONARYWDFLT
  2
AcDbDictionaryWithDefault
  3
AutoCAD 2000
 90
    32768
280
     0
281
     0
  0
CLASS
  1
ACDBPLACEHOLDER
  2
AcDbPlaceHolder
  3
AutoCAD 2000
 90
    32768
280
     0
281
     0
  0
CLASS
  1
LAYOUT
  2
AcDbLayout
  3
AutoCAD 2000
 90
    32768
280
     0
281
     0
  0
CLASS
  1
LONG_TRANSACTION
  2
AcDbLongTransaction
  3
AutoCAD 2000
 90
    32768
280
     0
281
     0
  0
CLASS
  1
LWPOLYLINE
  2
AcDbPolyline
  3
AutoCAD 2000
 90
    32768
280
     0
281
     1
  0
CLASS
  1
HATCH
  2
AcDbHatch
  3
AutoCAD 2000
 90
    32768
280
     0
281
     1
  0
CLASS
  1
XRECORD
  2
AcDbXrecord
  3
AutoCAD 2000
 90
    32768
280
     0
281
     0
  0
ENDSEC
  0
SECTION
  2
TABLES
  0
TABLE
  2
VPORT
  5
8
330
0
100
AcDbSymbolTable
 70
     3
  0
VPORT
  5
46DE
330
8
100
AcDbSymbolTableRecord
100
AcDbViewportTableRecord
  2
*ACTIVE
 70
     0
 10
0.0
 20
0.0
 11
1.0
 21
1.0
 12
14.09967044752518
 22
14.12608340618443
 13
0.0
 23
0.0
 14
1.0
 24
1.0
 15
0.0
 25
0.0
 16
0.0
 26
0.0
 36
1.0
 17
0.0
 27
0.0
 37
0.0
 40
4.535617124061337
 41
1.618610747051113
 42
50.0
 43
0.0
 44
0.0
 50
0.0
 51
0.0
 71
     0
 72
   100
 73
     1
 74
     1
 75
     0
 76
     0
 77
     0
 78
     0
  0
ENDTAB
  0
TABLE
  2
LTYPE
  5
5
330
0
100
AcDbSymbolTable
 70
    25
  0
LTYPE
  5
13
330
5
100
AcDbSymbolTableRecord
100
AcDbLinetypeTableRecord
  2
BYBLOCK
 70
     0
  3

 72
    65
 73
     0
 40
0.0
  0
LTYPE
  5
14
330
5
100
AcDbSymbolTableRecord
100
AcDbLinetypeTableRecord
  2
BYLAYER
 70
     0
  3

 72
    65
 73
     0
 40
0.0
  0
LTYPE
  5
15
330
5
100
AcDbSymbolTableRecord
100
AcDbLinetypeTableRecord
  2
CONTINUOUS
 70
     0
  3
Solid line
 72
    65
 73
     0
 40
0.0
  0
LTYPE
  5
22
330
5
100
AcDbSymbolTableRecord
100
AcDbLinetypeTableRecord
  2
BORDER
 70
     0
  3
__ __ . __ __ . __ __ . __ __ . __ __ . __ __ .
 72
    65
 73
     6
 40
1.75
 49
0.5
 74
     0
 49
-0.25
 74
     0
 49
0.5
 74
     0
 49
-0.25
 74
     0
 49
0.5
 74
     0
 49
-0.25
 74
     0
  0
LTYPE
  5
23
330
5
100
AcDbSymbolTableRecord
100
AcDbLinetypeTableRecord
  2
BORDER2
 70
     0
  3
__.__.__.__.__.__.__.__.__.__.__.__.__.__.__.__
 72
    65
 73
     6
 40
0.875
 49
0.25
 74
     0
 49
-0.125
 74
     0
 49
0.25
 74
     0
 49
-0.125
 74
     0
 49
0.25
 74
     0
 49
-0.125
 74
     0
  0
LTYPE
  5
24
330
5
100
AcDbSymbolTableRecord
100
AcDbLinetypeTableRecord
  2
BORDERX2
 70
     0
  3
____  ____  .  ____  ____  .  
 72
    65
 73
     6
 40
3.5
 49
1.0
 74
     0
 49
-0.5
 74
     0
 49
1.0
 74
     0
 49
-0.5
 74
     0
 49
1.0
 74
     0
 49
-0.5
 74
     0
  0
LTYPE
  5
25
330
5
100
AcDbSymbolTableRecord
100
AcDbLinetypeTableRecord
  2
CENTER
 70
     0
  3
____ _ ____ _ ____ _ ____ _ ____ _ ____ _ ____
 72
    65
 73
     4
 40
2.0
 49
1.25
 74
     0
 49
-0.25
 74
     0
 49
0.25
 74
     0
 49
-0.25
 74
     0
  0
LTYPE
  5
26
330
5
100
AcDbSymbolTableRecord
100
AcDbLinetypeTableRecord
  2
CENTER2
 70
     0
  3
____ _ ____ _ ____ _ ____ _ ____ _ ____ _ ____
 72
    65
 73
     4
 40
1.125
 49
0.75
 74
     0
 49
-0.125
 74
     0
 49
0.125
 74
     0
 49
-0.125
 74
     0
  0
LTYPE
  5
27
330
5
100
AcDbSymbolTableRecord
100
AcDbLinetypeTableRecord
  2
CENTERX2
 70
     0
  3
________  __  ________  __  ________  __  
 72
    65
 73
     4
 40
4.0
 49
2.5
 74
     0
 49
-0.5
 74
     0
 49
0.5
 74
     0
 49
-0.5
 74
     0
  0
LTYPE
  5
28
330
5
100
AcDbSymbolTableRecord
100
AcDbLinetypeTableRecord
  2
DASHDOT
 70
     0
  3
__ . __ . __ . __ . __ . __ . __ . 
 72
    65
 73
     4
 40
1.0
 49
0.5
 74
     0
 49
-0.25
 74
     0
 49
0.0
 74
     0
 49
-0.25
 74
     0
  0
LTYPE
  5
29
330
5
100
AcDbSymbolTableRecord
100
AcDbLinetypeTableRecord
  2
DASHDOT2
 70
     0
  3
_._._._._._._._._._._._._._._._.
 72
    65
 73
     4
 40
0.5
 49
0.25
 74
     0
 49
-0.125
 74
     0
 49
0.0
 74
     0
 49
-0.125
 74
     0
  0
LTYPE
  5
2A
330
5
100
AcDbSymbolTableRecord
100
AcDbLinetypeTableRecord
  2
DASHDOTX2
 70
     0
  3
____  .  ____  .  ____  .  ____  .  
 72
    65
 73
     4
 40
2.0
 49
1.0
 74
     0
 49
-0.5
 74
     0
 49
0.0
 74
     0
 49
-0.5
 74
     0
  0
LTYPE
  5
2B
330
5
100
AcDbSymbolTableRecord
100
AcDbLinetypeTableRecord
  2
DASHED
 70
     0
  3
__ __ __ __ __ __ __ __ __ __ __ __ 
 72
    65
 73
     2
 40
0.75
 49
0.5
 74
     0
 49
-0.25
 74
     0
  0
LTYPE
  5
2C
330
5
100
AcDbSymbolTableRecord
100
AcDbLinetypeTableRecord
  2
DASHED2
 70
     0
  3
_ _ _ _ _ _ _ _ _ _ _ _ _ _ _ _ _ _ 
 72
    65
 73
     2
 40
0.375
 49
0.25
 74
     0
 49
-0.125
 74
     0
  0
LTYPE
  5
2D
330
5
100
AcDbSymbolTableRecord
100
AcDbLinetypeTableRecord
  2
DASHEDX2
 70
     0
  3
____  ____  ____  ____  ____  ____  
 72
    65
 73
     2
 40
1.5
 49
1.0
 74
     0
 49
-0.5
 74
     0
  0
LTYPE
  5
2E
330
5
100
AcDbSymbolTableRecord
100
AcDbLinetypeTableRecord
  2
DIVIDE
 70
     0
  3
____ . . ____ . . ____ . . ____ . . 
 72
    65
 73
     6
 40
1.25
 49
0.5
 74
     0
 49
-0.25
 74
     0
 49
0.0
 74
     0
 49
-0.25
 74
     0
 49
0.0
 74
     0
 49
-0.25
 74
     0
  0
LTYPE
  5
2F
330
5
100
AcDbSymbolTableRecord
100
AcDbLinetypeTableRecord
  2
DIVIDE2
 70
     0
  3
__..__..__..__..__..__..__..__..__..
 72
    65
 73
     6
 40
0.625
 49
0.25
 74
     0
 49
-0.125
 74
     0
 49
0.0
 74
     0
 49
-0.125
 74
     0
 49
0.0
 74
     0
 49
-0.125
 74
     0
  0
LTYPE
  5
30
330
5
100
AcDbSymbolTableRecord
100
AcDbLinetypeTableRecord
  2
DIVIDEX2
 70
     0
  3
________  .  .  ________  .  .  ________  .  . 
 72
    65
 73
     6
 40
2.5
 49
1.0
 74
     0
 49
-0.5
 74
     0
 49
0.0
 74
     0
 49
-0.5
 74
     0
 49
0.0
 74
     0
 49
-0.5
 74
     0
  0
LTYPE
  5
31
330
5
100
AcDbSymbolTableRecord
100
AcDbLinetypeTableRecord
  2
DOT
 70
     0
  3
. . . . . . . . . . . . . . . . . . 
 72
    65
 73
     2
 40
0.25
 49
0.0
 74
     0
 49
-0.25
 74
     0
  0
LTYPE
  5
32
330
5
100
AcDbSymbolTableRecord
100
AcDbLinetypeTableRecord
  2
DOT2
 70
     0
  3
....................................
 72
    65
 73
     2
 40
0.125
 49
0.0
 74
     0
 49
-0.125
 74
     0
  0
LTYPE
  5
33
330
5
100
AcDbSymbolTableRecord
100
AcDbLinetypeTableRecord
  2
DOTX2
 70
     0
  3
.  .  .  .  .  .  .  .  .  .  .  .  .  
 72
    65
 73
     2
 40
0.5
 49
0.0
 74
     0
 49
-0.5
 74
     0
  0
LTYPE
  5
34
330
5
100
AcDbSymbolTableRecord
100
AcDbLinetypeTableRecord
  2
HIDDEN
 70
     0
  3
__ __ __ __ __ __ __ __ __ __ __ __ 
 72
    65
 73
     2
 40
0.375
 49
0.25
 74
     0
 49
-0.125
 74
     0
  0
LTYPE
  5
35
330
5
100
AcDbSymbolTableRecord
100
AcDbLinetypeTableRecord
  2
HIDDEN2
 70
     0
  3
_ _ _ _ _ _ _ _ _ _ _ _ _ _ _ _ _ _ 
 72
    65
 73
     2
 40
0.1875
 49
0.125
 74
     0
 49
-0.0625
 74
     0
  0
LTYPE
  5
36
330
5
100
AcDbSymbolTableRecord
100
AcDbLinetypeTableRecord
  2
HIDDENX2
 70
     0
  3
____ ____ ____ ____ ____ ____ ____ 
 72
    65
 73
     2
 40
0.75
 49
0.5
 74
     0
 49
-0.25
 74
     0
  0
LTYPE
  5
37
330
5
100
AcDbSymbolTableRecord
100
AcDbLinetypeTableRecord
  2
PHANTOM
 70
     0
  3
______  __  __  ______  __  __  
 72
    65
 73
     6
 40
2.5
 49
1.25
 74
     0
 49
-0.25
 74
     0
 49
0.25
 74
     0
 49
-0.25
 74
     0
 49
0.25
 74
     0
 49
-0.25
 74
     0
  0
LTYPE
  5
38
330
5
100
AcDbSymbolTableRecord
100
AcDbLinetypeTableRecord
  2
PHANTOM2
 70
     0
  3
___ _ _ ___ _ _ ___ _ _ ___ _ _ 
 72
    65
 73
     6
 40
1.25
 49
0.625
 74
     0
 49
-0.125
 74
     0
 49
0.125
 74
     0
 49
-0.125
 74
     0
 49
0.125
 74
     0
 49
-0.125
 74
     0
  0
LTYPE
  5
39
330
5
100
AcDbSymbolTableRecord
100
AcDbLinetypeTableRecord
  2
PHANTOMX2
 70
     0
  3
___ _ _ ___ _ _ ___ _ _ ___ _ _ 
 72
    65
 73
     6
 40
5.0
 49
2.5
 74
     0
 49
-0.5
 74
     0
 49
0.5
 74
     0
 49
-0.5
 74
     0
 49
0.5
 74
     0
 49
-0.5
 74
     0
  0
ENDTAB
  0
TABLE
  2
LAYER
  5
2
330
0
100
AcDbSymbolTable
 70
   256
  0
LAYER
  5
10
330
2
100
AcDbSymbolTableRecord
100
AcDbLayerTableRecord
  2
0
 70
     0
 62
     7
  6
CONTINUOUS
  0
LAYER
  5
3A
330
2
100
AcDbSymbolTableRecord
100
AcDbLayerTableRecord
  2
1
 70
     0
 62
     1
  6
CONTINUOUS
  0
LAYER
  5
3B
330
2
100
AcDbSymbolTableRecord
100
AcDbLayerTableRecord
  2
2
 70
     0
 62
     2
  6
CONTINUOUS
  0
LAYER
  5
3C
330
2
100
AcDbSymbolTableRecord
100
AcDbLayerTableRecord
  2
3
 70
     0
 62
     3
  6
CONTINUOUS
  0
LAYER
  5
3D
330
2
100
AcDbSymbolTableRecord
100
AcDbLayerTableRecord
  2
4
 70
     0
 62
     4
  6
CONTINUOUS
  0
LAYER
  5
3E
330
2
100
AcDbSymbolTableRecord
100
AcDbLayerTableRecord
  2
5
 70
     0
 62
     5
  6
CONTINUOUS
  0
LAYER
  5
3F
330
2
100
AcDbSymbolTableRecord
100
AcDbLayerTableRecord
  2
6
 70
     0
 62
     6
  6
CONTINUOUS
  0
LAYER
  5
40
330
2
100
AcDbSymbolTableRecord
100
AcDbLayerTableRecord
  2
7
 70
     0
 62
     7
  6
CONTINUOUS
  0
LAYER
  5
41
330
2
100
AcDbSymbolTableRecord
100
AcDbLayerTableRecord
  2
8
 70
     0
 62
     8
  6
CONTINUOUS
  0
LAYER
  5
42
330
2
100
AcDbSymbolTableRecord
100
AcDbLayerTableRecord
  2
9
 70
     0
 62
     9
  6
CONTINUOUS
  0
LAYER
  5
43
330
2
100
AcDbSymbolTableRecord
100
AcDbLayerTableRecord
  2
10
 70
     0
 62
    10
  6
CONTINUOUS
  0
LAYER
  5
44
330
2
100
AcDbSymbolTableRecord
100
AcDbLayerTableRecord
  2
11
 70
     0
 62
    11
  6
CONTINUOUS
  0
LAYER
  5
45
330
2
100
AcDbSymbolTableRecord
100
AcDbLayerTableRecord
  2
12
 70
     0
 62
    12
  6
CONTINUOUS
  0
LAYER
  5
46
330
2
100
AcDbSymbolTableRecord
100
AcDbLayerTableRecord
  2
13
 70
     0
 62
    13
  6
CONTINUOUS
  0
LAYER
  5
47
330
2
100
AcDbSymbolTableRecord
100
AcDbLayerTableRecord
  2
14
 70
     0
 62
    14
  6
CONTINUOUS
  0
LAYER
  5
48
330
2
100
AcDbSymbolTableRecord
100
AcDbLayerTableRecord
  2
15
 70
     0
 62
    15
  6
CONTINUOUS
  0
LAYER
  5
49
330
2
100
AcDbSymbolTableRecord
100
AcDbLayerTableRecord
  2
16
 70
     0
 62
    16
  6
CONTINUOUS
  0
LAYER
  5
4A
330
2
100
AcDbSymbolTableRecord
100
AcDbLayerTableRecord
  2
17
 70
     0
 62
    17
  6
CONTINUOUS
  0
LAYER
  5
4B
330
2
100
AcDbSymbolTableRecord
100
AcDbLayerTableRecord
  2
18
 70
     0
 62
    18
  6
CONTINUOUS
  0
LAYER
  5
4C
330
2
100
AcDbSymbolTableRecord
100
AcDbLayerTableRecord
  2
19
 70
     0
 62
    19
  6
CONTINUOUS
  0
LAYER
  5
4D
330
2
100
AcDbSymbolTableRecord
100
AcDbLayerTableRecord
  2
20
 70
     0
 62
    20
  6
CONTINUOUS
  0
LAYER
  5
4E
330
2
100
AcDbSymbolTableRecord
100
AcDbLayerTableRecord
  2
21
 70
     0
 62
    21
  6
CONTINUOUS
  0
LAYER
  5
4F
330
2
100
AcDbSymbolTableRecord
100
AcDbLayerTableRecord
  2
22
 70
     0
 62
    22
  6
CONTINUOUS
  0
LAYER
  5
50
330
2
100
AcDbSymbolTableRecord
100
AcDbLayerTableRecord
  2
23
 70
     0
 62
    23
  6
CONTINUOUS
  0
LAYER
  5
51
330
2
100
AcDbSymbolTableRecord
100
AcDbLayerTableRecord
  2
24
 70
     0
 62
    24
  6
CONTINUOUS
  0
LAYER
  5
52
330
2
100
AcDbSymbolTableRecord
100
AcDbLayerTableRecord
  2
25
 70
     0
 62
    25
  6
CONTINUOUS
  0
LAYER
  5
53
330
2
100
AcDbSymbolTableRecord
100
AcDbLayerTableRecord
  2
26
 70
     0
 62
    26
  6
CONTINUOUS
  0
LAYER
  5
54
330
2
100
AcDbSymbolTableRecord
100
AcDbLayerTableRecord
  2
27
 70
     0
 62
    27
  6
CONTINUOUS
  0
LAYER
  5
55
330
2
100
AcDbSymbolTableRecord
100
AcDbLayerTableRecord
  2
28
 70
     0
 62
    28
  6
CONTINUOUS
  0
LAYER
  5
56
330
2
100
AcDbSymbolTableRecord
100
AcDbLayerTableRecord
  2
29
 70
     0
 62
    29
  6
CONTINUOUS
  0
LAYER
  5
57
330
2
100
AcDbSymbolTableRecord
100
AcDbLayerTableRecord
  2
30
 70
     0
 62
    30
  6
CONTINUOUS
  0
LAYER
  5
58
330
2
100
AcDbSymbolTableRecord
100
AcDbLayerTableRecord
  2
31
 70
     0
 62
    31
  6
CONTINUOUS
  0
LAYER
  5
59
330
2
100
AcDbSymbolTableRecord
100
AcDbLayerTableRecord
  2
32
 70
     0
 62
    32
  6
CONTINUOUS
  0
LAYER
  5
5A
330
2
100
AcDbSymbolTableRecord
100
AcDbLayerTableRecord
  2
33
 70
     0
 62
    33
  6
CONTINUOUS
  0
LAYER
  5
5B
330
2
100
AcDbSymbolTableRecord
100
AcDbLayerTableRecord
  2
34
 70
     0
 62
    34
  6
CONTINUOUS
  0
LAYER
  5
5C
330
2
100
AcDbSymbolTableRecord
100
AcDbLayerTableRecord
  2
35
 70
     0
 62
    35
  6
CONTINUOUS
  0
LAYER
  5
5D
330
2
100
AcDbSymbolTableRecord
100
AcDbLayerTableRecord
  2
36
 70
     0
 62
    36
  6
CONTINUOUS
  0
LAYER
  5
5E
330
2
100
AcDbSymbolTableRecord
100
AcDbLayerTableRecord
  2
37
 70
     0
 62
    37
  6
CONTINUOUS
  0
LAYER
  5
5F
330
2
100
AcDbSymbolTableRecord
100
AcDbLayerTableRecord
  2
38
 70
     0
 62
    38
  6
CONTINUOUS
  0
LAYER
  5
60
330
2
100
AcDbSymbolTableRecord
100
AcDbLayerTableRecord
  2
39
 70
     0
 62
    39
  6
CONTINUOUS
  0
LAYER
  5
61
330
2
100
AcDbSymbolTableRecord
100
AcDbLayerTableRecord
  2
40
 70
     0
 62
    40
  6
CONTINUOUS
  0
LAYER
  5
62
330
2
100
AcDbSymbolTableRecord
100
AcDbLayerTableRecord
  2
41
 70
     0
 62
    41
  6
CONTINUOUS
  0
LAYER
  5
63
330
2
100
AcDbSymbolTableRecord
100
AcDbLayerTableRecord
  2
42
 70
     0
 62
    42
  6
CONTINUOUS
  0
LAYER
  5
64
330
2
100
AcDbSymbolTableRecord
100
AcDbLayerTableRecord
  2
43
 70
     0
 62
    43
  6
CONTINUOUS
  0
LAYER
  5
65
330
2
100
AcDbSymbolTableRecord
100
AcDbLayerTableRecord
  2
44
 70
     0
 62
    44
  6
CONTINUOUS
  0
LAYER
  5
66
330
2
100
AcDbSymbolTableRecord
100
AcDbLayerTableRecord
  2
45
 70
     0
 62
    45
  6
CONTINUOUS
  0
LAYER
  5
67
330
2
100
AcDbSymbolTableRecord
100
AcDbLayerTableRecord
  2
46
 70
     0
 62
    46
  6
CONTINUOUS
  0
LAYER
  5
68
330
2
100
AcDbSymbolTableRecord
100
AcDbLayerTableRecord
  2
47
 70
     0
 62
    47
  6
CONTINUOUS
  0
LAYER
  5
69
330
2
100
AcDbSymbolTableRecord
100
AcDbLayerTableRecord
  2
48
 70
     0
 62
    48
  6
CONTINUOUS
  0
LAYER
  5
6A
330
2
100
AcDbSymbolTableRecord
100
AcDbLayerTableRecord
  2
49
 70
     0
 62
    49
  6
CONTINUOUS
  0
LAYER
  5
6B
330
2
100
AcDbSymbolTableRecord
100
AcDbLayerTableRecord
  2
50
 70
     0
 62
    50
  6
CONTINUOUS
  0
LAYER
  5
6C
330
2
100
AcDbSymbolTableRecord
100
AcDbLayerTableRecord
  2
51
 70
     0
 62
    51
  6
CONTINUOUS
  0
LAYER
  5
6D
330
2
100
AcDbSymbolTableRecord
100
AcDbLayerTableRecord
  2
52
 70
     0
 62
    52
  6
CONTINUOUS
  0
LAYER
  5
6E
330
2
100
AcDbSymbolTableRecord
100
AcDbLayerTableRecord
  2
53
 70
     0
 62
    53
  6
CONTINUOUS
  0
LAYER
  5
6F
330
2
100
AcDbSymbolTableRecord
100
AcDbLayerTableRecord
  2
54
 70
     0
 62
    54
  6
CONTINUOUS
  0
LAYER
  5
70
330
2
100
AcDbSymbolTableRecord
100
AcDbLayerTableRecord
  2
55
 70
     0
 62
    55
  6
CONTINUOUS
  0
LAYER
  5
71
330
2
100
AcDbSymbolTableRecord
100
AcDbLayerTableRecord
  2
56
 70
     0
 62
    56
  6
CONTINUOUS
  0
LAYER
  5
72
330
2
100
AcDbSymbolTableRecord
100
AcDbLayerTableRecord
  2
57
 70
     0
 62
    57
  6
CONTINUOUS
  0
LAYER
  5
73
330
2
100
AcDbSymbolTableRecord
100
AcDbLayerTableRecord
  2
58
 70
     0
 62
    58
  6
CONTINUOUS
  0
LAYER
  5
74
330
2
100
AcDbSymbolTableRecord
100
AcDbLayerTableRecord
  2
59
 70
     0
 62
    59
  6
CONTINUOUS
  0
LAYER
  5
75
330
2
100
AcDbSymbolTableRecord
100
AcDbLayerTableRecord
  2
60
 70
     0
 62
    60
  6
CONTINUOUS
  0
LAYER
  5
76
330
2
100
AcDbSymbolTableRecord
100
AcDbLayerTableRecord
  2
61
 70
     0
 62
    61
  6
CONTINUOUS
  0
LAYER
  5
77
330
2
100
AcDbSymbolTableRecord
100
AcDbLayerTableRecord
  2
62
 70
     0
 62
    62
  6
CONTINUOUS
  0
LAYER
  5
78
330
2
100
AcDbSymbolTableRecord
100
AcDbLayerTableRecord
  2
63
 70
     0
 62
    63
  6
CONTINUOUS
  0
LAYER
  5
79
330
2
100
AcDbSymbolTableRecord
100
AcDbLayerTableRecord
  2
64
 70
     0
 62
    64
  6
CONTINUOUS
  0
LAYER
  5
7A
330
2
100
AcDbSymbolTableRecord
100
AcDbLayerTableRecord
  2
65
 70
     0
 62
    65
  6
CONTINUOUS
  0
LAYER
  5
7B
330
2
100
AcDbSymbolTableRecord
100
AcDbLayerTableRecord
  2
66
 70
     0
 62
    66
  6
CONTINUOUS
  0
LAYER
  5
7C
330
2
100
AcDbSymbolTableRecord
100
AcDbLayerTableRecord
  2
67
 70
     0
 62
    67
  6
CONTINUOUS
  0
LAYER
  5
7D
330
2
100
AcDbSymbolTableRecord
100
AcDbLayerTableRecord
  2
68
 70
     0
 62
    68
  6
CONTINUOUS
  0
LAYER
  5
7E
330
2
100
AcDbSymbolTableRecord
100
AcDbLayerTableRecord
  2
69
 70
     0
 62
    69
  6
CONTINUOUS
  0
LAYER
  5
7F
330
2
100
AcDbSymbolTableRecord
100
AcDbLayerTableRecord
  2
70
 70
     0
 62
    70
  6
CONTINUOUS
  0
LAYER
  5
80
330
2
100
AcDbSymbolTableRecord
100
AcDbLayerTableRecord
  2
71
 70
     0
 62
    71
  6
CONTINUOUS
  0
LAYER
  5
81
330
2
100
AcDbSymbolTableRecord
100
AcDbLayerTableRecord
  2
72
 70
     0
 62
    72
  6
CONTINUOUS
  0
LAYER
  5
82
330
2
100
AcDbSymbolTableRecord
100
AcDbLayerTableRecord
  2
73
 70
     0
 62
    73
  6
CONTINUOUS
  0
LAYER
  5
83
330
2
100
AcDbSymbolTableRecord
100
AcDbLayerTableRecord
  2
74
 70
     0
 62
    74
  6
CONTINUOUS
  0
LAYER
  5
84
330
2
100
AcDbSymbolTableRecord
100
AcDbLayerTableRecord
  2
75
 70
     0
 62
    75
  6
CONTINUOUS
  0
LAYER
  5
85
330
2
100
AcDbSymbolTableRecord
100
AcDbLayerTableRecord
  2
76
 70
     0
 62
    76
  6
CONTINUOUS
  0
LAYER
  5
86
330
2
100
AcDbSymbolTableRecord
100
AcDbLayerTableRecord
  2
77
 70
     0
 62
    77
  6
CONTINUOUS
  0
LAYER
  5
87
330
2
100
AcDbSymbolTableRecord
100
AcDbLayerTableRecord
  2
78
 70
     0
 62
    78
  6
CONTINUOUS
  0
LAYER
  5
88
330
2
100
AcDbSymbolTableRecord
100
AcDbLayerTableRecord
  2
79
 70
     0
 62
    79
  6
CONTINUOUS
  0
LAYER
  5
89
330
2
100
AcDbSymbolTableRecord
100
AcDbLayerTableRecord
  2
80
 70
     0
 62
    80
  6
CONTINUOUS
  0
LAYER
  5
8A
330
2
100
AcDbSymbolTableRecord
100
AcDbLayerTableRecord
  2
81
 70
     0
 62
    81
  6
CONTINUOUS
  0
LAYER
  5
8B
330
2
100
AcDbSymbolTableRecord
100
AcDbLayerTableRecord
  2
82
 70
     0
 62
    82
  6
CONTINUOUS
  0
LAYER
  5
8C
330
2
100
AcDbSymbolTableRecord
100
AcDbLayerTableRecord
  2
83
 70
     0
 62
    83
  6
CONTINUOUS
  0
LAYER
  5
8D
330
2
100
AcDbSymbolTableRecord
100
AcDbLayerTableRecord
  2
84
 70
     0
 62
    84
  6
CONTINUOUS
  0
LAYER
  5
8E
330
2
100
AcDbSymbolTableRecord
100
AcDbLayerTableRecord
  2
85
 70
     0
 62
    85
  6
CONTINUOUS
  0
LAYER
  5
8F
330
2
100
AcDbSymbolTableRecord
100
AcDbLayerTableRecord
  2
86
 70
     0
 62
    86
  6
CONTINUOUS
  0
LAYER
  5
90
330
2
100
AcDbSymbolTableRecord
100
AcDbLayerTableRecord
  2
87
 70
     0
 62
    87
  6
CONTINUOUS
  0
LAYER
  5
91
330
2
100
AcDbSymbolTableRecord
100
AcDbLayerTableRecord
  2
88
 70
     0
 62
    88
  6
CONTINUOUS
  0
LAYER
  5
92
330
2
100
AcDbSymbolTableRecord
100
AcDbLayerTableRecord
  2
89
 70
     0
 62
    89
  6
CONTINUOUS
  0
LAYER
  5
93
330
2
100
AcDbSymbolTableRecord
100
AcDbLayerTableRecord
  2
90
 70
     0
 62
    90
  6
CONTINUOUS
  0
LAYER
  5
94
330
2
100
AcDbSymbolTableRecord
100
AcDbLayerTableRecord
  2
91
 70
     0
 62
    91
  6
CONTINUOUS
  0
LAYER
  5
95
330
2
100
AcDbSymbolTableRecord
100
AcDbLayerTableRecord
  2
92
 70
     0
 62
    92
  6
CONTINUOUS
  0
LAYER
  5
96
330
2
100
AcDbSymbolTableRecord
100
AcDbLayerTableRecord
  2
93
 70
     0
 62
    93
  6
CONTINUOUS
  0
LAYER
  5
97
330
2
100
AcDbSymbolTableRecord
100
AcDbLayerTableRecord
  2
94
 70
     0
 62
    94
  6
CONTINUOUS
  0
LAYER
  5
98
330
2
100
AcDbSymbolTableRecord
100
AcDbLayerTableRecord
  2
95
 70
     0
 62
    95
  6
CONTINUOUS
  0
LAYER
  5
99
330
2
100
AcDbSymbolTableRecord
100
AcDbLayerTableRecord
  2
96
 70
     0
 62
    96
  6
CONTINUOUS
  0
LAYER
  5
9A
330
2
100
AcDbSymbolTableRecord
100
AcDbLayerTableRecord
  2
97
 70
     0
 62
    97
  6
CONTINUOUS
  0
LAYER
  5
9B
330
2
100
AcDbSymbolTableRecord
100
AcDbLayerTableRecord
  2
98
 70
     0
 62
    98
  6
CONTINUOUS
  0
LAYER
  5
9C
330
2
100
AcDbSymbolTableRecord
100
AcDbLayerTableRecord
  2
99
 70
     0
 62
    99
  6
CONTINUOUS
  0
LAYER
  5
9D
330
2
100
AcDbSymbolTableRecord
100
AcDbLayerTableRecord
  2
100
 70
     0
 62
   100
  6
CONTINUOUS
  0
LAYER
  5
9E
330
2
100
AcDbSymbolTableRecord
100
AcDbLayerTableRecord
  2
101
 70
     0
 62
   101
  6
CONTINUOUS
  0
LAYER
  5
9F
330
2
100
AcDbSymbolTableRecord
100
AcDbLayerTableRecord
  2
102
 70
     0
 62
   102
  6
CONTINUOUS
  0
LAYER
  5
A0
330
2
100
AcDbSymbolTableRecord
100
AcDbLayerTableRecord
  2
103
 70
     0
 62
   103
  6
CONTINUOUS
  0
LAYER
  5
A1
330
2
100
AcDbSymbolTableRecord
100
AcDbLayerTableRecord
  2
104
 70
     0
 62
   104
  6
CONTINUOUS
  0
LAYER
  5
A2
330
2
100
AcDbSymbolTableRecord
100
AcDbLayerTableRecord
  2
105
 70
     0
 62
   105
  6
CONTINUOUS
  0
LAYER
  5
A3
330
2
100
AcDbSymbolTableRecord
100
AcDbLayerTableRecord
  2
106
 70
     0
 62
   106
  6
CONTINUOUS
  0
LAYER
  5
A4
330
2
100
AcDbSymbolTableRecord
100
AcDbLayerTableRecord
  2
107
 70
     0
 62
   107
  6
CONTINUOUS
  0
LAYER
  5
A5
330
2
100
AcDbSymbolTableRecord
100
AcDbLayerTableRecord
  2
108
 70
     0
 62
   108
  6
CONTINUOUS
  0
LAYER
  5
A6
330
2
100
AcDbSymbolTableRecord
100
AcDbLayerTableRecord
  2
109
 70
     0
 62
   109
  6
CONTINUOUS
  0
LAYER
  5
A7
330
2
100
AcDbSymbolTableRecord
100
AcDbLayerTableRecord
  2
110
 70
     0
 62
   110
  6
CONTINUOUS
  0
LAYER
  5
A8
330
2
100
AcDbSymbolTableRecord
100
AcDbLayerTableRecord
  2
111
 70
     0
 62
   111
  6
CONTINUOUS
  0
LAYER
  5
A9
330
2
100
AcDbSymbolTableRecord
100
AcDbLayerTableRecord
  2
112
 70
     0
 62
   112
  6
CONTINUOUS
  0
LAYER
  5
AA
330
2
100
AcDbSymbolTableRecord
100
AcDbLayerTableRecord
  2
113
 70
     0
 62
   113
  6
CONTINUOUS
  0
LAYER
  5
AB
330
2
100
AcDbSymbolTableRecord
100
AcDbLayerTableRecord
  2
114
 70
     0
 62
   114
  6
CONTINUOUS
  0
LAYER
  5
AC
330
2
100
AcDbSymbolTableRecord
100
AcDbLayerTableRecord
  2
115
 70
     0
 62
   115
  6
CONTINUOUS
  0
LAYER
  5
AD
330
2
100
AcDbSymbolTableRecord
100
AcDbLayerTableRecord
  2
116
 70
     0
 62
   116
  6
CONTINUOUS
  0
LAYER
  5
AE
330
2
100
AcDbSymbolTableRecord
100
AcDbLayerTableRecord
  2
117
 70
     0
 62
   117
  6
CONTINUOUS
  0
LAYER
  5
AF
330
2
100
AcDbSymbolTableRecord
100
AcDbLayerTableRecord
  2
118
 70
     0
 62
   118
  6
CONTINUOUS
  0
LAYER
  5
B0
330
2
100
AcDbSymbolTableRecord
100
AcDbLayerTableRecord
  2
119
 70
     0
 62
   119
  6
CONTINUOUS
  0
LAYER
  5
B1
330
2
100
AcDbSymbolTableRecord
100
AcDbLayerTableRecord
  2
120
 70
     0
 62
   120
  6
CONTINUOUS
  0
LAYER
  5
B2
330
2
100
AcDbSymbolTableRecord
100
AcDbLayerTableRecord
  2
121
 70
     0
 62
   121
  6
CONTINUOUS
  0
LAYER
  5
B3
330
2
100
AcDbSymbolTableRecord
100
AcDbLayerTableRecord
  2
122
 70
     0
 62
   122
  6
CONTINUOUS
  0
LAYER
  5
B4
330
2
100
AcDbSymbolTableRecord
100
AcDbLayerTableRecord
  2
123
 70
     0
 62
   123
  6
CONTINUOUS
  0
LAYER
  5
B5
330
2
100
AcDbSymbolTableRecord
100
AcDbLayerTableRecord
  2
124
 70
     0
 62
   124
  6
CONTINUOUS
  0
LAYER
  5
B6
330
2
100
AcDbSymbolTableRecord
100
AcDbLayerTableRecord
  2
125
 70
     0
 62
   125
  6
CONTINUOUS
  0
LAYER
  5
B7
330
2
100
AcDbSymbolTableRecord
100
AcDbLayerTableRecord
  2
126
 70
     0
 62
   126
  6
CONTINUOUS
  0
LAYER
  5
B8
330
2
100
AcDbSymbolTableRecord
100
AcDbLayerTableRecord
  2
127
 70
     0
 62
   127
  6
CONTINUOUS
  0
LAYER
  5
B9
330
2
100
AcDbSymbolTableRecord
100
AcDbLayerTableRecord
  2
128
 70
     0
 62
   128
  6
CONTINUOUS
  0
LAYER
  5
BA
330
2
100
AcDbSymbolTableRecord
100
AcDbLayerTableRecord
  2
129
 70
     0
 62
   129
  6
CONTINUOUS
  0
LAYER
  5
BB
330
2
100
AcDbSymbolTableRecord
100
AcDbLayerTableRecord
  2
130
 70
     0
 62
   130
  6
CONTINUOUS
  0
LAYER
  5
BC
330
2
100
AcDbSymbolTableRecord
100
AcDbLayerTableRecord
  2
131
 70
     0
 62
   131
  6
CONTINUOUS
  0
LAYER
  5
BD
330
2
100
AcDbSymbolTableRecord
100
AcDbLayerTableRecord
  2
132
 70
     0
 62
   132
  6
CONTINUOUS
  0
LAYER
  5
BE
330
2
100
AcDbSymbolTableRecord
100
AcDbLayerTableRecord
  2
133
 70
     0
 62
   133
  6
CONTINUOUS
  0
LAYER
  5
BF
330
2
100
AcDbSymbolTableRecord
100
AcDbLayerTableRecord
  2
134
 70
     0
 62
   134
  6
CONTINUOUS
  0
LAYER
  5
C0
330
2
100
AcDbSymbolTableRecord
100
AcDbLayerTableRecord
  2
135
 70
     0
 62
   135
  6
CONTINUOUS
  0
LAYER
  5
C1
330
2
100
AcDbSymbolTableRecord
100
AcDbLayerTableRecord
  2
136
 70
     0
 62
   136
  6
CONTINUOUS
  0
LAYER
  5
C2
330
2
100
AcDbSymbolTableRecord
100
AcDbLayerTableRecord
  2
137
 70
     0
 62
   137
  6
CONTINUOUS
  0
LAYER
  5
C3
330
2
100
AcDbSymbolTableRecord
100
AcDbLayerTableRecord
  2
138
 70
     0
 62
   138
  6
CONTINUOUS
  0
LAYER
  5
C4
330
2
100
AcDbSymbolTableRecord
100
AcDbLayerTableRecord
  2
139
 70
     0
 62
   139
  6
CONTINUOUS
  0
LAYER
  5
C5
330
2
100
AcDbSymbolTableRecord
100
AcDbLayerTableRecord
  2
140
 70
     0
 62
   140
  6
CONTINUOUS
  0
LAYER
  5
C6
330
2
100
AcDbSymbolTableRecord
100
AcDbLayerTableRecord
  2
141
 70
     0
 62
   141
  6
CONTINUOUS
  0
LAYER
  5
C7
330
2
100
AcDbSymbolTableRecord
100
AcDbLayerTableRecord
  2
142
 70
     0
 62
   142
  6
CONTINUOUS
  0
LAYER
  5
C8
330
2
100
AcDbSymbolTableRecord
100
AcDbLayerTableRecord
  2
143
 70
     0
 62
   143
  6
CONTINUOUS
  0
LAYER
  5
C9
330
2
100
AcDbSymbolTableRecord
100
AcDbLayerTableRecord
  2
144
 70
     0
 62
   144
  6
CONTINUOUS
  0
LAYER
  5
CA
330
2
100
AcDbSymbolTableRecord
100
AcDbLayerTableRecord
  2
145
 70
     0
 62
   145
  6
CONTINUOUS
  0
LAYER
  5
CB
330
2
100
AcDbSymbolTableRecord
100
AcDbLayerTableRecord
  2
146
 70
     0
 62
   146
  6
CONTINUOUS
  0
LAYER
  5
CC
330
2
100
AcDbSymbolTableRecord
100
AcDbLayerTableRecord
  2
147
 70
     0
 62
   147
  6
CONTINUOUS
  0
LAYER
  5
CD
330
2
100
AcDbSymbolTableRecord
100
AcDbLayerTableRecord
  2
148
 70
     0
 62
   148
  6
CONTINUOUS
  0
LAYER
  5
CE
330
2
100
AcDbSymbolTableRecord
100
AcDbLayerTableRecord
  2
149
 70
     0
 62
   149
  6
CONTINUOUS
  0
LAYER
  5
CF
330
2
100
AcDbSymbolTableRecord
100
AcDbLayerTableRecord
  2
150
 70
     0
 62
   150
  6
CONTINUOUS
  0
LAYER
  5
D0
330
2
100
AcDbSymbolTableRecord
100
AcDbLayerTableRecord
  2
151
 70
     0
 62
   151
  6
CONTINUOUS
  0
LAYER
  5
D1
330
2
100
AcDbSymbolTableRecord
100
AcDbLayerTableRecord
  2
152
 70
     0
 62
   152
  6
CONTINUOUS
  0
LAYER
  5
D2
330
2
100
AcDbSymbolTableRecord
100
AcDbLayerTableRecord
  2
153
 70
     0
 62
   153
  6
CONTINUOUS
  0
LAYER
  5
D3
330
2
100
AcDbSymbolTableRecord
100
AcDbLayerTableRecord
  2
154
 70
     0
 62
   154
  6
CONTINUOUS
  0
LAYER
  5
D4
330
2
100
AcDbSymbolTableRecord
100
AcDbLayerTableRecord
  2
155
 70
     0
 62
   155
  6
CONTINUOUS
  0
LAYER
  5
D5
330
2
100
AcDbSymbolTableRecord
100
AcDbLayerTableRecord
  2
156
 70
     0
 62
   156
  6
CONTINUOUS
  0
LAYER
  5
D6
330
2
100
AcDbSymbolTableRecord
100
AcDbLayerTableRecord
  2
157
 70
     0
 62
   157
  6
CONTINUOUS
  0
LAYER
  5
D7
330
2
100
AcDbSymbolTableRecord
100
AcDbLayerTableRecord
  2
158
 70
     0
 62
   158
  6
CONTINUOUS
  0
LAYER
  5
D8
330
2
100
AcDbSymbolTableRecord
100
AcDbLayerTableRecord
  2
159
 70
     0
 62
   159
  6
CONTINUOUS
  0
LAYER
  5
D9
330
2
100
AcDbSymbolTableRecord
100
AcDbLayerTableRecord
  2
160
 70
     0
 62
   160
  6
CONTINUOUS
  0
LAYER
  5
DA
330
2
100
AcDbSymbolTableRecord
100
AcDbLayerTableRecord
  2
161
 70
     0
 62
   161
  6
CONTINUOUS
  0
LAYER
  5
DB
330
2
100
AcDbSymbolTableRecord
100
AcDbLayerTableRecord
  2
162
 70
     0
 62
   162
  6
CONTINUOUS
  0
LAYER
  5
DC
330
2
100
AcDbSymbolTableRecord
100
AcDbLayerTableRecord
  2
163
 70
     0
 62
   163
  6
CONTINUOUS
  0
LAYER
  5
DD
330
2
100
AcDbSymbolTableRecord
100
AcDbLayerTableRecord
  2
164
 70
     0
 62
   164
  6
CONTINUOUS
  0
LAYER
  5
DE
330
2
100
AcDbSymbolTableRecord
100
AcDbLayerTableRecord
  2
165
 70
     0
 62
   165
  6
CONTINUOUS
  0
LAYER
  5
DF
330
2
100
AcDbSymbolTableRecord
100
AcDbLayerTableRecord
  2
166
 70
     0
 62
   166
  6
CONTINUOUS
  0
LAYER
  5
E0
330
2
100
AcDbSymbolTableRecord
100
AcDbLayerTableRecord
  2
167
 70
     0
 62
   167
  6
CONTINUOUS
  0
LAYER
  5
E1
330
2
100
AcDbSymbolTableRecord
100
AcDbLayerTableRecord
  2
168
 70
     0
 62
   168
  6
CONTINUOUS
  0
LAYER
  5
E2
330
2
100
AcDbSymbolTableRecord
100
AcDbLayerTableRecord
  2
169
 70
     0
 62
   169
  6
CONTINUOUS
  0
LAYER
  5
E3
330
2
100
AcDbSymbolTableRecord
100
AcDbLayerTableRecord
  2
170
 70
     0
 62
   170
  6
CONTINUOUS
  0
LAYER
  5
E4
330
2
100
AcDbSymbolTableRecord
100
AcDbLayerTableRecord
  2
171
 70
     0
 62
   171
  6
CONTINUOUS
  0
LAYER
  5
E5
330
2
100
AcDbSymbolTableRecord
100
AcDbLayerTableRecord
  2
172
 70
     0
 62
   172
  6
CONTINUOUS
  0
LAYER
  5
E6
330
2
100
AcDbSymbolTableRecord
100
AcDbLayerTableRecord
  2
173
 70
     0
 62
   173
  6
CONTINUOUS
  0
LAYER
  5
E7
330
2
100
AcDbSymbolTableRecord
100
AcDbLayerTableRecord
  2
174
 70
     0
 62
   174
  6
CONTINUOUS
  0
LAYER
  5
E8
330
2
100
AcDbSymbolTableRecord
100
AcDbLayerTableRecord
  2
175
 70
     0
 62
   175
  6
CONTINUOUS
  0
LAYER
  5
E9
330
2
100
AcDbSymbolTableRecord
100
AcDbLayerTableRecord
  2
176
 70
     0
 62
   176
  6
CONTINUOUS
  0
LAYER
  5
EA
330
2
100
AcDbSymbolTableRecord
100
AcDbLayerTableRecord
  2
177
 70
     0
 62
   177
  6
CONTINUOUS
  0
LAYER
  5
EB
330
2
100
AcDbSymbolTableRecord
100
AcDbLayerTableRecord
  2
178
 70
     0
 62
   178
  6
CONTINUOUS
  0
LAYER
  5
EC
330
2
100
AcDbSymbolTableRecord
100
AcDbLayerTableRecord
  2
179
 70
     0
 62
   179
  6
CONTINUOUS
  0
LAYER
  5
ED
330
2
100
AcDbSymbolTableRecord
100
AcDbLayerTableRecord
  2
180
 70
     0
 62
   180
  6
CONTINUOUS
  0
LAYER
  5
EE
330
2
100
AcDbSymbolTableRecord
100
AcDbLayerTableRecord
  2
181
 70
     0
 62
   181
  6
CONTINUOUS
  0
LAYER
  5
EF
330
2
100
AcDbSymbolTableRecord
100
AcDbLayerTableRecord
  2
182
 70
     0
 62
   182
  6
CONTINUOUS
  0
LAYER
  5
F0
330
2
100
AcDbSymbolTableRecord
100
AcDbLayerTableRecord
  2
183
 70
     0
 62
   183
  6
CONTINUOUS
  0
LAYER
  5
F1
330
2
100
AcDbSymbolTableRecord
100
AcDbLayerTableRecord
  2
184
 70
     0
 62
   184
  6
CONTINUOUS
  0
LAYER
  5
F2
330
2
100
AcDbSymbolTableRecord
100
AcDbLayerTableRecord
  2
185
 70
     0
 62
   185
  6
CONTINUOUS
  0
LAYER
  5
F3
330
2
100
AcDbSymbolTableRecord
100
AcDbLayerTableRecord
  2
186
 70
     0
 62
   186
  6
CONTINUOUS
  0
LAYER
  5
F4
330
2
100
AcDbSymbolTableRecord
100
AcDbLayerTableRecord
  2
187
 70
     0
 62
   187
  6
CONTINUOUS
  0
LAYER
  5
F5
330
2
100
AcDbSymbolTableRecord
100
AcDbLayerTableRecord
  2
188
 70
     0
 62
   188
  6
CONTINUOUS
  0
LAYER
  5
F6
330
2
100
AcDbSymbolTableRecord
100
AcDbLayerTableRecord
  2
189
 70
     0
 62
   189
  6
CONTINUOUS
  0
LAYER
  5
F7
330
2
100
AcDbSymbolTableRecord
100
AcDbLayerTableRecord
  2
190
 70
     0
 62
   190
  6
CONTINUOUS
  0
LAYER
  5
F8
330
2
100
AcDbSymbolTableRecord
100
AcDbLayerTableRecord
  2
191
 70
     0
 62
   191
  6
CONTINUOUS
  0
LAYER
  5
F9
330
2
100
AcDbSymbolTableRecord
100
AcDbLayerTableRecord
  2
192
 70
     0
 62
   192
  6
CONTINUOUS
  0
LAYER
  5
FA
330
2
100
AcDbSymbolTableRecord
100
AcDbLayerTableRecord
  2
193
 70
     0
 62
   193
  6
CONTINUOUS
  0
LAYER
  5
FB
330
2
100
AcDbSymbolTableRecord
100
AcDbLayerTableRecord
  2
194
 70
     0
 62
   194
  6
CONTINUOUS
  0
LAYER
  5
FC
330
2
100
AcDbSymbolTableRecord
100
AcDbLayerTableRecord
  2
195
 70
     0
 62
   195
  6
CONTINUOUS
  0
LAYER
  5
FD
330
2
100
AcDbSymbolTableRecord
100
AcDbLayerTableRecord
  2
196
 70
     0
 62
   196
  6
CONTINUOUS
  0
LAYER
  5
FE
330
2
100
AcDbSymbolTableRecord
100
AcDbLayerTableRecord
  2
197
 70
     0
 62
   197
  6
CONTINUOUS
  0
LAYER
  5
FF
330
2
100
AcDbSymbolTableRecord
100
AcDbLayerTableRecord
  2
198
 70
     0
 62
   198
  6
CONTINUOUS
  0
LAYER
  5
100
330
2
100
AcDbSymbolTableRecord
100
AcDbLayerTableRecord
  2
199
 70
     0
 62
   199
  6
CONTINUOUS
  0
LAYER
  5
101
330
2
100
AcDbSymbolTableRecord
100
AcDbLayerTableRecord
  2
200
 70
     0
 62
   200
  6
CONTINUOUS
  0
LAYER
  5
102
330
2
100
AcDbSymbolTableRecord
100
AcDbLayerTableRecord
  2
201
 70
     0
 62
   201
  6
CONTINUOUS
  0
LAYER
  5
103
330
2
100
AcDbSymbolTableRecord
100
AcDbLayerTableRecord
  2
202
 70
     0
 62
   202
  6
CONTINUOUS
  0
LAYER
  5
104
330
2
100
AcDbSymbolTableRecord
100
AcDbLayerTableRecord
  2
203
 70
     0
 62
   203
  6
CONTINUOUS
  0
LAYER
  5
105
330
2
100
AcDbSymbolTableRecord
100
AcDbLayerTableRecord
  2
204
 70
     0
 62
   204
  6
CONTINUOUS
  0
LAYER
  5
106
330
2
100
AcDbSymbolTableRecord
100
AcDbLayerTableRecord
  2
205
 70
     0
 62
   205
  6
CONTINUOUS
  0
LAYER
  5
107
330
2
100
AcDbSymbolTableRecord
100
AcDbLayerTableRecord
  2
206
 70
     0
 62
   206
  6
CONTINUOUS
  0
LAYER
  5
108
330
2
100
AcDbSymbolTableRecord
100
AcDbLayerTableRecord
  2
207
 70
     0
 62
   207
  6
CONTINUOUS
  0
LAYER
  5
109
330
2
100
AcDbSymbolTableRecord
100
AcDbLayerTableRecord
  2
208
 70
     0
 62
   208
  6
CONTINUOUS
  0
LAYER
  5
10A
330
2
100
AcDbSymbolTableRecord
100
AcDbLayerTableRecord
  2
209
 70
     0
 62
   209
  6
CONTINUOUS
  0
LAYER
  5
10B
330
2
100
AcDbSymbolTableRecord
100
AcDbLayerTableRecord
  2
210
 70
     0
 62
   210
  6
CONTINUOUS
  0
LAYER
  5
10C
330
2
100
AcDbSymbolTableRecord
100
AcDbLayerTableRecord
  2
211
 70
     0
 62
   211
  6
CONTINUOUS
  0
LAYER
  5
10D
330
2
100
AcDbSymbolTableRecord
100
AcDbLayerTableRecord
  2
212
 70
     0
 62
   212
  6
CONTINUOUS
  0
LAYER
  5
10E
330
2
100
AcDbSymbolTableRecord
100
AcDbLayerTableRecord
  2
213
 70
     0
 62
   213
  6
CONTINUOUS
  0
LAYER
  5
10F
330
2
100
AcDbSymbolTableRecord
100
AcDbLayerTableRecord
  2
214
 70
     0
 62
   214
  6
CONTINUOUS
  0
LAYER
  5
110
330
2
100
AcDbSymbolTableRecord
100
AcDbLayerTableRecord
  2
215
 70
     0
 62
   215
  6
CONTINUOUS
  0
LAYER
  5
111
330
2
100
AcDbSymbolTableRecord
100
AcDbLayerTableRecord
  2
216
 70
     0
 62
   216
  6
CONTINUOUS
  0
LAYER
  5
112
330
2
100
AcDbSymbolTableRecord
100
AcDbLayerTableRecord
  2
217
 70
     0
 62
   217
  6
CONTINUOUS
  0
LAYER
  5
113
330
2
100
AcDbSymbolTableRecord
100
AcDbLayerTableRecord
  2
218
 70
     0
 62
   218
  6
CONTINUOUS
  0
LAYER
  5
114
330
2
100
AcDbSymbolTableRecord
100
AcDbLayerTableRecord
  2
219
 70
     0
 62
   219
  6
CONTINUOUS
  0
LAYER
  5
115
330
2
100
AcDbSymbolTableRecord
100
AcDbLayerTableRecord
  2
220
 70
     0
 62
   220
  6
CONTINUOUS
  0
LAYER
  5
116
330
2
100
AcDbSymbolTableRecord
100
AcDbLayerTableRecord
  2
221
 70
     0
 62
   221
  6
CONTINUOUS
  0
LAYER
  5
117
330
2
100
AcDbSymbolTableRecord
100
AcDbLayerTableRecord
  2
222
 70
     0
 62
   222
  6
CONTINUOUS
  0
LAYER
  5
118
330
2
100
AcDbSymbolTableRecord
100
AcDbLayerTableRecord
  2
223
 70
     0
 62
   223
  6
CONTINUOUS
  0
LAYER
  5
119
330
2
100
AcDbSymbolTableRecord
100
AcDbLayerTableRecord
  2
224
 70
     0
 62
   224
  6
CONTINUOUS
  0
LAYER
  5
11A
330
2
100
AcDbSymbolTableRecord
100
AcDbLayerTableRecord
  2
225
 70
     0
 62
   225
  6
CONTINUOUS
  0
LAYER
  5
11B
330
2
100
AcDbSymbolTableRecord
100
AcDbLayerTableRecord
  2
226
 70
     0
 62
   226
  6
CONTINUOUS
  0
LAYER
  5
11C
330
2
100
AcDbSymbolTableRecord
100
AcDbLayerTableRecord
  2
227
 70
     0
 62
   227
  6
CONTINUOUS
  0
LAYER
  5
11D
330
2
100
AcDbSymbolTableRecord
100
AcDbLayerTableRecord
  2
228
 70
     0
 62
   228
  6
CONTINUOUS
  0
LAYER
  5
11E
330
2
100
AcDbSymbolTableRecord
100
AcDbLayerTableRecord
  2
229
 70
     0
 62
   229
  6
CONTINUOUS
  0
LAYER
  5
11F
330
2
100
AcDbSymbolTableRecord
100
AcDbLayerTableRecord
  2
230
 70
     0
 62
   230
  6
CONTINUOUS
  0
LAYER
  5
120
330
2
100
AcDbSymbolTableRecord
100
AcDbLayerTableRecord
  2
231
 70
     0
 62
   231
  6
CONTINUOUS
  0
LAYER
  5
121
330
2
100
AcDbSymbolTableRecord
100
AcDbLayerTableRecord
  2
232
 70
     0
 62
   232
  6
CONTINUOUS
  0
LAYER
  5
122
330
2
100
AcDbSymbolTableRecord
100
AcDbLayerTableRecord
  2
233
 70
     0
 62
   233
  6
CONTINUOUS
  0
LAYER
  5
123
330
2
100
AcDbSymbolTableRecord
100
AcDbLayerTableRecord
  2
234
 70
     0
 62
   234
  6
CONTINUOUS
  0
LAYER
  5
124
330
2
100
AcDbSymbolTableRecord
100
AcDbLayerTableRecord
  2
235
 70
     0
 62
   235
  6
CONTINUOUS
  0
LAYER
  5
125
330
2
100
AcDbSymbolTableRecord
100
AcDbLayerTableRecord
  2
236
 70
     0
 62
   236
  6
CONTINUOUS
  0
LAYER
  5
126
330
2
100
AcDbSymbolTableRecord
100
AcDbLayerTableRecord
  2
237
 70
     0
 62
   237
  6
CONTINUOUS
  0
LAYER
  5
127
330
2
100
AcDbSymbolTableRecord
100
AcDbLayerTableRecord
  2
238
 70
     0
 62
   238
  6
CONTINUOUS
  0
LAYER
  5
128
330
2
100
AcDbSymbolTableRecord
100
AcDbLayerTableRecord
  2
239
 70
     0
 62
   239
  6
CONTINUOUS
  0
LAYER
  5
129
330
2
100
AcDbSymbolTableRecord
100
AcDbLayerTableRecord
  2
240
 70
     0
 62
   240
  6
CONTINUOUS
  0
LAYER
  5
12A
330
2
100
AcDbSymbolTableRecord
100
AcDbLayerTableRecord
  2
241
 70
     0
 62
   241
  6
CONTINUOUS
  0
LAYER
  5
12B
330
2
100
AcDbSymbolTableRecord
100
AcDbLayerTableRecord
  2
242
 70
     0
 62
   242
  6
CONTINUOUS
  0
LAYER
  5
12C
330
2
100
AcDbSymbolTableRecord
100
AcDbLayerTableRecord
  2
243
 70
     0
 62
   243
  6
CONTINUOUS
  0
LAYER
  5
12D
330
2
100
AcDbSymbolTableRecord
100
AcDbLayerTableRecord
  2
244
 70
     0
 62
   244
  6
CONTINUOUS
  0
LAYER
  5
12E
330
2
100
AcDbSymbolTableRecord
100
AcDbLayerTableRecord
  2
245
 70
     0
 62
   245
  6
CONTINUOUS
  0
LAYER
  5
12F
330
2
100
AcDbSymbolTableRecord
100
AcDbLayerTableRecord
  2
246
 70
     0
 62
   246
  6
CONTINUOUS
  0
LAYER
  5
130
330
2
100
AcDbSymbolTableRecord
100
AcDbLayerTableRecord
  2
247
 70
     0
 62
   247
  6
CONTINUOUS
  0
LAYER
  5
131
330
2
100
AcDbSymbolTableRecord
100
AcDbLayerTableRecord
  2
248
 70
     0
 62
   248
  6
CONTINUOUS
  0
LAYER
  5
132
330
2
100
AcDbSymbolTableRecord
100
AcDbLayerTableRecord
  2
249
 70
     0
 62
   249
  6
CONTINUOUS
  0
LAYER
  5
133
330
2
100
AcDbSymbolTableRecord
100
AcDbLayerTableRecord
  2
250
 70
     0
 62
   250
  6
CONTINUOUS
  0
LAYER
  5
134
330
2
100
AcDbSymbolTableRecord
100
AcDbLayerTableRecord
  2
251
 70
     0
 62
   251
  6
CONTINUOUS
  0
LAYER
  5
135
330
2
100
AcDbSymbolTableRecord
100
AcDbLayerTableRecord
  2
252
 70
     0
 62
   252
  6
CONTINUOUS
  0
LAYER
  5
136
330
2
100
AcDbSymbolTableRecord
100
AcDbLayerTableRecord
  2
253
 70
     0
 62
   253
  6
CONTINUOUS
  0
LAYER
  5
137
330
2
100
AcDbSymbolTableRecord
100
AcDbLayerTableRecord
  2
254
 70
     0
 62
   254
  6
CONTINUOUS
  0
LAYER
  5
138
330
2
100
AcDbSymbolTableRecord
100
AcDbLayerTableRecord
  2
255
 70
     0
 62
   255
  6
CONTINUOUS
  0
ENDTAB
  0
TABLE
  2
STYLE
  5
3
330
0
100
AcDbSymbolTable
 70
     1
  0
STYLE
  5
11
330
3
100
AcDbSymbolTableRecord
100
AcDbTextStyleTableRecord
  2
STANDARD
 70
     0
 40
0.0
 41
1.0
 50
0.0
 71
     0
 42
0.2
  3
monotxt
  4

  0
ENDTAB
  0
TABLE
  2
VIEW
  5
6
330
0
100
AcDbSymbolTable
 70
     0
  0
ENDTAB
  0
TABLE
  2
UCS
  5
7
330
0
100
AcDbSymbolTable
 70
     0
  0
ENDTAB
  0
TABLE
  2
APPID
  5
9
330
0
100
AcDbSymbolTable
 70
     1
  0
APPID
  5
12
330
9
100
AcDbSymbolTableRecord
100
AcDbRegAppTableRecord
  2
ACAD
 70
     0
  0
ENDTAB
  0
TABLE
  2
DIMSTYLE
  5
A
330
0
100
AcDbSymbolTable
 70
     1
  0
DIMSTYLE
105
3134
330
A
100
AcDbSymbolTableRecord
100
AcDbDimStyleTableRecord
  2
STANDARD
 70
     0
  3

  4

  5

  6

  7

 40
1.0
 41
0.18
 42
0.0625
 43
0.38
 44
0.18
 45
0.0
 46
0.0
 47
0.0
 48
0.0
140
0.18
141
0.09
142
0.0
143
25.4
144
1.0
145
0.0
146
1.0
147
0.09
 71
     0
 72
     0
 73
     1
 74
     1
 75
     0
 76
     0
 77
     0
 78
     0
170
     0
171
     2
172
     0
173
     0
174
     0
175
     0
176
     0
177
     0
178
     0
270
     2
271
     4
272
     4
273
     2
274
     2
340
11
275
     0
280
     0
281
     0
282
     0
283
     1
284
     0
285
     0
286
     0
287
     3
288
     0
  0
ENDTAB
  0
TABLE
  2
BLOCK_RECORD
  5
1
330
0
100
AcDbSymbolTable
 70
     0
  0
BLOCK_RECORD
  5
1E
102
{ACAD_XDICTIONARY
360
46E1
102
}
330
1
100
AcDbSymbolTableRecord
100
AcDbBlockTableRecord
  2
*MODEL_SPACE
  0
BLOCK_RECORD
  5
1A
102
{ACAD_XDICTIONARY
360
46DF
102
}
330
1
100
AcDbSymbolTableRecord
100
AcDbBlockTableRecord
  2
*PAPER_SPACE
  0
ENDTAB
  0
ENDSEC
  0
SECTION
  2
BLOCKS
  0
BLOCK
  5
13B
330
1E
100
AcDbEntity
  8
0
100
AcDbBlockBegin
  2
*MODEL_SPACE
 70
     0
 10
0.0
 20
0.0
 30
0.0
  3
*MODEL_SPACE
  1

  0
ENDBLK
  5
13C
330
1E
100
AcDbEntity
  8
0
100
AcDbBlockEnd
  0
BLOCK
  5
139
330
1A
100
AcDbEntity
 67
     1
  8
0
100
AcDbBlockBegin
  2
*PAPER_SPACE
 70
     0
 10
0.0
 20
0.0
 30
0.0
  3
*PAPER_SPACE
  1

  0
ENDBLK
  5
13A
330
1A
100
AcDbEntity
 67
     1
  8
0
100
AcDbBlockEnd
  0
ENDSEC
  0
SECTION
  2
ENTITIES
  0
LINE
  5
29AA
330
1E
100
AcDbEntity
  8
7
100
AcDbLine
 10
12.92575494669761
 20
13.51649517109722
 30
0.0
 11
13.04648985483409
 21
13.51649517109722
 31
0.0
  0
LINE
  5
29AB
330
1E
100
AcDbEntity
  8
7
100
AcDbLine
 10
13.04648985483409
 20
13.5611145936694
 30
0.0
 11
13.11341898869236
 21
13.5611145936694
 31
0.0
  0
LINE
  5
29AC
330
1E
100
AcDbEntity
  8
7
100
AcDbLine
 10
13.20397016979472
 20
14.7855240424883
 30
0.0
 11
11.76302528790496
 21
14.7855240424883
 31
0.0
  0
LINE
  5
29C1
330
1E
100
AcDbEntity
  8
7
100
AcDbLine
 10
12.55567620654013
 20
13.46793874065103
 30
0.0
 11
13.04648985483409
 21
13.46793874065103
 31
0.0
  0
LINE
  5
29C2
330
1E
100
AcDbEntity
  8
7
100
AcDbLine
 10
12.55567620654013
 20
13.46793874065103
 30
0.0
 11
12.41131925115955
 21
13.46793874065103
 31
0.0
  0
LINE
  5
29C3
330
1E
100
AcDbEntity
  8
7
100
AcDbLine
 10
11.92050560286558
 20
13.46793874065103
 30
0.0
 11
12.41131925115955
 21
13.46793874065103
 31
0.0
  0
LINE
  5
29CE
330
1E
100
AcDbEntity
  8
7
100
AcDbLine
 10
11.67641111467661
 20
14.63329307135969
 30
0.0
 11
11.67641111467661
 21
13.64247942306572
 31
0.0
  0
LINE
  5
29DB
330
1E
100
AcDbEntity
  8
7
100
AcDbLine
 10
13.48349772884984
 20
12.27896236269828
 30
0.0
 11
13.48349772884984
 21
15.97318808448305
 31
0.0
  0
LINE
  5
29DC
330
1E
100
AcDbEntity
  8
7
100
AcDbLine
 10
11.48349772884984
 20
15.97318808448305
 30
0.0
 11
13.48349772884984
 21
15.97318808448305
 31
0.0
  0
LINE
  5
29DD
330
1E
100
AcDbEntity
  8
7
100
AcDbLine
 10
11.48349772884984
 20
12.27896236269828
 30
0.0
 11
11.48349772884984
 21
15.97318808448305
 31
0.0
  0
LINE
  5
29DE
330
1E
100
AcDbEntity
  8
7
100
AcDbLine
 10
13.48349772884984
 20
12.27896236269828
 30
0.0
 11
11.48349772884984
 21
12.27896236269828
 31
0.0
  0
LINE
  5
29DF
330
1E
100
AcDbEntity
  8
7
100
AcDbLine
 10
12.16066308318055
 20
12.55586524983738
 30
0.0
 11
12.13704103593645
 21
12.55586524983738
 31
0.0
  0
LINE
  5
29E0
330
1E
100
AcDbEntity
  8
7
100
AcDbLine
 10
12.16066308318055
 20
12.60704635219958
 30
0.0
 11
12.16066308318055
 21
12.55586524983738
 31
0.0
  0
LINE
  5
29E1
330
1E
100
AcDbEntity
  8
7
100
AcDbLine
 10
12.80502003856113
 20
12.60704635219958
 30
0.0
 11
12.16066308318055
 21
12.60704635219958
 31
0.0
  0
LINE
  5
29E2
330
1E
100
AcDbEntity
  8
7
100
AcDbLine
 10
12.80502003856113
 20
12.55586524983738
 30
0.0
 11
12.80502003856113
 21
12.60704635219958
 31
0.0
  0
LINE
  5
29E3
330
1E
100
AcDbEntity
  8
7
100
AcDbLine
 10
12.82995442176322
 20
12.55586524983738
 30
0.0
 11
12.80502003856113
 21
12.55586524983738
 31
0.0
  0
LINE
  5
29E4
330
1E
100
AcDbEntity
  8
7
100
AcDbLine
 10
12.82995442176322
 20
12.41413296637281
 30
0.0
 11
12.82995442176322
 21
12.55586524983738
 31
0.0
  0
LINE
  5
29E5
330
1E
100
AcDbEntity
  8
7
100
AcDbLine
 10
12.80502003856113
 20
12.41413296637281
 30
0.0
 11
12.82995442176322
 21
12.41413296637281
 31
0.0
  0
LINE
  5
29E6
330
1E
100
AcDbEntity
  8
7
100
AcDbLine
 10
12.80502003856113
 20
12.36295186401061
 30
0.0
 11
12.80502003856113
 21
12.41413296637281
 31
0.0
  0
LINE
  5
29E7
330
1E
100
AcDbEntity
  8
7
100
AcDbLine
 10
12.16066308318055
 20
12.36295186401061
 30
0.0
 11
12.80502003856113
 21
12.36295186401061
 31
0.0
  0
LINE
  5
29E8
330
1E
100
AcDbEntity
  8
7
100
AcDbLine
 10
12.16066308318055
 20
12.41413296637281
 30
0.0
 11
12.16066308318055
 21
12.36295186401061
 31
0.0
  0
LINE
  5
29E9
330
1E
100
AcDbEntity
  8
7
100
AcDbLine
 10
12.13704103593645
 20
12.41413296637281
 30
0.0
 11
12.16066308318055
 21
12.41413296637281
 31
0.0
  0
LINE
  5
29EA
330
1E
100
AcDbEntity
  8
7
100
AcDbLine
 10
12.13704103593645
 20
12.55586524983738
 30
0.0
 11
12.13704103593645
 21
12.41413296637281
 31
0.0
  0
LINE
  5
2A0B
330
1E
100
AcDbEntity
  8
7
100
AcDbLine
 10
11.84701478921729
 20
14.34589149655654
 30
0.0
 11
11.84701478921729
 21
14.3117707616484
 31
0.0
  0
LINE
  5
2A1B
330
1E
100
AcDbEntity
  8
7
100
AcDbLine
 10
11.84439011730128
 20
14.34589149655654
 30
0.0
 11
11.84701478921729
 21
14.34589149655654
 31
0.0
  0
LINE
  5
2A2A
330
1E
100
AcDbEntity
  8
7
100
AcDbLine
 10
11.84439011730128
 20
14.34326682464053
 30
0.0
 11
11.84439011730128
 21
14.3117707616484
 31
0.0
  0
LINE
  5
2A30
330
1E
100
AcDbEntity
  8
7
100
AcDbLine
 10
11.81945573409918
 20
14.35376551230457
 30
0.0
 11
11.84439011730128
 21
14.35376551230457
 31
0.0
  0
LINE
  5
2A31
330
1E
100
AcDbEntity
  8
7
100
AcDbLine
 10
11.84439011730128
 20
14.50074713960116
 30
0.0
 11
11.84439011730128
 21
14.45744005298698
 31
0.0
  0
LINE
  5
2A37
330
1E
100
AcDbEntity
  8
7
100
AcDbLine
 10
11.84439011730128
 20
14.45744005298698
 30
0.0
 11
11.84439011730128
 21
14.47056341256704
 31
0.0
  0
LINE
  5
2A38
330
1E
100
AcDbEntity
  8
7
100
AcDbLine
 10
11.84439011730128
 20
14.45744005298698
 30
0.0
 11
11.81945573409918
 21
14.45744005298698
 31
0.0
  0
LINE
  5
2A39
330
1E
100
AcDbEntity
  8
7
100
AcDbLine
 10
11.84439011730128
 20
14.47056341256704
 30
0.0
 11
11.81945573409918
 21
14.47056341256704
 31
0.0
  0
LINE
  5
2A3A
330
1E
100
AcDbEntity
  8
7
100
AcDbLine
 10
11.81945573409918
 20
14.45744005298698
 30
0.0
 11
11.81945573409918
 21
14.47056341256704
 31
0.0
  0
LINE
  5
2A3B
330
1E
100
AcDbEntity
  8
7
100
AcDbLine
 10
13.14622738764249
 20
14.45744005298698
 30
0.0
 11
13.12129300444039
 21
14.45744005298698
 31
0.0
  0
LINE
  5
2A41
330
1E
100
AcDbEntity
  8
7
100
AcDbLine
 10
13.12129300444039
 20
14.45744005298698
 30
0.0
 11
13.1226053403984
 21
14.47056341256704
 31
0.0
  0
LINE
  5
2A42
330
1E
100
AcDbEntity
  8
7
100
AcDbLine
 10
13.12129300444039
 20
14.45744005298698
 30
0.0
 11
13.12129300444039
 21
14.50074713960116
 31
0.0
  0
LINE
  5
2A43
330
1E
100
AcDbEntity
  8
7
100
AcDbLine
 10
13.1226053403984
 20
14.47056341256704
 30
0.0
 11
13.1226053403984
 21
14.5112458272652
 31
0.0
  0
LINE
  5
2A44
330
1E
100
AcDbEntity
  8
7
100
AcDbLine
 10
13.12129300444039
 20
14.50074713960116
 30
0.0
 11
13.1226053403984
 21
14.5112458272652
 31
0.0
  0
LINE
  5
2A4A
330
1E
100
AcDbEntity
  8
7
100
AcDbLine
 10
11.92050560286558
 20
13.51518283513922
 30
0.0
 11
11.92050560286558
 21
13.46793874065103
 31
0.0
  0
LINE
  5
2A4B
330
1E
100
AcDbEntity
  8
7
100
AcDbLine
 10
11.85357646900732
 20
13.51518283513922
 30
0.0
 11
11.92050560286558
 21
13.51518283513922
 31
0.0
  0
LINE
  5
2A4C
330
1E
100
AcDbEntity
  8
7
100
AcDbLine
 10
11.85357646900732
 20
14.0873613128295
 30
0.0
 11
11.85357646900732
 21
13.51518283513922
 31
0.0
  0
LINE
  5
2A4D
330
1E
100
AcDbEntity
  8
7
100
AcDbLine
 10
12.06092555037215
 20
14.0873613128295
 30
0.0
 11
11.85357646900732
 21
14.0873613128295
 31
0.0
  0
LINE
  5
2A54
330
1E
100
AcDbEntity
  8
7
100
AcDbLine
 10
12.69609615404669
 20
14.0873613128295
 30
0.0
 11
12.27089930365299
 21
14.0873613128295
 31
0.0
  0
LINE
  5
2A5B
330
1E
100
AcDbEntity
  8
7
100
AcDbLine
 10
13.11341898869236
 20
14.0873613128295
 30
0.0
 11
12.90606990732753
 21
14.0873613128295
 31
0.0
  0
LINE
  5
2A5C
330
1E
100
AcDbEntity
  8
7
100
AcDbLine
 10
13.11341898869236
 20
14.0873613128295
 30
0.0
 11
13.11341898869236
 21
13.51518283513922
 31
0.0
  0
LINE
  5
2A5D
330
1E
100
AcDbEntity
  8
7
100
AcDbLine
 10
13.04648985483409
 20
13.51518283513922
 30
0.0
 11
13.11341898869236
 21
13.51518283513922
 31
0.0
  0
LINE
  5
2A5E
330
1E
100
AcDbEntity
  8
7
100
AcDbLine
 10
13.04648985483409
 20
13.46793874065103
 30
0.0
 11
13.04648985483409
 21
13.51518283513922
 31
0.0
  0
LINE
  5
2A5F
330
1E
100
AcDbEntity
  8
7
100
AcDbLine
 10
13.20397016979472
 20
13.46793874065103
 30
0.0
 11
13.18953447425666
 21
14.13985475114972
 31
0.0
  0
LINE
  5
2A60
330
1E
100
AcDbEntity
  8
7
100
AcDbLine
 10
12.69609615404669
 20
14.0873613128295
 30
0.0
 11
12.6987208259627
 21
14.11229569603161
 31
0.0
  0
LINE
  5
2A61
330
1E
100
AcDbEntity
  8
7
100
AcDbLine
 10
12.26827463173698
 20
14.11229569603161
 30
0.0
 11
12.27089930365299
 21
14.0873613128295
 31
0.0
  0
LINE
  5
2A62
330
1E
100
AcDbEntity
  8
7
100
AcDbLine
 10
12.26827463173698
 20
14.11229569603161
 30
0.0
 11
12.25383893619892
 21
14.11229569603161
 31
0.0
  0
LINE
  5
2A63
330
1E
100
AcDbEntity
  8
7
100
AcDbLine
 10
12.71315652150076
 20
14.11229569603161
 30
0.0
 11
12.6987208259627
 21
14.11229569603161
 31
0.0
  0
LINE
  5
2A64
330
1E
100
AcDbEntity
  8
7
100
AcDbLine
 10
12.90344523541152
 20
14.11229569603161
 30
0.0
 11
12.90606990732753
 21
14.0873613128295
 31
0.0
  0
LINE
  5
2A65
330
1E
100
AcDbEntity
  8
7
100
AcDbLine
 10
12.90344523541152
 20
14.11229569603161
 30
0.0
 11
12.88769720391545
 21
14.11229569603161
 31
0.0
  0
LINE
  5
2A66
330
1E
100
AcDbEntity
  8
7
100
AcDbLine
 10
12.06092555037215
 20
14.0873613128295
 30
0.0
 11
12.06355022228816
 21
14.11229569603161
 31
0.0
  0
LINE
  5
2A67
330
1E
100
AcDbEntity
  8
7
100
AcDbLine
 10
12.07798591782621
 20
14.11229569603161
 30
0.0
 11
12.06355022228816
 21
14.11229569603161
 31
0.0
  0
LINE
  5
2A68
330
1E
100
AcDbEntity
  8
7
100
AcDbLine
 10
12.88769720391545
 20
14.11229569603161
 30
0.0
 11
12.88769720391545
 21
14.07948729708147
 31
0.0
  0
LINE
  5
2A69
330
1E
100
AcDbEntity
  8
7
100
AcDbLine
 10
12.25383893619892
 20
14.11229569603161
 30
0.0
 11
12.25383893619892
 21
14.07948729708147
 31
0.0
  0
LINE
  5
2A6A
330
1E
100
AcDbEntity
  8
7
100
AcDbLine
 10
11.85357646900732
 20
13.5611145936694
 30
0.0
 11
11.92050560286558
 21
13.5611145936694
 31
0.0
  0
LINE
  5
2A6B
330
1E
100
AcDbEntity
  8
7
100
AcDbLine
 10
11.92050560286558
 20
13.51649517109722
 30
0.0
 11
12.04124051100207
 21
13.51649517109722
 31
0.0
  0
LINE
  5
2A6C
330
1E
100
AcDbEntity
  8
7
100
AcDbLine
 10
12.29058434302307
 20
13.51649517109722
 30
0.0
 11
12.41131925115955
 21
13.51649517109722
 31
0.0
  0
LINE
  5
2A6D
330
1E
100
AcDbEntity
  8
7
100
AcDbLine
 10
12.41131925115955
 20
13.5611145936694
 30
0.0
 11
12.55567620654013
 21
13.5611145936694
 31
0.0
  0
LINE
  5
2A6E
330
1E
100
AcDbEntity
  8
7
100
AcDbLine
 10
12.55567620654013
 20
13.51649517109722
 30
0.0
 11
12.67641111467661
 21
13.51649517109722
 31
0.0
  0
LINE
  5
2A6F
330
1E
100
AcDbEntity
  8
7
100
AcDbLine
 10
12.41131925115955
 20
13.46793874065103
 30
0.0
 11
12.41131925115955
 21
13.51518283513922
 31
0.0
  0
LINE
  5
2A70
330
1E
100
AcDbEntity
  8
7
100
AcDbLine
 10
12.55567620654013
 20
13.51518283513922
 30
0.0
 11
12.55567620654013
 21
13.46793874065103
 31
0.0
  0
LINE
  5
2A71
330
1E
100
AcDbEntity
  8
7
100
AcDbLine
 10
12.41131925115955
 20
13.51518283513922
 30
0.0
 11
12.55567620654013
 21
13.51518283513922
 31
0.0
  0
LINE
  5
2A72
330
1E
100
AcDbEntity
  8
7
100
AcDbLine
 10
12.54386518291808
 20
15.65166577477176
 30
0.0
 11
12.4231302747816
 21
15.65166577477176
 31
0.0
  0
LINE
  5
2A83
330
1E
100
AcDbEntity
  8
7
100
AcDbLine
 10
12.4231302747816
 20
15.88132456742268
 30
0.0
 11
12.54386518291808
 21
15.88132456742268
 31
0.0
  0
LINE
  5
2AA2
330
1E
100
AcDbEntity
  8
7
100
AcDbLine
 10
12.4231302747816
 20
15.84195448868253
 30
0.0
 11
12.54386518291808
 21
15.84195448868253
 31
0.0
  0
LINE
  5
2AB1
330
1E
100
AcDbEntity
  8
7
100
AcDbLine
 10
12.54386518291808
 20
15.69103585351192
 30
0.0
 11
12.4231302747816
 21
15.69103585351192
 31
0.0
  0
LINE
  5
2ABC
330
1E
100
AcDbEntity
  8
7
100
AcDbLine
 10
12.57273657399419
 20
15.8353928088925
 30
0.0
 11
12.54386518291808
 21
15.84064215272452
 31
0.0
  0
LINE
  5
2ABD
330
1E
100
AcDbEntity
  8
7
100
AcDbLine
 10
12.54386518291808
 20
15.84195448868253
 30
0.0
 11
12.4231302747816
 21
15.84195448868253
 31
0.0
  0
LINE
  5
2AC8
330
1E
100
AcDbEntity
  8
7
100
AcDbLine
 10
12.39425888370548
 20
15.69628519734394
 30
0.0
 11
12.4231302747816
 21
15.69103585351192
 31
0.0
  0
LINE
  5
2AC9
330
1E
100
AcDbEntity
  8
7
100
AcDbLine
 10
12.4231302747816
 20
15.69103585351192
 30
0.0
 11
12.54386518291808
 21
15.69103585351192
 31
0.0
  0
LINE
  5
2ACA
330
1E
100
AcDbEntity
  8
7
100
AcDbLine
 10
12.16460009105456
 20
15.64510409498174
 30
0.0
 11
12.16460009105456
 21
15.69890986925995
 31
0.0
  0
LINE
  5
2ACB
330
1E
100
AcDbEntity
  8
7
100
AcDbLine
 10
12.80239536664511
 20
15.64510409498174
 30
0.0
 11
12.16460009105456
 21
15.64510409498174
 31
0.0
  0
LINE
  5
2ACC
330
1E
100
AcDbEntity
  8
7
100
AcDbLine
 10
12.80239536664511
 20
15.69890986925995
 30
0.0
 11
12.80239536664511
 21
15.64510409498174
 31
0.0
  0
LINE
  5
2ACD
330
1E
100
AcDbEntity
  8
7
100
AcDbLine
 10
12.82864208580522
 20
15.69890986925995
 30
0.0
 11
12.80239536664511
 21
15.69890986925995
 31
0.0
  0
LINE
  5
2ACE
330
1E
100
AcDbEntity
  8
7
100
AcDbLine
 10
12.82864208580522
 20
15.83408047293449
 30
0.0
 11
12.82864208580522
 21
15.69890986925995
 31
0.0
  0
LINE
  5
2ACF
330
1E
100
AcDbEntity
  8
7
100
AcDbLine
 10
12.80239536664511
 20
15.83408047293449
 30
0.0
 11
12.82864208580522
 21
15.83408047293449
 31
0.0
  0
LINE
  5
2AD0
330
1E
100
AcDbEntity
  8
7
100
AcDbLine
 10
12.80239536664511
 20
15.88788624721271
 30
0.0
 11
12.80239536664511
 21
15.83408047293449
 31
0.0
  0
LINE
  5
2AD1
330
1E
100
AcDbEntity
  8
7
100
AcDbLine
 10
12.16460009105456
 20
15.88788624721271
 30
0.0
 11
12.80239536664511
 21
15.88788624721271
 31
0.0
  0
LINE
  5
2AD2
330
1E
100
AcDbEntity
  8
7
100
AcDbLine
 10
12.16460009105456
 20
15.83408047293449
 30
0.0
 11
12.16460009105456
 21
15.88788624721271
 31
0.0
  0
LINE
  5
2AD3
330
1E
100
AcDbEntity
  8
7
100
AcDbLine
 10
12.13835337189446
 20
15.83408047293449
 30
0.0
 11
12.16460009105456
 21
15.83408047293449
 31
0.0
  0
LINE
  5
2AD4
330
1E
100
AcDbEntity
  8
7
100
AcDbLine
 10
12.13835337189446
 20
15.69890986925995
 30
0.0
 11
12.13835337189446
 21
15.83408047293449
 31
0.0
  0
LINE
  5
2AD5
330
1E
100
AcDbEntity
  8
7
100
AcDbLine
 10
12.16460009105456
 20
15.69890986925995
 30
0.0
 11
12.13835337189446
 21
15.69890986925995
 31
0.0
  0
LINE
  5
2AE6
330
1E
100
AcDbEntity
  8
7
100
AcDbLine
 10
12.54386518291808
 20
15.64904110285575
 30
0.0
 11
12.4231302747816
 21
15.64904110285575
 31
0.0
  0
LINE
  5
2AF7
330
1E
100
AcDbEntity
  8
7
100
AcDbLine
 10
12.4231302747816
 20
15.88263690338069
 30
0.0
 11
12.54386518291808
 21
15.88263690338069
 31
0.0
  0
LINE
  5
2AF8
330
1E
100
AcDbEntity
  8
7
100
AcDbLine
 10
12.13704103593645
 20
15.8367051448505
 30
0.0
 11
12.13704103593645
 21
15.83801748080851
 31
0.0
  0
LINE
  5
2AF9
330
1E
100
AcDbEntity
  8
7
100
AcDbLine
 10
12.16197541913855
 20
15.8367051448505
 30
0.0
 11
12.13704103593645
 21
15.8367051448505
 31
0.0
  0
LINE
  5
2AFA
330
1E
100
AcDbEntity
  8
7
100
AcDbLine
 10
12.16197541913855
 20
15.8367051448505
 30
0.0
 11
12.16066308318055
 21
15.83801748080851
 31
0.0
  0
LINE
  5
2AFB
330
1E
100
AcDbEntity
  8
7
100
AcDbLine
 10
12.16197541913855
 20
15.88788624721271
 30
0.0
 11
12.16197541913855
 21
15.8367051448505
 31
0.0
  0
LINE
  5
2AFC
330
1E
100
AcDbEntity
  8
7
100
AcDbLine
 10
12.16197541913855
 20
15.88788624721271
 30
0.0
 11
12.16066308318055
 21
15.88788624721271
 31
0.0
  0
LINE
  5
2AFD
330
1E
100
AcDbEntity
  8
7
100
AcDbLine
 10
12.16197541913855
 20
15.64510409498174
 30
0.0
 11
12.16066308318055
 21
15.64379175902373
 31
0.0
  0
LINE
  5
2AFE
330
1E
100
AcDbEntity
  8
7
100
AcDbLine
 10
12.16197541913855
 20
15.69628519734394
 30
0.0
 11
12.16197541913855
 21
15.64510409498174
 31
0.0
  0
LINE
  5
2AFF
330
1E
100
AcDbEntity
  8
7
100
AcDbLine
 10
12.16197541913855
 20
15.69628519734394
 30
0.0
 11
12.16066308318055
 21
15.69497286138594
 31
0.0
  0
LINE
  5
2B00
330
1E
100
AcDbEntity
  8
7
100
AcDbLine
 10
12.13704103593645
 20
15.69628519734394
 30
0.0
 11
12.16197541913855
 21
15.69628519734394
 31
0.0
  0
LINE
  5
2B01
330
1E
100
AcDbEntity
  8
7
100
AcDbLine
 10
12.13704103593645
 20
15.69628519734394
 30
0.0
 11
12.13704103593645
 21
15.69497286138594
 31
0.0
  0
LINE
  5
2B02
330
1E
100
AcDbEntity
  8
7
100
AcDbLine
 10
12.82864208580522
 20
15.69628519734394
 30
0.0
 11
12.82995442176322
 21
15.69497286138594
 31
0.0
  0
LINE
  5
2B03
330
1E
100
AcDbEntity
  8
7
100
AcDbLine
 10
12.80370770260312
 20
15.69628519734394
 30
0.0
 11
12.82864208580522
 21
15.69628519734394
 31
0.0
  0
LINE
  5
2B04
330
1E
100
AcDbEntity
  8
7
100
AcDbLine
 10
12.80370770260312
 20
15.69628519734394
 30
0.0
 11
12.80502003856113
 21
15.69497286138594
 31
0.0
  0
LINE
  5
2B05
330
1E
100
AcDbEntity
  8
7
100
AcDbLine
 10
12.80370770260312
 20
15.64510409498174
 30
0.0
 11
12.80370770260312
 21
15.69628519734394
 31
0.0
  0
LINE
  5
2B06
330
1E
100
AcDbEntity
  8
7
100
AcDbLine
 10
12.80370770260312
 20
15.64510409498174
 30
0.0
 11
12.80502003856113
 21
15.64379175902373
 31
0.0
  0
LINE
  5
2B07
330
1E
100
AcDbEntity
  8
7
100
AcDbLine
 10
12.80370770260312
 20
15.88788624721271
 30
0.0
 11
12.80502003856113
 21
15.88788624721271
 31
0.0
  0
LINE
  5
2B08
330
1E
100
AcDbEntity
  8
7
100
AcDbLine
 10
12.80370770260312
 20
15.8367051448505
 30
0.0
 11
12.80370770260312
 21
15.88788624721271
 31
0.0
  0
LINE
  5
2B09
330
1E
100
AcDbEntity
  8
7
100
AcDbLine
 10
12.80370770260312
 20
15.8367051448505
 30
0.0
 11
12.80502003856113
 21
15.83801748080851
 31
0.0
  0
LINE
  5
2B0A
330
1E
100
AcDbEntity
  8
7
100
AcDbLine
 10
12.82864208580522
 20
15.8367051448505
 30
0.0
 11
12.80370770260312
 21
15.8367051448505
 31
0.0
  0
LINE
  5
2B0B
330
1E
100
AcDbEntity
  8
7
100
AcDbLine
 10
12.82864208580522
 20
15.8367051448505
 30
0.0
 11
12.82995442176322
 21
15.83801748080851
 31
0.0
  0
LINE
  5
2B0C
330
1E
100
AcDbEntity
  8
7
100
AcDbLine
 10
12.4231302747816
 20
12.60048467240956
 30
0.0
 11
12.54386518291808
 21
12.60048467240956
 31
0.0
  0
LINE
  5
2B1A
330
1E
100
AcDbEntity
  8
7
100
AcDbLine
 10
12.54386518291808
 20
12.37082587975864
 30
0.0
 11
12.4231302747816
 21
12.37082587975864
 31
0.0
  0
LINE
  5
2B33
330
1E
100
AcDbEntity
  8
7
100
AcDbLine
 10
12.4231302747816
 20
12.5611145936694
 30
0.0
 11
12.54386518291808
 21
12.5611145936694
 31
0.0
  0
LINE
  5
2B3F
330
1E
100
AcDbEntity
  8
7
100
AcDbLine
 10
12.54386518291808
 20
12.40888362254079
 30
0.0
 11
12.4231302747816
 21
12.40888362254079
 31
0.0
  0
LINE
  5
2B4B
330
1E
100
AcDbEntity
  8
7
100
AcDbLine
 10
12.54386518291808
 20
12.55980225771139
 30
0.0
 11
12.4231302747816
 21
12.55980225771139
 31
0.0
  0
LINE
  5
2B4C
330
1E
100
AcDbEntity
  8
7
100
AcDbLine
 10
12.4231302747816
 20
12.55980225771139
 30
0.0
 11
12.39425888370548
 21
12.55455291387937
 31
0.0
  0
LINE
  5
2B57
330
1E
100
AcDbEntity
  8
7
100
AcDbLine
 10
12.4231302747816
 20
12.4101959584988
 30
0.0
 11
12.54386518291808
 21
12.4101959584988
 31
0.0
  0
LINE
  5
2B6A
330
1E
100
AcDbEntity
  8
7
100
AcDbLine
 10
12.4231302747816
 20
12.60179700836756
 30
0.0
 11
12.54386518291808
 21
12.60179700836756
 31
0.0
  0
LINE
  5
2B6B
330
1E
100
AcDbEntity
  8
7
100
AcDbLine
 10
12.54386518291808
 20
12.36951354380063
 30
0.0
 11
12.57929825378422
 21
12.37476288763265
 31
0.0
  0
LINE
  5
2B78
330
1E
100
AcDbEntity
  8
7
100
AcDbLine
 10
12.54386518291808
 20
12.36820120784263
 30
0.0
 11
12.4231302747816
 21
12.36820120784263
 31
0.0
  0
LINE
  5
2B86
330
1E
100
AcDbEntity
  8
7
100
AcDbLine
 10
12.16197541913855
 20
12.60704635219958
 30
0.0
 11
12.16197541913855
 21
12.55586524983738
 31
0.0
  0
LINE
  5
2B87
330
1E
100
AcDbEntity
  8
7
100
AcDbLine
 10
12.16197541913855
 20
12.60704635219958
 30
0.0
 11
12.16066308318055
 21
12.60704635219958
 31
0.0
  0
LINE
  5
2B88
330
1E
100
AcDbEntity
  8
7
100
AcDbLine
 10
12.16197541913855
 20
12.55586524983738
 30
0.0
 11
12.16066308318055
 21
12.55586524983738
 31
0.0
  0
LINE
  5
2B89
330
1E
100
AcDbEntity
  8
7
100
AcDbLine
 10
12.16197541913855
 20
12.55586524983738
 30
0.0
 11
12.13704103593645
 21
12.55586524983738
 31
0.0
  0
LINE
  5
2B8A
330
1E
100
AcDbEntity
  8
7
100
AcDbLine
 10
12.82864208580522
 20
12.55586524983738
 30
0.0
 11
12.80370770260312
 21
12.55586524983738
 31
0.0
  0
LINE
  5
2B8B
330
1E
100
AcDbEntity
  8
7
100
AcDbLine
 10
12.82864208580522
 20
12.55586524983738
 30
0.0
 11
12.82995442176322
 21
12.55586524983738
 31
0.0
  0
LINE
  5
2B8C
330
1E
100
AcDbEntity
  8
7
100
AcDbLine
 10
12.80370770260312
 20
12.55586524983738
 30
0.0
 11
12.80502003856113
 21
12.55586524983738
 31
0.0
  0
LINE
  5
2B8D
330
1E
100
AcDbEntity
  8
7
100
AcDbLine
 10
12.80370770260312
 20
12.55586524983738
 30
0.0
 11
12.80370770260312
 21
12.60704635219958
 31
0.0
  0
LINE
  5
2B8E
330
1E
100
AcDbEntity
  8
7
100
AcDbLine
 10
12.80370770260312
 20
12.60704635219958
 30
0.0
 11
12.80502003856113
 21
12.60704635219958
 31
0.0
  0
LINE
  5
2B8F
330
1E
100
AcDbEntity
  8
7
100
AcDbLine
 10
12.13704103593645
 20
12.41544530233082
 30
0.0
 11
12.16197541913855
 21
12.41544530233082
 31
0.0
  0
LINE
  5
2B90
330
1E
100
AcDbEntity
  8
7
100
AcDbLine
 10
12.13704103593645
 20
12.41544530233082
 30
0.0
 11
12.13704103593645
 21
12.41413296637281
 31
0.0
  0
LINE
  5
2B91
330
1E
100
AcDbEntity
  8
7
100
AcDbLine
 10
12.16197541913855
 20
12.41544530233082
 30
0.0
 11
12.16066308318055
 21
12.41413296637281
 31
0.0
  0
LINE
  5
2B97
330
1E
100
AcDbEntity
  8
7
100
AcDbLine
 10
13.82864208580522
 20
11.87607522359066
 30
0.0
 11
13.80633237451913
 21
11.89707259891875
 31
0.0
  0
LINE
  5
2B9D
330
1E
100
AcDbEntity
  8
7
100
AcDbLine
 10
13.82864208580522
 20
11.87607522359066
 30
0.0
 11
11.13835337189446
 21
11.87607522359066
 31
0.0
  0
LINE
  5
2B9E
330
1E
100
AcDbEntity
  8
7
100
AcDbLine
 10
13.85882581283934
 20
11.90625895062478
 30
0.0
 11
13.85882581283934
 21
16.34589149655654
 31
0.0
  0
LINE
  5
2BAF
330
1E
100
AcDbEntity
  8
7
100
AcDbLine
 10
13.82864208580522
 20
16.37607522359066
 30
0.0
 11
11.13835337189446
 21
16.37607522359066
 31
0.0
  0
LINE
  5
2BE3
330
1E
100
AcDbEntity
  8
7
100
AcDbLine
 10
13.48349772884984
 20
15.97318808448305
 30
0.0
 11
13.48743473672386
 21
15.63985475114971
 31
0.0
  0
LINE
  5
2BF1
330
1E
100
AcDbEntity
  8
7
100
AcDbLine
 10
11.48349772884984
 20
12.27896236269828
 30
0.0
 11
11.47956072097582
 21
12.61229569603161
 31
0.0
  0
LINE
  5
2C14
330
1E
100
AcDbEntity
  8
7
100
AcDbLine
 10
13.83651610155325
 20
11.92725632595287
 30
0.0
 11
13.85882581283934
 21
11.90625895062478
 31
0.0
  0
LINE
  5
2C2B
330
1E
100
AcDbEntity
  8
7
100
AcDbLine
 10
12.13835337189446
 20
12.41806997424683
 30
0.0
 11
12.13704103593645
 21
12.41544530233082
 31
0.0
  0
LINE
  5
2C2C
330
1E
100
AcDbEntity
  8
7
100
AcDbLine
 10
12.13835337189446
 20
12.55324057792137
 30
0.0
 11
12.13704103593645
 21
12.55586524983738
 31
0.0
  0
LINE
  5
2C2D
330
1E
100
AcDbEntity
  8
7
100
AcDbLine
 10
12.80239536664511
 20
12.36426419996861
 30
0.0
 11
12.80370770260312
 21
12.36295186401061
 31
0.0
  0
LINE
  5
2C2E
330
1E
100
AcDbEntity
  8
7
100
AcDbLine
 10
12.16460009105456
 20
12.36426419996861
 30
0.0
 11
12.16197541913855
 21
12.36295186401061
 31
0.0
  0
LINE
  5
2C2F
330
1E
100
AcDbEntity
  8
7
100
AcDbLine
 10
12.80370770260312
 20
12.36295186401061
 30
0.0
 11
12.80502003856113
 21
12.36295186401061
 31
0.0
  0
LINE
  5
2C30
330
1E
100
AcDbEntity
  8
7
100
AcDbLine
 10
12.80370770260312
 20
12.41544530233082
 30
0.0
 11
12.80502003856113
 21
12.41413296637281
 31
0.0
  0
LINE
  5
2C31
330
1E
100
AcDbEntity
  8
7
100
AcDbLine
 10
12.80370770260312
 20
12.41544530233082
 30
0.0
 11
12.80370770260312
 21
12.36295186401061
 31
0.0
  0
LINE
  5
2C32
330
1E
100
AcDbEntity
  8
7
100
AcDbLine
 10
12.82864208580522
 20
12.41544530233082
 30
0.0
 11
12.82995442176322
 21
12.41413296637281
 31
0.0
  0
LINE
  5
2C33
330
1E
100
AcDbEntity
  8
7
100
AcDbLine
 10
12.82864208580522
 20
12.41544530233082
 30
0.0
 11
12.80370770260312
 21
12.41544530233082
 31
0.0
  0
LINE
  5
2C34
330
1E
100
AcDbEntity
  8
7
100
AcDbLine
 10
12.82864208580522
 20
12.55324057792137
 30
0.0
 11
12.82864208580522
 21
12.55586524983738
 31
0.0
  0
LINE
  5
2C35
330
1E
100
AcDbEntity
  8
7
100
AcDbLine
 10
12.82864208580522
 20
12.41806997424683
 30
0.0
 11
12.82864208580522
 21
12.41544530233082
 31
0.0
  0
LINE
  5
2C36
330
1E
100
AcDbEntity
  8
7
100
AcDbLine
 10
12.80239536664511
 20
12.60573401624158
 30
0.0
 11
12.80370770260312
 21
12.60704635219958
 31
0.0
  0
LINE
  5
2C37
330
1E
100
AcDbEntity
  8
7
100
AcDbLine
 10
12.16460009105456
 20
12.60573401624158
 30
0.0
 11
12.16197541913855
 21
12.60704635219958
 31
0.0
  0
LINE
  5
2C38
330
1E
100
AcDbEntity
  8
7
100
AcDbLine
 10
12.54386518291808
 20
12.60048467240956
 30
0.0
 11
12.54386518291808
 21
12.60179700836756
 31
0.0
  0
LINE
  5
2C39
330
1E
100
AcDbEntity
  8
7
100
AcDbLine
 10
12.4231302747816
 20
12.60048467240956
 30
0.0
 11
12.4231302747816
 21
12.60179700836756
 31
0.0
  0
LINE
  5
2C3A
330
1E
100
AcDbEntity
  8
7
100
AcDbLine
 10
12.54386518291808
 20
12.37082587975864
 30
0.0
 11
12.54386518291808
 21
12.36820120784263
 31
0.0
  0
LINE
  5
2C3B
330
1E
100
AcDbEntity
  8
7
100
AcDbLine
 10
12.4231302747816
 20
12.37082587975864
 30
0.0
 11
12.4231302747816
 21
12.36820120784263
 31
0.0
  0
LINE
  5
2C3C
330
1E
100
AcDbEntity
  8
7
100
AcDbLine
 10
12.54386518291808
 20
12.55980225771139
 30
0.0
 11
12.54386518291808
 21
12.5611145936694
 31
0.0
  0
LINE
  5
2C3D
330
1E
100
AcDbEntity
  8
7
100
AcDbLine
 10
12.4231302747816
 20
12.55980225771139
 30
0.0
 11
12.4231302747816
 21
12.5611145936694
 31
0.0
  0
LINE
  5
2C3E
330
1E
100
AcDbEntity
  8
7
100
AcDbLine
 10
12.54386518291808
 20
12.4101959584988
 30
0.0
 11
12.54386518291808
 21
12.40888362254079
 31
0.0
  0
LINE
  5
2C3F
330
1E
100
AcDbEntity
  8
7
100
AcDbLine
 10
12.4231302747816
 20
12.4101959584988
 30
0.0
 11
12.4231302747816
 21
12.40888362254079
 31
0.0
  0
LINE
  5
2C40
330
1E
100
AcDbEntity
  8
7
100
AcDbLine
 10
12.13835337189446
 20
15.83408047293449
 30
0.0
 11
12.13704103593645
 21
15.8367051448505
 31
0.0
  0
LINE
  5
2C41
330
1E
100
AcDbEntity
  8
7
100
AcDbLine
 10
12.13835337189446
 20
15.69890986925995
 30
0.0
 11
12.13704103593645
 21
15.69628519734394
 31
0.0
  0
LINE
  5
2C42
330
1E
100
AcDbEntity
  8
7
100
AcDbLine
 10
12.80239536664511
 20
15.88788624721271
 30
0.0
 11
12.80370770260312
 21
15.88788624721271
 31
0.0
  0
LINE
  5
2C43
330
1E
100
AcDbEntity
  8
7
100
AcDbLine
 10
12.16460009105456
 20
15.88788624721271
 30
0.0
 11
12.16197541913855
 21
15.88788624721271
 31
0.0
  0
LINE
  5
2C44
330
1E
100
AcDbEntity
  8
7
100
AcDbLine
 10
12.82864208580522
 20
15.69890986925995
 30
0.0
 11
12.82864208580522
 21
15.69628519734394
 31
0.0
  0
LINE
  5
2C45
330
1E
100
AcDbEntity
  8
7
100
AcDbLine
 10
12.82864208580522
 20
15.83408047293449
 30
0.0
 11
12.82864208580522
 21
15.8367051448505
 31
0.0
  0
LINE
  5
2C46
330
1E
100
AcDbEntity
  8
7
100
AcDbLine
 10
12.16460009105456
 20
15.64510409498174
 30
0.0
 11
12.16197541913855
 21
15.64510409498174
 31
0.0
  0
LINE
  5
2C47
330
1E
100
AcDbEntity
  8
7
100
AcDbLine
 10
12.80239536664511
 20
15.64510409498174
 30
0.0
 11
12.80370770260312
 21
15.64510409498174
 31
0.0
  0
LINE
  5
2C48
330
1E
100
AcDbEntity
  8
7
100
AcDbLine
 10
12.4231302747816
 20
15.65166577477176
 30
0.0
 11
12.4231302747816
 21
15.64904110285575
 31
0.0
  0
LINE
  5
2C49
330
1E
100
AcDbEntity
  8
7
100
AcDbLine
 10
12.54386518291808
 20
15.65166577477176
 30
0.0
 11
12.54386518291808
 21
15.64904110285575
 31
0.0
  0
LINE
  5
2C4A
330
1E
100
AcDbEntity
  8
7
100
AcDbLine
 10
12.4231302747816
 20
15.88132456742268
 30
0.0
 11
12.4231302747816
 21
15.88263690338069
 31
0.0
  0
LINE
  5
2C4B
330
1E
100
AcDbEntity
  8
7
100
AcDbLine
 10
12.54386518291808
 20
15.88132456742268
 30
0.0
 11
12.54386518291808
 21
15.88263690338069
 31
0.0
  0
LINE
  5
2C4C
330
1E
100
AcDbEntity
  8
7
100
AcDbLine
 10
11.81945573409918
 20
14.47056341256704
 30
0.0
 11
11.81945573409918
 21
14.35376551230457
 31
0.0
  0
LINE
  5
2C4D
330
1E
100
AcDbEntity
  8
7
100
AcDbLine
 10
13.1226053403984
 20
14.5112458272652
 30
0.0
 11
11.84439011730128
 21
14.5112458272652
 31
0.0
  0
LINE
  5
2C4E
330
1E
100
AcDbEntity
  8
7
100
AcDbLine
 10
13.14753972360049
 20
14.35376551230457
 30
0.0
 11
13.14753972360049
 21
14.47056341256704
 31
0.0
  0
LINE
  5
2C4F
330
1E
100
AcDbEntity
  8
7
100
AcDbLine
 10
13.1226053403984
 20
14.35376551230457
 30
0.0
 11
13.14753972360049
 21
14.35376551230457
 31
0.0
  0
LINE
  5
2C50
330
1E
100
AcDbEntity
  8
7
100
AcDbLine
 10
13.1226053403984
 20
14.3117707616484
 30
0.0
 11
13.1226053403984
 21
14.35376551230457
 31
0.0
  0
LINE
  5
2C51
330
1E
100
AcDbEntity
  8
7
100
AcDbLine
 10
11.84439011730128
 20
14.3117707616484
 30
0.0
 11
13.1226053403984
 21
14.3117707616484
 31
0.0
  0
LINE
  5
2C5D
330
1E
100
AcDbEntity
  8
7
100
AcDbLine
 10
11.67641111467661
 20
13.64247942306572
 30
0.0
 11
11.68690980234065
 21
14.1857865096799
 31
0.0
  0
LINE
  5
2C5E
330
1E
100
AcDbEntity
  8
7
100
AcDbLine
 10
11.68690980234065
 20
14.1857865096799
 30
0.0
 11
11.67641111467661
 21
14.63329307135969
 31
0.0
  0
LINE
  5
2C5F
330
1E
100
AcDbEntity
  8
7
100
AcDbLine
 10
13.04648985483409
 20
13.5611145936694
 30
0.0
 11
13.04648985483409
 21
13.51518283513922
 31
0.0
  0
LINE
  5
2C60
330
1E
100
AcDbEntity
  8
7
100
AcDbLine
 10
12.90738224328553
 20
13.73434294012609
 30
0.0
 11
12.92575494669761
 21
13.51649517109722
 31
0.0
  0
LINE
  5
2C66
330
1E
100
AcDbEntity
  8
7
100
AcDbLine
 10
12.55567620654013
 20
13.5611145936694
 30
0.0
 11
12.55567620654013
 21
13.51518283513922
 31
0.0
  0
LINE
  5
2C67
330
1E
100
AcDbEntity
  8
7
100
AcDbLine
 10
12.41131925115955
 20
13.5611145936694
 30
0.0
 11
12.41131925115955
 21
13.51518283513922
 31
0.0
  0
LINE
  5
2C68
330
1E
100
AcDbEntity
  8
7
100
AcDbLine
 10
12.27221163961099
 20
13.73434294012609
 30
0.0
 11
12.29058434302307
 21
13.51649517109722
 31
0.0
  0
LINE
  5
2C6E
330
1E
100
AcDbEntity
  8
7
100
AcDbLine
 10
11.92050560286558
 20
13.5611145936694
 30
0.0
 11
11.92050560286558
 21
13.51518283513922
 31
0.0
  0
LINE
  5
2C81
330
1E
100
AcDbEntity
  8
7
100
AcDbLine
 10
12.05830087845614
 20
13.79471039419434
 30
0.0
 11
12.05830087845614
 21
13.79339805823633
 31
0.0
  0
LINE
  5
2C82
330
1E
100
AcDbEntity
  8
7
100
AcDbLine
 10
12.05830087845614
 20
13.79471039419434
 30
0.0
 11
12.05830087845614
 21
13.80258440994237
 31
0.0
  0
LINE
  5
2C83
330
1E
100
AcDbEntity
  8
7
100
AcDbLine
 10
12.05961321441414
 20
13.81964477739644
 30
0.0
 11
12.05830087845614
 21
13.80258440994237
 31
0.0
  0
LINE
  5
2C89
330
1E
100
AcDbEntity
  8
7
100
AcDbLine
 10
12.05961321441414
 20
13.76846367503423
 30
0.0
 11
12.05961321441414
 21
13.75402797949617
 31
0.0
  0
LINE
  5
2C90
330
1E
100
AcDbEntity
  8
7
100
AcDbLine
 10
12.27221163961099
 20
13.81964477739644
 30
0.0
 11
12.05961321441414
 21
13.81964477739644
 31
0.0
  0
LINE
  5
2C91
330
1E
100
AcDbEntity
  8
7
100
AcDbLine
 10
12.05830087845614
 20
13.80258440994237
 30
0.0
 11
12.273523975569
 21
13.80258440994237
 31
0.0
  0
LINE
  5
2C92
330
1E
100
AcDbEntity
  8
7
100
AcDbLine
 10
12.273523975569
 20
13.79471039419434
 30
0.0
 11
12.05830087845614
 21
13.79471039419434
 31
0.0
  0
LINE
  5
2C93
330
1E
100
AcDbEntity
  8
7
100
AcDbLine
 10
12.05830087845614
 20
13.79339805823633
 30
0.0
 11
12.273523975569
 21
13.79339805823633
 31
0.0
  0
LINE
  5
2C94
330
1E
100
AcDbEntity
  8
7
100
AcDbLine
 10
12.273523975569
 20
13.79077338632032
 30
0.0
 11
12.05830087845614
 21
13.79077338632032
 31
0.0
  0
LINE
  5
2C95
330
1E
100
AcDbEntity
  8
7
100
AcDbLine
 10
12.27221163961099
 20
13.76846367503423
 30
0.0
 11
12.05961321441414
 21
13.76846367503423
 31
0.0
  0
LINE
  5
2C96
330
1E
100
AcDbEntity
  8
7
100
AcDbLine
 10
12.05961321441414
 20
13.75402797949617
 30
0.0
 11
12.27221163961099
 21
13.75402797949617
 31
0.0
  0
LINE
  5
2CA9
330
1E
100
AcDbEntity
  8
7
100
AcDbLine
 10
12.69215914617267
 20
13.79471039419434
 30
0.0
 11
12.69215914617267
 21
13.79339805823633
 31
0.0
  0
LINE
  5
2CAA
330
1E
100
AcDbEntity
  8
7
100
AcDbLine
 10
12.69215914617267
 20
13.79471039419434
 30
0.0
 11
12.69347148213068
 21
13.80258440994237
 31
0.0
  0
LINE
  5
2CAB
330
1E
100
AcDbEntity
  8
7
100
AcDbLine
 10
12.69478381808868
 20
13.81964477739644
 30
0.0
 11
12.69347148213068
 21
13.80258440994237
 31
0.0
  0
LINE
  5
2CB1
330
1E
100
AcDbEntity
  8
7
100
AcDbLine
 10
12.69478381808868
 20
13.76846367503423
 30
0.0
 11
12.69478381808868
 21
13.75402797949617
 31
0.0
  0
LINE
  5
2CB8
330
1E
100
AcDbEntity
  8
7
100
AcDbLine
 10
12.90738224328553
 20
13.81964477739644
 30
0.0
 11
12.69478381808868
 21
13.81964477739644
 31
0.0
  0
LINE
  5
2CB9
330
1E
100
AcDbEntity
  8
7
100
AcDbLine
 10
12.69347148213068
 20
13.80258440994237
 30
0.0
 11
12.90869457924354
 21
13.80258440994237
 31
0.0
  0
LINE
  5
2CBA
330
1E
100
AcDbEntity
  8
7
100
AcDbLine
 10
12.90869457924354
 20
13.79471039419434
 30
0.0
 11
12.69215914617267
 21
13.79471039419434
 31
0.0
  0
LINE
  5
2CBB
330
1E
100
AcDbEntity
  8
7
100
AcDbLine
 10
12.69215914617267
 20
13.79339805823633
 30
0.0
 11
12.90869457924354
 21
13.79339805823633
 31
0.0
  0
LINE
  5
2CBC
330
1E
100
AcDbEntity
  8
7
100
AcDbLine
 10
12.90869457924354
 20
13.79077338632032
 30
0.0
 11
12.69347148213068
 21
13.79077338632032
 31
0.0
  0
LINE
  5
2CBD
330
1E
100
AcDbEntity
  8
7
100
AcDbLine
 10
12.90738224328553
 20
13.76846367503423
 30
0.0
 11
12.69478381808868
 21
13.76846367503423
 31
0.0
  0
LINE
  5
2CBE
330
1E
100
AcDbEntity
  8
7
100
AcDbLine
 10
12.69478381808868
 20
13.75402797949617
 30
0.0
 11
12.90738224328553
 21
13.75402797949617
 31
0.0
  0
LINE
  5
2CBF
330
1E
100
AcDbEntity
  8
7
100
AcDbLine
 10
12.25383893619892
 20
14.07948729708147
 30
0.0
 11
12.07798591782621
 21
14.07948729708147
 31
0.0
  0
LINE
  5
2CC5
330
1E
100
AcDbEntity
  8
7
100
AcDbLine
 10
12.88769720391545
 20
14.07948729708147
 30
0.0
 11
12.71315652150076
 21
14.07948729708147
 31
0.0
  0
LINE
  5
2CC6
330
1E
100
AcDbEntity
  8
7
100
AcDbLine
 10
12.88769720391545
 20
14.11229569603161
 30
0.0
 11
12.71315652150076
 21
14.11229569603161
 31
0.0
  0
LINE
  5
2CC7
330
1E
100
AcDbEntity
  8
7
100
AcDbLine
 10
12.71315652150076
 20
14.11229569603161
 30
0.0
 11
12.71315652150076
 21
14.07948729708147
 31
0.0
  0
LINE
  5
2CC8
330
1E
100
AcDbEntity
  8
7
100
AcDbLine
 10
12.05961321441414
 20
14.11623270390562
 30
0.0
 11
12.06355022228816
 21
14.11229569603161
 31
0.0
  0
LINE
  5
2CC9
330
1E
100
AcDbEntity
  8
7
100
AcDbLine
 10
12.27221163961099
 20
14.11623270390562
 30
0.0
 11
12.26827463173698
 21
14.11229569603161
 31
0.0
  0
LINE
  5
2CCA
330
1E
100
AcDbEntity
  8
7
100
AcDbLine
 10
12.69478381808868
 20
14.11623270390562
 30
0.0
 11
12.6987208259627
 21
14.11229569603161
 31
0.0
  0
LINE
  5
2CCB
330
1E
100
AcDbEntity
  8
7
100
AcDbLine
 10
12.90606990732753
 20
14.11623270390562
 30
0.0
 11
12.90344523541152
 21
14.11229569603161
 31
0.0
  0
LINE
  5
2CCC
330
1E
100
AcDbEntity
  8
7
100
AcDbLine
 10
13.12129300444039
 20
14.34326682464053
 30
0.0
 11
13.1226053403984
 21
14.35376551230457
 31
0.0
  0
LINE
  5
2CCD
330
1E
100
AcDbEntity
  8
7
100
AcDbLine
 10
13.12129300444039
 20
14.34326682464053
 30
0.0
 11
13.12129300444039
 21
14.3117707616484
 31
0.0
  0
LINE
  5
2CCE
330
1E
100
AcDbEntity
  8
7
100
AcDbLine
 10
13.14622738764249
 20
14.43119333382688
 30
0.0
 11
13.14622738764249
 21
14.45744005298698
 31
0.0
  0
LINE
  5
2CCF
330
1E
100
AcDbEntity
  8
7
100
AcDbLine
 10
11.84701478921729
 20
14.47450042044105
 30
0.0
 11
11.84439011730128
 21
14.50074713960116
 31
0.0
  0
LINE
  5
2CD0
330
1E
100
AcDbEntity
  8
7
100
AcDbLine
 10
13.11998066848238
 20
14.47450042044105
 30
0.0
 11
13.12129300444039
 21
14.50074713960116
 31
0.0
  0
LINE
  5
2CD1
330
1E
100
AcDbEntity
  8
7
100
AcDbLine
 10
11.82076807005719
 20
14.43119333382688
 30
0.0
 11
11.81945573409918
 21
14.45744005298698
 31
0.0
  0
LINE
  5
2CD2
330
1E
100
AcDbEntity
  8
7
100
AcDbLine
 10
12.2000331619207
 20
14.36426419996861
 30
0.0
 11
12.18690980234065
 21
14.37869989550667
 31
0.0
  0
LINE
  5
2D1C
330
1E
100
AcDbEntity
  8
7
100
AcDbLine
 10
13.80633237451913
 20
16.35507784826257
 30
0.0
 11
13.80633237451913
 21
16.34720383251455
 31
0.0
  0
LINE
  5
2D1D
330
1E
100
AcDbEntity
  8
7
100
AcDbLine
 10
13.80633237451913
 20
16.34720383251455
 30
0.0
 11
13.80633237451913
 21
16.33145580101848
 31
0.0
  0
LINE
  5
2D46
330
1E
100
AcDbEntity
  8
7
100
AcDbLine
 10
13.40344523541152
 20
12.40888362254079
 30
0.0
 11
13.40344523541152
 21
12.33932981676651
 31
0.0
  0
LINE
  5
2D4D
330
1E
100
AcDbEntity
  8
7
100
AcDbLine
 10
13.35882581283934
 20
12.40888362254079
 30
0.0
 11
13.35882581283934
 21
12.42594398999486
 31
0.0
  0
LINE
  5
2D4E
330
1E
100
AcDbEntity
  8
7
100
AcDbLine
 10
13.37719851625141
 20
12.40888362254079
 30
0.0
 11
13.35882581283934
 21
12.40888362254079
 31
0.0
  0
LINE
  5
2D4F
330
1E
100
AcDbEntity
  8
7
100
AcDbLine
 10
13.19347148213068
 20
12.40757128658279
 30
0.0
 11
13.19347148213068
 21
12.35901485613659
 31
0.0
  0
LINE
  5
2D50
330
1E
100
AcDbEntity
  8
7
100
AcDbLine
 10
13.20265783383671
 20
12.40757128658279
 30
0.0
 11
13.19347148213068
 21
12.40757128658279
 31
0.0
  0
LINE
  5
2D56
330
1E
100
AcDbEntity
  8
7
100
AcDbLine
 10
13.20659484171073
 20
12.36295186401061
 30
0.0
 11
13.20659484171073
 21
12.40363427870877
 31
0.0
  0
LINE
  5
2D5C
330
1E
100
AcDbEntity
  8
7
100
AcDbLine
 10
13.20265783383671
 20
12.35901485613659
 30
0.0
 11
13.19347148213068
 21
12.35901485613659
 31
0.0
  0
LINE
  5
2D67
330
1E
100
AcDbEntity
  8
7
100
AcDbLine
 10
13.23152922491283
 20
12.35507784826258
 30
0.0
 11
13.23152922491283
 21
12.4101959584988
 31
0.0
  0
LINE
  5
2D68
330
1E
100
AcDbEntity
  8
7
100
AcDbLine
 10
13.23021688895482
 20
12.4101959584988
 30
0.0
 11
13.22627988108081
 21
12.42069464616284
 31
0.0
  0
LINE
  5
2D69
330
1E
100
AcDbEntity
  8
7
100
AcDbLine
 10
13.22627988108081
 20
12.42069464616284
 30
0.0
 11
13.21578119341677
 21
12.42463165403686
 31
0.0
  0
LINE
  5
2D6A
330
1E
100
AcDbEntity
  8
7
100
AcDbLine
 10
13.21578119341677
 20
12.42594398999486
 30
0.0
 11
13.16722476297057
 21
12.42594398999486
 31
0.0
  0
LINE
  5
2D70
330
1E
100
AcDbEntity
  8
7
100
AcDbLine
 10
13.34439011730128
 20
12.42594398999486
 30
0.0
 11
13.34439011730128
 21
12.33932981676651
 31
0.0
  0
LINE
  5
2D71
330
1E
100
AcDbEntity
  8
7
100
AcDbLine
 10
13.34439011730128
 20
12.42594398999486
 30
0.0
 11
13.32076807005719
 21
12.42594398999486
 31
0.0
  0
LINE
  5
2D72
330
1E
100
AcDbEntity
  8
7
100
AcDbLine
 10
13.24465258449288
 20
12.42594398999486
 30
0.0
 11
13.24465258449288
 21
12.35507784826258
 31
0.0
  0
LINE
  5
2D78
330
1E
100
AcDbEntity
  8
7
100
AcDbLine
 10
13.29189667898107
 20
12.33932981676651
 30
0.0
 11
13.26040061598894
 21
12.33932981676651
 31
0.0
  0
LINE
  5
2D83
330
1E
100
AcDbEntity
  8
7
100
AcDbLine
 10
13.28927200706506
 20
12.42594398999486
 30
0.0
 11
13.28927200706506
 21
12.36295186401061
 31
0.0
  0
LINE
  5
2D89
330
1E
100
AcDbEntity
  8
7
100
AcDbLine
 10
13.28402266323304
 20
12.35901485613659
 30
0.0
 11
13.27877331940102
 21
12.35901485613659
 31
0.0
  0
LINE
  5
2D94
330
1E
100
AcDbEntity
  8
7
100
AcDbLine
 10
12.98612240076585
 20
12.39313559104473
 30
0.0
 11
12.9743113771438
 21
12.39313559104473
 31
0.0
  0
LINE
  5
2D95
330
1E
100
AcDbEntity
  8
7
100
AcDbLine
 10
12.9743113771438
 20
12.43250566978489
 30
0.0
 11
12.9743113771438
 21
12.39313559104473
 31
0.0
  0
LINE
  5
2D96
330
1E
100
AcDbEntity
  8
7
100
AcDbLine
 10
12.98612240076585
 20
12.43250566978489
 30
0.0
 11
12.9743113771438
 21
12.43250566978489
 31
0.0
  0
LINE
  5
2D9C
330
1E
100
AcDbEntity
  8
7
100
AcDbLine
 10
12.99137174459787
 20
12.42725632595287
 30
0.0
 11
12.99137174459787
 21
12.39838493487675
 31
0.0
  0
LINE
  5
2DA2
330
1E
100
AcDbEntity
  8
7
100
AcDbLine
 10
13.05042686270811
 20
12.39444792700273
 30
0.0
 11
13.06092555037215
 21
12.37082587975864
 31
0.0
  0
LINE
  5
2DA3
330
1E
100
AcDbEntity
  8
7
100
AcDbLine
 10
13.03992817504406
 20
12.37082587975864
 30
0.0
 11
13.05042686270811
 21
12.39444792700273
 31
0.0
  0
LINE
  5
2DA4
330
1E
100
AcDbEntity
  8
7
100
AcDbLine
 10
13.06092555037215
 20
12.37082587975864
 30
0.0
 11
13.03992817504406
 21
12.37082587975864
 31
0.0
  0
LINE
  5
2DA5
330
1E
100
AcDbEntity
  8
7
100
AcDbLine
 10
13.06748723016218
 20
12.35114084038856
 30
0.0
 11
13.03336649525404
 21
12.35114084038856
 31
0.0
  0
LINE
  5
2DA6
330
1E
100
AcDbEntity
  8
7
100
AcDbLine
 10
13.07273657399419
 20
12.33932981676651
 30
0.0
 11
13.06748723016218
 21
12.35114084038856
 31
0.0
  0
LINE
  5
2DA7
330
1E
100
AcDbEntity
  8
7
100
AcDbLine
 10
13.07273657399419
 20
12.33932981676651
 30
0.0
 11
13.11210665273435
 21
12.33932981676651
 31
0.0
  0
LINE
  5
2DA8
330
1E
100
AcDbEntity
  8
7
100
AcDbLine
 10
13.11210665273435
 20
12.37607522359066
 30
0.0
 11
13.11210665273435
 21
12.33932981676651
 31
0.0
  0
LINE
  5
2DA9
330
1E
100
AcDbEntity
  8
7
100
AcDbLine
 10
13.12785468423042
 20
12.33932981676651
 30
0.0
 11
13.11210665273435
 21
12.37607522359066
 31
0.0
  0
LINE
  5
2DB3
330
1E
100
AcDbEntity
  8
7
100
AcDbLine
 10
13.08717226953225
 20
12.42594398999486
 30
0.0
 11
13.08717226953225
 21
12.36951354380063
 31
0.0
  0
LINE
  5
2DB4
330
1E
100
AcDbEntity
  8
7
100
AcDbLine
 10
13.06223788633015
 20
12.42594398999486
 30
0.0
 11
13.08717226953225
 21
12.36951354380063
 31
0.0
  0
LINE
  5
2DB5
330
1E
100
AcDbEntity
  8
7
100
AcDbLine
 10
13.06223788633015
 20
12.42594398999486
 30
0.0
 11
13.03992817504406
 21
12.42594398999486
 31
0.0
  0
LINE
  5
2DBB
330
1E
100
AcDbEntity
  8
7
100
AcDbLine
 10
12.9231302747816
 20
12.45219070915497
 30
0.0
 11
13.00187043226191
 21
12.45219070915497
 31
0.0
  0
LINE
  5
2DBC
330
1E
100
AcDbEntity
  8
7
100
AcDbLine
 10
12.9231302747816
 20
12.45219070915497
 30
0.0
 11
12.9231302747816
 21
12.33932981676651
 31
0.0
  0
LINE
  5
2DBD
330
1E
100
AcDbEntity
  8
7
100
AcDbLine
 10
12.9743113771438
 20
12.33932981676651
 30
0.0
 11
12.9231302747816
 21
12.33932981676651
 31
0.0
  0
LINE
  5
2DBE
330
1E
100
AcDbEntity
  8
7
100
AcDbLine
 10
12.9743113771438
 20
12.37476288763265
 30
0.0
 11
12.9743113771438
 21
12.33932981676651
 31
0.0
  0
LINE
  5
2DBF
330
1E
100
AcDbEntity
  8
7
100
AcDbLine
 10
12.9743113771438
 20
12.37476288763265
 30
0.0
 11
13.00187043226191
 21
12.37476288763265
 31
0.0
  0
LINE
  5
2DC5
330
1E
100
AcDbEntity
  8
7
100
AcDbLine
 10
13.00449510417792
 20
12.33932981676651
 30
0.0
 11
13.01893079971598
 21
12.37869989550667
 31
0.0
  0
LINE
  5
2DC6
330
1E
100
AcDbEntity
  8
7
100
AcDbLine
 10
13.02811715142202
 20
12.33932981676651
 30
0.0
 11
13.00449510417792
 21
12.33932981676651
 31
0.0
  0
LINE
  5
2DC7
330
1E
100
AcDbEntity
  8
7
100
AcDbLine
 10
13.02811715142202
 20
12.33932981676651
 30
0.0
 11
13.03336649525404
 21
12.35114084038856
 31
0.0
  0
LINE
  5
2DC8
330
1E
100
AcDbEntity
  8
7
100
AcDbLine
 10
16.23677856874485
 20
13.75402797949617
 30
0.0
 11
16.01368145588396
 21
14.13985475114972
 31
0.0
  0
LINE
  5
2DC9
330
1E
100
AcDbEntity
  8
7
100
AcDbLine
 10
16.81026938239315
 20
11.87607522359066
 30
0.0
 11
16.50318276821992
 21
11.89707259891875
 31
0.0
  0
LINE
  5
2DCA
330
1E
100
AcDbEntity
  8
7
100
AcDbLine
 10
16.81026938239315
 20
11.90625895062478
 30
0.0
 11
16.81026938239315
 21
16.34589149655654
 31
0.0
  0
LINE
  5
2DD7
330
1E
100
AcDbEntity
  8
7
100
AcDbLine
 10
16.50318276821992
 20
16.35507784826257
 30
0.0
 11
16.81026938239315
 21
16.37607522359066
 31
0.0
  0
LINE
  5
2DE8
330
1E
100
AcDbEntity
  8
7
100
AcDbLine
 10
16.41131925115955
 20
16.02043217897124
 30
0.0
 11
16.47693604905982
 21
16.33145580101848
 31
0.0
  0
LINE
  5
2DFF
330
1E
100
AcDbEntity
  8
7
100
AcDbLine
 10
16.01761846375797
 20
14.23696761204211
 30
0.0
 11
16.23940324066086
 21
14.55324057792137
 31
0.0
  0
LINE
  5
2E05
330
1E
100
AcDbEntity
  8
7
100
AcDbLine
 10
16.83651610155325
 20
13.73434294012609
 30
0.0
 11
16.81026938239315
 21
13.71728257267203
 31
0.0
  0
LINE
  5
2E06
330
1E
100
AcDbEntity
  8
7
100
AcDbLine
 10
16.84176544538527
 20
13.81964477739644
 30
0.0
 11
16.81026938239315
 21
13.80389674590037
 31
0.0
  0
LINE
  5
2E07
330
1E
100
AcDbEntity
  8
7
100
AcDbLine
 10
16.83389142963724
 20
13.76846367503423
 30
0.0
 11
16.81026938239315
 21
13.78946105036231
 31
0.0
  0
LINE
  5
2E08
330
1E
100
AcDbEntity
  8
7
100
AcDbLine
 10
16.83389142963724
 20
13.76846367503423
 30
0.0
 11
16.84176544538527
 21
13.75402797949617
 31
0.0
  0
LINE
  5
2E3D
330
1E
100
AcDbEntity
  8
7
100
AcDbLine
 10
16.50318276821992
 20
16.32489412122846
 30
0.0
 11
16.48349772884984
 21
16.32883112910247
 31
0.0
  0
LINE
  5
2E3E
330
1E
100
AcDbEntity
  8
7
100
AcDbLine
 10
16.48349772884984
 20
16.32883112910247
 30
0.0
 11
16.47693604905982
 21
16.33145580101848
 31
0.0
  0
LINE
  5
3212
330
1E
100
AcDbEntity
  8
7
100
AcDbLine
 10
16.47824838501782
 20
11.92069464616284
 30
0.0
 11
16.48743473672386
 21
11.90494661466678
 31
0.0
  0
LINE
  5
3213
330
1E
100
AcDbEntity
  8
7
100
AcDbLine
 10
16.48743473672386
 20
11.90494661466678
 30
0.0
 11
16.50318276821992
 21
11.89838493487675
 31
0.0
  0
LINE
  5
3214
330
1E
100
AcDbEntity
  8
7
100
AcDbLine
 10
16.50318276821992
 20
11.92725632595287
 30
0.0
 11
16.48349772884984
 21
11.92331931807885
 31
0.0
  0
LINE
  5
3215
330
1E
100
AcDbEntity
  8
7
100
AcDbLine
 10
16.48349772884984
 20
11.92331931807885
 30
0.0
 11
16.47693604905982
 21
11.92069464616284
 31
0.0
  0
LINE
  5
3216
330
1E
100
AcDbEntity
  8
7
100
AcDbLine
 10
16.50318276821992
 20
16.35376551230457
 30
0.0
 11
16.48743473672386
 21
16.34720383251455
 31
0.0
  0
LINE
  5
3217
330
1E
100
AcDbEntity
  8
7
100
AcDbLine
 10
16.48743473672386
 20
16.34720383251455
 30
0.0
 11
16.47824838501782
 21
16.33145580101848
 31
0.0
  0
LINE
  5
3218
330
1E
100
AcDbEntity
  8
7
100
AcDbLine
 10
16.50318276821992
 20
16.35507784826257
 30
0.0
 11
16.50318276821992
 21
16.34589149655654
 31
0.0
  0
LINE
  5
3219
330
1E
100
AcDbEntity
  8
7
100
AcDbLine
 10
16.50318276821992
 20
16.34589149655654
 30
0.0
 11
16.50318276821992
 21
16.32489412122846
 31
0.0
  0
LINE
  5
321A
330
1E
100
AcDbEntity
  8
7
100
AcDbLine
 10
16.50318276821992
 20
11.92725632595287
 30
0.0
 11
16.50318276821992
 21
11.90625895062478
 31
0.0
  0
LINE
  5
321B
330
1E
100
AcDbEntity
  8
7
100
AcDbLine
 10
16.50318276821992
 20
11.90625895062478
 30
0.0
 11
16.50318276821992
 21
11.89707259891875
 31
0.0
  0
LINE
  5
321C
330
1E
100
AcDbEntity
  8
7
100
AcDbLine
 10
16.01761846375797
 20
14.23696761204211
 30
0.0
 11
16.02286780758999
 21
14.23303060416809
 31
0.0
  0
LINE
  5
321D
330
1E
100
AcDbEntity
  8
7
100
AcDbLine
 10
16.02286780758999
 20
14.23303060416809
 30
0.0
 11
16.03861583908606
 21
14.22121958054604
 31
0.0
  0
LINE
  5
321E
330
1E
100
AcDbEntity
  8
7
100
AcDbLine
 10
16.03861583908606
 20
14.22121958054604
 30
0.0
 11
16.06092555037215
 21
14.20415921309197
 31
0.0
  0
LINE
  5
321F
330
1E
100
AcDbEntity
  8
7
100
AcDbLine
 10
16.06092555037215
 20
14.20415921309197
 30
0.0
 11
16.08848460549026
 21
14.1857865096799
 31
0.0
  0
LINE
  5
3220
330
1E
100
AcDbEntity
  8
7
100
AcDbLine
 10
16.01368145588396
 20
14.13985475114972
 30
0.0
 11
16.01893079971598
 21
14.14379175902373
 31
0.0
  0
LINE
  5
3221
330
1E
100
AcDbEntity
  8
7
100
AcDbLine
 10
16.01893079971598
 20
14.14379175902373
 30
0.0
 11
16.03467883121204
 21
14.15429044668778
 31
0.0
  0
LINE
  5
3222
330
1E
100
AcDbEntity
  8
7
100
AcDbLine
 10
16.03467883121204
 20
14.15429044668778
 30
0.0
 11
16.05961321441414
 21
14.16872614222583
 31
0.0
  0
LINE
  5
3223
330
1E
100
AcDbEntity
  8
7
100
AcDbLine
 10
16.05961321441414
 20
14.16872614222583
 30
0.0
 11
16.08848460549026
 21
14.1857865096799
 31
0.0
  0
LINE
  5
3224
330
1E
100
AcDbEntity
  8
7
100
AcDbLine
 10
16.01761846375797
 20
14.23696761204211
 30
0.0
 11
16.00449510417792
 21
14.20678388500798
 31
0.0
  0
LINE
  5
3225
330
1E
100
AcDbEntity
  8
7
100
AcDbLine
 10
16.00449510417792
 20
14.20678388500798
 30
0.0
 11
16.00318276821992
 21
14.17266315009985
 31
0.0
  0
LINE
  5
3226
330
1E
100
AcDbEntity
  8
7
100
AcDbLine
 10
16.00318276821992
 20
14.17266315009985
 30
0.0
 11
16.01368145588396
 21
14.14116708710772
 31
0.0
  0
LINE
  5
3227
330
1E
100
AcDbEntity
  8
7
100
AcDbLine
 10
16.81026938239315
 20
13.62541905561166
 30
0.0
 11
16.98874707268186
 21
13.74615396374814
 31
0.0
  0
LINE
  5
3228
330
1E
100
AcDbEntity
  8
7
100
AcDbLine
 10
16.98874707268186
 20
13.74615396374814
 30
0.0
 11
17.00449510417792
 21
13.75140330758016
 31
0.0
  0
LINE
  5
3229
330
1E
100
AcDbEntity
  8
7
100
AcDbLine
 10
17.00449510417792
 20
13.75140330758016
 30
0.0
 11
17.07667358186821
 21
13.75534031545418
 31
0.0
  0
LINE
  5
322A
330
1E
100
AcDbEntity
  8
7
100
AcDbLine
 10
17.07667358186821
 20
13.75534031545418
 30
0.0
 11
17.08717226953225
 21
13.7592773233282
 31
0.0
  0
LINE
  5
322B
330
1E
100
AcDbEntity
  8
7
100
AcDbLine
 10
17.08717226953225
 20
13.7592773233282
 30
0.0
 11
17.09110927740627
 21
13.76977601099223
 31
0.0
  0
LINE
  5
322C
330
1E
100
AcDbEntity
  8
7
100
AcDbLine
 10
17.09110927740627
 20
13.76977601099223
 30
0.0
 11
17.09110927740627
 21
13.79208572227832
 31
0.0
  0
LINE
  5
322D
330
1E
100
AcDbEntity
  8
7
100
AcDbLine
 10
17.09110927740627
 20
13.79208572227832
 30
0.0
 11
17.08717226953225
 21
13.80258440994237
 31
0.0
  0
LINE
  5
322E
330
1E
100
AcDbEntity
  8
7
100
AcDbLine
 10
17.08717226953225
 20
13.80258440994237
 30
0.0
 11
17.07667358186821
 21
13.80652141781638
 31
0.0
  0
LINE
  5
322F
330
1E
100
AcDbEntity
  8
7
100
AcDbLine
 10
17.07667358186821
 20
13.80652141781638
 30
0.0
 11
16.84176544538527
 21
13.81964477739644
 31
0.0
  0
LINE
  5
3230
330
1E
100
AcDbEntity
  8
7
100
AcDbLine
 10
16.84176544538527
 20
13.75402797949617
 30
0.0
 11
16.84307778134328
 21
13.74352929183213
 31
0.0
  0
LINE
  5
3231
330
1E
100
AcDbEntity
  8
7
100
AcDbLine
 10
16.84307778134328
 20
13.74352929183213
 30
0.0
 11
16.83651610155325
 21
13.73434294012609
 31
0.0
  0
LINE
  5
3232
330
1E
100
AcDbEntity
  8
7
100
AcDbLine
 10
16.23415389682884
 20
14.39182325508672
 30
0.0
 11
16.08848460549026
 21
14.1857865096799
 31
0.0
  0
LINE
  5
3233
330
1E
100
AcDbEntity
  8
7
100
AcDbLine
 10
16.08848460549026
 20
14.1857865096799
 30
0.0
 11
16.23152922491283
 21
13.9364426776589
 31
0.0
  0
LINE
  5
3234
330
1E
100
AcDbEntity
  8
7
100
AcDbLine
 10
16.26302528790495
 20
13.80914608973239
 30
0.0
 11
16.27877331940102
 21
13.49287312385313
 31
0.0
  0
LINE
  5
3235
330
1E
100
AcDbEntity
  8
7
100
AcDbLine
 10
16.27877331940102
 20
13.49287312385313
 30
0.0
 11
16.30370770260312
 21
13.17660015797386
 31
0.0
  0
LINE
  5
3236
330
1E
100
AcDbEntity
  8
7
100
AcDbLine
 10
16.30370770260312
 20
13.17660015797386
 30
0.0
 11
16.33782843751125
 21
12.86295186401061
 31
0.0
  0
LINE
  5
3237
330
1E
100
AcDbEntity
  8
7
100
AcDbLine
 10
16.33782843751125
 20
12.86295186401061
 30
0.0
 11
16.38376019604144
 21
12.54930357004735
 31
0.0
  0
LINE
  5
3238
330
1E
100
AcDbEntity
  8
7
100
AcDbLine
 10
16.38376019604144
 20
12.54930357004735
 30
0.0
 11
16.43887830627766
 21
12.23696761204211
 31
0.0
  0
LINE
  5
3239
330
1E
100
AcDbEntity
  8
7
100
AcDbLine
 10
16.43887830627766
 20
12.23696761204211
 30
0.0
 11
16.50318276821992
 21
11.92725632595287
 31
0.0
  0
LINE
  5
323A
330
1E
100
AcDbEntity
  8
7
100
AcDbLine
 10
16.50318276821992
 20
11.92725632595287
 30
0.0
 11
16.81026938239315
 21
11.90625895062478
 31
0.0
  0
LINE
  5
323B
330
1E
100
AcDbEntity
  8
7
100
AcDbLine
 10
16.81026938239315
 20
16.34589149655654
 30
0.0
 11
16.50318276821992
 21
16.32489412122846
 31
0.0
  0
LINE
  5
323C
330
1E
100
AcDbEntity
  8
7
100
AcDbLine
 10
16.50318276821992
 20
16.32489412122846
 30
0.0
 11
16.43887830627766
 21
16.01518283513922
 31
0.0
  0
LINE
  5
323D
330
1E
100
AcDbEntity
  8
7
100
AcDbLine
 10
16.43887830627766
 20
16.01518283513922
 30
0.0
 11
16.38376019604144
 21
15.70284687713397
 31
0.0
  0
LINE
  5
323E
330
1E
100
AcDbEntity
  8
7
100
AcDbLine
 10
16.38376019604144
 20
15.70284687713397
 30
0.0
 11
16.33782843751125
 21
15.38919858317071
 31
0.0
  0
LINE
  5
323F
330
1E
100
AcDbEntity
  8
7
100
AcDbLine
 10
16.33782843751125
 20
15.38919858317071
 30
0.0
 11
16.30370770260312
 21
15.07423795324945
 31
0.0
  0
LINE
  5
3240
330
1E
100
AcDbEntity
  8
7
100
AcDbLine
 10
16.30370770260312
 20
15.07423795324945
 30
0.0
 11
16.27877331940102
 21
14.75927732332819
 31
0.0
  0
LINE
  5
3241
330
1E
100
AcDbEntity
  8
7
100
AcDbLine
 10
16.27877331940102
 20
14.75927732332819
 30
0.0
 11
16.26302528790495
 21
14.44300435744893
 31
0.0
  0
LINE
  5
3242
330
1E
100
AcDbEntity
  8
7
100
AcDbLine
 10
16.26302528790495
 20
14.44300435744893
 30
0.0
 11
16.25777594407294
 21
14.12541905561166
 31
0.0
  0
LINE
  5
3243
330
1E
100
AcDbEntity
  8
7
100
AcDbLine
 10
16.25777594407294
 20
14.12541905561166
 30
0.0
 11
16.26302528790495
 21
13.80914608973239
 31
0.0
  0
LINE
  5
3244
330
1E
100
AcDbEntity
  8
7
100
AcDbLine
 10
16.47693604905982
 20
11.92069464616284
 30
0.0
 11
16.41131925115955
 21
12.23171826821008
 31
0.0
  0
LINE
  5
3245
330
1E
100
AcDbEntity
  8
7
100
AcDbLine
 10
16.41131925115955
 20
12.23171826821008
 30
0.0
 11
16.35620114092333
 21
12.54405422621533
 31
0.0
  0
LINE
  5
3246
330
1E
100
AcDbEntity
  8
7
100
AcDbLine
 10
16.35620114092333
 20
12.54405422621533
 30
0.0
 11
16.31026938239315
 21
12.85901485613659
 31
0.0
  0
LINE
  5
3247
330
1E
100
AcDbEntity
  8
7
100
AcDbLine
 10
16.31026938239315
 20
12.85901485613659
 30
0.0
 11
16.274836311527
 21
13.17397548605785
 31
0.0
  0
LINE
  5
3248
330
1E
100
AcDbEntity
  8
7
100
AcDbLine
 10
16.274836311527
 20
13.17397548605785
 30
0.0
 11
16.2499019283249
 21
13.49156078789512
 31
0.0
  0
LINE
  5
3249
330
1E
100
AcDbEntity
  8
7
100
AcDbLine
 10
16.2499019283249
 20
13.49156078789512
 30
0.0
 11
16.23546623278685
 21
13.80783375377439
 31
0.0
  0
LINE
  5
324A
330
1E
100
AcDbEntity
  8
7
100
AcDbLine
 10
16.23546623278685
 20
13.80783375377439
 30
0.0
 11
16.23021688895483
 21
14.12541905561166
 31
0.0
  0
LINE
  5
324B
330
1E
100
AcDbEntity
  8
7
100
AcDbLine
 10
16.23021688895483
 20
14.12541905561166
 30
0.0
 11
16.23546623278685
 21
14.44300435744893
 31
0.0
  0
LINE
  5
324C
330
1E
100
AcDbEntity
  8
7
100
AcDbLine
 10
16.23546623278685
 20
14.44300435744893
 30
0.0
 11
16.2499019283249
 21
14.7605896592862
 31
0.0
  0
LINE
  5
324D
330
1E
100
AcDbEntity
  8
7
100
AcDbLine
 10
16.2499019283249
 20
14.7605896592862
 30
0.0
 11
16.274836311527
 21
15.07686262516546
 31
0.0
  0
LINE
  5
324E
330
1E
100
AcDbEntity
  8
7
100
AcDbLine
 10
16.274836311527
 20
15.07686262516546
 30
0.0
 11
16.31026938239315
 21
15.39313559104473
 31
0.0
  0
LINE
  5
324F
330
1E
100
AcDbEntity
  8
7
100
AcDbLine
 10
16.31026938239315
 20
15.39313559104473
 30
0.0
 11
16.35620114092333
 21
15.70678388500798
 31
0.0
  0
LINE
  5
3250
330
1E
100
AcDbEntity
  8
7
100
AcDbLine
 10
16.35620114092333
 20
15.70678388500798
 30
0.0
 11
16.41131925115955
 21
16.02043217897124
 31
0.0
  0
LINE
  5
3251
330
1E
100
AcDbEntity
  8
7
100
AcDbLine
 10
16.81026938239315
 20
16.37607522359066
 30
0.0
 11
16.81026938239315
 21
16.37213821571664
 31
0.0
  0
LINE
  5
3252
330
1E
100
AcDbEntity
  8
7
100
AcDbLine
 10
16.81026938239315
 20
16.37213821571664
 30
0.0
 11
16.81026938239315
 21
16.3603271920946
 31
0.0
  0
LINE
  5
3253
330
1E
100
AcDbEntity
  8
7
100
AcDbLine
 10
16.81026938239315
 20
16.3603271920946
 30
0.0
 11
16.81026938239315
 21
16.34589149655654
 31
0.0
  0
LINE
  5
3254
330
1E
100
AcDbEntity
  8
7
100
AcDbLine
 10
16.81026938239315
 20
11.90625895062478
 30
0.0
 11
16.81026938239315
 21
11.89051091912872
 31
0.0
  0
LINE
  5
3255
330
1E
100
AcDbEntity
  8
7
100
AcDbLine
 10
16.81026938239315
 20
11.89051091912872
 30
0.0
 11
16.81026938239315
 21
11.88001223146468
 31
0.0
  0
LINE
  5
3256
330
1E
100
AcDbEntity
  8
7
100
AcDbLine
 10
16.81026938239315
 20
11.88001223146468
 30
0.0
 11
16.81026938239315
 21
11.87607522359066
 31
0.0
  0
LINE
  5
3257
330
1E
100
AcDbEntity
  8
7
100
AcDbLine
 10
13.00187043226191
 20
12.37607522359066
 30
0.0
 11
13.01105678396795
 21
12.37738755954867
 31
0.0
  0
LINE
  5
3258
330
1E
100
AcDbEntity
  8
7
100
AcDbLine
 10
13.01105678396795
 20
12.37738755954867
 30
0.0
 11
13.01893079971598
 21
12.38001223146468
 31
0.0
  0
LINE
  5
3259
330
1E
100
AcDbEntity
  8
7
100
AcDbLine
 10
13.03730350312805
 20
12.42594398999486
 30
0.0
 11
13.024180143548
 21
12.44562902936494
 31
0.0
  0
LINE
  5
325A
330
1E
100
AcDbEntity
  8
7
100
AcDbLine
 10
13.024180143548
 20
12.44562902936494
 30
0.0
 11
13.00187043226191
 21
12.45219070915497
 31
0.0
  0
LINE
  5
325B
330
1E
100
AcDbEntity
  8
7
100
AcDbLine
 10
13.12785468423042
 20
12.33932981676651
 30
0.0
 11
13.15410140339052
 21
12.33932981676651
 31
0.0
  0
LINE
  5
325C
330
1E
100
AcDbEntity
  8
7
100
AcDbLine
 10
13.15410140339052
 20
12.33932981676651
 30
0.0
 11
13.15410140339052
 21
12.42594398999486
 31
0.0
  0
LINE
  5
325D
330
1E
100
AcDbEntity
  8
7
100
AcDbLine
 10
13.15410140339052
 20
12.42594398999486
 30
0.0
 11
13.13179169210443
 21
12.42594398999486
 31
0.0
  0
LINE
  5
325E
330
1E
100
AcDbEntity
  8
7
100
AcDbLine
 10
13.13179169210443
 20
12.42594398999486
 30
0.0
 11
13.13179169210443
 21
12.39313559104473
 31
0.0
  0
LINE
  5
325F
330
1E
100
AcDbEntity
  8
7
100
AcDbLine
 10
13.13179169210443
 20
12.39313559104473
 30
0.0
 11
13.11604366060837
 21
12.42594398999486
 31
0.0
  0
LINE
  5
3260
330
1E
100
AcDbEntity
  8
7
100
AcDbLine
 10
13.11604366060837
 20
12.42594398999486
 30
0.0
 11
13.08717226953225
 21
12.42594398999486
 31
0.0
  0
LINE
  5
3261
330
1E
100
AcDbEntity
  8
7
100
AcDbLine
 10
12.98612240076585
 20
12.39313559104473
 30
0.0
 11
12.99005940863986
 21
12.39444792700273
 31
0.0
  0
LINE
  5
3262
330
1E
100
AcDbEntity
  8
7
100
AcDbLine
 10
12.99005940863986
 20
12.39444792700273
 30
0.0
 11
12.99137174459787
 21
12.39838493487675
 31
0.0
  0
LINE
  5
3263
330
1E
100
AcDbEntity
  8
7
100
AcDbLine
 10
12.99137174459787
 20
12.42725632595287
 30
0.0
 11
12.99005940863986
 21
12.43119333382688
 31
0.0
  0
LINE
  5
3264
330
1E
100
AcDbEntity
  8
7
100
AcDbLine
 10
12.99005940863986
 20
12.43119333382688
 30
0.0
 11
12.98612240076585
 21
12.43250566978489
 31
0.0
  0
LINE
  5
3265
330
1E
100
AcDbEntity
  8
7
100
AcDbLine
 10
13.273523975569
 20
12.36295186401061
 30
0.0
 11
13.273523975569
 21
12.42594398999486
 31
0.0
  0
LINE
  5
3266
330
1E
100
AcDbEntity
  8
7
100
AcDbLine
 10
13.273523975569
 20
12.42594398999486
 30
0.0
 11
13.24465258449288
 21
12.42594398999486
 31
0.0
  0
LINE
  5
3267
330
1E
100
AcDbEntity
  8
7
100
AcDbLine
 10
13.274836311527
 20
12.36295186401061
 30
0.0
 11
13.27614864748501
 21
12.3603271920946
 31
0.0
  0
LINE
  5
3268
330
1E
100
AcDbEntity
  8
7
100
AcDbLine
 10
13.27614864748501
 20
12.3603271920946
 30
0.0
 11
13.27877331940102
 21
12.35901485613659
 31
0.0
  0
LINE
  5
3269
330
1E
100
AcDbEntity
  8
7
100
AcDbLine
 10
13.28402266323304
 20
12.35901485613659
 30
0.0
 11
13.28664733514905
 21
12.3603271920946
 31
0.0
  0
LINE
  5
326A
330
1E
100
AcDbEntity
  8
7
100
AcDbLine
 10
13.28664733514905
 20
12.3603271920946
 30
0.0
 11
13.28795967110706
 21
12.36295186401061
 31
0.0
  0
LINE
  5
326B
330
1E
100
AcDbEntity
  8
7
100
AcDbLine
 10
13.30764471047714
 20
12.35507784826258
 30
0.0
 11
13.30764471047714
 21
12.42594398999486
 31
0.0
  0
LINE
  5
326C
330
1E
100
AcDbEntity
  8
7
100
AcDbLine
 10
13.30764471047714
 20
12.42594398999486
 30
0.0
 11
13.28927200706506
 21
12.42594398999486
 31
0.0
  0
LINE
  5
326D
330
1E
100
AcDbEntity
  8
7
100
AcDbLine
 10
13.29189667898107
 20
12.34064215272452
 30
0.0
 11
13.30239536664511
 21
12.34457916059854
 31
0.0
  0
LINE
  5
326E
330
1E
100
AcDbEntity
  8
7
100
AcDbLine
 10
13.30239536664511
 20
12.34457916059854
 30
0.0
 11
13.30633237451913
 21
12.35507784826258
 31
0.0
  0
LINE
  5
326F
330
1E
100
AcDbEntity
  8
7
100
AcDbLine
 10
13.24596492045089
 20
12.35507784826258
 30
0.0
 11
13.2499019283249
 21
12.34457916059854
 31
0.0
  0
LINE
  5
3270
330
1E
100
AcDbEntity
  8
7
100
AcDbLine
 10
13.2499019283249
 20
12.34457916059854
 30
0.0
 11
13.26040061598894
 21
12.34064215272452
 31
0.0
  0
LINE
  5
3271
330
1E
100
AcDbEntity
  8
7
100
AcDbLine
 10
13.32076807005719
 20
12.42594398999486
 30
0.0
 11
13.32076807005719
 21
12.33932981676651
 31
0.0
  0
LINE
  5
3272
330
1E
100
AcDbEntity
  8
7
100
AcDbLine
 10
13.32076807005719
 20
12.33932981676651
 30
0.0
 11
13.34439011730128
 21
12.33932981676651
 31
0.0
  0
LINE
  5
3273
330
1E
100
AcDbEntity
  8
7
100
AcDbLine
 10
13.21578119341677
 20
12.34064215272452
 30
0.0
 11
13.22627988108081
 21
12.34457916059854
 31
0.0
  0
LINE
  5
3274
330
1E
100
AcDbEntity
  8
7
100
AcDbLine
 10
13.22627988108081
 20
12.34457916059854
 30
0.0
 11
13.23021688895482
 21
12.35507784826258
 31
0.0
  0
LINE
  5
3275
330
1E
100
AcDbEntity
  8
7
100
AcDbLine
 10
13.16722476297057
 20
12.42594398999486
 30
0.0
 11
13.16722476297057
 21
12.33932981676651
 31
0.0
  0
LINE
  5
3276
330
1E
100
AcDbEntity
  8
7
100
AcDbLine
 10
13.16722476297057
 20
12.33932981676651
 30
0.0
 11
13.21578119341677
 21
12.33932981676651
 31
0.0
  0
LINE
  5
3277
330
1E
100
AcDbEntity
  8
7
100
AcDbLine
 10
13.20265783383671
 20
12.35901485613659
 30
0.0
 11
13.20528250575273
 21
12.3603271920946
 31
0.0
  0
LINE
  5
3278
330
1E
100
AcDbEntity
  8
7
100
AcDbLine
 10
13.20528250575273
 20
12.3603271920946
 30
0.0
 11
13.20659484171073
 21
12.36295186401061
 31
0.0
  0
LINE
  5
3279
330
1E
100
AcDbEntity
  8
7
100
AcDbLine
 10
13.20659484171073
 20
12.40363427870877
 30
0.0
 11
13.20528250575273
 21
12.40625895062478
 31
0.0
  0
LINE
  5
327A
330
1E
100
AcDbEntity
  8
7
100
AcDbLine
 10
13.20528250575273
 20
12.40625895062478
 30
0.0
 11
13.20265783383671
 21
12.40757128658279
 31
0.0
  0
LINE
  5
327B
330
1E
100
AcDbEntity
  8
7
100
AcDbLine
 10
13.40344523541152
 20
12.40888362254079
 30
0.0
 11
13.4231302747816
 21
12.40888362254079
 31
0.0
  0
LINE
  5
327C
330
1E
100
AcDbEntity
  8
7
100
AcDbLine
 10
13.4231302747816
 20
12.40888362254079
 30
0.0
 11
13.4231302747816
 21
12.42594398999486
 31
0.0
  0
LINE
  5
327D
330
1E
100
AcDbEntity
  8
7
100
AcDbLine
 10
13.4231302747816
 20
12.42594398999486
 30
0.0
 11
13.35882581283934
 21
12.42594398999486
 31
0.0
  0
LINE
  5
327E
330
1E
100
AcDbEntity
  8
7
100
AcDbLine
 10
13.37719851625141
 20
12.40888362254079
 30
0.0
 11
13.37719851625141
 21
12.33932981676651
 31
0.0
  0
LINE
  5
327F
330
1E
100
AcDbEntity
  8
7
100
AcDbLine
 10
13.37719851625141
 20
12.33932981676651
 30
0.0
 11
13.40344523541152
 21
12.33932981676651
 31
0.0
  0
LINE
  5
3280
330
1E
100
AcDbEntity
  8
7
100
AcDbLine
 10
11.15935074722254
 20
11.92069464616284
 30
0.0
 11
11.15935074722254
 21
11.90494661466678
 31
0.0
  0
LINE
  5
3281
330
1E
100
AcDbEntity
  8
7
100
AcDbLine
 10
11.15935074722254
 20
11.90494661466678
 30
0.0
 11
11.15935074722254
 21
11.89707259891875
 31
0.0
  0
LINE
  5
3282
330
1E
100
AcDbEntity
  8
7
100
AcDbLine
 10
13.80633237451913
 20
11.89707259891875
 30
0.0
 11
13.80633237451913
 21
11.90494661466678
 31
0.0
  0
LINE
  5
3283
330
1E
100
AcDbEntity
  8
7
100
AcDbLine
 10
13.80633237451913
 20
11.90494661466678
 30
0.0
 11
13.80633237451913
 21
11.92069464616284
 31
0.0
  0
LINE
  5
3284
330
1E
100
AcDbEntity
  8
7
100
AcDbLine
 10
11.15935074722254
 20
11.92069464616284
 30
0.0
 11
11.13966570785246
 21
11.92331931807885
 31
0.0
  0
LINE
  5
3285
330
1E
100
AcDbEntity
  8
7
100
AcDbLine
 10
11.13966570785246
 20
11.92331931807885
 30
0.0
 11
11.12916702018842
 21
11.92725632595287
 31
0.0
  0
LINE
  5
3286
330
1E
100
AcDbEntity
  8
7
100
AcDbLine
 10
13.83651610155325
 20
11.92725632595287
 30
0.0
 11
13.82732974984721
 21
11.92331931807885
 31
0.0
  0
LINE
  5
3287
330
1E
100
AcDbEntity
  8
7
100
AcDbLine
 10
13.82732974984721
 20
11.92331931807885
 30
0.0
 11
13.80633237451913
 21
11.92069464616284
 31
0.0
  0
LINE
  5
3288
330
1E
100
AcDbEntity
  8
7
100
AcDbLine
 10
11.15935074722254
 20
16.33145580101848
 30
0.0
 11
11.13966570785246
 21
16.32883112910247
 31
0.0
  0
LINE
  5
3289
330
1E
100
AcDbEntity
  8
7
100
AcDbLine
 10
11.13966570785246
 20
16.32883112910247
 30
0.0
 11
11.12916702018842
 21
16.32489412122846
 31
0.0
  0
LINE
  5
328A
330
1E
100
AcDbEntity
  8
7
100
AcDbLine
 10
13.83651610155325
 20
16.32489412122846
 30
0.0
 11
13.82732974984721
 21
16.32883112910247
 31
0.0
  0
LINE
  5
328B
330
1E
100
AcDbEntity
  8
7
100
AcDbLine
 10
13.82732974984721
 20
16.32883112910247
 30
0.0
 11
13.80633237451913
 21
16.33145580101848
 31
0.0
  0
LINE
  5
328C
330
1E
100
AcDbEntity
  8
7
100
AcDbLine
 10
11.15935074722254
 20
16.33145580101848
 30
0.0
 11
11.15935074722254
 21
16.34720383251455
 31
0.0
  0
LINE
  5
328D
330
1E
100
AcDbEntity
  8
7
100
AcDbLine
 10
11.15935074722254
 20
16.34720383251455
 30
0.0
 11
11.15935074722254
 21
16.35507784826257
 31
0.0
  0
LINE
  5
328E
330
1E
100
AcDbEntity
  8
7
100
AcDbLine
 10
11.15935074722254
 20
11.89707259891875
 30
0.0
 11
11.13835337189446
 21
11.90625895062478
 31
0.0
  0
LINE
  5
328F
330
1E
100
AcDbEntity
  8
7
100
AcDbLine
 10
11.13835337189446
 20
11.90625895062478
 30
0.0
 11
11.12916702018842
 21
11.92725632595287
 31
0.0
  0
LINE
  5
3290
330
1E
100
AcDbEntity
  8
7
100
AcDbLine
 10
13.80633237451913
 20
16.35507784826257
 30
0.0
 11
13.82864208580522
 21
16.34589149655654
 31
0.0
  0
LINE
  5
3291
330
1E
100
AcDbEntity
  8
7
100
AcDbLine
 10
13.82864208580522
 20
16.34589149655654
 30
0.0
 11
13.83651610155325
 21
16.32489412122846
 31
0.0
  0
LINE
  5
3292
330
1E
100
AcDbEntity
  8
7
100
AcDbLine
 10
11.12916702018842
 20
16.32489412122846
 30
0.0
 11
11.13835337189446
 21
16.34589149655654
 31
0.0
  0
LINE
  5
3293
330
1E
100
AcDbEntity
  8
7
100
AcDbLine
 10
11.13835337189446
 20
16.34589149655654
 30
0.0
 11
11.15935074722254
 21
16.35507784826257
 31
0.0
  0
LINE
  5
3294
330
1E
100
AcDbEntity
  8
7
100
AcDbLine
 10
13.83651610155325
 20
11.92725632595287
 30
0.0
 11
13.82864208580522
 21
11.90625895062478
 31
0.0
  0
LINE
  5
3295
330
1E
100
AcDbEntity
  8
7
100
AcDbLine
 10
13.82864208580522
 20
11.90625895062478
 30
0.0
 11
13.80633237451913
 21
11.89707259891875
 31
0.0
  0
LINE
  5
3296
330
1E
100
AcDbEntity
  8
7
100
AcDbLine
 10
13.18953447425666
 20
14.23696761204211
 30
0.0
 11
13.2236552091648
 21
14.23303060416809
 31
0.0
  0
LINE
  5
3297
330
1E
100
AcDbEntity
  8
7
100
AcDbLine
 10
13.2236552091648
 20
14.23303060416809
 30
0.0
 11
13.25252660024091
 21
14.22121958054604
 31
0.0
  0
LINE
  5
3298
330
1E
100
AcDbEntity
  8
7
100
AcDbLine
 10
13.25252660024091
 20
14.22121958054604
 30
0.0
 11
13.27221163961099
 21
14.20415921309197
 31
0.0
  0
LINE
  5
3299
330
1E
100
AcDbEntity
  8
7
100
AcDbLine
 10
13.27221163961099
 20
14.20415921309197
 30
0.0
 11
13.28008565535903
 21
14.1857865096799
 31
0.0
  0
LINE
  5
329A
330
1E
100
AcDbEntity
  8
7
100
AcDbLine
 10
13.18953447425666
 20
14.13985475114972
 30
0.0
 11
13.2236552091648
 21
14.14379175902373
 31
0.0
  0
LINE
  5
329B
330
1E
100
AcDbEntity
  8
7
100
AcDbLine
 10
13.2236552091648
 20
14.14379175902373
 30
0.0
 11
13.25252660024091
 21
14.15429044668778
 31
0.0
  0
LINE
  5
329C
330
1E
100
AcDbEntity
  8
7
100
AcDbLine
 10
13.25252660024091
 20
14.15429044668778
 30
0.0
 11
13.27221163961099
 21
14.16872614222583
 31
0.0
  0
LINE
  5
329D
330
1E
100
AcDbEntity
  8
7
100
AcDbLine
 10
13.27221163961099
 20
14.16872614222583
 30
0.0
 11
13.28008565535903
 21
14.1857865096799
 31
0.0
  0
LINE
  5
329E
330
1E
100
AcDbEntity
  8
7
100
AcDbLine
 10
11.68690980234065
 20
14.1857865096799
 30
0.0
 11
11.69478381808868
 21
14.20415921309197
 31
0.0
  0
LINE
  5
329F
330
1E
100
AcDbEntity
  8
7
100
AcDbLine
 10
11.69478381808868
 20
14.20415921309197
 30
0.0
 11
11.71446885745876
 21
14.22121958054604
 31
0.0
  0
LINE
  5
32A0
330
1E
100
AcDbEntity
  8
7
100
AcDbLine
 10
11.71446885745876
 20
14.22121958054604
 30
0.0
 11
11.74334024853488
 21
14.23303060416809
 31
0.0
  0
LINE
  5
32A1
330
1E
100
AcDbEntity
  8
7
100
AcDbLine
 10
11.74334024853488
 20
14.23303060416809
 30
0.0
 11
11.77614864748501
 21
14.23696761204211
 31
0.0
  0
LINE
  5
32A2
330
1E
100
AcDbEntity
  8
7
100
AcDbLine
 10
11.68690980234065
 20
14.1857865096799
 30
0.0
 11
11.69478381808868
 21
14.16872614222583
 31
0.0
  0
LINE
  5
32A3
330
1E
100
AcDbEntity
  8
7
100
AcDbLine
 10
11.69478381808868
 20
14.16872614222583
 30
0.0
 11
11.71446885745876
 21
14.15429044668778
 31
0.0
  0
LINE
  5
32A4
330
1E
100
AcDbEntity
  8
7
100
AcDbLine
 10
11.71446885745876
 20
14.15429044668778
 30
0.0
 11
11.74334024853488
 21
14.14379175902373
 31
0.0
  0
LINE
  5
32A5
330
1E
100
AcDbEntity
  8
7
100
AcDbLine
 10
11.74334024853488
 20
14.14379175902373
 30
0.0
 11
11.77614864748501
 21
14.13985475114972
 31
0.0
  0
LINE
  5
32A6
330
1E
100
AcDbEntity
  8
7
100
AcDbLine
 10
13.18953447425666
 20
14.13985475114972
 30
0.0
 11
13.18953447425666
 21
14.17266315009985
 31
0.0
  0
LINE
  5
32A7
330
1E
100
AcDbEntity
  8
7
100
AcDbLine
 10
13.18953447425666
 20
14.17266315009985
 30
0.0
 11
13.18953447425666
 21
14.20547154904998
 31
0.0
  0
LINE
  5
32A8
330
1E
100
AcDbEntity
  8
7
100
AcDbLine
 10
13.18953447425666
 20
14.20547154904998
 30
0.0
 11
13.18953447425666
 21
14.23696761204211
 31
0.0
  0
LINE
  5
32A9
330
1E
100
AcDbEntity
  8
7
100
AcDbLine
 10
11.77614864748501
 20
14.23696761204211
 30
0.0
 11
11.77614864748501
 21
14.20547154904998
 31
0.0
  0
LINE
  5
32AA
330
1E
100
AcDbEntity
  8
7
100
AcDbLine
 10
11.77614864748501
 20
14.20547154904998
 30
0.0
 11
11.77614864748501
 21
14.17266315009985
 31
0.0
  0
LINE
  5
32AB
330
1E
100
AcDbEntity
  8
7
100
AcDbLine
 10
11.77614864748501
 20
14.17266315009985
 30
0.0
 11
11.77614864748501
 21
14.13985475114972
 31
0.0
  0
LINE
  5
32AC
330
1E
100
AcDbEntity
  8
7
100
AcDbLine
 10
12.83520376559525
 20
14.36426419996861
 30
0.0
 11
12.82208040601519
 21
14.37869989550667
 31
0.0
  0
LINE
  5
32AD
330
1E
100
AcDbEntity
  8
7
100
AcDbLine
 10
12.82208040601519
 20
14.37869989550667
 30
0.0
 11
12.80108303068711
 21
14.38394923933869
 31
0.0
  0
LINE
  5
32AE
330
1E
100
AcDbEntity
  8
7
100
AcDbLine
 10
12.80108303068711
 20
14.38394923933869
 30
0.0
 11
12.78008565535903
 21
14.37869989550667
 31
0.0
  0
LINE
  5
32AF
330
1E
100
AcDbEntity
  8
7
100
AcDbLine
 10
12.78008565535903
 20
14.37869989550667
 30
0.0
 11
12.76696229577897
 21
14.36426419996861
 31
0.0
  0
LINE
  5
32B0
330
1E
100
AcDbEntity
  8
7
100
AcDbLine
 10
12.18690980234065
 20
14.37869989550667
 30
0.0
 11
12.16591242701257
 21
14.38394923933869
 31
0.0
  0
LINE
  5
32B1
330
1E
100
AcDbEntity
  8
7
100
AcDbLine
 10
12.16591242701257
 20
14.38394923933869
 30
0.0
 11
12.14491505168449
 21
14.37869989550667
 31
0.0
  0
LINE
  5
32B2
330
1E
100
AcDbEntity
  8
7
100
AcDbLine
 10
12.14491505168449
 20
14.37869989550667
 30
0.0
 11
12.13179169210443
 21
14.36426419996861
 31
0.0
  0
LINE
  5
32B3
330
1E
100
AcDbEntity
  8
7
100
AcDbLine
 10
12.25383893619892
 20
14.11229569603161
 30
0.0
 11
12.07798591782621
 21
14.11229569603161
 31
0.0
  0
LINE
  5
32B4
330
1E
100
AcDbEntity
  8
7
100
AcDbLine
 10
12.07798591782621
 20
14.11229569603161
 30
0.0
 11
12.07798591782621
 21
14.07948729708147
 31
0.0
  0
LINE
  5
32B5
330
1E
100
AcDbEntity
  8
7
100
AcDbLine
 10
12.69478381808868
 20
13.76846367503423
 30
0.0
 11
12.69347148213068
 21
13.78158703461428
 31
0.0
  0
LINE
  5
32B6
330
1E
100
AcDbEntity
  8
7
100
AcDbLine
 10
12.69347148213068
 20
13.78158703461428
 30
0.0
 11
12.69347148213068
 21
13.79077338632032
 31
0.0
  0
LINE
  5
32B7
330
1E
100
AcDbEntity
  8
7
100
AcDbLine
 10
12.69347148213068
 20
13.79077338632032
 30
0.0
 11
12.69215914617267
 21
13.79339805823633
 31
0.0
  0
LINE
  5
32B8
330
1E
100
AcDbEntity
  8
7
100
AcDbLine
 10
12.69478381808868
 20
13.73434294012609
 30
0.0
 11
12.69478381808868
 21
13.74352929183213
 31
0.0
  0
LINE
  5
32B9
330
1E
100
AcDbEntity
  8
7
100
AcDbLine
 10
12.69478381808868
 20
13.74352929183213
 30
0.0
 11
12.69478381808868
 21
13.75402797949617
 31
0.0
  0
LINE
  5
32BA
330
1E
100
AcDbEntity
  8
7
100
AcDbLine
 10
12.90738224328553
 20
13.76846367503423
 30
0.0
 11
12.90738224328553
 21
13.75402797949617
 31
0.0
  0
LINE
  5
32BB
330
1E
100
AcDbEntity
  8
7
100
AcDbLine
 10
12.90738224328553
 20
13.75402797949617
 30
0.0
 11
12.90738224328553
 21
13.74352929183213
 31
0.0
  0
LINE
  5
32BC
330
1E
100
AcDbEntity
  8
7
100
AcDbLine
 10
12.90738224328553
 20
13.74352929183213
 30
0.0
 11
12.90738224328553
 21
13.73434294012609
 31
0.0
  0
LINE
  5
32BD
330
1E
100
AcDbEntity
  8
7
100
AcDbLine
 10
12.90738224328553
 20
13.76846367503423
 30
0.0
 11
12.90738224328553
 21
13.78158703461428
 31
0.0
  0
LINE
  5
32BE
330
1E
100
AcDbEntity
  8
7
100
AcDbLine
 10
12.90738224328553
 20
13.78158703461428
 30
0.0
 11
12.90869457924354
 21
13.79077338632032
 31
0.0
  0
LINE
  5
32BF
330
1E
100
AcDbEntity
  8
7
100
AcDbLine
 10
12.90738224328553
 20
13.81964477739644
 30
0.0
 11
12.90869457924354
 21
13.80258440994237
 31
0.0
  0
LINE
  5
32C0
330
1E
100
AcDbEntity
  8
7
100
AcDbLine
 10
12.90869457924354
 20
13.80258440994237
 30
0.0
 11
12.90869457924354
 21
13.79471039419434
 31
0.0
  0
LINE
  5
32C1
330
1E
100
AcDbEntity
  8
7
100
AcDbLine
 10
12.90869457924354
 20
13.79471039419434
 30
0.0
 11
12.90869457924354
 21
13.79339805823633
 31
0.0
  0
LINE
  5
32C2
330
1E
100
AcDbEntity
  8
7
100
AcDbLine
 10
12.90869457924354
 20
13.79339805823633
 30
0.0
 11
12.90869457924354
 21
13.79077338632032
 31
0.0
  0
LINE
  5
32C3
330
1E
100
AcDbEntity
  8
7
100
AcDbLine
 10
12.05961321441414
 20
13.76846367503423
 30
0.0
 11
12.05830087845614
 21
13.78158703461428
 31
0.0
  0
LINE
  5
32C4
330
1E
100
AcDbEntity
  8
7
100
AcDbLine
 10
12.05830087845614
 20
13.78158703461428
 30
0.0
 11
12.05830087845614
 21
13.79077338632032
 31
0.0
  0
LINE
  5
32C5
330
1E
100
AcDbEntity
  8
7
100
AcDbLine
 10
12.05830087845614
 20
13.79077338632032
 30
0.0
 11
12.05830087845614
 21
13.79339805823633
 31
0.0
  0
LINE
  5
32C6
330
1E
100
AcDbEntity
  8
7
100
AcDbLine
 10
12.05961321441414
 20
13.73434294012609
 30
0.0
 11
12.05961321441414
 21
13.74352929183213
 31
0.0
  0
LINE
  5
32C7
330
1E
100
AcDbEntity
  8
7
100
AcDbLine
 10
12.05961321441414
 20
13.74352929183213
 30
0.0
 11
12.05961321441414
 21
13.75402797949617
 31
0.0
  0
LINE
  5
32C8
330
1E
100
AcDbEntity
  8
7
100
AcDbLine
 10
12.27221163961099
 20
13.76846367503423
 30
0.0
 11
12.27221163961099
 21
13.75402797949617
 31
0.0
  0
LINE
  5
32C9
330
1E
100
AcDbEntity
  8
7
100
AcDbLine
 10
12.27221163961099
 20
13.75402797949617
 30
0.0
 11
12.27221163961099
 21
13.74352929183213
 31
0.0
  0
LINE
  5
32CA
330
1E
100
AcDbEntity
  8
7
100
AcDbLine
 10
12.27221163961099
 20
13.74352929183213
 30
0.0
 11
12.27221163961099
 21
13.73434294012609
 31
0.0
  0
LINE
  5
32CB
330
1E
100
AcDbEntity
  8
7
100
AcDbLine
 10
12.27221163961099
 20
13.76846367503423
 30
0.0
 11
12.273523975569
 21
13.78158703461428
 31
0.0
  0
LINE
  5
32CC
330
1E
100
AcDbEntity
  8
7
100
AcDbLine
 10
12.273523975569
 20
13.78158703461428
 30
0.0
 11
12.273523975569
 21
13.79077338632032
 31
0.0
  0
LINE
  5
32CD
330
1E
100
AcDbEntity
  8
7
100
AcDbLine
 10
12.27221163961099
 20
13.81964477739644
 30
0.0
 11
12.273523975569
 21
13.80258440994237
 31
0.0
  0
LINE
  5
32CE
330
1E
100
AcDbEntity
  8
7
100
AcDbLine
 10
12.273523975569
 20
13.80258440994237
 30
0.0
 11
12.273523975569
 21
13.79471039419434
 31
0.0
  0
LINE
  5
32CF
330
1E
100
AcDbEntity
  8
7
100
AcDbLine
 10
12.273523975569
 20
13.79471039419434
 30
0.0
 11
12.273523975569
 21
13.79339805823633
 31
0.0
  0
LINE
  5
32D0
330
1E
100
AcDbEntity
  8
7
100
AcDbLine
 10
12.273523975569
 20
13.79339805823633
 30
0.0
 11
12.273523975569
 21
13.79077338632032
 31
0.0
  0
LINE
  5
32D1
330
1E
100
AcDbEntity
  8
7
100
AcDbLine
 10
12.27221163961099
 20
13.73434294012609
 30
0.0
 11
12.05961321441414
 21
13.73434294012609
 31
0.0
  0
LINE
  5
32D2
330
1E
100
AcDbEntity
  8
7
100
AcDbLine
 10
12.05961321441414
 20
13.73434294012609
 30
0.0
 11
12.04124051100207
 21
13.51649517109722
 31
0.0
  0
LINE
  5
32D3
330
1E
100
AcDbEntity
  8
7
100
AcDbLine
 10
12.90738224328553
 20
13.73434294012609
 30
0.0
 11
12.69478381808868
 21
13.73434294012609
 31
0.0
  0
LINE
  5
32D4
330
1E
100
AcDbEntity
  8
7
100
AcDbLine
 10
12.69478381808868
 20
13.73434294012609
 30
0.0
 11
12.67641111467661
 21
13.51649517109722
 31
0.0
  0
LINE
  5
32D5
330
1E
100
AcDbEntity
  8
7
100
AcDbLine
 10
13.29058434302307
 20
14.63329307135969
 30
0.0
 11
13.28008565535903
 21
14.1857865096799
 31
0.0
  0
LINE
  5
32D6
330
1E
100
AcDbEntity
  8
7
100
AcDbLine
 10
13.28008565535903
 20
14.1857865096799
 30
0.0
 11
13.29058434302307
 21
13.64247942306572
 31
0.0
  0
LINE
  5
32D7
330
1E
100
AcDbEntity
  8
7
100
AcDbLine
 10
11.76302528790496
 20
14.7855240424883
 30
0.0
 11
11.77614864748501
 21
14.23696761204211
 31
0.0
  0
LINE
  5
32D8
330
1E
100
AcDbEntity
  8
7
100
AcDbLine
 10
11.77614864748501
 20
14.23696761204211
 30
0.0
 11
13.18953447425666
 21
14.23696761204211
 31
0.0
  0
LINE
  5
32D9
330
1E
100
AcDbEntity
  8
7
100
AcDbLine
 10
13.18953447425666
 20
14.23696761204211
 30
0.0
 11
13.20397016979472
 21
14.7855240424883
 31
0.0
  0
LINE
  5
32DA
330
1E
100
AcDbEntity
  8
7
100
AcDbLine
 10
11.14097804381046
 20
15.38919858317071
 30
0.0
 11
11.13835337189446
 21
15.70284687713397
 31
0.0
  0
LINE
  5
32DB
330
1E
100
AcDbEntity
  8
7
100
AcDbLine
 10
11.13835337189446
 20
15.70284687713397
 30
0.0
 11
11.13441636402044
 21
16.01518283513922
 31
0.0
  0
LINE
  5
32DC
330
1E
100
AcDbEntity
  8
7
100
AcDbLine
 10
11.13441636402044
 20
16.01518283513922
 30
0.0
 11
11.12916702018842
 21
16.32489412122846
 31
0.0
  0
LINE
  5
32DD
330
1E
100
AcDbEntity
  8
7
100
AcDbLine
 10
11.12916702018842
 20
16.32489412122846
 30
0.0
 11
11.10816964486033
 21
16.34589149655654
 31
0.0
  0
LINE
  5
32DE
330
1E
100
AcDbEntity
  8
7
100
AcDbLine
 10
11.10816964486033
 20
11.90625895062478
 30
0.0
 11
11.12916702018842
 21
11.92725632595287
 31
0.0
  0
LINE
  5
32DF
330
1E
100
AcDbEntity
  8
7
100
AcDbLine
 10
11.12916702018842
 20
11.92725632595287
 30
0.0
 11
11.13441636402044
 21
12.23696761204211
 31
0.0
  0
LINE
  5
32E0
330
1E
100
AcDbEntity
  8
7
100
AcDbLine
 10
11.13441636402044
 20
12.23696761204211
 30
0.0
 11
11.13835337189446
 21
12.54930357004735
 31
0.0
  0
LINE
  5
32E1
330
1E
100
AcDbEntity
  8
7
100
AcDbLine
 10
11.13835337189446
 20
12.54930357004735
 30
0.0
 11
11.14097804381046
 21
12.86295186401061
 31
0.0
  0
LINE
  5
32E2
330
1E
100
AcDbEntity
  8
7
100
AcDbLine
 10
11.14097804381046
 20
12.86295186401061
 30
0.0
 11
11.14360271572648
 21
13.17660015797386
 31
0.0
  0
LINE
  5
32E3
330
1E
100
AcDbEntity
  8
7
100
AcDbLine
 10
11.14360271572648
 20
13.17660015797386
 30
0.0
 11
11.14491505168448
 21
13.49287312385313
 31
0.0
  0
LINE
  5
32E4
330
1E
100
AcDbEntity
  8
7
100
AcDbLine
 10
11.14491505168448
 20
13.49287312385313
 30
0.0
 11
11.14622738764249
 21
13.80914608973239
 31
0.0
  0
LINE
  5
32E5
330
1E
100
AcDbEntity
  8
7
100
AcDbLine
 10
11.14622738764249
 20
13.80914608973239
 30
0.0
 11
11.14753972360049
 21
14.12541905561166
 31
0.0
  0
LINE
  5
32E6
330
1E
100
AcDbEntity
  8
7
100
AcDbLine
 10
11.14753972360049
 20
14.12541905561166
 30
0.0
 11
11.14622738764249
 21
14.44300435744893
 31
0.0
  0
LINE
  5
32E7
330
1E
100
AcDbEntity
  8
7
100
AcDbLine
 10
11.14622738764249
 20
14.44300435744893
 30
0.0
 11
11.14491505168448
 21
14.75927732332819
 31
0.0
  0
LINE
  5
32E8
330
1E
100
AcDbEntity
  8
7
100
AcDbLine
 10
11.14491505168448
 20
14.75927732332819
 30
0.0
 11
11.14360271572648
 21
15.07423795324945
 31
0.0
  0
LINE
  5
32E9
330
1E
100
AcDbEntity
  8
7
100
AcDbLine
 10
11.14360271572648
 20
15.07423795324945
 30
0.0
 11
11.14097804381046
 21
15.38919858317071
 31
0.0
  0
LINE
  5
32EA
330
1E
100
AcDbEntity
  8
7
100
AcDbLine
 10
13.83257909367924
 20
16.01518283513922
 30
0.0
 11
13.82864208580522
 21
15.70284687713397
 31
0.0
  0
LINE
  5
32EB
330
1E
100
AcDbEntity
  8
7
100
AcDbLine
 10
13.82864208580522
 20
15.70284687713397
 30
0.0
 11
13.8247050779312
 21
15.38919858317071
 31
0.0
  0
LINE
  5
32EC
330
1E
100
AcDbEntity
  8
7
100
AcDbLine
 10
13.8247050779312
 20
15.38919858317071
 30
0.0
 11
13.8233927419732
 21
15.07423795324945
 31
0.0
  0
LINE
  5
32ED
330
1E
100
AcDbEntity
  8
7
100
AcDbLine
 10
13.8233927419732
 20
15.07423795324945
 30
0.0
 11
13.82076807005719
 21
14.75927732332819
 31
0.0
  0
LINE
  5
32EE
330
1E
100
AcDbEntity
  8
7
100
AcDbLine
 10
13.82076807005719
 20
14.75927732332819
 30
0.0
 11
13.81945573409918
 21
14.44300435744893
 31
0.0
  0
LINE
  5
32EF
330
1E
100
AcDbEntity
  8
7
100
AcDbLine
 10
13.81945573409918
 20
14.44300435744893
 30
0.0
 11
13.81945573409918
 21
14.12541905561166
 31
0.0
  0
LINE
  5
32F0
330
1E
100
AcDbEntity
  8
7
100
AcDbLine
 10
13.81945573409918
 20
14.12541905561166
 30
0.0
 11
13.81945573409918
 21
13.80914608973239
 31
0.0
  0
LINE
  5
32F1
330
1E
100
AcDbEntity
  8
7
100
AcDbLine
 10
13.81945573409918
 20
13.80914608973239
 30
0.0
 11
13.82076807005719
 21
13.49287312385313
 31
0.0
  0
LINE
  5
32F2
330
1E
100
AcDbEntity
  8
7
100
AcDbLine
 10
13.82076807005719
 20
13.49287312385313
 30
0.0
 11
13.8233927419732
 21
13.17660015797386
 31
0.0
  0
LINE
  5
32F3
330
1E
100
AcDbEntity
  8
7
100
AcDbLine
 10
13.8233927419732
 20
13.17660015797386
 30
0.0
 11
13.8247050779312
 21
12.86295186401061
 31
0.0
  0
LINE
  5
32F4
330
1E
100
AcDbEntity
  8
7
100
AcDbLine
 10
13.8247050779312
 20
12.86295186401061
 30
0.0
 11
13.82864208580522
 21
12.54930357004735
 31
0.0
  0
LINE
  5
32F5
330
1E
100
AcDbEntity
  8
7
100
AcDbLine
 10
13.82864208580522
 20
12.54930357004735
 30
0.0
 11
13.83257909367924
 21
12.23696761204211
 31
0.0
  0
LINE
  5
32F6
330
1E
100
AcDbEntity
  8
7
100
AcDbLine
 10
13.83257909367924
 20
12.23696761204211
 30
0.0
 11
13.83651610155325
 21
11.92725632595287
 31
0.0
  0
LINE
  5
32F7
330
1E
100
AcDbEntity
  8
7
100
AcDbLine
 10
13.85882581283934
 20
16.34589149655654
 30
0.0
 11
13.83651610155325
 21
16.32489412122846
 31
0.0
  0
LINE
  5
32F8
330
1E
100
AcDbEntity
  8
7
100
AcDbLine
 10
13.83651610155325
 20
16.32489412122846
 30
0.0
 11
13.83257909367924
 21
16.01518283513922
 31
0.0
  0
LINE
  5
32F9
330
1E
100
AcDbEntity
  8
7
100
AcDbLine
 10
11.47956072097582
 20
12.61229569603161
 30
0.0
 11
11.47562371310181
 21
12.94694136532295
 31
0.0
  0
LINE
  5
32FA
330
1E
100
AcDbEntity
  8
7
100
AcDbLine
 10
11.47562371310181
 20
12.94694136532295
 30
0.0
 11
11.4743113771438
 21
13.28289937057229
 31
0.0
  0
LINE
  5
32FB
330
1E
100
AcDbEntity
  8
7
100
AcDbLine
 10
11.4743113771438
 20
13.28289937057229
 30
0.0
 11
11.47168670522779
 21
13.62016971177964
 31
0.0
  0
LINE
  5
32FC
330
1E
100
AcDbEntity
  8
7
100
AcDbLine
 10
11.47168670522779
 20
13.62016971177964
 30
0.0
 11
11.47168670522779
 21
13.95744005298698
 31
0.0
  0
LINE
  5
32FD
330
1E
100
AcDbEntity
  8
7
100
AcDbLine
 10
11.47168670522779
 20
13.95744005298698
 30
0.0
 11
11.47168670522779
 21
14.29471039419434
 31
0.0
  0
LINE
  5
32FE
330
1E
100
AcDbEntity
  8
7
100
AcDbLine
 10
11.47168670522779
 20
14.29471039419434
 30
0.0
 11
11.47168670522779
 21
14.63198073540169
 31
0.0
  0
LINE
  5
32FF
330
1E
100
AcDbEntity
  8
7
100
AcDbLine
 10
11.47168670522779
 20
14.63198073540169
 30
0.0
 11
11.4743113771438
 21
14.96925107660903
 31
0.0
  0
LINE
  5
3300
330
1E
100
AcDbEntity
  8
7
100
AcDbLine
 10
11.4743113771438
 20
14.96925107660903
 30
0.0
 11
11.47562371310181
 21
15.30520908185838
 31
0.0
  0
LINE
  5
3301
330
1E
100
AcDbEntity
  8
7
100
AcDbLine
 10
11.47562371310181
 20
15.30520908185838
 30
0.0
 11
11.47956072097582
 21
15.63985475114971
 31
0.0
  0
LINE
  5
3302
330
1E
100
AcDbEntity
  8
7
100
AcDbLine
 10
11.47956072097582
 20
15.63985475114971
 30
0.0
 11
11.48349772884984
 21
15.97318808448305
 31
0.0
  0
LINE
  5
3303
330
1E
100
AcDbEntity
  8
7
100
AcDbLine
 10
13.48743473672386
 20
15.63985475114971
 30
0.0
 11
13.49005940863986
 21
15.30520908185838
 31
0.0
  0
LINE
  5
3304
330
1E
100
AcDbEntity
  8
7
100
AcDbLine
 10
13.49005940863986
 20
15.30520908185838
 30
0.0
 11
13.49268408055587
 21
14.96925107660903
 31
0.0
  0
LINE
  5
3305
330
1E
100
AcDbEntity
  8
7
100
AcDbLine
 10
13.49268408055587
 20
14.96925107660903
 30
0.0
 11
13.49399641651388
 21
14.63198073540169
 31
0.0
  0
LINE
  5
3306
330
1E
100
AcDbEntity
  8
7
100
AcDbLine
 10
13.49399641651388
 20
14.63198073540169
 30
0.0
 11
13.49530875247189
 21
14.29471039419434
 31
0.0
  0
LINE
  5
3307
330
1E
100
AcDbEntity
  8
7
100
AcDbLine
 10
13.49530875247189
 20
14.29471039419434
 30
0.0
 11
13.49530875247189
 21
13.95744005298698
 31
0.0
  0
LINE
  5
3308
330
1E
100
AcDbEntity
  8
7
100
AcDbLine
 10
13.49530875247189
 20
13.95744005298698
 30
0.0
 11
13.49399641651388
 21
13.62016971177964
 31
0.0
  0
LINE
  5
3309
330
1E
100
AcDbEntity
  8
7
100
AcDbLine
 10
13.49399641651388
 20
13.62016971177964
 30
0.0
 11
13.49268408055587
 21
13.28289937057229
 31
0.0
  0
LINE
  5
330A
330
1E
100
AcDbEntity
  8
7
100
AcDbLine
 10
13.49268408055587
 20
13.28289937057229
 30
0.0
 11
13.49005940863986
 21
12.94694136532295
 31
0.0
  0
LINE
  5
330B
330
1E
100
AcDbEntity
  8
7
100
AcDbLine
 10
13.49005940863986
 20
12.94694136532295
 30
0.0
 11
13.48743473672386
 21
12.61229569603161
 31
0.0
  0
LINE
  5
330C
330
1E
100
AcDbEntity
  8
7
100
AcDbLine
 10
13.48743473672386
 20
12.61229569603161
 30
0.0
 11
13.48349772884984
 21
12.27896236269828
 31
0.0
  0
LINE
  5
330D
330
1E
100
AcDbEntity
  8
7
100
AcDbLine
 10
13.79320901493908
 20
13.17397548605785
 30
0.0
 11
13.79058434302307
 21
13.49156078789512
 31
0.0
  0
LINE
  5
330E
330
1E
100
AcDbEntity
  8
7
100
AcDbLine
 10
13.79058434302307
 20
13.49156078789512
 30
0.0
 11
13.79058434302307
 21
13.80783375377439
 31
0.0
  0
LINE
  5
330F
330
1E
100
AcDbEntity
  8
7
100
AcDbLine
 10
13.79058434302307
 20
13.80783375377439
 30
0.0
 11
13.78927200706506
 21
14.12541905561166
 31
0.0
  0
LINE
  5
3310
330
1E
100
AcDbEntity
  8
7
100
AcDbLine
 10
13.78927200706506
 20
14.12541905561166
 30
0.0
 11
13.79058434302307
 21
14.44300435744893
 31
0.0
  0
LINE
  5
3311
330
1E
100
AcDbEntity
  8
7
100
AcDbLine
 10
13.79058434302307
 20
14.44300435744893
 30
0.0
 11
13.79058434302307
 21
14.7605896592862
 31
0.0
  0
LINE
  5
3312
330
1E
100
AcDbEntity
  8
7
100
AcDbLine
 10
13.79058434302307
 20
14.7605896592862
 30
0.0
 11
13.79320901493908
 21
15.07686262516546
 31
0.0
  0
LINE
  5
3313
330
1E
100
AcDbEntity
  8
7
100
AcDbLine
 10
13.79320901493908
 20
15.07686262516546
 30
0.0
 11
13.79583368685509
 21
15.39313559104473
 31
0.0
  0
LINE
  5
3314
330
1E
100
AcDbEntity
  8
7
100
AcDbLine
 10
13.79583368685509
 20
15.39313559104473
 30
0.0
 11
13.7984583587711
 21
15.70678388500798
 31
0.0
  0
LINE
  5
3315
330
1E
100
AcDbEntity
  8
7
100
AcDbLine
 10
13.7984583587711
 20
15.70678388500798
 30
0.0
 11
13.80239536664511
 21
16.02043217897124
 31
0.0
  0
LINE
  5
3316
330
1E
100
AcDbEntity
  8
7
100
AcDbLine
 10
13.80239536664511
 20
16.02043217897124
 30
0.0
 11
13.80633237451913
 21
16.33145580101848
 31
0.0
  0
LINE
  5
3317
330
1E
100
AcDbEntity
  8
7
100
AcDbLine
 10
13.80633237451913
 20
16.33145580101848
 30
0.0
 11
11.15935074722254
 21
16.33145580101848
 31
0.0
  0
LINE
  5
3318
330
1E
100
AcDbEntity
  8
7
100
AcDbLine
 10
11.17641111467661
 20
14.12541905561166
 30
0.0
 11
11.17641111467661
 21
13.80783375377439
 31
0.0
  0
LINE
  5
3319
330
1E
100
AcDbEntity
  8
7
100
AcDbLine
 10
11.17641111467661
 20
13.80783375377439
 30
0.0
 11
11.17509877871861
 21
13.49156078789512
 31
0.0
  0
LINE
  5
331A
330
1E
100
AcDbEntity
  8
7
100
AcDbLine
 10
11.17509877871861
 20
13.49156078789512
 30
0.0
 11
11.1737864427606
 21
13.17397548605785
 31
0.0
  0
LINE
  5
331B
330
1E
100
AcDbEntity
  8
7
100
AcDbLine
 10
11.1737864427606
 20
13.17397548605785
 30
0.0
 11
11.17116177084459
 21
12.85901485613659
 31
0.0
  0
LINE
  5
331C
330
1E
100
AcDbEntity
  8
7
100
AcDbLine
 10
11.17116177084459
 20
12.85901485613659
 30
0.0
 11
11.16853709892858
 21
12.54405422621533
 31
0.0
  0
LINE
  5
331D
330
1E
100
AcDbEntity
  8
7
100
AcDbLine
 10
11.16853709892858
 20
12.54405422621533
 30
0.0
 11
11.16460009105456
 21
12.23171826821008
 31
0.0
  0
LINE
  5
331E
330
1E
100
AcDbEntity
  8
7
100
AcDbLine
 10
11.16460009105456
 20
12.23171826821008
 30
0.0
 11
11.15935074722254
 21
11.92069464616284
 31
0.0
  0
LINE
  5
331F
330
1E
100
AcDbEntity
  8
7
100
AcDbLine
 10
11.15935074722254
 20
11.92069464616284
 30
0.0
 11
13.80633237451913
 21
11.92069464616284
 31
0.0
  0
LINE
  5
3320
330
1E
100
AcDbEntity
  8
7
100
AcDbLine
 10
13.80633237451913
 20
11.92069464616284
 30
0.0
 11
13.80239536664511
 21
12.23171826821008
 31
0.0
  0
LINE
  5
3321
330
1E
100
AcDbEntity
  8
7
100
AcDbLine
 10
13.80239536664511
 20
12.23171826821008
 30
0.0
 11
13.7984583587711
 21
12.54405422621533
 31
0.0
  0
LINE
  5
3322
330
1E
100
AcDbEntity
  8
7
100
AcDbLine
 10
13.7984583587711
 20
12.54405422621533
 30
0.0
 11
13.79583368685509
 21
12.85901485613659
 31
0.0
  0
LINE
  5
3323
330
1E
100
AcDbEntity
  8
7
100
AcDbLine
 10
13.79583368685509
 20
12.85901485613659
 30
0.0
 11
13.79320901493908
 21
13.17397548605785
 31
0.0
  0
LINE
  5
3324
330
1E
100
AcDbEntity
  8
7
100
AcDbLine
 10
11.15935074722254
 20
16.33145580101848
 30
0.0
 11
11.16460009105456
 21
16.02043217897124
 31
0.0
  0
LINE
  5
3325
330
1E
100
AcDbEntity
  8
7
100
AcDbLine
 10
11.16460009105456
 20
16.02043217897124
 30
0.0
 11
11.16853709892858
 21
15.70678388500798
 31
0.0
  0
LINE
  5
3326
330
1E
100
AcDbEntity
  8
7
100
AcDbLine
 10
11.16853709892858
 20
15.70678388500798
 30
0.0
 11
11.17116177084459
 21
15.39313559104473
 31
0.0
  0
LINE
  5
3327
330
1E
100
AcDbEntity
  8
7
100
AcDbLine
 10
11.17116177084459
 20
15.39313559104473
 30
0.0
 11
11.1737864427606
 21
15.07686262516546
 31
0.0
  0
LINE
  5
3328
330
1E
100
AcDbEntity
  8
7
100
AcDbLine
 10
11.1737864427606
 20
15.07686262516546
 30
0.0
 11
11.17509877871861
 21
14.7605896592862
 31
0.0
  0
LINE
  5
3329
330
1E
100
AcDbEntity
  8
7
100
AcDbLine
 10
11.17509877871861
 20
14.7605896592862
 30
0.0
 11
11.17641111467661
 21
14.44300435744893
 31
0.0
  0
LINE
  5
332A
330
1E
100
AcDbEntity
  8
7
100
AcDbLine
 10
11.17641111467661
 20
14.44300435744893
 30
0.0
 11
11.17641111467661
 21
14.12541905561166
 31
0.0
  0
LINE
  5
332B
330
1E
100
AcDbEntity
  8
7
100
AcDbLine
 10
11.13835337189446
 20
16.37607522359066
 30
0.0
 11
11.15935074722254
 21
16.35507784826257
 31
0.0
  0
LINE
  5
332C
330
1E
100
AcDbEntity
  8
7
100
AcDbLine
 10
11.15935074722254
 20
16.35507784826257
 30
0.0
 11
13.80633237451913
 21
16.35507784826257
 31
0.0
  0
LINE
  5
332D
330
1E
100
AcDbEntity
  8
7
100
AcDbLine
 10
13.80633237451913
 20
16.35507784826257
 30
0.0
 11
13.82864208580522
 21
16.37607522359066
 31
0.0
  0
LINE
  5
332E
330
1E
100
AcDbEntity
  8
7
100
AcDbLine
 10
13.82864208580522
 20
16.37607522359066
 30
0.0
 11
13.84307778134328
 21
16.37213821571664
 31
0.0
  0
LINE
  5
332F
330
1E
100
AcDbEntity
  8
7
100
AcDbLine
 10
13.84307778134328
 20
16.37213821571664
 30
0.0
 11
13.85488880496532
 21
16.3603271920946
 31
0.0
  0
LINE
  5
3330
330
1E
100
AcDbEntity
  8
7
100
AcDbLine
 10
13.85488880496532
 20
16.3603271920946
 30
0.0
 11
13.85882581283934
 21
16.34589149655654
 31
0.0
  0
LINE
  5
3331
330
1E
100
AcDbEntity
  8
7
100
AcDbLine
 10
11.13835337189446
 20
11.87607522359066
 30
0.0
 11
11.1239176763564
 21
11.88001223146468
 31
0.0
  0
LINE
  5
3332
330
1E
100
AcDbEntity
  8
7
100
AcDbLine
 10
11.1239176763564
 20
11.88001223146468
 30
0.0
 11
11.11210665273435
 21
11.89051091912872
 31
0.0
  0
LINE
  5
3333
330
1E
100
AcDbEntity
  8
7
100
AcDbLine
 10
11.11210665273435
 20
11.89051091912872
 30
0.0
 11
11.10816964486033
 21
11.90625895062478
 31
0.0
  0
LINE
  5
3334
330
1E
100
AcDbEntity
  8
7
100
AcDbLine
 10
11.10816964486033
 20
11.90625895062478
 30
0.0
 11
11.10816964486033
 21
16.34589149655654
 31
0.0
  0
LINE
  5
3335
330
1E
100
AcDbEntity
  8
7
100
AcDbLine
 10
11.10816964486033
 20
16.34589149655654
 30
0.0
 11
11.11210665273435
 21
16.3603271920946
 31
0.0
  0
LINE
  5
3336
330
1E
100
AcDbEntity
  8
7
100
AcDbLine
 10
11.11210665273435
 20
16.3603271920946
 30
0.0
 11
11.1239176763564
 21
16.37213821571664
 31
0.0
  0
LINE
  5
3337
330
1E
100
AcDbEntity
  8
7
100
AcDbLine
 10
11.1239176763564
 20
16.37213821571664
 30
0.0
 11
11.13835337189446
 21
16.37607522359066
 31
0.0
  0
LINE
  5
3338
330
1E
100
AcDbEntity
  8
7
100
AcDbLine
 10
13.85882581283934
 20
11.90625895062478
 30
0.0
 11
13.85488880496532
 21
11.89051091912872
 31
0.0
  0
LINE
  5
3339
330
1E
100
AcDbEntity
  8
7
100
AcDbLine
 10
13.85488880496532
 20
11.89051091912872
 30
0.0
 11
13.84307778134328
 21
11.88001223146468
 31
0.0
  0
LINE
  5
333A
330
1E
100
AcDbEntity
  8
7
100
AcDbLine
 10
13.84307778134328
 20
11.88001223146468
 30
0.0
 11
13.82864208580522
 21
11.87607522359066
 31
0.0
  0
LINE
  5
333B
330
1E
100
AcDbEntity
  8
7
100
AcDbLine
 10
13.80633237451913
 20
11.89707259891875
 30
0.0
 11
11.15935074722254
 21
11.89707259891875
 31
0.0
  0
LINE
  5
333C
330
1E
100
AcDbEntity
  8
7
100
AcDbLine
 10
11.15935074722254
 20
11.89707259891875
 30
0.0
 11
11.13835337189446
 21
11.87607522359066
 31
0.0
  0
LINE
  5
333D
330
1E
100
AcDbEntity
  8
7
100
AcDbLine
 10
12.16197541913855
 20
12.41544530233082
 30
0.0
 11
12.16197541913855
 21
12.36295186401061
 31
0.0
  0
LINE
  5
333E
330
1E
100
AcDbEntity
  8
7
100
AcDbLine
 10
12.16197541913855
 20
12.36295186401061
 30
0.0
 11
12.16066308318055
 21
12.36295186401061
 31
0.0
  0
LINE
  5
333F
330
1E
100
AcDbEntity
  8
7
100
AcDbLine
 10
12.4231302747816
 20
12.60048467240956
 30
0.0
 11
12.38769720391545
 21
12.59523532857754
 31
0.0
  0
LINE
  5
3340
330
1E
100
AcDbEntity
  8
7
100
AcDbLine
 10
12.38769720391545
 20
12.59523532857754
 30
0.0
 11
12.35488880496532
 21
12.57817496112347
 31
0.0
  0
LINE
  5
3341
330
1E
100
AcDbEntity
  8
7
100
AcDbLine
 10
12.35488880496532
 20
12.57817496112347
 30
0.0
 11
12.32995442176322
 21
12.55324057792137
 31
0.0
  0
LINE
  5
3342
330
1E
100
AcDbEntity
  8
7
100
AcDbLine
 10
12.32995442176322
 20
12.55324057792137
 30
0.0
 11
12.31289405430916
 21
12.52043217897124
 31
0.0
  0
LINE
  5
3343
330
1E
100
AcDbEntity
  8
7
100
AcDbLine
 10
12.31289405430916
 20
12.52043217897124
 30
0.0
 11
12.30764471047713
 21
12.4849991081051
 31
0.0
  0
LINE
  5
3344
330
1E
100
AcDbEntity
  8
7
100
AcDbLine
 10
12.30764471047713
 20
12.4849991081051
 30
0.0
 11
12.31289405430916
 21
12.44956603723895
 31
0.0
  0
LINE
  5
3345
330
1E
100
AcDbEntity
  8
7
100
AcDbLine
 10
12.31289405430916
 20
12.44956603723895
 30
0.0
 11
12.32995442176322
 21
12.41675763828882
 31
0.0
  0
LINE
  5
3346
330
1E
100
AcDbEntity
  8
7
100
AcDbLine
 10
12.32995442176322
 20
12.41675763828882
 30
0.0
 11
12.35488880496532
 21
12.39182325508672
 31
0.0
  0
LINE
  5
3347
330
1E
100
AcDbEntity
  8
7
100
AcDbLine
 10
12.35488880496532
 20
12.39182325508672
 30
0.0
 11
12.38769720391545
 21
12.37476288763265
 31
0.0
  0
LINE
  5
3348
330
1E
100
AcDbEntity
  8
7
100
AcDbLine
 10
12.38769720391545
 20
12.37476288763265
 30
0.0
 11
12.4231302747816
 21
12.36951354380063
 31
0.0
  0
LINE
  5
3349
330
1E
100
AcDbEntity
  8
7
100
AcDbLine
 10
12.57929825378422
 20
12.37476288763265
 30
0.0
 11
12.61210665273435
 21
12.39182325508672
 31
0.0
  0
LINE
  5
334A
330
1E
100
AcDbEntity
  8
7
100
AcDbLine
 10
12.61210665273435
 20
12.39182325508672
 30
0.0
 11
12.63704103593645
 21
12.41675763828882
 31
0.0
  0
LINE
  5
334B
330
1E
100
AcDbEntity
  8
7
100
AcDbLine
 10
12.63704103593645
 20
12.41675763828882
 30
0.0
 11
12.65410140339052
 21
12.44956603723895
 31
0.0
  0
LINE
  5
334C
330
1E
100
AcDbEntity
  8
7
100
AcDbLine
 10
12.65410140339052
 20
12.44956603723895
 30
0.0
 11
12.65935074722254
 21
12.4849991081051
 31
0.0
  0
LINE
  5
334D
330
1E
100
AcDbEntity
  8
7
100
AcDbLine
 10
12.65935074722254
 20
12.4849991081051
 30
0.0
 11
12.65410140339052
 21
12.52043217897124
 31
0.0
  0
LINE
  5
334E
330
1E
100
AcDbEntity
  8
7
100
AcDbLine
 10
12.65410140339052
 20
12.52043217897124
 30
0.0
 11
12.63704103593645
 21
12.55324057792137
 31
0.0
  0
LINE
  5
334F
330
1E
100
AcDbEntity
  8
7
100
AcDbLine
 10
12.63704103593645
 20
12.55324057792137
 30
0.0
 11
12.61210665273435
 21
12.57817496112347
 31
0.0
  0
LINE
  5
3350
330
1E
100
AcDbEntity
  8
7
100
AcDbLine
 10
12.61210665273435
 20
12.57817496112347
 30
0.0
 11
12.57929825378422
 21
12.59523532857754
 31
0.0
  0
LINE
  5
3351
330
1E
100
AcDbEntity
  8
7
100
AcDbLine
 10
12.57929825378422
 20
12.59523532857754
 30
0.0
 11
12.54386518291808
 21
12.60048467240956
 31
0.0
  0
LINE
  5
3352
330
1E
100
AcDbEntity
  8
7
100
AcDbLine
 10
12.13835337189446
 20
12.55324057792137
 30
0.0
 11
12.13835337189446
 21
12.41806997424683
 31
0.0
  0
LINE
  5
3353
330
1E
100
AcDbEntity
  8
7
100
AcDbLine
 10
12.13835337189446
 20
12.41806997424683
 30
0.0
 11
12.16460009105456
 21
12.41806997424683
 31
0.0
  0
LINE
  5
3354
330
1E
100
AcDbEntity
  8
7
100
AcDbLine
 10
12.16460009105456
 20
12.41806997424683
 30
0.0
 11
12.16460009105456
 21
12.36426419996861
 31
0.0
  0
LINE
  5
3355
330
1E
100
AcDbEntity
  8
7
100
AcDbLine
 10
12.16460009105456
 20
12.36426419996861
 30
0.0
 11
12.80239536664511
 21
12.36426419996861
 31
0.0
  0
LINE
  5
3356
330
1E
100
AcDbEntity
  8
7
100
AcDbLine
 10
12.80239536664511
 20
12.36426419996861
 30
0.0
 11
12.80239536664511
 21
12.41806997424683
 31
0.0
  0
LINE
  5
3357
330
1E
100
AcDbEntity
  8
7
100
AcDbLine
 10
12.80239536664511
 20
12.41806997424683
 30
0.0
 11
12.82864208580522
 21
12.41806997424683
 31
0.0
  0
LINE
  5
3358
330
1E
100
AcDbEntity
  8
7
100
AcDbLine
 10
12.82864208580522
 20
12.41806997424683
 30
0.0
 11
12.82864208580522
 21
12.55324057792137
 31
0.0
  0
LINE
  5
3359
330
1E
100
AcDbEntity
  8
7
100
AcDbLine
 10
12.82864208580522
 20
12.55324057792137
 30
0.0
 11
12.80239536664511
 21
12.55324057792137
 31
0.0
  0
LINE
  5
335A
330
1E
100
AcDbEntity
  8
7
100
AcDbLine
 10
12.80239536664511
 20
12.55324057792137
 30
0.0
 11
12.80239536664511
 21
12.60573401624158
 31
0.0
  0
LINE
  5
335B
330
1E
100
AcDbEntity
  8
7
100
AcDbLine
 10
12.80239536664511
 20
12.60573401624158
 30
0.0
 11
12.16460009105456
 21
12.60573401624158
 31
0.0
  0
LINE
  5
335C
330
1E
100
AcDbEntity
  8
7
100
AcDbLine
 10
12.16460009105456
 20
12.60573401624158
 30
0.0
 11
12.16460009105456
 21
12.55324057792137
 31
0.0
  0
LINE
  5
335D
330
1E
100
AcDbEntity
  8
7
100
AcDbLine
 10
12.16460009105456
 20
12.55324057792137
 30
0.0
 11
12.13835337189446
 21
12.55324057792137
 31
0.0
  0
LINE
  5
335E
330
1E
100
AcDbEntity
  8
7
100
AcDbLine
 10
12.39425888370548
 20
12.55455291387937
 30
0.0
 11
12.37063683646139
 21
12.53749254642531
 31
0.0
  0
LINE
  5
335F
330
1E
100
AcDbEntity
  8
7
100
AcDbLine
 10
12.37063683646139
 20
12.53749254642531
 30
0.0
 11
12.35357646900732
 21
12.51387049918121
 31
0.0
  0
LINE
  5
3360
330
1E
100
AcDbEntity
  8
7
100
AcDbLine
 10
12.35357646900732
 20
12.51387049918121
 30
0.0
 11
12.3483271251753
 21
12.4849991081051
 31
0.0
  0
LINE
  5
3361
330
1E
100
AcDbEntity
  8
7
100
AcDbLine
 10
12.3483271251753
 20
12.4849991081051
 30
0.0
 11
12.35357646900732
 21
12.45612771702898
 31
0.0
  0
LINE
  5
3362
330
1E
100
AcDbEntity
  8
7
100
AcDbLine
 10
12.35357646900732
 20
12.45612771702898
 30
0.0
 11
12.37063683646139
 21
12.43250566978489
 31
0.0
  0
LINE
  5
3363
330
1E
100
AcDbEntity
  8
7
100
AcDbLine
 10
12.37063683646139
 20
12.43250566978489
 30
0.0
 11
12.39425888370548
 21
12.41544530233082
 31
0.0
  0
LINE
  5
3364
330
1E
100
AcDbEntity
  8
7
100
AcDbLine
 10
12.39425888370548
 20
12.41544530233082
 30
0.0
 11
12.4231302747816
 21
12.4101959584988
 31
0.0
  0
LINE
  5
3365
330
1E
100
AcDbEntity
  8
7
100
AcDbLine
 10
12.54386518291808
 20
12.4101959584988
 30
0.0
 11
12.57273657399419
 21
12.41544530233082
 31
0.0
  0
LINE
  5
3366
330
1E
100
AcDbEntity
  8
7
100
AcDbLine
 10
12.57273657399419
 20
12.41544530233082
 30
0.0
 11
12.59635862123829
 21
12.43250566978489
 31
0.0
  0
LINE
  5
3367
330
1E
100
AcDbEntity
  8
7
100
AcDbLine
 10
12.59635862123829
 20
12.43250566978489
 30
0.0
 11
12.61341898869236
 21
12.45612771702898
 31
0.0
  0
LINE
  5
3368
330
1E
100
AcDbEntity
  8
7
100
AcDbLine
 10
12.61341898869236
 20
12.45612771702898
 30
0.0
 11
12.61866833252438
 21
12.4849991081051
 31
0.0
  0
LINE
  5
3369
330
1E
100
AcDbEntity
  8
7
100
AcDbLine
 10
12.61866833252438
 20
12.4849991081051
 30
0.0
 11
12.61341898869236
 21
12.51387049918121
 31
0.0
  0
LINE
  5
336A
330
1E
100
AcDbEntity
  8
7
100
AcDbLine
 10
12.61341898869236
 20
12.51387049918121
 30
0.0
 11
12.59635862123829
 21
12.53749254642531
 31
0.0
  0
LINE
  5
336B
330
1E
100
AcDbEntity
  8
7
100
AcDbLine
 10
12.59635862123829
 20
12.53749254642531
 30
0.0
 11
12.57273657399419
 21
12.55455291387937
 31
0.0
  0
LINE
  5
336C
330
1E
100
AcDbEntity
  8
7
100
AcDbLine
 10
12.57273657399419
 20
12.55455291387937
 30
0.0
 11
12.54386518291808
 21
12.55980225771139
 31
0.0
  0
LINE
  5
336D
330
1E
100
AcDbEntity
  8
7
100
AcDbLine
 10
12.54386518291808
 20
12.4101959584988
 30
0.0
 11
12.57273657399419
 21
12.41544530233082
 31
0.0
  0
LINE
  5
336E
330
1E
100
AcDbEntity
  8
7
100
AcDbLine
 10
12.57273657399419
 20
12.41544530233082
 30
0.0
 11
12.59635862123829
 21
12.43250566978489
 31
0.0
  0
LINE
  5
336F
330
1E
100
AcDbEntity
  8
7
100
AcDbLine
 10
12.59635862123829
 20
12.43250566978489
 30
0.0
 11
12.61341898869236
 21
12.45612771702898
 31
0.0
  0
LINE
  5
3370
330
1E
100
AcDbEntity
  8
7
100
AcDbLine
 10
12.61341898869236
 20
12.45612771702898
 30
0.0
 11
12.61866833252438
 21
12.4849991081051
 31
0.0
  0
LINE
  5
3371
330
1E
100
AcDbEntity
  8
7
100
AcDbLine
 10
12.61866833252438
 20
12.4849991081051
 30
0.0
 11
12.61341898869236
 21
12.51387049918121
 31
0.0
  0
LINE
  5
3372
330
1E
100
AcDbEntity
  8
7
100
AcDbLine
 10
12.61341898869236
 20
12.51387049918121
 30
0.0
 11
12.59635862123829
 21
12.53749254642531
 31
0.0
  0
LINE
  5
3373
330
1E
100
AcDbEntity
  8
7
100
AcDbLine
 10
12.59635862123829
 20
12.53749254642531
 30
0.0
 11
12.57273657399419
 21
12.55455291387937
 31
0.0
  0
LINE
  5
3374
330
1E
100
AcDbEntity
  8
7
100
AcDbLine
 10
12.57273657399419
 20
12.55455291387937
 30
0.0
 11
12.54386518291808
 21
12.55980225771139
 31
0.0
  0
LINE
  5
3375
330
1E
100
AcDbEntity
  8
7
100
AcDbLine
 10
12.4231302747816
 20
12.55980225771139
 30
0.0
 11
12.39425888370548
 21
12.55455291387937
 31
0.0
  0
LINE
  5
3376
330
1E
100
AcDbEntity
  8
7
100
AcDbLine
 10
12.39425888370548
 20
12.55455291387937
 30
0.0
 11
12.37063683646139
 21
12.53749254642531
 31
0.0
  0
LINE
  5
3377
330
1E
100
AcDbEntity
  8
7
100
AcDbLine
 10
12.37063683646139
 20
12.53749254642531
 30
0.0
 11
12.35357646900732
 21
12.51387049918121
 31
0.0
  0
LINE
  5
3378
330
1E
100
AcDbEntity
  8
7
100
AcDbLine
 10
12.35357646900732
 20
12.51387049918121
 30
0.0
 11
12.3483271251753
 21
12.4849991081051
 31
0.0
  0
LINE
  5
3379
330
1E
100
AcDbEntity
  8
7
100
AcDbLine
 10
12.3483271251753
 20
12.4849991081051
 30
0.0
 11
12.35357646900732
 21
12.45612771702898
 31
0.0
  0
LINE
  5
337A
330
1E
100
AcDbEntity
  8
7
100
AcDbLine
 10
12.35357646900732
 20
12.45612771702898
 30
0.0
 11
12.37063683646139
 21
12.43250566978489
 31
0.0
  0
LINE
  5
337B
330
1E
100
AcDbEntity
  8
7
100
AcDbLine
 10
12.37063683646139
 20
12.43250566978489
 30
0.0
 11
12.39425888370548
 21
12.41544530233082
 31
0.0
  0
LINE
  5
337C
330
1E
100
AcDbEntity
  8
7
100
AcDbLine
 10
12.39425888370548
 20
12.41544530233082
 30
0.0
 11
12.4231302747816
 21
12.4101959584988
 31
0.0
  0
LINE
  5
337D
330
1E
100
AcDbEntity
  8
7
100
AcDbLine
 10
12.54386518291808
 20
12.37082587975864
 30
0.0
 11
12.57929825378422
 21
12.37607522359066
 31
0.0
  0
LINE
  5
337E
330
1E
100
AcDbEntity
  8
7
100
AcDbLine
 10
12.57929825378422
 20
12.37607522359066
 30
0.0
 11
12.61079431677635
 21
12.39313559104473
 31
0.0
  0
LINE
  5
337F
330
1E
100
AcDbEntity
  8
7
100
AcDbLine
 10
12.61079431677635
 20
12.39313559104473
 30
0.0
 11
12.63572869997845
 21
12.41806997424683
 31
0.0
  0
LINE
  5
3380
330
1E
100
AcDbEntity
  8
7
100
AcDbLine
 10
12.63572869997845
 20
12.41806997424683
 30
0.0
 11
12.65278906743252
 21
12.44956603723895
 31
0.0
  0
LINE
  5
3381
330
1E
100
AcDbEntity
  8
7
100
AcDbLine
 10
12.65278906743252
 20
12.44956603723895
 30
0.0
 11
12.65803841126454
 21
12.4849991081051
 31
0.0
  0
LINE
  5
3382
330
1E
100
AcDbEntity
  8
7
100
AcDbLine
 10
12.65803841126454
 20
12.4849991081051
 30
0.0
 11
12.65278906743252
 21
12.52043217897124
 31
0.0
  0
LINE
  5
3383
330
1E
100
AcDbEntity
  8
7
100
AcDbLine
 10
12.65278906743252
 20
12.52043217897124
 30
0.0
 11
12.63572869997845
 21
12.55192824196337
 31
0.0
  0
LINE
  5
3384
330
1E
100
AcDbEntity
  8
7
100
AcDbLine
 10
12.63572869997845
 20
12.55192824196337
 30
0.0
 11
12.61079431677635
 21
12.57686262516546
 31
0.0
  0
LINE
  5
3385
330
1E
100
AcDbEntity
  8
7
100
AcDbLine
 10
12.61079431677635
 20
12.57686262516546
 30
0.0
 11
12.57929825378422
 21
12.59392299261953
 31
0.0
  0
LINE
  5
3386
330
1E
100
AcDbEntity
  8
7
100
AcDbLine
 10
12.57929825378422
 20
12.59392299261953
 30
0.0
 11
12.54386518291808
 21
12.59917233645155
 31
0.0
  0
LINE
  5
3387
330
1E
100
AcDbEntity
  8
7
100
AcDbLine
 10
12.4231302747816
 20
12.59917233645155
 30
0.0
 11
12.38769720391545
 21
12.59392299261953
 31
0.0
  0
LINE
  5
3388
330
1E
100
AcDbEntity
  8
7
100
AcDbLine
 10
12.38769720391545
 20
12.59392299261953
 30
0.0
 11
12.35620114092333
 21
12.57686262516546
 31
0.0
  0
LINE
  5
3389
330
1E
100
AcDbEntity
  8
7
100
AcDbLine
 10
12.35620114092333
 20
12.57686262516546
 30
0.0
 11
12.33126675772123
 21
12.55192824196337
 31
0.0
  0
LINE
  5
338A
330
1E
100
AcDbEntity
  8
7
100
AcDbLine
 10
12.33126675772123
 20
12.55192824196337
 30
0.0
 11
12.31420639026716
 21
12.52043217897124
 31
0.0
  0
LINE
  5
338B
330
1E
100
AcDbEntity
  8
7
100
AcDbLine
 10
12.31420639026716
 20
12.52043217897124
 30
0.0
 11
12.30895704643514
 21
12.4849991081051
 31
0.0
  0
LINE
  5
338C
330
1E
100
AcDbEntity
  8
7
100
AcDbLine
 10
12.30895704643514
 20
12.4849991081051
 30
0.0
 11
12.31420639026716
 21
12.44956603723895
 31
0.0
  0
LINE
  5
338D
330
1E
100
AcDbEntity
  8
7
100
AcDbLine
 10
12.31420639026716
 20
12.44956603723895
 30
0.0
 11
12.33126675772123
 21
12.41806997424683
 31
0.0
  0
LINE
  5
338E
330
1E
100
AcDbEntity
  8
7
100
AcDbLine
 10
12.33126675772123
 20
12.41806997424683
 30
0.0
 11
12.35620114092333
 21
12.39313559104473
 31
0.0
  0
LINE
  5
338F
330
1E
100
AcDbEntity
  8
7
100
AcDbLine
 10
12.35620114092333
 20
12.39313559104473
 30
0.0
 11
12.38769720391545
 21
12.37607522359066
 31
0.0
  0
LINE
  5
3390
330
1E
100
AcDbEntity
  8
7
100
AcDbLine
 10
12.38769720391545
 20
12.37607522359066
 30
0.0
 11
12.4231302747816
 21
12.37082587975864
 31
0.0
  0
LINE
  5
3391
330
1E
100
AcDbEntity
  8
7
100
AcDbLine
 10
12.31289405430916
 20
15.80127207398436
 30
0.0
 11
12.30764471047713
 21
15.76583900311822
 31
0.0
  0
LINE
  5
3392
330
1E
100
AcDbEntity
  8
7
100
AcDbLine
 10
12.30764471047713
 20
15.76583900311822
 30
0.0
 11
12.31289405430916
 21
15.73040593225208
 31
0.0
  0
LINE
  5
3393
330
1E
100
AcDbEntity
  8
7
100
AcDbLine
 10
12.31289405430916
 20
15.73040593225208
 30
0.0
 11
12.32995442176322
 21
15.69759753330195
 31
0.0
  0
LINE
  5
3394
330
1E
100
AcDbEntity
  8
7
100
AcDbLine
 10
12.32995442176322
 20
15.69759753330195
 30
0.0
 11
12.35488880496532
 21
15.67266315009985
 31
0.0
  0
LINE
  5
3395
330
1E
100
AcDbEntity
  8
7
100
AcDbLine
 10
12.35488880496532
 20
15.67266315009985
 30
0.0
 11
12.38769720391545
 21
15.65560278264578
 31
0.0
  0
LINE
  5
3396
330
1E
100
AcDbEntity
  8
7
100
AcDbLine
 10
12.38769720391545
 20
15.65560278264578
 30
0.0
 11
12.4231302747816
 21
15.65035343881376
 31
0.0
  0
LINE
  5
3397
330
1E
100
AcDbEntity
  8
7
100
AcDbLine
 10
12.4231302747816
 20
15.88132456742268
 30
0.0
 11
12.38769720391545
 21
15.87607522359066
 31
0.0
  0
LINE
  5
3398
330
1E
100
AcDbEntity
  8
7
100
AcDbLine
 10
12.38769720391545
 20
15.87607522359066
 30
0.0
 11
12.35488880496532
 21
15.85901485613659
 31
0.0
  0
LINE
  5
3399
330
1E
100
AcDbEntity
  8
7
100
AcDbLine
 10
12.35488880496532
 20
15.85901485613659
 30
0.0
 11
12.32995442176322
 21
15.83408047293449
 31
0.0
  0
LINE
  5
339A
330
1E
100
AcDbEntity
  8
7
100
AcDbLine
 10
12.32995442176322
 20
15.83408047293449
 30
0.0
 11
12.31289405430916
 21
15.80127207398436
 31
0.0
  0
LINE
  5
339B
330
1E
100
AcDbEntity
  8
7
100
AcDbLine
 10
12.65410140339052
 20
15.80127207398436
 30
0.0
 11
12.63704103593645
 21
15.83408047293449
 31
0.0
  0
LINE
  5
339C
330
1E
100
AcDbEntity
  8
7
100
AcDbLine
 10
12.63704103593645
 20
15.83408047293449
 30
0.0
 11
12.61210665273435
 21
15.85901485613659
 31
0.0
  0
LINE
  5
339D
330
1E
100
AcDbEntity
  8
7
100
AcDbLine
 10
12.61210665273435
 20
15.85901485613659
 30
0.0
 11
12.57929825378422
 21
15.87607522359066
 31
0.0
  0
LINE
  5
339E
330
1E
100
AcDbEntity
  8
7
100
AcDbLine
 10
12.57929825378422
 20
15.87607522359066
 30
0.0
 11
12.54386518291808
 21
15.88132456742268
 31
0.0
  0
LINE
  5
339F
330
1E
100
AcDbEntity
  8
7
100
AcDbLine
 10
12.54386518291808
 20
15.65035343881376
 30
0.0
 11
12.57929825378422
 21
15.65560278264578
 31
0.0
  0
LINE
  5
33A0
330
1E
100
AcDbEntity
  8
7
100
AcDbLine
 10
12.57929825378422
 20
15.65560278264578
 30
0.0
 11
12.61210665273435
 21
15.67266315009985
 31
0.0
  0
LINE
  5
33A1
330
1E
100
AcDbEntity
  8
7
100
AcDbLine
 10
12.61210665273435
 20
15.67266315009985
 30
0.0
 11
12.63704103593645
 21
15.69759753330195
 31
0.0
  0
LINE
  5
33A2
330
1E
100
AcDbEntity
  8
7
100
AcDbLine
 10
12.63704103593645
 20
15.69759753330195
 30
0.0
 11
12.65410140339052
 21
15.73040593225208
 31
0.0
  0
LINE
  5
33A3
330
1E
100
AcDbEntity
  8
7
100
AcDbLine
 10
12.65410140339052
 20
15.73040593225208
 30
0.0
 11
12.65935074722254
 21
15.76583900311822
 31
0.0
  0
LINE
  5
33A4
330
1E
100
AcDbEntity
  8
7
100
AcDbLine
 10
12.65935074722254
 20
15.76583900311822
 30
0.0
 11
12.65410140339052
 21
15.80127207398436
 31
0.0
  0
LINE
  5
33A5
330
1E
100
AcDbEntity
  8
7
100
AcDbLine
 10
12.4231302747816
 20
15.84064215272452
 30
0.0
 11
12.39425888370548
 21
15.8353928088925
 31
0.0
  0
LINE
  5
33A6
330
1E
100
AcDbEntity
  8
7
100
AcDbLine
 10
12.39425888370548
 20
15.8353928088925
 30
0.0
 11
12.37063683646139
 21
15.81833244143843
 31
0.0
  0
LINE
  5
33A7
330
1E
100
AcDbEntity
  8
7
100
AcDbLine
 10
12.37063683646139
 20
15.81833244143843
 30
0.0
 11
12.35357646900732
 21
15.79471039419433
 31
0.0
  0
LINE
  5
33A8
330
1E
100
AcDbEntity
  8
7
100
AcDbLine
 10
12.35357646900732
 20
15.79471039419433
 30
0.0
 11
12.3483271251753
 21
15.76583900311822
 31
0.0
  0
LINE
  5
33A9
330
1E
100
AcDbEntity
  8
7
100
AcDbLine
 10
12.3483271251753
 20
15.76583900311822
 30
0.0
 11
12.35357646900732
 21
15.7369676120421
 31
0.0
  0
LINE
  5
33AA
330
1E
100
AcDbEntity
  8
7
100
AcDbLine
 10
12.35357646900732
 20
15.7369676120421
 30
0.0
 11
12.37063683646139
 21
15.71334556479801
 31
0.0
  0
LINE
  5
33AB
330
1E
100
AcDbEntity
  8
7
100
AcDbLine
 10
12.37063683646139
 20
15.71334556479801
 30
0.0
 11
12.39425888370548
 21
15.69628519734394
 31
0.0
  0
LINE
  5
33AC
330
1E
100
AcDbEntity
  8
7
100
AcDbLine
 10
12.54386518291808
 20
15.69103585351192
 30
0.0
 11
12.57273657399419
 21
15.69628519734394
 31
0.0
  0
LINE
  5
33AD
330
1E
100
AcDbEntity
  8
7
100
AcDbLine
 10
12.57273657399419
 20
15.69628519734394
 30
0.0
 11
12.59635862123829
 21
15.71334556479801
 31
0.0
  0
LINE
  5
33AE
330
1E
100
AcDbEntity
  8
7
100
AcDbLine
 10
12.59635862123829
 20
15.71334556479801
 30
0.0
 11
12.61341898869236
 21
15.7369676120421
 31
0.0
  0
LINE
  5
33AF
330
1E
100
AcDbEntity
  8
7
100
AcDbLine
 10
12.61341898869236
 20
15.7369676120421
 30
0.0
 11
12.61866833252438
 21
15.76583900311822
 31
0.0
  0
LINE
  5
33B0
330
1E
100
AcDbEntity
  8
7
100
AcDbLine
 10
12.61866833252438
 20
15.76583900311822
 30
0.0
 11
12.61341898869236
 21
15.79471039419433
 31
0.0
  0
LINE
  5
33B1
330
1E
100
AcDbEntity
  8
7
100
AcDbLine
 10
12.61341898869236
 20
15.79471039419433
 30
0.0
 11
12.59635862123829
 21
15.81833244143843
 31
0.0
  0
LINE
  5
33B2
330
1E
100
AcDbEntity
  8
7
100
AcDbLine
 10
12.59635862123829
 20
15.81833244143843
 30
0.0
 11
12.57273657399419
 21
15.8353928088925
 31
0.0
  0
LINE
  5
33B3
330
1E
100
AcDbEntity
  8
7
100
AcDbLine
 10
12.59635862123829
 20
15.81833244143843
 30
0.0
 11
12.57273657399419
 21
15.8353928088925
 31
0.0
  0
LINE
  5
33B4
330
1E
100
AcDbEntity
  8
7
100
AcDbLine
 10
12.57273657399419
 20
15.8353928088925
 30
0.0
 11
12.54386518291808
 21
15.84064215272452
 31
0.0
  0
LINE
  5
33B5
330
1E
100
AcDbEntity
  8
7
100
AcDbLine
 10
12.54386518291808
 20
15.69103585351192
 30
0.0
 11
12.57273657399419
 21
15.69628519734394
 31
0.0
  0
LINE
  5
33B6
330
1E
100
AcDbEntity
  8
7
100
AcDbLine
 10
12.57273657399419
 20
15.69628519734394
 30
0.0
 11
12.59635862123829
 21
15.71334556479801
 31
0.0
  0
LINE
  5
33B7
330
1E
100
AcDbEntity
  8
7
100
AcDbLine
 10
12.59635862123829
 20
15.71334556479801
 30
0.0
 11
12.61341898869236
 21
15.7369676120421
 31
0.0
  0
LINE
  5
33B8
330
1E
100
AcDbEntity
  8
7
100
AcDbLine
 10
12.61341898869236
 20
15.7369676120421
 30
0.0
 11
12.61866833252438
 21
15.76583900311822
 31
0.0
  0
LINE
  5
33B9
330
1E
100
AcDbEntity
  8
7
100
AcDbLine
 10
12.61866833252438
 20
15.76583900311822
 30
0.0
 11
12.61341898869236
 21
15.79471039419433
 31
0.0
  0
LINE
  5
33BA
330
1E
100
AcDbEntity
  8
7
100
AcDbLine
 10
12.61341898869236
 20
15.79471039419433
 30
0.0
 11
12.59635862123829
 21
15.81833244143843
 31
0.0
  0
LINE
  5
33BB
330
1E
100
AcDbEntity
  8
7
100
AcDbLine
 10
12.3483271251753
 20
15.76583900311822
 30
0.0
 11
12.35357646900732
 21
15.7369676120421
 31
0.0
  0
LINE
  5
33BC
330
1E
100
AcDbEntity
  8
7
100
AcDbLine
 10
12.35357646900732
 20
15.7369676120421
 30
0.0
 11
12.37063683646139
 21
15.71334556479801
 31
0.0
  0
LINE
  5
33BD
330
1E
100
AcDbEntity
  8
7
100
AcDbLine
 10
12.37063683646139
 20
15.71334556479801
 30
0.0
 11
12.39425888370548
 21
15.69628519734394
 31
0.0
  0
LINE
  5
33BE
330
1E
100
AcDbEntity
  8
7
100
AcDbLine
 10
12.39425888370548
 20
15.69628519734394
 30
0.0
 11
12.4231302747816
 21
15.69103585351192
 31
0.0
  0
LINE
  5
33BF
330
1E
100
AcDbEntity
  8
7
100
AcDbLine
 10
12.4231302747816
 20
15.84064215272452
 30
0.0
 11
12.39425888370548
 21
15.8353928088925
 31
0.0
  0
LINE
  5
33C0
330
1E
100
AcDbEntity
  8
7
100
AcDbLine
 10
12.39425888370548
 20
15.8353928088925
 30
0.0
 11
12.37063683646139
 21
15.81833244143843
 31
0.0
  0
LINE
  5
33C1
330
1E
100
AcDbEntity
  8
7
100
AcDbLine
 10
12.37063683646139
 20
15.81833244143843
 30
0.0
 11
12.35357646900732
 21
15.79471039419433
 31
0.0
  0
LINE
  5
33C2
330
1E
100
AcDbEntity
  8
7
100
AcDbLine
 10
12.35357646900732
 20
15.79471039419433
 30
0.0
 11
12.3483271251753
 21
15.76583900311822
 31
0.0
  0
LINE
  5
33C3
330
1E
100
AcDbEntity
  8
7
100
AcDbLine
 10
12.33126675772123
 20
15.83276813697649
 30
0.0
 11
12.31420639026716
 21
15.80127207398436
 31
0.0
  0
LINE
  5
33C4
330
1E
100
AcDbEntity
  8
7
100
AcDbLine
 10
12.31420639026716
 20
15.80127207398436
 30
0.0
 11
12.30895704643514
 21
15.76583900311822
 31
0.0
  0
LINE
  5
33C5
330
1E
100
AcDbEntity
  8
7
100
AcDbLine
 10
12.30895704643514
 20
15.76583900311822
 30
0.0
 11
12.31420639026716
 21
15.73040593225208
 31
0.0
  0
LINE
  5
33C6
330
1E
100
AcDbEntity
  8
7
100
AcDbLine
 10
12.31420639026716
 20
15.73040593225208
 30
0.0
 11
12.33126675772123
 21
15.69890986925995
 31
0.0
  0
LINE
  5
33C7
330
1E
100
AcDbEntity
  8
7
100
AcDbLine
 10
12.33126675772123
 20
15.69890986925995
 30
0.0
 11
12.35620114092333
 21
15.67397548605785
 31
0.0
  0
LINE
  5
33C8
330
1E
100
AcDbEntity
  8
7
100
AcDbLine
 10
12.35620114092333
 20
15.67397548605785
 30
0.0
 11
12.38769720391545
 21
15.65691511860378
 31
0.0
  0
LINE
  5
33C9
330
1E
100
AcDbEntity
  8
7
100
AcDbLine
 10
12.38769720391545
 20
15.65691511860378
 30
0.0
 11
12.4231302747816
 21
15.65166577477176
 31
0.0
  0
LINE
  5
33CA
330
1E
100
AcDbEntity
  8
7
100
AcDbLine
 10
12.4231302747816
 20
15.88001223146467
 30
0.0
 11
12.38769720391545
 21
15.87476288763265
 31
0.0
  0
LINE
  5
33CB
330
1E
100
AcDbEntity
  8
7
100
AcDbLine
 10
12.38769720391545
 20
15.87476288763265
 30
0.0
 11
12.35620114092333
 21
15.85770252017859
 31
0.0
  0
LINE
  5
33CC
330
1E
100
AcDbEntity
  8
7
100
AcDbLine
 10
12.35620114092333
 20
15.85770252017859
 30
0.0
 11
12.33126675772123
 21
15.83276813697649
 31
0.0
  0
LINE
  5
33CD
330
1E
100
AcDbEntity
  8
7
100
AcDbLine
 10
12.65803841126454
 20
15.76583900311822
 30
0.0
 11
12.65278906743252
 21
15.80127207398436
 31
0.0
  0
LINE
  5
33CE
330
1E
100
AcDbEntity
  8
7
100
AcDbLine
 10
12.65278906743252
 20
15.80127207398436
 30
0.0
 11
12.63572869997845
 21
15.83276813697649
 31
0.0
  0
LINE
  5
33CF
330
1E
100
AcDbEntity
  8
7
100
AcDbLine
 10
12.63572869997845
 20
15.83276813697649
 30
0.0
 11
12.61079431677635
 21
15.85770252017859
 31
0.0
  0
LINE
  5
33D0
330
1E
100
AcDbEntity
  8
7
100
AcDbLine
 10
12.61079431677635
 20
15.85770252017859
 30
0.0
 11
12.57929825378422
 21
15.87476288763265
 31
0.0
  0
LINE
  5
33D1
330
1E
100
AcDbEntity
  8
7
100
AcDbLine
 10
12.57929825378422
 20
15.87476288763265
 30
0.0
 11
12.54386518291808
 21
15.88001223146467
 31
0.0
  0
LINE
  5
33D2
330
1E
100
AcDbEntity
  8
7
100
AcDbLine
 10
12.54386518291808
 20
15.65166577477176
 30
0.0
 11
12.57929825378422
 21
15.65691511860378
 31
0.0
  0
LINE
  5
33D3
330
1E
100
AcDbEntity
  8
7
100
AcDbLine
 10
12.57929825378422
 20
15.65691511860378
 30
0.0
 11
12.61079431677635
 21
15.67397548605785
 31
0.0
  0
LINE
  5
33D4
330
1E
100
AcDbEntity
  8
7
100
AcDbLine
 10
12.61079431677635
 20
15.67397548605785
 30
0.0
 11
12.63572869997845
 21
15.69890986925995
 31
0.0
  0
LINE
  5
33D5
330
1E
100
AcDbEntity
  8
7
100
AcDbLine
 10
12.63572869997845
 20
15.69890986925995
 30
0.0
 11
12.65278906743252
 21
15.73040593225208
 31
0.0
  0
LINE
  5
33D6
330
1E
100
AcDbEntity
  8
7
100
AcDbLine
 10
12.65278906743252
 20
15.73040593225208
 30
0.0
 11
12.65803841126454
 21
15.76583900311822
 31
0.0
  0
LINE
  5
33D7
330
1E
100
AcDbEntity
  8
7
100
AcDbLine
 10
12.69609615404669
 20
14.0873613128295
 30
0.0
 11
12.69478381808868
 21
14.11623270390562
 31
0.0
  0
LINE
  5
33D8
330
1E
100
AcDbEntity
  8
7
100
AcDbLine
 10
12.69478381808868
 20
14.11623270390562
 30
0.0
 11
12.90606990732753
 21
14.11623270390562
 31
0.0
  0
LINE
  5
33D9
330
1E
100
AcDbEntity
  8
7
100
AcDbLine
 10
12.90606990732753
 20
14.11623270390562
 30
0.0
 11
12.90606990732753
 21
14.0873613128295
 31
0.0
  0
LINE
  5
33DA
330
1E
100
AcDbEntity
  8
7
100
AcDbLine
 10
12.06092555037215
 20
14.0873613128295
 30
0.0
 11
12.05961321441414
 21
14.11623270390562
 31
0.0
  0
LINE
  5
33DB
330
1E
100
AcDbEntity
  8
7
100
AcDbLine
 10
12.05961321441414
 20
14.11623270390562
 30
0.0
 11
12.27221163961099
 21
14.11623270390562
 31
0.0
  0
LINE
  5
33DC
330
1E
100
AcDbEntity
  8
7
100
AcDbLine
 10
12.27221163961099
 20
14.11623270390562
 30
0.0
 11
12.27089930365299
 21
14.0873613128295
 31
0.0
  0
LINE
  5
33DD
330
1E
100
AcDbEntity
  8
7
100
AcDbLine
 10
13.18953447425666
 20
14.13985475114972
 30
0.0
 11
11.77614864748501
 21
14.13985475114972
 31
0.0
  0
LINE
  5
33DE
330
1E
100
AcDbEntity
  8
7
100
AcDbLine
 10
11.77614864748501
 20
14.13985475114972
 30
0.0
 11
11.76302528790496
 21
13.46793874065103
 31
0.0
  0
LINE
  5
33DF
330
1E
100
AcDbEntity
  8
7
100
AcDbLine
 10
13.14622738764249
 20
14.45744005298698
 30
0.0
 11
13.14753972360049
 21
14.47056341256704
 31
0.0
  0
LINE
  5
33E0
330
1E
100
AcDbEntity
  8
7
100
AcDbLine
 10
13.14753972360049
 20
14.47056341256704
 30
0.0
 11
13.1226053403984
 21
14.47056341256704
 31
0.0
  0
LINE
  5
33E1
330
1E
100
AcDbEntity
  8
7
100
AcDbLine
 10
11.84439011730128
 20
14.50074713960116
 30
0.0
 11
11.84439011730128
 21
14.5112458272652
 31
0.0
  0
LINE
  5
33E2
330
1E
100
AcDbEntity
  8
7
100
AcDbLine
 10
11.84439011730128
 20
14.5112458272652
 30
0.0
 11
11.84439011730128
 21
14.47056341256704
 31
0.0
  0
LINE
  5
33E3
330
1E
100
AcDbEntity
  8
7
100
AcDbLine
 10
11.84439011730128
 20
14.34326682464053
 30
0.0
 11
11.84439011730128
 21
14.35376551230457
 31
0.0
  0
LINE
  5
33E4
330
1E
100
AcDbEntity
  8
7
100
AcDbLine
 10
11.84439011730128
 20
14.35376551230457
 30
0.0
 11
11.84439011730128
 21
14.3117707616484
 31
0.0
  0
LINE
  5
33E5
330
1E
100
AcDbEntity
  8
7
100
AcDbLine
 10
12.76433762386296
 20
14.37476288763265
 30
0.0
 11
12.76958696769498
 21
14.39182325508672
 31
0.0
  0
LINE
  5
33E6
330
1E
100
AcDbEntity
  8
7
100
AcDbLine
 10
12.76958696769498
 20
14.39182325508672
 30
0.0
 11
12.78533499919104
 21
14.40232194275076
 31
0.0
  0
LINE
  5
33E7
330
1E
100
AcDbEntity
  8
7
100
AcDbLine
 10
12.78533499919104
 20
14.40232194275076
 30
0.0
 11
12.80633237451913
 21
14.40494661466678
 31
0.0
  0
LINE
  5
33E8
330
1E
100
AcDbEntity
  8
7
100
AcDbLine
 10
12.80633237451913
 20
14.40494661466678
 30
0.0
 11
12.8247050779312
 21
14.39838493487675
 31
0.0
  0
LINE
  5
33E9
330
1E
100
AcDbEntity
  8
7
100
AcDbLine
 10
12.8247050779312
 20
14.39838493487675
 30
0.0
 11
12.83651610155325
 21
14.38394923933869
 31
0.0
  0
LINE
  5
33EA
330
1E
100
AcDbEntity
  8
7
100
AcDbLine
 10
12.83651610155325
 20
14.38394923933869
 30
0.0
 11
12.83651610155325
 21
14.36688887188462
 31
0.0
  0
LINE
  5
33EB
330
1E
100
AcDbEntity
  8
7
100
AcDbLine
 10
12.83651610155325
 20
14.36688887188462
 30
0.0
 11
12.8247050779312
 21
14.35245317634656
 31
0.0
  0
LINE
  5
33EC
330
1E
100
AcDbEntity
  8
7
100
AcDbLine
 10
12.8247050779312
 20
14.35245317634656
 30
0.0
 11
12.80633237451913
 21
14.34589149655654
 31
0.0
  0
LINE
  5
33ED
330
1E
100
AcDbEntity
  8
7
100
AcDbLine
 10
12.80633237451913
 20
14.34589149655654
 30
0.0
 11
12.78533499919104
 21
14.34851616847255
 31
0.0
  0
LINE
  5
33EE
330
1E
100
AcDbEntity
  8
7
100
AcDbLine
 10
12.78533499919104
 20
14.34851616847255
 30
0.0
 11
12.76958696769498
 21
14.35901485613659
 31
0.0
  0
LINE
  5
33EF
330
1E
100
AcDbEntity
  8
7
100
AcDbLine
 10
12.76958696769498
 20
14.35901485613659
 30
0.0
 11
12.76433762386296
 21
14.37476288763265
 31
0.0
  0
LINE
  5
33F0
330
1E
100
AcDbEntity
  8
7
100
AcDbLine
 10
13.14622738764249
 20
14.35376551230457
 30
0.0
 11
13.14622738764249
 21
14.43119333382688
 31
0.0
  0
LINE
  5
33F1
330
1E
100
AcDbEntity
  8
7
100
AcDbLine
 10
13.14622738764249
 20
14.43119333382688
 30
0.0
 11
13.11998066848238
 21
14.43119333382688
 31
0.0
  0
LINE
  5
33F2
330
1E
100
AcDbEntity
  8
7
100
AcDbLine
 10
13.11998066848238
 20
14.43119333382688
 30
0.0
 11
13.11998066848238
 21
14.47450042044105
 31
0.0
  0
LINE
  5
33F3
330
1E
100
AcDbEntity
  8
7
100
AcDbLine
 10
13.11998066848238
 20
14.47450042044105
 30
0.0
 11
11.84701478921729
 21
14.47450042044105
 31
0.0
  0
LINE
  5
33F4
330
1E
100
AcDbEntity
  8
7
100
AcDbLine
 10
11.84701478921729
 20
14.47450042044105
 30
0.0
 11
11.84701478921729
 21
14.43119333382688
 31
0.0
  0
LINE
  5
33F5
330
1E
100
AcDbEntity
  8
7
100
AcDbLine
 10
11.84701478921729
 20
14.43119333382688
 30
0.0
 11
11.82076807005719
 21
14.43119333382688
 31
0.0
  0
LINE
  5
33F6
330
1E
100
AcDbEntity
  8
7
100
AcDbLine
 10
11.82076807005719
 20
14.43119333382688
 30
0.0
 11
11.82076807005719
 21
14.35376551230457
 31
0.0
  0
LINE
  5
33F7
330
1E
100
AcDbEntity
  8
7
100
AcDbLine
 10
13.11998066848238
 20
14.3117707616484
 30
0.0
 11
13.11998066848238
 21
14.34589149655654
 31
0.0
  0
LINE
  5
33F8
330
1E
100
AcDbEntity
  8
7
100
AcDbLine
 10
13.11998066848238
 20
14.34589149655654
 30
0.0
 11
13.1226053403984
 21
14.34589149655654
 31
0.0
  0
LINE
  5
33F9
330
1E
100
AcDbEntity
  8
7
100
AcDbLine
 10
12.12916702018842
 20
14.37476288763265
 30
0.0
 11
12.13441636402044
 21
14.39182325508672
 31
0.0
  0
LINE
  5
33FA
330
1E
100
AcDbEntity
  8
7
100
AcDbLine
 10
12.13441636402044
 20
14.39182325508672
 30
0.0
 11
12.1501643955165
 21
14.40232194275076
 31
0.0
  0
LINE
  5
33FB
330
1E
100
AcDbEntity
  8
7
100
AcDbLine
 10
12.1501643955165
 20
14.40232194275076
 30
0.0
 11
12.17116177084459
 21
14.40494661466678
 31
0.0
  0
LINE
  5
33FC
330
1E
100
AcDbEntity
  8
7
100
AcDbLine
 10
12.17116177084459
 20
14.40494661466678
 30
0.0
 11
12.18953447425666
 21
14.39838493487675
 31
0.0
  0
LINE
  5
33FD
330
1E
100
AcDbEntity
  8
7
100
AcDbLine
 10
12.18953447425666
 20
14.39838493487675
 30
0.0
 11
12.20134549787871
 21
14.38394923933869
 31
0.0
  0
LINE
  5
33FE
330
1E
100
AcDbEntity
  8
7
100
AcDbLine
 10
12.20134549787871
 20
14.38394923933869
 30
0.0
 11
12.20134549787871
 21
14.36688887188462
 31
0.0
  0
LINE
  5
33FF
330
1E
100
AcDbEntity
  8
7
100
AcDbLine
 10
12.20134549787871
 20
14.36688887188462
 30
0.0
 11
12.18953447425666
 21
14.35245317634656
 31
0.0
  0
LINE
  5
3400
330
1E
100
AcDbEntity
  8
7
100
AcDbLine
 10
12.18953447425666
 20
14.35245317634656
 30
0.0
 11
12.17116177084459
 21
14.34589149655654
 31
0.0
  0
LINE
  5
3401
330
1E
100
AcDbEntity
  8
7
100
AcDbLine
 10
12.17116177084459
 20
14.34589149655654
 30
0.0
 11
12.1501643955165
 21
14.34851616847255
 31
0.0
  0
LINE
  5
3402
330
1E
100
AcDbEntity
  8
7
100
AcDbLine
 10
12.1501643955165
 20
14.34851616847255
 30
0.0
 11
12.13441636402044
 21
14.35901485613659
 31
0.0
  0
LINE
  5
3403
330
1E
100
AcDbEntity
  8
7
100
AcDbLine
 10
12.13441636402044
 20
14.35901485613659
 30
0.0
 11
12.12916702018842
 21
14.37476288763265
 31
0.0
  0
LINE
  5
3404
330
1E
100
AcDbEntity
  8
7
100
AcDbLine
 10
12.80502003856113
 20
15.69497286138594
 30
0.0
 11
12.80502003856113
 21
15.64379175902373
 31
0.0
  0
LINE
  5
3405
330
1E
100
AcDbEntity
  8
7
100
AcDbLine
 10
12.80502003856113
 20
15.64379175902373
 30
0.0
 11
12.16066308318055
 21
15.64379175902373
 31
0.0
  0
LINE
  5
3406
330
1E
100
AcDbEntity
  8
7
100
AcDbLine
 10
12.16066308318055
 20
15.64379175902373
 30
0.0
 11
12.16066308318055
 21
15.69497286138594
 31
0.0
  0
LINE
  5
3407
330
1E
100
AcDbEntity
  8
7
100
AcDbLine
 10
12.16066308318055
 20
15.69497286138594
 30
0.0
 11
12.13704103593645
 21
15.69497286138594
 31
0.0
  0
LINE
  5
3408
330
1E
100
AcDbEntity
  8
7
100
AcDbLine
 10
12.13704103593645
 20
15.69497286138594
 30
0.0
 11
12.13704103593645
 21
15.83801748080851
 31
0.0
  0
LINE
  5
3409
330
1E
100
AcDbEntity
  8
7
100
AcDbLine
 10
12.13704103593645
 20
15.83801748080851
 30
0.0
 11
12.16066308318055
 21
15.83801748080851
 31
0.0
  0
LINE
  5
340A
330
1E
100
AcDbEntity
  8
7
100
AcDbLine
 10
12.16066308318055
 20
15.83801748080851
 30
0.0
 11
12.16066308318055
 21
15.88788624721271
 31
0.0
  0
LINE
  5
340B
330
1E
100
AcDbEntity
  8
7
100
AcDbLine
 10
12.16066308318055
 20
15.88788624721271
 30
0.0
 11
12.80502003856113
 21
15.88788624721271
 31
0.0
  0
LINE
  5
340C
330
1E
100
AcDbEntity
  8
7
100
AcDbLine
 10
12.80502003856113
 20
15.88788624721271
 30
0.0
 11
12.80502003856113
 21
15.83801748080851
 31
0.0
  0
LINE
  5
340D
330
1E
100
AcDbEntity
  8
7
100
AcDbLine
 10
12.80502003856113
 20
15.83801748080851
 30
0.0
 11
12.82995442176322
 21
15.83801748080851
 31
0.0
  0
LINE
  5
340E
330
1E
100
AcDbEntity
  8
7
100
AcDbLine
 10
12.82995442176322
 20
15.83801748080851
 30
0.0
 11
12.82995442176322
 21
15.69497286138594
 31
0.0
  0
LINE
  5
340F
330
1E
100
AcDbEntity
  8
7
100
AcDbLine
 10
12.82995442176322
 20
15.69497286138594
 30
0.0
 11
12.80502003856113
 21
15.69497286138594
 31
0.0
  0
LINE
  5
3410
330
1E
100
AcDbEntity
  8
7
100
AcDbLine
 10
11.70134549787871
 20
14.74090461991612
 30
0.0
 11
11.71971820129078
 21
14.76452666716022
 31
0.0
  0
LINE
  5
3411
330
1E
100
AcDbEntity
  8
7
100
AcDbLine
 10
11.71971820129078
 20
14.76452666716022
 30
0.0
 11
11.74071557661887
 21
14.78027469865628
 31
0.0
  0
LINE
  5
3412
330
1E
100
AcDbEntity
  8
7
100
AcDbLine
 10
11.74071557661887
 20
14.78027469865628
 30
0.0
 11
11.76302528790496
 21
14.7855240424883
 31
0.0
  0
LINE
  5
3413
330
1E
100
AcDbEntity
  8
7
100
AcDbLine
 10
11.67641111467661
 20
14.63329307135969
 30
0.0
 11
11.67903578659262
 21
14.67266315009985
 31
0.0
  0
LINE
  5
3414
330
1E
100
AcDbEntity
  8
7
100
AcDbLine
 10
11.67903578659262
 20
14.67266315009985
 30
0.0
 11
11.68690980234065
 21
14.70940855692399
 31
0.0
  0
LINE
  5
3415
330
1E
100
AcDbEntity
  8
7
100
AcDbLine
 10
11.68690980234065
 20
14.70940855692399
 30
0.0
 11
11.70134549787871
 21
14.74090461991612
 31
0.0
  0
LINE
  5
3416
330
1E
100
AcDbEntity
  8
7
100
AcDbLine
 10
11.92050560286558
 20
13.46793874065103
 30
0.0
 11
11.76302528790496
 21
13.46793874065103
 31
0.0
  0
LINE
  5
3417
330
1E
100
AcDbEntity
  8
7
100
AcDbLine
 10
11.76302528790496
 20
13.46793874065103
 30
0.0
 11
11.74071557661887
 21
13.47318808448305
 31
0.0
  0
LINE
  5
3418
330
1E
100
AcDbEntity
  8
7
100
AcDbLine
 10
11.74071557661887
 20
13.47318808448305
 30
0.0
 11
11.71971820129078
 21
13.49024845193712
 31
0.0
  0
LINE
  5
3419
330
1E
100
AcDbEntity
  8
7
100
AcDbLine
 10
11.71971820129078
 20
13.49024845193712
 30
0.0
 11
11.70134549787871
 21
13.51780750705523
 31
0.0
  0
LINE
  5
341A
330
1E
100
AcDbEntity
  8
7
100
AcDbLine
 10
11.70134549787871
 20
13.51780750705523
 30
0.0
 11
11.68690980234065
 21
13.55455291387937
 31
0.0
  0
LINE
  5
341B
330
1E
100
AcDbEntity
  8
7
100
AcDbLine
 10
11.68690980234065
 20
13.55455291387937
 30
0.0
 11
11.67903578659262
 21
13.59654766453554
 31
0.0
  0
LINE
  5
341C
330
1E
100
AcDbEntity
  8
7
100
AcDbLine
 10
11.67903578659262
 20
13.59654766453554
 30
0.0
 11
11.67641111467661
 21
13.64247942306572
 31
0.0
  0
LINE
  5
341D
330
1E
100
AcDbEntity
  8
7
100
AcDbLine
 10
13.27877331940102
 20
13.55455291387937
 30
0.0
 11
13.26564995982097
 21
13.51780750705523
 31
0.0
  0
LINE
  5
341E
330
1E
100
AcDbEntity
  8
7
100
AcDbLine
 10
13.26564995982097
 20
13.51780750705523
 30
0.0
 11
13.24727725640889
 21
13.49024845193712
 31
0.0
  0
LINE
  5
341F
330
1E
100
AcDbEntity
  8
7
100
AcDbLine
 10
13.24727725640889
 20
13.49024845193712
 30
0.0
 11
13.22627988108081
 21
13.47318808448305
 31
0.0
  0
LINE
  5
3420
330
1E
100
AcDbEntity
  8
7
100
AcDbLine
 10
13.22627988108081
 20
13.47318808448305
 30
0.0
 11
13.20397016979472
 21
13.46793874065103
 31
0.0
  0
LINE
  5
3421
330
1E
100
AcDbEntity
  8
7
100
AcDbLine
 10
13.20397016979472
 20
13.46793874065103
 30
0.0
 11
13.04648985483409
 21
13.46793874065103
 31
0.0
  0
LINE
  5
3422
330
1E
100
AcDbEntity
  8
7
100
AcDbLine
 10
13.20397016979472
 20
14.7855240424883
 30
0.0
 11
13.22627988108081
 21
14.78027469865628
 31
0.0
  0
LINE
  5
3423
330
1E
100
AcDbEntity
  8
7
100
AcDbLine
 10
13.22627988108081
 20
14.78027469865628
 30
0.0
 11
13.24727725640889
 21
14.76452666716022
 31
0.0
  0
LINE
  5
3424
330
1E
100
AcDbEntity
  8
7
100
AcDbLine
 10
13.24727725640889
 20
14.76452666716022
 30
0.0
 11
13.26564995982097
 21
14.74090461991612
 31
0.0
  0
LINE
  5
3425
330
1E
100
AcDbEntity
  8
7
100
AcDbLine
 10
13.26564995982097
 20
14.74090461991612
 30
0.0
 11
13.27877331940102
 21
14.70940855692399
 31
0.0
  0
LINE
  5
3426
330
1E
100
AcDbEntity
  8
7
100
AcDbLine
 10
13.27877331940102
 20
14.70940855692399
 30
0.0
 11
13.28795967110706
 21
14.67266315009985
 31
0.0
  0
LINE
  5
3427
330
1E
100
AcDbEntity
  8
7
100
AcDbLine
 10
13.28795967110706
 20
14.67266315009985
 30
0.0
 11
13.29058434302307
 21
14.63329307135969
 31
0.0
  0
LINE
  5
3428
330
1E
100
AcDbEntity
  8
7
100
AcDbLine
 10
13.29058434302307
 20
14.63329307135969
 30
0.0
 11
13.29058434302307
 21
13.64247942306572
 31
0.0
  0
LINE
  5
3429
330
1E
100
AcDbEntity
  8
7
100
AcDbLine
 10
13.29058434302307
 20
13.64247942306572
 30
0.0
 11
13.28795967110706
 21
13.59654766453554
 31
0.0
  0
LINE
  5
342A
330
1E
100
AcDbEntity
  8
7
100
AcDbLine
 10
13.28795967110706
 20
13.59654766453554
 30
0.0
 11
13.27877331940102
 21
13.55455291387937
 31
0.0
  0
ENDSEC
  0
SECTION
  2
OBJECTS
  0
DICTIONARY
  5
C
330
0
100
AcDbDictionary
  3
ACAD_GROUP
350
D
  3
ACAD_MLINESTYLE
350
16
  3
ACAD_PLOTSETTINGS
350
18
  3
ACAD_LAYOUT
350
19
1001
ACAD
1000
TREAT_AS_HARD
1070
     0
  0
DICTIONARY
  5
46E1
330
1E
100
AcDbDictionary
  3
ACAD_LAYOUTSELFREF
350
46E2
  0
DICTIONARY
  5
46DF
330
1A
100
AcDbDictionary
  3
ACAD_LAYOUTSELFREF
350
46E0
  0
DICTIONARY
  5
D
102
{ACAD_REACTORS
330
C
102
}
330
C
100
AcDbDictionary
1001
ACAD
1000
TREAT_AS_HARD
1070
     0
  0
DICTIONARY
  5
16
102
{ACAD_REACTORS
330
C
102
}
330
C
100
AcDbDictionary
  3
STANDARD
350
17
1001
ACAD
1000
TREAT_AS_HARD
1070
     0
  0
DICTIONARY
  5
18
102
{ACAD_REACTORS
330
C
102
}
330
C
100
AcDbDictionary
1001
ACAD
1000
TREAT_AS_HARD
1070
     0
  0
DICTIONARY
  5
19
102
{ACAD_REACTORS
330
C
102
}
330
C
100
AcDbDictionary
1001
ACAD
1000
TREAT_AS_HARD
1070
     0
  0
XRECORD
  5
46E2
102
{ACAD_REACTORS
330
46E1
102
}
330
46E1
100
AcDbXrecord
340
1E
  0
XRECORD
  5
46E0
102
{ACAD_REACTORS
330
46DF
102
}
330
46DF
100
AcDbXrecord
340
1A
  0
MLINESTYLE
  5
17
102
{ACAD_REACTORS
330
16
102
}
330
16
100
AcDbMlineStyle
  2
STANDARD
 70
     0
  3

 62
   256
 51
90.0
 52
90.0
 71
     2
 49
0.5
 62
   256
  6
BYLAYER
 49
-0.5
 62
   256
  6
BYLAYER
  0
ENDSEC
  0
EOF
