  0
SECTION
  2
HEADER
  9
$ACADVER
  1
AC1012
  9
$DWGCODEPAGE
  3
ANSI_1252
  9
$INSBASE
 10
0.0
 20
0.0
 30
0.0
  9
$EXTMIN
 10
0.9389648727827761
 20
2.10978701071556
 30
-0.0000000349181948
  9
$EXTMAX
 10
3.693786639363722
 20
7.876235981560586
 30
0.0000000814935746
  9
$LIMMIN
 10
0.0
 20
0.0
  9
$LIMMAX
 10
12.0
 20
9.0
  9
$ORTHOMODE
 70
     0
  9
$REGENMODE
 70
     1
  9
$FILLMODE
 70
     1
  9
$QTEXTMODE
 70
     0
  9
$MIRRTEXT
 70
     1
  9
$DRAGMODE
 70
     2
  9
$LTSCALE
 40
1.0
  9
$OSMODE
 70
    33
  9
$ATTMODE
 70
     1
  9
$TEXTSIZE
 40
0.2
  9
$TRACEWID
 40
0.05
  9
$TEXTSTYLE
  7
STANDARD
  9
$CLAYER
  8
0
  9
$CELTYPE
  6
BYLAYER
  9
$CECOLOR
 62
   256
  9
$CELTSCALE
 40
1.0
  9
$DELOBJ
 70
     1
  9
$DISPSILH
 70
     0
  9
$DIMSCALE
 40
1.0
  9
$DIMASZ
 40
0.18
  9
$DIMEXO
 40
0.0625
  9
$DIMDLI
 40
0.38
  9
$DIMRND
 40
0.0
  9
$DIMDLE
 40
0.0
  9
$DIMEXE
 40
0.18
  9
$DIMTP
 40
0.0
  9
$DIMTM
 40
0.0
  9
$DIMTXT
 40
0.18
  9
$DIMCEN
 40
0.09
  9
$DIMTSZ
 40
0.0
  9
$DIMTOL
 70
     0
  9
$DIMLIM
 70
     0
  9
$DIMTIH
 70
     1
  9
$DIMTOH
 70
     1
  9
$DIMSE1
 70
     0
  9
$DIMSE2
 70
     0
  9
$DIMTAD
 70
     0
  9
$DIMZIN
 70
     0
  9
$DIMBLK
  1

  9
$DIMASO
 70
     1
  9
$DIMSHO
 70
     1
  9
$DIMPOST
  1

  9
$DIMAPOST
  1

  9
$DIMALT
 70
     0
  9
$DIMALTD
 70
     2
  9
$DIMALTF
 40
25.4
  9
$DIMLFAC
 40
1.0
  9
$DIMTOFL
 70
     0
  9
$DIMTVP
 40
0.0
  9
$DIMTIX
 70
     0
  9
$DIMSOXD
 70
     0
  9
$DIMSAH
 70
     0
  9
$DIMBLK1
  1

  9
$DIMBLK2
  1

  9
$DIMSTYLE
  2
STANDARD
  9
$DIMCLRD
 70
     0
  9
$DIMCLRE
 70
     0
  9
$DIMCLRT
 70
     0
  9
$DIMTFAC
 40
1.0
  9
$DIMGAP
 40
0.09
  9
$DIMJUST
 70
     0
  9
$DIMSD1
 70
     0
  9
$DIMSD2
 70
     0
  9
$DIMTOLJ
 70
     1
  9
$DIMTZIN
 70
     0
  9
$DIMALTZ
 70
     0
  9
$DIMALTTZ
 70
     0
  9
$DIMFIT
 70
     5
  9
$DIMUPT
 70
     0
  9
$DIMUNIT
 70
     2
  9
$DIMDEC
 70
     4
  9
$DIMTDEC
 70
     4
  9
$DIMALTU
 70
     2
  9
$DIMALTTD
 70
     2
  9
$DIMTXSTY
  7
STANDARD
  9
$DIMAUNIT
 70
     0
  9
$LUNITS
 70
     2
  9
$LUPREC
 70
     4
  9
$SKETCHINC
 40
0.1
  9
$FILLETRAD
 40
0.0
  9
$AUNITS
 70
     0
  9
$AUPREC
 70
     0
  9
$MENU
  1
acad
  9
$ELEVATION
 40
0.0
  9
$PELEVATION
 40
0.0
  9
$THICKNESS
 40
0.0
  9
$LIMCHECK
 70
     0
  9
$BLIPMODE
 70
     0
  9
$CHAMFERA
 40
0.0
  9
$CHAMFERB
 40
0.0
  9
$CHAMFERC
 40
0.0
  9
$CHAMFERD
 40
0.0
  9
$SKPOLY
 70
     0
  9
$TDCREATE
 40
2452255.540347222
  9
$TDUPDATE
 40
2452340.341048078
  9
$TDINDWG
 40
0.0017428009
  9
$TDUSRTIMER
 40
0.0017428009
  9
$USRTIMER
 70
     1
  9
$ANGBASE
 50
0.0
  9
$ANGDIR
 70
     0
  9
$PDMODE
 70
     0
  9
$PDSIZE
 40
0.0
  9
$PLINEWID
 40
0.0
  9
$COORDS
 70
     2
  9
$SPLFRAME
 70
     0
  9
$SPLINETYPE
 70
     6
  9
$SPLINESEGS
 70
     8
  9
$ATTDIA
 70
     0
  9
$ATTREQ
 70
     1
  9
$HANDLING
 70
  4097
  9
$HANDSEED
  5
35D6
  9
$SURFTAB1
 70
     6
  9
$SURFTAB2
 70
     6
  9
$SURFTYPE
 70
     6
  9
$SURFU
 70
     6
  9
$SURFV
 70
     6
  9
$UCSNAME
  2

  9
$UCSORG
 10
0.0
 20
0.0
 30
0.0
  9
$UCSXDIR
 10
1.0
 20
0.0
 30
0.0
  9
$UCSYDIR
 10
0.0
 20
1.0
 30
0.0
  9
$PUCSNAME
  2

  9
$PUCSORG
 10
0.0
 20
0.0
 30
0.0
  9
$PUCSXDIR
 10
1.0
 20
0.0
 30
0.0
  9
$PUCSYDIR
 10
0.0
 20
1.0
 30
0.0
  9
$USERI1
 70
     0
  9
$USERI2
 70
     0
  9
$USERI3
 70
     0
  9
$USERI4
 70
     0
  9
$USERI5
 70
     0
  9
$USERR1
 40
0.0
  9
$USERR2
 40
0.0
  9
$USERR3
 40
0.0
  9
$USERR4
 40
0.0
  9
$USERR5
 40
0.0
  9
$WORLDVIEW
 70
     1
  9
$SHADEDGE
 70
     3
  9
$SHADEDIF
 70
    70
  9
$TILEMODE
 70
     1
  9
$MAXACTVP
 70
    16
  9
$PINSBASE
 10
0.0
 20
0.0
 30
0.0
  9
$PLIMCHECK
 70
     0
  9
$PEXTMIN
 10
1.000000000000000E+20
 20
1.000000000000000E+20
 30
1.000000000000000E+20
  9
$PEXTMAX
 10
-1.000000000000000E+20
 20
-1.000000000000000E+20
 30
-1.000000000000000E+20
  9
$PLIMMIN
 10
0.0
 20
0.0
  9
$PLIMMAX
 10
12.0
 20
9.0
  9
$UNITMODE
 70
     0
  9
$VISRETAIN
 70
     0
  9
$PLINEGEN
 70
     0
  9
$PSLTSCALE
 70
     1
  9
$TREEDEPTH
 70
  3020
  9
$PICKSTYLE
 70
     1
  9
$CMLSTYLE
  2
STANDARD
  9
$CMLJUST
 70
     0
  9
$CMLSCALE
 40
1.0
  9
$SAVEIMAGES
 70
     1
  0
ENDSEC
  0
SECTION
  2
CLASSES
  0
CLASS
  1
ACDBDICTIONARYWDFLT
  2
AcDbDictionaryWithDefault
  3
AutoCAD 2000
 90
    32768
280
     0
281
     0
  0
CLASS
  1
ACDBPLACEHOLDER
  2
AcDbPlaceHolder
  3
AutoCAD 2000
 90
    32768
280
     0
281
     0
  0
CLASS
  1
LAYOUT
  2
AcDbLayout
  3
AutoCAD 2000
 90
    32768
280
     0
281
     0
  0
CLASS
  1
LONG_TRANSACTION
  2
AcDbLongTransaction
  3
AutoCAD 2000
 90
    32768
280
     0
281
     0
  0
CLASS
  1
LWPOLYLINE
  2
AcDbPolyline
  3
AutoCAD 2000
 90
    32768
280
     0
281
     1
  0
CLASS
  1
HATCH
  2
AcDbHatch
  3
AutoCAD 2000
 90
    32768
280
     0
281
     1
  0
CLASS
  1
XRECORD
  2
AcDbXrecord
  3
AutoCAD 2000
 90
    32768
280
     0
281
     0
  0
CLASS
  1
LONG_TRANSACTION
  2
AcDbLongTransaction
  3
AutoCAD 2000
 90
    32768
280
     0
281
     0
  0
CLASS
  1
LWPOLYLINE
  2
AcDbPolyline
  3
AutoCAD 2000
 90
    32768
280
     0
281
     1
  0
CLASS
  1
HATCH
  2
AcDbHatch
  3
AutoCAD 2000
 90
    32768
280
     0
281
     1
  0
CLASS
  1
XRECORD
  2
AcDbXrecord
  3
AutoCAD 2000
 90
    32768
280
     0
281
     0
  0
ENDSEC
  0
SECTION
  2
TABLES
  0
TABLE
  2
VPORT
  5
8
330
0
100
AcDbSymbolTable
 70
     3
  0
VPORT
  5
35D3
330
8
100
AcDbSymbolTableRecord
100
AcDbViewportTableRecord
  2
*ACTIVE
 70
     0
 10
0.0
 20
0.0
 11
1.0
 21
1.0
 12
2.316375756073249
 22
4.993011496138073
 13
0.0
 23
0.0
 14
1.0
 24
1.0
 15
0.0
 25
0.0
 16
0.0
 26
0.0
 36
1.0
 17
0.0
 27
0.0
 37
0.0
 40
5.811854080851679
 41
1.601839684625492
 42
50.0
 43
0.0
 44
0.0
 50
0.0
 51
0.0
 71
     0
 72
   100
 73
     1
 74
     1
 75
     0
 76
     0
 77
     0
 78
     0
  0
ENDTAB
  0
TABLE
  2
LTYPE
  5
5
330
0
100
AcDbSymbolTable
 70
    25
  0
LTYPE
  5
13
330
5
100
AcDbSymbolTableRecord
100
AcDbLinetypeTableRecord
  2
BYBLOCK
 70
     0
  3

 72
    65
 73
     0
 40
0.0
  0
LTYPE
  5
14
330
5
100
AcDbSymbolTableRecord
100
AcDbLinetypeTableRecord
  2
BYLAYER
 70
     0
  3

 72
    65
 73
     0
 40
0.0
  0
LTYPE
  5
15
330
5
100
AcDbSymbolTableRecord
100
AcDbLinetypeTableRecord
  2
CONTINUOUS
 70
     0
  3
Solid line
 72
    65
 73
     0
 40
0.0
  0
LTYPE
  5
22
330
5
100
AcDbSymbolTableRecord
100
AcDbLinetypeTableRecord
  2
BORDER
 70
     0
  3
__ __ . __ __ . __ __ . __ __ . __ __ . __ __ .
 72
    65
 73
     6
 40
1.75
 49
0.5
 74
     0
 49
-0.25
 74
     0
 49
0.5
 74
     0
 49
-0.25
 74
     0
 49
0.5
 74
     0
 49
-0.25
 74
     0
  0
LTYPE
  5
23
330
5
100
AcDbSymbolTableRecord
100
AcDbLinetypeTableRecord
  2
BORDER2
 70
     0
  3
__.__.__.__.__.__.__.__.__.__.__.__.__.__.__.__
 72
    65
 73
     6
 40
0.875
 49
0.25
 74
     0
 49
-0.125
 74
     0
 49
0.25
 74
     0
 49
-0.125
 74
     0
 49
0.25
 74
     0
 49
-0.125
 74
     0
  0
LTYPE
  5
24
330
5
100
AcDbSymbolTableRecord
100
AcDbLinetypeTableRecord
  2
BORDERX2
 70
     0
  3
____  ____  .  ____  ____  .  
 72
    65
 73
     6
 40
3.5
 49
1.0
 74
     0
 49
-0.5
 74
     0
 49
1.0
 74
     0
 49
-0.5
 74
     0
 49
1.0
 74
     0
 49
-0.5
 74
     0
  0
LTYPE
  5
25
330
5
100
AcDbSymbolTableRecord
100
AcDbLinetypeTableRecord
  2
CENTER
 70
     0
  3
____ _ ____ _ ____ _ ____ _ ____ _ ____ _ ____
 72
    65
 73
     4
 40
2.0
 49
1.25
 74
     0
 49
-0.25
 74
     0
 49
0.25
 74
     0
 49
-0.25
 74
     0
  0
LTYPE
  5
26
330
5
100
AcDbSymbolTableRecord
100
AcDbLinetypeTableRecord
  2
CENTER2
 70
     0
  3
____ _ ____ _ ____ _ ____ _ ____ _ ____ _ ____
 72
    65
 73
     4
 40
1.125
 49
0.75
 74
     0
 49
-0.125
 74
     0
 49
0.125
 74
     0
 49
-0.125
 74
     0
  0
LTYPE
  5
27
330
5
100
AcDbSymbolTableRecord
100
AcDbLinetypeTableRecord
  2
CENTERX2
 70
     0
  3
________  __  ________  __  ________  __  
 72
    65
 73
     4
 40
4.0
 49
2.5
 74
     0
 49
-0.5
 74
     0
 49
0.5
 74
     0
 49
-0.5
 74
     0
  0
LTYPE
  5
28
330
5
100
AcDbSymbolTableRecord
100
AcDbLinetypeTableRecord
  2
DASHDOT
 70
     0
  3
__ . __ . __ . __ . __ . __ . __ . 
 72
    65
 73
     4
 40
1.0
 49
0.5
 74
     0
 49
-0.25
 74
     0
 49
0.0
 74
     0
 49
-0.25
 74
     0
  0
LTYPE
  5
29
330
5
100
AcDbSymbolTableRecord
100
AcDbLinetypeTableRecord
  2
DASHDOT2
 70
     0
  3
_._._._._._._._._._._._._._._._.
 72
    65
 73
     4
 40
0.5
 49
0.25
 74
     0
 49
-0.125
 74
     0
 49
0.0
 74
     0
 49
-0.125
 74
     0
  0
LTYPE
  5
2A
330
5
100
AcDbSymbolTableRecord
100
AcDbLinetypeTableRecord
  2
DASHDOTX2
 70
     0
  3
____  .  ____  .  ____  .  ____  .  
 72
    65
 73
     4
 40
2.0
 49
1.0
 74
     0
 49
-0.5
 74
     0
 49
0.0
 74
     0
 49
-0.5
 74
     0
  0
LTYPE
  5
2B
330
5
100
AcDbSymbolTableRecord
100
AcDbLinetypeTableRecord
  2
DASHED
 70
     0
  3
__ __ __ __ __ __ __ __ __ __ __ __ 
 72
    65
 73
     2
 40
0.75
 49
0.5
 74
     0
 49
-0.25
 74
     0
  0
LTYPE
  5
2C
330
5
100
AcDbSymbolTableRecord
100
AcDbLinetypeTableRecord
  2
DASHED2
 70
     0
  3
_ _ _ _ _ _ _ _ _ _ _ _ _ _ _ _ _ _ 
 72
    65
 73
     2
 40
0.375
 49
0.25
 74
     0
 49
-0.125
 74
     0
  0
LTYPE
  5
2D
330
5
100
AcDbSymbolTableRecord
100
AcDbLinetypeTableRecord
  2
DASHEDX2
 70
     0
  3
____  ____  ____  ____  ____  ____  
 72
    65
 73
     2
 40
1.5
 49
1.0
 74
     0
 49
-0.5
 74
     0
  0
LTYPE
  5
2E
330
5
100
AcDbSymbolTableRecord
100
AcDbLinetypeTableRecord
  2
DIVIDE
 70
     0
  3
____ . . ____ . . ____ . . ____ . . 
 72
    65
 73
     6
 40
1.25
 49
0.5
 74
     0
 49
-0.25
 74
     0
 49
0.0
 74
     0
 49
-0.25
 74
     0
 49
0.0
 74
     0
 49
-0.25
 74
     0
  0
LTYPE
  5
2F
330
5
100
AcDbSymbolTableRecord
100
AcDbLinetypeTableRecord
  2
DIVIDE2
 70
     0
  3
__..__..__..__..__..__..__..__..__..
 72
    65
 73
     6
 40
0.625
 49
0.25
 74
     0
 49
-0.125
 74
     0
 49
0.0
 74
     0
 49
-0.125
 74
     0
 49
0.0
 74
     0
 49
-0.125
 74
     0
  0
LTYPE
  5
30
330
5
100
AcDbSymbolTableRecord
100
AcDbLinetypeTableRecord
  2
DIVIDEX2
 70
     0
  3
________  .  .  ________  .  .  ________  .  . 
 72
    65
 73
     6
 40
2.5
 49
1.0
 74
     0
 49
-0.5
 74
     0
 49
0.0
 74
     0
 49
-0.5
 74
     0
 49
0.0
 74
     0
 49
-0.5
 74
     0
  0
LTYPE
  5
31
330
5
100
AcDbSymbolTableRecord
100
AcDbLinetypeTableRecord
  2
DOT
 70
     0
  3
. . . . . . . . . . . . . . . . . . 
 72
    65
 73
     2
 40
0.25
 49
0.0
 74
     0
 49
-0.25
 74
     0
  0
LTYPE
  5
32
330
5
100
AcDbSymbolTableRecord
100
AcDbLinetypeTableRecord
  2
DOT2
 70
     0
  3
....................................
 72
    65
 73
     2
 40
0.125
 49
0.0
 74
     0
 49
-0.125
 74
     0
  0
LTYPE
  5
33
330
5
100
AcDbSymbolTableRecord
100
AcDbLinetypeTableRecord
  2
DOTX2
 70
     0
  3
.  .  .  .  .  .  .  .  .  .  .  .  .  
 72
    65
 73
     2
 40
0.5
 49
0.0
 74
     0
 49
-0.5
 74
     0
  0
LTYPE
  5
34
330
5
100
AcDbSymbolTableRecord
100
AcDbLinetypeTableRecord
  2
HIDDEN
 70
     0
  3
__ __ __ __ __ __ __ __ __ __ __ __ 
 72
    65
 73
     2
 40
0.375
 49
0.25
 74
     0
 49
-0.125
 74
     0
  0
LTYPE
  5
35
330
5
100
AcDbSymbolTableRecord
100
AcDbLinetypeTableRecord
  2
HIDDEN2
 70
     0
  3
_ _ _ _ _ _ _ _ _ _ _ _ _ _ _ _ _ _ 
 72
    65
 73
     2
 40
0.1875
 49
0.125
 74
     0
 49
-0.0625
 74
     0
  0
LTYPE
  5
36
330
5
100
AcDbSymbolTableRecord
100
AcDbLinetypeTableRecord
  2
HIDDENX2
 70
     0
  3
____ ____ ____ ____ ____ ____ ____ 
 72
    65
 73
     2
 40
0.75
 49
0.5
 74
     0
 49
-0.25
 74
     0
  0
LTYPE
  5
37
330
5
100
AcDbSymbolTableRecord
100
AcDbLinetypeTableRecord
  2
PHANTOM
 70
     0
  3
______  __  __  ______  __  __  
 72
    65
 73
     6
 40
2.5
 49
1.25
 74
     0
 49
-0.25
 74
     0
 49
0.25
 74
     0
 49
-0.25
 74
     0
 49
0.25
 74
     0
 49
-0.25
 74
     0
  0
LTYPE
  5
38
330
5
100
AcDbSymbolTableRecord
100
AcDbLinetypeTableRecord
  2
PHANTOM2
 70
     0
  3
___ _ _ ___ _ _ ___ _ _ ___ _ _ 
 72
    65
 73
     6
 40
1.25
 49
0.625
 74
     0
 49
-0.125
 74
     0
 49
0.125
 74
     0
 49
-0.125
 74
     0
 49
0.125
 74
     0
 49
-0.125
 74
     0
  0
LTYPE
  5
39
330
5
100
AcDbSymbolTableRecord
100
AcDbLinetypeTableRecord
  2
PHANTOMX2
 70
     0
  3
___ _ _ ___ _ _ ___ _ _ ___ _ _ 
 72
    65
 73
     6
 40
5.0
 49
2.5
 74
     0
 49
-0.5
 74
     0
 49
0.5
 74
     0
 49
-0.5
 74
     0
 49
0.5
 74
     0
 49
-0.5
 74
     0
  0
ENDTAB
  0
TABLE
  2
LAYER
  5
2
330
0
100
AcDbSymbolTable
 70
   257
  0
LAYER
  5
10
330
2
100
AcDbSymbolTableRecord
100
AcDbLayerTableRecord
  2
0
 70
     0
 62
     7
  6
CONTINUOUS
  0
LAYER
  5
3A
330
2
100
AcDbSymbolTableRecord
100
AcDbLayerTableRecord
  2
1
 70
     0
 62
     1
  6
CONTINUOUS
  0
LAYER
  5
3B
330
2
100
AcDbSymbolTableRecord
100
AcDbLayerTableRecord
  2
2
 70
     0
 62
     2
  6
CONTINUOUS
  0
LAYER
  5
3C
330
2
100
AcDbSymbolTableRecord
100
AcDbLayerTableRecord
  2
3
 70
     0
 62
     3
  6
CONTINUOUS
  0
LAYER
  5
3D
330
2
100
AcDbSymbolTableRecord
100
AcDbLayerTableRecord
  2
4
 70
     0
 62
     4
  6
CONTINUOUS
  0
LAYER
  5
3E
330
2
100
AcDbSymbolTableRecord
100
AcDbLayerTableRecord
  2
5
 70
     0
 62
     5
  6
CONTINUOUS
  0
LAYER
  5
3F
330
2
100
AcDbSymbolTableRecord
100
AcDbLayerTableRecord
  2
6
 70
     0
 62
     6
  6
CONTINUOUS
  0
LAYER
  5
40
330
2
100
AcDbSymbolTableRecord
100
AcDbLayerTableRecord
  2
7
 70
     0
 62
     7
  6
CONTINUOUS
  0
LAYER
  5
41
330
2
100
AcDbSymbolTableRecord
100
AcDbLayerTableRecord
  2
8
 70
     0
 62
     8
  6
CONTINUOUS
  0
LAYER
  5
42
330
2
100
AcDbSymbolTableRecord
100
AcDbLayerTableRecord
  2
9
 70
     0
 62
     9
  6
CONTINUOUS
  0
LAYER
  5
43
330
2
100
AcDbSymbolTableRecord
100
AcDbLayerTableRecord
  2
10
 70
     0
 62
    10
  6
CONTINUOUS
  0
LAYER
  5
44
330
2
100
AcDbSymbolTableRecord
100
AcDbLayerTableRecord
  2
11
 70
     0
 62
    11
  6
CONTINUOUS
  0
LAYER
  5
45
330
2
100
AcDbSymbolTableRecord
100
AcDbLayerTableRecord
  2
12
 70
     0
 62
    12
  6
CONTINUOUS
  0
LAYER
  5
46
330
2
100
AcDbSymbolTableRecord
100
AcDbLayerTableRecord
  2
13
 70
     0
 62
    13
  6
CONTINUOUS
  0
LAYER
  5
47
330
2
100
AcDbSymbolTableRecord
100
AcDbLayerTableRecord
  2
14
 70
     0
 62
    14
  6
CONTINUOUS
  0
LAYER
  5
48
330
2
100
AcDbSymbolTableRecord
100
AcDbLayerTableRecord
  2
15
 70
     0
 62
    15
  6
CONTINUOUS
  0
LAYER
  5
49
330
2
100
AcDbSymbolTableRecord
100
AcDbLayerTableRecord
  2
16
 70
     0
 62
    16
  6
CONTINUOUS
  0
LAYER
  5
4A
330
2
100
AcDbSymbolTableRecord
100
AcDbLayerTableRecord
  2
17
 70
     0
 62
    17
  6
CONTINUOUS
  0
LAYER
  5
4B
330
2
100
AcDbSymbolTableRecord
100
AcDbLayerTableRecord
  2
18
 70
     0
 62
    18
  6
CONTINUOUS
  0
LAYER
  5
4C
330
2
100
AcDbSymbolTableRecord
100
AcDbLayerTableRecord
  2
19
 70
     0
 62
    19
  6
CONTINUOUS
  0
LAYER
  5
4D
330
2
100
AcDbSymbolTableRecord
100
AcDbLayerTableRecord
  2
20
 70
     0
 62
    20
  6
CONTINUOUS
  0
LAYER
  5
4E
330
2
100
AcDbSymbolTableRecord
100
AcDbLayerTableRecord
  2
21
 70
     0
 62
    21
  6
CONTINUOUS
  0
LAYER
  5
4F
330
2
100
AcDbSymbolTableRecord
100
AcDbLayerTableRecord
  2
22
 70
     0
 62
    22
  6
CONTINUOUS
  0
LAYER
  5
50
330
2
100
AcDbSymbolTableRecord
100
AcDbLayerTableRecord
  2
23
 70
     0
 62
    23
  6
CONTINUOUS
  0
LAYER
  5
51
330
2
100
AcDbSymbolTableRecord
100
AcDbLayerTableRecord
  2
24
 70
     0
 62
    24
  6
CONTINUOUS
  0
LAYER
  5
52
330
2
100
AcDbSymbolTableRecord
100
AcDbLayerTableRecord
  2
25
 70
     0
 62
    25
  6
CONTINUOUS
  0
LAYER
  5
53
330
2
100
AcDbSymbolTableRecord
100
AcDbLayerTableRecord
  2
26
 70
     0
 62
    26
  6
CONTINUOUS
  0
LAYER
  5
54
330
2
100
AcDbSymbolTableRecord
100
AcDbLayerTableRecord
  2
27
 70
     0
 62
    27
  6
CONTINUOUS
  0
LAYER
  5
55
330
2
100
AcDbSymbolTableRecord
100
AcDbLayerTableRecord
  2
28
 70
     0
 62
    28
  6
CONTINUOUS
  0
LAYER
  5
56
330
2
100
AcDbSymbolTableRecord
100
AcDbLayerTableRecord
  2
29
 70
     0
 62
    29
  6
CONTINUOUS
  0
LAYER
  5
57
330
2
100
AcDbSymbolTableRecord
100
AcDbLayerTableRecord
  2
30
 70
     0
 62
    30
  6
CONTINUOUS
  0
LAYER
  5
58
330
2
100
AcDbSymbolTableRecord
100
AcDbLayerTableRecord
  2
31
 70
     0
 62
    31
  6
CONTINUOUS
  0
LAYER
  5
59
330
2
100
AcDbSymbolTableRecord
100
AcDbLayerTableRecord
  2
32
 70
     0
 62
    32
  6
CONTINUOUS
  0
LAYER
  5
5A
330
2
100
AcDbSymbolTableRecord
100
AcDbLayerTableRecord
  2
33
 70
     0
 62
    33
  6
CONTINUOUS
  0
LAYER
  5
5B
330
2
100
AcDbSymbolTableRecord
100
AcDbLayerTableRecord
  2
34
 70
     0
 62
    34
  6
CONTINUOUS
  0
LAYER
  5
5C
330
2
100
AcDbSymbolTableRecord
100
AcDbLayerTableRecord
  2
35
 70
     0
 62
    35
  6
CONTINUOUS
  0
LAYER
  5
5D
330
2
100
AcDbSymbolTableRecord
100
AcDbLayerTableRecord
  2
36
 70
     0
 62
    36
  6
CONTINUOUS
  0
LAYER
  5
5E
330
2
100
AcDbSymbolTableRecord
100
AcDbLayerTableRecord
  2
37
 70
     0
 62
    37
  6
CONTINUOUS
  0
LAYER
  5
5F
330
2
100
AcDbSymbolTableRecord
100
AcDbLayerTableRecord
  2
38
 70
     0
 62
    38
  6
CONTINUOUS
  0
LAYER
  5
60
330
2
100
AcDbSymbolTableRecord
100
AcDbLayerTableRecord
  2
39
 70
     0
 62
    39
  6
CONTINUOUS
  0
LAYER
  5
61
330
2
100
AcDbSymbolTableRecord
100
AcDbLayerTableRecord
  2
40
 70
     0
 62
    40
  6
CONTINUOUS
  0
LAYER
  5
62
330
2
100
AcDbSymbolTableRecord
100
AcDbLayerTableRecord
  2
41
 70
     0
 62
    41
  6
CONTINUOUS
  0
LAYER
  5
63
330
2
100
AcDbSymbolTableRecord
100
AcDbLayerTableRecord
  2
42
 70
     0
 62
    42
  6
CONTINUOUS
  0
LAYER
  5
64
330
2
100
AcDbSymbolTableRecord
100
AcDbLayerTableRecord
  2
43
 70
     0
 62
    43
  6
CONTINUOUS
  0
LAYER
  5
65
330
2
100
AcDbSymbolTableRecord
100
AcDbLayerTableRecord
  2
44
 70
     0
 62
    44
  6
CONTINUOUS
  0
LAYER
  5
66
330
2
100
AcDbSymbolTableRecord
100
AcDbLayerTableRecord
  2
45
 70
     0
 62
    45
  6
CONTINUOUS
  0
LAYER
  5
67
330
2
100
AcDbSymbolTableRecord
100
AcDbLayerTableRecord
  2
46
 70
     0
 62
    46
  6
CONTINUOUS
  0
LAYER
  5
68
330
2
100
AcDbSymbolTableRecord
100
AcDbLayerTableRecord
  2
47
 70
     0
 62
    47
  6
CONTINUOUS
  0
LAYER
  5
69
330
2
100
AcDbSymbolTableRecord
100
AcDbLayerTableRecord
  2
48
 70
     0
 62
    48
  6
CONTINUOUS
  0
LAYER
  5
6A
330
2
100
AcDbSymbolTableRecord
100
AcDbLayerTableRecord
  2
49
 70
     0
 62
    49
  6
CONTINUOUS
  0
LAYER
  5
6B
330
2
100
AcDbSymbolTableRecord
100
AcDbLayerTableRecord
  2
50
 70
     0
 62
    50
  6
CONTINUOUS
  0
LAYER
  5
6C
330
2
100
AcDbSymbolTableRecord
100
AcDbLayerTableRecord
  2
51
 70
     0
 62
    51
  6
CONTINUOUS
  0
LAYER
  5
6D
330
2
100
AcDbSymbolTableRecord
100
AcDbLayerTableRecord
  2
52
 70
     0
 62
    52
  6
CONTINUOUS
  0
LAYER
  5
6E
330
2
100
AcDbSymbolTableRecord
100
AcDbLayerTableRecord
  2
53
 70
     0
 62
    53
  6
CONTINUOUS
  0
LAYER
  5
6F
330
2
100
AcDbSymbolTableRecord
100
AcDbLayerTableRecord
  2
54
 70
     0
 62
    54
  6
CONTINUOUS
  0
LAYER
  5
70
330
2
100
AcDbSymbolTableRecord
100
AcDbLayerTableRecord
  2
55
 70
     0
 62
    55
  6
CONTINUOUS
  0
LAYER
  5
71
330
2
100
AcDbSymbolTableRecord
100
AcDbLayerTableRecord
  2
56
 70
     0
 62
    56
  6
CONTINUOUS
  0
LAYER
  5
72
330
2
100
AcDbSymbolTableRecord
100
AcDbLayerTableRecord
  2
57
 70
     0
 62
    57
  6
CONTINUOUS
  0
LAYER
  5
73
330
2
100
AcDbSymbolTableRecord
100
AcDbLayerTableRecord
  2
58
 70
     0
 62
    58
  6
CONTINUOUS
  0
LAYER
  5
74
330
2
100
AcDbSymbolTableRecord
100
AcDbLayerTableRecord
  2
59
 70
     0
 62
    59
  6
CONTINUOUS
  0
LAYER
  5
75
330
2
100
AcDbSymbolTableRecord
100
AcDbLayerTableRecord
  2
60
 70
     0
 62
    60
  6
CONTINUOUS
  0
LAYER
  5
76
330
2
100
AcDbSymbolTableRecord
100
AcDbLayerTableRecord
  2
61
 70
     0
 62
    61
  6
CONTINUOUS
  0
LAYER
  5
77
330
2
100
AcDbSymbolTableRecord
100
AcDbLayerTableRecord
  2
62
 70
     0
 62
    62
  6
CONTINUOUS
  0
LAYER
  5
78
330
2
100
AcDbSymbolTableRecord
100
AcDbLayerTableRecord
  2
63
 70
     0
 62
    63
  6
CONTINUOUS
  0
LAYER
  5
79
330
2
100
AcDbSymbolTableRecord
100
AcDbLayerTableRecord
  2
64
 70
     0
 62
    64
  6
CONTINUOUS
  0
LAYER
  5
7A
330
2
100
AcDbSymbolTableRecord
100
AcDbLayerTableRecord
  2
65
 70
     0
 62
    65
  6
CONTINUOUS
  0
LAYER
  5
7B
330
2
100
AcDbSymbolTableRecord
100
AcDbLayerTableRecord
  2
66
 70
     0
 62
    66
  6
CONTINUOUS
  0
LAYER
  5
7C
330
2
100
AcDbSymbolTableRecord
100
AcDbLayerTableRecord
  2
67
 70
     0
 62
    67
  6
CONTINUOUS
  0
LAYER
  5
7D
330
2
100
AcDbSymbolTableRecord
100
AcDbLayerTableRecord
  2
68
 70
     0
 62
    68
  6
CONTINUOUS
  0
LAYER
  5
7E
330
2
100
AcDbSymbolTableRecord
100
AcDbLayerTableRecord
  2
69
 70
     0
 62
    69
  6
CONTINUOUS
  0
LAYER
  5
7F
330
2
100
AcDbSymbolTableRecord
100
AcDbLayerTableRecord
  2
70
 70
     0
 62
    70
  6
CONTINUOUS
  0
LAYER
  5
80
330
2
100
AcDbSymbolTableRecord
100
AcDbLayerTableRecord
  2
71
 70
     0
 62
    71
  6
CONTINUOUS
  0
LAYER
  5
81
330
2
100
AcDbSymbolTableRecord
100
AcDbLayerTableRecord
  2
72
 70
     0
 62
    72
  6
CONTINUOUS
  0
LAYER
  5
82
330
2
100
AcDbSymbolTableRecord
100
AcDbLayerTableRecord
  2
73
 70
     0
 62
    73
  6
CONTINUOUS
  0
LAYER
  5
83
330
2
100
AcDbSymbolTableRecord
100
AcDbLayerTableRecord
  2
74
 70
     0
 62
    74
  6
CONTINUOUS
  0
LAYER
  5
84
330
2
100
AcDbSymbolTableRecord
100
AcDbLayerTableRecord
  2
75
 70
     0
 62
    75
  6
CONTINUOUS
  0
LAYER
  5
85
330
2
100
AcDbSymbolTableRecord
100
AcDbLayerTableRecord
  2
76
 70
     0
 62
    76
  6
CONTINUOUS
  0
LAYER
  5
86
330
2
100
AcDbSymbolTableRecord
100
AcDbLayerTableRecord
  2
77
 70
     0
 62
    77
  6
CONTINUOUS
  0
LAYER
  5
87
330
2
100
AcDbSymbolTableRecord
100
AcDbLayerTableRecord
  2
78
 70
     0
 62
    78
  6
CONTINUOUS
  0
LAYER
  5
88
330
2
100
AcDbSymbolTableRecord
100
AcDbLayerTableRecord
  2
79
 70
     0
 62
    79
  6
CONTINUOUS
  0
LAYER
  5
89
330
2
100
AcDbSymbolTableRecord
100
AcDbLayerTableRecord
  2
80
 70
     0
 62
    80
  6
CONTINUOUS
  0
LAYER
  5
8A
330
2
100
AcDbSymbolTableRecord
100
AcDbLayerTableRecord
  2
81
 70
     0
 62
    81
  6
CONTINUOUS
  0
LAYER
  5
8B
330
2
100
AcDbSymbolTableRecord
100
AcDbLayerTableRecord
  2
82
 70
     0
 62
    82
  6
CONTINUOUS
  0
LAYER
  5
8C
330
2
100
AcDbSymbolTableRecord
100
AcDbLayerTableRecord
  2
83
 70
     0
 62
    83
  6
CONTINUOUS
  0
LAYER
  5
8D
330
2
100
AcDbSymbolTableRecord
100
AcDbLayerTableRecord
  2
84
 70
     0
 62
    84
  6
CONTINUOUS
  0
LAYER
  5
8E
330
2
100
AcDbSymbolTableRecord
100
AcDbLayerTableRecord
  2
85
 70
     0
 62
    85
  6
CONTINUOUS
  0
LAYER
  5
8F
330
2
100
AcDbSymbolTableRecord
100
AcDbLayerTableRecord
  2
86
 70
     0
 62
    86
  6
CONTINUOUS
  0
LAYER
  5
90
330
2
100
AcDbSymbolTableRecord
100
AcDbLayerTableRecord
  2
87
 70
     0
 62
    87
  6
CONTINUOUS
  0
LAYER
  5
91
330
2
100
AcDbSymbolTableRecord
100
AcDbLayerTableRecord
  2
88
 70
     0
 62
    88
  6
CONTINUOUS
  0
LAYER
  5
92
330
2
100
AcDbSymbolTableRecord
100
AcDbLayerTableRecord
  2
89
 70
     0
 62
    89
  6
CONTINUOUS
  0
LAYER
  5
93
330
2
100
AcDbSymbolTableRecord
100
AcDbLayerTableRecord
  2
90
 70
     0
 62
    90
  6
CONTINUOUS
  0
LAYER
  5
94
330
2
100
AcDbSymbolTableRecord
100
AcDbLayerTableRecord
  2
91
 70
     0
 62
    91
  6
CONTINUOUS
  0
LAYER
  5
95
330
2
100
AcDbSymbolTableRecord
100
AcDbLayerTableRecord
  2
92
 70
     0
 62
    92
  6
CONTINUOUS
  0
LAYER
  5
96
330
2
100
AcDbSymbolTableRecord
100
AcDbLayerTableRecord
  2
93
 70
     0
 62
    93
  6
CONTINUOUS
  0
LAYER
  5
97
330
2
100
AcDbSymbolTableRecord
100
AcDbLayerTableRecord
  2
94
 70
     0
 62
    94
  6
CONTINUOUS
  0
LAYER
  5
98
330
2
100
AcDbSymbolTableRecord
100
AcDbLayerTableRecord
  2
95
 70
     0
 62
    95
  6
CONTINUOUS
  0
LAYER
  5
99
330
2
100
AcDbSymbolTableRecord
100
AcDbLayerTableRecord
  2
96
 70
     0
 62
    96
  6
CONTINUOUS
  0
LAYER
  5
9A
330
2
100
AcDbSymbolTableRecord
100
AcDbLayerTableRecord
  2
97
 70
     0
 62
    97
  6
CONTINUOUS
  0
LAYER
  5
9B
330
2
100
AcDbSymbolTableRecord
100
AcDbLayerTableRecord
  2
98
 70
     0
 62
    98
  6
CONTINUOUS
  0
LAYER
  5
9C
330
2
100
AcDbSymbolTableRecord
100
AcDbLayerTableRecord
  2
99
 70
     0
 62
    99
  6
CONTINUOUS
  0
LAYER
  5
9D
330
2
100
AcDbSymbolTableRecord
100
AcDbLayerTableRecord
  2
100
 70
     0
 62
   100
  6
CONTINUOUS
  0
LAYER
  5
9E
330
2
100
AcDbSymbolTableRecord
100
AcDbLayerTableRecord
  2
101
 70
     0
 62
   101
  6
CONTINUOUS
  0
LAYER
  5
9F
330
2
100
AcDbSymbolTableRecord
100
AcDbLayerTableRecord
  2
102
 70
     0
 62
   102
  6
CONTINUOUS
  0
LAYER
  5
A0
330
2
100
AcDbSymbolTableRecord
100
AcDbLayerTableRecord
  2
103
 70
     0
 62
   103
  6
CONTINUOUS
  0
LAYER
  5
A1
330
2
100
AcDbSymbolTableRecord
100
AcDbLayerTableRecord
  2
104
 70
     0
 62
   104
  6
CONTINUOUS
  0
LAYER
  5
A2
330
2
100
AcDbSymbolTableRecord
100
AcDbLayerTableRecord
  2
105
 70
     0
 62
   105
  6
CONTINUOUS
  0
LAYER
  5
A3
330
2
100
AcDbSymbolTableRecord
100
AcDbLayerTableRecord
  2
106
 70
     0
 62
   106
  6
CONTINUOUS
  0
LAYER
  5
A4
330
2
100
AcDbSymbolTableRecord
100
AcDbLayerTableRecord
  2
107
 70
     0
 62
   107
  6
CONTINUOUS
  0
LAYER
  5
A5
330
2
100
AcDbSymbolTableRecord
100
AcDbLayerTableRecord
  2
108
 70
     0
 62
   108
  6
CONTINUOUS
  0
LAYER
  5
A6
330
2
100
AcDbSymbolTableRecord
100
AcDbLayerTableRecord
  2
109
 70
     0
 62
   109
  6
CONTINUOUS
  0
LAYER
  5
A7
330
2
100
AcDbSymbolTableRecord
100
AcDbLayerTableRecord
  2
110
 70
     0
 62
   110
  6
CONTINUOUS
  0
LAYER
  5
A8
330
2
100
AcDbSymbolTableRecord
100
AcDbLayerTableRecord
  2
111
 70
     0
 62
   111
  6
CONTINUOUS
  0
LAYER
  5
A9
330
2
100
AcDbSymbolTableRecord
100
AcDbLayerTableRecord
  2
112
 70
     0
 62
   112
  6
CONTINUOUS
  0
LAYER
  5
AA
330
2
100
AcDbSymbolTableRecord
100
AcDbLayerTableRecord
  2
113
 70
     0
 62
   113
  6
CONTINUOUS
  0
LAYER
  5
AB
330
2
100
AcDbSymbolTableRecord
100
AcDbLayerTableRecord
  2
114
 70
     0
 62
   114
  6
CONTINUOUS
  0
LAYER
  5
AC
330
2
100
AcDbSymbolTableRecord
100
AcDbLayerTableRecord
  2
115
 70
     0
 62
   115
  6
CONTINUOUS
  0
LAYER
  5
AD
330
2
100
AcDbSymbolTableRecord
100
AcDbLayerTableRecord
  2
116
 70
     0
 62
   116
  6
CONTINUOUS
  0
LAYER
  5
AE
330
2
100
AcDbSymbolTableRecord
100
AcDbLayerTableRecord
  2
117
 70
     0
 62
   117
  6
CONTINUOUS
  0
LAYER
  5
AF
330
2
100
AcDbSymbolTableRecord
100
AcDbLayerTableRecord
  2
118
 70
     0
 62
   118
  6
CONTINUOUS
  0
LAYER
  5
B0
330
2
100
AcDbSymbolTableRecord
100
AcDbLayerTableRecord
  2
119
 70
     0
 62
   119
  6
CONTINUOUS
  0
LAYER
  5
B1
330
2
100
AcDbSymbolTableRecord
100
AcDbLayerTableRecord
  2
120
 70
     0
 62
   120
  6
CONTINUOUS
  0
LAYER
  5
B2
330
2
100
AcDbSymbolTableRecord
100
AcDbLayerTableRecord
  2
121
 70
     0
 62
   121
  6
CONTINUOUS
  0
LAYER
  5
B3
330
2
100
AcDbSymbolTableRecord
100
AcDbLayerTableRecord
  2
122
 70
     0
 62
   122
  6
CONTINUOUS
  0
LAYER
  5
B4
330
2
100
AcDbSymbolTableRecord
100
AcDbLayerTableRecord
  2
123
 70
     0
 62
   123
  6
CONTINUOUS
  0
LAYER
  5
B5
330
2
100
AcDbSymbolTableRecord
100
AcDbLayerTableRecord
  2
124
 70
     0
 62
   124
  6
CONTINUOUS
  0
LAYER
  5
B6
330
2
100
AcDbSymbolTableRecord
100
AcDbLayerTableRecord
  2
125
 70
     0
 62
   125
  6
CONTINUOUS
  0
LAYER
  5
B7
330
2
100
AcDbSymbolTableRecord
100
AcDbLayerTableRecord
  2
126
 70
     0
 62
   126
  6
CONTINUOUS
  0
LAYER
  5
B8
330
2
100
AcDbSymbolTableRecord
100
AcDbLayerTableRecord
  2
127
 70
     0
 62
   127
  6
CONTINUOUS
  0
LAYER
  5
B9
330
2
100
AcDbSymbolTableRecord
100
AcDbLayerTableRecord
  2
128
 70
     0
 62
   128
  6
CONTINUOUS
  0
LAYER
  5
BA
330
2
100
AcDbSymbolTableRecord
100
AcDbLayerTableRecord
  2
129
 70
     0
 62
   129
  6
CONTINUOUS
  0
LAYER
  5
BB
330
2
100
AcDbSymbolTableRecord
100
AcDbLayerTableRecord
  2
130
 70
     0
 62
   130
  6
CONTINUOUS
  0
LAYER
  5
BC
330
2
100
AcDbSymbolTableRecord
100
AcDbLayerTableRecord
  2
131
 70
     0
 62
   131
  6
CONTINUOUS
  0
LAYER
  5
BD
330
2
100
AcDbSymbolTableRecord
100
AcDbLayerTableRecord
  2
132
 70
     0
 62
   132
  6
CONTINUOUS
  0
LAYER
  5
BE
330
2
100
AcDbSymbolTableRecord
100
AcDbLayerTableRecord
  2
133
 70
     0
 62
   133
  6
CONTINUOUS
  0
LAYER
  5
BF
330
2
100
AcDbSymbolTableRecord
100
AcDbLayerTableRecord
  2
134
 70
     0
 62
   134
  6
CONTINUOUS
  0
LAYER
  5
C0
330
2
100
AcDbSymbolTableRecord
100
AcDbLayerTableRecord
  2
135
 70
     0
 62
   135
  6
CONTINUOUS
  0
LAYER
  5
C1
330
2
100
AcDbSymbolTableRecord
100
AcDbLayerTableRecord
  2
136
 70
     0
 62
   136
  6
CONTINUOUS
  0
LAYER
  5
C2
330
2
100
AcDbSymbolTableRecord
100
AcDbLayerTableRecord
  2
137
 70
     0
 62
   137
  6
CONTINUOUS
  0
LAYER
  5
C3
330
2
100
AcDbSymbolTableRecord
100
AcDbLayerTableRecord
  2
138
 70
     0
 62
   138
  6
CONTINUOUS
  0
LAYER
  5
C4
330
2
100
AcDbSymbolTableRecord
100
AcDbLayerTableRecord
  2
139
 70
     0
 62
   139
  6
CONTINUOUS
  0
LAYER
  5
C5
330
2
100
AcDbSymbolTableRecord
100
AcDbLayerTableRecord
  2
140
 70
     0
 62
   140
  6
CONTINUOUS
  0
LAYER
  5
C6
330
2
100
AcDbSymbolTableRecord
100
AcDbLayerTableRecord
  2
141
 70
     0
 62
   141
  6
CONTINUOUS
  0
LAYER
  5
C7
330
2
100
AcDbSymbolTableRecord
100
AcDbLayerTableRecord
  2
142
 70
     0
 62
   142
  6
CONTINUOUS
  0
LAYER
  5
C8
330
2
100
AcDbSymbolTableRecord
100
AcDbLayerTableRecord
  2
143
 70
     0
 62
   143
  6
CONTINUOUS
  0
LAYER
  5
C9
330
2
100
AcDbSymbolTableRecord
100
AcDbLayerTableRecord
  2
144
 70
     0
 62
   144
  6
CONTINUOUS
  0
LAYER
  5
CA
330
2
100
AcDbSymbolTableRecord
100
AcDbLayerTableRecord
  2
145
 70
     0
 62
   145
  6
CONTINUOUS
  0
LAYER
  5
CB
330
2
100
AcDbSymbolTableRecord
100
AcDbLayerTableRecord
  2
146
 70
     0
 62
   146
  6
CONTINUOUS
  0
LAYER
  5
CC
330
2
100
AcDbSymbolTableRecord
100
AcDbLayerTableRecord
  2
147
 70
     0
 62
   147
  6
CONTINUOUS
  0
LAYER
  5
CD
330
2
100
AcDbSymbolTableRecord
100
AcDbLayerTableRecord
  2
148
 70
     0
 62
   148
  6
CONTINUOUS
  0
LAYER
  5
CE
330
2
100
AcDbSymbolTableRecord
100
AcDbLayerTableRecord
  2
149
 70
     0
 62
   149
  6
CONTINUOUS
  0
LAYER
  5
CF
330
2
100
AcDbSymbolTableRecord
100
AcDbLayerTableRecord
  2
150
 70
     0
 62
   150
  6
CONTINUOUS
  0
LAYER
  5
D0
330
2
100
AcDbSymbolTableRecord
100
AcDbLayerTableRecord
  2
151
 70
     0
 62
   151
  6
CONTINUOUS
  0
LAYER
  5
D1
330
2
100
AcDbSymbolTableRecord
100
AcDbLayerTableRecord
  2
152
 70
     0
 62
   152
  6
CONTINUOUS
  0
LAYER
  5
D2
330
2
100
AcDbSymbolTableRecord
100
AcDbLayerTableRecord
  2
153
 70
     0
 62
   153
  6
CONTINUOUS
  0
LAYER
  5
D3
330
2
100
AcDbSymbolTableRecord
100
AcDbLayerTableRecord
  2
154
 70
     0
 62
   154
  6
CONTINUOUS
  0
LAYER
  5
D4
330
2
100
AcDbSymbolTableRecord
100
AcDbLayerTableRecord
  2
155
 70
     0
 62
   155
  6
CONTINUOUS
  0
LAYER
  5
D5
330
2
100
AcDbSymbolTableRecord
100
AcDbLayerTableRecord
  2
156
 70
     0
 62
   156
  6
CONTINUOUS
  0
LAYER
  5
D6
330
2
100
AcDbSymbolTableRecord
100
AcDbLayerTableRecord
  2
157
 70
     0
 62
   157
  6
CONTINUOUS
  0
LAYER
  5
D7
330
2
100
AcDbSymbolTableRecord
100
AcDbLayerTableRecord
  2
158
 70
     0
 62
   158
  6
CONTINUOUS
  0
LAYER
  5
D8
330
2
100
AcDbSymbolTableRecord
100
AcDbLayerTableRecord
  2
159
 70
     0
 62
   159
  6
CONTINUOUS
  0
LAYER
  5
D9
330
2
100
AcDbSymbolTableRecord
100
AcDbLayerTableRecord
  2
160
 70
     0
 62
   160
  6
CONTINUOUS
  0
LAYER
  5
DA
330
2
100
AcDbSymbolTableRecord
100
AcDbLayerTableRecord
  2
161
 70
     0
 62
   161
  6
CONTINUOUS
  0
LAYER
  5
DB
330
2
100
AcDbSymbolTableRecord
100
AcDbLayerTableRecord
  2
162
 70
     0
 62
   162
  6
CONTINUOUS
  0
LAYER
  5
DC
330
2
100
AcDbSymbolTableRecord
100
AcDbLayerTableRecord
  2
163
 70
     0
 62
   163
  6
CONTINUOUS
  0
LAYER
  5
DD
330
2
100
AcDbSymbolTableRecord
100
AcDbLayerTableRecord
  2
164
 70
     0
 62
   164
  6
CONTINUOUS
  0
LAYER
  5
DE
330
2
100
AcDbSymbolTableRecord
100
AcDbLayerTableRecord
  2
165
 70
     0
 62
   165
  6
CONTINUOUS
  0
LAYER
  5
DF
330
2
100
AcDbSymbolTableRecord
100
AcDbLayerTableRecord
  2
166
 70
     0
 62
   166
  6
CONTINUOUS
  0
LAYER
  5
E0
330
2
100
AcDbSymbolTableRecord
100
AcDbLayerTableRecord
  2
167
 70
     0
 62
   167
  6
CONTINUOUS
  0
LAYER
  5
E1
330
2
100
AcDbSymbolTableRecord
100
AcDbLayerTableRecord
  2
168
 70
     0
 62
   168
  6
CONTINUOUS
  0
LAYER
  5
E2
330
2
100
AcDbSymbolTableRecord
100
AcDbLayerTableRecord
  2
169
 70
     0
 62
   169
  6
CONTINUOUS
  0
LAYER
  5
E3
330
2
100
AcDbSymbolTableRecord
100
AcDbLayerTableRecord
  2
170
 70
     0
 62
   170
  6
CONTINUOUS
  0
LAYER
  5
E4
330
2
100
AcDbSymbolTableRecord
100
AcDbLayerTableRecord
  2
171
 70
     0
 62
   171
  6
CONTINUOUS
  0
LAYER
  5
E5
330
2
100
AcDbSymbolTableRecord
100
AcDbLayerTableRecord
  2
172
 70
     0
 62
   172
  6
CONTINUOUS
  0
LAYER
  5
E6
330
2
100
AcDbSymbolTableRecord
100
AcDbLayerTableRecord
  2
173
 70
     0
 62
   173
  6
CONTINUOUS
  0
LAYER
  5
E7
330
2
100
AcDbSymbolTableRecord
100
AcDbLayerTableRecord
  2
174
 70
     0
 62
   174
  6
CONTINUOUS
  0
LAYER
  5
E8
330
2
100
AcDbSymbolTableRecord
100
AcDbLayerTableRecord
  2
175
 70
     0
 62
   175
  6
CONTINUOUS
  0
LAYER
  5
E9
330
2
100
AcDbSymbolTableRecord
100
AcDbLayerTableRecord
  2
176
 70
     0
 62
   176
  6
CONTINUOUS
  0
LAYER
  5
EA
330
2
100
AcDbSymbolTableRecord
100
AcDbLayerTableRecord
  2
177
 70
     0
 62
   177
  6
CONTINUOUS
  0
LAYER
  5
EB
330
2
100
AcDbSymbolTableRecord
100
AcDbLayerTableRecord
  2
178
 70
     0
 62
   178
  6
CONTINUOUS
  0
LAYER
  5
EC
330
2
100
AcDbSymbolTableRecord
100
AcDbLayerTableRecord
  2
179
 70
     0
 62
   179
  6
CONTINUOUS
  0
LAYER
  5
ED
330
2
100
AcDbSymbolTableRecord
100
AcDbLayerTableRecord
  2
180
 70
     0
 62
   180
  6
CONTINUOUS
  0
LAYER
  5
EE
330
2
100
AcDbSymbolTableRecord
100
AcDbLayerTableRecord
  2
181
 70
     0
 62
   181
  6
CONTINUOUS
  0
LAYER
  5
EF
330
2
100
AcDbSymbolTableRecord
100
AcDbLayerTableRecord
  2
182
 70
     0
 62
   182
  6
CONTINUOUS
  0
LAYER
  5
F0
330
2
100
AcDbSymbolTableRecord
100
AcDbLayerTableRecord
  2
183
 70
     0
 62
   183
  6
CONTINUOUS
  0
LAYER
  5
F1
330
2
100
AcDbSymbolTableRecord
100
AcDbLayerTableRecord
  2
184
 70
     0
 62
   184
  6
CONTINUOUS
  0
LAYER
  5
F2
330
2
100
AcDbSymbolTableRecord
100
AcDbLayerTableRecord
  2
185
 70
     0
 62
   185
  6
CONTINUOUS
  0
LAYER
  5
F3
330
2
100
AcDbSymbolTableRecord
100
AcDbLayerTableRecord
  2
186
 70
     0
 62
   186
  6
CONTINUOUS
  0
LAYER
  5
F4
330
2
100
AcDbSymbolTableRecord
100
AcDbLayerTableRecord
  2
187
 70
     0
 62
   187
  6
CONTINUOUS
  0
LAYER
  5
F5
330
2
100
AcDbSymbolTableRecord
100
AcDbLayerTableRecord
  2
188
 70
     0
 62
   188
  6
CONTINUOUS
  0
LAYER
  5
F6
330
2
100
AcDbSymbolTableRecord
100
AcDbLayerTableRecord
  2
189
 70
     0
 62
   189
  6
CONTINUOUS
  0
LAYER
  5
F7
330
2
100
AcDbSymbolTableRecord
100
AcDbLayerTableRecord
  2
190
 70
     0
 62
   190
  6
CONTINUOUS
  0
LAYER
  5
F8
330
2
100
AcDbSymbolTableRecord
100
AcDbLayerTableRecord
  2
191
 70
     0
 62
   191
  6
CONTINUOUS
  0
LAYER
  5
F9
330
2
100
AcDbSymbolTableRecord
100
AcDbLayerTableRecord
  2
192
 70
     0
 62
   192
  6
CONTINUOUS
  0
LAYER
  5
FA
330
2
100
AcDbSymbolTableRecord
100
AcDbLayerTableRecord
  2
193
 70
     0
 62
   193
  6
CONTINUOUS
  0
LAYER
  5
FB
330
2
100
AcDbSymbolTableRecord
100
AcDbLayerTableRecord
  2
194
 70
     0
 62
   194
  6
CONTINUOUS
  0
LAYER
  5
FC
330
2
100
AcDbSymbolTableRecord
100
AcDbLayerTableRecord
  2
195
 70
     0
 62
   195
  6
CONTINUOUS
  0
LAYER
  5
FD
330
2
100
AcDbSymbolTableRecord
100
AcDbLayerTableRecord
  2
196
 70
     0
 62
   196
  6
CONTINUOUS
  0
LAYER
  5
FE
330
2
100
AcDbSymbolTableRecord
100
AcDbLayerTableRecord
  2
197
 70
     0
 62
   197
  6
CONTINUOUS
  0
LAYER
  5
FF
330
2
100
AcDbSymbolTableRecord
100
AcDbLayerTableRecord
  2
198
 70
     0
 62
   198
  6
CONTINUOUS
  0
LAYER
  5
100
330
2
100
AcDbSymbolTableRecord
100
AcDbLayerTableRecord
  2
199
 70
     0
 62
   199
  6
CONTINUOUS
  0
LAYER
  5
101
330
2
100
AcDbSymbolTableRecord
100
AcDbLayerTableRecord
  2
200
 70
     0
 62
   200
  6
CONTINUOUS
  0
LAYER
  5
102
330
2
100
AcDbSymbolTableRecord
100
AcDbLayerTableRecord
  2
201
 70
     0
 62
   201
  6
CONTINUOUS
  0
LAYER
  5
103
330
2
100
AcDbSymbolTableRecord
100
AcDbLayerTableRecord
  2
202
 70
     0
 62
   202
  6
CONTINUOUS
  0
LAYER
  5
104
330
2
100
AcDbSymbolTableRecord
100
AcDbLayerTableRecord
  2
203
 70
     0
 62
   203
  6
CONTINUOUS
  0
LAYER
  5
105
330
2
100
AcDbSymbolTableRecord
100
AcDbLayerTableRecord
  2
204
 70
     0
 62
   204
  6
CONTINUOUS
  0
LAYER
  5
106
330
2
100
AcDbSymbolTableRecord
100
AcDbLayerTableRecord
  2
205
 70
     0
 62
   205
  6
CONTINUOUS
  0
LAYER
  5
107
330
2
100
AcDbSymbolTableRecord
100
AcDbLayerTableRecord
  2
206
 70
     0
 62
   206
  6
CONTINUOUS
  0
LAYER
  5
108
330
2
100
AcDbSymbolTableRecord
100
AcDbLayerTableRecord
  2
207
 70
     0
 62
   207
  6
CONTINUOUS
  0
LAYER
  5
109
330
2
100
AcDbSymbolTableRecord
100
AcDbLayerTableRecord
  2
208
 70
     0
 62
   208
  6
CONTINUOUS
  0
LAYER
  5
10A
330
2
100
AcDbSymbolTableRecord
100
AcDbLayerTableRecord
  2
209
 70
     0
 62
   209
  6
CONTINUOUS
  0
LAYER
  5
10B
330
2
100
AcDbSymbolTableRecord
100
AcDbLayerTableRecord
  2
210
 70
     0
 62
   210
  6
CONTINUOUS
  0
LAYER
  5
10C
330
2
100
AcDbSymbolTableRecord
100
AcDbLayerTableRecord
  2
211
 70
     0
 62
   211
  6
CONTINUOUS
  0
LAYER
  5
10D
330
2
100
AcDbSymbolTableRecord
100
AcDbLayerTableRecord
  2
212
 70
     0
 62
   212
  6
CONTINUOUS
  0
LAYER
  5
10E
330
2
100
AcDbSymbolTableRecord
100
AcDbLayerTableRecord
  2
213
 70
     0
 62
   213
  6
CONTINUOUS
  0
LAYER
  5
10F
330
2
100
AcDbSymbolTableRecord
100
AcDbLayerTableRecord
  2
214
 70
     0
 62
   214
  6
CONTINUOUS
  0
LAYER
  5
110
330
2
100
AcDbSymbolTableRecord
100
AcDbLayerTableRecord
  2
215
 70
     0
 62
   215
  6
CONTINUOUS
  0
LAYER
  5
111
330
2
100
AcDbSymbolTableRecord
100
AcDbLayerTableRecord
  2
216
 70
     0
 62
   216
  6
CONTINUOUS
  0
LAYER
  5
112
330
2
100
AcDbSymbolTableRecord
100
AcDbLayerTableRecord
  2
217
 70
     0
 62
   217
  6
CONTINUOUS
  0
LAYER
  5
113
330
2
100
AcDbSymbolTableRecord
100
AcDbLayerTableRecord
  2
218
 70
     0
 62
   218
  6
CONTINUOUS
  0
LAYER
  5
114
330
2
100
AcDbSymbolTableRecord
100
AcDbLayerTableRecord
  2
219
 70
     0
 62
   219
  6
CONTINUOUS
  0
LAYER
  5
115
330
2
100
AcDbSymbolTableRecord
100
AcDbLayerTableRecord
  2
220
 70
     0
 62
   220
  6
CONTINUOUS
  0
LAYER
  5
116
330
2
100
AcDbSymbolTableRecord
100
AcDbLayerTableRecord
  2
221
 70
     0
 62
   221
  6
CONTINUOUS
  0
LAYER
  5
117
330
2
100
AcDbSymbolTableRecord
100
AcDbLayerTableRecord
  2
222
 70
     0
 62
   222
  6
CONTINUOUS
  0
LAYER
  5
118
330
2
100
AcDbSymbolTableRecord
100
AcDbLayerTableRecord
  2
223
 70
     0
 62
   223
  6
CONTINUOUS
  0
LAYER
  5
119
330
2
100
AcDbSymbolTableRecord
100
AcDbLayerTableRecord
  2
224
 70
     0
 62
   224
  6
CONTINUOUS
  0
LAYER
  5
11A
330
2
100
AcDbSymbolTableRecord
100
AcDbLayerTableRecord
  2
225
 70
     0
 62
   225
  6
CONTINUOUS
  0
LAYER
  5
11B
330
2
100
AcDbSymbolTableRecord
100
AcDbLayerTableRecord
  2
226
 70
     0
 62
   226
  6
CONTINUOUS
  0
LAYER
  5
11C
330
2
100
AcDbSymbolTableRecord
100
AcDbLayerTableRecord
  2
227
 70
     0
 62
   227
  6
CONTINUOUS
  0
LAYER
  5
11D
330
2
100
AcDbSymbolTableRecord
100
AcDbLayerTableRecord
  2
228
 70
     0
 62
   228
  6
CONTINUOUS
  0
LAYER
  5
11E
330
2
100
AcDbSymbolTableRecord
100
AcDbLayerTableRecord
  2
229
 70
     0
 62
   229
  6
CONTINUOUS
  0
LAYER
  5
11F
330
2
100
AcDbSymbolTableRecord
100
AcDbLayerTableRecord
  2
230
 70
     0
 62
   230
  6
CONTINUOUS
  0
LAYER
  5
120
330
2
100
AcDbSymbolTableRecord
100
AcDbLayerTableRecord
  2
231
 70
     0
 62
   231
  6
CONTINUOUS
  0
LAYER
  5
121
330
2
100
AcDbSymbolTableRecord
100
AcDbLayerTableRecord
  2
232
 70
     0
 62
   232
  6
CONTINUOUS
  0
LAYER
  5
122
330
2
100
AcDbSymbolTableRecord
100
AcDbLayerTableRecord
  2
233
 70
     0
 62
   233
  6
CONTINUOUS
  0
LAYER
  5
123
330
2
100
AcDbSymbolTableRecord
100
AcDbLayerTableRecord
  2
234
 70
     0
 62
   234
  6
CONTINUOUS
  0
LAYER
  5
124
330
2
100
AcDbSymbolTableRecord
100
AcDbLayerTableRecord
  2
235
 70
     0
 62
   235
  6
CONTINUOUS
  0
LAYER
  5
125
330
2
100
AcDbSymbolTableRecord
100
AcDbLayerTableRecord
  2
236
 70
     0
 62
   236
  6
CONTINUOUS
  0
LAYER
  5
126
330
2
100
AcDbSymbolTableRecord
100
AcDbLayerTableRecord
  2
237
 70
     0
 62
   237
  6
CONTINUOUS
  0
LAYER
  5
127
330
2
100
AcDbSymbolTableRecord
100
AcDbLayerTableRecord
  2
238
 70
     0
 62
   238
  6
CONTINUOUS
  0
LAYER
  5
128
330
2
100
AcDbSymbolTableRecord
100
AcDbLayerTableRecord
  2
239
 70
     0
 62
   239
  6
CONTINUOUS
  0
LAYER
  5
129
330
2
100
AcDbSymbolTableRecord
100
AcDbLayerTableRecord
  2
240
 70
     0
 62
   240
  6
CONTINUOUS
  0
LAYER
  5
12A
330
2
100
AcDbSymbolTableRecord
100
AcDbLayerTableRecord
  2
241
 70
     0
 62
   241
  6
CONTINUOUS
  0
LAYER
  5
12B
330
2
100
AcDbSymbolTableRecord
100
AcDbLayerTableRecord
  2
242
 70
     0
 62
   242
  6
CONTINUOUS
  0
LAYER
  5
12C
330
2
100
AcDbSymbolTableRecord
100
AcDbLayerTableRecord
  2
243
 70
     0
 62
   243
  6
CONTINUOUS
  0
LAYER
  5
12D
330
2
100
AcDbSymbolTableRecord
100
AcDbLayerTableRecord
  2
244
 70
     0
 62
   244
  6
CONTINUOUS
  0
LAYER
  5
12E
330
2
100
AcDbSymbolTableRecord
100
AcDbLayerTableRecord
  2
245
 70
     0
 62
   245
  6
CONTINUOUS
  0
LAYER
  5
12F
330
2
100
AcDbSymbolTableRecord
100
AcDbLayerTableRecord
  2
246
 70
     0
 62
   246
  6
CONTINUOUS
  0
LAYER
  5
130
330
2
100
AcDbSymbolTableRecord
100
AcDbLayerTableRecord
  2
247
 70
     0
 62
   247
  6
CONTINUOUS
  0
LAYER
  5
131
330
2
100
AcDbSymbolTableRecord
100
AcDbLayerTableRecord
  2
248
 70
     0
 62
   248
  6
CONTINUOUS
  0
LAYER
  5
132
330
2
100
AcDbSymbolTableRecord
100
AcDbLayerTableRecord
  2
249
 70
     0
 62
   249
  6
CONTINUOUS
  0
LAYER
  5
133
330
2
100
AcDbSymbolTableRecord
100
AcDbLayerTableRecord
  2
250
 70
     0
 62
   250
  6
CONTINUOUS
  0
LAYER
  5
134
330
2
100
AcDbSymbolTableRecord
100
AcDbLayerTableRecord
  2
251
 70
     0
 62
   251
  6
CONTINUOUS
  0
LAYER
  5
135
330
2
100
AcDbSymbolTableRecord
100
AcDbLayerTableRecord
  2
252
 70
     0
 62
   252
  6
CONTINUOUS
  0
LAYER
  5
136
330
2
100
AcDbSymbolTableRecord
100
AcDbLayerTableRecord
  2
253
 70
     0
 62
   253
  6
CONTINUOUS
  0
LAYER
  5
137
330
2
100
AcDbSymbolTableRecord
100
AcDbLayerTableRecord
  2
254
 70
     0
 62
   254
  6
CONTINUOUS
  0
LAYER
  5
138
330
2
100
AcDbSymbolTableRecord
100
AcDbLayerTableRecord
  2
255
 70
     0
 62
   255
  6
CONTINUOUS
  0
LAYER
  5
3587
330
2
100
AcDbSymbolTableRecord
100
AcDbLayerTableRecord
  2
DEFPOINTS
 70
     0
 62
     7
  6
CONTINUOUS
  0
ENDTAB
  0
TABLE
  2
STYLE
  5
3
330
0
100
AcDbSymbolTable
 70
     1
  0
STYLE
  5
11
330
3
100
AcDbSymbolTableRecord
100
AcDbTextStyleTableRecord
  2
STANDARD
 70
     0
 40
0.0
 41
1.0
 50
0.0
 71
     0
 42
0.2
  3
monotxt
  4

  0
ENDTAB
  0
TABLE
  2
VIEW
  5
6
330
0
100
AcDbSymbolTable
 70
     0
  0
ENDTAB
  0
TABLE
  2
UCS
  5
7
330
0
100
AcDbSymbolTable
 70
     0
  0
ENDTAB
  0
TABLE
  2
APPID
  5
9
330
0
100
AcDbSymbolTable
 70
     1
  0
APPID
  5
12
330
9
100
AcDbSymbolTableRecord
100
AcDbRegAppTableRecord
  2
ACAD
 70
     0
  0
ENDTAB
  0
TABLE
  2
DIMSTYLE
  5
A
330
0
100
AcDbSymbolTable
 70
     1
  0
DIMSTYLE
105
23AB
102
{ACAD_REACTORS
330
3586
102
}
330
A
100
AcDbSymbolTableRecord
100
AcDbDimStyleTableRecord
  2
STANDARD
 70
     0
  3

  4

  5

  6

  7

 40
1.0
 41
0.18
 42
0.0625
 43
0.38
 44
0.18
 45
0.0
 46
0.0
 47
0.0
 48
0.0
140
0.18
141
0.09
142
0.0
143
25.4
144
1.0
145
0.0
146
1.0
147
0.09
 71
     0
 72
     0
 73
     1
 74
     1
 75
     0
 76
     0
 77
     0
 78
     0
170
     0
171
     2
172
     0
173
     0
174
     0
175
     0
176
     0
177
     0
178
     0
270
     2
271
     4
272
     4
273
     2
274
     2
340
11
275
     0
280
     0
281
     0
282
     0
283
     1
284
     0
285
     0
286
     0
287
     3
288
     0
  0
ENDTAB
  0
TABLE
  2
BLOCK_RECORD
  5
1
330
0
100
AcDbSymbolTable
 70
     1
  0
BLOCK_RECORD
  5
1E
102
{ACAD_XDICTIONARY
360
3550
102
}
330
1
100
AcDbSymbolTableRecord
100
AcDbBlockTableRecord
  2
*MODEL_SPACE
  0
BLOCK_RECORD
  5
1A
102
{ACAD_XDICTIONARY
360
3552
102
}
330
1
100
AcDbSymbolTableRecord
100
AcDbBlockTableRecord
  2
*PAPER_SPACE
  0
BLOCK_RECORD
  5
3588
330
1
100
AcDbSymbolTableRecord
100
AcDbBlockTableRecord
  2
*D0
  0
ENDTAB
  0
ENDSEC
  0
SECTION
  2
BLOCKS
  0
BLOCK
  5
13B
330
1E
100
AcDbEntity
  8
0
100
AcDbBlockBegin
  2
*MODEL_SPACE
 70
     0
 10
0.0
 20
0.0
 30
0.0
  3
*MODEL_SPACE
  1

  0
ENDBLK
  5
13C
330
1E
100
AcDbEntity
  8
0
100
AcDbBlockEnd
  0
BLOCK
  5
139
330
1A
100
AcDbEntity
 67
     1
  8
0
100
AcDbBlockBegin
  2
*PAPER_SPACE
 70
     0
 10
0.0
 20
0.0
 30
0.0
  3
*PAPER_SPACE
  1

  0
ENDBLK
  5
13A
330
1A
100
AcDbEntity
 67
     1
  8
0
100
AcDbBlockEnd
  0
BLOCK
  5
3593
330
3588
100
AcDbEntity
  8
0
100
AcDbBlockBegin
  2
*D0
 70
     1
 10
0.0
 20
0.0
 30
0.0
  3
*D0
  1

  0
LINE
  5
3595
330
3588
100
AcDbEntity
  8
0
 62
     0
100
AcDbLine
 10
0.9436508766368941
 20
8.628181222512086
 30
0.0
 11
0.9436508766368941
 21
8.896426343354661
 31
0.0
  0
LINE
  5
3596
330
3588
100
AcDbEntity
  8
0
 62
     0
100
AcDbLine
 10
3.693703420780595
 20
8.628181222512086
 30
0.0
 11
3.693703420780595
 21
8.896426343354661
 31
0.0
  0
LINE
  5
3597
330
3588
100
AcDbEntity
  8
0
 62
     0
100
AcDbLine
 10
1.123650876636894
 20
8.716426343354662
 30
0.0
 11
1.733677148708744
 21
8.716426343354662
 31
0.0
  0
LINE
  5
3598
330
3588
100
AcDbEntity
  8
0
 62
     0
100
AcDbLine
 10
3.513703420780595
 20
8.716426343354662
 30
0.0
 11
2.903677148708744
 21
8.716426343354662
 31
0.0
  0
SOLID
  5
3599
330
3588
100
AcDbEntity
  8
0
 62
     0
100
AcDbTrace
 10
1.123650876636894
 20
8.746426343354661
 30
0.0
 11
1.123650876636894
 21
8.686426343354662
 31
0.0
 12
0.9436508766368941
 22
8.716426343354662
 32
0.0
 13
0.9436508766368941
 23
8.716426343354662
 33
0.0
  0
SOLID
  5
359A
330
3588
100
AcDbEntity
  8
0
 62
     0
100
AcDbTrace
 10
3.513703420780595
 20
8.746426343354661
 30
0.0
 11
3.513703420780595
 21
8.686426343354662
 31
0.0
 12
3.693703420780595
 22
8.716426343354662
 32
0.0
 13
3.693703420780595
 23
8.716426343354662
 33
0.0
  0
MTEXT
  5
359B
330
3588
100
AcDbEntity
  8
0
 62
     0
100
AcDbMText
 10
2.318677148708744
 20
8.716426343354662
 30
0.0
 40
0.18
 41
0.0
 71
     5
 72
     1
  1
\A1;2.7501
1001
ACAD
1000
MTEXTBEGIN
1070
    73
1070
     1
1070
    44
1040
1.0
1070
    74
1070
     0
1000
MTEXTEND
  0
POINT
  5
359C
330
3588
100
AcDbEntity
  8
DEFPOINTS
 62
     0
100
AcDbPoint
 10
0.9436508766368941
 20
8.565681222512086
 30
0.0
  0
POINT
  5
359D
330
3588
100
AcDbEntity
  8
DEFPOINTS
 62
     0
100
AcDbPoint
 10
3.693703420780595
 20
8.565681222512086
 30
0.0
  0
POINT
  5
359E
330
3588
100
AcDbEntity
  8
DEFPOINTS
 62
     0
100
AcDbPoint
 10
3.693703420780595
 20
8.716426343354662
 30
0.0
  0
ENDBLK
  5
3594
330
3588
100
AcDbEntity
  8
0
100
AcDbBlockEnd
  0
ENDSEC
  0
SECTION
  2
ENTITIES
  0
LINE
  5
1F6E
330
1E
100
AcDbEntity
  8
3
100
AcDbLine
 10
2.557155188251067
 20
5.836651535848699
 30
0.0
 11
2.555841259658547
 21
5.83533760725618
 31
0.0
  0
LINE
  5
1F6F
330
1E
100
AcDbEntity
  8
3
100
AcDbLine
 10
2.557155188251067
 20
5.836651535848699
 30
0.0
 11
2.555841259658547
 21
5.83533760725618
 31
0.0
  0
LINE
  5
1F70
330
1E
100
AcDbEntity
  8
3
100
AcDbLine
 10
2.558469116843586
 20
5.83402367866366
 30
0.0
 11
2.549271616695949
 21
5.827454035701062
 31
0.0
  0
LINE
  5
1F71
330
1E
100
AcDbEntity
  8
3
100
AcDbLine
 10
2.561096974028626
 20
5.83139582147862
 30
0.0
 11
2.541388045140831
 21
5.819570464145944
 31
0.0
  0
LINE
  5
20B6
330
1E
100
AcDbEntity
  8
7
100
AcDbLine
 10
1.00014980611524
 20
2.110350047462873
 30
0.0
 11
3.633262705524689
 21
2.110350047462873
 31
0.0
  0
LINE
  5
20ED
330
1E
100
AcDbEntity
  8
7
100
AcDbLine
 10
1.00014980611524
 20
2.110350047462873
 30
0.0
 11
3.633262705524689
 21
2.110350047462873
 31
0.0
  0
LINE
  5
20F4
330
1E
100
AcDbEntity
  8
7
100
AcDbLine
 10
1.165704808772721
 20
2.335031836783739
 30
0.0
 11
3.467707702867209
 21
2.335031836783739
 31
0.0
  0
LINE
  5
2115
330
1E
100
AcDbEntity
  8
7
100
AcDbLine
 10
3.629320919747129
 20
3.375663282059329
 30
0.0
 11
3.634576634117208
 21
3.376977210651848
 31
0.0
  0
LINE
  5
2155
330
1E
100
AcDbEntity
  8
7
100
AcDbLine
 10
0.9423369480443746
 20
3.432162211537676
 30
0.0
 11
0.9436508766368936
 21
3.426906497167597
 31
0.0
  0
LINE
  5
2163
330
1E
100
AcDbEntity
  8
7
100
AcDbLine
 10
3.693703420780595
 20
3.430848282945156
 30
0.0
 11
3.693703420780595
 21
7.815427996183345
 31
0.0
  0
LINE
  5
2164
330
1E
100
AcDbEntity
  8
7
100
AcDbLine
 10
1.00014980611524
 20
3.37040756768925
 30
0.0
 11
3.633262705524689
 21
3.37040756768925
 31
0.0
  0
LINE
  5
2165
330
1E
100
AcDbEntity
  8
7
100
AcDbLine
 10
0.9397090908593344
 20
7.815427996183345
 30
0.0
 11
0.9397090908593344
 21
3.430848282945156
 31
0.0
  0
LINE
  5
2166
330
1E
100
AcDbEntity
  8
7
100
AcDbLine
 10
3.633262705524689
 20
7.875868711439251
 30
0.0
 11
1.00014980611524
 21
7.875868711439251
 31
0.0
  0
LINE
  5
217C
330
1E
100
AcDbEntity
  8
7
100
AcDbLine
 10
2.683292333132957
 20
6.952176910897912
 30
0.0
 11
1.950120178506973
 21
6.952176910897912
 31
0.0
  0
LINE
  5
2192
330
1E
100
AcDbEntity
  8
7
100
AcDbLine
 10
1.950120178506973
 20
5.827454035701062
 30
0.0
 11
2.683292333132957
 21
5.827454035701062
 31
0.0
  0
LINE
  5
2193
330
1E
100
AcDbEntity
  8
7
100
AcDbLine
 10
1.950120178506973
 20
5.41882224342744
 30
0.0
 11
1.879168034510909
 21
5.364951171134133
 31
0.0
  0
LINE
  5
21A4
330
1E
100
AcDbEntity
  8
7
100
AcDbLine
 10
1.879168034510909
 20
4.347970440523897
 30
0.0
 11
1.950120178506973
 21
4.294099368230589
 31
0.0
  0
LINE
  5
21A5
330
1E
100
AcDbEntity
  8
7
100
AcDbLine
 10
2.683292333132957
 20
5.41882224342744
 30
0.0
 11
1.950120178506973
 21
5.41882224342744
 31
0.0
  0
LINE
  5
21BB
330
1E
100
AcDbEntity
  8
7
100
AcDbLine
 10
1.950120178506973
 20
4.294099368230589
 30
0.0
 11
2.683292333132957
 21
4.294099368230589
 31
0.0
  0
LINE
  5
2231
330
1E
100
AcDbEntity
  8
7
100
AcDbLine
 10
3.679250206262878
 20
3.440045783092795
 30
0.0
 11
3.691075563595555
 21
3.432162211537676
 31
0.0
  0
LINE
  5
224F
330
1E
100
AcDbEntity
  8
7
100
AcDbLine
 10
2.346926613447917
 20
5.554156888456967
 30
0.0
 11
2.371891256705791
 21
5.572551888752242
 31
0.0
  0
LINE
  5
2257
330
1E
100
AcDbEntity
  8
7
100
AcDbLine
 10
2.260207326341618
 20
5.572551888752242
 30
0.0
 11
2.373205185298311
 21
5.572551888752242
 31
0.0
  0
LINE
  5
2258
330
1E
100
AcDbEntity
  8
7
100
AcDbLine
 10
2.373205185298311
 20
5.673724390376259
 30
0.0
 11
2.260207326341618
 21
5.673724390376259
 31
0.0
  0
LINE
  5
2483
330
1E
100
AcDbEntity
  8
7
100
AcDbLine
 10
2.371891256705791
 20
5.672410461783739
 30
0.0
 11
2.346926613447917
 21
5.690805462079014
 31
0.0
  0
LINE
  5
2484
330
1E
100
AcDbEntity
  8
7
100
AcDbLine
 10
2.346926613447917
 20
5.690805462079014
 30
0.0
 11
2.316706255819964
 21
5.697375105041612
 31
0.0
  0
LINE
  5
2485
330
1E
100
AcDbEntity
  8
7
100
AcDbLine
 10
2.316706255819964
 20
5.697375105041612
 30
0.0
 11
2.286485898192012
 21
5.690805462079014
 31
0.0
  0
LINE
  5
2486
330
1E
100
AcDbEntity
  8
7
100
AcDbLine
 10
2.286485898192012
 20
5.690805462079014
 30
0.0
 11
2.261521254934138
 21
5.672410461783739
 31
0.0
  0
LINE
  5
2487
330
1E
100
AcDbEntity
  8
7
100
AcDbLine
 10
2.261521254934138
 20
5.572551888752242
 30
0.0
 11
2.286485898192012
 21
5.554156888456967
 31
0.0
  0
LINE
  5
2488
330
1E
100
AcDbEntity
  8
7
100
AcDbLine
 10
2.286485898192012
 20
5.554156888456967
 30
0.0
 11
2.316706255819964
 21
5.547587245494369
 31
0.0
  0
LINE
  5
2489
330
1E
100
AcDbEntity
  8
7
100
AcDbLine
 10
2.316706255819964
 20
5.547587245494369
 30
0.0
 11
2.346926613447917
 21
5.554156888456967
 31
0.0
  0
LINE
  5
248A
330
1E
100
AcDbEntity
  8
7
100
AcDbLine
 10
2.371891256705791
 20
5.572551888752242
 30
0.0
 11
2.388972328408547
 21
5.604086174972715
 31
0.0
  0
LINE
  5
248B
330
1E
100
AcDbEntity
  8
7
100
AcDbLine
 10
2.388972328408547
 20
5.604086174972715
 30
0.0
 11
2.388972328408547
 21
5.640876175563267
 31
0.0
  0
LINE
  5
248C
330
1E
100
AcDbEntity
  8
7
100
AcDbLine
 10
2.388972328408547
 20
5.640876175563267
 30
0.0
 11
2.371891256705791
 21
5.672410461783739
 31
0.0
  0
LINE
  5
248D
330
1E
100
AcDbEntity
  8
7
100
AcDbLine
 10
2.261521254934138
 20
5.672410461783739
 30
0.0
 11
2.244440183231382
 21
5.640876175563267
 31
0.0
  0
LINE
  5
248E
330
1E
100
AcDbEntity
  8
7
100
AcDbLine
 10
2.244440183231382
 20
5.640876175563267
 30
0.0
 11
2.244440183231382
 21
5.604086174972715
 31
0.0
  0
LINE
  5
248F
330
1E
100
AcDbEntity
  8
7
100
AcDbLine
 10
2.244440183231382
 20
5.604086174972715
 30
0.0
 11
2.261521254934138
 21
5.572551888752242
 31
0.0
  0
LINE
  5
2490
330
1E
100
AcDbEntity
  8
7
100
AcDbLine
 10
3.693703420780595
 20
7.815427996183345
 30
0.0
 11
3.688447706410516
 21
7.812800138998305
 31
0.0
  0
LINE
  5
2491
330
1E
100
AcDbEntity
  8
7
100
AcDbLine
 10
3.688447706410516
 20
7.812800138998305
 30
0.0
 11
3.676622349077838
 21
7.803602638850668
 31
0.0
  0
LINE
  5
2492
330
1E
100
AcDbEntity
  8
7
100
AcDbLine
 10
3.676622349077838
 20
7.803602638850668
 30
0.0
 11
3.655599491597523
 21
7.787835495740431
 31
0.0
  0
LINE
  5
2493
330
1E
100
AcDbEntity
  8
7
100
AcDbLine
 10
3.655599491597523
 20
7.787835495740431
 30
0.0
 11
3.62800699115461
 21
7.766812638260116
 31
0.0
  0
LINE
  5
2494
330
1E
100
AcDbEntity
  8
7
100
AcDbLine
 10
3.62800699115461
 20
7.766812638260116
 30
0.0
 11
3.593844847749098
 21
7.741847995002242
 31
0.0
  0
LINE
  5
2495
330
1E
100
AcDbEntity
  8
7
100
AcDbLine
 10
3.593844847749098
 20
7.741847995002242
 30
0.0
 11
3.554426989973508
 21
7.71425549455933
 31
0.0
  0
LINE
  5
2496
330
1E
100
AcDbEntity
  8
7
100
AcDbLine
 10
3.554426989973508
 20
7.71425549455933
 30
0.0
 11
3.512381275012878
 21
7.682721208338857
 31
0.0
  0
LINE
  5
2497
330
1E
100
AcDbEntity
  8
7
100
AcDbLine
 10
3.512381275012878
 20
7.682721208338857
 30
0.0
 11
3.467707702867209
 21
7.649872993525865
 31
0.0
  0
LINE
  5
2498
330
1E
100
AcDbEntity
  8
7
100
AcDbLine
 10
3.467707702867209
 20
3.595089357010117
 30
0.0
 11
3.513695203605397
 21
3.562241142197125
 31
0.0
  0
LINE
  5
2499
330
1E
100
AcDbEntity
  8
7
100
AcDbLine
 10
3.513695203605397
 20
3.562241142197125
 30
0.0
 11
3.557054847158547
 21
3.530706855976652
 31
0.0
  0
LINE
  5
249A
330
1E
100
AcDbEntity
  8
7
100
AcDbLine
 10
3.557054847158547
 20
3.530706855976652
 30
0.0
 11
3.597786633526657
 21
3.500486498348699
 31
0.0
  0
LINE
  5
249B
330
1E
100
AcDbEntity
  8
7
100
AcDbLine
 10
3.597786633526657
 20
3.500486498348699
 30
0.0
 11
3.631948776932169
 21
3.475521855090825
 31
0.0
  0
LINE
  5
249C
330
1E
100
AcDbEntity
  8
7
100
AcDbLine
 10
3.631948776932169
 20
3.475521855090825
 30
0.0
 11
3.659541277375082
 21
3.45449899761051
 31
0.0
  0
LINE
  5
249D
330
1E
100
AcDbEntity
  8
7
100
AcDbLine
 10
3.659541277375082
 20
3.45449899761051
 30
0.0
 11
3.679250206262878
 21
3.440045783092795
 31
0.0
  0
LINE
  5
249E
330
1E
100
AcDbEntity
  8
7
100
AcDbLine
 10
1.073729807296342
 20
3.470266140720746
 30
0.0
 11
1.048765164038468
 21
3.436103997315235
 31
0.0
  0
LINE
  5
249F
330
1E
100
AcDbEntity
  8
7
100
AcDbLine
 10
1.048765164038468
 20
3.436103997315235
 30
0.0
 11
1.027742306558153
 21
3.408511496872321
 31
0.0
  0
LINE
  5
24A0
330
1E
100
AcDbEntity
  8
7
100
AcDbLine
 10
1.027742306558153
 20
3.408511496872321
 30
0.0
 11
1.013289092040436
 21
3.387488639392006
 31
0.0
  0
LINE
  5
24A1
330
1E
100
AcDbEntity
  8
7
100
AcDbLine
 10
1.013289092040436
 20
3.387488639392006
 30
0.0
 11
1.002777663300279
 21
3.37434935346681
 31
0.0
  0
LINE
  5
24A2
330
1E
100
AcDbEntity
  8
7
100
AcDbLine
 10
1.002777663300279
 20
3.37434935346681
 30
0.0
 11
1.00014980611524
 21
3.37040756768925
 31
0.0
  0
LINE
  5
24A3
330
1E
100
AcDbEntity
  8
7
100
AcDbLine
 10
1.165704808772721
 20
3.595089357010117
 30
0.0
 11
1.132856593959727
 21
3.551729713456968
 31
0.0
  0
LINE
  5
24A4
330
1E
100
AcDbEntity
  8
7
100
AcDbLine
 10
1.132856593959727
 20
3.551729713456968
 30
0.0
 11
1.102636236331776
 21
3.509683998496337
 31
0.0
  0
LINE
  5
24A5
330
1E
100
AcDbEntity
  8
7
100
AcDbLine
 10
1.102636236331776
 20
3.509683998496337
 30
0.0
 11
1.073729807296342
 21
3.470266140720746
 31
0.0
  0
LINE
  5
24A6
330
1E
100
AcDbEntity
  8
7
100
AcDbLine
 10
3.633262705524689
 20
3.37040756768925
 30
0.0
 11
3.63063484833965
 21
3.37434935346681
 31
0.0
  0
LINE
  5
24A7
330
1E
100
AcDbEntity
  8
7
100
AcDbLine
 10
3.63063484833965
 20
3.37434935346681
 30
0.0
 11
3.620123419599492
 21
3.387488639392006
 31
0.0
  0
LINE
  5
24A8
330
1E
100
AcDbEntity
  8
7
100
AcDbLine
 10
3.620123419599492
 20
3.387488639392006
 30
0.0
 11
3.605670205081776
 21
3.408511496872321
 31
0.0
  0
LINE
  5
24A9
330
1E
100
AcDbEntity
  8
7
100
AcDbLine
 10
3.605670205081776
 20
3.408511496872321
 30
0.0
 11
3.584647347601461
 21
3.436103997315235
 31
0.0
  0
LINE
  5
24AA
330
1E
100
AcDbEntity
  8
7
100
AcDbLine
 10
3.584647347601461
 20
3.436103997315235
 30
0.0
 11
3.559682704343587
 21
3.470266140720746
 31
0.0
  0
LINE
  5
24AB
330
1E
100
AcDbEntity
  8
7
100
AcDbLine
 10
3.559682704343587
 20
3.470266140720746
 30
0.0
 11
3.530776275308153
 21
3.509683998496337
 31
0.0
  0
LINE
  5
24AC
330
1E
100
AcDbEntity
  8
7
100
AcDbLine
 10
3.530776275308153
 20
3.509683998496337
 30
0.0
 11
3.500555917680201
 21
3.551729713456968
 31
0.0
  0
LINE
  5
24AD
330
1E
100
AcDbEntity
  8
7
100
AcDbLine
 10
3.500555917680201
 20
3.551729713456968
 30
0.0
 11
3.467707702867209
 21
3.595089357010117
 31
0.0
  0
LINE
  5
24AE
330
1E
100
AcDbEntity
  8
7
100
AcDbLine
 10
1.00014980611524
 20
7.875868711439251
 30
0.0
 11
1.002777663300279
 21
7.871926925661691
 31
0.0
  0
LINE
  5
24AF
330
1E
100
AcDbEntity
  8
7
100
AcDbLine
 10
1.002777663300279
 20
7.871926925661691
 30
0.0
 11
1.013289092040436
 21
7.858787639736495
 31
0.0
  0
LINE
  5
24B0
330
1E
100
AcDbEntity
  8
7
100
AcDbLine
 10
1.013289092040436
 20
7.858787639736495
 30
0.0
 11
1.027742306558153
 21
7.837764782256179
 31
0.0
  0
LINE
  5
24B1
330
1E
100
AcDbEntity
  8
7
100
AcDbLine
 10
1.027742306558153
 20
7.837764782256179
 30
0.0
 11
1.048765164038468
 21
7.810172281813267
 31
0.0
  0
LINE
  5
24B2
330
1E
100
AcDbEntity
  8
7
100
AcDbLine
 10
1.048765164038468
 20
7.810172281813267
 30
0.0
 11
1.073729807296342
 21
7.776010138407754
 31
0.0
  0
LINE
  5
24B3
330
1E
100
AcDbEntity
  8
7
100
AcDbLine
 10
1.073729807296342
 20
7.776010138407754
 30
0.0
 11
1.102636236331776
 21
7.736592280632163
 31
0.0
  0
LINE
  5
24B4
330
1E
100
AcDbEntity
  8
7
100
AcDbLine
 10
1.102636236331776
 20
7.736592280632163
 30
0.0
 11
1.132856593959727
 21
7.694546565671533
 31
0.0
  0
LINE
  5
24B5
330
1E
100
AcDbEntity
  8
7
100
AcDbLine
 10
1.132856593959727
 20
7.694546565671533
 30
0.0
 11
1.165704808772721
 21
7.649872993525865
 31
0.0
  0
LINE
  5
24B6
330
1E
100
AcDbEntity
  8
7
100
AcDbLine
 10
3.605670205081776
 20
7.837764782256179
 30
0.0
 11
3.620123419599492
 21
7.858787639736495
 31
0.0
  0
LINE
  5
24B7
330
1E
100
AcDbEntity
  8
7
100
AcDbLine
 10
3.620123419599492
 20
7.858787639736495
 30
0.0
 11
3.63063484833965
 21
7.871926925661691
 31
0.0
  0
LINE
  5
24B8
330
1E
100
AcDbEntity
  8
7
100
AcDbLine
 10
3.63063484833965
 20
7.871926925661691
 30
0.0
 11
3.633262705524689
 21
7.875868711439251
 31
0.0
  0
LINE
  5
24B9
330
1E
100
AcDbEntity
  8
7
100
AcDbLine
 10
3.467707702867209
 20
7.649872993525865
 30
0.0
 11
3.500555917680201
 21
7.694546565671533
 31
0.0
  0
LINE
  5
24BA
330
1E
100
AcDbEntity
  8
7
100
AcDbLine
 10
3.500555917680201
 20
7.694546565671533
 30
0.0
 11
3.530776275308153
 21
7.736592280632163
 31
0.0
  0
LINE
  5
24BB
330
1E
100
AcDbEntity
  8
7
100
AcDbLine
 10
3.530776275308153
 20
7.736592280632163
 30
0.0
 11
3.559682704343587
 21
7.776010138407754
 31
0.0
  0
LINE
  5
24BC
330
1E
100
AcDbEntity
  8
7
100
AcDbLine
 10
3.559682704343587
 20
7.776010138407754
 30
0.0
 11
3.584647347601461
 21
7.810172281813267
 31
0.0
  0
LINE
  5
24BD
330
1E
100
AcDbEntity
  8
7
100
AcDbLine
 10
3.584647347601461
 20
7.810172281813267
 30
0.0
 11
3.605670205081776
 21
7.837764782256179
 31
0.0
  0
LINE
  5
24BE
330
1E
100
AcDbEntity
  8
7
100
AcDbLine
 10
0.9397090908593344
 20
3.430848282945156
 30
0.0
 11
0.9449648052294129
 21
3.433476140130195
 31
0.0
  0
LINE
  5
24BF
330
1E
100
AcDbEntity
  8
7
100
AcDbLine
 10
0.9449648052294129
 20
3.433476140130195
 30
0.0
 11
0.9567901625620912
 21
3.442673640277833
 31
0.0
  0
LINE
  5
24C0
330
1E
100
AcDbEntity
  8
7
100
AcDbLine
 10
0.9567901625620912
 20
3.442673640277833
 30
0.0
 11
0.9778130200424062
 21
3.458440783388069
 31
0.0
  0
LINE
  5
24C1
330
1E
100
AcDbEntity
  8
7
100
AcDbLine
 10
0.9778130200424062
 20
3.458440783388069
 30
0.0
 11
1.005405520485319
 21
3.478149712275865
 31
0.0
  0
LINE
  5
24C2
330
1E
100
AcDbEntity
  8
7
100
AcDbLine
 10
1.005405520485319
 20
3.478149712275865
 30
0.0
 11
1.03956766389083
 21
3.504428284126259
 31
0.0
  0
LINE
  5
24C3
330
1E
100
AcDbEntity
  8
7
100
AcDbLine
 10
1.03956766389083
 20
3.504428284126259
 30
0.0
 11
1.078985521666421
 21
3.532020784569172
 31
0.0
  0
LINE
  5
24C4
330
1E
100
AcDbEntity
  8
7
100
AcDbLine
 10
1.078985521666421
 20
3.532020784569172
 30
0.0
 11
1.121031236627051
 21
3.563555070789644
 31
0.0
  0
LINE
  5
24C5
330
1E
100
AcDbEntity
  8
7
100
AcDbLine
 10
1.121031236627051
 20
3.563555070789644
 30
0.0
 11
1.165704808772721
 21
3.595089357010117
 31
0.0
  0
LINE
  5
24C6
330
1E
100
AcDbEntity
  8
7
100
AcDbLine
 10
1.165704808772721
 20
7.649872993525865
 30
0.0
 11
1.121031236627051
 21
7.682721208338857
 31
0.0
  0
LINE
  5
24C7
330
1E
100
AcDbEntity
  8
7
100
AcDbLine
 10
1.121031236627051
 20
7.682721208338857
 30
0.0
 11
1.078985521666421
 21
7.71425549455933
 31
0.0
  0
LINE
  5
24C8
330
1E
100
AcDbEntity
  8
7
100
AcDbLine
 10
1.078985521666421
 20
7.71425549455933
 30
0.0
 11
1.03956766389083
 21
7.741847995002242
 31
0.0
  0
LINE
  5
24C9
330
1E
100
AcDbEntity
  8
7
100
AcDbLine
 10
1.03956766389083
 20
7.741847995002242
 30
0.0
 11
1.005405520485319
 21
7.766812638260116
 31
0.0
  0
LINE
  5
24CA
330
1E
100
AcDbEntity
  8
7
100
AcDbLine
 10
1.005405520485319
 20
7.766812638260116
 30
0.0
 11
0.9778130200424062
 21
7.787835495740431
 31
0.0
  0
LINE
  5
24CB
330
1E
100
AcDbEntity
  8
7
100
AcDbLine
 10
0.9778130200424062
 20
7.787835495740431
 30
0.0
 11
0.9567901625620912
 21
7.803602638850668
 31
0.0
  0
LINE
  5
24CC
330
1E
100
AcDbEntity
  8
7
100
AcDbLine
 10
0.9567901625620912
 20
7.803602638850668
 30
0.0
 11
0.9449648052294129
 21
7.812800138998305
 31
0.0
  0
LINE
  5
24CD
330
1E
100
AcDbEntity
  8
7
100
AcDbLine
 10
0.9449648052294129
 20
7.812800138998305
 30
0.0
 11
0.9397090908593344
 21
7.815427996183345
 31
0.0
  0
LINE
  5
24CE
330
1E
100
AcDbEntity
  8
7
100
AcDbLine
 10
1.165704808772721
 20
3.595089357010117
 30
0.0
 11
3.467707702867209
 21
3.595089357010117
 31
0.0
  0
LINE
  5
24CF
330
1E
100
AcDbEntity
  8
7
100
AcDbLine
 10
3.467707702867209
 20
3.595089357010117
 30
0.0
 11
3.467707702867209
 21
7.649872993525865
 31
0.0
  0
LINE
  5
24D0
330
1E
100
AcDbEntity
  8
7
100
AcDbLine
 10
3.467707702867209
 20
7.649872993525865
 30
0.0
 11
1.165704808772721
 21
7.649872993525865
 31
0.0
  0
LINE
  5
24D1
330
1E
100
AcDbEntity
  8
7
100
AcDbLine
 10
1.165704808772721
 20
7.649872993525865
 30
0.0
 11
1.165704808772721
 21
3.595089357010117
 31
0.0
  0
LINE
  5
24D2
330
1E
100
AcDbEntity
  8
7
100
AcDbLine
 10
2.454668758034531
 20
5.682921890523896
 30
0.0
 11
2.433645900554216
 21
5.718397962521927
 31
0.0
  0
LINE
  5
24D3
330
1E
100
AcDbEntity
  8
7
100
AcDbLine
 10
2.433645900554216
 20
5.718397962521927
 30
0.0
 11
2.403425542926263
 21
5.745990462964841
 31
0.0
  0
LINE
  5
24D4
330
1E
100
AcDbEntity
  8
7
100
AcDbLine
 10
2.403425542926263
 20
5.745990462964841
 30
0.0
 11
2.367949470928232
 21
5.764385463260117
 31
0.0
  0
LINE
  5
24D5
330
1E
100
AcDbEntity
  8
7
100
AcDbLine
 10
2.367949470928232
 20
5.764385463260117
 30
0.0
 11
2.327217684560122
 21
5.773582963407754
 31
0.0
  0
LINE
  5
24D6
330
1E
100
AcDbEntity
  8
7
100
AcDbLine
 10
2.327217684560122
 20
5.773582963407754
 30
0.0
 11
2.286485898192012
 21
5.770955106222714
 31
0.0
  0
LINE
  5
24D7
330
1E
100
AcDbEntity
  8
7
100
AcDbLine
 10
2.286485898192012
 20
5.770955106222714
 30
0.0
 11
2.247068040416421
 21
5.756501891704999
 31
0.0
  0
LINE
  5
24D8
330
1E
100
AcDbEntity
  8
7
100
AcDbLine
 10
2.247068040416421
 20
5.756501891704999
 30
0.0
 11
2.214219825603429
 21
5.732851177039644
 31
0.0
  0
LINE
  5
24D9
330
1E
100
AcDbEntity
  8
7
100
AcDbLine
 10
2.214219825603429
 20
5.732851177039644
 30
0.0
 11
2.187941253753035
 21
5.701316890819172
 31
0.0
  0
LINE
  5
24DA
330
1E
100
AcDbEntity
  8
7
100
AcDbLine
 10
2.187941253753035
 20
5.701316890819172
 30
0.0
 11
2.170860182050279
 21
5.663212961636101
 31
0.0
  0
LINE
  5
24DB
330
1E
100
AcDbEntity
  8
7
100
AcDbLine
 10
2.170860182050279
 20
5.663212961636101
 30
0.0
 11
2.1656044676802
 21
5.62248117526799
 31
0.0
  0
LINE
  5
24DC
330
1E
100
AcDbEntity
  8
7
100
AcDbLine
 10
2.1656044676802
 20
5.62248117526799
 30
0.0
 11
2.170860182050279
 21
5.58174938889988
 31
0.0
  0
LINE
  5
24DD
330
1E
100
AcDbEntity
  8
7
100
AcDbLine
 10
2.170860182050279
 20
5.58174938889988
 30
0.0
 11
2.187941253753035
 21
5.54364545971681
 31
0.0
  0
LINE
  5
24DE
330
1E
100
AcDbEntity
  8
7
100
AcDbLine
 10
2.187941253753035
 20
5.54364545971681
 30
0.0
 11
2.214219825603429
 21
5.512111173496338
 31
0.0
  0
LINE
  5
24DF
330
1E
100
AcDbEntity
  8
7
100
AcDbLine
 10
2.214219825603429
 20
5.512111173496338
 30
0.0
 11
2.247068040416421
 21
5.488460458830982
 31
0.0
  0
LINE
  5
24E0
330
1E
100
AcDbEntity
  8
7
100
AcDbLine
 10
2.247068040416421
 20
5.488460458830982
 30
0.0
 11
2.286485898192012
 21
5.474007244313267
 31
0.0
  0
LINE
  5
24E1
330
1E
100
AcDbEntity
  8
7
100
AcDbLine
 10
2.286485898192012
 20
5.474007244313267
 30
0.0
 11
2.327217684560122
 21
5.471379387128227
 31
0.0
  0
LINE
  5
24E2
330
1E
100
AcDbEntity
  8
7
100
AcDbLine
 10
2.327217684560122
 20
5.471379387128227
 30
0.0
 11
2.367949470928232
 21
5.480576887275865
 31
0.0
  0
LINE
  5
24E3
330
1E
100
AcDbEntity
  8
7
100
AcDbLine
 10
2.367949470928232
 20
5.480576887275865
 30
0.0
 11
2.403425542926263
 21
5.49897188757114
 31
0.0
  0
LINE
  5
24E4
330
1E
100
AcDbEntity
  8
7
100
AcDbLine
 10
2.403425542926263
 20
5.49897188757114
 30
0.0
 11
2.433645900554216
 21
5.526564388014054
 31
0.0
  0
LINE
  5
24E5
330
1E
100
AcDbEntity
  8
7
100
AcDbLine
 10
2.433645900554216
 20
5.526564388014054
 30
0.0
 11
2.454668758034531
 21
5.562040460012084
 31
0.0
  0
LINE
  5
24E6
330
1E
100
AcDbEntity
  8
7
100
AcDbLine
 10
2.454668758034531
 20
5.562040460012084
 30
0.0
 11
2.466494115367209
 21
5.601458317787676
 31
0.0
  0
LINE
  5
24E7
330
1E
100
AcDbEntity
  8
7
100
AcDbLine
 10
2.466494115367209
 20
5.601458317787676
 30
0.0
 11
2.466494115367209
 21
5.643504032748306
 31
0.0
  0
LINE
  5
24E8
330
1E
100
AcDbEntity
  8
7
100
AcDbLine
 10
2.466494115367209
 20
5.643504032748306
 30
0.0
 11
2.454668758034531
 21
5.682921890523896
 31
0.0
  0
LINE
  5
24E9
330
1E
100
AcDbEntity
  8
7
100
AcDbLine
 10
2.974984480672327
 20
4.723754017984527
 30
0.0
 11
2.986809838005004
 21
4.811787233683346
 31
0.0
  0
LINE
  5
24EA
330
1E
100
AcDbEntity
  8
7
100
AcDbLine
 10
2.986809838005004
 20
4.811787233683346
 30
0.0
 11
2.986809838005004
 21
4.901134377974684
 31
0.0
  0
LINE
  5
24EB
330
1E
100
AcDbEntity
  8
7
100
AcDbLine
 10
2.986809838005004
 20
4.901134377974684
 30
0.0
 11
2.974984480672327
 21
4.989167593673503
 31
0.0
  0
LINE
  5
24EC
330
1E
100
AcDbEntity
  8
7
100
AcDbLine
 10
2.974984480672327
 20
4.989167593673503
 30
0.0
 11
2.951333766006973
 21
5.074572952187282
 31
0.0
  0
LINE
  5
24ED
330
1E
100
AcDbEntity
  8
7
100
AcDbLine
 10
2.951333766006973
 20
5.074572952187282
 30
0.0
 11
2.91717162260146
 21
5.156036524923503
 31
0.0
  0
LINE
  5
24EE
330
1E
100
AcDbEntity
  8
7
100
AcDbLine
 10
2.91717162260146
 20
5.156036524923503
 30
0.0
 11
2.872498050455791
 21
5.233558311882164
 31
0.0
  0
LINE
  5
24EF
330
1E
100
AcDbEntity
  8
7
100
AcDbLine
 10
2.872498050455791
 20
5.233558311882164
 30
0.0
 11
2.817313049569964
 21
5.303196527285708
 31
0.0
  0
LINE
  5
24F0
330
1E
100
AcDbEntity
  8
7
100
AcDbLine
 10
2.817313049569964
 20
5.303196527285708
 30
0.0
 11
2.754244477129019
 21
5.364951171134133
 31
0.0
  0
LINE
  5
24F1
330
1E
100
AcDbEntity
  8
7
100
AcDbLine
 10
2.754244477129019
 20
5.364951171134133
 30
0.0
 11
2.683292333132957
 21
5.41882224342744
 31
0.0
  0
LINE
  5
24F2
330
1E
100
AcDbEntity
  8
7
100
AcDbLine
 10
2.683292333132957
 20
4.294099368230589
 30
0.0
 11
2.754244477129019
 21
4.347970440523897
 31
0.0
  0
LINE
  5
24F3
330
1E
100
AcDbEntity
  8
7
100
AcDbLine
 10
2.754244477129019
 20
4.347970440523897
 30
0.0
 11
2.817313049569964
 21
4.409725084372321
 31
0.0
  0
LINE
  5
24F4
330
1E
100
AcDbEntity
  8
7
100
AcDbLine
 10
2.817313049569964
 20
4.409725084372321
 30
0.0
 11
2.872498050455791
 21
4.479363299775865
 31
0.0
  0
LINE
  5
24F5
330
1E
100
AcDbEntity
  8
7
100
AcDbLine
 10
2.872498050455791
 20
4.479363299775865
 30
0.0
 11
2.91717162260146
 21
4.556885086734527
 31
0.0
  0
LINE
  5
24F6
330
1E
100
AcDbEntity
  8
7
100
AcDbLine
 10
2.91717162260146
 20
4.556885086734527
 30
0.0
 11
2.951333766006973
 21
4.638348659470747
 31
0.0
  0
LINE
  5
24F7
330
1E
100
AcDbEntity
  8
7
100
AcDbLine
 10
2.951333766006973
 20
4.638348659470747
 30
0.0
 11
2.974984480672327
 21
4.723754017984527
 31
0.0
  0
LINE
  5
24F8
330
1E
100
AcDbEntity
  8
7
100
AcDbLine
 10
1.879168034510909
 20
5.364951171134133
 30
0.0
 11
1.816099462069964
 21
5.303196527285708
 31
0.0
  0
LINE
  5
24F9
330
1E
100
AcDbEntity
  8
7
100
AcDbLine
 10
1.816099462069964
 20
5.303196527285708
 30
0.0
 11
1.760914461184138
 21
5.233558311882164
 31
0.0
  0
LINE
  5
24FA
330
1E
100
AcDbEntity
  8
7
100
AcDbLine
 10
1.760914461184138
 20
5.233558311882164
 30
0.0
 11
1.716240889038469
 21
5.156036524923503
 31
0.0
  0
LINE
  5
24FB
330
1E
100
AcDbEntity
  8
7
100
AcDbLine
 10
1.716240889038469
 20
5.156036524923503
 30
0.0
 11
1.682078745632957
 21
5.074572952187282
 31
0.0
  0
LINE
  5
24FC
330
1E
100
AcDbEntity
  8
7
100
AcDbLine
 10
1.682078745632957
 20
5.074572952187282
 30
0.0
 11
1.658428030967602
 21
4.989167593673503
 31
0.0
  0
LINE
  5
24FD
330
1E
100
AcDbEntity
  8
7
100
AcDbLine
 10
1.658428030967602
 20
4.989167593673503
 30
0.0
 11
1.646602673634925
 21
4.901134377974684
 31
0.0
  0
LINE
  5
24FE
330
1E
100
AcDbEntity
  8
7
100
AcDbLine
 10
1.646602673634925
 20
4.901134377974684
 30
0.0
 11
1.646602673634925
 21
4.811787233683346
 31
0.0
  0
LINE
  5
24FF
330
1E
100
AcDbEntity
  8
7
100
AcDbLine
 10
1.646602673634925
 20
4.811787233683346
 30
0.0
 11
1.658428030967602
 21
4.723754017984527
 31
0.0
  0
LINE
  5
2500
330
1E
100
AcDbEntity
  8
7
100
AcDbLine
 10
1.658428030967602
 20
4.723754017984527
 30
0.0
 11
1.682078745632957
 21
4.638348659470747
 31
0.0
  0
LINE
  5
2501
330
1E
100
AcDbEntity
  8
7
100
AcDbLine
 10
1.682078745632957
 20
4.638348659470747
 30
0.0
 11
1.716240889038469
 21
4.556885086734527
 31
0.0
  0
LINE
  5
2502
330
1E
100
AcDbEntity
  8
7
100
AcDbLine
 10
1.716240889038469
 20
4.556885086734527
 30
0.0
 11
1.760914461184138
 21
4.479363299775865
 31
0.0
  0
LINE
  5
2503
330
1E
100
AcDbEntity
  8
7
100
AcDbLine
 10
1.760914461184138
 20
4.479363299775865
 30
0.0
 11
1.816099462069964
 21
4.409725084372321
 31
0.0
  0
LINE
  5
2504
330
1E
100
AcDbEntity
  8
7
100
AcDbLine
 10
1.816099462069964
 20
4.409725084372321
 30
0.0
 11
1.879168034510909
 21
4.347970440523897
 31
0.0
  0
LINE
  5
2505
330
1E
100
AcDbEntity
  8
7
100
AcDbLine
 10
2.951333766006973
 20
6.607927619657754
 30
0.0
 11
2.91717162260146
 21
6.689391192393975
 31
0.0
  0
LINE
  5
2506
330
1E
100
AcDbEntity
  8
7
100
AcDbLine
 10
2.91717162260146
 20
6.689391192393975
 30
0.0
 11
2.872498050455791
 21
6.766912979352635
 31
0.0
  0
LINE
  5
2507
330
1E
100
AcDbEntity
  8
7
100
AcDbLine
 10
2.872498050455791
 20
6.766912979352635
 30
0.0
 11
2.817313049569964
 21
6.83655119475618
 31
0.0
  0
LINE
  5
2508
330
1E
100
AcDbEntity
  8
7
100
AcDbLine
 10
2.817313049569964
 20
6.83655119475618
 30
0.0
 11
2.754244477129019
 21
6.898305838604605
 31
0.0
  0
LINE
  5
2509
330
1E
100
AcDbEntity
  8
7
100
AcDbLine
 10
2.754244477129019
 20
6.898305838604605
 30
0.0
 11
2.683292333132957
 21
6.952176910897912
 31
0.0
  0
LINE
  5
250A
330
1E
100
AcDbEntity
  8
7
100
AcDbLine
 10
2.683292333132957
 20
5.827454035701062
 30
0.0
 11
2.754244477129019
 21
5.881325107994369
 31
0.0
  0
LINE
  5
250B
330
1E
100
AcDbEntity
  8
7
100
AcDbLine
 10
2.754244477129019
 20
5.881325107994369
 30
0.0
 11
2.817313049569964
 21
5.943079751842793
 31
0.0
  0
LINE
  5
250C
330
1E
100
AcDbEntity
  8
7
100
AcDbLine
 10
2.817313049569964
 20
5.943079751842793
 30
0.0
 11
2.872498050455791
 21
6.012717967246337
 31
0.0
  0
LINE
  5
250D
330
1E
100
AcDbEntity
  8
7
100
AcDbLine
 10
2.872498050455791
 20
6.012717967246337
 30
0.0
 11
2.91717162260146
 21
6.090239754204999
 31
0.0
  0
LINE
  5
250E
330
1E
100
AcDbEntity
  8
7
100
AcDbLine
 10
2.91717162260146
 20
6.090239754204999
 30
0.0
 11
2.951333766006973
 21
6.171703326941218
 31
0.0
  0
LINE
  5
250F
330
1E
100
AcDbEntity
  8
7
100
AcDbLine
 10
2.951333766006973
 20
6.171703326941218
 30
0.0
 11
2.974984480672327
 21
6.257108685454999
 31
0.0
  0
LINE
  5
2510
330
1E
100
AcDbEntity
  8
7
100
AcDbLine
 10
2.974984480672327
 20
6.257108685454999
 30
0.0
 11
2.986809838005004
 21
6.345141901153818
 31
0.0
  0
LINE
  5
2511
330
1E
100
AcDbEntity
  8
7
100
AcDbLine
 10
2.986809838005004
 20
6.345141901153818
 30
0.0
 11
2.986809838005004
 21
6.434489045445157
 31
0.0
  0
LINE
  5
2512
330
1E
100
AcDbEntity
  8
7
100
AcDbLine
 10
2.986809838005004
 20
6.434489045445157
 30
0.0
 11
2.974984480672327
 21
6.522522261143976
 31
0.0
  0
LINE
  5
2513
330
1E
100
AcDbEntity
  8
7
100
AcDbLine
 10
2.974984480672327
 20
6.522522261143976
 30
0.0
 11
2.951333766006973
 21
6.607927619657754
 31
0.0
  0
LINE
  5
2514
330
1E
100
AcDbEntity
  8
7
100
AcDbLine
 10
1.760914461184138
 20
6.766912979352635
 30
0.0
 11
1.716240889038469
 21
6.689391192393975
 31
0.0
  0
LINE
  5
2515
330
1E
100
AcDbEntity
  8
7
100
AcDbLine
 10
1.716240889038469
 20
6.689391192393975
 30
0.0
 11
1.682078745632957
 21
6.607927619657754
 31
0.0
  0
LINE
  5
2516
330
1E
100
AcDbEntity
  8
7
100
AcDbLine
 10
1.682078745632957
 20
6.607927619657754
 30
0.0
 11
1.658428030967602
 21
6.522522261143976
 31
0.0
  0
LINE
  5
2517
330
1E
100
AcDbEntity
  8
7
100
AcDbLine
 10
1.658428030967602
 20
6.522522261143976
 30
0.0
 11
1.646602673634925
 21
6.434489045445157
 31
0.0
  0
LINE
  5
2518
330
1E
100
AcDbEntity
  8
7
100
AcDbLine
 10
1.646602673634925
 20
6.434489045445157
 30
0.0
 11
1.646602673634925
 21
6.345141901153818
 31
0.0
  0
LINE
  5
2519
330
1E
100
AcDbEntity
  8
7
100
AcDbLine
 10
1.646602673634925
 20
6.345141901153818
 30
0.0
 11
1.658428030967602
 21
6.257108685454999
 31
0.0
  0
LINE
  5
251A
330
1E
100
AcDbEntity
  8
7
100
AcDbLine
 10
1.658428030967602
 20
6.257108685454999
 30
0.0
 11
1.682078745632957
 21
6.171703326941218
 31
0.0
  0
LINE
  5
251B
330
1E
100
AcDbEntity
  8
7
100
AcDbLine
 10
1.682078745632957
 20
6.171703326941218
 30
0.0
 11
1.716240889038469
 21
6.090239754204999
 31
0.0
  0
LINE
  5
251C
330
1E
100
AcDbEntity
  8
7
100
AcDbLine
 10
1.716240889038469
 20
6.090239754204999
 30
0.0
 11
1.760914461184138
 21
6.012717967246337
 31
0.0
  0
LINE
  5
251D
330
1E
100
AcDbEntity
  8
7
100
AcDbLine
 10
1.760914461184138
 20
6.012717967246337
 30
0.0
 11
1.816099462069964
 21
5.943079751842793
 31
0.0
  0
LINE
  5
251E
330
1E
100
AcDbEntity
  8
7
100
AcDbLine
 10
1.816099462069964
 20
5.943079751842793
 30
0.0
 11
1.879168034510909
 21
5.881325107994369
 31
0.0
  0
LINE
  5
251F
330
1E
100
AcDbEntity
  8
7
100
AcDbLine
 10
1.879168034510909
 20
5.881325107994369
 30
0.0
 11
1.950120178506973
 21
5.827454035701062
 31
0.0
  0
LINE
  5
2520
330
1E
100
AcDbEntity
  8
7
100
AcDbLine
 10
1.950120178506973
 20
6.952176910897912
 30
0.0
 11
1.879168034510909
 21
6.898305838604605
 31
0.0
  0
LINE
  5
2521
330
1E
100
AcDbEntity
  8
7
100
AcDbLine
 10
1.879168034510909
 20
6.898305838604605
 30
0.0
 11
1.816099462069964
 21
6.83655119475618
 31
0.0
  0
LINE
  5
2522
330
1E
100
AcDbEntity
  8
7
100
AcDbLine
 10
1.816099462069964
 20
6.83655119475618
 30
0.0
 11
1.760914461184138
 21
6.766912979352635
 31
0.0
  0
LINE
  5
2523
330
1E
100
AcDbEntity
  8
7
100
AcDbLine
 10
0.9436508766368936
 20
3.426906497167597
 30
0.0
 11
0.9462787338219339
 21
3.420336854204999
 31
0.0
  0
LINE
  5
2524
330
1E
100
AcDbEntity
  8
7
100
AcDbLine
 10
0.9462787338219339
 20
3.420336854204999
 30
0.0
 11
0.9502205195994918
 21
3.41639506842744
 31
0.0
  0
LINE
  5
2525
330
1E
100
AcDbEntity
  8
7
100
AcDbLine
 10
0.9502205195994918
 20
3.41639506842744
 30
0.0
 11
0.9581040911546105
 21
3.408511496872321
 31
0.0
  0
LINE
  5
2526
330
1E
100
AcDbEntity
  8
7
100
AcDbLine
 10
0.9581040911546105
 20
3.408511496872321
 30
0.0
 11
0.9620458769321697
 21
3.404569711094763
 31
0.0
  0
LINE
  5
2527
330
1E
100
AcDbEntity
  8
7
100
AcDbLine
 10
0.9620458769321697
 20
3.404569711094763
 30
0.0
 11
0.9659876627097281
 21
3.400627925317203
 31
0.0
  0
LINE
  5
2528
330
1E
100
AcDbEntity
  8
7
100
AcDbLine
 10
0.9659876627097281
 20
3.400627925317203
 30
0.0
 11
0.9738712342648469
 21
3.392744353762085
 31
0.0
  0
LINE
  5
2529
330
1E
100
AcDbEntity
  8
7
100
AcDbLine
 10
0.9738712342648469
 20
3.392744353762085
 30
0.0
 11
0.9830687344124848
 21
3.387488639392006
 31
0.0
  0
LINE
  5
252A
330
1E
100
AcDbEntity
  8
7
100
AcDbLine
 10
0.9830687344124848
 20
3.387488639392006
 30
0.0
 11
0.9975219489302006
 21
3.380918996429408
 31
0.0
  0
LINE
  5
252B
330
1E
100
AcDbEntity
  8
7
100
AcDbLine
 10
0.9975219489302006
 20
3.380918996429408
 30
0.0
 11
1.006719449077838
 21
3.379605067836889
 31
0.0
  0
LINE
  5
252C
330
1E
100
AcDbEntity
  8
7
100
AcDbLine
 10
1.006719449077838
 20
3.379605067836889
 30
0.0
 11
1.008033377670357
 21
3.379605067836889
 31
0.0
  0
LINE
  5
252D
330
1E
100
AcDbEntity
  8
7
100
AcDbLine
 10
0.9843826630050042
 20
7.866671211291612
 30
0.0
 11
0.9725573056723275
 21
7.864043354106573
 31
0.0
  0
LINE
  5
252E
330
1E
100
AcDbEntity
  8
7
100
AcDbLine
 10
0.9725573056723275
 20
7.864043354106573
 30
0.0
 11
0.9673015913022489
 21
7.861415496921534
 31
0.0
  0
LINE
  5
252F
330
1E
100
AcDbEntity
  8
7
100
AcDbLine
 10
0.9673015913022489
 20
7.861415496921534
 30
0.0
 11
0.9620458769321697
 21
7.857473711143976
 31
0.0
  0
LINE
  5
2530
330
1E
100
AcDbEntity
  8
7
100
AcDbLine
 10
0.9620458769321697
 20
7.857473711143976
 30
0.0
 11
0.9581040911546105
 21
7.853531925366416
 31
0.0
  0
LINE
  5
2531
330
1E
100
AcDbEntity
  8
7
100
AcDbLine
 10
0.9581040911546105
 20
7.853531925366416
 30
0.0
 11
0.9554762339695708
 21
7.848276210996337
 31
0.0
  0
LINE
  5
2532
330
1E
100
AcDbEntity
  8
7
100
AcDbLine
 10
0.9554762339695708
 20
7.848276210996337
 30
0.0
 11
0.9541623053770514
 21
7.843020496626259
 31
0.0
  0
LINE
  5
2533
330
1E
100
AcDbEntity
  8
7
100
AcDbLine
 10
0.9541623053770514
 20
7.843020496626259
 30
0.0
 11
0.9528483767845319
 21
7.83645085366366
 31
0.0
  0
LINE
  5
2534
330
1E
100
AcDbEntity
  8
7
100
AcDbLine
 10
0.9528483767845319
 20
7.83645085366366
 30
0.0
 11
0.9515344481920124
 21
7.832509067886102
 31
0.0
  0
LINE
  5
2535
330
1E
100
AcDbEntity
  8
7
100
AcDbLine
 10
0.9515344481920124
 20
7.832509067886102
 30
0.0
 11
0.9502205195994918
 21
7.829881210701061
 31
0.0
  0
LINE
  5
2536
330
1E
100
AcDbEntity
  8
7
100
AcDbLine
 10
0.9502205195994918
 20
7.829881210701061
 30
0.0
 11
0.9489065910069726
 21
7.825939424923503
 31
0.0
  0
LINE
  5
2537
330
1E
100
AcDbEntity
  8
7
100
AcDbLine
 10
0.9489065910069726
 20
7.825939424923503
 30
0.0
 11
0.9475926624144532
 21
7.821997639145943
 31
0.0
  0
LINE
  5
2538
330
1E
100
AcDbEntity
  8
7
100
AcDbLine
 10
0.9475926624144532
 20
7.821997639145943
 30
0.0
 11
0.9449648052294129
 21
7.812800138998305
 31
0.0
  0
LINE
  5
2539
330
1E
100
AcDbEntity
  8
7
100
AcDbLine
 10
0.9449648052294129
 20
7.812800138998305
 30
0.0
 11
0.9436508766368936
 21
7.811486210405786
 31
0.0
  0
LINE
  5
253A
330
1E
100
AcDbEntity
  8
7
100
AcDbLine
 10
1.006719449077838
 20
7.866671211291612
 30
0.0
 11
1.00014980611524
 21
7.866671211291612
 31
0.0
  0
LINE
  5
253B
330
1E
100
AcDbEntity
  8
7
100
AcDbLine
 10
1.00014980611524
 20
7.866671211291612
 30
0.0
 11
0.9922662345601217
 21
7.866671211291612
 31
0.0
  0
LINE
  5
253C
330
1E
100
AcDbEntity
  8
7
100
AcDbLine
 10
0.9922662345601217
 20
7.866671211291612
 30
0.0
 11
0.9843826630050042
 21
7.866671211291612
 31
0.0
  0
LINE
  5
253D
330
1E
100
AcDbEntity
  8
7
100
AcDbLine
 10
3.677936277670359
 20
7.83645085366366
 30
0.0
 11
3.676622349077838
 21
7.839078710848699
 31
0.0
  0
LINE
  5
253E
330
1E
100
AcDbEntity
  8
7
100
AcDbLine
 10
3.676622349077838
 20
7.839078710848699
 30
0.0
 11
3.675308420485318
 21
7.841706568033739
 31
0.0
  0
LINE
  5
253F
330
1E
100
AcDbEntity
  8
7
100
AcDbLine
 10
3.675308420485318
 20
7.841706568033739
 30
0.0
 11
3.675308420485318
 21
7.845648353811297
 31
0.0
  0
LINE
  5
2540
330
1E
100
AcDbEntity
  8
7
100
AcDbLine
 10
3.675308420485318
 20
7.845648353811297
 30
0.0
 11
3.67268056330028
 21
7.850904068181376
 31
0.0
  0
LINE
  5
2541
330
1E
100
AcDbEntity
  8
7
100
AcDbLine
 10
3.67268056330028
 20
7.850904068181376
 30
0.0
 11
3.67005270611524
 21
7.856159782551454
 31
0.0
  0
LINE
  5
2542
330
1E
100
AcDbEntity
  8
7
100
AcDbLine
 10
3.67005270611524
 20
7.856159782551454
 30
0.0
 11
3.667424848930201
 21
7.857473711143976
 31
0.0
  0
LINE
  5
2543
330
1E
100
AcDbEntity
  8
7
100
AcDbLine
 10
3.667424848930201
 20
7.857473711143976
 30
0.0
 11
3.664796991745161
 21
7.860101568329014
 31
0.0
  0
LINE
  5
2544
330
1E
100
AcDbEntity
  8
7
100
AcDbLine
 10
3.664796991745161
 20
7.860101568329014
 30
0.0
 11
3.663483063152642
 21
7.861415496921534
 31
0.0
  0
LINE
  5
2545
330
1E
100
AcDbEntity
  8
7
100
AcDbLine
 10
3.663483063152642
 20
7.861415496921534
 30
0.0
 11
3.659541277375082
 21
7.861415496921534
 31
0.0
  0
LINE
  5
2546
330
1E
100
AcDbEntity
  8
7
100
AcDbLine
 10
3.659541277375082
 20
7.861415496921534
 30
0.0
 11
3.654285563005004
 21
7.862729425514054
 31
0.0
  0
LINE
  5
2547
330
1E
100
AcDbEntity
  8
7
100
AcDbLine
 10
3.654285563005004
 20
7.862729425514054
 30
0.0
 11
3.646401991449886
 21
7.864043354106573
 31
0.0
  0
LINE
  5
2548
330
1E
100
AcDbEntity
  8
7
100
AcDbLine
 10
3.646401991449886
 20
7.864043354106573
 30
0.0
 11
3.637204491302248
 21
7.865357282699093
 31
0.0
  0
LINE
  5
2549
330
1E
100
AcDbEntity
  8
7
100
AcDbLine
 10
3.637204491302248
 20
7.865357282699093
 30
0.0
 11
3.626693062562091
 21
7.866671211291612
 31
0.0
  0
LINE
  5
254A
330
1E
100
AcDbEntity
  8
7
100
AcDbLine
 10
3.691075563595555
 20
7.812800138998305
 30
0.0
 11
3.689761635003035
 21
7.819369781960904
 31
0.0
  0
LINE
  5
254B
330
1E
100
AcDbEntity
  8
7
100
AcDbLine
 10
3.689761635003035
 20
7.819369781960904
 30
0.0
 11
3.687133777817996
 21
7.825939424923503
 31
0.0
  0
LINE
  5
254C
330
1E
100
AcDbEntity
  8
7
100
AcDbLine
 10
3.687133777817996
 20
7.825939424923503
 30
0.0
 11
3.683191992040437
 21
7.829881210701061
 31
0.0
  0
LINE
  5
254D
330
1E
100
AcDbEntity
  8
7
100
AcDbLine
 10
3.683191992040437
 20
7.829881210701061
 30
0.0
 11
3.679250206262878
 21
7.833822996478621
 31
0.0
  0
LINE
  5
254E
330
1E
100
AcDbEntity
  8
7
100
AcDbLine
 10
3.679250206262878
 20
7.833822996478621
 30
0.0
 11
3.677936277670359
 21
7.83645085366366
 31
0.0
  0
LINE
  5
254F
330
1E
100
AcDbEntity
  8
7
100
AcDbLine
 10
3.634576634117208
 20
3.376977210651848
 30
0.0
 11
3.635890562709729
 21
3.378291139244369
 31
0.0
  0
LINE
  5
2550
330
1E
100
AcDbEntity
  8
7
100
AcDbLine
 10
3.635890562709729
 20
3.378291139244369
 30
0.0
 11
3.637204491302248
 21
3.378291139244369
 31
0.0
  0
LINE
  5
2551
330
1E
100
AcDbEntity
  8
7
100
AcDbLine
 10
3.637204491302248
 20
3.378291139244369
 30
0.0
 11
3.639832348487287
 21
3.378291139244369
 31
0.0
  0
LINE
  5
2552
330
1E
100
AcDbEntity
  8
7
100
AcDbLine
 10
3.639832348487287
 20
3.378291139244369
 30
0.0
 11
3.641146277079807
 21
3.378291139244369
 31
0.0
  0
LINE
  5
2553
330
1E
100
AcDbEntity
  8
7
100
AcDbLine
 10
3.641146277079807
 20
3.378291139244369
 30
0.0
 11
3.645088062857365
 21
3.378291139244369
 31
0.0
  0
LINE
  5
2554
330
1E
100
AcDbEntity
  8
7
100
AcDbLine
 10
3.645088062857365
 20
3.378291139244369
 30
0.0
 11
3.649029848634925
 21
3.378291139244369
 31
0.0
  0
LINE
  5
2555
330
1E
100
AcDbEntity
  8
7
100
AcDbLine
 10
3.649029848634925
 20
3.378291139244369
 30
0.0
 11
3.660855205967602
 21
3.382232925021927
 31
0.0
  0
LINE
  5
2556
330
1E
100
AcDbEntity
  8
7
100
AcDbLine
 10
3.660855205967602
 20
3.382232925021927
 30
0.0
 11
3.66611092033768
 21
3.384860782206967
 31
0.0
  0
LINE
  5
2557
330
1E
100
AcDbEntity
  8
7
100
AcDbLine
 10
3.66611092033768
 20
3.384860782206967
 30
0.0
 11
3.671366634707759
 21
3.388802567984527
 31
0.0
  0
LINE
  5
2558
330
1E
100
AcDbEntity
  8
7
100
AcDbLine
 10
3.671366634707759
 20
3.388802567984527
 30
0.0
 11
3.679250206262878
 21
3.396686139539644
 31
0.0
  0
LINE
  5
2559
330
1E
100
AcDbEntity
  8
7
100
AcDbLine
 10
3.679250206262878
 20
3.396686139539644
 30
0.0
 11
3.684505920632957
 21
3.405883639687282
 31
0.0
  0
LINE
  5
255A
330
1E
100
AcDbEntity
  8
7
100
AcDbLine
 10
3.684505920632957
 20
3.405883639687282
 30
0.0
 11
3.689761635003035
 21
3.421650782797518
 31
0.0
  0
LINE
  5
255B
330
1E
100
AcDbEntity
  8
7
100
AcDbLine
 10
3.689761635003035
 20
3.421650782797518
 30
0.0
 11
3.691075563595555
 21
3.432162211537676
 31
0.0
  0
LINE
  5
255C
330
1E
100
AcDbEntity
  8
7
100
AcDbLine
 10
3.691075563595555
 20
3.432162211537676
 30
0.0
 11
3.691075563595555
 21
3.433476140130195
 31
0.0
  0
LINE
  5
255D
330
1E
100
AcDbEntity
  8
7
100
AcDbLine
 10
3.467707702867209
 20
2.335031836783739
 30
0.0
 11
3.512381275012878
 21
2.33109005100618
 31
0.0
  0
LINE
  5
255E
330
1E
100
AcDbEntity
  8
7
100
AcDbLine
 10
3.512381275012878
 20
2.33109005100618
 30
0.0
 11
3.554426989973508
 21
2.317950765080983
 31
0.0
  0
LINE
  5
255F
330
1E
100
AcDbEntity
  8
7
100
AcDbLine
 10
3.554426989973508
 20
2.317950765080983
 30
0.0
 11
3.593844847749098
 21
2.298241836193188
 31
0.0
  0
LINE
  5
2560
330
1E
100
AcDbEntity
  8
7
100
AcDbLine
 10
3.593844847749098
 20
2.298241836193188
 30
0.0
 11
3.62800699115461
 21
2.269335407157754
 31
0.0
  0
LINE
  5
2561
330
1E
100
AcDbEntity
  8
7
100
AcDbLine
 10
3.62800699115461
 20
2.269335407157754
 30
0.0
 11
3.655599491597523
 21
2.235173263752243
 31
0.0
  0
LINE
  5
2562
330
1E
100
AcDbEntity
  8
7
100
AcDbLine
 10
3.655599491597523
 20
2.235173263752243
 30
0.0
 11
3.676622349077838
 21
2.197069334569172
 31
0.0
  0
LINE
  5
2563
330
1E
100
AcDbEntity
  8
7
100
AcDbLine
 10
3.676622349077838
 20
2.197069334569172
 30
0.0
 11
3.688447706410516
 21
2.153709691016023
 31
0.0
  0
LINE
  5
2564
330
1E
100
AcDbEntity
  8
7
100
AcDbLine
 10
3.688447706410516
 20
2.153709691016023
 30
0.0
 11
3.693703420780595
 21
2.110350047462873
 31
0.0
  0
LINE
  5
2567
330
1E
100
AcDbEntity
  8
7
100
AcDbLine
 10
1.165704808772721
 20
2.335031836783739
 30
0.0
 11
1.132856593959727
 21
2.33109005100618
 31
0.0
  0
LINE
  5
256D
330
1E
100
AcDbEntity
  8
7
100
AcDbLine
 10
0.9397090908593344
 20
2.110350047462873
 30
0.0
 11
0.9449648052294129
 21
2.155023619608542
 31
0.0
  0
LINE
  5
256E
330
1E
100
AcDbEntity
  8
7
100
AcDbLine
 10
0.9449648052294129
 20
2.155023619608542
 30
0.0
 11
0.9567901625620912
 21
2.197069334569172
 31
0.0
  0
LINE
  5
256F
330
1E
100
AcDbEntity
  8
7
100
AcDbLine
 10
0.9567901625620912
 20
2.197069334569172
 30
0.0
 11
0.9778130200424062
 21
2.235173263752243
 31
0.0
  0
LINE
  5
2570
330
1E
100
AcDbEntity
  8
7
100
AcDbLine
 10
0.9778130200424062
 20
2.235173263752243
 30
0.0
 11
1.006719449077838
 21
2.269335407157754
 31
0.0
  0
LINE
  5
2571
330
1E
100
AcDbEntity
  8
7
100
AcDbLine
 10
1.00014980611524
 20
2.110350047462873
 30
0.0
 11
0.9699294484872872
 21
2.110350047462873
 31
0.0
  0
LINE
  5
2572
330
1E
100
AcDbEntity
  8
7
100
AcDbLine
 10
0.9699294484872872
 20
2.110350047462873
 30
0.0
 11
0.9475926624144532
 21
2.110350047462873
 31
0.0
  0
LINE
  5
2573
330
1E
100
AcDbEntity
  8
7
100
AcDbLine
 10
0.9475926624144532
 20
2.110350047462873
 30
0.0
 11
0.9397090908593344
 21
2.110350047462873
 31
0.0
  0
LINE
  5
2574
330
1E
100
AcDbEntity
  8
7
100
AcDbLine
 10
3.693703420780595
 20
2.110350047462873
 30
0.0
 11
3.685819849225476
 21
2.110350047462873
 31
0.0
  0
LINE
  5
2575
330
1E
100
AcDbEntity
  8
7
100
AcDbLine
 10
3.685819849225476
 20
2.110350047462873
 30
0.0
 11
3.663483063152642
 21
2.110350047462873
 31
0.0
  0
LINE
  5
2576
330
1E
100
AcDbEntity
  8
7
100
AcDbLine
 10
3.663483063152642
 20
2.110350047462873
 30
0.0
 11
3.633262705524689
 21
2.110350047462873
 31
0.0
  0
LINE
  5
2577
330
1E
100
AcDbEntity
  8
7
100
AcDbLine
 10
1.139426236922327
 20
2.33371790819122
 30
0.0
 11
1.136798379737287
 21
2.33371790819122
 31
0.0
  0
LINE
  5
2578
330
1E
100
AcDbEntity
  8
7
100
AcDbLine
 10
1.136798379737287
 20
2.33371790819122
 30
0.0
 11
1.111833736479413
 21
2.32977612241366
 31
0.0
  0
LINE
  5
2579
330
1E
100
AcDbEntity
  8
7
100
AcDbLine
 10
1.111833736479413
 20
2.32977612241366
 30
0.0
 11
1.089496950406578
 21
2.321892550858542
 31
0.0
  0
LINE
  5
257A
330
1E
100
AcDbEntity
  8
7
100
AcDbLine
 10
1.089496950406578
 20
2.321892550858542
 30
0.0
 11
1.069788021518783
 21
2.314008979303424
 31
0.0
  0
LINE
  5
257B
330
1E
100
AcDbEntity
  8
7
100
AcDbLine
 10
1.069788021518783
 20
2.314008979303424
 30
0.0
 11
1.050079092630987
 21
2.303497550563267
 31
0.0
  0
LINE
  5
257C
330
1E
100
AcDbEntity
  8
7
100
AcDbLine
 10
1.050079092630987
 20
2.303497550563267
 30
0.0
 11
1.030370163743193
 21
2.29035826463807
 31
0.0
  0
LINE
  5
257D
330
1E
100
AcDbEntity
  8
7
100
AcDbLine
 10
1.030370163743193
 20
2.29035826463807
 30
0.0
 11
1.008033377670357
 21
2.271963264342794
 31
0.0
  0
LINE
  5
257E
330
1E
100
AcDbEntity
  8
7
100
AcDbLine
 10
1.008033377670357
 20
2.271963264342794
 30
0.0
 11
1.006719449077838
 21
2.270649335750275
 31
0.0
  0
LINE
  5
257F
330
1E
100
AcDbEntity
  8
7
100
AcDbLine
 10
3.676622349077838
 20
2.197069334569172
 30
0.0
 11
3.688447706410516
 21
2.153709691016023
 31
0.0
  0
LINE
  5
2580
330
1E
100
AcDbEntity
  8
7
100
AcDbLine
 10
3.688447706410516
 20
2.153709691016023
 30
0.0
 11
3.693703420780595
 21
2.110350047462873
 31
0.0
  0
LINE
  5
2581
330
1E
100
AcDbEntity
  8
7
100
AcDbLine
 10
3.467707702867209
 20
2.335031836783739
 30
0.0
 11
3.512381275012878
 21
2.33109005100618
 31
0.0
  0
LINE
  5
2582
330
1E
100
AcDbEntity
  8
7
100
AcDbLine
 10
3.512381275012878
 20
2.33109005100618
 30
0.0
 11
3.554426989973508
 21
2.317950765080983
 31
0.0
  0
LINE
  5
2583
330
1E
100
AcDbEntity
  8
7
100
AcDbLine
 10
3.554426989973508
 20
2.317950765080983
 30
0.0
 11
3.593844847749098
 21
2.298241836193188
 31
0.0
  0
LINE
  5
2584
330
1E
100
AcDbEntity
  8
7
100
AcDbLine
 10
3.593844847749098
 20
2.298241836193188
 30
0.0
 11
3.62800699115461
 21
2.269335407157754
 31
0.0
  0
LINE
  5
2585
330
1E
100
AcDbEntity
  8
7
100
AcDbLine
 10
3.62800699115461
 20
2.269335407157754
 30
0.0
 11
3.655599491597523
 21
2.235173263752243
 31
0.0
  0
LINE
  5
2586
330
1E
100
AcDbEntity
  8
7
100
AcDbLine
 10
3.655599491597523
 20
2.235173263752243
 30
0.0
 11
3.676622349077838
 21
2.197069334569172
 31
0.0
  0
LINE
  5
258D
330
1E
100
AcDbEntity
  8
7
100
AcDbLine
 10
3.693703420780595
 20
2.110350047462873
 30
0.0
 11
3.685819849225476
 21
2.110350047462873
 31
0.0
  0
LINE
  5
258E
330
1E
100
AcDbEntity
  8
7
100
AcDbLine
 10
3.685819849225476
 20
2.110350047462873
 30
0.0
 11
3.663483063152642
 21
2.110350047462873
 31
0.0
  0
LINE
  5
258F
330
1E
100
AcDbEntity
  8
7
100
AcDbLine
 10
3.663483063152642
 20
2.110350047462873
 30
0.0
 11
3.633262705524689
 21
2.110350047462873
 31
0.0
  0
ENDSEC
  0
SECTION
  2
OBJECTS
  0
DICTIONARY
  5
C
330
0
100
AcDbDictionary
  3
ACAD_GROUP
350
D
  3
ACAD_LAYOUT
350
19
  3
ACAD_MLINESTYLE
350
16
  3
ACAD_PLOTSETTINGS
350
18
1001
ACAD
1000
TREAT_AS_HARD
1070
     0
  0
DICTIONARY
  5
3550
330
1E
100
AcDbDictionary
  3
ACAD_LAYOUTSELFREF
350
35D5
1001
ACAD
1000
TREAT_AS_HARD
1070
     1
  0
DICTIONARY
  5
3552
330
1A
100
AcDbDictionary
  3
ACAD_LAYOUTSELFREF
350
35D4
1001
ACAD
1000
TREAT_AS_HARD
1070
     1
  0
DICTIONARY
  5
D
102
{ACAD_REACTORS
330
C
102
}
330
C
100
AcDbDictionary
1001
ACAD
1000
TREAT_AS_HARD
1070
     0
  0
DICTIONARY
  5
19
102
{ACAD_REACTORS
330
C
102
}
330
C
100
AcDbDictionary
1001
ACAD
1000
TREAT_AS_HARD
1070
     0
  0
DICTIONARY
  5
16
102
{ACAD_REACTORS
330
C
102
}
330
C
100
AcDbDictionary
  3
STANDARD
350
17
1001
ACAD
1000
TREAT_AS_HARD
1070
     0
  0
DICTIONARY
  5
18
102
{ACAD_REACTORS
330
C
102
}
330
C
100
AcDbDictionary
1001
ACAD
1000
TREAT_AS_HARD
1070
     0
  0
XRECORD
  5
35D5
102
{ACAD_REACTORS
330
3550
102
}
330
3550
100
AcDbXrecord
340
1E
  0
XRECORD
  5
35D4
102
{ACAD_REACTORS
330
3552
102
}
330
3552
100
AcDbXrecord
340
1A
  0
MLINESTYLE
  5
17
102
{ACAD_REACTORS
330
16
102
}
330
16
100
AcDbMlineStyle
  2
STANDARD
 70
     0
  3

 62
   256
 51
90.0
 52
90.0
 71
     2
 49
0.5
 62
   256
  6
BYLAYER
 49
-0.5
 62
   256
  6
BYLAYER
  0
ENDSEC
  0
EOF
