  0
SECTION
  2
HEADER
  9
$ACADVER
  1
AC1012
  9
$DWGCODEPAGE
  3
ANSI_1252
  9
$INSBASE
 10
0.0
 20
0.0
 30
0.0
  9
$EXTMIN
 10
4.138732942914046
 20
2.218277001076234
 30
-0.0015258207003583
  9
$EXTMAX
 10
11.15350344492297
 20
7.944900532421772
 30
0.0000000349246037
  9
$LIMMIN
 10
0.0
 20
0.0
  9
$LIMMAX
 10
12.0
 20
9.0
  9
$ORTHOMODE
 70
     0
  9
$REGENMODE
 70
     1
  9
$FILLMODE
 70
     1
  9
$QTEXTMODE
 70
     0
  9
$MIRRTEXT
 70
     1
  9
$DRAGMODE
 70
     2
  9
$LTSCALE
 40
1.0
  9
$OSMODE
 70
   547
  9
$ATTMODE
 70
     1
  9
$TEXTSIZE
 40
0.2
  9
$TRACEWID
 40
0.05
  9
$TEXTSTYLE
  7
STANDARD
  9
$CLAYER
  8
0
  9
$CELTYPE
  6
BYLAYER
  9
$CECOLOR
 62
   256
  9
$CELTSCALE
 40
1.0
  9
$DELOBJ
 70
     1
  9
$DISPSILH
 70
     0
  9
$DIMSCALE
 40
1.0
  9
$DIMASZ
 40
0.18
  9
$DIMEXO
 40
0.0625
  9
$DIMDLI
 40
0.38
  9
$DIMRND
 40
0.0
  9
$DIMDLE
 40
0.0
  9
$DIMEXE
 40
0.18
  9
$DIMTP
 40
0.0
  9
$DIMTM
 40
0.0
  9
$DIMTXT
 40
0.18
  9
$DIMCEN
 40
0.09
  9
$DIMTSZ
 40
0.0
  9
$DIMTOL
 70
     0
  9
$DIMLIM
 70
     0
  9
$DIMTIH
 70
     1
  9
$DIMTOH
 70
     1
  9
$DIMSE1
 70
     0
  9
$DIMSE2
 70
     0
  9
$DIMTAD
 70
     0
  9
$DIMZIN
 70
     0
  9
$DIMBLK
  1

  9
$DIMASO
 70
     1
  9
$DIMSHO
 70
     1
  9
$DIMPOST
  1

  9
$DIMAPOST
  1

  9
$DIMALT
 70
     0
  9
$DIMALTD
 70
     2
  9
$DIMALTF
 40
25.4
  9
$DIMLFAC
 40
1.0
  9
$DIMTOFL
 70
     0
  9
$DIMTVP
 40
0.0
  9
$DIMTIX
 70
     0
  9
$DIMSOXD
 70
     0
  9
$DIMSAH
 70
     0
  9
$DIMBLK1
  1

  9
$DIMBLK2
  1

  9
$DIMSTYLE
  2
STANDARD
  9
$DIMCLRD
 70
     0
  9
$DIMCLRE
 70
     0
  9
$DIMCLRT
 70
     0
  9
$DIMTFAC
 40
1.0
  9
$DIMGAP
 40
0.09
  9
$DIMJUST
 70
     0
  9
$DIMSD1
 70
     0
  9
$DIMSD2
 70
     0
  9
$DIMTOLJ
 70
     1
  9
$DIMTZIN
 70
     0
  9
$DIMALTZ
 70
     0
  9
$DIMALTTZ
 70
     0
  9
$DIMFIT
 70
     5
  9
$DIMUPT
 70
     0
  9
$DIMUNIT
 70
     2
  9
$DIMDEC
 70
     4
  9
$DIMTDEC
 70
     4
  9
$DIMALTU
 70
     2
  9
$DIMALTTD
 70
     2
  9
$DIMTXSTY
  7
STANDARD
  9
$DIMAUNIT
 70
     0
  9
$LUNITS
 70
     2
  9
$LUPREC
 70
     4
  9
$SKETCHINC
 40
0.1
  9
$FILLETRAD
 40
0.0
  9
$AUNITS
 70
     0
  9
$AUPREC
 70
     0
  9
$MENU
  1
acad
  9
$ELEVATION
 40
0.0
  9
$PELEVATION
 40
0.0
  9
$THICKNESS
 40
0.0
  9
$LIMCHECK
 70
     0
  9
$BLIPMODE
 70
     0
  9
$CHAMFERA
 40
0.0
  9
$CHAMFERB
 40
0.0
  9
$CHAMFERC
 40
0.0
  9
$CHAMFERD
 40
0.0
  9
$SKPOLY
 70
     0
  9
$TDCREATE
 40
2454120.391921296
  9
$TDUPDATE
 40
2454120.393797998
  9
$TDINDWG
 40
0.0007711227
  9
$TDUSRTIMER
 40
0.0007711227
  9
$USRTIMER
 70
     1
  9
$ANGBASE
 50
0.0
  9
$ANGDIR
 70
     0
  9
$PDMODE
 70
     0
  9
$PDSIZE
 40
0.0
  9
$PLINEWID
 40
0.0
  9
$COORDS
 70
     1
  9
$SPLFRAME
 70
     0
  9
$SPLINETYPE
 70
     6
  9
$SPLINESEGS
 70
     8
  9
$ATTDIA
 70
     0
  9
$ATTREQ
 70
     1
  9
$HANDLING
 70
  4097
  9
$HANDSEED
  5
990
  9
$SURFTAB1
 70
     6
  9
$SURFTAB2
 70
     6
  9
$SURFTYPE
 70
     6
  9
$SURFU
 70
     6
  9
$SURFV
 70
     6
  9
$UCSNAME
  2

  9
$UCSORG
 10
0.0
 20
0.0
 30
0.0
  9
$UCSXDIR
 10
1.0
 20
0.0
 30
0.0
  9
$UCSYDIR
 10
0.0
 20
1.0
 30
0.0
  9
$PUCSNAME
  2

  9
$PUCSORG
 10
0.0
 20
0.0
 30
0.0
  9
$PUCSXDIR
 10
1.0
 20
0.0
 30
0.0
  9
$PUCSYDIR
 10
0.0
 20
1.0
 30
0.0
  9
$USERI1
 70
     0
  9
$USERI2
 70
     0
  9
$USERI3
 70
     0
  9
$USERI4
 70
     0
  9
$USERI5
 70
     0
  9
$USERR1
 40
0.0
  9
$USERR2
 40
0.0
  9
$USERR3
 40
0.0
  9
$USERR4
 40
0.0
  9
$USERR5
 40
0.0
  9
$WORLDVIEW
 70
     1
  9
$SHADEDGE
 70
     3
  9
$SHADEDIF
 70
    70
  9
$TILEMODE
 70
     1
  9
$MAXACTVP
 70
    16
  9
$PINSBASE
 10
0.0
 20
0.0
 30
0.0
  9
$PLIMCHECK
 70
     0
  9
$PEXTMIN
 10
1.000000000000000E+20
 20
1.000000000000000E+20
 30
1.000000000000000E+20
  9
$PEXTMAX
 10
-1.000000000000000E+20
 20
-1.000000000000000E+20
 30
-1.000000000000000E+20
  9
$PLIMMIN
 10
0.0
 20
0.0
  9
$PLIMMAX
 10
12.0
 20
9.0
  9
$UNITMODE
 70
     0
  9
$VISRETAIN
 70
     0
  9
$PLINEGEN
 70
     0
  9
$PSLTSCALE
 70
     1
  9
$TREEDEPTH
 70
  3020
  9
$PICKSTYLE
 70
     1
  9
$CMLSTYLE
  2
STANDARD
  9
$CMLJUST
 70
     0
  9
$CMLSCALE
 40
1.0
  9
$SAVEIMAGES
 70
     1
  0
ENDSEC
  0
SECTION
  2
CLASSES
  0
CLASS
  1
ACDBDICTIONARYWDFLT
  2
AcDbDictionaryWithDefault
  3
AutoCAD 2000
 90
    32768
280
     0
281
     0
  0
CLASS
  1
ACDBPLACEHOLDER
  2
AcDbPlaceHolder
  3
AutoCAD 2000
 90
    32768
280
     0
281
     0
  0
CLASS
  1
LAYOUT
  2
AcDbLayout
  3
AutoCAD 2000
 90
    32768
280
     0
281
     0
  0
CLASS
  1
LONG_TRANSACTION
  2
AcDbLongTransaction
  3
AutoCAD 2000
 90
    32768
280
     0
281
     0
  0
CLASS
  1
LWPOLYLINE
  2
AcDbPolyline
  3
AutoCAD 2000
 90
    32768
280
     0
281
     1
  0
CLASS
  1
HATCH
  2
AcDbHatch
  3
AutoCAD 2000
 90
    32768
280
     0
281
     1
  0
CLASS
  1
XRECORD
  2
AcDbXrecord
  3
AutoCAD 2000
 90
    32768
280
     0
281
     0
  0
ENDSEC
  0
SECTION
  2
TABLES
  0
TABLE
  2
VPORT
  5
8
330
0
100
AcDbSymbolTable
 70
     3
  0
VPORT
  5
98B
330
8
100
AcDbSymbolTableRecord
100
AcDbViewportTableRecord
  2
*ACTIVE
 70
     0
 10
0.0
 20
0.0
 11
1.0
 21
1.0
 12
7.64611819391851
 22
5.081588766749003
 13
0.0
 23
0.0
 14
1.0
 24
1.0
 15
0.0
 25
0.0
 16
0.0
 26
0.0
 36
1.0
 17
0.0
 27
0.0
 37
0.0
 40
5.790608151807498
 41
1.740671641791044
 42
50.0
 43
0.0
 44
0.0
 50
0.0
 51
0.0
 71
     0
 72
   100
 73
     1
 74
     1
 75
     0
 76
     0
 77
     0
 78
     0
  0
ENDTAB
  0
TABLE
  2
LTYPE
  5
5
330
0
100
AcDbSymbolTable
 70
    25
  0
LTYPE
  5
13
330
5
100
AcDbSymbolTableRecord
100
AcDbLinetypeTableRecord
  2
BYBLOCK
 70
     0
  3

 72
    65
 73
     0
 40
0.0
  0
LTYPE
  5
14
330
5
100
AcDbSymbolTableRecord
100
AcDbLinetypeTableRecord
  2
BYLAYER
 70
     0
  3

 72
    65
 73
     0
 40
0.0
  0
LTYPE
  5
15
330
5
100
AcDbSymbolTableRecord
100
AcDbLinetypeTableRecord
  2
CONTINUOUS
 70
     0
  3
Solid line
 72
    65
 73
     0
 40
0.0
  0
LTYPE
  5
22
330
5
100
AcDbSymbolTableRecord
100
AcDbLinetypeTableRecord
  2
BORDER
 70
     0
  3
__ __ . __ __ . __ __ . __ __ . __ __ . __ __ .
 72
    65
 73
     6
 40
1.75
 49
0.5
 74
     0
 49
-0.25
 74
     0
 49
0.5
 74
     0
 49
-0.25
 74
     0
 49
0.5
 74
     0
 49
-0.25
 74
     0
  0
LTYPE
  5
23
330
5
100
AcDbSymbolTableRecord
100
AcDbLinetypeTableRecord
  2
BORDER2
 70
     0
  3
__.__.__.__.__.__.__.__.
 72
    65
 73
     6
 40
0.875
 49
0.25
 74
     0
 49
-0.125
 74
     0
 49
0.25
 74
     0
 49
-0.125
 74
     0
 49
0.25
 74
     0
 49
-0.125
 74
     0
  0
LTYPE
  5
24
330
5
100
AcDbSymbolTableRecord
100
AcDbLinetypeTableRecord
  2
BORDERX2
 70
     0
  3
____  ____  .  
 72
    65
 73
     6
 40
3.5
 49
1.0
 74
     0
 49
-0.5
 74
     0
 49
1.0
 74
     0
 49
-0.5
 74
     0
 49
1.0
 74
     0
 49
-0.5
 74
     0
  0
LTYPE
  5
25
330
5
100
AcDbSymbolTableRecord
100
AcDbLinetypeTableRecord
  2
CENTER
 70
     0
  3
____ _ ____ _ ____ _ 
 72
    65
 73
     4
 40
2.0
 49
1.25
 74
     0
 49
-0.25
 74
     0
 49
0.25
 74
     0
 49
-0.25
 74
     0
  0
LTYPE
  5
26
330
5
100
AcDbSymbolTableRecord
100
AcDbLinetypeTableRecord
  2
CENTER2
 70
     0
  3
____ _ ____ _ ____ _ 
 72
    65
 73
     4
 40
1.125
 49
0.75
 74
     0
 49
-0.125
 74
     0
 49
0.125
 74
     0
 49
-0.125
 74
     0
  0
LTYPE
  5
27
330
5
100
AcDbSymbolTableRecord
100
AcDbLinetypeTableRecord
  2
CENTERX2
 70
     0
  3
________  __  
 72
    65
 73
     4
 40
4.0
 49
2.5
 74
     0
 49
-0.5
 74
     0
 49
0.5
 74
     0
 49
-0.5
 74
     0
  0
LTYPE
  5
28
330
5
100
AcDbSymbolTableRecord
100
AcDbLinetypeTableRecord
  2
DASHDOT
 70
     0
  3
__ . __ . __ . __ . 
 72
    65
 73
     4
 40
1.0
 49
0.5
 74
     0
 49
-0.25
 74
     0
 49
0.0
 74
     0
 49
-0.25
 74
     0
  0
LTYPE
  5
29
330
5
100
AcDbSymbolTableRecord
100
AcDbLinetypeTableRecord
  2
DASHDOT2
 70
     0
  3
_._._._._._._._._.
 72
    65
 73
     4
 40
0.5
 49
0.25
 74
     0
 49
-0.125
 74
     0
 49
0.0
 74
     0
 49
-0.125
 74
     0
  0
LTYPE
  5
2A
330
5
100
AcDbSymbolTableRecord
100
AcDbLinetypeTableRecord
  2
DASHDOTX2
 70
     0
  3
____  .  ____  .  
 72
    65
 73
     4
 40
2.0
 49
1.0
 74
     0
 49
-0.5
 74
     0
 49
0.0
 74
     0
 49
-0.5
 74
     0
  0
LTYPE
  5
2B
330
5
100
AcDbSymbolTableRecord
100
AcDbLinetypeTableRecord
  2
DASHED
 70
     0
  3
__ __ __ __ __ __ __ 
 72
    65
 73
     2
 40
0.75
 49
0.5
 74
     0
 49
-0.25
 74
     0
  0
LTYPE
  5
2C
330
5
100
AcDbSymbolTableRecord
100
AcDbLinetypeTableRecord
  2
DASHED2
 70
     0
  3
_ _ _ _ _ _ _ _ _ _ 
 72
    65
 73
     2
 40
0.375
 49
0.25
 74
     0
 49
-0.125
 74
     0
  0
LTYPE
  5
2D
330
5
100
AcDbSymbolTableRecord
100
AcDbLinetypeTableRecord
  2
DASHEDX2
 70
     0
  3
____  ____  ____  
 72
    65
 73
     2
 40
1.5
 49
1.0
 74
     0
 49
-0.5
 74
     0
  0
LTYPE
  5
2E
330
5
100
AcDbSymbolTableRecord
100
AcDbLinetypeTableRecord
  2
DIVIDE
 70
     0
  3
____ . . ____ . . 
 72
    65
 73
     6
 40
1.25
 49
0.5
 74
     0
 49
-0.25
 74
     0
 49
0.0
 74
     0
 49
-0.25
 74
     0
 49
0.0
 74
     0
 49
-0.25
 74
     0
  0
LTYPE
  5
2F
330
5
100
AcDbSymbolTableRecord
100
AcDbLinetypeTableRecord
  2
DIVIDE2
 70
     0
  3
__..__..__..__..__..
 72
    65
 73
     6
 40
0.625
 49
0.25
 74
     0
 49
-0.125
 74
     0
 49
0.0
 74
     0
 49
-0.125
 74
     0
 49
0.0
 74
     0
 49
-0.125
 74
     0
  0
LTYPE
  5
30
330
5
100
AcDbSymbolTableRecord
100
AcDbLinetypeTableRecord
  2
DIVIDEX2
 70
     0
  3
________  .  .  
 72
    65
 73
     6
 40
2.5
 49
1.0
 74
     0
 49
-0.5
 74
     0
 49
0.0
 74
     0
 49
-0.5
 74
     0
 49
0.0
 74
     0
 49
-0.5
 74
     0
  0
LTYPE
  5
31
330
5
100
AcDbSymbolTableRecord
100
AcDbLinetypeTableRecord
  2
DOT
 70
     0
  3
. . . . . . . . . 
 72
    65
 73
     2
 40
0.25
 49
0.0
 74
     0
 49
-0.25
 74
     0
  0
LTYPE
  5
32
330
5
100
AcDbSymbolTableRecord
100
AcDbLinetypeTableRecord
  2
DOT2
 70
     0
  3
..................
 72
    65
 73
     2
 40
0.125
 49
0.0
 74
     0
 49
-0.125
 74
     0
  0
LTYPE
  5
33
330
5
100
AcDbSymbolTableRecord
100
AcDbLinetypeTableRecord
  2
DOTX2
 70
     0
  3
.  .  .  .  .  .  
 72
    65
 73
     2
 40
0.5
 49
0.0
 74
     0
 49
-0.5
 74
     0
  0
LTYPE
  5
34
330
5
100
AcDbSymbolTableRecord
100
AcDbLinetypeTableRecord
  2
HIDDEN
 70
     0
  3
__ __ __ __ __ __ 
 72
    65
 73
     2
 40
0.375
 49
0.25
 74
     0
 49
-0.125
 74
     0
  0
LTYPE
  5
35
330
5
100
AcDbSymbolTableRecord
100
AcDbLinetypeTableRecord
  2
HIDDEN2
 70
     0
  3
_ _ _ _ _ _ _ _ _ 
 72
    65
 73
     2
 40
0.1875
 49
0.125
 74
     0
 49
-0.0625
 74
     0
  0
LTYPE
  5
36
330
5
100
AcDbSymbolTableRecord
100
AcDbLinetypeTableRecord
  2
HIDDENX2
 70
     0
  3
____ ____ ____ ____ 
 72
    65
 73
     2
 40
0.75
 49
0.5
 74
     0
 49
-0.25
 74
     0
  0
LTYPE
  5
37
330
5
100
AcDbSymbolTableRecord
100
AcDbLinetypeTableRecord
  2
PHANTOM
 70
     0
  3
______  __  __  
 72
    65
 73
     6
 40
2.5
 49
1.25
 74
     0
 49
-0.25
 74
     0
 49
0.25
 74
     0
 49
-0.25
 74
     0
 49
0.25
 74
     0
 49
-0.25
 74
     0
  0
LTYPE
  5
38
330
5
100
AcDbSymbolTableRecord
100
AcDbLinetypeTableRecord
  2
PHANTOM2
 70
     0
  3
___ _ _ ___ _ _ 
 72
    65
 73
     6
 40
1.25
 49
0.625
 74
     0
 49
-0.125
 74
     0
 49
0.125
 74
     0
 49
-0.125
 74
     0
 49
0.125
 74
     0
 49
-0.125
 74
     0
  0
LTYPE
  5
39
330
5
100
AcDbSymbolTableRecord
100
AcDbLinetypeTableRecord
  2
PHANTOMX2
 70
     0
  3
___ _ _ ___ _ _ 
 72
    65
 73
     6
 40
5.0
 49
2.5
 74
     0
 49
-0.5
 74
     0
 49
0.5
 74
     0
 49
-0.5
 74
     0
 49
0.5
 74
     0
 49
-0.5
 74
     0
  0
ENDTAB
  0
TABLE
  2
LAYER
  5
2
330
0
100
AcDbSymbolTable
 70
   257
  0
LAYER
  5
10
330
2
100
AcDbSymbolTableRecord
100
AcDbLayerTableRecord
  2
0
 70
     0
 62
     7
  6
CONTINUOUS
  0
LAYER
  5
3A
330
2
100
AcDbSymbolTableRecord
100
AcDbLayerTableRecord
  2
1
 70
     0
 62
     1
  6
CONTINUOUS
  0
LAYER
  5
3B
330
2
100
AcDbSymbolTableRecord
100
AcDbLayerTableRecord
  2
2
 70
     0
 62
     2
  6
CONTINUOUS
  0
LAYER
  5
3C
330
2
100
AcDbSymbolTableRecord
100
AcDbLayerTableRecord
  2
3
 70
     0
 62
     3
  6
CONTINUOUS
  0
LAYER
  5
3D
330
2
100
AcDbSymbolTableRecord
100
AcDbLayerTableRecord
  2
4
 70
     0
 62
     4
  6
CONTINUOUS
  0
LAYER
  5
3E
330
2
100
AcDbSymbolTableRecord
100
AcDbLayerTableRecord
  2
5
 70
     0
 62
     5
  6
CONTINUOUS
  0
LAYER
  5
3F
330
2
100
AcDbSymbolTableRecord
100
AcDbLayerTableRecord
  2
6
 70
     0
 62
     6
  6
CONTINUOUS
  0
LAYER
  5
40
330
2
100
AcDbSymbolTableRecord
100
AcDbLayerTableRecord
  2
7
 70
     0
 62
     7
  6
CONTINUOUS
  0
LAYER
  5
41
330
2
100
AcDbSymbolTableRecord
100
AcDbLayerTableRecord
  2
8
 70
     0
 62
     8
  6
CONTINUOUS
  0
LAYER
  5
42
330
2
100
AcDbSymbolTableRecord
100
AcDbLayerTableRecord
  2
9
 70
     0
 62
     9
  6
CONTINUOUS
  0
LAYER
  5
43
330
2
100
AcDbSymbolTableRecord
100
AcDbLayerTableRecord
  2
10
 70
     0
 62
    10
  6
CONTINUOUS
  0
LAYER
  5
44
330
2
100
AcDbSymbolTableRecord
100
AcDbLayerTableRecord
  2
11
 70
     0
 62
    11
  6
CONTINUOUS
  0
LAYER
  5
45
330
2
100
AcDbSymbolTableRecord
100
AcDbLayerTableRecord
  2
12
 70
     0
 62
    12
  6
CONTINUOUS
  0
LAYER
  5
46
330
2
100
AcDbSymbolTableRecord
100
AcDbLayerTableRecord
  2
13
 70
     0
 62
    13
  6
CONTINUOUS
  0
LAYER
  5
47
330
2
100
AcDbSymbolTableRecord
100
AcDbLayerTableRecord
  2
14
 70
     0
 62
    14
  6
CONTINUOUS
  0
LAYER
  5
48
330
2
100
AcDbSymbolTableRecord
100
AcDbLayerTableRecord
  2
15
 70
     0
 62
    15
  6
CONTINUOUS
  0
LAYER
  5
49
330
2
100
AcDbSymbolTableRecord
100
AcDbLayerTableRecord
  2
16
 70
     0
 62
    16
  6
CONTINUOUS
  0
LAYER
  5
4A
330
2
100
AcDbSymbolTableRecord
100
AcDbLayerTableRecord
  2
17
 70
     0
 62
    17
  6
CONTINUOUS
  0
LAYER
  5
4B
330
2
100
AcDbSymbolTableRecord
100
AcDbLayerTableRecord
  2
18
 70
     0
 62
    18
  6
CONTINUOUS
  0
LAYER
  5
4C
330
2
100
AcDbSymbolTableRecord
100
AcDbLayerTableRecord
  2
19
 70
     0
 62
    19
  6
CONTINUOUS
  0
LAYER
  5
4D
330
2
100
AcDbSymbolTableRecord
100
AcDbLayerTableRecord
  2
20
 70
     0
 62
    20
  6
CONTINUOUS
  0
LAYER
  5
4E
330
2
100
AcDbSymbolTableRecord
100
AcDbLayerTableRecord
  2
21
 70
     0
 62
    21
  6
CONTINUOUS
  0
LAYER
  5
4F
330
2
100
AcDbSymbolTableRecord
100
AcDbLayerTableRecord
  2
22
 70
     0
 62
    22
  6
CONTINUOUS
  0
LAYER
  5
50
330
2
100
AcDbSymbolTableRecord
100
AcDbLayerTableRecord
  2
23
 70
     0
 62
    23
  6
CONTINUOUS
  0
LAYER
  5
51
330
2
100
AcDbSymbolTableRecord
100
AcDbLayerTableRecord
  2
24
 70
     0
 62
    24
  6
CONTINUOUS
  0
LAYER
  5
52
330
2
100
AcDbSymbolTableRecord
100
AcDbLayerTableRecord
  2
25
 70
     0
 62
    25
  6
CONTINUOUS
  0
LAYER
  5
53
330
2
100
AcDbSymbolTableRecord
100
AcDbLayerTableRecord
  2
26
 70
     0
 62
    26
  6
CONTINUOUS
  0
LAYER
  5
54
330
2
100
AcDbSymbolTableRecord
100
AcDbLayerTableRecord
  2
27
 70
     0
 62
    27
  6
CONTINUOUS
  0
LAYER
  5
55
330
2
100
AcDbSymbolTableRecord
100
AcDbLayerTableRecord
  2
28
 70
     0
 62
    28
  6
CONTINUOUS
  0
LAYER
  5
56
330
2
100
AcDbSymbolTableRecord
100
AcDbLayerTableRecord
  2
29
 70
     0
 62
    29
  6
CONTINUOUS
  0
LAYER
  5
57
330
2
100
AcDbSymbolTableRecord
100
AcDbLayerTableRecord
  2
30
 70
     0
 62
    30
  6
CONTINUOUS
  0
LAYER
  5
58
330
2
100
AcDbSymbolTableRecord
100
AcDbLayerTableRecord
  2
31
 70
     0
 62
    31
  6
CONTINUOUS
  0
LAYER
  5
59
330
2
100
AcDbSymbolTableRecord
100
AcDbLayerTableRecord
  2
32
 70
     0
 62
    32
  6
CONTINUOUS
  0
LAYER
  5
5A
330
2
100
AcDbSymbolTableRecord
100
AcDbLayerTableRecord
  2
33
 70
     0
 62
    33
  6
CONTINUOUS
  0
LAYER
  5
5B
330
2
100
AcDbSymbolTableRecord
100
AcDbLayerTableRecord
  2
34
 70
     0
 62
    34
  6
CONTINUOUS
  0
LAYER
  5
5C
330
2
100
AcDbSymbolTableRecord
100
AcDbLayerTableRecord
  2
35
 70
     0
 62
    35
  6
CONTINUOUS
  0
LAYER
  5
5D
330
2
100
AcDbSymbolTableRecord
100
AcDbLayerTableRecord
  2
36
 70
     0
 62
    36
  6
CONTINUOUS
  0
LAYER
  5
5E
330
2
100
AcDbSymbolTableRecord
100
AcDbLayerTableRecord
  2
37
 70
     0
 62
    37
  6
CONTINUOUS
  0
LAYER
  5
5F
330
2
100
AcDbSymbolTableRecord
100
AcDbLayerTableRecord
  2
38
 70
     0
 62
    38
  6
CONTINUOUS
  0
LAYER
  5
60
330
2
100
AcDbSymbolTableRecord
100
AcDbLayerTableRecord
  2
39
 70
     0
 62
    39
  6
CONTINUOUS
  0
LAYER
  5
61
330
2
100
AcDbSymbolTableRecord
100
AcDbLayerTableRecord
  2
40
 70
     0
 62
    40
  6
CONTINUOUS
  0
LAYER
  5
62
330
2
100
AcDbSymbolTableRecord
100
AcDbLayerTableRecord
  2
41
 70
     0
 62
    41
  6
CONTINUOUS
  0
LAYER
  5
63
330
2
100
AcDbSymbolTableRecord
100
AcDbLayerTableRecord
  2
42
 70
     0
 62
    42
  6
CONTINUOUS
  0
LAYER
  5
64
330
2
100
AcDbSymbolTableRecord
100
AcDbLayerTableRecord
  2
43
 70
     0
 62
    43
  6
CONTINUOUS
  0
LAYER
  5
65
330
2
100
AcDbSymbolTableRecord
100
AcDbLayerTableRecord
  2
44
 70
     0
 62
    44
  6
CONTINUOUS
  0
LAYER
  5
66
330
2
100
AcDbSymbolTableRecord
100
AcDbLayerTableRecord
  2
45
 70
     0
 62
    45
  6
CONTINUOUS
  0
LAYER
  5
67
330
2
100
AcDbSymbolTableRecord
100
AcDbLayerTableRecord
  2
46
 70
     0
 62
    46
  6
CONTINUOUS
  0
LAYER
  5
68
330
2
100
AcDbSymbolTableRecord
100
AcDbLayerTableRecord
  2
47
 70
     0
 62
    47
  6
CONTINUOUS
  0
LAYER
  5
69
330
2
100
AcDbSymbolTableRecord
100
AcDbLayerTableRecord
  2
48
 70
     0
 62
    48
  6
CONTINUOUS
  0
LAYER
  5
6A
330
2
100
AcDbSymbolTableRecord
100
AcDbLayerTableRecord
  2
49
 70
     0
 62
    49
  6
CONTINUOUS
  0
LAYER
  5
6B
330
2
100
AcDbSymbolTableRecord
100
AcDbLayerTableRecord
  2
50
 70
     0
 62
    50
  6
CONTINUOUS
  0
LAYER
  5
6C
330
2
100
AcDbSymbolTableRecord
100
AcDbLayerTableRecord
  2
51
 70
     0
 62
    51
  6
CONTINUOUS
  0
LAYER
  5
6D
330
2
100
AcDbSymbolTableRecord
100
AcDbLayerTableRecord
  2
52
 70
     0
 62
    52
  6
CONTINUOUS
  0
LAYER
  5
6E
330
2
100
AcDbSymbolTableRecord
100
AcDbLayerTableRecord
  2
53
 70
     0
 62
    53
  6
CONTINUOUS
  0
LAYER
  5
6F
330
2
100
AcDbSymbolTableRecord
100
AcDbLayerTableRecord
  2
54
 70
     0
 62
    54
  6
CONTINUOUS
  0
LAYER
  5
70
330
2
100
AcDbSymbolTableRecord
100
AcDbLayerTableRecord
  2
55
 70
     0
 62
    55
  6
CONTINUOUS
  0
LAYER
  5
71
330
2
100
AcDbSymbolTableRecord
100
AcDbLayerTableRecord
  2
56
 70
     0
 62
    56
  6
CONTINUOUS
  0
LAYER
  5
72
330
2
100
AcDbSymbolTableRecord
100
AcDbLayerTableRecord
  2
57
 70
     0
 62
    57
  6
CONTINUOUS
  0
LAYER
  5
73
330
2
100
AcDbSymbolTableRecord
100
AcDbLayerTableRecord
  2
58
 70
     0
 62
    58
  6
CONTINUOUS
  0
LAYER
  5
74
330
2
100
AcDbSymbolTableRecord
100
AcDbLayerTableRecord
  2
59
 70
     0
 62
    59
  6
CONTINUOUS
  0
LAYER
  5
75
330
2
100
AcDbSymbolTableRecord
100
AcDbLayerTableRecord
  2
60
 70
     0
 62
    60
  6
CONTINUOUS
  0
LAYER
  5
76
330
2
100
AcDbSymbolTableRecord
100
AcDbLayerTableRecord
  2
61
 70
     0
 62
    61
  6
CONTINUOUS
  0
LAYER
  5
77
330
2
100
AcDbSymbolTableRecord
100
AcDbLayerTableRecord
  2
62
 70
     0
 62
    62
  6
CONTINUOUS
  0
LAYER
  5
78
330
2
100
AcDbSymbolTableRecord
100
AcDbLayerTableRecord
  2
63
 70
     0
 62
    63
  6
CONTINUOUS
  0
LAYER
  5
79
330
2
100
AcDbSymbolTableRecord
100
AcDbLayerTableRecord
  2
64
 70
     0
 62
    64
  6
CONTINUOUS
  0
LAYER
  5
7A
330
2
100
AcDbSymbolTableRecord
100
AcDbLayerTableRecord
  2
65
 70
     0
 62
    65
  6
CONTINUOUS
  0
LAYER
  5
7B
330
2
100
AcDbSymbolTableRecord
100
AcDbLayerTableRecord
  2
66
 70
     0
 62
    66
  6
CONTINUOUS
  0
LAYER
  5
7C
330
2
100
AcDbSymbolTableRecord
100
AcDbLayerTableRecord
  2
67
 70
     0
 62
    67
  6
CONTINUOUS
  0
LAYER
  5
7D
330
2
100
AcDbSymbolTableRecord
100
AcDbLayerTableRecord
  2
68
 70
     0
 62
    68
  6
CONTINUOUS
  0
LAYER
  5
7E
330
2
100
AcDbSymbolTableRecord
100
AcDbLayerTableRecord
  2
69
 70
     0
 62
    69
  6
CONTINUOUS
  0
LAYER
  5
7F
330
2
100
AcDbSymbolTableRecord
100
AcDbLayerTableRecord
  2
70
 70
     0
 62
    70
  6
CONTINUOUS
  0
LAYER
  5
80
330
2
100
AcDbSymbolTableRecord
100
AcDbLayerTableRecord
  2
71
 70
     0
 62
    71
  6
CONTINUOUS
  0
LAYER
  5
81
330
2
100
AcDbSymbolTableRecord
100
AcDbLayerTableRecord
  2
72
 70
     0
 62
    72
  6
CONTINUOUS
  0
LAYER
  5
82
330
2
100
AcDbSymbolTableRecord
100
AcDbLayerTableRecord
  2
73
 70
     0
 62
    73
  6
CONTINUOUS
  0
LAYER
  5
83
330
2
100
AcDbSymbolTableRecord
100
AcDbLayerTableRecord
  2
74
 70
     0
 62
    74
  6
CONTINUOUS
  0
LAYER
  5
84
330
2
100
AcDbSymbolTableRecord
100
AcDbLayerTableRecord
  2
75
 70
     0
 62
    75
  6
CONTINUOUS
  0
LAYER
  5
85
330
2
100
AcDbSymbolTableRecord
100
AcDbLayerTableRecord
  2
76
 70
     0
 62
    76
  6
CONTINUOUS
  0
LAYER
  5
86
330
2
100
AcDbSymbolTableRecord
100
AcDbLayerTableRecord
  2
77
 70
     0
 62
    77
  6
CONTINUOUS
  0
LAYER
  5
87
330
2
100
AcDbSymbolTableRecord
100
AcDbLayerTableRecord
  2
78
 70
     0
 62
    78
  6
CONTINUOUS
  0
LAYER
  5
88
330
2
100
AcDbSymbolTableRecord
100
AcDbLayerTableRecord
  2
79
 70
     0
 62
    79
  6
CONTINUOUS
  0
LAYER
  5
89
330
2
100
AcDbSymbolTableRecord
100
AcDbLayerTableRecord
  2
80
 70
     0
 62
    80
  6
CONTINUOUS
  0
LAYER
  5
8A
330
2
100
AcDbSymbolTableRecord
100
AcDbLayerTableRecord
  2
81
 70
     0
 62
    81
  6
CONTINUOUS
  0
LAYER
  5
8B
330
2
100
AcDbSymbolTableRecord
100
AcDbLayerTableRecord
  2
82
 70
     0
 62
    82
  6
CONTINUOUS
  0
LAYER
  5
8C
330
2
100
AcDbSymbolTableRecord
100
AcDbLayerTableRecord
  2
83
 70
     0
 62
    83
  6
CONTINUOUS
  0
LAYER
  5
8D
330
2
100
AcDbSymbolTableRecord
100
AcDbLayerTableRecord
  2
84
 70
     0
 62
    84
  6
CONTINUOUS
  0
LAYER
  5
8E
330
2
100
AcDbSymbolTableRecord
100
AcDbLayerTableRecord
  2
85
 70
     0
 62
    85
  6
CONTINUOUS
  0
LAYER
  5
8F
330
2
100
AcDbSymbolTableRecord
100
AcDbLayerTableRecord
  2
86
 70
     0
 62
    86
  6
CONTINUOUS
  0
LAYER
  5
90
330
2
100
AcDbSymbolTableRecord
100
AcDbLayerTableRecord
  2
87
 70
     0
 62
    87
  6
CONTINUOUS
  0
LAYER
  5
91
330
2
100
AcDbSymbolTableRecord
100
AcDbLayerTableRecord
  2
88
 70
     0
 62
    88
  6
CONTINUOUS
  0
LAYER
  5
92
330
2
100
AcDbSymbolTableRecord
100
AcDbLayerTableRecord
  2
89
 70
     0
 62
    89
  6
CONTINUOUS
  0
LAYER
  5
93
330
2
100
AcDbSymbolTableRecord
100
AcDbLayerTableRecord
  2
90
 70
     0
 62
    90
  6
CONTINUOUS
  0
LAYER
  5
94
330
2
100
AcDbSymbolTableRecord
100
AcDbLayerTableRecord
  2
91
 70
     0
 62
    91
  6
CONTINUOUS
  0
LAYER
  5
95
330
2
100
AcDbSymbolTableRecord
100
AcDbLayerTableRecord
  2
92
 70
     0
 62
    92
  6
CONTINUOUS
  0
LAYER
  5
96
330
2
100
AcDbSymbolTableRecord
100
AcDbLayerTableRecord
  2
93
 70
     0
 62
    93
  6
CONTINUOUS
  0
LAYER
  5
97
330
2
100
AcDbSymbolTableRecord
100
AcDbLayerTableRecord
  2
94
 70
     0
 62
    94
  6
CONTINUOUS
  0
LAYER
  5
98
330
2
100
AcDbSymbolTableRecord
100
AcDbLayerTableRecord
  2
95
 70
     0
 62
    95
  6
CONTINUOUS
  0
LAYER
  5
99
330
2
100
AcDbSymbolTableRecord
100
AcDbLayerTableRecord
  2
96
 70
     0
 62
    96
  6
CONTINUOUS
  0
LAYER
  5
9A
330
2
100
AcDbSymbolTableRecord
100
AcDbLayerTableRecord
  2
97
 70
     0
 62
    97
  6
CONTINUOUS
  0
LAYER
  5
9B
330
2
100
AcDbSymbolTableRecord
100
AcDbLayerTableRecord
  2
98
 70
     0
 62
    98
  6
CONTINUOUS
  0
LAYER
  5
9C
330
2
100
AcDbSymbolTableRecord
100
AcDbLayerTableRecord
  2
99
 70
     0
 62
    99
  6
CONTINUOUS
  0
LAYER
  5
9D
330
2
100
AcDbSymbolTableRecord
100
AcDbLayerTableRecord
  2
100
 70
     0
 62
   100
  6
CONTINUOUS
  0
LAYER
  5
9E
330
2
100
AcDbSymbolTableRecord
100
AcDbLayerTableRecord
  2
101
 70
     0
 62
   101
  6
CONTINUOUS
  0
LAYER
  5
9F
330
2
100
AcDbSymbolTableRecord
100
AcDbLayerTableRecord
  2
102
 70
     0
 62
   102
  6
CONTINUOUS
  0
LAYER
  5
A0
330
2
100
AcDbSymbolTableRecord
100
AcDbLayerTableRecord
  2
103
 70
     0
 62
   103
  6
CONTINUOUS
  0
LAYER
  5
A1
330
2
100
AcDbSymbolTableRecord
100
AcDbLayerTableRecord
  2
104
 70
     0
 62
   104
  6
CONTINUOUS
  0
LAYER
  5
A2
330
2
100
AcDbSymbolTableRecord
100
AcDbLayerTableRecord
  2
105
 70
     0
 62
   105
  6
CONTINUOUS
  0
LAYER
  5
A3
330
2
100
AcDbSymbolTableRecord
100
AcDbLayerTableRecord
  2
106
 70
     0
 62
   106
  6
CONTINUOUS
  0
LAYER
  5
A4
330
2
100
AcDbSymbolTableRecord
100
AcDbLayerTableRecord
  2
107
 70
     0
 62
   107
  6
CONTINUOUS
  0
LAYER
  5
A5
330
2
100
AcDbSymbolTableRecord
100
AcDbLayerTableRecord
  2
108
 70
     0
 62
   108
  6
CONTINUOUS
  0
LAYER
  5
A6
330
2
100
AcDbSymbolTableRecord
100
AcDbLayerTableRecord
  2
109
 70
     0
 62
   109
  6
CONTINUOUS
  0
LAYER
  5
A7
330
2
100
AcDbSymbolTableRecord
100
AcDbLayerTableRecord
  2
110
 70
     0
 62
   110
  6
CONTINUOUS
  0
LAYER
  5
A8
330
2
100
AcDbSymbolTableRecord
100
AcDbLayerTableRecord
  2
111
 70
     0
 62
   111
  6
CONTINUOUS
  0
LAYER
  5
A9
330
2
100
AcDbSymbolTableRecord
100
AcDbLayerTableRecord
  2
112
 70
     0
 62
   112
  6
CONTINUOUS
  0
LAYER
  5
AA
330
2
100
AcDbSymbolTableRecord
100
AcDbLayerTableRecord
  2
113
 70
     0
 62
   113
  6
CONTINUOUS
  0
LAYER
  5
AB
330
2
100
AcDbSymbolTableRecord
100
AcDbLayerTableRecord
  2
114
 70
     0
 62
   114
  6
CONTINUOUS
  0
LAYER
  5
AC
330
2
100
AcDbSymbolTableRecord
100
AcDbLayerTableRecord
  2
115
 70
     0
 62
   115
  6
CONTINUOUS
  0
LAYER
  5
AD
330
2
100
AcDbSymbolTableRecord
100
AcDbLayerTableRecord
  2
116
 70
     0
 62
   116
  6
CONTINUOUS
  0
LAYER
  5
AE
330
2
100
AcDbSymbolTableRecord
100
AcDbLayerTableRecord
  2
117
 70
     0
 62
   117
  6
CONTINUOUS
  0
LAYER
  5
AF
330
2
100
AcDbSymbolTableRecord
100
AcDbLayerTableRecord
  2
118
 70
     0
 62
   118
  6
CONTINUOUS
  0
LAYER
  5
B0
330
2
100
AcDbSymbolTableRecord
100
AcDbLayerTableRecord
  2
119
 70
     0
 62
   119
  6
CONTINUOUS
  0
LAYER
  5
B1
330
2
100
AcDbSymbolTableRecord
100
AcDbLayerTableRecord
  2
120
 70
     0
 62
   120
  6
CONTINUOUS
  0
LAYER
  5
B2
330
2
100
AcDbSymbolTableRecord
100
AcDbLayerTableRecord
  2
121
 70
     0
 62
   121
  6
CONTINUOUS
  0
LAYER
  5
B3
330
2
100
AcDbSymbolTableRecord
100
AcDbLayerTableRecord
  2
122
 70
     0
 62
   122
  6
CONTINUOUS
  0
LAYER
  5
B4
330
2
100
AcDbSymbolTableRecord
100
AcDbLayerTableRecord
  2
123
 70
     0
 62
   123
  6
CONTINUOUS
  0
LAYER
  5
B5
330
2
100
AcDbSymbolTableRecord
100
AcDbLayerTableRecord
  2
124
 70
     0
 62
   124
  6
CONTINUOUS
  0
LAYER
  5
B6
330
2
100
AcDbSymbolTableRecord
100
AcDbLayerTableRecord
  2
125
 70
     0
 62
   125
  6
CONTINUOUS
  0
LAYER
  5
B7
330
2
100
AcDbSymbolTableRecord
100
AcDbLayerTableRecord
  2
126
 70
     0
 62
   126
  6
CONTINUOUS
  0
LAYER
  5
B8
330
2
100
AcDbSymbolTableRecord
100
AcDbLayerTableRecord
  2
127
 70
     0
 62
   127
  6
CONTINUOUS
  0
LAYER
  5
B9
330
2
100
AcDbSymbolTableRecord
100
AcDbLayerTableRecord
  2
128
 70
     0
 62
   128
  6
CONTINUOUS
  0
LAYER
  5
BA
330
2
100
AcDbSymbolTableRecord
100
AcDbLayerTableRecord
  2
129
 70
     0
 62
   129
  6
CONTINUOUS
  0
LAYER
  5
BB
330
2
100
AcDbSymbolTableRecord
100
AcDbLayerTableRecord
  2
130
 70
     0
 62
   130
  6
CONTINUOUS
  0
LAYER
  5
BC
330
2
100
AcDbSymbolTableRecord
100
AcDbLayerTableRecord
  2
131
 70
     0
 62
   131
  6
CONTINUOUS
  0
LAYER
  5
BD
330
2
100
AcDbSymbolTableRecord
100
AcDbLayerTableRecord
  2
132
 70
     0
 62
   132
  6
CONTINUOUS
  0
LAYER
  5
BE
330
2
100
AcDbSymbolTableRecord
100
AcDbLayerTableRecord
  2
133
 70
     0
 62
   133
  6
CONTINUOUS
  0
LAYER
  5
BF
330
2
100
AcDbSymbolTableRecord
100
AcDbLayerTableRecord
  2
134
 70
     0
 62
   134
  6
CONTINUOUS
  0
LAYER
  5
C0
330
2
100
AcDbSymbolTableRecord
100
AcDbLayerTableRecord
  2
135
 70
     0
 62
   135
  6
CONTINUOUS
  0
LAYER
  5
C1
330
2
100
AcDbSymbolTableRecord
100
AcDbLayerTableRecord
  2
136
 70
     0
 62
   136
  6
CONTINUOUS
  0
LAYER
  5
C2
330
2
100
AcDbSymbolTableRecord
100
AcDbLayerTableRecord
  2
137
 70
     0
 62
   137
  6
CONTINUOUS
  0
LAYER
  5
C3
330
2
100
AcDbSymbolTableRecord
100
AcDbLayerTableRecord
  2
138
 70
     0
 62
   138
  6
CONTINUOUS
  0
LAYER
  5
C4
330
2
100
AcDbSymbolTableRecord
100
AcDbLayerTableRecord
  2
139
 70
     0
 62
   139
  6
CONTINUOUS
  0
LAYER
  5
C5
330
2
100
AcDbSymbolTableRecord
100
AcDbLayerTableRecord
  2
140
 70
     0
 62
   140
  6
CONTINUOUS
  0
LAYER
  5
C6
330
2
100
AcDbSymbolTableRecord
100
AcDbLayerTableRecord
  2
141
 70
     0
 62
   141
  6
CONTINUOUS
  0
LAYER
  5
C7
330
2
100
AcDbSymbolTableRecord
100
AcDbLayerTableRecord
  2
142
 70
     0
 62
   142
  6
CONTINUOUS
  0
LAYER
  5
C8
330
2
100
AcDbSymbolTableRecord
100
AcDbLayerTableRecord
  2
143
 70
     0
 62
   143
  6
CONTINUOUS
  0
LAYER
  5
C9
330
2
100
AcDbSymbolTableRecord
100
AcDbLayerTableRecord
  2
144
 70
     0
 62
   144
  6
CONTINUOUS
  0
LAYER
  5
CA
330
2
100
AcDbSymbolTableRecord
100
AcDbLayerTableRecord
  2
145
 70
     0
 62
   145
  6
CONTINUOUS
  0
LAYER
  5
CB
330
2
100
AcDbSymbolTableRecord
100
AcDbLayerTableRecord
  2
146
 70
     0
 62
   146
  6
CONTINUOUS
  0
LAYER
  5
CC
330
2
100
AcDbSymbolTableRecord
100
AcDbLayerTableRecord
  2
147
 70
     0
 62
   147
  6
CONTINUOUS
  0
LAYER
  5
CD
330
2
100
AcDbSymbolTableRecord
100
AcDbLayerTableRecord
  2
148
 70
     0
 62
   148
  6
CONTINUOUS
  0
LAYER
  5
CE
330
2
100
AcDbSymbolTableRecord
100
AcDbLayerTableRecord
  2
149
 70
     0
 62
   149
  6
CONTINUOUS
  0
LAYER
  5
CF
330
2
100
AcDbSymbolTableRecord
100
AcDbLayerTableRecord
  2
150
 70
     0
 62
   150
  6
CONTINUOUS
  0
LAYER
  5
D0
330
2
100
AcDbSymbolTableRecord
100
AcDbLayerTableRecord
  2
151
 70
     0
 62
   151
  6
CONTINUOUS
  0
LAYER
  5
D1
330
2
100
AcDbSymbolTableRecord
100
AcDbLayerTableRecord
  2
152
 70
     0
 62
   152
  6
CONTINUOUS
  0
LAYER
  5
D2
330
2
100
AcDbSymbolTableRecord
100
AcDbLayerTableRecord
  2
153
 70
     0
 62
   153
  6
CONTINUOUS
  0
LAYER
  5
D3
330
2
100
AcDbSymbolTableRecord
100
AcDbLayerTableRecord
  2
154
 70
     0
 62
   154
  6
CONTINUOUS
  0
LAYER
  5
D4
330
2
100
AcDbSymbolTableRecord
100
AcDbLayerTableRecord
  2
155
 70
     0
 62
   155
  6
CONTINUOUS
  0
LAYER
  5
D5
330
2
100
AcDbSymbolTableRecord
100
AcDbLayerTableRecord
  2
156
 70
     0
 62
   156
  6
CONTINUOUS
  0
LAYER
  5
D6
330
2
100
AcDbSymbolTableRecord
100
AcDbLayerTableRecord
  2
157
 70
     0
 62
   157
  6
CONTINUOUS
  0
LAYER
  5
D7
330
2
100
AcDbSymbolTableRecord
100
AcDbLayerTableRecord
  2
158
 70
     0
 62
   158
  6
CONTINUOUS
  0
LAYER
  5
D8
330
2
100
AcDbSymbolTableRecord
100
AcDbLayerTableRecord
  2
159
 70
     0
 62
   159
  6
CONTINUOUS
  0
LAYER
  5
D9
330
2
100
AcDbSymbolTableRecord
100
AcDbLayerTableRecord
  2
160
 70
     0
 62
   160
  6
CONTINUOUS
  0
LAYER
  5
DA
330
2
100
AcDbSymbolTableRecord
100
AcDbLayerTableRecord
  2
161
 70
     0
 62
   161
  6
CONTINUOUS
  0
LAYER
  5
DB
330
2
100
AcDbSymbolTableRecord
100
AcDbLayerTableRecord
  2
162
 70
     0
 62
   162
  6
CONTINUOUS
  0
LAYER
  5
DC
330
2
100
AcDbSymbolTableRecord
100
AcDbLayerTableRecord
  2
163
 70
     0
 62
   163
  6
CONTINUOUS
  0
LAYER
  5
DD
330
2
100
AcDbSymbolTableRecord
100
AcDbLayerTableRecord
  2
164
 70
     0
 62
   164
  6
CONTINUOUS
  0
LAYER
  5
DE
330
2
100
AcDbSymbolTableRecord
100
AcDbLayerTableRecord
  2
165
 70
     0
 62
   165
  6
CONTINUOUS
  0
LAYER
  5
DF
330
2
100
AcDbSymbolTableRecord
100
AcDbLayerTableRecord
  2
166
 70
     0
 62
   166
  6
CONTINUOUS
  0
LAYER
  5
E0
330
2
100
AcDbSymbolTableRecord
100
AcDbLayerTableRecord
  2
167
 70
     0
 62
   167
  6
CONTINUOUS
  0
LAYER
  5
E1
330
2
100
AcDbSymbolTableRecord
100
AcDbLayerTableRecord
  2
168
 70
     0
 62
   168
  6
CONTINUOUS
  0
LAYER
  5
E2
330
2
100
AcDbSymbolTableRecord
100
AcDbLayerTableRecord
  2
169
 70
     0
 62
   169
  6
CONTINUOUS
  0
LAYER
  5
E3
330
2
100
AcDbSymbolTableRecord
100
AcDbLayerTableRecord
  2
170
 70
     0
 62
   170
  6
CONTINUOUS
  0
LAYER
  5
E4
330
2
100
AcDbSymbolTableRecord
100
AcDbLayerTableRecord
  2
171
 70
     0
 62
   171
  6
CONTINUOUS
  0
LAYER
  5
E5
330
2
100
AcDbSymbolTableRecord
100
AcDbLayerTableRecord
  2
172
 70
     0
 62
   172
  6
CONTINUOUS
  0
LAYER
  5
E6
330
2
100
AcDbSymbolTableRecord
100
AcDbLayerTableRecord
  2
173
 70
     0
 62
   173
  6
CONTINUOUS
  0
LAYER
  5
E7
330
2
100
AcDbSymbolTableRecord
100
AcDbLayerTableRecord
  2
174
 70
     0
 62
   174
  6
CONTINUOUS
  0
LAYER
  5
E8
330
2
100
AcDbSymbolTableRecord
100
AcDbLayerTableRecord
  2
175
 70
     0
 62
   175
  6
CONTINUOUS
  0
LAYER
  5
E9
330
2
100
AcDbSymbolTableRecord
100
AcDbLayerTableRecord
  2
176
 70
     0
 62
   176
  6
CONTINUOUS
  0
LAYER
  5
EA
330
2
100
AcDbSymbolTableRecord
100
AcDbLayerTableRecord
  2
177
 70
     0
 62
   177
  6
CONTINUOUS
  0
LAYER
  5
EB
330
2
100
AcDbSymbolTableRecord
100
AcDbLayerTableRecord
  2
178
 70
     0
 62
   178
  6
CONTINUOUS
  0
LAYER
  5
EC
330
2
100
AcDbSymbolTableRecord
100
AcDbLayerTableRecord
  2
179
 70
     0
 62
   179
  6
CONTINUOUS
  0
LAYER
  5
ED
330
2
100
AcDbSymbolTableRecord
100
AcDbLayerTableRecord
  2
180
 70
     0
 62
   180
  6
CONTINUOUS
  0
LAYER
  5
EE
330
2
100
AcDbSymbolTableRecord
100
AcDbLayerTableRecord
  2
181
 70
     0
 62
   181
  6
CONTINUOUS
  0
LAYER
  5
EF
330
2
100
AcDbSymbolTableRecord
100
AcDbLayerTableRecord
  2
182
 70
     0
 62
   182
  6
CONTINUOUS
  0
LAYER
  5
F0
330
2
100
AcDbSymbolTableRecord
100
AcDbLayerTableRecord
  2
183
 70
     0
 62
   183
  6
CONTINUOUS
  0
LAYER
  5
F1
330
2
100
AcDbSymbolTableRecord
100
AcDbLayerTableRecord
  2
184
 70
     0
 62
   184
  6
CONTINUOUS
  0
LAYER
  5
F2
330
2
100
AcDbSymbolTableRecord
100
AcDbLayerTableRecord
  2
185
 70
     0
 62
   185
  6
CONTINUOUS
  0
LAYER
  5
F3
330
2
100
AcDbSymbolTableRecord
100
AcDbLayerTableRecord
  2
186
 70
     0
 62
   186
  6
CONTINUOUS
  0
LAYER
  5
F4
330
2
100
AcDbSymbolTableRecord
100
AcDbLayerTableRecord
  2
187
 70
     0
 62
   187
  6
CONTINUOUS
  0
LAYER
  5
F5
330
2
100
AcDbSymbolTableRecord
100
AcDbLayerTableRecord
  2
188
 70
     0
 62
   188
  6
CONTINUOUS
  0
LAYER
  5
F6
330
2
100
AcDbSymbolTableRecord
100
AcDbLayerTableRecord
  2
189
 70
     0
 62
   189
  6
CONTINUOUS
  0
LAYER
  5
F7
330
2
100
AcDbSymbolTableRecord
100
AcDbLayerTableRecord
  2
190
 70
     0
 62
   190
  6
CONTINUOUS
  0
LAYER
  5
F8
330
2
100
AcDbSymbolTableRecord
100
AcDbLayerTableRecord
  2
191
 70
     0
 62
   191
  6
CONTINUOUS
  0
LAYER
  5
F9
330
2
100
AcDbSymbolTableRecord
100
AcDbLayerTableRecord
  2
192
 70
     0
 62
   192
  6
CONTINUOUS
  0
LAYER
  5
FA
330
2
100
AcDbSymbolTableRecord
100
AcDbLayerTableRecord
  2
193
 70
     0
 62
   193
  6
CONTINUOUS
  0
LAYER
  5
FB
330
2
100
AcDbSymbolTableRecord
100
AcDbLayerTableRecord
  2
194
 70
     0
 62
   194
  6
CONTINUOUS
  0
LAYER
  5
FC
330
2
100
AcDbSymbolTableRecord
100
AcDbLayerTableRecord
  2
195
 70
     0
 62
   195
  6
CONTINUOUS
  0
LAYER
  5
FD
330
2
100
AcDbSymbolTableRecord
100
AcDbLayerTableRecord
  2
196
 70
     0
 62
   196
  6
CONTINUOUS
  0
LAYER
  5
FE
330
2
100
AcDbSymbolTableRecord
100
AcDbLayerTableRecord
  2
197
 70
     0
 62
   197
  6
CONTINUOUS
  0
LAYER
  5
FF
330
2
100
AcDbSymbolTableRecord
100
AcDbLayerTableRecord
  2
198
 70
     0
 62
   198
  6
CONTINUOUS
  0
LAYER
  5
100
330
2
100
AcDbSymbolTableRecord
100
AcDbLayerTableRecord
  2
199
 70
     0
 62
   199
  6
CONTINUOUS
  0
LAYER
  5
101
330
2
100
AcDbSymbolTableRecord
100
AcDbLayerTableRecord
  2
200
 70
     0
 62
   200
  6
CONTINUOUS
  0
LAYER
  5
102
330
2
100
AcDbSymbolTableRecord
100
AcDbLayerTableRecord
  2
201
 70
     0
 62
   201
  6
CONTINUOUS
  0
LAYER
  5
103
330
2
100
AcDbSymbolTableRecord
100
AcDbLayerTableRecord
  2
202
 70
     0
 62
   202
  6
CONTINUOUS
  0
LAYER
  5
104
330
2
100
AcDbSymbolTableRecord
100
AcDbLayerTableRecord
  2
203
 70
     0
 62
   203
  6
CONTINUOUS
  0
LAYER
  5
105
330
2
100
AcDbSymbolTableRecord
100
AcDbLayerTableRecord
  2
204
 70
     0
 62
   204
  6
CONTINUOUS
  0
LAYER
  5
106
330
2
100
AcDbSymbolTableRecord
100
AcDbLayerTableRecord
  2
205
 70
     0
 62
   205
  6
CONTINUOUS
  0
LAYER
  5
107
330
2
100
AcDbSymbolTableRecord
100
AcDbLayerTableRecord
  2
206
 70
     0
 62
   206
  6
CONTINUOUS
  0
LAYER
  5
108
330
2
100
AcDbSymbolTableRecord
100
AcDbLayerTableRecord
  2
207
 70
     0
 62
   207
  6
CONTINUOUS
  0
LAYER
  5
109
330
2
100
AcDbSymbolTableRecord
100
AcDbLayerTableRecord
  2
208
 70
     0
 62
   208
  6
CONTINUOUS
  0
LAYER
  5
10A
330
2
100
AcDbSymbolTableRecord
100
AcDbLayerTableRecord
  2
209
 70
     0
 62
   209
  6
CONTINUOUS
  0
LAYER
  5
10B
330
2
100
AcDbSymbolTableRecord
100
AcDbLayerTableRecord
  2
210
 70
     0
 62
   210
  6
CONTINUOUS
  0
LAYER
  5
10C
330
2
100
AcDbSymbolTableRecord
100
AcDbLayerTableRecord
  2
211
 70
     0
 62
   211
  6
CONTINUOUS
  0
LAYER
  5
10D
330
2
100
AcDbSymbolTableRecord
100
AcDbLayerTableRecord
  2
212
 70
     0
 62
   212
  6
CONTINUOUS
  0
LAYER
  5
10E
330
2
100
AcDbSymbolTableRecord
100
AcDbLayerTableRecord
  2
213
 70
     0
 62
   213
  6
CONTINUOUS
  0
LAYER
  5
10F
330
2
100
AcDbSymbolTableRecord
100
AcDbLayerTableRecord
  2
214
 70
     0
 62
   214
  6
CONTINUOUS
  0
LAYER
  5
110
330
2
100
AcDbSymbolTableRecord
100
AcDbLayerTableRecord
  2
215
 70
     0
 62
   215
  6
CONTINUOUS
  0
LAYER
  5
111
330
2
100
AcDbSymbolTableRecord
100
AcDbLayerTableRecord
  2
216
 70
     0
 62
   216
  6
CONTINUOUS
  0
LAYER
  5
112
330
2
100
AcDbSymbolTableRecord
100
AcDbLayerTableRecord
  2
217
 70
     0
 62
   217
  6
CONTINUOUS
  0
LAYER
  5
113
330
2
100
AcDbSymbolTableRecord
100
AcDbLayerTableRecord
  2
218
 70
     0
 62
   218
  6
CONTINUOUS
  0
LAYER
  5
114
330
2
100
AcDbSymbolTableRecord
100
AcDbLayerTableRecord
  2
219
 70
     0
 62
   219
  6
CONTINUOUS
  0
LAYER
  5
115
330
2
100
AcDbSymbolTableRecord
100
AcDbLayerTableRecord
  2
220
 70
     0
 62
   220
  6
CONTINUOUS
  0
LAYER
  5
116
330
2
100
AcDbSymbolTableRecord
100
AcDbLayerTableRecord
  2
221
 70
     0
 62
   221
  6
CONTINUOUS
  0
LAYER
  5
117
330
2
100
AcDbSymbolTableRecord
100
AcDbLayerTableRecord
  2
222
 70
     0
 62
   222
  6
CONTINUOUS
  0
LAYER
  5
118
330
2
100
AcDbSymbolTableRecord
100
AcDbLayerTableRecord
  2
223
 70
     0
 62
   223
  6
CONTINUOUS
  0
LAYER
  5
119
330
2
100
AcDbSymbolTableRecord
100
AcDbLayerTableRecord
  2
224
 70
     0
 62
   224
  6
CONTINUOUS
  0
LAYER
  5
11A
330
2
100
AcDbSymbolTableRecord
100
AcDbLayerTableRecord
  2
225
 70
     0
 62
   225
  6
CONTINUOUS
  0
LAYER
  5
11B
330
2
100
AcDbSymbolTableRecord
100
AcDbLayerTableRecord
  2
226
 70
     0
 62
   226
  6
CONTINUOUS
  0
LAYER
  5
11C
330
2
100
AcDbSymbolTableRecord
100
AcDbLayerTableRecord
  2
227
 70
     0
 62
   227
  6
CONTINUOUS
  0
LAYER
  5
11D
330
2
100
AcDbSymbolTableRecord
100
AcDbLayerTableRecord
  2
228
 70
     0
 62
   228
  6
CONTINUOUS
  0
LAYER
  5
11E
330
2
100
AcDbSymbolTableRecord
100
AcDbLayerTableRecord
  2
229
 70
     0
 62
   229
  6
CONTINUOUS
  0
LAYER
  5
11F
330
2
100
AcDbSymbolTableRecord
100
AcDbLayerTableRecord
  2
230
 70
     0
 62
   230
  6
CONTINUOUS
  0
LAYER
  5
120
330
2
100
AcDbSymbolTableRecord
100
AcDbLayerTableRecord
  2
231
 70
     0
 62
   231
  6
CONTINUOUS
  0
LAYER
  5
121
330
2
100
AcDbSymbolTableRecord
100
AcDbLayerTableRecord
  2
232
 70
     0
 62
   232
  6
CONTINUOUS
  0
LAYER
  5
122
330
2
100
AcDbSymbolTableRecord
100
AcDbLayerTableRecord
  2
233
 70
     0
 62
   233
  6
CONTINUOUS
  0
LAYER
  5
123
330
2
100
AcDbSymbolTableRecord
100
AcDbLayerTableRecord
  2
234
 70
     0
 62
   234
  6
CONTINUOUS
  0
LAYER
  5
124
330
2
100
AcDbSymbolTableRecord
100
AcDbLayerTableRecord
  2
235
 70
     0
 62
   235
  6
CONTINUOUS
  0
LAYER
  5
125
330
2
100
AcDbSymbolTableRecord
100
AcDbLayerTableRecord
  2
236
 70
     0
 62
   236
  6
CONTINUOUS
  0
LAYER
  5
126
330
2
100
AcDbSymbolTableRecord
100
AcDbLayerTableRecord
  2
237
 70
     0
 62
   237
  6
CONTINUOUS
  0
LAYER
  5
127
330
2
100
AcDbSymbolTableRecord
100
AcDbLayerTableRecord
  2
238
 70
     0
 62
   238
  6
CONTINUOUS
  0
LAYER
  5
128
330
2
100
AcDbSymbolTableRecord
100
AcDbLayerTableRecord
  2
239
 70
     0
 62
   239
  6
CONTINUOUS
  0
LAYER
  5
129
330
2
100
AcDbSymbolTableRecord
100
AcDbLayerTableRecord
  2
240
 70
     0
 62
   240
  6
CONTINUOUS
  0
LAYER
  5
12A
330
2
100
AcDbSymbolTableRecord
100
AcDbLayerTableRecord
  2
241
 70
     0
 62
   241
  6
CONTINUOUS
  0
LAYER
  5
12B
330
2
100
AcDbSymbolTableRecord
100
AcDbLayerTableRecord
  2
242
 70
     0
 62
   242
  6
CONTINUOUS
  0
LAYER
  5
12C
330
2
100
AcDbSymbolTableRecord
100
AcDbLayerTableRecord
  2
243
 70
     0
 62
   243
  6
CONTINUOUS
  0
LAYER
  5
12D
330
2
100
AcDbSymbolTableRecord
100
AcDbLayerTableRecord
  2
244
 70
     0
 62
   244
  6
CONTINUOUS
  0
LAYER
  5
12E
330
2
100
AcDbSymbolTableRecord
100
AcDbLayerTableRecord
  2
245
 70
     0
 62
   245
  6
CONTINUOUS
  0
LAYER
  5
12F
330
2
100
AcDbSymbolTableRecord
100
AcDbLayerTableRecord
  2
246
 70
     0
 62
   246
  6
CONTINUOUS
  0
LAYER
  5
130
330
2
100
AcDbSymbolTableRecord
100
AcDbLayerTableRecord
  2
247
 70
     0
 62
   247
  6
CONTINUOUS
  0
LAYER
  5
131
330
2
100
AcDbSymbolTableRecord
100
AcDbLayerTableRecord
  2
248
 70
     0
 62
   248
  6
CONTINUOUS
  0
LAYER
  5
132
330
2
100
AcDbSymbolTableRecord
100
AcDbLayerTableRecord
  2
249
 70
     0
 62
   249
  6
CONTINUOUS
  0
LAYER
  5
133
330
2
100
AcDbSymbolTableRecord
100
AcDbLayerTableRecord
  2
250
 70
     0
 62
   250
  6
CONTINUOUS
  0
LAYER
  5
134
330
2
100
AcDbSymbolTableRecord
100
AcDbLayerTableRecord
  2
251
 70
     0
 62
   251
  6
CONTINUOUS
  0
LAYER
  5
135
330
2
100
AcDbSymbolTableRecord
100
AcDbLayerTableRecord
  2
252
 70
     0
 62
   252
  6
CONTINUOUS
  0
LAYER
  5
136
330
2
100
AcDbSymbolTableRecord
100
AcDbLayerTableRecord
  2
253
 70
     0
 62
   253
  6
CONTINUOUS
  0
LAYER
  5
137
330
2
100
AcDbSymbolTableRecord
100
AcDbLayerTableRecord
  2
254
 70
     0
 62
   254
  6
CONTINUOUS
  0
LAYER
  5
138
330
2
100
AcDbSymbolTableRecord
100
AcDbLayerTableRecord
  2
255
 70
     0
 62
   255
  6
CONTINUOUS
  0
LAYER
  5
972
330
2
100
AcDbSymbolTableRecord
100
AcDbLayerTableRecord
  2
DEFPOINTS
 70
     0
 62
     7
  6
CONTINUOUS
  0
ENDTAB
  0
TABLE
  2
STYLE
  5
3
330
0
100
AcDbSymbolTable
 70
     1
  0
STYLE
  5
11
330
3
100
AcDbSymbolTableRecord
100
AcDbTextStyleTableRecord
  2
STANDARD
 70
     0
 40
0.0
 41
1.0
 50
0.0
 71
     0
 42
0.2
  3
txt
  4

  0
ENDTAB
  0
TABLE
  2
VIEW
  5
6
330
0
100
AcDbSymbolTable
 70
     0
  0
ENDTAB
  0
TABLE
  2
UCS
  5
7
330
0
100
AcDbSymbolTable
 70
     0
  0
ENDTAB
  0
TABLE
  2
APPID
  5
9
330
0
100
AcDbSymbolTable
 70
     1
  0
APPID
  5
12
330
9
100
AcDbSymbolTableRecord
100
AcDbRegAppTableRecord
  2
ACAD
 70
     0
  0
ENDTAB
  0
TABLE
  2
DIMSTYLE
  5
A
330
0
100
AcDbSymbolTable
 70
     1
  0
DIMSTYLE
105
6DD
102
{ACAD_REACTORS
330
971
102
}
330
A
100
AcDbSymbolTableRecord
100
AcDbDimStyleTableRecord
  2
STANDARD
 70
     0
  3

  4

  5

  6

  7

 40
1.0
 41
0.18
 42
0.0625
 43
0.38
 44
0.18
 45
0.0
 46
0.0
 47
0.0
 48
0.0
140
0.18
141
0.09
142
0.0
143
25.4
144
1.0
145
0.0
146
1.0
147
0.09
 71
     0
 72
     0
 73
     1
 74
     1
 75
     0
 76
     0
 77
     0
 78
     0
170
     0
171
     2
172
     0
173
     0
174
     0
175
     0
176
     0
177
     0
178
     0
270
     2
271
     4
272
     4
273
     2
274
     2
340
11
275
     0
280
     0
281
     0
282
     0
283
     1
284
     0
285
     0
286
     0
287
     3
288
     0
  0
ENDTAB
  0
TABLE
  2
BLOCK_RECORD
  5
1
330
0
100
AcDbSymbolTable
 70
     1
  0
BLOCK_RECORD
  5
1E
102
{ACAD_XDICTIONARY
360
98E
102
}
330
1
100
AcDbSymbolTableRecord
100
AcDbBlockTableRecord
  2
*MODEL_SPACE
  0
BLOCK_RECORD
  5
1A
102
{ACAD_XDICTIONARY
360
98C
102
}
330
1
100
AcDbSymbolTableRecord
100
AcDbBlockTableRecord
  2
*PAPER_SPACE
  0
BLOCK_RECORD
  5
973
330
1
100
AcDbSymbolTableRecord
100
AcDbBlockTableRecord
  2
*D0
  0
ENDTAB
  0
ENDSEC
  0
SECTION
  2
BLOCKS
  0
BLOCK
  5
13B
330
1E
100
AcDbEntity
  8
0
100
AcDbBlockBegin
  2
*MODEL_SPACE
 70
     0
 10
0.0
 20
0.0
 30
0.0
  3
*MODEL_SPACE
  1

  0
ENDBLK
  5
13C
330
1E
100
AcDbEntity
  8
0
100
AcDbBlockEnd
  0
BLOCK
  5
139
330
1A
100
AcDbEntity
 67
     1
  8
0
100
AcDbBlockBegin
  2
*PAPER_SPACE
 70
     0
 10
0.0
 20
0.0
 30
0.0
  3
*PAPER_SPACE
  1

  0
ENDBLK
  5
13A
330
1A
100
AcDbEntity
 67
     1
  8
0
100
AcDbBlockEnd
  0
BLOCK
  5
97E
330
973
100
AcDbEntity
  8
0
100
AcDbBlockBegin
  2
*D0
 70
     1
 10
0.0
 20
0.0
 30
0.0
  3
*D0
  1

  0
LINE
  5
980
330
973
100
AcDbEntity
  8
0
 62
     0
100
AcDbLine
 10
8.857975566702194
 20
8.841857369667263
 30
0.0
 11
8.857975566702194
 21
8.238066169291808
 31
0.0
  0
LINE
  5
981
330
973
100
AcDbEntity
  8
0
 62
     0
100
AcDbLine
 10
11.15325115725337
 20
8.827554699629612
 30
0.0
 11
11.15325115725337
 21
8.238066169291808
 31
0.0
  0
LINE
  5
982
330
973
100
AcDbEntity
  8
0
 62
     0
100
AcDbLine
 10
9.037975566702193
 20
8.418066169291808
 30
0.0
 11
9.465613361977784
 21
8.418066169291808
 31
0.0
  0
LINE
  5
983
330
973
100
AcDbEntity
  8
0
 62
     0
100
AcDbLine
 10
10.97325115725337
 20
8.418066169291808
 30
0.0
 11
10.54561336197778
 21
8.418066169291808
 31
0.0
  0
SOLID
  5
984
330
973
100
AcDbEntity
  8
0
 62
     0
100
AcDbTrace
 10
9.037975566702193
 20
8.448066169291807
 30
0.0
 11
9.037975566702193
 21
8.388066169291809
 31
0.0
 12
8.857975566702194
 22
8.418066169291808
 32
0.0
 13
8.857975566702194
 23
8.418066169291808
 33
0.0
  0
SOLID
  5
985
330
973
100
AcDbEntity
  8
0
 62
     0
100
AcDbTrace
 10
10.97325115725337
 20
8.448066169291807
 30
0.0
 11
10.97325115725337
 21
8.388066169291809
 31
0.0
 12
11.15325115725337
 22
8.418066169291808
 32
0.0
 13
11.15325115725337
 23
8.418066169291808
 33
0.0
  0
MTEXT
  5
986
330
973
100
AcDbEntity
  8
0
 62
     0
100
AcDbMText
 10
10.00561336197778
 20
8.418066169291808
 30
0.0
 40
0.18
 41
0.0
 71
     5
 72
     1
  1
\A1;2.2953
1001
ACAD
1000
MTEXTBEGIN
1070
    73
1070
     1
1070
    44
1040
1.0
1070
    74
1070
     0
1000
MTEXTEND
  0
POINT
  5
987
330
973
100
AcDbEntity
  8
DEFPOINTS
 62
     0
100
AcDbPoint
 10
8.857975566702194
 20
8.904357369667263
 30
0.0
  0
POINT
  5
988
330
973
100
AcDbEntity
  8
DEFPOINTS
 62
     0
100
AcDbPoint
 10
11.15325115725337
 20
8.890054699629612
 30
0.0
  0
POINT
  5
989
330
973
100
AcDbEntity
  8
DEFPOINTS
 62
     0
100
AcDbPoint
 10
11.15325115725337
 20
8.418066169291808
 30
0.0
  0
ENDBLK
  5
97F
330
973
100
AcDbEntity
  8
0
100
AcDbBlockEnd
  0
ENDSEC
  0
SECTION
  2
ENTITIES
  0
LINE
  5
1FE
330
1E
100
AcDbEntity
  8
0
100
AcDbLine
 10
10.55679446433998
 20
2.391550207506748
 30
0.0
 11
10.55679446433998
 21
7.448636821679976
 31
0.0
  0
LINE
  5
206
330
1E
100
AcDbEntity
  8
0
100
AcDbLine
 10
9.657188165127386
 20
7.482101388609111
 30
0.0
 11
9.657188165127386
 21
2.367928160262653
 31
0.0
  0
LINE
  5
207
330
1E
100
AcDbEntity
  8
0
100
AcDbLine
 10
9.647345645442349
 20
2.367928160262653
 30
0.0
 11
9.657188165127386
 21
2.367928160262653
 31
0.0
  0
LINE
  5
208
330
1E
100
AcDbEntity
  8
0
100
AcDbLine
 10
9.657188165127386
 20
2.367928160262653
 30
0.0
 11
9.657188165127386
 21
2.367928160262653
 31
0.0
  0
LINE
  5
209
330
1E
100
AcDbEntity
  8
0
100
AcDbLine
 10
9.657188165127386
 20
2.367928160262653
 30
0.0
 11
10.55679446433998
 21
2.391550207506748
 31
0.0
  0
LINE
  5
20A
330
1E
100
AcDbEntity
  8
0
100
AcDbLine
 10
10.55679446433998
 20
7.448636821679976
 30
0.0
 11
9.749707850166757
 21
7.470290364987063
 31
0.0
  0
LINE
  5
20B
330
1E
100
AcDbEntity
  8
0
100
AcDbLine
 10
9.749707850166757
 20
7.470290364987063
 30
0.0
 11
9.749707850166757
 21
7.486038396483126
 31
0.0
  0
LINE
  5
20C
330
1E
100
AcDbEntity
  8
0
100
AcDbLine
 10
9.749707850166757
 20
7.486038396483126
 30
0.0
 11
9.657188165127386
 21
7.488006900420133
 31
0.0
  0
LINE
  5
20D
330
1E
100
AcDbEntity
  8
0
100
AcDbLine
 10
9.657188165127386
 20
7.488006900420133
 30
0.0
 11
9.657188165127386
 21
7.482101388609111
 31
0.0
  0
LINE
  5
20E
330
1E
100
AcDbEntity
  8
0
100
AcDbLine
 10
9.657188165127386
 20
2.257691939790213
 30
0.0
 11
9.647345645442349
 21
2.257691939790213
 31
0.0
  0
LINE
  5
21D
330
1E
100
AcDbEntity
  8
0
100
AcDbLine
 10
9.657188165127386
 20
7.598243120892574
 30
0.0
 11
9.749707850166757
 21
7.596274616955566
 31
0.0
  0
LINE
  5
224
330
1E
100
AcDbEntity
  8
0
100
AcDbLine
 10
9.749707850166757
 20
7.596274616955566
 30
0.0
 11
9.749707850166757
 21
7.74194390829415
 31
0.0
  0
LINE
  5
225
330
1E
100
AcDbEntity
  8
0
100
AcDbLine
 10
10.55679446433998
 20
2.281313987034307
 30
0.0
 11
9.657188165127386
 21
2.257691939790213
 31
0.0
  0
LINE
  5
226
330
1E
100
AcDbEntity
  8
0
100
AcDbLine
 10
9.749707850166757
 20
7.580526585459503
 30
0.0
 11
10.55679446433998
 21
7.558873042152416
 31
0.0
  0
LINE
  5
227
330
1E
100
AcDbEntity
  8
0
100
AcDbLine
 10
10.89931414937935
 20
4.068715561837457
 30
0.0
 11
10.55679446433998
 21
3.858085640577614
 31
0.0
  0
LINE
  5
228
330
1E
100
AcDbEntity
  8
0
100
AcDbLine
 10
9.78317241709589
 20
7.812810050026433
 30
0.0
 11
9.983959818670694
 21
7.574621073648479
 31
0.0
  0
LINE
  5
22E
330
1E
100
AcDbEntity
  8
0
100
AcDbLine
 10
9.698526747804553
 20
7.85218012876659
 30
0.0
 11
9.639471629694316
 21
7.85218012876659
 31
0.0
  0
LINE
  5
22F
330
1E
100
AcDbEntity
  8
0
100
AcDbLine
 10
9.657188165127386
 20
7.736038396483126
 30
0.0
 11
9.657188165127386
 21
7.604148632703598
 31
0.0
  0
LINE
  5
236
330
1E
100
AcDbEntity
  8
0
100
AcDbLine
 10
9.639471629694316
 20
7.85218012876659
 30
0.0
 11
9.602070054891168
 21
7.85218012876659
 31
0.0
  0
LINE
  5
23E
330
1E
100
AcDbEntity
  8
0
100
AcDbLine
 10
9.602070054891168
 20
7.85218012876659
 30
0.0
 11
9.602070054891168
 21
7.757691939790213
 31
0.0
  0
LINE
  5
23F
330
1E
100
AcDbEntity
  8
0
100
AcDbLine
 10
9.637503125757309
 20
7.755723435853205
 30
0.0
 11
9.602070054891168
 21
7.757691939790213
 31
0.0
  0
LINE
  5
24C
330
1E
100
AcDbEntity
  8
0
100
AcDbLine
 10
9.501676354103764
 20
7.757691939790213
 30
0.0
 11
9.501676354103764
 21
7.85218012876659
 31
0.0
  0
LINE
  5
24D
330
1E
100
AcDbEntity
  8
0
100
AcDbLine
 10
9.676873204497468
 20
2.255723435853204
 30
0.0
 11
9.657188165127386
 21
2.257691939790213
 31
0.0
  0
LINE
  5
24E
330
1E
100
AcDbEntity
  8
0
100
AcDbLine
 10
9.676873204497468
 20
2.218321861050055
 30
0.0
 11
9.676873204497468
 21
2.255723435853204
 31
0.0
  0
LINE
  5
24F
330
1E
100
AcDbEntity
  8
0
100
AcDbLine
 10
9.676873204497468
 20
2.255723435853204
 30
0.0
 11
9.676873204497468
 21
2.257691939790213
 31
0.0
  0
LINE
  5
250
330
1E
100
AcDbEntity
  8
0
100
AcDbLine
 10
9.706400763552583
 20
2.218321861050055
 30
0.0
 11
9.676873204497468
 21
2.218321861050055
 31
0.0
  0
LINE
  5
251
330
1E
100
AcDbEntity
  8
0
100
AcDbLine
 10
9.706400763552583
 20
2.218321861050055
 30
0.0
 11
9.918999188749435
 21
2.263597451601236
 31
0.0
  0
LINE
  5
252
330
1E
100
AcDbEntity
  8
0
100
AcDbLine
 10
10.89537714150534
 20
4.10218012876659
 30
0.0
 11
10.90325115725337
 21
4.088400601207535
 31
0.0
  0
LINE
  5
253
330
1E
100
AcDbEntity
  8
0
100
AcDbLine
 10
10.89537714150534
 20
4.10218012876659
 30
0.0
 11
10.86978659032423
 21
4.125802176010685
 31
0.0
  0
LINE
  5
254
330
1E
100
AcDbEntity
  8
0
100
AcDbLine
 10
10.86978659032423
 20
4.125802176010685
 30
0.0
 11
10.86584958245022
 21
4.127770679947692
 31
0.0
  0
LINE
  5
255
330
1E
100
AcDbEntity
  8
0
100
AcDbLine
 10
10.86584958245022
 20
4.129739183884701
 30
0.0
 11
10.86584958245022
 21
4.127770679947692
 31
0.0
  0
LINE
  5
256
330
1E
100
AcDbEntity
  8
0
100
AcDbLine
 10
10.86584958245022
 20
4.129739183884701
 30
0.0
 11
10.86781808638723
 21
4.135644695695724
 31
0.0
  0
LINE
  5
257
330
1E
100
AcDbEntity
  8
0
100
AcDbLine
 10
10.90325115725337
 20
4.153361231128796
 30
0.0
 11
10.86781808638723
 21
4.135644695695724
 31
0.0
  0
LINE
  5
258
330
1E
100
AcDbEntity
  8
0
100
AcDbLine
 10
11.13947162969431
 20
4.141550207506748
 30
0.0
 11
10.90325115725337
 21
4.153361231128796
 31
0.0
  0
LINE
  5
259
330
1E
100
AcDbEntity
  8
0
100
AcDbLine
 10
11.13947162969431
 20
4.141550207506748
 30
0.0
 11
11.15325115725337
 21
4.125802176010685
 31
0.0
  0
LINE
  5
25A
330
1E
100
AcDbEntity
  8
0
100
AcDbLine
 10
11.15325115725337
 20
4.104148632703598
 30
0.0
 11
11.15325115725337
 21
4.125802176010685
 31
0.0
  0
LINE
  5
25B
330
1E
100
AcDbEntity
  8
0
100
AcDbLine
 10
11.15325115725337
 20
4.104148632703598
 30
0.0
 11
11.13947162969431
 21
4.090369105144542
 31
0.0
  0
LINE
  5
25C
330
1E
100
AcDbEntity
  8
0
100
AcDbLine
 10
11.06663698402502
 20
4.086432097270527
 30
0.0
 11
11.13947162969431
 21
4.090369105144542
 31
0.0
  0
LINE
  5
25D
330
1E
100
AcDbEntity
  8
0
100
AcDbLine
 10
11.06663698402502
 20
4.086432097270527
 30
0.0
 11
11.05088895252896
 21
4.080526585459503
 31
0.0
  0
LINE
  5
25E
330
1E
100
AcDbEntity
  8
0
100
AcDbLine
 10
10.55679446433998
 20
3.747849420105174
 30
0.0
 11
11.05088895252896
 21
4.080526585459503
 31
0.0
  0
LINE
  5
25F
330
1E
100
AcDbEntity
  8
0
100
AcDbLine
 10
10.89931414937935
 20
4.068715561837457
 30
0.0
 11
10.90325115725337
 21
4.088400601207535
 31
0.0
  0
LINE
  5
266
330
1E
100
AcDbEntity
  8
0
100
AcDbLine
 10
9.464274779300616
 20
2.263597451601236
 30
0.0
 11
9.436715724182505
 21
2.265565955538244
 31
0.0
  0
LINE
  5
285
330
1E
100
AcDbEntity
  8
0
100
AcDbLine
 10
9.436715724182505
 20
7.474227372861079
 30
0.0
 11
9.436715724182505
 21
2.363991152388638
 31
0.0
  0
LINE
  5
294
330
1E
100
AcDbEntity
  8
0
100
AcDbLine
 10
8.85797556670219
 20
2.381707687821709
 30
0.0
 11
8.85797556670219
 21
6.976195876798087
 31
0.0
  0
LINE
  5
2A9
330
1E
100
AcDbEntity
  8
0
100
AcDbLine
 10
8.848133047017149
 20
6.574621073648479
 30
0.0
 11
8.85797556670219
 21
6.574621073648479
 31
0.0
  0
LINE
  5
2AA
330
1E
100
AcDbEntity
  8
0
100
AcDbLine
 10
8.848133047017149
 20
6.074621073648479
 30
0.0
 11
8.848133047017149
 21
6.574621073648479
 31
0.0
  0
LINE
  5
2AB
330
1E
100
AcDbEntity
  8
0
100
AcDbLine
 10
8.848133047017149
 20
6.074621073648479
 30
0.0
 11
8.85797556670219
 21
6.074621073648479
 31
0.0
  0
LINE
  5
2AC
330
1E
100
AcDbEntity
  8
0
100
AcDbLine
 10
9.647345645442349
 20
7.617928160262653
 30
0.0
 11
9.647345645442349
 21
7.698636821679976
 31
0.0
  0
LINE
  5
2AD
330
1E
100
AcDbEntity
  8
0
100
AcDbLine
 10
9.647345645442349
 20
2.367928160262653
 30
0.0
 11
9.647345645442349
 21
7.617928160262653
 31
0.0
  0
LINE
  5
2B6
330
1E
100
AcDbEntity
  8
0
100
AcDbLine
 10
9.647345645442349
 20
7.617928160262653
 30
0.0
 11
9.556794464339986
 21
7.619896664199661
 31
0.0
  0
LINE
  5
2B7
330
1E
100
AcDbEntity
  8
0
100
AcDbLine
 10
9.464274779300616
 20
2.373833672073677
 30
0.0
 11
9.647345645442349
 21
2.367928160262653
 31
0.0
  0
LINE
  5
2C0
330
1E
100
AcDbEntity
  8
0
100
AcDbLine
 10
9.647345645442349
 20
2.218321861050055
 30
0.0
 11
9.464274779300616
 21
2.224227372861078
 31
0.0
  0
LINE
  5
2C1
330
1E
100
AcDbEntity
  8
0
100
AcDbLine
 10
9.556794464339986
 20
7.619896664199661
 30
0.0
 11
9.464274779300616
 21
7.615959656325646
 31
0.0
  0
LINE
  5
2C2
330
1E
100
AcDbEntity
  8
0
100
AcDbLine
 10
9.464274779300616
 20
7.615959656325646
 30
0.0
 11
9.464274779300616
 21
2.373833672073677
 31
0.0
  0
LINE
  5
2C3
330
1E
100
AcDbEntity
  8
0
100
AcDbLine
 10
9.430810212371483
 20
7.747849420105174
 30
0.0
 11
9.501676354103764
 21
7.761628947664227
 31
0.0
  0
LINE
  5
2C4
330
1E
100
AcDbEntity
  8
0
100
AcDbLine
 10
9.501676354103764
 20
7.850211624829583
 30
0.0
 11
9.430810212371483
 21
7.863991152388637
 31
0.0
  0
LINE
  5
2D4
330
1E
100
AcDbEntity
  8
0
100
AcDbLine
 10
9.556794464339986
 20
7.619896664199661
 30
0.0
 11
9.556794464339986
 21
7.66714075868785
 31
0.0
  0
LINE
  5
2DA
330
1E
100
AcDbEntity
  8
0
100
AcDbLine
 10
9.436715724182505
 20
2.363991152388638
 30
0.0
 11
9.464274779300616
 21
2.363991152388638
 31
0.0
  0
LINE
  5
2DB
330
1E
100
AcDbEntity
  8
0
100
AcDbLine
 10
9.464274779300616
 20
7.476195876798087
 30
0.0
 11
9.436715724182505
 21
7.474227372861079
 31
0.0
  0
LINE
  5
2DC
330
1E
100
AcDbEntity
  8
0
100
AcDbLine
 10
9.365849582450223
 20
7.568715561837457
 30
0.0
 11
9.450495251741561
 21
7.716353357113048
 31
0.0
  0
LINE
  5
2DD
330
1E
100
AcDbEntity
  8
0
100
AcDbLine
 10
9.436715724182505
 20
7.574621073648479
 30
0.0
 11
9.464274779300616
 21
7.576589577585489
 31
0.0
  0
LINE
  5
2DE
330
1E
100
AcDbEntity
  8
0
100
AcDbLine
 10
6.72018029111164
 20
7.944699813805961
 30
0.0
 11
6.420967692686442
 21
7.944699813805961
 31
0.0
  0
LINE
  5
2DF
330
1E
100
AcDbEntity
  8
0
100
AcDbLine
 10
4.930810212371483
 20
7.944699813805961
 30
0.0
 11
4.629629110009277
 21
7.944699813805961
 31
0.0
  0
LINE
  5
2E0
330
1E
100
AcDbEntity
  8
0
100
AcDbLine
 10
4.619786590324238
 20
7.761628947664227
 30
0.0
 11
4.629629110009277
 21
7.761628947664227
 31
0.0
  0
LINE
  5
2E1
330
1E
100
AcDbEntity
  8
0
100
AcDbLine
 10
4.930810212371483
 20
7.761628947664227
 30
0.0
 11
4.940652732056522
 21
7.761628947664227
 31
0.0
  0
LINE
  5
2E2
330
1E
100
AcDbEntity
  8
0
100
AcDbLine
 10
4.940652732056522
 20
7.850211624829583
 30
0.0
 11
4.930810212371483
 21
7.850211624829583
 31
0.0
  0
LINE
  5
2E3
330
1E
100
AcDbEntity
  8
0
100
AcDbLine
 10
4.629629110009277
 20
7.850211624829583
 30
0.0
 11
4.619786590324238
 21
7.850211624829583
 31
0.0
  0
LINE
  5
2E4
330
1E
100
AcDbEntity
  8
0
100
AcDbLine
 10
6.730022810796679
 20
7.850211624829583
 30
0.0
 11
6.72018029111164
 21
7.850211624829583
 31
0.0
  0
LINE
  5
2E5
330
1E
100
AcDbEntity
  8
0
100
AcDbLine
 10
6.420967692686442
 20
7.850211624829583
 30
0.0
 11
6.411125173001403
 21
7.850211624829583
 31
0.0
  0
LINE
  5
2E6
330
1E
100
AcDbEntity
  8
0
100
AcDbLine
 10
6.411125173001403
 20
7.761628947664227
 30
0.0
 11
6.420967692686442
 21
7.761628947664227
 31
0.0
  0
LINE
  5
2E7
330
1E
100
AcDbEntity
  8
0
100
AcDbLine
 10
6.72018029111164
 20
7.761628947664227
 30
0.0
 11
6.730022810796679
 21
7.761628947664227
 31
0.0
  0
LINE
  5
2F3
330
1E
100
AcDbEntity
  8
0
100
AcDbLine
 10
6.456400763552585
 20
2.257691939790213
 30
0.0
 11
6.452463755678568
 21
2.257691939790213
 31
0.0
  0
LINE
  5
2F4
330
1E
100
AcDbEntity
  8
0
100
AcDbLine
 10
6.208369267489592
 20
2.257691939790213
 30
0.0
 11
6.204432259615577
 21
2.257691939790213
 31
0.0
  0
LINE
  5
300
330
1E
100
AcDbEntity
  8
0
100
AcDbLine
 10
5.800888952528962
 20
2.257691939790213
 30
0.0
 11
5.798920448591955
 21
2.257691939790213
 31
0.0
  0
LINE
  5
301
330
1E
100
AcDbEntity
  8
0
100
AcDbLine
 10
5.55285745646597
 20
2.257691939790213
 30
0.0
 11
5.548920448591955
 21
2.257691939790213
 31
0.0
  0
LINE
  5
30D
330
1E
100
AcDbEntity
  8
0
100
AcDbLine
 10
5.147345645442348
 20
2.257691939790213
 30
0.0
 11
5.143408637568333
 21
2.257691939790213
 31
0.0
  0
LINE
  5
30E
330
1E
100
AcDbEntity
  8
0
100
AcDbLine
 10
4.897345645442348
 20
2.257691939790213
 30
0.0
 11
4.89537714150534
 21
2.257691939790213
 31
0.0
  0
LINE
  5
31A
330
1E
100
AcDbEntity
  8
0
100
AcDbLine
 10
4.32057399189904
 20
7.755723435853205
 30
0.0
 11
4.32057399189904
 21
7.757691939790213
 31
0.0
  0
LINE
  5
31B
330
1E
100
AcDbEntity
  8
0
100
AcDbLine
 10
4.32057399189904
 20
7.757691939790213
 30
0.0
 11
4.32057399189904
 21
7.85218012876659
 31
0.0
  0
LINE
  5
31C
330
1E
100
AcDbEntity
  8
0
100
AcDbLine
 10
4.32057399189904
 20
7.619896664199661
 30
0.0
 11
4.32057399189904
 21
7.736038396483126
 31
0.0
  0
LINE
  5
322
330
1E
100
AcDbEntity
  8
0
100
AcDbLine
 10
4.420967692686442
 20
7.757691939790213
 30
0.0
 11
4.615849582450222
 21
7.757691939790213
 31
0.0
  0
LINE
  5
32A
330
1E
100
AcDbEntity
  8
0
100
AcDbLine
 10
4.32057399189904
 20
7.755723435853205
 30
0.0
 11
4.613881078513214
 21
7.755723435853205
 31
0.0
  0
LINE
  5
32B
330
1E
100
AcDbEntity
  8
0
100
AcDbLine
 10
4.613881078513214
 20
7.755723435853205
 30
0.0
 11
4.619786590324238
 21
7.757691939790213
 31
0.0
  0
LINE
  5
32C
330
1E
100
AcDbEntity
  8
0
100
AcDbLine
 10
4.619786590324238
 20
7.757691939790213
 30
0.0
 11
4.615849582450222
 21
7.757691939790213
 31
0.0
  0
LINE
  5
333
330
1E
100
AcDbEntity
  8
0
100
AcDbLine
 10
4.420967692686442
 20
7.85218012876659
 30
0.0
 11
4.420967692686442
 21
7.757691939790213
 31
0.0
  0
LINE
  5
334
330
1E
100
AcDbEntity
  8
0
100
AcDbLine
 10
4.615849582450222
 20
7.85218012876659
 30
0.0
 11
4.420967692686442
 21
7.85218012876659
 31
0.0
  0
LINE
  5
335
330
1E
100
AcDbEntity
  8
0
100
AcDbLine
 10
4.619786590324238
 20
7.85218012876659
 30
0.0
 11
4.615849582450222
 21
7.85218012876659
 31
0.0
  0
LINE
  5
336
330
1E
100
AcDbEntity
  8
0
100
AcDbLine
 10
4.611912574576207
 20
7.736038396483126
 30
0.0
 11
4.611912574576207
 21
7.619896664199661
 31
0.0
  0
LINE
  5
337
330
1E
100
AcDbEntity
  8
0
100
AcDbLine
 10
4.611912574576207
 20
7.736038396483126
 30
0.0
 11
4.32057399189904
 21
7.736038396483126
 31
0.0
  0
LINE
  5
33D
330
1E
100
AcDbEntity
  8
0
100
AcDbLine
 10
7.031203913158883
 20
7.736038396483126
 30
0.0
 11
6.739865330481718
 21
7.736038396483126
 31
0.0
  0
LINE
  5
33E
330
1E
100
AcDbEntity
  8
0
100
AcDbLine
 10
6.739865330481718
 20
7.619896664199661
 30
0.0
 11
6.739865330481718
 21
7.736038396483126
 31
0.0
  0
LINE
  5
33F
330
1E
100
AcDbEntity
  8
0
100
AcDbLine
 10
7.031203913158883
 20
7.736038396483126
 30
0.0
 11
7.031203913158883
 21
7.619896664199661
 31
0.0
  0
LINE
  5
340
330
1E
100
AcDbEntity
  8
0
100
AcDbLine
 10
6.401282653316364
 20
7.736038396483126
 30
0.0
 11
6.109944070639198
 21
7.736038396483126
 31
0.0
  0
LINE
  5
341
330
1E
100
AcDbEntity
  8
0
100
AcDbLine
 10
6.109944070639198
 20
7.619896664199661
 30
0.0
 11
6.109944070639198
 21
7.736038396483126
 31
0.0
  0
LINE
  5
342
330
1E
100
AcDbEntity
  8
0
100
AcDbLine
 10
6.401282653316364
 20
7.736038396483126
 30
0.0
 11
6.401282653316364
 21
7.619896664199661
 31
0.0
  0
LINE
  5
343
330
1E
100
AcDbEntity
  8
0
100
AcDbLine
 10
5.239865330481718
 20
7.736038396483126
 30
0.0
 11
5.239865330481718
 21
7.619896664199661
 31
0.0
  0
LINE
  5
344
330
1E
100
AcDbEntity
  8
0
100
AcDbLine
 10
5.239865330481718
 20
7.736038396483126
 30
0.0
 11
4.948526747804553
 21
7.736038396483126
 31
0.0
  0
LINE
  5
345
330
1E
100
AcDbEntity
  8
0
100
AcDbLine
 10
4.948526747804553
 20
7.619896664199661
 30
0.0
 11
4.948526747804553
 21
7.736038396483126
 31
0.0
  0
LINE
  5
34B
330
1E
100
AcDbEntity
  8
0
100
AcDbLine
 10
4.946558243867546
 20
7.755723435853205
 30
0.0
 11
4.940652732056522
 21
7.757691939790213
 31
0.0
  0
LINE
  5
34C
330
1E
100
AcDbEntity
  8
0
100
AcDbLine
 10
4.940652732056522
 20
7.757691939790213
 30
0.0
 11
4.940652732056522
 21
7.761628947664227
 31
0.0
  0
LINE
  5
34D
330
1E
100
AcDbEntity
  8
0
100
AcDbLine
 10
4.940652732056522
 20
7.850211624829583
 30
0.0
 11
4.940652732056522
 21
7.85218012876659
 31
0.0
  0
LINE
  5
34E
330
1E
100
AcDbEntity
  8
0
100
AcDbLine
 10
4.619786590324238
 20
7.85218012876659
 30
0.0
 11
4.619786590324238
 21
7.850211624829583
 31
0.0
  0
LINE
  5
34F
330
1E
100
AcDbEntity
  8
0
100
AcDbLine
 10
4.619786590324238
 20
7.761628947664227
 30
0.0
 11
4.619786590324238
 21
7.757691939790213
 31
0.0
  0
LINE
  5
350
330
1E
100
AcDbEntity
  8
0
100
AcDbLine
 10
5.141440133631325
 20
7.85218012876659
 30
0.0
 11
4.944589739930536
 21
7.85218012876659
 31
0.0
  0
LINE
  5
357
330
1E
100
AcDbEntity
  8
0
100
AcDbLine
 10
4.940652732056522
 20
7.85218012876659
 30
0.0
 11
4.944589739930536
 21
7.85218012876659
 31
0.0
  0
LINE
  5
358
330
1E
100
AcDbEntity
  8
0
100
AcDbLine
 10
5.239865330481718
 20
7.85218012876659
 30
0.0
 11
5.239865330481718
 21
7.757691939790213
 31
0.0
  0
LINE
  5
359
330
1E
100
AcDbEntity
  8
0
100
AcDbLine
 10
5.239865330481718
 20
7.755723435853205
 30
0.0
 11
5.239865330481718
 21
7.757691939790213
 31
0.0
  0
LINE
  5
364
330
1E
100
AcDbEntity
  8
0
100
AcDbLine
 10
6.109944070639198
 20
7.755723435853205
 30
0.0
 11
6.109944070639198
 21
7.757691939790213
 31
0.0
  0
LINE
  5
365
330
1E
100
AcDbEntity
  8
0
100
AcDbLine
 10
6.109944070639198
 20
7.757691939790213
 30
0.0
 11
6.109944070639198
 21
7.85218012876659
 31
0.0
  0
LINE
  5
36C
330
1E
100
AcDbEntity
  8
0
100
AcDbLine
 10
6.210337771426599
 20
7.85218012876659
 30
0.0
 11
6.405219661190379
 21
7.85218012876659
 31
0.0
  0
LINE
  5
36D
330
1E
100
AcDbEntity
  8
0
100
AcDbLine
 10
6.411125173001403
 20
7.85218012876659
 30
0.0
 11
6.405219661190379
 21
7.85218012876659
 31
0.0
  0
LINE
  5
36E
330
1E
100
AcDbEntity
  8
0
100
AcDbLine
 10
6.737896826544711
 20
7.755723435853205
 30
0.0
 11
6.730022810796679
 21
7.757691939790213
 31
0.0
  0
LINE
  5
36F
330
1E
100
AcDbEntity
  8
0
100
AcDbLine
 10
6.730022810796679
 20
7.757691939790213
 30
0.0
 11
6.730022810796679
 21
7.761628947664227
 31
0.0
  0
LINE
  5
370
330
1E
100
AcDbEntity
  8
0
100
AcDbLine
 10
6.730022810796679
 20
7.85218012876659
 30
0.0
 11
6.730022810796679
 21
7.850211624829583
 31
0.0
  0
LINE
  5
376
330
1E
100
AcDbEntity
  8
0
100
AcDbLine
 10
6.411125173001403
 20
7.850211624829583
 30
0.0
 11
6.411125173001403
 21
7.85218012876659
 31
0.0
  0
LINE
  5
377
330
1E
100
AcDbEntity
  8
0
100
AcDbLine
 10
6.411125173001403
 20
7.761628947664227
 30
0.0
 11
6.411125173001403
 21
7.757691939790213
 31
0.0
  0
LINE
  5
378
330
1E
100
AcDbEntity
  8
0
100
AcDbLine
 10
6.403251157253372
 20
7.755723435853205
 30
0.0
 11
6.411125173001403
 21
7.757691939790213
 31
0.0
  0
LINE
  5
37E
330
1E
100
AcDbEntity
  8
0
100
AcDbLine
 10
6.730022810796679
 20
7.85218012876659
 30
0.0
 11
6.735928322607703
 21
7.85218012876659
 31
0.0
  0
LINE
  5
37F
330
1E
100
AcDbEntity
  8
0
100
AcDbLine
 10
6.735928322607703
 20
7.85218012876659
 30
0.0
 11
6.930810212371483
 21
7.85218012876659
 31
0.0
  0
LINE
  5
386
330
1E
100
AcDbEntity
  8
0
100
AcDbLine
 10
7.031203913158883
 20
7.85218012876659
 30
0.0
 11
7.031203913158883
 21
7.757691939790213
 31
0.0
  0
LINE
  5
387
330
1E
100
AcDbEntity
  8
0
100
AcDbLine
 10
7.031203913158883
 20
7.755723435853205
 30
0.0
 11
7.031203913158883
 21
7.757691939790213
 31
0.0
  0
LINE
  5
38D
330
1E
100
AcDbEntity
  8
0
100
AcDbLine
 10
4.615849582450222
 20
7.757691939790213
 30
0.0
 11
4.615849582450222
 21
7.85218012876659
 31
0.0
  0
LINE
  5
396
330
1E
100
AcDbEntity
  8
0
100
AcDbLine
 10
6.737896826544711
 20
7.755723435853205
 30
0.0
 11
7.031203913158883
 21
7.755723435853205
 31
0.0
  0
LINE
  5
397
330
1E
100
AcDbEntity
  8
0
100
AcDbLine
 10
6.109944070639198
 20
7.755723435853205
 30
0.0
 11
6.403251157253372
 21
7.755723435853205
 31
0.0
  0
LINE
  5
398
330
1E
100
AcDbEntity
  8
0
100
AcDbLine
 10
4.946558243867546
 20
7.755723435853205
 30
0.0
 11
5.239865330481718
 21
7.755723435853205
 31
0.0
  0
LINE
  5
3A0
330
1E
100
AcDbEntity
  8
0
100
AcDbLine
 10
4.944589739930536
 20
7.757691939790213
 30
0.0
 11
5.141440133631325
 21
7.757691939790213
 31
0.0
  0
LINE
  5
3A1
330
1E
100
AcDbEntity
  8
0
100
AcDbLine
 10
4.940652732056522
 20
7.757691939790213
 30
0.0
 11
4.944589739930536
 21
7.757691939790213
 31
0.0
  0
LINE
  5
3A2
330
1E
100
AcDbEntity
  8
0
100
AcDbLine
 10
4.944589739930536
 20
7.85218012876659
 30
0.0
 11
4.944589739930536
 21
7.757691939790213
 31
0.0
  0
LINE
  5
3AB
330
1E
100
AcDbEntity
  8
0
100
AcDbLine
 10
5.141440133631325
 20
7.757691939790213
 30
0.0
 11
5.141440133631325
 21
7.85218012876659
 31
0.0
  0
LINE
  5
3AC
330
1E
100
AcDbEntity
  8
0
100
AcDbLine
 10
6.411125173001403
 20
7.757691939790213
 30
0.0
 11
6.405219661190379
 21
7.757691939790213
 31
0.0
  0
LINE
  5
3AD
330
1E
100
AcDbEntity
  8
0
100
AcDbLine
 10
6.405219661190379
 20
7.757691939790213
 30
0.0
 11
6.210337771426599
 21
7.757691939790213
 31
0.0
  0
LINE
  5
3B5
330
1E
100
AcDbEntity
  8
0
100
AcDbLine
 10
6.210337771426599
 20
7.85218012876659
 30
0.0
 11
6.210337771426599
 21
7.757691939790213
 31
0.0
  0
LINE
  5
3B6
330
1E
100
AcDbEntity
  8
0
100
AcDbLine
 10
6.405219661190379
 20
7.85218012876659
 30
0.0
 11
6.405219661190379
 21
7.757691939790213
 31
0.0
  0
LINE
  5
3C6
330
1E
100
AcDbEntity
  8
0
100
AcDbLine
 10
6.930810212371483
 20
7.757691939790213
 30
0.0
 11
6.735928322607703
 21
7.757691939790213
 31
0.0
  0
LINE
  5
3C7
330
1E
100
AcDbEntity
  8
0
100
AcDbLine
 10
6.730022810796679
 20
7.757691939790213
 30
0.0
 11
6.735928322607703
 21
7.757691939790213
 31
0.0
  0
LINE
  5
3C8
330
1E
100
AcDbEntity
  8
0
100
AcDbLine
 10
6.735928322607703
 20
7.757691939790213
 30
0.0
 11
6.735928322607703
 21
7.85218012876659
 31
0.0
  0
LINE
  5
3D1
330
1E
100
AcDbEntity
  8
0
100
AcDbLine
 10
6.930810212371483
 20
7.757691939790213
 30
0.0
 11
6.930810212371483
 21
7.85218012876659
 31
0.0
  0
LINE
  5
3D2
330
1E
100
AcDbEntity
  8
0
100
AcDbLine
 10
4.487896826544711
 20
2.257691939790213
 30
0.0
 11
4.501676354103766
 21
2.255723435853204
 31
0.0
  0
LINE
  5
3D3
330
1E
100
AcDbEntity
  8
0
100
AcDbLine
 10
4.501676354103766
 20
2.255723435853204
 30
0.0
 11
4.501676354103766
 21
2.257691939790213
 31
0.0
  0
LINE
  5
3D4
330
1E
100
AcDbEntity
  8
0
100
AcDbLine
 10
6.848133047017151
 20
2.257691939790213
 30
0.0
 11
6.848133047017151
 21
2.255723435853204
 31
0.0
  0
LINE
  5
3D5
330
1E
100
AcDbEntity
  8
0
100
AcDbLine
 10
6.848133047017151
 20
2.255723435853204
 30
0.0
 11
6.861912574576207
 21
2.257691939790213
 31
0.0
  0
LINE
  5
3D6
330
1E
100
AcDbEntity
  8
0
100
AcDbLine
 10
6.861912574576207
 20
2.255723435853204
 30
0.0
 11
6.848133047017151
 21
2.255723435853204
 31
0.0
  0
LINE
  5
3D7
330
1E
100
AcDbEntity
  8
0
100
AcDbLine
 10
6.861912574576207
 20
2.255723435853204
 30
0.0
 11
6.861912574576207
 21
2.255723435853204
 31
0.0
  0
LINE
  5
3D8
330
1E
100
AcDbEntity
  8
0
100
AcDbLine
 10
4.489865330481718
 20
2.255723435853204
 30
0.0
 11
4.487896826544711
 21
2.255723435853204
 31
0.0
  0
LINE
  5
3D9
330
1E
100
AcDbEntity
  8
0
100
AcDbLine
 10
4.501676354103766
 20
2.255723435853204
 30
0.0
 11
4.489865330481718
 21
2.255723435853204
 31
0.0
  0
LINE
  5
3FA
330
1E
100
AcDbEntity
  8
0
100
AcDbLine
 10
6.861912574576207
 20
2.255723435853204
 30
0.0
 11
6.861912574576207
 21
2.218321861050055
 31
0.0
  0
LINE
  5
3FB
330
1E
100
AcDbEntity
  8
0
100
AcDbLine
 10
6.885534621820301
 20
2.218321861050055
 30
0.0
 11
6.861912574576207
 21
2.218321861050055
 31
0.0
  0
LINE
  5
3FC
330
1E
100
AcDbEntity
  8
0
100
AcDbLine
 10
4.489865330481718
 20
2.255723435853204
 30
0.0
 11
4.489865330481718
 21
2.218321861050055
 31
0.0
  0
LINE
  5
3FD
330
1E
100
AcDbEntity
  8
0
100
AcDbLine
 10
4.489865330481718
 20
2.218321861050055
 30
0.0
 11
4.464274779300616
 21
2.218321861050055
 31
0.0
  0
LINE
  5
414
330
1E
100
AcDbEntity
  8
0
100
AcDbLine
 10
4.787109424969907
 20
2.381707687821709
 30
0.0
 11
6.564668480088018
 21
2.381707687821709
 31
0.0
  0
LINE
  5
41B
330
1E
100
AcDbEntity
  8
0
100
AcDbLine
 10
6.564668480088018
 20
2.281313987034307
 30
0.0
 11
4.787109424969907
 21
2.281313987034307
 31
0.0
  0
LINE
  5
428
330
1E
100
AcDbEntity
  8
0
100
AcDbLine
 10
4.287109424969907
 20
2.265565955538244
 30
0.0
 11
4.285140921032899
 21
2.263597451601236
 31
0.0
  0
LINE
  5
429
330
1E
100
AcDbEntity
  8
0
100
AcDbLine
 10
4.487896826544711
 20
2.263597451601236
 30
0.0
 11
4.285140921032899
 21
2.263597451601236
 31
0.0
  0
LINE
  5
436
330
1E
100
AcDbEntity
  8
0
100
AcDbLine
 10
5.143408637568333
 20
2.263597451601236
 30
0.0
 11
4.897345645442348
 21
2.263597451601236
 31
0.0
  0
LINE
  5
443
330
1E
100
AcDbEntity
  8
0
100
AcDbLine
 10
5.798920448591955
 20
2.263597451601236
 30
0.0
 11
5.55285745646597
 21
2.263597451601236
 31
0.0
  0
LINE
  5
450
330
1E
100
AcDbEntity
  8
0
100
AcDbLine
 10
6.452463755678568
 20
2.263597451601236
 30
0.0
 11
6.208369267489592
 21
2.263597451601236
 31
0.0
  0
LINE
  5
45D
330
1E
100
AcDbEntity
  8
0
100
AcDbLine
 10
7.064668480088018
 20
2.263597451601236
 30
0.0
 11
6.861912574576207
 21
2.263597451601236
 31
0.0
  0
LINE
  5
45E
330
1E
100
AcDbEntity
  8
0
100
AcDbLine
 10
7.064668480088018
 20
2.263597451601236
 30
0.0
 11
7.064668480088018
 21
2.265565955538244
 31
0.0
  0
LINE
  5
49D
330
1E
100
AcDbEntity
  8
0
100
AcDbLine
 10
4.186715724182505
 20
2.363991152388638
 30
0.0
 11
4.186715724182505
 21
7.474227372861079
 31
0.0
  0
LINE
  5
49E
330
1E
100
AcDbEntity
  8
0
100
AcDbLine
 10
4.787109424969907
 20
6.976195876798087
 30
0.0
 11
4.787109424969907
 21
2.381707687821709
 31
0.0
  0
CIRCLE
  5
4AF
330
1E
100
AcDbEntity
  8
0
100
AcDbCircle
 10
5.021361393473844
 20
2.627770679947692
 30
0.0
 40
0.171259842519685
  0
CIRCLE
  5
4B0
330
1E
100
AcDbEntity
  8
0
100
AcDbCircle
 10
5.02037714150534
 20
2.627770679947692
 30
0.0
 40
0.1683070866141732
  0
CIRCLE
  5
4FB
330
1E
100
AcDbEntity
  8
0
100
AcDbCircle
 10
6.330416511584081
 20
2.627770679947692
 30
0.0
 40
0.1692913385826772
  0
CIRCLE
  5
4FC
330
1E
100
AcDbEntity
  8
0
100
AcDbCircle
 10
6.330416511584081
 20
2.627770679947692
 30
0.0
 40
0.171259842519685
  0
LINE
  5
527
330
1E
100
AcDbEntity
  8
0
100
AcDbLine
 10
7.163093676938411
 20
7.474227372861079
 30
0.0
 11
7.163093676938411
 21
2.363991152388638
 31
0.0
  0
LINE
  5
536
330
1E
100
AcDbEntity
  8
0
100
AcDbLine
 10
6.564668480088018
 20
2.381707687821709
 30
0.0
 11
6.564668480088018
 21
6.976195876798087
 31
0.0
  0
LINE
  5
537
330
1E
100
AcDbEntity
  8
0
100
AcDbLine
 10
6.564668480088018
 20
6.976195876798087
 30
0.0
 11
4.787109424969907
 21
6.976195876798087
 31
0.0
  0
LINE
  5
546
330
1E
100
AcDbEntity
  8
0
100
AcDbLine
 10
6.72018029111164
 20
7.574621073648479
 30
0.0
 11
7.064668480088018
 21
7.574621073648479
 31
0.0
  0
LINE
  5
547
330
1E
100
AcDbEntity
  8
0
100
AcDbLine
 10
6.674904700560459
 20
7.568715561837457
 30
0.0
 11
6.72018029111164
 21
7.568715561837457
 31
0.0
  0
LINE
  5
548
330
1E
100
AcDbEntity
  8
0
100
AcDbLine
 10
6.670967692686442
 20
7.574621073648479
 30
0.0
 11
6.674904700560459
 21
7.568715561837457
 31
0.0
  0
LINE
  5
549
330
1E
100
AcDbEntity
  8
0
100
AcDbLine
 10
6.47018029111164
 20
7.574621073648479
 30
0.0
 11
6.670967692686442
 21
7.574621073648479
 31
0.0
  0
LINE
  5
54A
330
1E
100
AcDbEntity
  8
0
100
AcDbLine
 10
6.466243283237623
 20
7.568715561837457
 30
0.0
 11
6.47018029111164
 21
7.574621073648479
 31
0.0
  0
LINE
  5
54B
330
1E
100
AcDbEntity
  8
0
100
AcDbLine
 10
6.420967692686442
 20
7.568715561837457
 30
0.0
 11
6.466243283237623
 21
7.568715561837457
 31
0.0
  0
LINE
  5
54C
330
1E
100
AcDbEntity
  8
0
100
AcDbLine
 10
4.930810212371483
 20
7.574621073648479
 30
0.0
 11
6.420967692686442
 21
7.574621073648479
 31
0.0
  0
LINE
  5
54D
330
1E
100
AcDbEntity
  8
0
100
AcDbLine
 10
4.883566117883294
 20
7.568715561837457
 30
0.0
 11
4.930810212371483
 21
7.568715561837457
 31
0.0
  0
LINE
  5
54E
330
1E
100
AcDbEntity
  8
0
100
AcDbLine
 10
4.881597613946285
 20
7.574621073648479
 30
0.0
 11
4.883566117883294
 21
7.568715561837457
 31
0.0
  0
LINE
  5
54F
330
1E
100
AcDbEntity
  8
0
100
AcDbLine
 10
4.678841708434474
 20
7.574621073648479
 30
0.0
 11
4.881597613946285
 21
7.574621073648479
 31
0.0
  0
LINE
  5
550
330
1E
100
AcDbEntity
  8
0
100
AcDbLine
 10
4.676873204497466
 20
7.568715561837457
 30
0.0
 11
4.678841708434474
 21
7.574621073648479
 31
0.0
  0
LINE
  5
551
330
1E
100
AcDbEntity
  8
0
100
AcDbLine
 10
4.629629110009277
 20
7.568715561837457
 30
0.0
 11
4.676873204497466
 21
7.568715561837457
 31
0.0
  0
LINE
  5
552
330
1E
100
AcDbEntity
  8
0
100
AcDbLine
 10
4.287109424969907
 20
7.574621073648479
 30
0.0
 11
4.629629110009277
 21
7.574621073648479
 31
0.0
  0
LINE
  5
56D
330
1E
100
AcDbEntity
  8
0
100
AcDbLine
 10
6.300888952528962
 20
6.074621073648479
 30
0.0
 11
6.300888952528962
 21
6.574621073648479
 31
0.0
  0
LINE
  5
56E
330
1E
100
AcDbEntity
  8
0
100
AcDbLine
 10
5.050888952528962
 20
6.574621073648479
 30
0.0
 11
6.300888952528962
 21
6.574621073648479
 31
0.0
  0
LINE
  5
56F
330
1E
100
AcDbEntity
  8
0
100
AcDbLine
 10
5.050888952528962
 20
6.574621073648479
 30
0.0
 11
5.050888952528962
 21
6.074621073648479
 31
0.0
  0
LINE
  5
570
330
1E
100
AcDbEntity
  8
0
100
AcDbLine
 10
6.237896826544711
 20
6.137613199632733
 30
0.0
 11
6.237896826544711
 21
6.513597451601237
 31
0.0
  0
LINE
  5
571
330
1E
100
AcDbEntity
  8
0
100
AcDbLine
 10
5.113881078513214
 20
6.137613199632733
 30
0.0
 11
6.237896826544711
 21
6.137613199632733
 31
0.0
  0
LINE
  5
572
330
1E
100
AcDbEntity
  8
0
100
AcDbLine
 10
5.113881078513214
 20
6.513597451601237
 30
0.0
 11
5.113881078513214
 21
6.137613199632733
 31
0.0
  0
LINE
  5
573
330
1E
100
AcDbEntity
  8
0
100
AcDbLine
 10
5.113881078513214
 20
6.513597451601237
 30
0.0
 11
6.237896826544711
 21
6.513597451601237
 31
0.0
  0
LINE
  5
574
330
1E
100
AcDbEntity
  8
0
100
AcDbLine
 10
5.050888952528962
 20
6.074621073648479
 30
0.0
 11
6.300888952528962
 21
6.074621073648479
 31
0.0
  0
LINE
  5
575
330
1E
100
AcDbEntity
  8
0
100
AcDbLine
 10
5.174904700560459
 20
6.438794301994937
 30
0.0
 11
5.332385015521088
 21
6.438794301994937
 31
0.0
  0
LINE
  5
57B
330
1E
100
AcDbEntity
  8
0
100
AcDbLine
 10
5.452463755678568
 20
6.385644695695724
 30
0.0
 11
5.407188165127388
 21
6.385644695695724
 31
0.0
  0
LINE
  5
57C
330
1E
100
AcDbEntity
  8
0
100
AcDbLine
 10
5.452463755678568
 20
6.385644695695724
 30
0.0
 11
5.503644858040773
 21
6.271471467349268
 31
0.0
  0
LINE
  5
57D
330
1E
100
AcDbEntity
  8
0
100
AcDbLine
 10
5.503644858040773
 20
6.385644695695724
 30
0.0
 11
5.503644858040773
 21
6.271471467349268
 31
0.0
  0
LINE
  5
57E
330
1E
100
AcDbEntity
  8
0
100
AcDbLine
 10
5.562699976151009
 20
6.385644695695724
 30
0.0
 11
5.503644858040773
 21
6.385644695695724
 31
0.0
  0
LINE
  5
57F
330
1E
100
AcDbEntity
  8
0
100
AcDbLine
 10
5.592227535206127
 20
6.320684065774464
 30
0.0
 11
5.562699976151009
 21
6.385644695695724
 31
0.0
  0
LINE
  5
580
330
1E
100
AcDbEntity
  8
0
100
AcDbLine
 10
5.592227535206127
 20
6.385644695695724
 30
0.0
 11
5.592227535206127
 21
6.320684065774464
 31
0.0
  0
LINE
  5
581
330
1E
100
AcDbEntity
  8
0
100
AcDbLine
 10
5.637503125757309
 20
6.385644695695724
 30
0.0
 11
5.592227535206127
 21
6.385644695695724
 31
0.0
  0
LINE
  5
582
330
1E
100
AcDbEntity
  8
0
100
AcDbLine
 10
5.637503125757309
 20
6.212416349239031
 30
0.0
 11
5.637503125757309
 21
6.385644695695724
 31
0.0
  0
LINE
  5
583
330
1E
100
AcDbEntity
  8
0
100
AcDbLine
 10
5.584353519458096
 20
6.212416349239031
 30
0.0
 11
5.637503125757309
 21
6.212416349239031
 31
0.0
  0
LINE
  5
584
330
1E
100
AcDbEntity
  8
0
100
AcDbLine
 10
5.584353519458096
 20
6.212416349239031
 30
0.0
 11
5.55285745646597
 21
6.285250994908322
 31
0.0
  0
LINE
  5
585
330
1E
100
AcDbEntity
  8
0
100
AcDbLine
 10
5.55285745646597
 20
6.285250994908322
 30
0.0
 11
5.55285745646597
 21
6.212416349239031
 31
0.0
  0
LINE
  5
586
330
1E
100
AcDbEntity
  8
0
100
AcDbLine
 10
5.474117298985655
 20
6.212416349239031
 30
0.0
 11
5.55285745646597
 21
6.212416349239031
 31
0.0
  0
LINE
  5
587
330
1E
100
AcDbEntity
  8
0
100
AcDbLine
 10
5.474117298985655
 20
6.212416349239031
 30
0.0
 11
5.462306275363609
 21
6.236038396483126
 31
0.0
  0
LINE
  5
588
330
1E
100
AcDbEntity
  8
0
100
AcDbLine
 10
5.462306275363609
 20
6.236038396483126
 30
0.0
 11
5.397345645442348
 21
6.236038396483126
 31
0.0
  0
LINE
  5
589
330
1E
100
AcDbEntity
  8
0
100
AcDbLine
 10
5.385534621820301
 20
6.212416349239031
 30
0.0
 11
5.397345645442348
 21
6.236038396483126
 31
0.0
  0
LINE
  5
58A
330
1E
100
AcDbEntity
  8
0
100
AcDbLine
 10
5.385534621820301
 20
6.212416349239031
 30
0.0
 11
5.336322023395103
 21
6.212416349239031
 31
0.0
  0
LINE
  5
58B
330
1E
100
AcDbEntity
  8
0
100
AcDbLine
 10
5.336322023395103
 20
6.212416349239031
 30
0.0
 11
5.367818086387229
 21
6.291156506719346
 31
0.0
  0
LINE
  5
591
330
1E
100
AcDbEntity
  8
0
100
AcDbLine
 10
5.277266905284868
 20
6.283282490971314
 30
0.0
 11
5.332385015521088
 21
6.283282490971314
 31
0.0
  0
LINE
  5
592
330
1E
100
AcDbEntity
  8
0
100
AcDbLine
 10
5.277266905284868
 20
6.283282490971314
 30
0.0
 11
5.277266905284868
 21
6.212416349239031
 31
0.0
  0
LINE
  5
593
330
1E
100
AcDbEntity
  8
0
100
AcDbLine
 10
5.277266905284868
 20
6.212416349239031
 30
0.0
 11
5.174904700560459
 21
6.212416349239031
 31
0.0
  0
LINE
  5
594
330
1E
100
AcDbEntity
  8
0
100
AcDbLine
 10
5.452463755678568
 20
6.273439971286276
 30
0.0
 11
5.407188165127388
 21
6.273439971286276
 31
0.0
  0
LINE
  5
595
330
1E
100
AcDbEntity
  8
0
100
AcDbLine
 10
5.428841708434474
 20
6.322652569711472
 30
0.0
 11
5.452463755678568
 21
6.273439971286276
 31
0.0
  0
LINE
  5
596
330
1E
100
AcDbEntity
  8
0
100
AcDbLine
 10
5.298920448591955
 20
6.318715561837457
 30
0.0
 11
5.277266905284868
 21
6.318715561837457
 31
0.0
  0
LINE
  5
59C
330
1E
100
AcDbEntity
  8
0
100
AcDbLine
 10
5.310731472214001
 20
6.387613199632733
 30
0.0
 11
5.310731472214001
 21
6.330526585459503
 31
0.0
  0
LINE
  5
5A2
330
1E
100
AcDbEntity
  8
0
100
AcDbLine
 10
5.298920448591955
 20
6.399424223254779
 30
0.0
 11
5.277266905284868
 21
6.399424223254779
 31
0.0
  0
LINE
  5
5A3
330
1E
100
AcDbEntity
  8
0
100
AcDbLine
 10
5.407188165127388
 20
6.273439971286276
 30
0.0
 11
5.428841708434474
 21
6.322652569711472
 31
0.0
  0
LINE
  5
5A4
330
1E
100
AcDbEntity
  8
0
100
AcDbLine
 10
5.277266905284868
 20
6.399424223254779
 30
0.0
 11
5.277266905284868
 21
6.318715561837457
 31
0.0
  0
LINE
  5
5A5
330
1E
100
AcDbEntity
  8
0
100
AcDbLine
 10
5.174904700560459
 20
6.438794301994937
 30
0.0
 11
5.174904700560459
 21
6.212416349239031
 31
0.0
  0
LINE
  5
5A6
330
1E
100
AcDbEntity
  8
0
100
AcDbLine
 10
5.663093676938411
 20
6.212416349239031
 30
0.0
 11
5.761518873788805
 21
6.212416349239031
 31
0.0
  0
LINE
  5
5AC
330
1E
100
AcDbEntity
  8
0
100
AcDbLine
 10
5.793014936780931
 20
6.24194390829415
 30
0.0
 11
5.793014936780931
 21
6.354148632703598
 31
0.0
  0
LINE
  5
5B2
330
1E
100
AcDbEntity
  8
0
100
AcDbLine
 10
5.761518873788805
 20
6.385644695695724
 30
0.0
 11
5.663093676938411
 21
6.385644695695724
 31
0.0
  0
LINE
  5
5B3
330
1E
100
AcDbEntity
  8
0
100
AcDbLine
 10
5.733959818670694
 20
6.350211624829583
 30
0.0
 11
5.716243283237623
 21
6.350211624829583
 31
0.0
  0
LINE
  5
5B9
330
1E
100
AcDbEntity
  8
0
100
AcDbLine
 10
5.741833834418725
 20
6.25966044372722
 30
0.0
 11
5.741833834418725
 21
6.340369105144542
 31
0.0
  0
LINE
  5
5BF
330
1E
100
AcDbEntity
  8
0
100
AcDbLine
 10
5.733959818670694
 20
6.251786427979189
 30
0.0
 11
5.716243283237623
 21
6.251786427979189
 31
0.0
  0
LINE
  5
5C0
330
1E
100
AcDbEntity
  8
0
100
AcDbLine
 10
5.716243283237623
 20
6.350211624829583
 30
0.0
 11
5.716243283237623
 21
6.251786427979189
 31
0.0
  0
LINE
  5
5C1
330
1E
100
AcDbEntity
  8
0
100
AcDbLine
 10
5.663093676938411
 20
6.385644695695724
 30
0.0
 11
5.663093676938411
 21
6.212416349239031
 31
0.0
  0
LINE
  5
5C2
330
1E
100
AcDbEntity
  8
0
100
AcDbLine
 10
5.972148795048648
 20
6.212416349239031
 30
0.0
 11
6.017424385599829
 21
6.212416349239031
 31
0.0
  0
LINE
  5
5C3
330
1E
100
AcDbEntity
  8
0
100
AcDbLine
 10
6.017424385599829
 20
6.385644695695724
 30
0.0
 11
6.017424385599829
 21
6.212416349239031
 31
0.0
  0
LINE
  5
5C4
330
1E
100
AcDbEntity
  8
0
100
AcDbLine
 10
6.017424385599829
 20
6.385644695695724
 30
0.0
 11
5.972148795048648
 21
6.385644695695724
 31
0.0
  0
LINE
  5
5C5
330
1E
100
AcDbEntity
  8
0
100
AcDbLine
 10
5.972148795048648
 20
6.385644695695724
 30
0.0
 11
5.972148795048648
 21
6.212416349239031
 31
0.0
  0
LINE
  5
5C6
330
1E
100
AcDbEntity
  8
0
100
AcDbLine
 10
6.082385015521088
 20
6.212416349239031
 30
0.0
 11
6.135534621820301
 21
6.212416349239031
 31
0.0
  0
LINE
  5
5C7
330
1E
100
AcDbEntity
  8
0
100
AcDbLine
 10
6.135534621820301
 20
6.350211624829583
 30
0.0
 11
6.135534621820301
 21
6.212416349239031
 31
0.0
  0
LINE
  5
5C8
330
1E
100
AcDbEntity
  8
0
100
AcDbLine
 10
6.135534621820301
 20
6.350211624829583
 30
0.0
 11
6.174904700560459
 21
6.350211624829583
 31
0.0
  0
LINE
  5
5C9
330
1E
100
AcDbEntity
  8
0
100
AcDbLine
 10
6.174904700560459
 20
6.350211624829583
 30
0.0
 11
6.174904700560459
 21
6.385644695695724
 31
0.0
  0
LINE
  5
5CA
330
1E
100
AcDbEntity
  8
0
100
AcDbLine
 10
6.174904700560459
 20
6.385644695695724
 30
0.0
 11
6.046951944654946
 21
6.385644695695724
 31
0.0
  0
LINE
  5
5CB
330
1E
100
AcDbEntity
  8
0
100
AcDbLine
 10
6.046951944654946
 20
6.350211624829583
 30
0.0
 11
6.046951944654946
 21
6.385644695695724
 31
0.0
  0
LINE
  5
5CC
330
1E
100
AcDbEntity
  8
0
100
AcDbLine
 10
6.082385015521088
 20
6.350211624829583
 30
0.0
 11
6.046951944654946
 21
6.350211624829583
 31
0.0
  0
LINE
  5
5CD
330
1E
100
AcDbEntity
  8
0
100
AcDbLine
 10
6.082385015521088
 20
6.350211624829583
 30
0.0
 11
6.082385015521088
 21
6.212416349239031
 31
0.0
  0
LINE
  5
5CE
330
1E
100
AcDbEntity
  8
0
100
AcDbLine
 10
5.875692102135261
 20
6.385644695695724
 30
0.0
 11
5.818605487962033
 21
6.385644695695724
 31
0.0
  0
LINE
  5
5CF
330
1E
100
AcDbEntity
  8
0
100
AcDbLine
 10
5.818605487962033
 20
6.385644695695724
 30
0.0
 11
5.818605487962033
 21
6.24194390829415
 31
0.0
  0
LINE
  5
5D5
330
1E
100
AcDbEntity
  8
0
100
AcDbLine
 10
5.913093676938411
 20
6.212416349239031
 30
0.0
 11
5.850101550954159
 21
6.212416349239031
 31
0.0
  0
LINE
  5
5DB
330
1E
100
AcDbEntity
  8
0
100
AcDbLine
 10
5.942621235993529
 20
6.24194390829415
 30
0.0
 11
5.942621235993529
 21
6.385644695695724
 31
0.0
  0
LINE
  5
5DC
330
1E
100
AcDbEntity
  8
0
100
AcDbLine
 10
5.942621235993529
 20
6.385644695695724
 30
0.0
 11
5.907188165127388
 21
6.385644695695724
 31
0.0
  0
LINE
  5
5DD
330
1E
100
AcDbEntity
  8
0
100
AcDbLine
 10
5.907188165127388
 20
6.385644695695724
 30
0.0
 11
5.907188165127388
 21
6.25966044372722
 31
0.0
  0
LINE
  5
5E3
330
1E
100
AcDbEntity
  8
0
100
AcDbLine
 10
5.897345645442348
 20
6.251786427979189
 30
0.0
 11
5.885534621820301
 21
6.251786427979189
 31
0.0
  0
LINE
  5
5E9
330
1E
100
AcDbEntity
  8
0
100
AcDbLine
 10
5.875692102135261
 20
6.25966044372722
 30
0.0
 11
5.875692102135261
 21
6.385644695695724
 31
0.0
  0
LINE
  5
5EA
330
1E
100
AcDbEntity
  8
0
100
AcDbLine
 10
4.920967692686442
 20
2.218321861050055
 30
0.0
 11
5.119786590324238
 21
2.218321861050055
 31
0.0
  0
LINE
  5
5EB
330
1E
100
AcDbEntity
  8
0
100
AcDbLine
 10
5.576479503710064
 20
2.218321861050055
 30
0.0
 11
5.77529840134786
 21
2.218321861050055
 31
0.0
  0
LINE
  5
5EC
330
1E
100
AcDbEntity
  8
0
100
AcDbLine
 10
6.231991314733686
 20
2.218321861050055
 30
0.0
 11
6.430810212371483
 21
2.218321861050055
 31
0.0
  0
LINE
  5
5ED
330
1E
100
AcDbEntity
  8
0
100
AcDbLine
 10
4.139471629694316
 20
7.617928160262653
 30
0.0
 11
4.143408637568333
 21
7.619896664199661
 31
0.0
  0
LINE
  5
5EE
330
1E
100
AcDbEntity
  8
0
100
AcDbLine
 10
4.143408637568333
 20
7.619896664199661
 30
0.0
 11
4.629629110009277
 21
7.619896664199661
 31
0.0
  0
LINE
  5
5EF
330
1E
100
AcDbEntity
  8
0
100
AcDbLine
 10
6.420967692686442
 20
7.619896664199661
 30
0.0
 11
4.930810212371483
 21
7.619896664199661
 31
0.0
  0
LINE
  5
5F0
330
1E
100
AcDbEntity
  8
0
100
AcDbLine
 10
4.289077928906914
 20
2.218321861050055
 30
0.0
 11
4.464274779300616
 21
2.218321861050055
 31
0.0
  0
LINE
  5
5F9
330
1E
100
AcDbEntity
  8
0
100
AcDbLine
 10
4.139471629694316
 20
2.367928160262653
 30
0.0
 11
4.139471629694316
 21
7.617928160262653
 31
0.0
  0
LINE
  5
5FA
330
1E
100
AcDbEntity
  8
0
100
AcDbLine
 10
7.212306275363609
 20
2.367928160262653
 30
0.0
 11
7.212306275363609
 21
7.617928160262653
 31
0.0
  0
LINE
  5
603
330
1E
100
AcDbEntity
  8
0
100
AcDbLine
 10
6.885534621820301
 20
2.218321861050055
 30
0.0
 11
7.060731472214001
 21
2.218321861050055
 31
0.0
  0
LINE
  5
604
330
1E
100
AcDbEntity
  8
0
100
AcDbLine
 10
7.208369267489592
 20
7.619896664199661
 30
0.0
 11
6.72018029111164
 21
7.619896664199661
 31
0.0
  0
LINE
  5
605
330
1E
100
AcDbEntity
  8
0
100
AcDbLine
 10
7.212306275363609
 20
7.617928160262653
 30
0.0
 11
7.208369267489592
 21
7.619896664199661
 31
0.0
  0
LINE
  5
606
330
1E
100
AcDbEntity
  8
0
100
AcDbLine
 10
7.204432259615577
 20
2.373833672073677
 30
0.0
 11
7.212306275363609
 21
2.367928160262653
 31
0.0
  0
LINE
  5
60F
330
1E
100
AcDbEntity
  8
0
100
AcDbLine
 10
7.060731472214001
 20
2.218321861050055
 30
0.0
 11
7.054825960402977
 21
2.224227372861078
 31
0.0
  0
LINE
  5
610
330
1E
100
AcDbEntity
  8
0
100
AcDbLine
 10
7.208369267489592
 20
7.619896664199661
 30
0.0
 11
7.204432259615577
 21
7.615959656325646
 31
0.0
  0
LINE
  5
611
330
1E
100
AcDbEntity
  8
0
100
AcDbLine
 10
7.204432259615577
 20
7.615959656325646
 30
0.0
 11
7.204432259615577
 21
2.373833672073677
 31
0.0
  0
LINE
  5
612
330
1E
100
AcDbEntity
  8
0
100
AcDbLine
 10
6.883566117883292
 20
2.220290364987063
 30
0.0
 11
6.885534621820301
 21
2.218321861050055
 31
0.0
  0
LINE
  5
613
330
1E
100
AcDbEntity
  8
0
100
AcDbLine
 10
6.430810212371483
 20
2.218321861050055
 30
0.0
 11
6.43277871630849
 21
2.220290364987063
 31
0.0
  0
LINE
  5
614
330
1E
100
AcDbEntity
  8
0
100
AcDbLine
 10
7.054825960402977
 20
2.224227372861078
 30
0.0
 11
6.861912574576207
 21
2.224227372861078
 31
0.0
  0
LINE
  5
61F
330
1E
100
AcDbEntity
  8
0
100
AcDbLine
 10
6.452463755678568
 20
2.224227372861078
 30
0.0
 11
6.208369267489592
 21
2.224227372861078
 31
0.0
  0
LINE
  5
625
330
1E
100
AcDbEntity
  8
0
100
AcDbLine
 10
6.228054306859672
 20
2.220290364987063
 30
0.0
 11
6.231991314733686
 21
2.218321861050055
 31
0.0
  0
LINE
  5
626
330
1E
100
AcDbEntity
  8
0
100
AcDbLine
 10
5.77529840134786
 20
2.218321861050055
 30
0.0
 11
5.777266905284868
 21
2.220290364987063
 31
0.0
  0
LINE
  5
627
330
1E
100
AcDbEntity
  8
0
100
AcDbLine
 10
5.572542495836049
 20
2.220290364987063
 30
0.0
 11
5.576479503710064
 21
2.218321861050055
 31
0.0
  0
LINE
  5
628
330
1E
100
AcDbEntity
  8
0
100
AcDbLine
 10
5.119786590324238
 20
2.218321861050055
 30
0.0
 11
5.123723598198253
 21
2.220290364987063
 31
0.0
  0
LINE
  5
62E
330
1E
100
AcDbEntity
  8
0
100
AcDbLine
 10
5.798920448591955
 20
2.224227372861078
 30
0.0
 11
5.55285745646597
 21
2.224227372861078
 31
0.0
  0
LINE
  5
639
330
1E
100
AcDbEntity
  8
0
100
AcDbLine
 10
5.143408637568333
 20
2.224227372861078
 30
0.0
 11
4.897345645442348
 21
2.224227372861078
 31
0.0
  0
LINE
  5
63F
330
1E
100
AcDbEntity
  8
0
100
AcDbLine
 10
4.917030684812427
 20
2.220290364987063
 30
0.0
 11
4.920967692686442
 21
2.218321861050055
 31
0.0
  0
LINE
  5
640
330
1E
100
AcDbEntity
  8
0
100
AcDbLine
 10
4.464274779300616
 20
2.218321861050055
 30
0.0
 11
4.468211787174631
 21
2.220290364987063
 31
0.0
  0
LINE
  5
641
330
1E
100
AcDbEntity
  8
0
100
AcDbLine
 10
4.487896826544711
 20
2.224227372861078
 30
0.0
 11
4.294983440717938
 21
2.224227372861078
 31
0.0
  0
LINE
  5
642
330
1E
100
AcDbEntity
  8
0
100
AcDbLine
 10
4.294983440717938
 20
2.224227372861078
 30
0.0
 11
4.289077928906914
 21
2.218321861050055
 31
0.0
  0
LINE
  5
650
330
1E
100
AcDbEntity
  8
0
100
AcDbLine
 10
4.139471629694316
 20
2.367928160262653
 30
0.0
 11
4.14537714150534
 21
2.373833672073677
 31
0.0
  0
LINE
  5
651
330
1E
100
AcDbEntity
  8
0
100
AcDbLine
 10
4.14537714150534
 20
7.615959656325646
 30
0.0
 11
4.14537714150534
 21
2.373833672073677
 31
0.0
  0
LINE
  5
652
330
1E
100
AcDbEntity
  8
0
100
AcDbLine
 10
4.143408637568333
 20
7.619896664199661
 30
0.0
 11
4.14537714150534
 21
7.615959656325646
 31
0.0
  0
LINE
  5
653
330
1E
100
AcDbEntity
  8
0
100
AcDbLine
 10
4.629629110009277
 20
7.615959656325646
 30
0.0
 11
4.14537714150534
 21
7.615959656325646
 31
0.0
  0
LINE
  5
654
330
1E
100
AcDbEntity
  8
0
100
AcDbLine
 10
4.680810212371483
 20
7.702573829553992
 30
0.0
 11
4.879629110009277
 21
7.702573829553992
 31
0.0
  0
LINE
  5
655
330
1E
100
AcDbEntity
  8
0
100
AcDbLine
 10
4.680810212371483
 20
7.576589577585489
 30
0.0
 11
4.680810212371483
 21
7.702573829553992
 31
0.0
  0
LINE
  5
656
330
1E
100
AcDbEntity
  8
0
100
AcDbLine
 10
4.680810212371483
 20
7.576589577585489
 30
0.0
 11
4.879629110009277
 21
7.576589577585489
 31
0.0
  0
LINE
  5
657
330
1E
100
AcDbEntity
  8
0
100
AcDbLine
 10
4.879629110009277
 20
7.576589577585489
 30
0.0
 11
4.879629110009277
 21
7.702573829553992
 31
0.0
  0
LINE
  5
658
330
1E
100
AcDbEntity
  8
0
100
AcDbLine
 10
4.629629110009277
 20
7.765565955538244
 30
0.0
 11
4.930810212371483
 21
7.765565955538244
 31
0.0
  0
LINE
  5
659
330
1E
100
AcDbEntity
  8
0
100
AcDbLine
 10
4.629629110009277
 20
7.747849420105174
 30
0.0
 11
4.629629110009277
 21
7.765565955538244
 31
0.0
  0
LINE
  5
65A
330
1E
100
AcDbEntity
  8
0
100
AcDbLine
 10
4.930810212371483
 20
7.747849420105174
 30
0.0
 11
4.629629110009277
 21
7.747849420105174
 31
0.0
  0
LINE
  5
65B
330
1E
100
AcDbEntity
  8
0
100
AcDbLine
 10
4.930810212371483
 20
7.765565955538244
 30
0.0
 11
4.930810212371483
 21
7.747849420105174
 31
0.0
  0
LINE
  5
65C
330
1E
100
AcDbEntity
  8
0
100
AcDbLine
 10
4.930810212371483
 20
7.846274616955566
 30
0.0
 11
4.629629110009277
 21
7.846274616955566
 31
0.0
  0
LINE
  5
65D
330
1E
100
AcDbEntity
  8
0
100
AcDbLine
 10
4.629629110009277
 20
7.863991152388637
 30
0.0
 11
4.930810212371483
 21
7.863991152388637
 31
0.0
  0
LINE
  5
65E
330
1E
100
AcDbEntity
  8
0
100
AcDbLine
 10
4.629629110009277
 20
7.846274616955566
 30
0.0
 11
4.629629110009277
 21
7.863991152388637
 31
0.0
  0
LINE
  5
65F
330
1E
100
AcDbEntity
  8
0
100
AcDbLine
 10
4.930810212371483
 20
7.846274616955566
 30
0.0
 11
4.930810212371483
 21
7.863991152388637
 31
0.0
  0
LINE
  5
671
330
1E
100
AcDbEntity
  8
0
100
AcDbLine
 10
4.629629110009277
 20
7.716353357113048
 30
0.0
 11
4.680810212371483
 21
7.716353357113048
 31
0.0
  0
LINE
  5
672
330
1E
100
AcDbEntity
  8
0
100
AcDbLine
 10
4.680810212371483
 20
7.702573829553992
 30
0.0
 11
4.680810212371483
 21
7.716353357113048
 31
0.0
  0
LINE
  5
673
330
1E
100
AcDbEntity
  8
0
100
AcDbLine
 10
4.881597613946285
 20
7.716353357113048
 30
0.0
 11
4.879629110009277
 21
7.702573829553992
 31
0.0
  0
LINE
  5
674
330
1E
100
AcDbEntity
  8
0
100
AcDbLine
 10
4.930810212371483
 20
7.716353357113048
 30
0.0
 11
4.881597613946285
 21
7.716353357113048
 31
0.0
  0
LINE
  5
67A
330
1E
100
AcDbEntity
  8
0
100
AcDbLine
 10
4.930810212371483
 20
7.615959656325646
 30
0.0
 11
6.420967692686442
 21
7.615959656325646
 31
0.0
  0
LINE
  5
67B
330
1E
100
AcDbEntity
  8
0
100
AcDbLine
 10
4.930810212371483
 20
7.576589577585489
 30
0.0
 11
6.420967692686442
 21
7.576589577585489
 31
0.0
  0
LINE
  5
67C
330
1E
100
AcDbEntity
  8
0
100
AcDbLine
 10
6.47018029111164
 20
7.576589577585489
 30
0.0
 11
6.47018029111164
 21
7.702573829553992
 31
0.0
  0
LINE
  5
67D
330
1E
100
AcDbEntity
  8
0
100
AcDbLine
 10
6.47018029111164
 20
7.576589577585489
 30
0.0
 11
6.670967692686442
 21
7.576589577585489
 31
0.0
  0
LINE
  5
67E
330
1E
100
AcDbEntity
  8
0
100
AcDbLine
 10
6.670967692686442
 20
7.576589577585489
 30
0.0
 11
6.670967692686442
 21
7.702573829553992
 31
0.0
  0
LINE
  5
67F
330
1E
100
AcDbEntity
  8
0
100
AcDbLine
 10
6.670967692686442
 20
7.702573829553992
 30
0.0
 11
6.47018029111164
 21
7.702573829553992
 31
0.0
  0
LINE
  5
680
330
1E
100
AcDbEntity
  8
0
100
AcDbLine
 10
6.72018029111164
 20
7.747849420105174
 30
0.0
 11
6.72018029111164
 21
7.765565955538244
 31
0.0
  0
LINE
  5
681
330
1E
100
AcDbEntity
  8
0
100
AcDbLine
 10
6.72018029111164
 20
7.765565955538244
 30
0.0
 11
6.420967692686442
 21
7.765565955538244
 31
0.0
  0
LINE
  5
682
330
1E
100
AcDbEntity
  8
0
100
AcDbLine
 10
6.420967692686442
 20
7.765565955538244
 30
0.0
 11
6.420967692686442
 21
7.747849420105174
 31
0.0
  0
LINE
  5
683
330
1E
100
AcDbEntity
  8
0
100
AcDbLine
 10
6.420967692686442
 20
7.747849420105174
 30
0.0
 11
6.72018029111164
 21
7.747849420105174
 31
0.0
  0
LINE
  5
684
330
1E
100
AcDbEntity
  8
0
100
AcDbLine
 10
6.420967692686442
 20
7.846274616955566
 30
0.0
 11
6.72018029111164
 21
7.846274616955566
 31
0.0
  0
LINE
  5
685
330
1E
100
AcDbEntity
  8
0
100
AcDbLine
 10
6.420967692686442
 20
7.846274616955566
 30
0.0
 11
6.420967692686442
 21
7.863991152388637
 31
0.0
  0
LINE
  5
686
330
1E
100
AcDbEntity
  8
0
100
AcDbLine
 10
6.72018029111164
 20
7.846274616955566
 30
0.0
 11
6.72018029111164
 21
7.863991152388637
 31
0.0
  0
LINE
  5
687
330
1E
100
AcDbEntity
  8
0
100
AcDbLine
 10
6.72018029111164
 20
7.863991152388637
 30
0.0
 11
6.420967692686442
 21
7.863991152388637
 31
0.0
  0
LINE
  5
694
330
1E
100
AcDbEntity
  8
0
100
AcDbLine
 10
6.72018029111164
 20
7.615959656325646
 30
0.0
 11
7.204432259615577
 21
7.615959656325646
 31
0.0
  0
LINE
  5
695
330
1E
100
AcDbEntity
  8
0
100
AcDbLine
 10
6.47018029111164
 20
7.702573829553992
 30
0.0
 11
6.47018029111164
 21
7.716353357113048
 31
0.0
  0
LINE
  5
696
330
1E
100
AcDbEntity
  8
0
100
AcDbLine
 10
6.670967692686442
 20
7.716353357113048
 30
0.0
 11
6.670967692686442
 21
7.702573829553992
 31
0.0
  0
LINE
  5
697
330
1E
100
AcDbEntity
  8
0
100
AcDbLine
 10
6.72018029111164
 20
7.716353357113048
 30
0.0
 11
6.670967692686442
 21
7.716353357113048
 31
0.0
  0
LINE
  5
6A2
330
1E
100
AcDbEntity
  8
0
100
AcDbLine
 10
6.420967692686442
 20
7.716353357113048
 30
0.0
 11
6.47018029111164
 21
7.716353357113048
 31
0.0
  0
LINE
  5
6A3
330
1E
100
AcDbEntity
  8
0
100
AcDbLine
 10
6.72018029111164
 20
7.576589577585489
 30
0.0
 11
7.064668480088018
 21
7.576589577585489
 31
0.0
  0
LINE
  5
6AB
330
1E
100
AcDbEntity
  8
0
100
AcDbLine
 10
7.16506218087542
 20
7.476195876798087
 30
0.0
 11
7.16506218087542
 21
2.363991152388638
 31
0.0
  0
LINE
  5
6B3
330
1E
100
AcDbEntity
  8
0
100
AcDbLine
 10
6.861912574576207
 20
2.224227372861078
 30
0.0
 11
6.861912574576207
 21
2.263597451601236
 31
0.0
  0
LINE
  5
6B4
330
1E
100
AcDbEntity
  8
0
100
AcDbLine
 10
6.452463755678568
 20
2.263597451601236
 30
0.0
 11
6.452463755678568
 21
2.224227372861078
 31
0.0
  0
LINE
  5
6B5
330
1E
100
AcDbEntity
  8
0
100
AcDbLine
 10
6.208369267489592
 20
2.224227372861078
 30
0.0
 11
6.208369267489592
 21
2.263597451601236
 31
0.0
  0
LINE
  5
6B6
330
1E
100
AcDbEntity
  8
0
100
AcDbLine
 10
5.798920448591955
 20
2.263597451601236
 30
0.0
 11
5.798920448591955
 21
2.224227372861078
 31
0.0
  0
LINE
  5
6B7
330
1E
100
AcDbEntity
  8
0
100
AcDbLine
 10
5.55285745646597
 20
2.224227372861078
 30
0.0
 11
5.55285745646597
 21
2.263597451601236
 31
0.0
  0
LINE
  5
6B8
330
1E
100
AcDbEntity
  8
0
100
AcDbLine
 10
5.143408637568333
 20
2.263597451601236
 30
0.0
 11
5.143408637568333
 21
2.224227372861078
 31
0.0
  0
LINE
  5
6B9
330
1E
100
AcDbEntity
  8
0
100
AcDbLine
 10
4.897345645442348
 20
2.224227372861078
 30
0.0
 11
4.897345645442348
 21
2.263597451601236
 31
0.0
  0
LINE
  5
6BA
330
1E
100
AcDbEntity
  8
0
100
AcDbLine
 10
4.487896826544711
 20
2.263597451601236
 30
0.0
 11
4.487896826544711
 21
2.224227372861078
 31
0.0
  0
LINE
  5
6BB
330
1E
100
AcDbEntity
  8
0
100
AcDbLine
 10
4.186715724182505
 20
7.476195876798087
 30
0.0
 11
4.186715724182505
 21
2.363991152388638
 31
0.0
  0
LINE
  5
6C3
330
1E
100
AcDbEntity
  8
0
100
AcDbLine
 10
4.285140921032899
 20
7.576589577585489
 30
0.0
 11
4.629629110009277
 21
7.576589577585489
 31
0.0
  0
LINE
  5
6CB
330
1E
100
AcDbEntity
  8
0
100
AcDbLine
 10
4.186715724182505
 20
2.363991152388638
 30
0.0
 11
4.186715724182505
 21
2.363991152388638
 31
0.0
  0
LINE
  5
6CC
330
1E
100
AcDbEntity
  8
0
100
AcDbLine
 10
7.163093676938411
 20
2.363991152388638
 30
0.0
 11
7.16506218087542
 21
2.363991152388638
 31
0.0
  0
LINE
  5
6CD
330
1E
100
AcDbEntity
  8
0
100
AcDbLine
 10
4.186715724182505
 20
7.474227372861079
 30
0.0
 11
4.186715724182505
 21
7.476195876798087
 31
0.0
  0
LINE
  5
6CE
330
1E
100
AcDbEntity
  8
0
100
AcDbLine
 10
7.16506218087542
 20
7.476195876798087
 30
0.0
 11
7.163093676938411
 21
7.474227372861079
 31
0.0
  0
LINE
  5
6CF
330
1E
100
AcDbEntity
  8
0
100
AcDbLine
 10
4.285140921032899
 20
7.576589577585489
 30
0.0
 11
4.287109424969907
 21
7.574621073648479
 31
0.0
  0
LINE
  5
6D0
330
1E
100
AcDbEntity
  8
0
100
AcDbLine
 10
4.629629110009277
 20
7.568715561837457
 30
0.0
 11
4.629629110009277
 21
7.716353357113048
 31
0.0
  0
LINE
  5
6D1
330
1E
100
AcDbEntity
  8
0
100
AcDbLine
 10
4.680810212371483
 20
7.716353357113048
 30
0.0
 11
4.676873204497466
 21
7.568715561837457
 31
0.0
  0
LINE
  5
6D2
330
1E
100
AcDbEntity
  8
0
100
AcDbLine
 10
4.678841708434474
 20
7.574621073648479
 30
0.0
 11
4.680810212371483
 21
7.576589577585489
 31
0.0
  0
LINE
  5
6D3
330
1E
100
AcDbEntity
  8
0
100
AcDbLine
 10
4.879629110009277
 20
7.576589577585489
 30
0.0
 11
4.881597613946285
 21
7.574621073648479
 31
0.0
  0
LINE
  5
6D4
330
1E
100
AcDbEntity
  8
0
100
AcDbLine
 10
4.881597613946285
 20
7.716353357113048
 30
0.0
 11
4.883566117883294
 21
7.568715561837457
 31
0.0
  0
LINE
  5
6D5
330
1E
100
AcDbEntity
  8
0
100
AcDbLine
 10
4.930810212371483
 20
7.568715561837457
 30
0.0
 11
4.930810212371483
 21
7.716353357113048
 31
0.0
  0
LINE
  5
6D6
330
1E
100
AcDbEntity
  8
0
100
AcDbLine
 10
6.420967692686442
 20
7.568715561837457
 30
0.0
 11
6.420967692686442
 21
7.716353357113048
 31
0.0
  0
LINE
  5
6D7
330
1E
100
AcDbEntity
  8
0
100
AcDbLine
 10
6.47018029111164
 20
7.716353357113048
 30
0.0
 11
6.466243283237623
 21
7.568715561837457
 31
0.0
  0
LINE
  5
6D8
330
1E
100
AcDbEntity
  8
0
100
AcDbLine
 10
6.47018029111164
 20
7.574621073648479
 30
0.0
 11
6.47018029111164
 21
7.576589577585489
 31
0.0
  0
LINE
  5
6D9
330
1E
100
AcDbEntity
  8
0
100
AcDbLine
 10
6.670967692686442
 20
7.576589577585489
 30
0.0
 11
6.670967692686442
 21
7.574621073648479
 31
0.0
  0
LINE
  5
6DA
330
1E
100
AcDbEntity
  8
0
100
AcDbLine
 10
6.670967692686442
 20
7.716353357113048
 30
0.0
 11
6.674904700560459
 21
7.568715561837457
 31
0.0
  0
LINE
  5
6DB
330
1E
100
AcDbEntity
  8
0
100
AcDbLine
 10
6.72018029111164
 20
7.568715561837457
 30
0.0
 11
6.72018029111164
 21
7.716353357113048
 31
0.0
  0
LINE
  5
6DC
330
1E
100
AcDbEntity
  8
0
100
AcDbLine
 10
7.064668480088018
 20
7.574621073648479
 30
0.0
 11
7.064668480088018
 21
7.576589577585489
 31
0.0
  0
LINE
  5
6E0
330
1E
100
AcDbEntity
  8
0
100
AcDbLine
 10
4.285140921032899
 20
2.263597451601236
 30
0.0
 11
4.247739346229749
 21
2.271471467349267
 31
0.0
  0
LINE
  5
6E1
330
1E
100
AcDbEntity
  8
0
100
AcDbLine
 10
4.247739346229749
 20
2.271471467349267
 30
0.0
 11
4.214274779300616
 21
2.293125010656353
 31
0.0
  0
LINE
  5
6E2
330
1E
100
AcDbEntity
  8
0
100
AcDbLine
 10
4.214274779300616
 20
2.293125010656353
 30
0.0
 11
4.192621235993529
 21
2.324621073648479
 31
0.0
  0
LINE
  5
6E3
330
1E
100
AcDbEntity
  8
0
100
AcDbLine
 10
4.192621235993529
 20
2.324621073648479
 30
0.0
 11
4.186715724182505
 21
2.363991152388638
 31
0.0
  0
LINE
  5
6E4
330
1E
100
AcDbEntity
  8
0
100
AcDbLine
 10
4.186715724182505
 20
7.476195876798087
 30
0.0
 11
4.192621235993529
 21
7.513597451601237
 31
0.0
  0
LINE
  5
6E5
330
1E
100
AcDbEntity
  8
0
100
AcDbLine
 10
4.192621235993529
 20
7.513597451601237
 30
0.0
 11
4.214274779300616
 21
7.54706201853037
 31
0.0
  0
LINE
  5
6E6
330
1E
100
AcDbEntity
  8
0
100
AcDbLine
 10
4.214274779300616
 20
7.54706201853037
 30
0.0
 11
4.247739346229749
 21
7.568715561837457
 31
0.0
  0
LINE
  5
6E7
330
1E
100
AcDbEntity
  8
0
100
AcDbLine
 10
4.247739346229749
 20
7.568715561837457
 30
0.0
 11
4.285140921032899
 21
7.576589577585489
 31
0.0
  0
LINE
  5
6E8
330
1E
100
AcDbEntity
  8
0
100
AcDbLine
 10
7.16506218087542
 20
2.363991152388638
 30
0.0
 11
7.157188165127388
 21
2.324621073648479
 31
0.0
  0
LINE
  5
6E9
330
1E
100
AcDbEntity
  8
0
100
AcDbLine
 10
7.157188165127388
 20
2.324621073648479
 30
0.0
 11
7.135534621820301
 21
2.293125010656353
 31
0.0
  0
LINE
  5
6EA
330
1E
100
AcDbEntity
  8
0
100
AcDbLine
 10
7.135534621820301
 20
2.293125010656353
 30
0.0
 11
7.104038558828175
 21
2.271471467349267
 31
0.0
  0
LINE
  5
6EB
330
1E
100
AcDbEntity
  8
0
100
AcDbLine
 10
7.104038558828175
 20
2.271471467349267
 30
0.0
 11
7.064668480088018
 21
2.263597451601236
 31
0.0
  0
LINE
  5
6EC
330
1E
100
AcDbEntity
  8
0
100
AcDbLine
 10
7.064668480088018
 20
7.576589577585489
 30
0.0
 11
7.104038558828175
 21
7.568715561837457
 31
0.0
  0
LINE
  5
6ED
330
1E
100
AcDbEntity
  8
0
100
AcDbLine
 10
7.104038558828175
 20
7.568715561837457
 30
0.0
 11
7.135534621820301
 21
7.54706201853037
 31
0.0
  0
LINE
  5
6EE
330
1E
100
AcDbEntity
  8
0
100
AcDbLine
 10
7.135534621820301
 20
7.54706201853037
 30
0.0
 11
7.157188165127388
 21
7.513597451601237
 31
0.0
  0
LINE
  5
6EF
330
1E
100
AcDbEntity
  8
0
100
AcDbLine
 10
7.157188165127388
 20
7.513597451601237
 30
0.0
 11
7.16506218087542
 21
7.476195876798087
 31
0.0
  0
LINE
  5
6F0
330
1E
100
AcDbEntity
  8
0
100
AcDbLine
 10
6.420967692686442
 20
7.747849420105174
 30
0.0
 11
6.420967692686442
 21
7.732101388609111
 31
0.0
  0
LINE
  5
6F1
330
1E
100
AcDbEntity
  8
0
100
AcDbLine
 10
6.420967692686442
 20
7.732101388609111
 30
0.0
 11
6.420967692686442
 21
7.716353357113048
 31
0.0
  0
LINE
  5
6F2
330
1E
100
AcDbEntity
  8
0
100
AcDbLine
 10
6.72018029111164
 20
7.716353357113048
 30
0.0
 11
6.72018029111164
 21
7.732101388609111
 31
0.0
  0
LINE
  5
6F3
330
1E
100
AcDbEntity
  8
0
100
AcDbLine
 10
6.72018029111164
 20
7.732101388609111
 30
0.0
 11
6.72018029111164
 21
7.747849420105174
 31
0.0
  0
LINE
  5
6F4
330
1E
100
AcDbEntity
  8
0
100
AcDbLine
 10
6.72018029111164
 20
7.863991152388637
 30
0.0
 11
6.72018029111164
 21
7.907298239002811
 31
0.0
  0
LINE
  5
6F5
330
1E
100
AcDbEntity
  8
0
100
AcDbLine
 10
6.72018029111164
 20
7.907298239002811
 30
0.0
 11
6.72018029111164
 21
7.934857294120922
 31
0.0
  0
LINE
  5
6F6
330
1E
100
AcDbEntity
  8
0
100
AcDbLine
 10
6.72018029111164
 20
7.934857294120922
 30
0.0
 11
6.72018029111164
 21
7.944699813805961
 31
0.0
  0
LINE
  5
6F7
330
1E
100
AcDbEntity
  8
0
100
AcDbLine
 10
6.420967692686442
 20
7.944699813805961
 30
0.0
 11
6.420967692686442
 21
7.934857294120922
 31
0.0
  0
LINE
  5
6F8
330
1E
100
AcDbEntity
  8
0
100
AcDbLine
 10
6.420967692686442
 20
7.934857294120922
 30
0.0
 11
6.420967692686442
 21
7.907298239002811
 31
0.0
  0
LINE
  5
6F9
330
1E
100
AcDbEntity
  8
0
100
AcDbLine
 10
6.420967692686442
 20
7.907298239002811
 30
0.0
 11
6.420967692686442
 21
7.863991152388637
 31
0.0
  0
LINE
  5
6FA
330
1E
100
AcDbEntity
  8
0
100
AcDbLine
 10
4.930810212371483
 20
7.747849420105174
 30
0.0
 11
4.930810212371483
 21
7.732101388609111
 31
0.0
  0
LINE
  5
6FB
330
1E
100
AcDbEntity
  8
0
100
AcDbLine
 10
4.930810212371483
 20
7.732101388609111
 30
0.0
 11
4.930810212371483
 21
7.716353357113048
 31
0.0
  0
LINE
  5
6FC
330
1E
100
AcDbEntity
  8
0
100
AcDbLine
 10
4.629629110009277
 20
7.716353357113048
 30
0.0
 11
4.629629110009277
 21
7.732101388609111
 31
0.0
  0
LINE
  5
6FD
330
1E
100
AcDbEntity
  8
0
100
AcDbLine
 10
4.629629110009277
 20
7.732101388609111
 30
0.0
 11
4.629629110009277
 21
7.747849420105174
 31
0.0
  0
LINE
  5
6FE
330
1E
100
AcDbEntity
  8
0
100
AcDbLine
 10
4.930810212371483
 20
7.944699813805961
 30
0.0
 11
4.930810212371483
 21
7.934857294120922
 31
0.0
  0
LINE
  5
6FF
330
1E
100
AcDbEntity
  8
0
100
AcDbLine
 10
4.930810212371483
 20
7.934857294120922
 30
0.0
 11
4.930810212371483
 21
7.907298239002811
 31
0.0
  0
LINE
  5
700
330
1E
100
AcDbEntity
  8
0
100
AcDbLine
 10
4.930810212371483
 20
7.907298239002811
 30
0.0
 11
4.930810212371483
 21
7.863991152388637
 31
0.0
  0
LINE
  5
701
330
1E
100
AcDbEntity
  8
0
100
AcDbLine
 10
4.629629110009277
 20
7.863991152388637
 30
0.0
 11
4.629629110009277
 21
7.907298239002811
 31
0.0
  0
LINE
  5
702
330
1E
100
AcDbEntity
  8
0
100
AcDbLine
 10
4.629629110009277
 20
7.907298239002811
 30
0.0
 11
4.629629110009277
 21
7.934857294120922
 31
0.0
  0
LINE
  5
703
330
1E
100
AcDbEntity
  8
0
100
AcDbLine
 10
4.629629110009277
 20
7.934857294120922
 30
0.0
 11
4.629629110009277
 21
7.944699813805961
 31
0.0
  0
LINE
  5
704
330
1E
100
AcDbEntity
  8
0
100
AcDbLine
 10
4.14537714150534
 20
2.373833672073677
 30
0.0
 11
4.153251157253372
 21
2.326589577585489
 31
0.0
  0
LINE
  5
705
330
1E
100
AcDbEntity
  8
0
100
AcDbLine
 10
4.153251157253372
 20
2.326589577585489
 30
0.0
 11
4.174904700560459
 21
2.285250994908322
 31
0.0
  0
LINE
  5
706
330
1E
100
AcDbEntity
  8
0
100
AcDbLine
 10
4.174904700560459
 20
2.285250994908322
 30
0.0
 11
4.208369267489592
 21
2.251786427979189
 31
0.0
  0
LINE
  5
707
330
1E
100
AcDbEntity
  8
0
100
AcDbLine
 10
4.208369267489592
 20
2.251786427979189
 30
0.0
 11
4.249707850166757
 21
2.23210138860911
 31
0.0
  0
LINE
  5
708
330
1E
100
AcDbEntity
  8
0
100
AcDbLine
 10
4.249707850166757
 20
2.23210138860911
 30
0.0
 11
4.294983440717938
 21
2.224227372861078
 31
0.0
  0
LINE
  5
709
330
1E
100
AcDbEntity
  8
0
100
AcDbLine
 10
4.487896826544711
 20
2.224227372861078
 30
0.0
 11
4.472148795048648
 21
2.222258868924071
 31
0.0
  0
LINE
  5
70A
330
1E
100
AcDbEntity
  8
0
100
AcDbLine
 10
4.472148795048648
 20
2.222258868924071
 30
0.0
 11
4.468211787174631
 21
2.220290364987063
 31
0.0
  0
LINE
  5
70B
330
1E
100
AcDbEntity
  8
0
100
AcDbLine
 10
4.917030684812427
 20
2.220290364987063
 30
0.0
 11
4.913093676938411
 21
2.222258868924071
 31
0.0
  0
LINE
  5
70C
330
1E
100
AcDbEntity
  8
0
100
AcDbLine
 10
4.913093676938411
 20
2.222258868924071
 30
0.0
 11
4.897345645442348
 21
2.224227372861078
 31
0.0
  0
LINE
  5
70D
330
1E
100
AcDbEntity
  8
0
100
AcDbLine
 10
5.143408637568333
 20
2.224227372861078
 30
0.0
 11
5.12766060607227
 21
2.222258868924071
 31
0.0
  0
LINE
  5
70E
330
1E
100
AcDbEntity
  8
0
100
AcDbLine
 10
5.12766060607227
 20
2.222258868924071
 30
0.0
 11
5.123723598198253
 21
2.220290364987063
 31
0.0
  0
LINE
  5
70F
330
1E
100
AcDbEntity
  8
0
100
AcDbLine
 10
5.572542495836049
 20
2.220290364987063
 30
0.0
 11
5.568605487962033
 21
2.222258868924071
 31
0.0
  0
LINE
  5
710
330
1E
100
AcDbEntity
  8
0
100
AcDbLine
 10
5.568605487962033
 20
2.222258868924071
 30
0.0
 11
5.55285745646597
 21
2.224227372861078
 31
0.0
  0
LINE
  5
711
330
1E
100
AcDbEntity
  8
0
100
AcDbLine
 10
5.798920448591955
 20
2.224227372861078
 30
0.0
 11
5.783172417095892
 21
2.222258868924071
 31
0.0
  0
LINE
  5
712
330
1E
100
AcDbEntity
  8
0
100
AcDbLine
 10
5.783172417095892
 20
2.222258868924071
 30
0.0
 11
5.777266905284868
 21
2.220290364987063
 31
0.0
  0
LINE
  5
713
330
1E
100
AcDbEntity
  8
0
100
AcDbLine
 10
6.228054306859672
 20
2.220290364987063
 30
0.0
 11
6.222148795048648
 21
2.222258868924071
 31
0.0
  0
LINE
  5
714
330
1E
100
AcDbEntity
  8
0
100
AcDbLine
 10
6.222148795048648
 20
2.222258868924071
 30
0.0
 11
6.208369267489592
 21
2.224227372861078
 31
0.0
  0
LINE
  5
715
330
1E
100
AcDbEntity
  8
0
100
AcDbLine
 10
6.452463755678568
 20
2.224227372861078
 30
0.0
 11
6.438684228119514
 21
2.222258868924071
 31
0.0
  0
LINE
  5
716
330
1E
100
AcDbEntity
  8
0
100
AcDbLine
 10
6.438684228119514
 20
2.222258868924071
 30
0.0
 11
6.43277871630849
 21
2.220290364987063
 31
0.0
  0
LINE
  5
717
330
1E
100
AcDbEntity
  8
0
100
AcDbLine
 10
6.883566117883292
 20
2.220290364987063
 30
0.0
 11
6.87766060607227
 21
2.222258868924071
 31
0.0
  0
LINE
  5
718
330
1E
100
AcDbEntity
  8
0
100
AcDbLine
 10
6.87766060607227
 20
2.222258868924071
 30
0.0
 11
6.861912574576207
 21
2.224227372861078
 31
0.0
  0
LINE
  5
719
330
1E
100
AcDbEntity
  8
0
100
AcDbLine
 10
7.054825960402977
 20
2.224227372861078
 30
0.0
 11
7.102070054891166
 21
2.23210138860911
 31
0.0
  0
LINE
  5
71A
330
1E
100
AcDbEntity
  8
0
100
AcDbLine
 10
7.102070054891166
 20
2.23210138860911
 30
0.0
 11
7.143408637568333
 21
2.251786427979189
 31
0.0
  0
LINE
  5
71B
330
1E
100
AcDbEntity
  8
0
100
AcDbLine
 10
7.143408637568333
 20
2.251786427979189
 30
0.0
 11
7.176873204497466
 21
2.285250994908322
 31
0.0
  0
LINE
  5
71C
330
1E
100
AcDbEntity
  8
0
100
AcDbLine
 10
7.176873204497466
 20
2.285250994908322
 30
0.0
 11
7.198526747804553
 21
2.326589577585489
 31
0.0
  0
LINE
  5
71D
330
1E
100
AcDbEntity
  8
0
100
AcDbLine
 10
7.198526747804553
 20
2.326589577585489
 30
0.0
 11
7.204432259615577
 21
2.373833672073677
 31
0.0
  0
LINE
  5
71E
330
1E
100
AcDbEntity
  8
0
100
AcDbLine
 10
7.212306275363609
 20
2.367928160262653
 30
0.0
 11
7.204432259615577
 21
2.320684065774464
 31
0.0
  0
LINE
  5
71F
330
1E
100
AcDbEntity
  8
0
100
AcDbLine
 10
7.204432259615577
 20
2.320684065774464
 30
0.0
 11
7.18277871630849
 21
2.2793454830973
 31
0.0
  0
LINE
  5
720
330
1E
100
AcDbEntity
  8
0
100
AcDbLine
 10
7.18277871630849
 20
2.2793454830973
 30
0.0
 11
7.149314149379357
 21
2.245880916168165
 31
0.0
  0
LINE
  5
721
330
1E
100
AcDbEntity
  8
0
100
AcDbLine
 10
7.149314149379357
 20
2.245880916168165
 30
0.0
 11
7.10797556670219
 21
2.224227372861078
 31
0.0
  0
LINE
  5
722
330
1E
100
AcDbEntity
  8
0
100
AcDbLine
 10
7.10797556670219
 20
2.224227372861078
 30
0.0
 11
7.060731472214001
 21
2.218321861050055
 31
0.0
  0
LINE
  5
723
330
1E
100
AcDbEntity
  8
0
100
AcDbLine
 10
4.289077928906914
 20
2.218321861050055
 30
0.0
 11
4.243802338355735
 21
2.224227372861078
 31
0.0
  0
LINE
  5
724
330
1E
100
AcDbEntity
  8
0
100
AcDbLine
 10
4.243802338355735
 20
2.224227372861078
 30
0.0
 11
4.200495251741561
 21
2.245880916168165
 31
0.0
  0
LINE
  5
725
330
1E
100
AcDbEntity
  8
0
100
AcDbLine
 10
4.200495251741561
 20
2.245880916168165
 30
0.0
 11
4.168999188749435
 21
2.2793454830973
 31
0.0
  0
LINE
  5
726
330
1E
100
AcDbEntity
  8
0
100
AcDbLine
 10
4.168999188749435
 20
2.2793454830973
 30
0.0
 11
4.147345645442348
 21
2.320684065774464
 31
0.0
  0
LINE
  5
727
330
1E
100
AcDbEntity
  8
0
100
AcDbLine
 10
4.147345645442348
 20
2.320684065774464
 30
0.0
 11
4.139471629694316
 21
2.367928160262653
 31
0.0
  0
LINE
  5
728
330
1E
100
AcDbEntity
  8
0
100
AcDbLine
 10
5.875692102135261
 20
6.25966044372722
 30
0.0
 11
5.879629110009277
 21
6.253754931916196
 31
0.0
  0
LINE
  5
729
330
1E
100
AcDbEntity
  8
0
100
AcDbLine
 10
5.879629110009277
 20
6.253754931916196
 30
0.0
 11
5.885534621820301
 21
6.251786427979189
 31
0.0
  0
LINE
  5
72A
330
1E
100
AcDbEntity
  8
0
100
AcDbLine
 10
5.897345645442348
 20
6.251786427979189
 30
0.0
 11
5.905219661190379
 21
6.253754931916196
 31
0.0
  0
LINE
  5
72B
330
1E
100
AcDbEntity
  8
0
100
AcDbLine
 10
5.905219661190379
 20
6.253754931916196
 30
0.0
 11
5.907188165127388
 21
6.25966044372722
 31
0.0
  0
LINE
  5
72C
330
1E
100
AcDbEntity
  8
0
100
AcDbLine
 10
5.913093676938411
 20
6.212416349239031
 30
0.0
 11
5.934747220245498
 21
6.220290364987063
 31
0.0
  0
LINE
  5
72D
330
1E
100
AcDbEntity
  8
0
100
AcDbLine
 10
5.934747220245498
 20
6.220290364987063
 30
0.0
 11
5.942621235993529
 21
6.24194390829415
 31
0.0
  0
LINE
  5
72E
330
1E
100
AcDbEntity
  8
0
100
AcDbLine
 10
5.818605487962033
 20
6.24194390829415
 30
0.0
 11
5.828448007647072
 21
6.220290364987063
 31
0.0
  0
LINE
  5
72F
330
1E
100
AcDbEntity
  8
0
100
AcDbLine
 10
5.828448007647072
 20
6.220290364987063
 30
0.0
 11
5.850101550954159
 21
6.212416349239031
 31
0.0
  0
LINE
  5
730
330
1E
100
AcDbEntity
  8
0
100
AcDbLine
 10
5.733959818670694
 20
6.251786427979189
 30
0.0
 11
5.739865330481718
 21
6.253754931916196
 31
0.0
  0
LINE
  5
731
330
1E
100
AcDbEntity
  8
0
100
AcDbLine
 10
5.739865330481718
 20
6.253754931916196
 30
0.0
 11
5.741833834418725
 21
6.25966044372722
 31
0.0
  0
LINE
  5
732
330
1E
100
AcDbEntity
  8
0
100
AcDbLine
 10
5.741833834418725
 20
6.340369105144542
 30
0.0
 11
5.739865330481718
 21
6.346274616955566
 31
0.0
  0
LINE
  5
733
330
1E
100
AcDbEntity
  8
0
100
AcDbLine
 10
5.739865330481718
 20
6.346274616955566
 30
0.0
 11
5.733959818670694
 21
6.350211624829583
 31
0.0
  0
LINE
  5
734
330
1E
100
AcDbEntity
  8
0
100
AcDbLine
 10
5.793014936780931
 20
6.354148632703598
 30
0.0
 11
5.783172417095892
 21
6.375802176010685
 31
0.0
  0
LINE
  5
735
330
1E
100
AcDbEntity
  8
0
100
AcDbLine
 10
5.783172417095892
 20
6.375802176010685
 30
0.0
 11
5.761518873788805
 21
6.385644695695724
 31
0.0
  0
LINE
  5
736
330
1E
100
AcDbEntity
  8
0
100
AcDbLine
 10
5.761518873788805
 20
6.212416349239031
 30
0.0
 11
5.783172417095892
 21
6.220290364987063
 31
0.0
  0
LINE
  5
737
330
1E
100
AcDbEntity
  8
0
100
AcDbLine
 10
5.783172417095892
 20
6.220290364987063
 30
0.0
 11
5.793014936780931
 21
6.24194390829415
 31
0.0
  0
LINE
  5
738
330
1E
100
AcDbEntity
  8
0
100
AcDbLine
 10
5.310731472214001
 20
6.387613199632733
 30
0.0
 11
5.306794464339986
 21
6.395487215380764
 31
0.0
  0
LINE
  5
739
330
1E
100
AcDbEntity
  8
0
100
AcDbLine
 10
5.306794464339986
 20
6.395487215380764
 30
0.0
 11
5.298920448591955
 21
6.399424223254779
 31
0.0
  0
LINE
  5
73A
330
1E
100
AcDbEntity
  8
0
100
AcDbLine
 10
5.298920448591955
 20
6.318715561837457
 30
0.0
 11
5.306794464339986
 21
6.322652569711472
 31
0.0
  0
LINE
  5
73B
330
1E
100
AcDbEntity
  8
0
100
AcDbLine
 10
5.306794464339986
 20
6.322652569711472
 30
0.0
 11
5.310731472214001
 21
6.330526585459503
 31
0.0
  0
LINE
  5
73C
330
1E
100
AcDbEntity
  8
0
100
AcDbLine
 10
5.332385015521088
 20
6.283282490971314
 30
0.0
 11
5.350101550954159
 21
6.285250994908322
 31
0.0
  0
LINE
  5
73D
330
1E
100
AcDbEntity
  8
0
100
AcDbLine
 10
5.350101550954159
 20
6.285250994908322
 30
0.0
 11
5.367818086387229
 21
6.291156506719346
 31
0.0
  0
LINE
  5
73E
330
1E
100
AcDbEntity
  8
0
100
AcDbLine
 10
5.407188165127388
 20
6.385644695695724
 30
0.0
 11
5.379629110009277
 21
6.425014774435881
 31
0.0
  0
LINE
  5
73F
330
1E
100
AcDbEntity
  8
0
100
AcDbLine
 10
5.379629110009277
 20
6.425014774435881
 30
0.0
 11
5.332385015521088
 21
6.438794301994937
 31
0.0
  0
LINE
  5
740
330
1E
100
AcDbEntity
  8
0
100
AcDbLine
 10
4.287109424969907
 20
7.574621073648479
 30
0.0
 11
4.237896826544711
 21
7.560841546089426
 31
0.0
  0
LINE
  5
741
330
1E
100
AcDbEntity
  8
0
100
AcDbLine
 10
4.237896826544711
 20
7.560841546089426
 30
0.0
 11
4.200495251741561
 21
7.525408475223283
 31
0.0
  0
LINE
  5
742
330
1E
100
AcDbEntity
  8
0
100
AcDbLine
 10
4.200495251741561
 20
7.525408475223283
 30
0.0
 11
4.186715724182505
 21
7.474227372861079
 31
0.0
  0
LINE
  5
743
330
1E
100
AcDbEntity
  8
0
100
AcDbLine
 10
7.064668480088018
 20
7.574621073648479
 30
0.0
 11
7.113881078513214
 21
7.560841546089426
 31
0.0
  0
LINE
  5
744
330
1E
100
AcDbEntity
  8
0
100
AcDbLine
 10
7.113881078513214
 20
7.560841546089426
 30
0.0
 11
7.151282653316364
 21
7.525408475223283
 31
0.0
  0
LINE
  5
745
330
1E
100
AcDbEntity
  8
0
100
AcDbLine
 10
7.151282653316364
 20
7.525408475223283
 30
0.0
 11
7.163093676938411
 21
7.474227372861079
 31
0.0
  0
LINE
  5
746
330
1E
100
AcDbEntity
  8
0
100
AcDbLine
 10
4.287109424969907
 20
7.574621073648479
 30
0.0
 11
4.294983440717938
 21
7.566747057900448
 31
0.0
  0
LINE
  5
747
330
1E
100
AcDbEntity
  8
0
100
AcDbLine
 10
4.294983440717938
 20
7.566747057900448
 30
0.0
 11
4.310731472214001
 21
7.545093514593363
 31
0.0
  0
LINE
  5
748
330
1E
100
AcDbEntity
  8
0
100
AcDbLine
 10
4.310731472214001
 20
7.545093514593363
 30
0.0
 11
4.336322023395103
 21
7.513597451601237
 31
0.0
  0
LINE
  5
749
330
1E
100
AcDbEntity
  8
0
100
AcDbLine
 10
4.336322023395103
 20
7.513597451601237
 30
0.0
 11
4.371755094261246
 21
7.47225886892407
 31
0.0
  0
LINE
  5
74A
330
1E
100
AcDbEntity
  8
0
100
AcDbLine
 10
4.371755094261246
 20
7.47225886892407
 30
0.0
 11
4.41506218087542
 21
7.421077766561866
 31
0.0
  0
LINE
  5
74B
330
1E
100
AcDbEntity
  8
0
100
AcDbLine
 10
4.41506218087542
 20
7.421077766561866
 30
0.0
 11
4.464274779300616
 21
7.360054144514622
 31
0.0
  0
LINE
  5
74C
330
1E
100
AcDbEntity
  8
0
100
AcDbLine
 10
4.464274779300616
 20
7.360054144514622
 30
0.0
 11
4.521361393473844
 21
7.293125010656353
 31
0.0
  0
LINE
  5
74D
330
1E
100
AcDbEntity
  8
0
100
AcDbLine
 10
4.521361393473844
 20
7.293125010656353
 30
0.0
 11
4.582385015521088
 21
7.220290364987063
 31
0.0
  0
LINE
  5
74E
330
1E
100
AcDbEntity
  8
0
100
AcDbLine
 10
4.582385015521088
 20
7.220290364987063
 30
0.0
 11
4.649314149379357
 21
7.141550207506748
 31
0.0
  0
LINE
  5
74F
330
1E
100
AcDbEntity
  8
0
100
AcDbLine
 10
4.649314149379357
 20
7.141550207506748
 30
0.0
 11
4.716243283237623
 21
7.058873042152416
 31
0.0
  0
LINE
  5
750
330
1E
100
AcDbEntity
  8
0
100
AcDbLine
 10
4.716243283237623
 20
7.058873042152416
 30
0.0
 11
4.787109424969907
 21
6.976195876798087
 31
0.0
  0
LINE
  5
751
330
1E
100
AcDbEntity
  8
0
100
AcDbLine
 10
6.564668480088018
 20
6.976195876798087
 30
0.0
 11
6.633566117883292
 21
7.058873042152416
 31
0.0
  0
LINE
  5
752
330
1E
100
AcDbEntity
  8
0
100
AcDbLine
 10
6.633566117883292
 20
7.058873042152416
 30
0.0
 11
6.702463755678568
 21
7.141550207506748
 31
0.0
  0
LINE
  5
753
330
1E
100
AcDbEntity
  8
0
100
AcDbLine
 10
6.702463755678568
 20
7.141550207506748
 30
0.0
 11
6.767424385599829
 21
7.220290364987063
 31
0.0
  0
LINE
  5
754
330
1E
100
AcDbEntity
  8
0
100
AcDbLine
 10
6.767424385599829
 20
7.220290364987063
 30
0.0
 11
6.828448007647072
 21
7.293125010656353
 31
0.0
  0
LINE
  5
755
330
1E
100
AcDbEntity
  8
0
100
AcDbLine
 10
6.828448007647072
 20
7.293125010656353
 30
0.0
 11
6.885534621820301
 21
7.360054144514622
 31
0.0
  0
LINE
  5
756
330
1E
100
AcDbEntity
  8
0
100
AcDbLine
 10
6.885534621820301
 20
7.360054144514622
 30
0.0
 11
6.936715724182505
 21
7.421077766561866
 31
0.0
  0
LINE
  5
757
330
1E
100
AcDbEntity
  8
0
100
AcDbLine
 10
6.936715724182505
 20
7.421077766561866
 30
0.0
 11
6.978054306859672
 21
7.47225886892407
 31
0.0
  0
LINE
  5
758
330
1E
100
AcDbEntity
  8
0
100
AcDbLine
 10
6.978054306859672
 20
7.47225886892407
 30
0.0
 11
7.013487377725812
 21
7.513597451601237
 31
0.0
  0
LINE
  5
759
330
1E
100
AcDbEntity
  8
0
100
AcDbLine
 10
7.013487377725812
 20
7.513597451601237
 30
0.0
 11
7.039077928906914
 21
7.545093514593363
 31
0.0
  0
LINE
  5
75A
330
1E
100
AcDbEntity
  8
0
100
AcDbLine
 10
7.039077928906914
 20
7.545093514593363
 30
0.0
 11
7.056794464339986
 21
7.566747057900448
 31
0.0
  0
LINE
  5
75B
330
1E
100
AcDbEntity
  8
0
100
AcDbLine
 10
7.056794464339986
 20
7.566747057900448
 30
0.0
 11
7.064668480088018
 21
7.574621073648479
 31
0.0
  0
LINE
  5
75C
330
1E
100
AcDbEntity
  8
0
100
AcDbLine
 10
7.163093676938411
 20
7.474227372861079
 30
0.0
 11
7.155219661190379
 21
7.468321861050055
 31
0.0
  0
LINE
  5
75D
330
1E
100
AcDbEntity
  8
0
100
AcDbLine
 10
7.155219661190379
 20
7.468321861050055
 30
0.0
 11
7.135534621820301
 21
7.450605325616985
 31
0.0
  0
LINE
  5
75E
330
1E
100
AcDbEntity
  8
0
100
AcDbLine
 10
7.135534621820301
 20
7.450605325616985
 30
0.0
 11
7.104038558828175
 21
7.425014774435881
 31
0.0
  0
LINE
  5
75F
330
1E
100
AcDbEntity
  8
0
100
AcDbLine
 10
7.104038558828175
 20
7.425014774435881
 30
0.0
 11
7.062699976151009
 21
7.38958170356974
 31
0.0
  0
LINE
  5
760
330
1E
100
AcDbEntity
  8
0
100
AcDbLine
 10
7.062699976151009
 20
7.38958170356974
 30
0.0
 11
7.009550369851798
 21
7.346274616955566
 31
0.0
  0
LINE
  5
761
330
1E
100
AcDbEntity
  8
0
100
AcDbLine
 10
7.009550369851798
 20
7.346274616955566
 30
0.0
 11
6.950495251741561
 21
7.29706201853037
 31
0.0
  0
LINE
  5
762
330
1E
100
AcDbEntity
  8
0
100
AcDbLine
 10
6.950495251741561
 20
7.29706201853037
 30
0.0
 11
6.881597613946285
 21
7.239975404357142
 31
0.0
  0
LINE
  5
763
330
1E
100
AcDbEntity
  8
0
100
AcDbLine
 10
6.881597613946285
 20
7.239975404357142
 30
0.0
 11
6.808762968276994
 21
7.178951782309898
 31
0.0
  0
LINE
  5
764
330
1E
100
AcDbEntity
  8
0
100
AcDbLine
 10
6.808762968276994
 20
7.178951782309898
 30
0.0
 11
6.730022810796679
 21
7.113991152388637
 31
0.0
  0
LINE
  5
765
330
1E
100
AcDbEntity
  8
0
100
AcDbLine
 10
6.730022810796679
 20
7.113991152388637
 30
0.0
 11
6.647345645442348
 21
7.045093514593363
 31
0.0
  0
LINE
  5
766
330
1E
100
AcDbEntity
  8
0
100
AcDbLine
 10
6.647345645442348
 20
7.045093514593363
 30
0.0
 11
6.564668480088018
 21
6.976195876798087
 31
0.0
  0
LINE
  5
767
330
1E
100
AcDbEntity
  8
0
100
AcDbLine
 10
6.190652732056522
 20
2.627770679947692
 30
0.0
 11
6.198526747804553
 21
2.675014774435881
 31
0.0
  0
LINE
  5
768
330
1E
100
AcDbEntity
  8
0
100
AcDbLine
 10
6.198526747804553
 20
2.675014774435881
 30
0.0
 11
6.224117298985655
 21
2.718321861050055
 31
0.0
  0
LINE
  5
769
330
1E
100
AcDbEntity
  8
0
100
AcDbLine
 10
6.224117298985655
 20
2.718321861050055
 30
0.0
 11
6.259550369851798
 21
2.749817924042181
 31
0.0
  0
LINE
  5
76A
330
1E
100
AcDbEntity
  8
0
100
AcDbLine
 10
6.259550369851798
 20
2.749817924042181
 30
0.0
 11
6.306794464339986
 21
2.765565955538244
 31
0.0
  0
LINE
  5
76B
330
1E
100
AcDbEntity
  8
0
100
AcDbLine
 10
6.306794464339986
 20
2.765565955538244
 30
0.0
 11
6.354038558828175
 21
2.765565955538244
 31
0.0
  0
LINE
  5
76C
330
1E
100
AcDbEntity
  8
0
100
AcDbLine
 10
6.354038558828175
 20
2.765565955538244
 30
0.0
 11
6.401282653316364
 21
2.749817924042181
 31
0.0
  0
LINE
  5
76D
330
1E
100
AcDbEntity
  8
0
100
AcDbLine
 10
6.401282653316364
 20
2.749817924042181
 30
0.0
 11
6.438684228119514
 21
2.718321861050055
 31
0.0
  0
LINE
  5
76E
330
1E
100
AcDbEntity
  8
0
100
AcDbLine
 10
6.438684228119514
 20
2.718321861050055
 30
0.0
 11
6.462306275363609
 21
2.675014774435881
 31
0.0
  0
LINE
  5
76F
330
1E
100
AcDbEntity
  8
0
100
AcDbLine
 10
6.462306275363609
 20
2.675014774435881
 30
0.0
 11
6.47018029111164
 21
2.627770679947692
 31
0.0
  0
LINE
  5
770
330
1E
100
AcDbEntity
  8
0
100
AcDbLine
 10
6.47018029111164
 20
2.627770679947692
 30
0.0
 11
6.462306275363609
 21
2.580526585459503
 31
0.0
  0
LINE
  5
771
330
1E
100
AcDbEntity
  8
0
100
AcDbLine
 10
6.462306275363609
 20
2.580526585459503
 30
0.0
 11
6.438684228119514
 21
2.537219498845331
 31
0.0
  0
LINE
  5
772
330
1E
100
AcDbEntity
  8
0
100
AcDbLine
 10
6.438684228119514
 20
2.537219498845331
 30
0.0
 11
6.401282653316364
 21
2.505723435853205
 31
0.0
  0
LINE
  5
773
330
1E
100
AcDbEntity
  8
0
100
AcDbLine
 10
6.401282653316364
 20
2.505723435853205
 30
0.0
 11
6.354038558828175
 21
2.489975404357142
 31
0.0
  0
LINE
  5
774
330
1E
100
AcDbEntity
  8
0
100
AcDbLine
 10
6.354038558828175
 20
2.489975404357142
 30
0.0
 11
6.306794464339986
 21
2.489975404357142
 31
0.0
  0
LINE
  5
775
330
1E
100
AcDbEntity
  8
0
100
AcDbLine
 10
6.306794464339986
 20
2.489975404357142
 30
0.0
 11
6.259550369851798
 21
2.505723435853205
 31
0.0
  0
LINE
  5
776
330
1E
100
AcDbEntity
  8
0
100
AcDbLine
 10
6.259550369851798
 20
2.505723435853205
 30
0.0
 11
6.224117298985655
 21
2.537219498845331
 31
0.0
  0
LINE
  5
777
330
1E
100
AcDbEntity
  8
0
100
AcDbLine
 10
6.224117298985655
 20
2.537219498845331
 30
0.0
 11
6.198526747804553
 21
2.580526585459503
 31
0.0
  0
LINE
  5
778
330
1E
100
AcDbEntity
  8
0
100
AcDbLine
 10
6.198526747804553
 20
2.580526585459503
 30
0.0
 11
6.190652732056522
 21
2.627770679947692
 31
0.0
  0
LINE
  5
779
330
1E
100
AcDbEntity
  8
0
100
AcDbLine
 10
6.474117298985655
 20
2.627770679947692
 30
0.0
 11
6.466243283237623
 21
2.67698327837289
 31
0.0
  0
LINE
  5
77A
330
1E
100
AcDbEntity
  8
0
100
AcDbLine
 10
6.466243283237623
 20
2.67698327837289
 30
0.0
 11
6.440652732056522
 21
2.720290364987063
 31
0.0
  0
LINE
  5
77B
330
1E
100
AcDbEntity
  8
0
100
AcDbLine
 10
6.440652732056522
 20
2.720290364987063
 30
0.0
 11
6.403251157253372
 21
2.753754931916196
 31
0.0
  0
LINE
  5
77C
330
1E
100
AcDbEntity
  8
0
100
AcDbLine
 10
6.403251157253372
 20
2.753754931916196
 30
0.0
 11
6.356007062765183
 21
2.769502963412259
 31
0.0
  0
LINE
  5
77D
330
1E
100
AcDbEntity
  8
0
100
AcDbLine
 10
6.356007062765183
 20
2.769502963412259
 30
0.0
 11
6.304825960402977
 21
2.769502963412259
 31
0.0
  0
LINE
  5
77E
330
1E
100
AcDbEntity
  8
0
100
AcDbLine
 10
6.304825960402977
 20
2.769502963412259
 30
0.0
 11
6.257581865914788
 21
2.753754931916196
 31
0.0
  0
LINE
  5
77F
330
1E
100
AcDbEntity
  8
0
100
AcDbLine
 10
6.257581865914788
 20
2.753754931916196
 30
0.0
 11
6.22018029111164
 21
2.720290364987063
 31
0.0
  0
LINE
  5
780
330
1E
100
AcDbEntity
  8
0
100
AcDbLine
 10
6.22018029111164
 20
2.720290364987063
 30
0.0
 11
6.194589739930536
 21
2.67698327837289
 31
0.0
  0
LINE
  5
781
330
1E
100
AcDbEntity
  8
0
100
AcDbLine
 10
6.194589739930536
 20
2.67698327837289
 30
0.0
 11
6.186715724182505
 21
2.627770679947692
 31
0.0
  0
LINE
  5
782
330
1E
100
AcDbEntity
  8
0
100
AcDbLine
 10
6.186715724182505
 20
2.627770679947692
 30
0.0
 11
6.194589739930536
 21
2.578558081522496
 31
0.0
  0
LINE
  5
783
330
1E
100
AcDbEntity
  8
0
100
AcDbLine
 10
6.194589739930536
 20
2.578558081522496
 30
0.0
 11
6.22018029111164
 21
2.535250994908322
 31
0.0
  0
LINE
  5
784
330
1E
100
AcDbEntity
  8
0
100
AcDbLine
 10
6.22018029111164
 20
2.535250994908322
 30
0.0
 11
6.257581865914788
 21
2.501786427979189
 31
0.0
  0
LINE
  5
785
330
1E
100
AcDbEntity
  8
0
100
AcDbLine
 10
6.257581865914788
 20
2.501786427979189
 30
0.0
 11
6.304825960402977
 21
2.486038396483126
 31
0.0
  0
LINE
  5
786
330
1E
100
AcDbEntity
  8
0
100
AcDbLine
 10
6.304825960402977
 20
2.486038396483126
 30
0.0
 11
6.356007062765183
 21
2.486038396483126
 31
0.0
  0
LINE
  5
787
330
1E
100
AcDbEntity
  8
0
100
AcDbLine
 10
6.356007062765183
 20
2.486038396483126
 30
0.0
 11
6.403251157253372
 21
2.501786427979189
 31
0.0
  0
LINE
  5
788
330
1E
100
AcDbEntity
  8
0
100
AcDbLine
 10
6.403251157253372
 20
2.501786427979189
 30
0.0
 11
6.440652732056522
 21
2.535250994908322
 31
0.0
  0
LINE
  5
789
330
1E
100
AcDbEntity
  8
0
100
AcDbLine
 10
6.440652732056522
 20
2.535250994908322
 30
0.0
 11
6.466243283237623
 21
2.578558081522496
 31
0.0
  0
LINE
  5
78A
330
1E
100
AcDbEntity
  8
0
100
AcDbLine
 10
6.466243283237623
 20
2.578558081522496
 30
0.0
 11
6.474117298985655
 21
2.627770679947692
 31
0.0
  0
LINE
  5
78B
330
1E
100
AcDbEntity
  8
0
100
AcDbLine
 10
6.253644858040773
 20
2.627770679947692
 30
0.0
 11
6.263487377725812
 21
2.663203750813835
 31
0.0
  0
LINE
  5
78C
330
1E
100
AcDbEntity
  8
0
100
AcDbLine
 10
6.263487377725812
 20
2.663203750813835
 30
0.0
 11
6.287109424969907
 21
2.690762805931944
 31
0.0
  0
LINE
  5
78D
330
1E
100
AcDbEntity
  8
0
100
AcDbLine
 10
6.287109424969907
 20
2.690762805931944
 30
0.0
 11
6.32057399189904
 21
2.704542333491
 31
0.0
  0
LINE
  5
78E
330
1E
100
AcDbEntity
  8
0
100
AcDbLine
 10
6.32057399189904
 20
2.704542333491
 30
0.0
 11
6.35797556670219
 21
2.698636821679976
 31
0.0
  0
LINE
  5
78F
330
1E
100
AcDbEntity
  8
0
100
AcDbLine
 10
6.35797556670219
 20
2.698636821679976
 30
0.0
 11
6.387503125757309
 21
2.678951782309898
 31
0.0
  0
LINE
  5
790
330
1E
100
AcDbEntity
  8
0
100
AcDbLine
 10
6.387503125757309
 20
2.678951782309898
 30
0.0
 11
6.405219661190379
 21
2.645487215380764
 31
0.0
  0
LINE
  5
791
330
1E
100
AcDbEntity
  8
0
100
AcDbLine
 10
6.405219661190379
 20
2.645487215380764
 30
0.0
 11
6.405219661190379
 21
2.610054144514622
 31
0.0
  0
LINE
  5
792
330
1E
100
AcDbEntity
  8
0
100
AcDbLine
 10
6.405219661190379
 20
2.610054144514622
 30
0.0
 11
6.387503125757309
 21
2.576589577585489
 31
0.0
  0
LINE
  5
793
330
1E
100
AcDbEntity
  8
0
100
AcDbLine
 10
6.387503125757309
 20
2.576589577585489
 30
0.0
 11
6.35797556670219
 21
2.556904538215409
 31
0.0
  0
LINE
  5
794
330
1E
100
AcDbEntity
  8
0
100
AcDbLine
 10
6.35797556670219
 20
2.556904538215409
 30
0.0
 11
6.32057399189904
 21
2.550999026404385
 31
0.0
  0
LINE
  5
795
330
1E
100
AcDbEntity
  8
0
100
AcDbLine
 10
6.32057399189904
 20
2.550999026404385
 30
0.0
 11
6.287109424969907
 21
2.56477855396344
 31
0.0
  0
LINE
  5
796
330
1E
100
AcDbEntity
  8
0
100
AcDbLine
 10
6.287109424969907
 20
2.56477855396344
 30
0.0
 11
6.263487377725812
 21
2.592337609081551
 31
0.0
  0
LINE
  5
797
330
1E
100
AcDbEntity
  8
0
100
AcDbLine
 10
6.263487377725812
 20
2.592337609081551
 30
0.0
 11
6.253644858040773
 21
2.627770679947692
 31
0.0
  0
LINE
  5
798
330
1E
100
AcDbEntity
  8
0
100
AcDbLine
 10
6.255613361977781
 20
2.627770679947692
 30
0.0
 11
6.263487377725812
 21
2.663203750813835
 31
0.0
  0
LINE
  5
799
330
1E
100
AcDbEntity
  8
0
100
AcDbLine
 10
6.263487377725812
 20
2.663203750813835
 30
0.0
 11
6.287109424969907
 21
2.690762805931944
 31
0.0
  0
LINE
  5
79A
330
1E
100
AcDbEntity
  8
0
100
AcDbLine
 10
6.287109424969907
 20
2.690762805931944
 30
0.0
 11
6.32057399189904
 21
2.702573829553992
 31
0.0
  0
LINE
  5
79B
330
1E
100
AcDbEntity
  8
0
100
AcDbLine
 10
6.32057399189904
 20
2.702573829553992
 30
0.0
 11
6.35797556670219
 21
2.698636821679976
 31
0.0
  0
LINE
  5
79C
330
1E
100
AcDbEntity
  8
0
100
AcDbLine
 10
6.35797556670219
 20
2.698636821679976
 30
0.0
 11
6.387503125757309
 21
2.67698327837289
 31
0.0
  0
LINE
  5
79D
330
1E
100
AcDbEntity
  8
0
100
AcDbLine
 10
6.387503125757309
 20
2.67698327837289
 30
0.0
 11
6.403251157253372
 21
2.645487215380764
 31
0.0
  0
LINE
  5
79E
330
1E
100
AcDbEntity
  8
0
100
AcDbLine
 10
6.403251157253372
 20
2.645487215380764
 30
0.0
 11
6.403251157253372
 21
2.610054144514622
 31
0.0
  0
LINE
  5
79F
330
1E
100
AcDbEntity
  8
0
100
AcDbLine
 10
6.403251157253372
 20
2.610054144514622
 30
0.0
 11
6.387503125757309
 21
2.578558081522496
 31
0.0
  0
LINE
  5
7A0
330
1E
100
AcDbEntity
  8
0
100
AcDbLine
 10
6.387503125757309
 20
2.578558081522496
 30
0.0
 11
6.35797556670219
 21
2.556904538215409
 31
0.0
  0
LINE
  5
7A1
330
1E
100
AcDbEntity
  8
0
100
AcDbLine
 10
6.35797556670219
 20
2.556904538215409
 30
0.0
 11
6.32057399189904
 21
2.552967530341394
 31
0.0
  0
LINE
  5
7A2
330
1E
100
AcDbEntity
  8
0
100
AcDbLine
 10
6.32057399189904
 20
2.552967530341394
 30
0.0
 11
6.287109424969907
 21
2.566747057900448
 31
0.0
  0
LINE
  5
7A3
330
1E
100
AcDbEntity
  8
0
100
AcDbLine
 10
6.287109424969907
 20
2.566747057900448
 30
0.0
 11
6.263487377725812
 21
2.592337609081551
 31
0.0
  0
LINE
  5
7A4
330
1E
100
AcDbEntity
  8
0
100
AcDbLine
 10
6.263487377725812
 20
2.592337609081551
 30
0.0
 11
6.255613361977781
 21
2.627770679947692
 31
0.0
  0
LINE
  5
7A5
330
1E
100
AcDbEntity
  8
0
100
AcDbLine
 10
4.879629110009277
 20
2.627770679947692
 30
0.0
 11
4.889471629694316
 21
2.675014774435881
 31
0.0
  0
LINE
  5
7A6
330
1E
100
AcDbEntity
  8
0
100
AcDbLine
 10
4.889471629694316
 20
2.675014774435881
 30
0.0
 11
4.913093676938411
 21
2.718321861050055
 31
0.0
  0
LINE
  5
7A7
330
1E
100
AcDbEntity
  8
0
100
AcDbLine
 10
4.913093676938411
 20
2.718321861050055
 30
0.0
 11
4.950495251741561
 21
2.749817924042181
 31
0.0
  0
LINE
  5
7A8
330
1E
100
AcDbEntity
  8
0
100
AcDbLine
 10
4.950495251741561
 20
2.749817924042181
 30
0.0
 11
4.995770842292742
 21
2.765565955538244
 31
0.0
  0
LINE
  5
7A9
330
1E
100
AcDbEntity
  8
0
100
AcDbLine
 10
4.995770842292742
 20
2.765565955538244
 30
0.0
 11
5.044983440717938
 21
2.765565955538244
 31
0.0
  0
LINE
  5
7AA
330
1E
100
AcDbEntity
  8
0
100
AcDbLine
 10
5.044983440717938
 20
2.765565955538244
 30
0.0
 11
5.09025903126912
 21
2.749817924042181
 31
0.0
  0
LINE
  5
7AB
330
1E
100
AcDbEntity
  8
0
100
AcDbLine
 10
5.09025903126912
 20
2.749817924042181
 30
0.0
 11
5.12766060607227
 21
2.718321861050055
 31
0.0
  0
LINE
  5
7AC
330
1E
100
AcDbEntity
  8
0
100
AcDbLine
 10
5.12766060607227
 20
2.718321861050055
 30
0.0
 11
5.151282653316364
 21
2.675014774435881
 31
0.0
  0
LINE
  5
7AD
330
1E
100
AcDbEntity
  8
0
100
AcDbLine
 10
5.151282653316364
 20
2.675014774435881
 30
0.0
 11
5.161125173001403
 21
2.627770679947692
 31
0.0
  0
LINE
  5
7AE
330
1E
100
AcDbEntity
  8
0
100
AcDbLine
 10
5.161125173001403
 20
2.627770679947692
 30
0.0
 11
5.151282653316364
 21
2.580526585459503
 31
0.0
  0
LINE
  5
7AF
330
1E
100
AcDbEntity
  8
0
100
AcDbLine
 10
5.151282653316364
 20
2.580526585459503
 30
0.0
 11
5.12766060607227
 21
2.537219498845331
 31
0.0
  0
LINE
  5
7B0
330
1E
100
AcDbEntity
  8
0
100
AcDbLine
 10
5.12766060607227
 20
2.537219498845331
 30
0.0
 11
5.09025903126912
 21
2.505723435853205
 31
0.0
  0
LINE
  5
7B1
330
1E
100
AcDbEntity
  8
0
100
AcDbLine
 10
5.09025903126912
 20
2.505723435853205
 30
0.0
 11
5.044983440717938
 21
2.489975404357142
 31
0.0
  0
LINE
  5
7B2
330
1E
100
AcDbEntity
  8
0
100
AcDbLine
 10
5.044983440717938
 20
2.489975404357142
 30
0.0
 11
4.995770842292742
 21
2.489975404357142
 31
0.0
  0
LINE
  5
7B3
330
1E
100
AcDbEntity
  8
0
100
AcDbLine
 10
4.995770842292742
 20
2.489975404357142
 30
0.0
 11
4.950495251741561
 21
2.505723435853205
 31
0.0
  0
LINE
  5
7B4
330
1E
100
AcDbEntity
  8
0
100
AcDbLine
 10
4.950495251741561
 20
2.505723435853205
 30
0.0
 11
4.913093676938411
 21
2.537219498845331
 31
0.0
  0
LINE
  5
7B5
330
1E
100
AcDbEntity
  8
0
100
AcDbLine
 10
4.913093676938411
 20
2.537219498845331
 30
0.0
 11
4.889471629694316
 21
2.580526585459503
 31
0.0
  0
LINE
  5
7B6
330
1E
100
AcDbEntity
  8
0
100
AcDbLine
 10
4.889471629694316
 20
2.580526585459503
 30
0.0
 11
4.879629110009277
 21
2.627770679947692
 31
0.0
  0
LINE
  5
7B7
330
1E
100
AcDbEntity
  8
0
100
AcDbLine
 10
5.16506218087542
 20
2.627770679947692
 30
0.0
 11
5.157188165127388
 21
2.67698327837289
 31
0.0
  0
LINE
  5
7B8
330
1E
100
AcDbEntity
  8
0
100
AcDbLine
 10
5.157188165127388
 20
2.67698327837289
 30
0.0
 11
5.131597613946285
 21
2.720290364987063
 31
0.0
  0
LINE
  5
7B9
330
1E
100
AcDbEntity
  8
0
100
AcDbLine
 10
5.131597613946285
 20
2.720290364987063
 30
0.0
 11
5.092227535206127
 21
2.753754931916196
 31
0.0
  0
LINE
  5
7BA
330
1E
100
AcDbEntity
  8
0
100
AcDbLine
 10
5.092227535206127
 20
2.753754931916196
 30
0.0
 11
5.044983440717938
 21
2.769502963412259
 31
0.0
  0
LINE
  5
7BB
330
1E
100
AcDbEntity
  8
0
100
AcDbLine
 10
5.044983440717938
 20
2.769502963412259
 30
0.0
 11
4.995770842292742
 21
2.769502963412259
 31
0.0
  0
LINE
  5
7BC
330
1E
100
AcDbEntity
  8
0
100
AcDbLine
 10
4.995770842292742
 20
2.769502963412259
 30
0.0
 11
4.948526747804553
 21
2.753754931916196
 31
0.0
  0
LINE
  5
7BD
330
1E
100
AcDbEntity
  8
0
100
AcDbLine
 10
4.948526747804553
 20
2.753754931916196
 30
0.0
 11
4.909156669064396
 21
2.720290364987063
 31
0.0
  0
LINE
  5
7BE
330
1E
100
AcDbEntity
  8
0
100
AcDbLine
 10
4.909156669064396
 20
2.720290364987063
 30
0.0
 11
4.885534621820301
 21
2.67698327837289
 31
0.0
  0
LINE
  5
7BF
330
1E
100
AcDbEntity
  8
0
100
AcDbLine
 10
4.885534621820301
 20
2.67698327837289
 30
0.0
 11
4.875692102135261
 21
2.627770679947692
 31
0.0
  0
LINE
  5
7C0
330
1E
100
AcDbEntity
  8
0
100
AcDbLine
 10
4.875692102135261
 20
2.627770679947692
 30
0.0
 11
4.885534621820301
 21
2.578558081522496
 31
0.0
  0
LINE
  5
7C1
330
1E
100
AcDbEntity
  8
0
100
AcDbLine
 10
4.885534621820301
 20
2.578558081522496
 30
0.0
 11
4.909156669064396
 21
2.535250994908322
 31
0.0
  0
LINE
  5
7C2
330
1E
100
AcDbEntity
  8
0
100
AcDbLine
 10
4.909156669064396
 20
2.535250994908322
 30
0.0
 11
4.948526747804553
 21
2.501786427979189
 31
0.0
  0
LINE
  5
7C3
330
1E
100
AcDbEntity
  8
0
100
AcDbLine
 10
4.948526747804553
 20
2.501786427979189
 30
0.0
 11
4.995770842292742
 21
2.486038396483126
 31
0.0
  0
LINE
  5
7C4
330
1E
100
AcDbEntity
  8
0
100
AcDbLine
 10
4.995770842292742
 20
2.486038396483126
 30
0.0
 11
5.044983440717938
 21
2.486038396483126
 31
0.0
  0
LINE
  5
7C5
330
1E
100
AcDbEntity
  8
0
100
AcDbLine
 10
5.044983440717938
 20
2.486038396483126
 30
0.0
 11
5.092227535206127
 21
2.501786427979189
 31
0.0
  0
LINE
  5
7C6
330
1E
100
AcDbEntity
  8
0
100
AcDbLine
 10
5.092227535206127
 20
2.501786427979189
 30
0.0
 11
5.131597613946285
 21
2.535250994908322
 31
0.0
  0
LINE
  5
7C7
330
1E
100
AcDbEntity
  8
0
100
AcDbLine
 10
5.131597613946285
 20
2.535250994908322
 30
0.0
 11
5.157188165127388
 21
2.578558081522496
 31
0.0
  0
LINE
  5
7C8
330
1E
100
AcDbEntity
  8
0
100
AcDbLine
 10
5.157188165127388
 20
2.578558081522496
 30
0.0
 11
5.16506218087542
 21
2.627770679947692
 31
0.0
  0
LINE
  5
7C9
330
1E
100
AcDbEntity
  8
0
100
AcDbLine
 10
4.944589739930536
 20
2.627770679947692
 30
0.0
 11
4.952463755678568
 21
2.663203750813835
 31
0.0
  0
LINE
  5
7CA
330
1E
100
AcDbEntity
  8
0
100
AcDbLine
 10
4.952463755678568
 20
2.663203750813835
 30
0.0
 11
4.976085802922662
 21
2.690762805931944
 31
0.0
  0
LINE
  5
7CB
330
1E
100
AcDbEntity
  8
0
100
AcDbLine
 10
4.976085802922662
 20
2.690762805931944
 30
0.0
 11
5.011518873788805
 21
2.704542333491
 31
0.0
  0
LINE
  5
7CC
330
1E
100
AcDbEntity
  8
0
100
AcDbLine
 10
5.011518873788805
 20
2.704542333491
 30
0.0
 11
5.046951944654946
 21
2.698636821679976
 31
0.0
  0
LINE
  5
7CD
330
1E
100
AcDbEntity
  8
0
100
AcDbLine
 10
5.046951944654946
 20
2.698636821679976
 30
0.0
 11
5.078448007647072
 21
2.678951782309898
 31
0.0
  0
LINE
  5
7CE
330
1E
100
AcDbEntity
  8
0
100
AcDbLine
 10
5.078448007647072
 20
2.678951782309898
 30
0.0
 11
5.094196039143135
 21
2.645487215380764
 31
0.0
  0
LINE
  5
7CF
330
1E
100
AcDbEntity
  8
0
100
AcDbLine
 10
5.094196039143135
 20
2.645487215380764
 30
0.0
 11
5.094196039143135
 21
2.610054144514622
 31
0.0
  0
LINE
  5
7D0
330
1E
100
AcDbEntity
  8
0
100
AcDbLine
 10
5.094196039143135
 20
2.610054144514622
 30
0.0
 11
5.078448007647072
 21
2.576589577585489
 31
0.0
  0
LINE
  5
7D1
330
1E
100
AcDbEntity
  8
0
100
AcDbLine
 10
5.078448007647072
 20
2.576589577585489
 30
0.0
 11
5.046951944654946
 21
2.556904538215409
 31
0.0
  0
LINE
  5
7D2
330
1E
100
AcDbEntity
  8
0
100
AcDbLine
 10
5.046951944654946
 20
2.556904538215409
 30
0.0
 11
5.011518873788805
 21
2.550999026404385
 31
0.0
  0
LINE
  5
7D3
330
1E
100
AcDbEntity
  8
0
100
AcDbLine
 10
5.011518873788805
 20
2.550999026404385
 30
0.0
 11
4.976085802922662
 21
2.56477855396344
 31
0.0
  0
LINE
  5
7D4
330
1E
100
AcDbEntity
  8
0
100
AcDbLine
 10
4.976085802922662
 20
2.56477855396344
 30
0.0
 11
4.952463755678568
 21
2.592337609081551
 31
0.0
  0
LINE
  5
7D5
330
1E
100
AcDbEntity
  8
0
100
AcDbLine
 10
4.952463755678568
 20
2.592337609081551
 30
0.0
 11
4.944589739930536
 21
2.627770679947692
 31
0.0
  0
LINE
  5
7D6
330
1E
100
AcDbEntity
  8
0
100
AcDbLine
 10
4.787109424969907
 20
6.976195876798087
 30
0.0
 11
4.702463755678568
 21
7.045093514593363
 31
0.0
  0
LINE
  5
7D7
330
1E
100
AcDbEntity
  8
0
100
AcDbLine
 10
4.702463755678568
 20
7.045093514593363
 30
0.0
 11
4.621755094261246
 21
7.113991152388637
 31
0.0
  0
LINE
  5
7D8
330
1E
100
AcDbEntity
  8
0
100
AcDbLine
 10
4.621755094261246
 20
7.113991152388637
 30
0.0
 11
4.543014936780931
 21
7.178951782309898
 31
0.0
  0
LINE
  5
7D9
330
1E
100
AcDbEntity
  8
0
100
AcDbLine
 10
4.543014936780931
 20
7.178951782309898
 30
0.0
 11
4.468211787174631
 21
7.239975404357142
 31
0.0
  0
LINE
  5
7DA
330
1E
100
AcDbEntity
  8
0
100
AcDbLine
 10
4.468211787174631
 20
7.239975404357142
 30
0.0
 11
4.401282653316364
 21
7.29706201853037
 31
0.0
  0
LINE
  5
7DB
330
1E
100
AcDbEntity
  8
0
100
AcDbLine
 10
4.401282653316364
 20
7.29706201853037
 30
0.0
 11
4.34025903126912
 21
7.346274616955566
 31
0.0
  0
LINE
  5
7DC
330
1E
100
AcDbEntity
  8
0
100
AcDbLine
 10
4.34025903126912
 20
7.346274616955566
 30
0.0
 11
4.289077928906914
 21
7.38958170356974
 31
0.0
  0
LINE
  5
7DD
330
1E
100
AcDbEntity
  8
0
100
AcDbLine
 10
4.289077928906914
 20
7.38958170356974
 30
0.0
 11
4.247739346229749
 21
7.425014774435881
 31
0.0
  0
LINE
  5
7DE
330
1E
100
AcDbEntity
  8
0
100
AcDbLine
 10
4.247739346229749
 20
7.425014774435881
 30
0.0
 11
4.216243283237623
 21
7.450605325616985
 31
0.0
  0
LINE
  5
7DF
330
1E
100
AcDbEntity
  8
0
100
AcDbLine
 10
4.216243283237623
 20
7.450605325616985
 30
0.0
 11
4.196558243867546
 21
7.468321861050055
 31
0.0
  0
LINE
  5
7E0
330
1E
100
AcDbEntity
  8
0
100
AcDbLine
 10
4.196558243867546
 20
7.468321861050055
 30
0.0
 11
4.186715724182505
 21
7.474227372861079
 31
0.0
  0
LINE
  5
7E1
330
1E
100
AcDbEntity
  8
0
100
AcDbLine
 10
6.564668480088018
 20
2.381707687821709
 30
0.0
 11
6.667030684812427
 21
2.381707687821709
 31
0.0
  0
LINE
  5
7E2
330
1E
100
AcDbEntity
  8
0
100
AcDbLine
 10
6.667030684812427
 20
2.381707687821709
 30
0.0
 11
6.76545588166282
 21
2.379739183884701
 31
0.0
  0
LINE
  5
7E3
330
1E
100
AcDbEntity
  8
0
100
AcDbLine
 10
6.76545588166282
 20
2.379739183884701
 30
0.0
 11
6.85797556670219
 21
2.379739183884701
 31
0.0
  0
LINE
  5
7E4
330
1E
100
AcDbEntity
  8
0
100
AcDbLine
 10
6.85797556670219
 20
2.379739183884701
 30
0.0
 11
6.942621235993529
 21
2.377770679947692
 31
0.0
  0
LINE
  5
7E5
330
1E
100
AcDbEntity
  8
0
100
AcDbLine
 10
6.942621235993529
 20
2.377770679947692
 30
0.0
 11
7.017424385599829
 21
2.375802176010685
 31
0.0
  0
LINE
  5
7E6
330
1E
100
AcDbEntity
  8
0
100
AcDbLine
 10
7.017424385599829
 20
2.375802176010685
 30
0.0
 11
7.076479503710064
 21
2.373833672073677
 31
0.0
  0
LINE
  5
7E7
330
1E
100
AcDbEntity
  8
0
100
AcDbLine
 10
7.076479503710064
 20
2.373833672073677
 30
0.0
 11
7.121755094261246
 21
2.369896664199661
 31
0.0
  0
LINE
  5
7E8
330
1E
100
AcDbEntity
  8
0
100
AcDbLine
 10
7.121755094261246
 20
2.369896664199661
 30
0.0
 11
7.151282653316364
 21
2.367928160262653
 31
0.0
  0
LINE
  5
7E9
330
1E
100
AcDbEntity
  8
0
100
AcDbLine
 10
7.151282653316364
 20
2.367928160262653
 30
0.0
 11
7.163093676938411
 21
2.363991152388638
 31
0.0
  0
LINE
  5
7EA
330
1E
100
AcDbEntity
  8
0
100
AcDbLine
 10
7.064668480088018
 20
2.265565955538244
 30
0.0
 11
7.113881078513214
 21
2.27737697916029
 31
0.0
  0
LINE
  5
7EB
330
1E
100
AcDbEntity
  8
0
100
AcDbLine
 10
7.113881078513214
 20
2.27737697916029
 30
0.0
 11
7.151282653316364
 21
2.31477855396344
 31
0.0
  0
LINE
  5
7EC
330
1E
100
AcDbEntity
  8
0
100
AcDbLine
 10
7.151282653316364
 20
2.31477855396344
 30
0.0
 11
7.163093676938411
 21
2.363991152388638
 31
0.0
  0
LINE
  5
7ED
330
1E
100
AcDbEntity
  8
0
100
AcDbLine
 10
4.287109424969907
 20
2.265565955538244
 30
0.0
 11
4.237896826544711
 21
2.27737697916029
 31
0.0
  0
LINE
  5
7EE
330
1E
100
AcDbEntity
  8
0
100
AcDbLine
 10
4.237896826544711
 20
2.27737697916029
 30
0.0
 11
4.200495251741561
 21
2.31477855396344
 31
0.0
  0
LINE
  5
7EF
330
1E
100
AcDbEntity
  8
0
100
AcDbLine
 10
4.200495251741561
 20
2.31477855396344
 30
0.0
 11
4.186715724182505
 21
2.363991152388638
 31
0.0
  0
LINE
  5
7F0
330
1E
100
AcDbEntity
  8
0
100
AcDbLine
 10
4.186715724182505
 20
2.363991152388638
 30
0.0
 11
4.198526747804553
 21
2.367928160262653
 31
0.0
  0
LINE
  5
7F1
330
1E
100
AcDbEntity
  8
0
100
AcDbLine
 10
4.198526747804553
 20
2.367928160262653
 30
0.0
 11
4.228054306859672
 21
2.369896664199661
 31
0.0
  0
LINE
  5
7F2
330
1E
100
AcDbEntity
  8
0
100
AcDbLine
 10
4.228054306859672
 20
2.369896664199661
 30
0.0
 11
4.273329897410851
 21
2.373833672073677
 31
0.0
  0
LINE
  5
7F3
330
1E
100
AcDbEntity
  8
0
100
AcDbLine
 10
4.273329897410851
 20
2.373833672073677
 30
0.0
 11
4.334353519458096
 21
2.375802176010685
 31
0.0
  0
LINE
  5
7F4
330
1E
100
AcDbEntity
  8
0
100
AcDbLine
 10
4.334353519458096
 20
2.375802176010685
 30
0.0
 11
4.407188165127388
 21
2.377770679947692
 31
0.0
  0
LINE
  5
7F5
330
1E
100
AcDbEntity
  8
0
100
AcDbLine
 10
4.407188165127388
 20
2.377770679947692
 30
0.0
 11
4.491833834418725
 21
2.379739183884701
 31
0.0
  0
LINE
  5
7F6
330
1E
100
AcDbEntity
  8
0
100
AcDbLine
 10
4.491833834418725
 20
2.379739183884701
 30
0.0
 11
4.586322023395103
 21
2.379739183884701
 31
0.0
  0
LINE
  5
7F7
330
1E
100
AcDbEntity
  8
0
100
AcDbLine
 10
4.586322023395103
 20
2.379739183884701
 30
0.0
 11
4.684747220245498
 21
2.381707687821709
 31
0.0
  0
LINE
  5
7F8
330
1E
100
AcDbEntity
  8
0
100
AcDbLine
 10
4.684747220245498
 20
2.381707687821709
 30
0.0
 11
4.787109424969907
 21
2.381707687821709
 31
0.0
  0
LINE
  5
7F9
330
1E
100
AcDbEntity
  8
0
100
AcDbLine
 10
7.064668480088018
 20
2.265565955538244
 30
0.0
 11
7.054825960402977
 21
2.267534459475252
 31
0.0
  0
LINE
  5
7FA
330
1E
100
AcDbEntity
  8
0
100
AcDbLine
 10
7.054825960402977
 20
2.267534459475252
 30
0.0
 11
7.029235409221875
 21
2.271471467349267
 31
0.0
  0
LINE
  5
7FB
330
1E
100
AcDbEntity
  8
0
100
AcDbLine
 10
7.029235409221875
 20
2.271471467349267
 30
0.0
 11
6.991833834418725
 21
2.273439971286276
 31
0.0
  0
LINE
  5
7FC
330
1E
100
AcDbEntity
  8
0
100
AcDbLine
 10
6.991833834418725
 20
2.273439971286276
 30
0.0
 11
6.940652732056522
 21
2.275408475223283
 31
0.0
  0
LINE
  5
7FD
330
1E
100
AcDbEntity
  8
0
100
AcDbLine
 10
6.940652732056522
 20
2.275408475223283
 30
0.0
 11
6.879629110009277
 21
2.27737697916029
 31
0.0
  0
LINE
  5
7FE
330
1E
100
AcDbEntity
  8
0
100
AcDbLine
 10
6.879629110009277
 20
2.27737697916029
 30
0.0
 11
6.808762968276994
 21
2.2793454830973
 31
0.0
  0
LINE
  5
7FF
330
1E
100
AcDbEntity
  8
0
100
AcDbLine
 10
6.808762968276994
 20
2.2793454830973
 30
0.0
 11
6.731991314733686
 21
2.281313987034307
 31
0.0
  0
LINE
  5
800
330
1E
100
AcDbEntity
  8
0
100
AcDbLine
 10
6.731991314733686
 20
2.281313987034307
 30
0.0
 11
6.649314149379357
 21
2.281313987034307
 31
0.0
  0
LINE
  5
801
330
1E
100
AcDbEntity
  8
0
100
AcDbLine
 10
6.649314149379357
 20
2.281313987034307
 30
0.0
 11
6.564668480088018
 21
2.281313987034307
 31
0.0
  0
LINE
  5
802
330
1E
100
AcDbEntity
  8
0
100
AcDbLine
 10
6.861912574576207
 20
2.263597451601236
 30
0.0
 11
6.832385015521088
 21
2.265565955538244
 31
0.0
  0
LINE
  5
803
330
1E
100
AcDbEntity
  8
0
100
AcDbLine
 10
6.832385015521088
 20
2.265565955538244
 30
0.0
 11
6.791046432843923
 21
2.267534459475252
 31
0.0
  0
LINE
  5
804
330
1E
100
AcDbEntity
  8
0
100
AcDbLine
 10
6.791046432843923
 20
2.267534459475252
 30
0.0
 11
6.741833834418725
 21
2.267534459475252
 31
0.0
  0
LINE
  5
805
330
1E
100
AcDbEntity
  8
0
100
AcDbLine
 10
6.741833834418725
 20
2.267534459475252
 30
0.0
 11
6.686715724182505
 21
2.267534459475252
 31
0.0
  0
LINE
  5
806
330
1E
100
AcDbEntity
  8
0
100
AcDbLine
 10
6.686715724182505
 20
2.267534459475252
 30
0.0
 11
6.629629110009277
 21
2.267534459475252
 31
0.0
  0
LINE
  5
807
330
1E
100
AcDbEntity
  8
0
100
AcDbLine
 10
6.629629110009277
 20
2.267534459475252
 30
0.0
 11
6.574510999773057
 21
2.267534459475252
 31
0.0
  0
LINE
  5
808
330
1E
100
AcDbEntity
  8
0
100
AcDbLine
 10
6.574510999773057
 20
2.267534459475252
 30
0.0
 11
6.52529840134786
 21
2.267534459475252
 31
0.0
  0
LINE
  5
809
330
1E
100
AcDbEntity
  8
0
100
AcDbLine
 10
6.52529840134786
 20
2.267534459475252
 30
0.0
 11
6.483959818670694
 21
2.265565955538244
 31
0.0
  0
LINE
  5
80A
330
1E
100
AcDbEntity
  8
0
100
AcDbLine
 10
6.483959818670694
 20
2.265565955538244
 30
0.0
 11
6.452463755678568
 21
2.263597451601236
 31
0.0
  0
LINE
  5
80B
330
1E
100
AcDbEntity
  8
0
100
AcDbLine
 10
6.208369267489592
 20
2.263597451601236
 30
0.0
 11
6.178841708434474
 21
2.265565955538244
 31
0.0
  0
LINE
  5
80C
330
1E
100
AcDbEntity
  8
0
100
AcDbLine
 10
6.178841708434474
 20
2.265565955538244
 30
0.0
 11
6.137503125757309
 21
2.267534459475252
 31
0.0
  0
LINE
  5
80D
330
1E
100
AcDbEntity
  8
0
100
AcDbLine
 10
6.137503125757309
 20
2.267534459475252
 30
0.0
 11
6.086322023395103
 21
2.267534459475252
 31
0.0
  0
LINE
  5
80E
330
1E
100
AcDbEntity
  8
0
100
AcDbLine
 10
6.086322023395103
 20
2.267534459475252
 30
0.0
 11
6.031203913158883
 21
2.267534459475252
 31
0.0
  0
LINE
  5
80F
330
1E
100
AcDbEntity
  8
0
100
AcDbLine
 10
6.031203913158883
 20
2.267534459475252
 30
0.0
 11
5.974117298985655
 21
2.267534459475252
 31
0.0
  0
LINE
  5
810
330
1E
100
AcDbEntity
  8
0
100
AcDbLine
 10
5.974117298985655
 20
2.267534459475252
 30
0.0
 11
5.918999188749435
 21
2.267534459475252
 31
0.0
  0
LINE
  5
811
330
1E
100
AcDbEntity
  8
0
100
AcDbLine
 10
5.918999188749435
 20
2.267534459475252
 30
0.0
 11
5.869786590324238
 21
2.267534459475252
 31
0.0
  0
LINE
  5
812
330
1E
100
AcDbEntity
  8
0
100
AcDbLine
 10
5.869786590324238
 20
2.267534459475252
 30
0.0
 11
5.828448007647072
 21
2.265565955538244
 31
0.0
  0
LINE
  5
813
330
1E
100
AcDbEntity
  8
0
100
AcDbLine
 10
5.828448007647072
 20
2.265565955538244
 30
0.0
 11
5.798920448591955
 21
2.263597451601236
 31
0.0
  0
LINE
  5
814
330
1E
100
AcDbEntity
  8
0
100
AcDbLine
 10
5.55285745646597
 20
2.263597451601236
 30
0.0
 11
5.523329897410851
 21
2.265565955538244
 31
0.0
  0
LINE
  5
815
330
1E
100
AcDbEntity
  8
0
100
AcDbLine
 10
5.523329897410851
 20
2.265565955538244
 30
0.0
 11
5.481991314733686
 21
2.267534459475252
 31
0.0
  0
LINE
  5
816
330
1E
100
AcDbEntity
  8
0
100
AcDbLine
 10
5.481991314733686
 20
2.267534459475252
 30
0.0
 11
5.430810212371483
 21
2.267534459475252
 31
0.0
  0
LINE
  5
817
330
1E
100
AcDbEntity
  8
0
100
AcDbLine
 10
5.430810212371483
 20
2.267534459475252
 30
0.0
 11
5.375692102135261
 21
2.267534459475252
 31
0.0
  0
LINE
  5
818
330
1E
100
AcDbEntity
  8
0
100
AcDbLine
 10
5.375692102135261
 20
2.267534459475252
 30
0.0
 11
5.318605487962033
 21
2.267534459475252
 31
0.0
  0
LINE
  5
819
330
1E
100
AcDbEntity
  8
0
100
AcDbLine
 10
5.318605487962033
 20
2.267534459475252
 30
0.0
 11
5.263487377725812
 21
2.267534459475252
 31
0.0
  0
LINE
  5
81A
330
1E
100
AcDbEntity
  8
0
100
AcDbLine
 10
5.263487377725812
 20
2.267534459475252
 30
0.0
 11
5.214274779300616
 21
2.267534459475252
 31
0.0
  0
LINE
  5
81B
330
1E
100
AcDbEntity
  8
0
100
AcDbLine
 10
5.214274779300616
 20
2.267534459475252
 30
0.0
 11
5.172936196623451
 21
2.265565955538244
 31
0.0
  0
LINE
  5
81C
330
1E
100
AcDbEntity
  8
0
100
AcDbLine
 10
5.172936196623451
 20
2.265565955538244
 30
0.0
 11
5.143408637568333
 21
2.263597451601236
 31
0.0
  0
LINE
  5
81D
330
1E
100
AcDbEntity
  8
0
100
AcDbLine
 10
4.897345645442348
 20
2.263597451601236
 30
0.0
 11
4.867818086387229
 21
2.265565955538244
 31
0.0
  0
LINE
  5
81E
330
1E
100
AcDbEntity
  8
0
100
AcDbLine
 10
4.867818086387229
 20
2.265565955538244
 30
0.0
 11
4.826479503710064
 21
2.267534459475252
 31
0.0
  0
LINE
  5
81F
330
1E
100
AcDbEntity
  8
0
100
AcDbLine
 10
4.826479503710064
 20
2.267534459475252
 30
0.0
 11
4.777266905284868
 21
2.267534459475252
 31
0.0
  0
LINE
  5
820
330
1E
100
AcDbEntity
  8
0
100
AcDbLine
 10
4.777266905284868
 20
2.267534459475252
 30
0.0
 11
4.722148795048648
 21
2.267534459475252
 31
0.0
  0
LINE
  5
821
330
1E
100
AcDbEntity
  8
0
100
AcDbLine
 10
4.722148795048648
 20
2.267534459475252
 30
0.0
 11
4.66506218087542
 21
2.267534459475252
 31
0.0
  0
LINE
  5
822
330
1E
100
AcDbEntity
  8
0
100
AcDbLine
 10
4.66506218087542
 20
2.267534459475252
 30
0.0
 11
4.609944070639198
 21
2.267534459475252
 31
0.0
  0
LINE
  5
823
330
1E
100
AcDbEntity
  8
0
100
AcDbLine
 10
4.609944070639198
 20
2.267534459475252
 30
0.0
 11
4.558762968276994
 21
2.267534459475252
 31
0.0
  0
LINE
  5
824
330
1E
100
AcDbEntity
  8
0
100
AcDbLine
 10
4.558762968276994
 20
2.267534459475252
 30
0.0
 11
4.517424385599829
 21
2.265565955538244
 31
0.0
  0
LINE
  5
825
330
1E
100
AcDbEntity
  8
0
100
AcDbLine
 10
4.517424385599829
 20
2.265565955538244
 30
0.0
 11
4.487896826544711
 21
2.263597451601236
 31
0.0
  0
LINE
  5
826
330
1E
100
AcDbEntity
  8
0
100
AcDbLine
 10
4.787109424969907
 20
2.281313987034307
 30
0.0
 11
4.702463755678568
 21
2.281313987034307
 31
0.0
  0
LINE
  5
827
330
1E
100
AcDbEntity
  8
0
100
AcDbLine
 10
4.702463755678568
 20
2.281313987034307
 30
0.0
 11
4.619786590324238
 21
2.281313987034307
 31
0.0
  0
LINE
  5
828
330
1E
100
AcDbEntity
  8
0
100
AcDbLine
 10
4.619786590324238
 20
2.281313987034307
 30
0.0
 11
4.541046432843923
 21
2.2793454830973
 31
0.0
  0
LINE
  5
829
330
1E
100
AcDbEntity
  8
0
100
AcDbLine
 10
4.541046432843923
 20
2.2793454830973
 30
0.0
 11
4.47018029111164
 21
2.27737697916029
 31
0.0
  0
LINE
  5
82A
330
1E
100
AcDbEntity
  8
0
100
AcDbLine
 10
4.47018029111164
 20
2.27737697916029
 30
0.0
 11
4.409156669064396
 21
2.275408475223283
 31
0.0
  0
LINE
  5
82B
330
1E
100
AcDbEntity
  8
0
100
AcDbLine
 10
4.409156669064396
 20
2.275408475223283
 30
0.0
 11
4.359944070639198
 21
2.273439971286276
 31
0.0
  0
LINE
  5
82C
330
1E
100
AcDbEntity
  8
0
100
AcDbLine
 10
4.359944070639198
 20
2.273439971286276
 30
0.0
 11
4.32057399189904
 21
2.271471467349267
 31
0.0
  0
LINE
  5
82D
330
1E
100
AcDbEntity
  8
0
100
AcDbLine
 10
4.32057399189904
 20
2.271471467349267
 30
0.0
 11
4.296951944654946
 21
2.267534459475252
 31
0.0
  0
LINE
  5
82E
330
1E
100
AcDbEntity
  8
0
100
AcDbLine
 10
4.296951944654946
 20
2.267534459475252
 30
0.0
 11
4.287109424969907
 21
2.265565955538244
 31
0.0
  0
LINE
  5
82F
330
1E
100
AcDbEntity
  8
0
100
AcDbLine
 10
4.787109424969907
 20
2.281313987034307
 30
0.0
 11
4.787109424969907
 21
2.29706201853037
 31
0.0
  0
LINE
  5
830
330
1E
100
AcDbEntity
  8
0
100
AcDbLine
 10
4.787109424969907
 20
2.29706201853037
 30
0.0
 11
4.787109424969907
 21
2.332495089396511
 31
0.0
  0
LINE
  5
831
330
1E
100
AcDbEntity
  8
0
100
AcDbLine
 10
4.787109424969907
 20
2.332495089396511
 30
0.0
 11
4.787109424969907
 21
2.381707687821709
 31
0.0
  0
LINE
  5
832
330
1E
100
AcDbEntity
  8
0
100
AcDbLine
 10
6.564668480088018
 20
2.281313987034307
 30
0.0
 11
6.564668480088018
 21
2.29706201853037
 31
0.0
  0
LINE
  5
833
330
1E
100
AcDbEntity
  8
0
100
AcDbLine
 10
6.564668480088018
 20
2.29706201853037
 30
0.0
 11
6.564668480088018
 21
2.332495089396511
 31
0.0
  0
LINE
  5
834
330
1E
100
AcDbEntity
  8
0
100
AcDbLine
 10
6.564668480088018
 20
2.332495089396511
 30
0.0
 11
6.564668480088018
 21
2.381707687821709
 31
0.0
  0
LINE
  5
835
330
1E
100
AcDbEntity
  8
0
100
AcDbLine
 10
4.944589739930536
 20
2.627770679947692
 30
0.0
 11
4.954432259615577
 21
2.663203750813835
 31
0.0
  0
LINE
  5
836
330
1E
100
AcDbEntity
  8
0
100
AcDbLine
 10
4.954432259615577
 20
2.663203750813835
 30
0.0
 11
4.978054306859672
 21
2.690762805931944
 31
0.0
  0
LINE
  5
837
330
1E
100
AcDbEntity
  8
0
100
AcDbLine
 10
4.978054306859672
 20
2.690762805931944
 30
0.0
 11
5.011518873788805
 21
2.702573829553992
 31
0.0
  0
LINE
  5
838
330
1E
100
AcDbEntity
  8
0
100
AcDbLine
 10
5.011518873788805
 20
2.702573829553992
 30
0.0
 11
5.046951944654946
 21
2.698636821679976
 31
0.0
  0
LINE
  5
839
330
1E
100
AcDbEntity
  8
0
100
AcDbLine
 10
5.046951944654946
 20
2.698636821679976
 30
0.0
 11
5.076479503710064
 21
2.67698327837289
 31
0.0
  0
LINE
  5
83A
330
1E
100
AcDbEntity
  8
0
100
AcDbLine
 10
5.076479503710064
 20
2.67698327837289
 30
0.0
 11
5.094196039143135
 21
2.645487215380764
 31
0.0
  0
LINE
  5
83B
330
1E
100
AcDbEntity
  8
0
100
AcDbLine
 10
5.094196039143135
 20
2.645487215380764
 30
0.0
 11
5.094196039143135
 21
2.610054144514622
 31
0.0
  0
LINE
  5
83C
330
1E
100
AcDbEntity
  8
0
100
AcDbLine
 10
5.094196039143135
 20
2.610054144514622
 30
0.0
 11
5.076479503710064
 21
2.578558081522496
 31
0.0
  0
LINE
  5
83D
330
1E
100
AcDbEntity
  8
0
100
AcDbLine
 10
5.076479503710064
 20
2.578558081522496
 30
0.0
 11
5.046951944654946
 21
2.556904538215409
 31
0.0
  0
LINE
  5
83E
330
1E
100
AcDbEntity
  8
0
100
AcDbLine
 10
5.046951944654946
 20
2.556904538215409
 30
0.0
 11
5.011518873788805
 21
2.552967530341394
 31
0.0
  0
LINE
  5
83F
330
1E
100
AcDbEntity
  8
0
100
AcDbLine
 10
5.011518873788805
 20
2.552967530341394
 30
0.0
 11
4.978054306859672
 21
2.566747057900448
 31
0.0
  0
LINE
  5
840
330
1E
100
AcDbEntity
  8
0
100
AcDbLine
 10
4.978054306859672
 20
2.566747057900448
 30
0.0
 11
4.954432259615577
 21
2.592337609081551
 31
0.0
  0
LINE
  5
841
330
1E
100
AcDbEntity
  8
0
100
AcDbLine
 10
4.954432259615577
 20
2.592337609081551
 30
0.0
 11
4.944589739930536
 21
2.627770679947692
 31
0.0
  0
LINE
  5
842
330
1E
100
AcDbEntity
  8
0
100
AcDbLine
 10
4.944589739930536
 20
2.627770679947692
 30
0.0
 11
4.954432259615577
 21
2.663203750813835
 31
0.0
  0
LINE
  5
843
330
1E
100
AcDbEntity
  8
0
100
AcDbLine
 10
4.954432259615577
 20
2.663203750813835
 30
0.0
 11
4.978054306859672
 21
2.688794301994937
 31
0.0
  0
LINE
  5
844
330
1E
100
AcDbEntity
  8
0
100
AcDbLine
 10
4.978054306859672
 20
2.688794301994937
 30
0.0
 11
5.011518873788805
 21
2.702573829553992
 31
0.0
  0
LINE
  5
845
330
1E
100
AcDbEntity
  8
0
100
AcDbLine
 10
5.011518873788805
 20
2.702573829553992
 30
0.0
 11
5.046951944654946
 21
2.698636821679976
 31
0.0
  0
LINE
  5
846
330
1E
100
AcDbEntity
  8
0
100
AcDbLine
 10
5.046951944654946
 20
2.698636821679976
 30
0.0
 11
5.076479503710064
 21
2.67698327837289
 31
0.0
  0
LINE
  5
847
330
1E
100
AcDbEntity
  8
0
100
AcDbLine
 10
5.076479503710064
 20
2.67698327837289
 30
0.0
 11
5.094196039143135
 21
2.645487215380764
 31
0.0
  0
LINE
  5
848
330
1E
100
AcDbEntity
  8
0
100
AcDbLine
 10
5.094196039143135
 20
2.645487215380764
 30
0.0
 11
5.094196039143135
 21
2.610054144514622
 31
0.0
  0
LINE
  5
849
330
1E
100
AcDbEntity
  8
0
100
AcDbLine
 10
5.094196039143135
 20
2.610054144514622
 30
0.0
 11
5.076479503710064
 21
2.578558081522496
 31
0.0
  0
LINE
  5
84A
330
1E
100
AcDbEntity
  8
0
100
AcDbLine
 10
5.076479503710064
 20
2.578558081522496
 30
0.0
 11
5.046951944654946
 21
2.556904538215409
 31
0.0
  0
LINE
  5
84B
330
1E
100
AcDbEntity
  8
0
100
AcDbLine
 10
5.046951944654946
 20
2.556904538215409
 30
0.0
 11
5.011518873788805
 21
2.552967530341394
 31
0.0
  0
LINE
  5
84C
330
1E
100
AcDbEntity
  8
0
100
AcDbLine
 10
5.011518873788805
 20
2.552967530341394
 30
0.0
 11
4.978054306859672
 21
2.566747057900448
 31
0.0
  0
LINE
  5
84D
330
1E
100
AcDbEntity
  8
0
100
AcDbLine
 10
4.978054306859672
 20
2.566747057900448
 30
0.0
 11
4.954432259615577
 21
2.592337609081551
 31
0.0
  0
LINE
  5
84E
330
1E
100
AcDbEntity
  8
0
100
AcDbLine
 10
4.954432259615577
 20
2.592337609081551
 30
0.0
 11
4.944589739930536
 21
2.627770679947692
 31
0.0
  0
LINE
  5
84F
330
1E
100
AcDbEntity
  8
0
100
AcDbLine
 10
6.255613361977781
 20
2.627770679947692
 30
0.0
 11
6.263487377725812
 21
2.663203750813835
 31
0.0
  0
LINE
  5
850
330
1E
100
AcDbEntity
  8
0
100
AcDbLine
 10
6.263487377725812
 20
2.663203750813835
 30
0.0
 11
6.287109424969907
 21
2.688794301994937
 31
0.0
  0
LINE
  5
851
330
1E
100
AcDbEntity
  8
0
100
AcDbLine
 10
6.287109424969907
 20
2.688794301994937
 30
0.0
 11
6.32057399189904
 21
2.702573829553992
 31
0.0
  0
LINE
  5
852
330
1E
100
AcDbEntity
  8
0
100
AcDbLine
 10
6.32057399189904
 20
2.702573829553992
 30
0.0
 11
6.35797556670219
 21
2.698636821679976
 31
0.0
  0
LINE
  5
853
330
1E
100
AcDbEntity
  8
0
100
AcDbLine
 10
6.35797556670219
 20
2.698636821679976
 30
0.0
 11
6.387503125757309
 21
2.67698327837289
 31
0.0
  0
LINE
  5
854
330
1E
100
AcDbEntity
  8
0
100
AcDbLine
 10
6.387503125757309
 20
2.67698327837289
 30
0.0
 11
6.403251157253372
 21
2.645487215380764
 31
0.0
  0
LINE
  5
855
330
1E
100
AcDbEntity
  8
0
100
AcDbLine
 10
6.403251157253372
 20
2.645487215380764
 30
0.0
 11
6.403251157253372
 21
2.610054144514622
 31
0.0
  0
LINE
  5
856
330
1E
100
AcDbEntity
  8
0
100
AcDbLine
 10
6.403251157253372
 20
2.610054144514622
 30
0.0
 11
6.387503125757309
 21
2.578558081522496
 31
0.0
  0
LINE
  5
857
330
1E
100
AcDbEntity
  8
0
100
AcDbLine
 10
6.387503125757309
 20
2.578558081522496
 30
0.0
 11
6.35797556670219
 21
2.556904538215409
 31
0.0
  0
LINE
  5
858
330
1E
100
AcDbEntity
  8
0
100
AcDbLine
 10
6.35797556670219
 20
2.556904538215409
 30
0.0
 11
6.32057399189904
 21
2.552967530341394
 31
0.0
  0
LINE
  5
859
330
1E
100
AcDbEntity
  8
0
100
AcDbLine
 10
6.32057399189904
 20
2.552967530341394
 30
0.0
 11
6.287109424969907
 21
2.566747057900448
 31
0.0
  0
LINE
  5
85A
330
1E
100
AcDbEntity
  8
0
100
AcDbLine
 10
6.287109424969907
 20
2.566747057900448
 30
0.0
 11
6.263487377725812
 21
2.592337609081551
 31
0.0
  0
LINE
  5
85B
330
1E
100
AcDbEntity
  8
0
100
AcDbLine
 10
6.263487377725812
 20
2.592337609081551
 30
0.0
 11
6.255613361977781
 21
2.627770679947692
 31
0.0
  0
LINE
  5
85C
330
1E
100
AcDbEntity
  8
0
100
AcDbLine
 10
6.730022810796679
 20
7.761628947664227
 30
0.0
 11
6.731991314733686
 21
7.769502963412259
 31
0.0
  0
LINE
  5
85D
330
1E
100
AcDbEntity
  8
0
100
AcDbLine
 10
6.731991314733686
 20
7.769502963412259
 30
0.0
 11
6.733959818670694
 21
7.793125010656353
 31
0.0
  0
LINE
  5
85E
330
1E
100
AcDbEntity
  8
0
100
AcDbLine
 10
6.733959818670694
 20
7.793125010656353
 30
0.0
 11
6.733959818670694
 21
7.818715561837457
 31
0.0
  0
LINE
  5
85F
330
1E
100
AcDbEntity
  8
0
100
AcDbLine
 10
6.733959818670694
 20
7.818715561837457
 30
0.0
 11
6.731991314733686
 21
7.842337609081551
 31
0.0
  0
LINE
  5
860
330
1E
100
AcDbEntity
  8
0
100
AcDbLine
 10
6.731991314733686
 20
7.842337609081551
 30
0.0
 11
6.730022810796679
 21
7.850211624829583
 31
0.0
  0
LINE
  5
861
330
1E
100
AcDbEntity
  8
0
100
AcDbLine
 10
7.031203913158883
 20
7.757691939790213
 30
0.0
 11
7.023329897410851
 21
7.757691939790213
 31
0.0
  0
LINE
  5
862
330
1E
100
AcDbEntity
  8
0
100
AcDbLine
 10
7.023329897410851
 20
7.757691939790213
 30
0.0
 11
7.001676354103766
 21
7.757691939790213
 31
0.0
  0
LINE
  5
863
330
1E
100
AcDbEntity
  8
0
100
AcDbLine
 10
7.001676354103766
 20
7.757691939790213
 30
0.0
 11
6.968211787174631
 21
7.757691939790213
 31
0.0
  0
LINE
  5
864
330
1E
100
AcDbEntity
  8
0
100
AcDbLine
 10
6.968211787174631
 20
7.757691939790213
 30
0.0
 11
6.930810212371483
 21
7.757691939790213
 31
0.0
  0
LINE
  5
865
330
1E
100
AcDbEntity
  8
0
100
AcDbLine
 10
6.411125173001403
 20
7.850211624829583
 30
0.0
 11
6.409156669064396
 21
7.842337609081551
 31
0.0
  0
LINE
  5
866
330
1E
100
AcDbEntity
  8
0
100
AcDbLine
 10
6.409156669064396
 20
7.842337609081551
 30
0.0
 11
6.407188165127388
 21
7.818715561837457
 31
0.0
  0
LINE
  5
867
330
1E
100
AcDbEntity
  8
0
100
AcDbLine
 10
6.407188165127388
 20
7.818715561837457
 30
0.0
 11
6.407188165127388
 21
7.793125010656353
 31
0.0
  0
LINE
  5
868
330
1E
100
AcDbEntity
  8
0
100
AcDbLine
 10
6.407188165127388
 20
7.793125010656353
 30
0.0
 11
6.409156669064396
 21
7.769502963412259
 31
0.0
  0
LINE
  5
869
330
1E
100
AcDbEntity
  8
0
100
AcDbLine
 10
6.409156669064396
 20
7.769502963412259
 30
0.0
 11
6.411125173001403
 21
7.761628947664227
 31
0.0
  0
LINE
  5
86A
330
1E
100
AcDbEntity
  8
0
100
AcDbLine
 10
6.210337771426599
 20
7.757691939790213
 30
0.0
 11
6.172936196623451
 21
7.757691939790213
 31
0.0
  0
LINE
  5
86B
330
1E
100
AcDbEntity
  8
0
100
AcDbLine
 10
6.172936196623451
 20
7.757691939790213
 30
0.0
 11
6.139471629694316
 21
7.757691939790213
 31
0.0
  0
LINE
  5
86C
330
1E
100
AcDbEntity
  8
0
100
AcDbLine
 10
6.139471629694316
 20
7.757691939790213
 30
0.0
 11
6.117818086387229
 21
7.757691939790213
 31
0.0
  0
LINE
  5
86D
330
1E
100
AcDbEntity
  8
0
100
AcDbLine
 10
6.117818086387229
 20
7.757691939790213
 30
0.0
 11
6.109944070639198
 21
7.757691939790213
 31
0.0
  0
LINE
  5
86E
330
1E
100
AcDbEntity
  8
0
100
AcDbLine
 10
4.940652732056522
 20
7.850211624829583
 30
0.0
 11
4.942621235993529
 21
7.842337609081551
 31
0.0
  0
LINE
  5
86F
330
1E
100
AcDbEntity
  8
0
100
AcDbLine
 10
4.942621235993529
 20
7.842337609081551
 30
0.0
 11
4.944589739930536
 21
7.818715561837457
 31
0.0
  0
LINE
  5
870
330
1E
100
AcDbEntity
  8
0
100
AcDbLine
 10
4.944589739930536
 20
7.818715561837457
 30
0.0
 11
4.944589739930536
 21
7.793125010656353
 31
0.0
  0
LINE
  5
871
330
1E
100
AcDbEntity
  8
0
100
AcDbLine
 10
4.944589739930536
 20
7.793125010656353
 30
0.0
 11
4.942621235993529
 21
7.769502963412259
 31
0.0
  0
LINE
  5
872
330
1E
100
AcDbEntity
  8
0
100
AcDbLine
 10
4.942621235993529
 20
7.769502963412259
 30
0.0
 11
4.940652732056522
 21
7.761628947664227
 31
0.0
  0
LINE
  5
873
330
1E
100
AcDbEntity
  8
0
100
AcDbLine
 10
5.239865330481718
 20
7.757691939790213
 30
0.0
 11
5.231991314733686
 21
7.757691939790213
 31
0.0
  0
LINE
  5
874
330
1E
100
AcDbEntity
  8
0
100
AcDbLine
 10
5.231991314733686
 20
7.757691939790213
 30
0.0
 11
5.210337771426599
 21
7.757691939790213
 31
0.0
  0
LINE
  5
875
330
1E
100
AcDbEntity
  8
0
100
AcDbLine
 10
5.210337771426599
 20
7.757691939790213
 30
0.0
 11
5.178841708434474
 21
7.757691939790213
 31
0.0
  0
LINE
  5
876
330
1E
100
AcDbEntity
  8
0
100
AcDbLine
 10
5.178841708434474
 20
7.757691939790213
 30
0.0
 11
5.141440133631325
 21
7.757691939790213
 31
0.0
  0
LINE
  5
877
330
1E
100
AcDbEntity
  8
0
100
AcDbLine
 10
4.619786590324238
 20
7.761628947664227
 30
0.0
 11
4.617818086387229
 21
7.769502963412259
 31
0.0
  0
LINE
  5
878
330
1E
100
AcDbEntity
  8
0
100
AcDbLine
 10
4.617818086387229
 20
7.769502963412259
 30
0.0
 11
4.615849582450222
 21
7.793125010656353
 31
0.0
  0
LINE
  5
879
330
1E
100
AcDbEntity
  8
0
100
AcDbLine
 10
4.615849582450222
 20
7.793125010656353
 30
0.0
 11
4.615849582450222
 21
7.818715561837457
 31
0.0
  0
LINE
  5
87A
330
1E
100
AcDbEntity
  8
0
100
AcDbLine
 10
4.615849582450222
 20
7.818715561837457
 30
0.0
 11
4.617818086387229
 21
7.842337609081551
 31
0.0
  0
LINE
  5
87B
330
1E
100
AcDbEntity
  8
0
100
AcDbLine
 10
4.617818086387229
 20
7.842337609081551
 30
0.0
 11
4.619786590324238
 21
7.850211624829583
 31
0.0
  0
LINE
  5
87C
330
1E
100
AcDbEntity
  8
0
100
AcDbLine
 10
7.031203913158883
 20
7.755723435853205
 30
0.0
 11
7.031203913158883
 21
7.749817924042181
 31
0.0
  0
LINE
  5
87D
330
1E
100
AcDbEntity
  8
0
100
AcDbLine
 10
7.031203913158883
 20
7.749817924042181
 30
0.0
 11
7.031203913158883
 21
7.736038396483126
 31
0.0
  0
LINE
  5
87E
330
1E
100
AcDbEntity
  8
0
100
AcDbLine
 10
6.930810212371483
 20
7.85218012876659
 30
0.0
 11
6.980022810796679
 21
7.85218012876659
 31
0.0
  0
LINE
  5
87F
330
1E
100
AcDbEntity
  8
0
100
AcDbLine
 10
6.980022810796679
 20
7.85218012876659
 30
0.0
 11
7.017424385599829
 21
7.85218012876659
 31
0.0
  0
LINE
  5
880
330
1E
100
AcDbEntity
  8
0
100
AcDbLine
 10
7.017424385599829
 20
7.85218012876659
 30
0.0
 11
7.031203913158883
 21
7.85218012876659
 31
0.0
  0
LINE
  5
881
330
1E
100
AcDbEntity
  8
0
100
AcDbLine
 10
6.403251157253372
 20
7.755723435853205
 30
0.0
 11
6.401282653316364
 21
7.749817924042181
 31
0.0
  0
LINE
  5
882
330
1E
100
AcDbEntity
  8
0
100
AcDbLine
 10
6.401282653316364
 20
7.749817924042181
 30
0.0
 11
6.401282653316364
 21
7.736038396483126
 31
0.0
  0
LINE
  5
883
330
1E
100
AcDbEntity
  8
0
100
AcDbLine
 10
6.739865330481718
 20
7.736038396483126
 30
0.0
 11
6.737896826544711
 21
7.749817924042181
 31
0.0
  0
LINE
  5
884
330
1E
100
AcDbEntity
  8
0
100
AcDbLine
 10
6.737896826544711
 20
7.749817924042181
 30
0.0
 11
6.737896826544711
 21
7.755723435853205
 31
0.0
  0
LINE
  5
885
330
1E
100
AcDbEntity
  8
0
100
AcDbLine
 10
6.109944070639198
 20
7.85218012876659
 30
0.0
 11
6.123723598198253
 21
7.85218012876659
 31
0.0
  0
LINE
  5
886
330
1E
100
AcDbEntity
  8
0
100
AcDbLine
 10
6.123723598198253
 20
7.85218012876659
 30
0.0
 11
6.161125173001403
 21
7.85218012876659
 31
0.0
  0
LINE
  5
887
330
1E
100
AcDbEntity
  8
0
100
AcDbLine
 10
6.161125173001403
 20
7.85218012876659
 30
0.0
 11
6.210337771426599
 21
7.85218012876659
 31
0.0
  0
LINE
  5
888
330
1E
100
AcDbEntity
  8
0
100
AcDbLine
 10
6.109944070639198
 20
7.736038396483126
 30
0.0
 11
6.109944070639198
 21
7.749817924042181
 31
0.0
  0
LINE
  5
889
330
1E
100
AcDbEntity
  8
0
100
AcDbLine
 10
6.109944070639198
 20
7.749817924042181
 30
0.0
 11
6.109944070639198
 21
7.755723435853205
 31
0.0
  0
LINE
  5
88A
330
1E
100
AcDbEntity
  8
0
100
AcDbLine
 10
5.239865330481718
 20
7.755723435853205
 30
0.0
 11
5.239865330481718
 21
7.749817924042181
 31
0.0
  0
LINE
  5
88B
330
1E
100
AcDbEntity
  8
0
100
AcDbLine
 10
5.239865330481718
 20
7.749817924042181
 30
0.0
 11
5.239865330481718
 21
7.736038396483126
 31
0.0
  0
LINE
  5
88C
330
1E
100
AcDbEntity
  8
0
100
AcDbLine
 10
5.141440133631325
 20
7.85218012876659
 30
0.0
 11
5.190652732056522
 21
7.85218012876659
 31
0.0
  0
LINE
  5
88D
330
1E
100
AcDbEntity
  8
0
100
AcDbLine
 10
5.190652732056522
 20
7.85218012876659
 30
0.0
 11
5.228054306859672
 21
7.85218012876659
 31
0.0
  0
LINE
  5
88E
330
1E
100
AcDbEntity
  8
0
100
AcDbLine
 10
5.228054306859672
 20
7.85218012876659
 30
0.0
 11
5.239865330481718
 21
7.85218012876659
 31
0.0
  0
LINE
  5
88F
330
1E
100
AcDbEntity
  8
0
100
AcDbLine
 10
4.948526747804553
 20
7.736038396483126
 30
0.0
 11
4.948526747804553
 21
7.749817924042181
 31
0.0
  0
LINE
  5
890
330
1E
100
AcDbEntity
  8
0
100
AcDbLine
 10
4.948526747804553
 20
7.749817924042181
 30
0.0
 11
4.946558243867546
 21
7.755723435853205
 31
0.0
  0
LINE
  5
891
330
1E
100
AcDbEntity
  8
0
100
AcDbLine
 10
4.613881078513214
 20
7.755723435853205
 30
0.0
 11
4.611912574576207
 21
7.749817924042181
 31
0.0
  0
LINE
  5
892
330
1E
100
AcDbEntity
  8
0
100
AcDbLine
 10
4.611912574576207
 20
7.749817924042181
 30
0.0
 11
4.611912574576207
 21
7.736038396483126
 31
0.0
  0
LINE
  5
893
330
1E
100
AcDbEntity
  8
0
100
AcDbLine
 10
4.32057399189904
 20
7.85218012876659
 30
0.0
 11
4.334353519458096
 21
7.85218012876659
 31
0.0
  0
LINE
  5
894
330
1E
100
AcDbEntity
  8
0
100
AcDbLine
 10
4.334353519458096
 20
7.85218012876659
 30
0.0
 11
4.369786590324238
 21
7.85218012876659
 31
0.0
  0
LINE
  5
895
330
1E
100
AcDbEntity
  8
0
100
AcDbLine
 10
4.369786590324238
 20
7.85218012876659
 30
0.0
 11
4.420967692686442
 21
7.85218012876659
 31
0.0
  0
LINE
  5
896
330
1E
100
AcDbEntity
  8
0
100
AcDbLine
 10
4.420967692686442
 20
7.757691939790213
 30
0.0
 11
4.381597613946285
 21
7.757691939790213
 31
0.0
  0
LINE
  5
897
330
1E
100
AcDbEntity
  8
0
100
AcDbLine
 10
4.381597613946285
 20
7.757691939790213
 30
0.0
 11
4.350101550954159
 21
7.757691939790213
 31
0.0
  0
LINE
  5
898
330
1E
100
AcDbEntity
  8
0
100
AcDbLine
 10
4.350101550954159
 20
7.757691939790213
 30
0.0
 11
4.328448007647072
 21
7.757691939790213
 31
0.0
  0
LINE
  5
899
330
1E
100
AcDbEntity
  8
0
100
AcDbLine
 10
4.328448007647072
 20
7.757691939790213
 30
0.0
 11
4.32057399189904
 21
7.757691939790213
 31
0.0
  0
LINE
  5
89A
330
1E
100
AcDbEntity
  8
0
100
AcDbLine
 10
4.32057399189904
 20
7.736038396483126
 30
0.0
 11
4.32057399189904
 21
7.749817924042181
 31
0.0
  0
LINE
  5
89B
330
1E
100
AcDbEntity
  8
0
100
AcDbLine
 10
4.32057399189904
 20
7.749817924042181
 30
0.0
 11
4.32057399189904
 21
7.755723435853205
 31
0.0
  0
LINE
  5
89C
330
1E
100
AcDbEntity
  8
0
100
AcDbLine
 10
4.501676354103766
 20
2.257691939790213
 30
0.0
 11
4.541046432843923
 21
2.25966044372722
 31
0.0
  0
LINE
  5
89D
330
1E
100
AcDbEntity
  8
0
100
AcDbLine
 10
4.541046432843923
 20
2.25966044372722
 30
0.0
 11
4.59025903126912
 21
2.25966044372722
 31
0.0
  0
LINE
  5
89E
330
1E
100
AcDbEntity
  8
0
100
AcDbLine
 10
4.59025903126912
 20
2.25966044372722
 30
0.0
 11
4.64537714150534
 21
2.25966044372722
 31
0.0
  0
LINE
  5
89F
330
1E
100
AcDbEntity
  8
0
100
AcDbLine
 10
4.64537714150534
 20
2.25966044372722
 30
0.0
 11
4.704432259615577
 21
2.25966044372722
 31
0.0
  0
LINE
  5
8A0
330
1E
100
AcDbEntity
  8
0
100
AcDbLine
 10
4.704432259615577
 20
2.25966044372722
 30
0.0
 11
4.763487377725812
 21
2.25966044372722
 31
0.0
  0
LINE
  5
8A1
330
1E
100
AcDbEntity
  8
0
100
AcDbLine
 10
4.763487377725812
 20
2.25966044372722
 30
0.0
 11
4.816636984025025
 21
2.25966044372722
 31
0.0
  0
LINE
  5
8A2
330
1E
100
AcDbEntity
  8
0
100
AcDbLine
 10
4.816636984025025
 20
2.25966044372722
 30
0.0
 11
4.861912574576207
 21
2.257691939790213
 31
0.0
  0
LINE
  5
8A3
330
1E
100
AcDbEntity
  8
0
100
AcDbLine
 10
4.861912574576207
 20
2.257691939790213
 30
0.0
 11
4.89537714150534
 21
2.257691939790213
 31
0.0
  0
LINE
  5
8A4
330
1E
100
AcDbEntity
  8
0
100
AcDbLine
 10
5.147345645442348
 20
2.257691939790213
 30
0.0
 11
5.180810212371483
 21
2.257691939790213
 31
0.0
  0
LINE
  5
8A5
330
1E
100
AcDbEntity
  8
0
100
AcDbLine
 10
5.180810212371483
 20
2.257691939790213
 30
0.0
 11
5.230022810796679
 21
2.25966044372722
 31
0.0
  0
LINE
  5
8A6
330
1E
100
AcDbEntity
  8
0
100
AcDbLine
 10
5.230022810796679
 20
2.25966044372722
 30
0.0
 11
5.287109424969907
 21
2.25966044372722
 31
0.0
  0
LINE
  5
8A7
330
1E
100
AcDbEntity
  8
0
100
AcDbLine
 10
5.287109424969907
 20
2.25966044372722
 30
0.0
 11
5.348133047017151
 21
2.25966044372722
 31
0.0
  0
LINE
  5
8A8
330
1E
100
AcDbEntity
  8
0
100
AcDbLine
 10
5.348133047017151
 20
2.25966044372722
 30
0.0
 11
5.409156669064396
 21
2.25966044372722
 31
0.0
  0
LINE
  5
8A9
330
1E
100
AcDbEntity
  8
0
100
AcDbLine
 10
5.409156669064396
 20
2.25966044372722
 30
0.0
 11
5.466243283237623
 21
2.25966044372722
 31
0.0
  0
LINE
  5
8AA
330
1E
100
AcDbEntity
  8
0
100
AcDbLine
 10
5.466243283237623
 20
2.25966044372722
 30
0.0
 11
5.513487377725812
 21
2.257691939790213
 31
0.0
  0
LINE
  5
8AB
330
1E
100
AcDbEntity
  8
0
100
AcDbLine
 10
5.513487377725812
 20
2.257691939790213
 30
0.0
 11
5.548920448591955
 21
2.257691939790213
 31
0.0
  0
LINE
  5
8AC
330
1E
100
AcDbEntity
  8
0
100
AcDbLine
 10
5.800888952528962
 20
2.257691939790213
 30
0.0
 11
5.836322023395103
 21
2.257691939790213
 31
0.0
  0
LINE
  5
8AD
330
1E
100
AcDbEntity
  8
0
100
AcDbLine
 10
5.836322023395103
 20
2.257691939790213
 30
0.0
 11
5.883566117883292
 21
2.25966044372722
 31
0.0
  0
LINE
  5
8AE
330
1E
100
AcDbEntity
  8
0
100
AcDbLine
 10
5.883566117883292
 20
2.25966044372722
 30
0.0
 11
5.940652732056522
 21
2.25966044372722
 31
0.0
  0
LINE
  5
8AF
330
1E
100
AcDbEntity
  8
0
100
AcDbLine
 10
5.940652732056522
 20
2.25966044372722
 30
0.0
 11
6.003644858040773
 21
2.25966044372722
 31
0.0
  0
LINE
  5
8B0
330
1E
100
AcDbEntity
  8
0
100
AcDbLine
 10
6.003644858040773
 20
2.25966044372722
 30
0.0
 11
6.064668480088018
 21
2.25966044372722
 31
0.0
  0
LINE
  5
8B1
330
1E
100
AcDbEntity
  8
0
100
AcDbLine
 10
6.064668480088018
 20
2.25966044372722
 30
0.0
 11
6.121755094261246
 21
2.25966044372722
 31
0.0
  0
LINE
  5
8B2
330
1E
100
AcDbEntity
  8
0
100
AcDbLine
 10
6.121755094261246
 20
2.25966044372722
 30
0.0
 11
6.168999188749435
 21
2.257691939790213
 31
0.0
  0
LINE
  5
8B3
330
1E
100
AcDbEntity
  8
0
100
AcDbLine
 10
6.168999188749435
 20
2.257691939790213
 30
0.0
 11
6.204432259615577
 21
2.257691939790213
 31
0.0
  0
LINE
  5
8B4
330
1E
100
AcDbEntity
  8
0
100
AcDbLine
 10
6.456400763552585
 20
2.257691939790213
 30
0.0
 11
6.489865330481718
 21
2.257691939790213
 31
0.0
  0
LINE
  5
8B5
330
1E
100
AcDbEntity
  8
0
100
AcDbLine
 10
6.489865330481718
 20
2.257691939790213
 30
0.0
 11
6.535140921032899
 21
2.25966044372722
 31
0.0
  0
LINE
  5
8B6
330
1E
100
AcDbEntity
  8
0
100
AcDbLine
 10
6.535140921032899
 20
2.25966044372722
 30
0.0
 11
6.588290527332112
 21
2.25966044372722
 31
0.0
  0
LINE
  5
8B7
330
1E
100
AcDbEntity
  8
0
100
AcDbLine
 10
6.588290527332112
 20
2.25966044372722
 30
0.0
 11
6.647345645442348
 21
2.25966044372722
 31
0.0
  0
LINE
  5
8B8
330
1E
100
AcDbEntity
  8
0
100
AcDbLine
 10
6.647345645442348
 20
2.25966044372722
 30
0.0
 11
6.706400763552585
 21
2.25966044372722
 31
0.0
  0
LINE
  5
8B9
330
1E
100
AcDbEntity
  8
0
100
AcDbLine
 10
6.706400763552585
 20
2.25966044372722
 30
0.0
 11
6.761518873788805
 21
2.25966044372722
 31
0.0
  0
LINE
  5
8BA
330
1E
100
AcDbEntity
  8
0
100
AcDbLine
 10
6.761518873788805
 20
2.25966044372722
 30
0.0
 11
6.810731472214001
 21
2.25966044372722
 31
0.0
  0
LINE
  5
8BB
330
1E
100
AcDbEntity
  8
0
100
AcDbLine
 10
6.810731472214001
 20
2.25966044372722
 30
0.0
 11
6.848133047017151
 21
2.257691939790213
 31
0.0
  0
LINE
  5
8BC
330
1E
100
AcDbEntity
  8
0
100
AcDbLine
 10
9.450495251741561
 20
7.716353357113048
 30
0.0
 11
9.438684228119512
 21
7.732101388609111
 31
0.0
  0
LINE
  5
8BD
330
1E
100
AcDbEntity
  8
0
100
AcDbLine
 10
9.438684228119512
 20
7.732101388609111
 30
0.0
 11
9.430810212371483
 21
7.747849420105174
 31
0.0
  0
LINE
  5
8BE
330
1E
100
AcDbEntity
  8
0
100
AcDbLine
 10
9.657188165127386
 20
7.708479341365016
 30
0.0
 11
9.611912574576205
 21
7.67698327837289
 31
0.0
  0
LINE
  5
8BF
330
1E
100
AcDbEntity
  8
0
100
AcDbLine
 10
9.611912574576205
 20
7.67698327837289
 30
0.0
 11
9.556794464339986
 21
7.66714075868785
 31
0.0
  0
LINE
  5
8C0
330
1E
100
AcDbEntity
  8
0
100
AcDbLine
 10
9.430810212371483
 20
7.863991152388637
 30
0.0
 11
9.456400763552583
 21
7.903361231128796
 31
0.0
  0
LINE
  5
8C1
330
1E
100
AcDbEntity
  8
0
100
AcDbLine
 10
9.456400763552583
 20
7.903361231128796
 30
0.0
 11
9.493802338355735
 21
7.930920286246905
 31
0.0
  0
LINE
  5
8C2
330
1E
100
AcDbEntity
  8
0
100
AcDbLine
 10
9.493802338355735
 20
7.930920286246905
 30
0.0
 11
9.539077928906916
 21
7.944699813805961
 31
0.0
  0
LINE
  5
8C3
330
1E
100
AcDbEntity
  8
0
100
AcDbLine
 10
9.539077928906916
 20
7.944699813805961
 30
0.0
 11
9.586322023395105
 21
7.942731309868953
 31
0.0
  0
LINE
  5
8C4
330
1E
100
AcDbEntity
  8
0
100
AcDbLine
 10
9.586322023395105
 20
7.942731309868953
 30
0.0
 11
9.629629110009275
 21
7.925014774435881
 31
0.0
  0
LINE
  5
8C5
330
1E
100
AcDbEntity
  8
0
100
AcDbLine
 10
9.629629110009275
 20
7.925014774435881
 30
0.0
 11
9.66506218087542
 21
7.893518711443755
 31
0.0
  0
LINE
  5
8C6
330
1E
100
AcDbEntity
  8
0
100
AcDbLine
 10
9.66506218087542
 20
7.893518711443755
 30
0.0
 11
9.688684228119512
 21
7.85218012876659
 31
0.0
  0
LINE
  5
8C7
330
1E
100
AcDbEntity
  8
0
100
AcDbLine
 10
9.464274779300616
 20
2.224227372861078
 30
0.0
 11
9.464274779300616
 21
2.23210138860911
 31
0.0
  0
LINE
  5
8C8
330
1E
100
AcDbEntity
  8
0
100
AcDbLine
 10
9.464274779300616
 20
2.23210138860911
 30
0.0
 11
9.464274779300616
 21
2.251786427979189
 31
0.0
  0
LINE
  5
8C9
330
1E
100
AcDbEntity
  8
0
100
AcDbLine
 10
9.464274779300616
 20
2.251786427979189
 30
0.0
 11
9.464274779300616
 21
2.285250994908322
 31
0.0
  0
LINE
  5
8CA
330
1E
100
AcDbEntity
  8
0
100
AcDbLine
 10
9.464274779300616
 20
2.285250994908322
 30
0.0
 11
9.464274779300616
 21
2.326589577585489
 31
0.0
  0
LINE
  5
8CB
330
1E
100
AcDbEntity
  8
0
100
AcDbLine
 10
9.464274779300616
 20
2.326589577585489
 30
0.0
 11
9.464274779300616
 21
2.373833672073677
 31
0.0
  0
LINE
  5
8CC
330
1E
100
AcDbEntity
  8
0
100
AcDbLine
 10
9.647345645442349
 20
2.367928160262653
 30
0.0
 11
9.647345645442349
 21
2.320684065774464
 31
0.0
  0
LINE
  5
8CD
330
1E
100
AcDbEntity
  8
0
100
AcDbLine
 10
9.647345645442349
 20
2.320684065774464
 30
0.0
 11
9.647345645442349
 21
2.2793454830973
 31
0.0
  0
LINE
  5
8CE
330
1E
100
AcDbEntity
  8
0
100
AcDbLine
 10
9.647345645442349
 20
2.2793454830973
 30
0.0
 11
9.647345645442349
 21
2.245880916168165
 31
0.0
  0
LINE
  5
8CF
330
1E
100
AcDbEntity
  8
0
100
AcDbLine
 10
9.647345645442349
 20
2.245880916168165
 30
0.0
 11
9.647345645442349
 21
2.224227372861078
 31
0.0
  0
LINE
  5
8D0
330
1E
100
AcDbEntity
  8
0
100
AcDbLine
 10
9.647345645442349
 20
2.224227372861078
 30
0.0
 11
9.647345645442349
 21
2.218321861050055
 31
0.0
  0
LINE
  5
8D1
330
1E
100
AcDbEntity
  8
0
100
AcDbLine
 10
9.436715724182505
 20
7.574621073648479
 30
0.0
 11
9.434747220245498
 21
7.560841546089426
 31
0.0
  0
LINE
  5
8D2
330
1E
100
AcDbEntity
  8
0
100
AcDbLine
 10
9.434747220245498
 20
7.560841546089426
 30
0.0
 11
9.434747220245498
 21
7.525408475223283
 31
0.0
  0
LINE
  5
8D3
330
1E
100
AcDbEntity
  8
0
100
AcDbLine
 10
9.434747220245498
 20
7.525408475223283
 30
0.0
 11
9.436715724182505
 21
7.474227372861079
 31
0.0
  0
LINE
  5
8D4
330
1E
100
AcDbEntity
  8
0
100
AcDbLine
 10
8.85797556670219
 20
6.976195876798087
 30
0.0
 11
8.863881078513212
 21
7.058873042152416
 31
0.0
  0
LINE
  5
8D5
330
1E
100
AcDbEntity
  8
0
100
AcDbLine
 10
8.863881078513212
 20
7.058873042152416
 30
0.0
 11
8.879629110009275
 21
7.141550207506748
 31
0.0
  0
LINE
  5
8D6
330
1E
100
AcDbEntity
  8
0
100
AcDbLine
 10
8.879629110009275
 20
7.141550207506748
 30
0.0
 11
8.909156669064394
 21
7.220290364987063
 31
0.0
  0
LINE
  5
8D7
330
1E
100
AcDbEntity
  8
0
100
AcDbLine
 10
8.909156669064394
 20
7.220290364987063
 30
0.0
 11
8.948526747804553
 21
7.293125010656353
 31
0.0
  0
LINE
  5
8D8
330
1E
100
AcDbEntity
  8
0
100
AcDbLine
 10
8.948526747804553
 20
7.293125010656353
 30
0.0
 11
8.997739346229749
 21
7.360054144514622
 31
0.0
  0
LINE
  5
8D9
330
1E
100
AcDbEntity
  8
0
100
AcDbLine
 10
8.997739346229749
 20
7.360054144514622
 30
0.0
 11
9.056794464339986
 21
7.421077766561866
 31
0.0
  0
LINE
  5
8DA
330
1E
100
AcDbEntity
  8
0
100
AcDbLine
 10
9.056794464339986
 20
7.421077766561866
 30
0.0
 11
9.121755094261246
 21
7.47225886892407
 31
0.0
  0
LINE
  5
8DB
330
1E
100
AcDbEntity
  8
0
100
AcDbLine
 10
9.121755094261246
 20
7.47225886892407
 30
0.0
 11
9.194589739930538
 21
7.513597451601237
 31
0.0
  0
LINE
  5
8DC
330
1E
100
AcDbEntity
  8
0
100
AcDbLine
 10
9.194589739930538
 20
7.513597451601237
 30
0.0
 11
9.271361393473846
 21
7.545093514593363
 31
0.0
  0
LINE
  5
8DD
330
1E
100
AcDbEntity
  8
0
100
AcDbLine
 10
9.271361393473846
 20
7.545093514593363
 30
0.0
 11
9.354038558828175
 21
7.566747057900448
 31
0.0
  0
LINE
  5
8DE
330
1E
100
AcDbEntity
  8
0
100
AcDbLine
 10
9.354038558828175
 20
7.566747057900448
 30
0.0
 11
9.436715724182505
 21
7.574621073648479
 31
0.0
  0
LINE
  5
8DF
330
1E
100
AcDbEntity
  8
0
100
AcDbLine
 10
9.436715724182505
 20
7.474227372861079
 30
0.0
 11
9.354038558828175
 21
7.468321861050055
 31
0.0
  0
LINE
  5
8E0
330
1E
100
AcDbEntity
  8
0
100
AcDbLine
 10
9.354038558828175
 20
7.468321861050055
 30
0.0
 11
9.271361393473846
 21
7.450605325616985
 31
0.0
  0
LINE
  5
8E1
330
1E
100
AcDbEntity
  8
0
100
AcDbLine
 10
9.271361393473846
 20
7.450605325616985
 30
0.0
 11
9.194589739930538
 21
7.425014774435881
 31
0.0
  0
LINE
  5
8E2
330
1E
100
AcDbEntity
  8
0
100
AcDbLine
 10
9.194589739930538
 20
7.425014774435881
 30
0.0
 11
9.121755094261246
 21
7.38958170356974
 31
0.0
  0
LINE
  5
8E3
330
1E
100
AcDbEntity
  8
0
100
AcDbLine
 10
9.121755094261246
 20
7.38958170356974
 30
0.0
 11
9.056794464339986
 21
7.346274616955566
 31
0.0
  0
LINE
  5
8E4
330
1E
100
AcDbEntity
  8
0
100
AcDbLine
 10
9.056794464339986
 20
7.346274616955566
 30
0.0
 11
8.997739346229749
 21
7.29706201853037
 31
0.0
  0
LINE
  5
8E5
330
1E
100
AcDbEntity
  8
0
100
AcDbLine
 10
8.997739346229749
 20
7.29706201853037
 30
0.0
 11
8.948526747804553
 21
7.239975404357142
 31
0.0
  0
LINE
  5
8E6
330
1E
100
AcDbEntity
  8
0
100
AcDbLine
 10
8.948526747804553
 20
7.239975404357142
 30
0.0
 11
8.909156669064394
 21
7.178951782309898
 31
0.0
  0
LINE
  5
8E7
330
1E
100
AcDbEntity
  8
0
100
AcDbLine
 10
8.909156669064394
 20
7.178951782309898
 30
0.0
 11
8.879629110009275
 21
7.113991152388637
 31
0.0
  0
LINE
  5
8E8
330
1E
100
AcDbEntity
  8
0
100
AcDbLine
 10
8.879629110009275
 20
7.113991152388637
 30
0.0
 11
8.863881078513212
 21
7.045093514593363
 31
0.0
  0
LINE
  5
8E9
330
1E
100
AcDbEntity
  8
0
100
AcDbLine
 10
8.863881078513212
 20
7.045093514593363
 30
0.0
 11
8.85797556670219
 21
6.976195876798087
 31
0.0
  0
LINE
  5
8EA
330
1E
100
AcDbEntity
  8
0
100
AcDbLine
 10
8.85797556670219
 20
2.381707687821709
 30
0.0
 11
8.865849582450223
 21
2.381707687821709
 31
0.0
  0
LINE
  5
8EB
330
1E
100
AcDbEntity
  8
0
100
AcDbLine
 10
8.865849582450223
 20
2.381707687821709
 30
0.0
 11
8.891440133631324
 21
2.379739183884701
 31
0.0
  0
LINE
  5
8EC
330
1E
100
AcDbEntity
  8
0
100
AcDbLine
 10
8.891440133631324
 20
2.379739183884701
 30
0.0
 11
8.934747220245498
 21
2.379739183884701
 31
0.0
  0
LINE
  5
8ED
330
1E
100
AcDbEntity
  8
0
100
AcDbLine
 10
8.934747220245498
 20
2.379739183884701
 30
0.0
 11
8.991833834418727
 21
2.377770679947692
 31
0.0
  0
LINE
  5
8EE
330
1E
100
AcDbEntity
  8
0
100
AcDbLine
 10
8.991833834418727
 20
2.377770679947692
 30
0.0
 11
9.062699976151009
 21
2.375802176010685
 31
0.0
  0
LINE
  5
8EF
330
1E
100
AcDbEntity
  8
0
100
AcDbLine
 10
9.062699976151009
 20
2.375802176010685
 30
0.0
 11
9.145377141505338
 21
2.373833672073677
 31
0.0
  0
LINE
  5
8F0
330
1E
100
AcDbEntity
  8
0
100
AcDbLine
 10
9.145377141505338
 20
2.373833672073677
 30
0.0
 11
9.235928322607701
 21
2.369896664199661
 31
0.0
  0
LINE
  5
8F1
330
1E
100
AcDbEntity
  8
0
100
AcDbLine
 10
9.235928322607701
 20
2.369896664199661
 30
0.0
 11
9.334353519458097
 21
2.367928160262653
 31
0.0
  0
LINE
  5
8F2
330
1E
100
AcDbEntity
  8
0
100
AcDbLine
 10
9.334353519458097
 20
2.367928160262653
 30
0.0
 11
9.436715724182505
 21
2.363991152388638
 31
0.0
  0
LINE
  5
8F3
330
1E
100
AcDbEntity
  8
0
100
AcDbLine
 10
9.436715724182505
 20
2.265565955538244
 30
0.0
 11
9.434747220245498
 21
2.27737697916029
 31
0.0
  0
LINE
  5
8F4
330
1E
100
AcDbEntity
  8
0
100
AcDbLine
 10
9.434747220245498
 20
2.27737697916029
 30
0.0
 11
9.434747220245498
 21
2.31477855396344
 31
0.0
  0
LINE
  5
8F5
330
1E
100
AcDbEntity
  8
0
100
AcDbLine
 10
9.434747220245498
 20
2.31477855396344
 30
0.0
 11
9.436715724182505
 21
2.363991152388638
 31
0.0
  0
LINE
  5
8F6
330
1E
100
AcDbEntity
  8
0
100
AcDbLine
 10
9.436715724182505
 20
2.265565955538244
 30
0.0
 11
9.352070054891168
 21
2.267534459475252
 31
0.0
  0
LINE
  5
8F7
330
1E
100
AcDbEntity
  8
0
100
AcDbLine
 10
9.352070054891168
 20
2.267534459475252
 30
0.0
 11
9.269392889536835
 21
2.271471467349267
 31
0.0
  0
LINE
  5
8F8
330
1E
100
AcDbEntity
  8
0
100
AcDbLine
 10
9.269392889536835
 20
2.271471467349267
 30
0.0
 11
9.194589739930538
 21
2.273439971286276
 31
0.0
  0
LINE
  5
8F9
330
1E
100
AcDbEntity
  8
0
100
AcDbLine
 10
9.194589739930538
 20
2.273439971286276
 30
0.0
 11
9.125692102135261
 21
2.275408475223283
 31
0.0
  0
LINE
  5
8FA
330
1E
100
AcDbEntity
  8
0
100
AcDbLine
 10
9.125692102135261
 20
2.275408475223283
 30
0.0
 11
9.066636984025024
 21
2.27737697916029
 31
0.0
  0
LINE
  5
8FB
330
1E
100
AcDbEntity
  8
0
100
AcDbLine
 10
9.066636984025024
 20
2.27737697916029
 30
0.0
 11
9.017424385599827
 21
2.2793454830973
 31
0.0
  0
LINE
  5
8FC
330
1E
100
AcDbEntity
  8
0
100
AcDbLine
 10
9.017424385599827
 20
2.2793454830973
 30
0.0
 11
8.981991314733686
 21
2.281313987034307
 31
0.0
  0
LINE
  5
8FD
330
1E
100
AcDbEntity
  8
0
100
AcDbLine
 10
8.981991314733686
 20
2.281313987034307
 30
0.0
 11
8.960337771426601
 21
2.281313987034307
 31
0.0
  0
LINE
  5
8FE
330
1E
100
AcDbEntity
  8
0
100
AcDbLine
 10
8.960337771426601
 20
2.281313987034307
 30
0.0
 11
8.954432259615575
 21
2.281313987034307
 31
0.0
  0
LINE
  5
8FF
330
1E
100
AcDbEntity
  8
0
100
AcDbLine
 10
8.954432259615575
 20
2.281313987034307
 30
0.0
 11
8.905219661190379
 21
2.29706201853037
 31
0.0
  0
LINE
  5
900
330
1E
100
AcDbEntity
  8
0
100
AcDbLine
 10
8.905219661190379
 20
2.29706201853037
 30
0.0
 11
8.869786590324238
 21
2.332495089396511
 31
0.0
  0
LINE
  5
901
330
1E
100
AcDbEntity
  8
0
100
AcDbLine
 10
8.869786590324238
 20
2.332495089396511
 30
0.0
 11
8.85797556670219
 21
2.381707687821709
 31
0.0
  0
LINE
  5
902
330
1E
100
AcDbEntity
  8
0
100
AcDbLine
 10
9.602070054891168
 20
7.757691939790213
 30
0.0
 11
9.562699976151009
 21
7.757691939790213
 31
0.0
  0
LINE
  5
903
330
1E
100
AcDbEntity
  8
0
100
AcDbLine
 10
9.562699976151009
 20
7.757691939790213
 30
0.0
 11
9.531203913158883
 21
7.757691939790213
 31
0.0
  0
LINE
  5
904
330
1E
100
AcDbEntity
  8
0
100
AcDbLine
 10
9.531203913158883
 20
7.757691939790213
 30
0.0
 11
9.509550369851798
 21
7.757691939790213
 31
0.0
  0
LINE
  5
905
330
1E
100
AcDbEntity
  8
0
100
AcDbLine
 10
9.509550369851798
 20
7.757691939790213
 30
0.0
 11
9.501676354103764
 21
7.757691939790213
 31
0.0
  0
LINE
  5
906
330
1E
100
AcDbEntity
  8
0
100
AcDbLine
 10
9.637503125757309
 20
7.755723435853205
 30
0.0
 11
9.651282653316364
 21
7.749817924042181
 31
0.0
  0
LINE
  5
907
330
1E
100
AcDbEntity
  8
0
100
AcDbLine
 10
9.651282653316364
 20
7.749817924042181
 30
0.0
 11
9.657188165127386
 21
7.736038396483126
 31
0.0
  0
LINE
  5
908
330
1E
100
AcDbEntity
  8
0
100
AcDbLine
 10
9.749707850166757
 20
7.74194390829415
 30
0.0
 11
9.741833834418727
 21
7.785250994908322
 31
0.0
  0
LINE
  5
909
330
1E
100
AcDbEntity
  8
0
100
AcDbLine
 10
9.741833834418727
 20
7.785250994908322
 30
0.0
 11
9.718211787174631
 21
7.820684065774464
 31
0.0
  0
LINE
  5
90A
330
1E
100
AcDbEntity
  8
0
100
AcDbLine
 10
9.718211787174631
 20
7.820684065774464
 30
0.0
 11
9.68277871630849
 21
7.844306113018559
 31
0.0
  0
LINE
  5
90B
330
1E
100
AcDbEntity
  8
0
100
AcDbLine
 10
9.68277871630849
 20
7.844306113018559
 30
0.0
 11
9.639471629694316
 21
7.85218012876659
 31
0.0
  0
LINE
  5
90C
330
1E
100
AcDbEntity
  8
0
100
AcDbLine
 10
9.501676354103764
 20
7.85218012876659
 30
0.0
 11
9.51545588166282
 21
7.85218012876659
 31
0.0
  0
LINE
  5
90D
330
1E
100
AcDbEntity
  8
0
100
AcDbLine
 10
9.51545588166282
 20
7.85218012876659
 30
0.0
 11
9.550888952528961
 21
7.85218012876659
 31
0.0
  0
LINE
  5
90E
330
1E
100
AcDbEntity
  8
0
100
AcDbLine
 10
9.550888952528961
 20
7.85218012876659
 30
0.0
 11
9.602070054891168
 21
7.85218012876659
 31
0.0
  0
LINE
  5
90F
330
1E
100
AcDbEntity
  8
0
100
AcDbLine
 10
9.78317241709589
 20
7.812810050026433
 30
0.0
 11
9.745770842292742
 21
7.842337609081551
 31
0.0
  0
LINE
  5
910
330
1E
100
AcDbEntity
  8
0
100
AcDbLine
 10
9.745770842292742
 20
7.842337609081551
 30
0.0
 11
9.698526747804553
 21
7.85218012876659
 31
0.0
  0
LINE
  5
911
330
1E
100
AcDbEntity
  8
0
100
AcDbLine
 10
9.657188165127386
 20
7.488006900420133
 30
0.0
 11
9.657188165127386
 21
7.533282490971314
 31
0.0
  0
LINE
  5
912
330
1E
100
AcDbEntity
  8
0
100
AcDbLine
 10
9.657188165127386
 20
7.533282490971314
 30
0.0
 11
9.657188165127386
 21
7.570684065774464
 31
0.0
  0
LINE
  5
913
330
1E
100
AcDbEntity
  8
0
100
AcDbLine
 10
9.657188165127386
 20
7.570684065774464
 30
0.0
 11
9.657188165127386
 21
7.594306113018559
 31
0.0
  0
LINE
  5
914
330
1E
100
AcDbEntity
  8
0
100
AcDbLine
 10
9.749707850166757
 20
7.596274616955566
 30
0.0
 11
9.749707850166757
 21
7.586432097270527
 31
0.0
  0
LINE
  5
915
330
1E
100
AcDbEntity
  8
0
100
AcDbLine
 10
9.749707850166757
 20
7.586432097270527
 30
0.0
 11
9.749707850166757
 21
7.562810050026433
 31
0.0
  0
LINE
  5
916
330
1E
100
AcDbEntity
  8
0
100
AcDbLine
 10
9.749707850166757
 20
7.562810050026433
 30
0.0
 11
9.749707850166757
 21
7.52737697916029
 31
0.0
  0
LINE
  5
917
330
1E
100
AcDbEntity
  8
0
100
AcDbLine
 10
9.749707850166757
 20
7.52737697916029
 30
0.0
 11
9.749707850166757
 21
7.486038396483126
 31
0.0
  0
LINE
  5
918
330
1E
100
AcDbEntity
  8
0
100
AcDbLine
 10
9.657188165127386
 20
2.367928160262653
 30
0.0
 11
9.657188165127386
 21
2.324621073648479
 31
0.0
  0
LINE
  5
919
330
1E
100
AcDbEntity
  8
0
100
AcDbLine
 10
9.657188165127386
 20
2.324621073648479
 30
0.0
 11
9.657188165127386
 21
2.289188002782339
 31
0.0
  0
LINE
  5
91A
330
1E
100
AcDbEntity
  8
0
100
AcDbLine
 10
9.657188165127386
 20
2.289188002782339
 30
0.0
 11
9.657188165127386
 21
2.265565955538244
 31
0.0
  0
LINE
  5
91B
330
1E
100
AcDbEntity
  8
0
100
AcDbLine
 10
9.657188165127386
 20
2.265565955538244
 30
0.0
 11
9.657188165127386
 21
2.257691939790213
 31
0.0
  0
LINE
  5
91C
330
1E
100
AcDbEntity
  8
0
100
AcDbLine
 10
10.55679446433998
 20
2.391550207506748
 30
0.0
 11
10.55679446433998
 21
2.348243120892576
 31
0.0
  0
LINE
  5
91D
330
1E
100
AcDbEntity
  8
0
100
AcDbLine
 10
10.55679446433998
 20
2.348243120892576
 30
0.0
 11
10.55679446433998
 21
2.312810050026433
 31
0.0
  0
LINE
  5
91E
330
1E
100
AcDbEntity
  8
0
100
AcDbLine
 10
10.55679446433998
 20
2.312810050026433
 30
0.0
 11
10.55679446433998
 21
2.289188002782339
 31
0.0
  0
LINE
  5
91F
330
1E
100
AcDbEntity
  8
0
100
AcDbLine
 10
10.55679446433998
 20
2.289188002782339
 30
0.0
 11
10.55679446433998
 21
2.281313987034307
 31
0.0
  0
LINE
  5
920
330
1E
100
AcDbEntity
  8
0
100
AcDbLine
 10
10.55679446433998
 20
7.558873042152416
 30
0.0
 11
10.55679446433998
 21
7.550999026404385
 31
0.0
  0
LINE
  5
921
330
1E
100
AcDbEntity
  8
0
100
AcDbLine
 10
10.55679446433998
 20
7.550999026404385
 30
0.0
 11
10.55679446433998
 21
7.52737697916029
 31
0.0
  0
LINE
  5
922
330
1E
100
AcDbEntity
  8
0
100
AcDbLine
 10
10.55679446433998
 20
7.52737697916029
 30
0.0
 11
10.55679446433998
 21
7.49194390829415
 31
0.0
  0
LINE
  5
923
330
1E
100
AcDbEntity
  8
0
100
AcDbLine
 10
10.55679446433998
 20
7.49194390829415
 30
0.0
 11
10.55679446433998
 21
7.448636821679976
 31
0.0
  0
ENDSEC
  0
SECTION
  2
OBJECTS
  0
DICTIONARY
  5
C
330
0
100
AcDbDictionary
  3
ACAD_GROUP
350
D
  3
ACAD_MLINESTYLE
350
16
  3
ACAD_PLOTSETTINGS
350
18
  3
ACAD_LAYOUT
350
19
1001
ACAD
1000
TREAT_AS_HARD
1070
     0
  0
DICTIONARY
  5
98E
330
1E
100
AcDbDictionary
  3
ACAD_LAYOUTSELFREF
350
98F
  0
DICTIONARY
  5
98C
330
1A
100
AcDbDictionary
  3
ACAD_LAYOUTSELFREF
350
98D
  0
DICTIONARY
  5
D
102
{ACAD_REACTORS
330
C
102
}
330
C
100
AcDbDictionary
1001
ACAD
1000
TREAT_AS_HARD
1070
     0
  0
DICTIONARY
  5
16
102
{ACAD_REACTORS
330
C
102
}
330
C
100
AcDbDictionary
  3
STANDARD
350
17
1001
ACAD
1000
TREAT_AS_HARD
1070
     0
  0
DICTIONARY
  5
18
102
{ACAD_REACTORS
330
C
102
}
330
C
100
AcDbDictionary
1001
ACAD
1000
TREAT_AS_HARD
1070
     0
  0
DICTIONARY
  5
19
102
{ACAD_REACTORS
330
C
102
}
330
C
100
AcDbDictionary
1001
ACAD
1000
TREAT_AS_HARD
1070
     0
  0
XRECORD
  5
98F
102
{ACAD_REACTORS
330
98E
102
}
330
98E
100
AcDbXrecord
340
1E
  0
XRECORD
  5
98D
102
{ACAD_REACTORS
330
98C
102
}
330
98C
100
AcDbXrecord
340
1A
  0
MLINESTYLE
  5
17
102
{ACAD_REACTORS
330
16
102
}
330
16
100
AcDbMlineStyle
  2
STANDARD
 70
     0
  3

 62
   256
 51
90.0
 52
90.0
 71
     2
 49
0.5
 62
   256
  6
BYLAYER
 49
-0.5
 62
   256
  6
BYLAYER
  0
ENDSEC
  0
EOF
