  0
SECTION
  2
HEADER
  9
$ACADVER
  1
AC1015
  9
$ACADMAINTVER
 70
     6
  9
$DWGCODEPAGE
  3
ANSI_1252
  9
$INSBASE
 10
0.0
 20
0.0
 30
0.0
  9
$EXTMIN
 10
-0.5
 20
-0.5
 30
-0.5
  9
$EXTMAX
 10
5.0
 20
5.0
 30
5.0
  9
$LIMMIN
 10
-0.5
 20
-0.5
  9
$LIMMAX
 10
5.0
 20
5.0
  9
$ORTHOMODE
 70
     0
  9
$REGENMODE
 70
     1
  9
$FILLMODE
 70
     1
  9
$QTEXTMODE
 70
     0
  9
$MIRRTEXT
 70
     1
  9
$LTSCALE
 40
1.0
  9
$ATTMODE
 70
     1
  9
$TEXTSIZE
 40
0.2
  9
$TRACEWID
 40
0.05
  9
$TEXTSTYLE
  7
Standard
  9
$CLAYER
  8
0
  9
$CELTYPE
  6
ByLayer
  9
$CECOLOR
 62
   256
  9
$CELTSCALE
 40
1.0
  9
$DISPSILH
 70
     0
  9
$DIMSCALE
 40
1.0
  9
$DIMASZ
 40
0.18
  9
$DIMEXO
 40
0.0625
  9
$DIMDLI
 40
0.38
  9
$DIMRND
 40
0.0
  9
$DIMDLE
 40
0.0
  9
$DIMEXE
 40
0.18
  9
$DIMTP
 40
0.0
  9
$DIMTM
 40
0.0
  9
$DIMTXT
 40
0.18
  9
$DIMCEN
 40
0.09
  9
$DIMTSZ
 40
0.0
  9
$DIMTOL
 70
     0
  9
$DIMLIM
 70
     0
  9
$DIMTIH
 70
     1
  9
$DIMTOH
 70
     1
  9
$DIMSE1
 70
     0
  9
$DIMSE2
 70
     0
  9
$DIMTAD
 70
     0
  9
$DIMZIN
 70
     0
  9
$DIMBLK
  1

  9
$DIMASO
 70
     1
  9
$DIMSHO
 70
     1
  9
$DIMPOST
  1

  9
$DIMAPOST
  1

  9
$DIMALT
 70
     0
  9
$DIMALTD
 70
     2
  9
$DIMALTF
 40
25.4
  9
$DIMLFAC
 40
1.0
  9
$DIMTOFL
 70
     0
  9
$DIMTVP
 40
0.0
  9
$DIMTIX
 70
     0
  9
$DIMSOXD
 70
     0
  9
$DIMSAH
 70
     0
  9
$DIMBLK1
  1

  9
$DIMBLK2
  1

  9
$DIMSTYLE
  2
Standard
  9
$DIMCLRD
 70
     0
  9
$DIMCLRE
 70
     0
  9
$DIMCLRT
 70
     0
  9
$DIMTFAC
 40
1.0
  9
$DIMGAP
 40
0.09
  9
$DIMJUST
 70
     0
  9
$DIMSD1
 70
     0
  9
$DIMSD2
 70
     0
  9
$DIMTOLJ
 70
     1
  9
$DIMTZIN
 70
     0
  9
$DIMALTZ
 70
     0
  9
$DIMALTTZ
 70
     0
  9
$DIMUPT
 70
     0
  9
$DIMDEC
 70
     4
  9
$DIMTDEC
 70
     4
  9
$DIMALTU
 70
     2
  9
$DIMALTTD
 70
     2
  9
$DIMTXSTY
  7
Standard
  9
$DIMAUNIT
 70
     0
  9
$DIMADEC
 70
     0
  9
$DIMALTRND
 40
0.0
  9
$DIMAZIN
 70
     0
  9
$DIMDSEP
 70
    46
  9
$DIMATFIT
 70
     3
  9
$DIMFRAC
 70
     0
  9
$DIMLDRBLK
  1

  9
$DIMLUNIT
 70
     2
  9
$DIMLWD
 70
    -2
  9
$DIMLWE
 70
    -2
  9
$DIMTMOVE
 70
     0
  9
$LUNITS
 70
     2
  9
$LUPREC
 70
     4
  9
$SKETCHINC
 40
0.1
  9
$FILLETRAD
 40
0.5
  9
$AUNITS
 70
     0
  9
$AUPREC
 70
     0
  9
$MENU
  1
.
  9
$ELEVATION
 40
0.0
  9
$PELEVATION
 40
0.0
  9
$THICKNESS
 40
0.0
  9
$LIMCHECK
 70
     0
  9
$CHAMFERA
 40
0.5
  9
$CHAMFERB
 40
0.5
  9
$CHAMFERC
 40
1.0
  9
$CHAMFERD
 40
0.0
  9
$SKPOLY
 70
     0
  9
$TDCREATE
 40
2456776.414374479
  9
$TDUCREATE
 40
2456776.622707813
  9
$TDUPDATE
 40
2456776.414374491
  9
$TDUUPDATE
 40
2456776.622707824
  9
$TDINDWG
 40
0.0000000116
  9
$TDUSRTIMER
 40
0.0000000116
  9
$USRTIMER
 70
     1
  9
$ANGBASE
 50
0.0
  9
$ANGDIR
 70
     0
  9
$PDMODE
 70
     0
  9
$PDSIZE
 40
0.0
  9
$PLINEWID
 40
0.0
  9
$SPLFRAME
 70
     0
  9
$SPLINETYPE
 70
     6
  9
$SPLINESEGS
 70
     8
  9
$HANDSEED
  5
2AB
  9
$SURFTAB1
 70
     6
  9
$SURFTAB2
 70
     6
  9
$SURFTYPE
 70
     6
  9
$SURFU
 70
     6
  9
$SURFV
 70
     6
  9
$UCSBASE
  2

  9
$UCSNAME
  2

  9
$UCSORG
 10
0.0
 20
0.0
 30
0.0
  9
$UCSXDIR
 10
1.0
 20
0.0
 30
0.0
  9
$UCSYDIR
 10
0.0
 20
1.0
 30
0.0
  9
$UCSORTHOREF
  2

  9
$UCSORTHOVIEW
 70
     0
  9
$UCSORGTOP
 10
0.0
 20
0.0
 30
0.0
  9
$UCSORGBOTTOM
 10
0.0
 20
0.0
 30
0.0
  9
$UCSORGLEFT
 10
0.0
 20
0.0
 30
0.0
  9
$UCSORGRIGHT
 10
0.0
 20
0.0
 30
0.0
  9
$UCSORGFRONT
 10
0.0
 20
0.0
 30
0.0
  9
$UCSORGBACK
 10
0.0
 20
0.0
 30
0.0
  9
$PUCSBASE
  2

  9
$PUCSNAME
  2

  9
$PUCSORG
 10
0.0
 20
0.0
 30
0.0
  9
$PUCSXDIR
 10
1.0
 20
0.0
 30
0.0
  9
$PUCSYDIR
 10
0.0
 20
1.0
 30
0.0
  9
$PUCSORTHOREF
  2

  9
$PUCSORTHOVIEW
 70
     0
  9
$PUCSORGTOP
 10
0.0
 20
0.0
 30
0.0
  9
$PUCSORGBOTTOM
 10
0.0
 20
0.0
 30
0.0
  9
$PUCSORGLEFT
 10
0.0
 20
0.0
 30
0.0
  9
$PUCSORGRIGHT
 10
0.0
 20
0.0
 30
0.0
  9
$PUCSORGFRONT
 10
0.0
 20
0.0
 30
0.0
  9
$PUCSORGBACK
 10
0.0
 20
0.0
 30
0.0
  9
$USERI1
 70
     0
  9
$USERI2
 70
     0
  9
$USERI3
 70
     0
  9
$USERI4
 70
     0
  9
$USERI5
 70
     0
  9
$USERR1
 40
0.0
  9
$USERR2
 40
0.0
  9
$USERR3
 40
0.0
  9
$USERR4
 40
0.0
  9
$USERR5
 40
0.0
  9
$WORLDVIEW
 70
     1
  9
$SHADEDGE
 70
     3
  9
$SHADEDIF
 70
    70
  9
$TILEMODE
 70
     0
  9
$MAXACTVP
 70
    64
  9
$PINSBASE
 10
0.0
 20
0.0
 30
0.0
  9
$PLIMCHECK
 70
     0
  9
$PEXTMIN
 10
0.0
 20
0.0
 30
0.0
  9
$PEXTMAX
 10
22.0
 20
17.0
 30
0.0
  9
$PLIMMIN
 10
0.0
 20
0.0
  9
$PLIMMAX
 10
22.0
 20
17.0
  9
$UNITMODE
 70
     0
  9
$VISRETAIN
 70
     1
  9
$PLINEGEN
 70
     0
  9
$PSLTSCALE
 70
     1
  9
$TREEDEPTH
 70
  3020
  9
$CMLSTYLE
  2
Standard
  9
$CMLJUST
 70
     0
  9
$CMLSCALE
 40
1.0
  9
$PROXYGRAPHICS
 70
     1
  9
$MEASUREMENT
 70
     0
  9
$CELWEIGHT
370
    -1
  9
$ENDCAPS
280
     0
  9
$JOINSTYLE
280
     0
  9
$LWDISPLAY
290
     0
  9
$INSUNITS
 70
     1
  9
$HYPERLINKBASE
  1

  9
$STYLESHEET
  1

  9
$XEDIT
290
     1
  9
$CEPSNTYPE
380
     0
  9
$PSTYLEMODE
290
     1
  9
$FINGERPRINTGUID
  2
{EE481120-C6D0-46AA-B310-B2ACADFC47DE}
  9
$VERSIONGUID
  2
{FAEB1C32-E019-11D5-929B-00C0DF256EC4}
  9
$EXTNAMES
290
     1
  9
$PSVPSCALE
 40
0.0
  9
$OLESTARTUP
290
     0
  0
ENDSEC
  0
SECTION
  2
CLASSES
  0
CLASS
  1
ACDBDICTIONARYWDFLT
  2
AcDbDictionaryWithDefault
  3
ObjectDBX Classes
 90
        0
280
     0
281
     0
  0
CLASS
  1
VISUALSTYLE
  2
AcDbVisualStyle
  3
ObjectDBX Classes
 90
     4095
280
     0
281
     0
  0
CLASS
  1
MATERIAL
  2
AcDbMaterial
  3
ObjectDBX Classes
 90
     1153
280
     0
281
     0
  0
CLASS
  1
DICTIONARYVAR
  2
AcDbDictionaryVar
  3
ObjectDBX Classes
 90
        0
280
     0
281
     0
  0
CLASS
  1
ACDBPLACEHOLDER
  2
AcDbPlaceHolder
  3
ObjectDBX Classes
 90
        0
280
     0
281
     0
  0
CLASS
  1
LAYOUT
  2
AcDbLayout
  3
ObjectDBX Classes
 90
        0
280
     0
281
     0
  0
ENDSEC
  0
SECTION
  2
TABLES
  0
TABLE
  2
VPORT
  5
8
330
0
100
AcDbSymbolTable
 70
    17
  0
VPORT
  5
29
330
8
100
AcDbSymbolTableRecord
100
AcDbViewportTableRecord
  2
DUMMY
 70
     0
 10
0.0
 20
0.0
 11
1.0
 21
1.0
 12
10.429907
 22
4.5
 13
0.0
 23
0.0
 14
0.5
 24
0.5
 15
0.5
 25
0.5
 16
0.0
 26
0.0
 36
1.0
 17
0.0
 27
0.0
 37
0.0
 40
9.0
 41
1.972973
 42
50.0
 43
0.0
 44
0.0
 50
0.0
 51
0.0
 71
     0
 72
   100
 73
     1
 74
     3
 75
     0
 76
     0
 77
     0
 78
     0
281
     0
 65
     1
110
0.0
120
0.0
130
0.0
111
1.0
121
0.0
131
0.0
112
0.0
122
1.0
132
0.0
 79
     0
146
0.0
  0
VPORT
  5
270
330
8
100
AcDbSymbolTableRecord
100
AcDbViewportTableRecord
  2
*ACTIVE
 70
     0
 10
0.0
 20
0.0
 11
1.0
 21
1.0
 12
-6.834472
 22
-6.834472
 13
0.0
 23
0.0
 14
0.5
 24
0.5
 15
0.5
 25
0.5
 16
0.7188730927569434
 26
-0.5850486126764431
 36
0.3754192287502549
 17
0.0
 27
0.0
 37
0.0
 40
61.350868
 41
0.28943
 42
50.0
 43
482.07238
 44
-482.07238
 50
0.0
 51
0.0
 71
     0
 72
   100
 73
     1
 74
     3
 75
     0
 76
     0
 77
     0
 78
     0
281
     0
 65
     1
110
0.0
120
0.0
130
0.0
111
1.0
121
0.0
131
0.0
112
0.0
122
1.0
132
0.0
 79
     0
146
0.0
  0
VPORT
  5
271
330
8
100
AcDbSymbolTableRecord
100
AcDbViewportTableRecord
  2
L1
 70
     0
 10
0.0
 20
0.0
 11
1.0
 21
1.0
 12
-6.834472
 22
-6.834472
 13
0.0
 23
0.0
 14
0.5
 24
0.5
 15
0.5
 25
0.5
 16
0.7188730927569434
 26
-0.5850486126764431
 36
0.3754192287502549
 17
0.0
 27
0.0
 37
0.0
 40
61.350868
 41
0.28943
 42
50.0
 43
482.07238
 44
-482.07238
 50
0.0
 51
0.0
 71
     0
 72
   100
 73
     1
 74
     3
 75
     0
 76
     0
 77
     0
 78
     0
281
     0
 65
     1
110
0.0
120
0.0
130
0.0
111
1.0
121
0.0
131
0.0
112
0.0
122
1.0
132
0.0
 79
     0
146
0.0
  0
VPORT
  5
272
330
8
100
AcDbSymbolTableRecord
100
AcDbViewportTableRecord
  2
L2
 70
     0
 10
0.0
 20
0.0
 11
0.5
 21
1.0
 12
0.0
 22
0.0
 13
0.0
 23
0.0
 14
0.5
 24
0.5
 15
0.5
 25
0.5
 16
0.0
 26
-1.0
 36
0.0
 17
0.0
 27
0.0
 37
0.0
 40
59.28775
 41
0.299501
 42
50.0
 43
30.446227
 44
-30.446227
 50
0.0
 51
0.0
 71
     0
 72
   100
 73
     1
 74
     3
 75
     0
 76
     0
 77
     0
 78
     0
281
     0
 65
     1
110
0.0
120
0.0
130
0.0
111
1.0
121
0.0
131
0.0
112
0.0
122
1.0
132
0.0
 79
     0
146
0.0
  0
VPORT
  5
273
330
8
100
AcDbSymbolTableRecord
100
AcDbViewportTableRecord
  2
L2
 70
     0
 10
0.5
 20
0.0
 11
1.0
 21
1.0
 12
0.0
 22
0.0
 13
0.0
 23
0.0
 14
0.5
 24
0.5
 15
0.5
 25
0.5
 16
1.0
 26
0.0
 36
0.0
 17
0.0
 27
0.0
 37
0.0
 40
59.28775
 41
0.299501
 42
50.0
 43
30.05782
 44
-30.05782
 50
0.0
 51
0.0
 71
     0
 72
   100
 73
     1
 74
     3
 75
     0
 76
     0
 77
     0
 78
     0
281
     0
 65
     1
110
0.0
120
0.0
130
0.0
111
1.0
121
0.0
131
0.0
112
0.0
122
1.0
132
0.0
 79
     0
146
0.0
  0
VPORT
  5
274
330
8
100
AcDbSymbolTableRecord
100
AcDbViewportTableRecord
  2
L3
 70
     0
 10
0.0
 20
0.5
 11
1.0
 21
1.0
 12
0.0
 22
0.0
 13
0.0
 23
0.0
 14
0.5
 24
0.5
 15
0.5
 25
0.5
 16
0.0
 26
0.0
 36
1.0
 17
0.0
 27
0.0
 37
0.0
 40
9.942483
 41
1.785948
 42
50.0
 43
29.643875
 44
-29.643875
 50
0.0
 51
0.0
 71
     0
 72
   100
 73
     1
 74
     3
 75
     0
 76
     0
 77
     0
 78
     0
281
     0
 65
     1
110
0.0
120
0.0
130
0.0
111
1.0
121
0.0
131
0.0
112
0.0
122
1.0
132
0.0
 79
     0
146
0.0
  0
VPORT
  5
275
330
8
100
AcDbSymbolTableRecord
100
AcDbViewportTableRecord
  2
L3
 70
     0
 10
0.0
 20
0.0
 11
1.0
 21
0.5
 12
0.0
 22
0.0
 13
0.0
 23
0.0
 14
0.5
 24
0.5
 15
0.5
 25
0.5
 16
0.0
 26
-1.0
 36
0.0
 17
0.0
 27
0.0
 37
0.0
 40
59.28775
 41
0.299501
 42
50.0
 43
30.446227
 44
-30.446227
 50
0.0
 51
0.0
 71
     0
 72
   100
 73
     1
 74
     3
 75
     0
 76
     0
 77
     0
 78
     0
281
     0
 65
     1
110
0.0
120
0.0
130
0.0
111
1.0
121
0.0
131
0.0
112
0.0
122
1.0
132
0.0
 79
     0
146
0.0
  0
VPORT
  5
276
330
8
100
AcDbSymbolTableRecord
100
AcDbViewportTableRecord
  2
L4
 70
     0
 10
0.0
 20
0.5
 11
0.5
 21
1.0
 12
0.0
 22
0.0
 13
0.0
 23
0.0
 14
0.5
 24
0.5
 15
0.5
 25
0.5
 16
0.0
 26
0.0
 36
1.0
 17
0.0
 27
0.0
 37
0.0
 40
9.942483
 41
1.785948
 42
50.0
 43
29.643875
 44
-29.643875
 50
0.0
 51
0.0
 71
     0
 72
   100
 73
     1
 74
     3
 75
     0
 76
     0
 77
     0
 78
     0
281
     0
 65
     1
110
0.0
120
0.0
130
0.0
111
1.0
121
0.0
131
0.0
112
0.0
122
1.0
132
0.0
 79
     0
146
0.0
  0
VPORT
  5
277
330
8
100
AcDbSymbolTableRecord
100
AcDbViewportTableRecord
  2
L4
 70
     0
 10
0.0
 20
0.0
 11
0.5
 21
0.5
 12
0.0
 22
0.0
 13
0.0
 23
0.0
 14
0.5
 24
0.5
 15
0.5
 25
0.5
 16
0.0
 26
-1.0
 36
0.0
 17
0.0
 27
0.0
 37
0.0
 40
59.28775
 41
0.299501
 42
50.0
 43
30.446227
 44
-30.446227
 50
0.0
 51
0.0
 71
     0
 72
   100
 73
     1
 74
     3
 75
     0
 76
     0
 77
     0
 78
     0
281
     0
 65
     1
110
0.0
120
0.0
130
0.0
111
1.0
121
0.0
131
0.0
112
0.0
122
1.0
132
0.0
 79
     0
146
0.0
  0
VPORT
  5
278
330
8
100
AcDbSymbolTableRecord
100
AcDbViewportTableRecord
  2
L4
 70
     0
 10
0.5
 20
0.0
 11
1.0
 21
0.5
 12
0.0
 22
0.0
 13
0.0
 23
0.0
 14
0.5
 24
0.5
 15
0.5
 25
0.5
 16
1.0
 26
0.0
 36
0.0
 17
0.0
 27
0.0
 37
0.0
 40
59.28775
 41
0.299501
 42
50.0
 43
30.05782
 44
-30.05782
 50
0.0
 51
0.0
 71
     0
 72
   100
 73
     1
 74
     3
 75
     0
 76
     0
 77
     0
 78
     0
281
     0
 65
     1
110
0.0
120
0.0
130
0.0
111
1.0
121
0.0
131
0.0
112
0.0
122
1.0
132
0.0
 79
     0
146
0.0
  0
VPORT
  5
279
330
8
100
AcDbSymbolTableRecord
100
AcDbViewportTableRecord
  2
L4
 70
     0
 10
0.5
 20
0.5
 11
1.0
 21
1.0
 12
0.0
 22
0.0
 13
0.0
 23
0.0
 14
0.5
 24
0.5
 15
0.5
 25
0.5
 16
0.5773502691896258
 26
-0.5773502691896258
 36
0.5773502691896258
 17
0.0
 27
0.0
 37
0.0
 40
58.136664
 41
0.305431
 42
50.0
 43
30.264658
 44
-30.264658
 50
0.0
 51
0.0
 71
     0
 72
   100
 73
     1
 74
     3
 75
     0
 76
     0
 77
     0
 78
     0
281
     0
 65
     1
110
0.0
120
0.0
130
0.0
111
1.0
121
0.0
131
0.0
112
0.0
122
1.0
132
0.0
 79
     0
146
0.0
  0
VPORT
  5
27A
330
8
100
AcDbSymbolTableRecord
100
AcDbViewportTableRecord
  2
L6
 70
     0
 10
0.0
 20
0.5
 11
0.333333
 21
1.0
 12
-6.834472
 22
-6.834472
 13
0.0
 23
0.0
 14
0.5
 24
0.5
 15
0.5
 25
0.5
 16
0.7188730927569434
 26
-0.5850486126764431
 36
0.3754192287502549
 17
0.0
 27
0.0
 37
0.0
 40
61.350868
 41
0.28943
 42
50.0
 43
482.07238
 44
-482.07238
 50
0.0
 51
0.0
 71
     0
 72
   100
 73
     1
 74
     3
 75
     0
 76
     0
 77
     0
 78
     0
281
     0
 65
     1
110
0.0
120
0.0
130
0.0
111
1.0
121
0.0
131
0.0
112
0.0
122
1.0
132
0.0
 79
     0
146
0.0
  0
VPORT
  5
27B
330
8
100
AcDbSymbolTableRecord
100
AcDbViewportTableRecord
  2
L6
 70
     0
 10
0.0
 20
0.0
 11
0.333333
 21
0.5
 12
0.0
 22
0.0
 13
0.0
 23
0.0
 14
0.5
 24
0.5
 15
0.5
 25
0.5
 16
-1.0
 26
0.0
 36
0.0
 17
0.0
 27
0.0
 37
0.0
 40
59.28775
 41
0.299501
 42
50.0
 43
30.05782
 44
-30.05782
 50
0.0
 51
0.0
 71
     0
 72
   100
 73
     1
 74
     3
 75
     0
 76
     0
 77
     0
 78
     0
281
     0
 65
     1
110
0.0
120
0.0
130
0.0
111
1.0
121
0.0
131
0.0
112
0.0
122
1.0
132
0.0
 79
     0
146
0.0
  0
VPORT
  5
27C
330
8
100
AcDbSymbolTableRecord
100
AcDbViewportTableRecord
  2
L6
 70
     0
 10
0.333333
 20
0.5
 11
0.666667
 21
1.0
 12
0.0
 22
0.0
 13
0.0
 23
0.0
 14
0.5
 24
0.5
 15
0.5
 25
0.5
 16
0.0
 26
0.0
 36
1.0
 17
0.0
 27
0.0
 37
0.0
 40
9.942483
 41
1.785948
 42
50.0
 43
29.643875
 44
-29.643875
 50
0.0
 51
0.0
 71
     0
 72
   100
 73
     1
 74
     3
 75
     0
 76
     0
 77
     0
 78
     0
281
     0
 65
     1
110
0.0
120
0.0
130
0.0
111
1.0
121
0.0
131
0.0
112
0.0
122
1.0
132
0.0
 79
     0
146
0.0
  0
VPORT
  5
27D
330
8
100
AcDbSymbolTableRecord
100
AcDbViewportTableRecord
  2
L6
 70
     0
 10
0.333333
 20
0.0
 11
0.666667
 21
0.5
 12
0.0
 22
0.0
 13
0.0
 23
0.0
 14
0.5
 24
0.5
 15
0.5
 25
0.5
 16
0.0
 26
-1.0
 36
0.0
 17
0.0
 27
0.0
 37
0.0
 40
59.28775
 41
0.299501
 42
50.0
 43
30.446227
 44
-30.446227
 50
0.0
 51
0.0
 71
     0
 72
   100
 73
     1
 74
     3
 75
     0
 76
     0
 77
     0
 78
     0
281
     0
 65
     1
110
0.0
120
0.0
130
0.0
111
1.0
121
0.0
131
0.0
112
0.0
122
1.0
132
0.0
 79
     0
146
0.0
  0
VPORT
  5
27E
330
8
100
AcDbSymbolTableRecord
100
AcDbViewportTableRecord
  2
L6
 70
     0
 10
0.666667
 20
0.5
 11
1.0
 21
1.0
 12
0.0
 22
0.0
 13
0.0
 23
0.0
 14
0.5
 24
0.5
 15
0.5
 25
0.5
 16
0.5773502691896258
 26
-0.5773502691896258
 36
0.5773502691896258
 17
0.0
 27
0.0
 37
0.0
 40
58.136664
 41
0.305431
 42
50.0
 43
30.264658
 44
-30.264658
 50
0.0
 51
0.0
 71
     0
 72
   100
 73
     1
 74
     3
 75
     0
 76
     0
 77
     0
 78
     0
281
     0
 65
     1
110
0.0
120
0.0
130
0.0
111
1.0
121
0.0
131
0.0
112
0.0
122
1.0
132
0.0
 79
     0
146
0.0
  0
VPORT
  5
27F
330
8
100
AcDbSymbolTableRecord
100
AcDbViewportTableRecord
  2
L6
 70
     0
 10
0.666667
 20
0.0
 11
1.0
 21
0.5
 12
0.0
 22
0.0
 13
0.0
 23
0.0
 14
0.5
 24
0.5
 15
0.5
 25
0.5
 16
1.0
 26
0.0
 36
0.0
 17
0.0
 27
0.0
 37
0.0
 40
59.28775
 41
0.299501
 42
50.0
 43
30.05782
 44
-30.05782
 50
0.0
 51
0.0
 71
     0
 72
   100
 73
     1
 74
     3
 75
     0
 76
     0
 77
     0
 78
     0
281
     0
 65
     1
110
0.0
120
0.0
130
0.0
111
1.0
121
0.0
131
0.0
112
0.0
122
1.0
132
0.0
 79
     0
146
0.0
  0
ENDTAB
  0
TABLE
  2
LTYPE
  5
5
330
0
100
AcDbSymbolTable
 70
     7
  0
LTYPE
  5
14
330
5
100
AcDbSymbolTableRecord
100
AcDbLinetypeTableRecord
  2
BYBLOCK
 70
     0
  3

 72
    65
 73
     0
 40
0.0
  0
LTYPE
  5
15
330
5
100
AcDbSymbolTableRecord
100
AcDbLinetypeTableRecord
  2
BYLAYER
 70
     0
  3

 72
    65
 73
     0
 40
0.0
  0
LTYPE
  5
16
330
5
100
AcDbSymbolTableRecord
100
AcDbLinetypeTableRecord
  2
CONTINUOUS
 70
     0
  3
Solid line
 72
    65
 73
     0
 40
0.0
  0
LTYPE
  5
40
330
5
100
AcDbSymbolTableRecord
100
AcDbLinetypeTableRecord
  2
DASHED
 70
     0
  3
__ __ __ __ __ __ __ __ __
 72
    65
 73
     2
 40
25.72
 49
12.86
 74
     4
 75
     0
340
0
 46
0.0
 50
0.0
 44
0.0
 45
0.0
 49
-12.86
 74
     4
 75
     0
340
0
 46
0.0
 50
0.0
 44
0.0
 45
0.0
  0
LTYPE
  5
41
330
5
100
AcDbSymbolTableRecord
100
AcDbLinetypeTableRecord
  2
HIDDEN
 70
     0
  3
_ _ _ _ _ _ _ _ _ _ _ _ _ _ _
 72
    65
 73
     2
 40
0.5
 49
0.25
 74
     4
 75
     0
340
0
 46
0.0
 50
0.0
 44
0.0
 45
0.0
 49
-0.25
 74
     4
 75
     0
340
0
 46
0.0
 50
0.0
 44
0.0
 45
0.0
  0
LTYPE
  5
42
330
5
100
AcDbSymbolTableRecord
100
AcDbLinetypeTableRecord
  2
PHANTOM
 70
     0
  3
____ _ _ ____ _ _ _____ _ _ ____
 72
    65
 73
     6
 40
50.5
 49
18.0
 74
     4
 75
     0
340
0
 46
0.0
 50
0.0
 44
0.0
 45
0.0
 49
-6.5
 74
     4
 75
     0
340
0
 46
0.0
 50
0.0
 44
0.0
 45
0.0
 49
6.5
 74
     4
 75
     0
340
0
 46
0.0
 50
0.0
 44
0.0
 45
0.0
 49
-6.5
 74
     4
 75
     0
340
0
 46
0.0
 50
0.0
 44
0.0
 45
0.0
 49
6.5
 74
     4
 75
     0
340
0
 46
0.0
 50
0.0
 44
0.0
 45
0.0
 49
-6.5
 74
     4
 75
     0
340
0
 46
0.0
 50
0.0
 44
0.0
 45
0.0
  0
LTYPE
  5
43
330
5
100
AcDbSymbolTableRecord
100
AcDbLinetypeTableRecord
  2
CENTER
 70
     0
  3
____ _ ____ _ ____ _ ____
 72
    65
 73
     4
 40
47.4
 49
22.0
 74
     4
 75
     0
340
0
 46
0.0
 50
0.0
 44
0.0
 45
0.0
 49
-8.5
 74
     4
 75
     0
340
0
 46
0.0
 50
0.0
 44
0.0
 45
0.0
 49
8.5
 74
     4
 75
     0
340
0
 46
0.0
 50
0.0
 44
0.0
 45
0.0
 49
-8.5
 74
     4
 75
     0
340
0
 46
0.0
 50
0.0
 44
0.0
 45
0.0
  0
LTYPE
  5
44
330
5
100
AcDbSymbolTableRecord
100
AcDbLinetypeTableRecord
  2
DOT
 70
     0
  3
.........................
 72
    65
 73
     2
 40
10.0
 49
0.0
 74
     4
 75
     0
340
0
 46
0.0
 50
0.0
 44
0.0
 45
0.0
 49
-10.0
 74
     4
 75
     0
340
0
 46
0.0
 50
0.0
 44
0.0
 45
0.0
  0
LTYPE
  5
45
330
5
100
AcDbSymbolTableRecord
100
AcDbLinetypeTableRecord
  2
DASHDOT
 70
     0
  3
_._._._._._._._._._._._._._._._.
 72
    65
 73
     4
 40
70.0
 49
31.0
 74
     4
 75
     0
340
0
 46
0.0
 50
0.0
 44
0.0
 45
0.0
 49
-13.0
 74
     4
 75
     0
340
0
 46
0.0
 50
0.0
 44
0.0
 45
0.0
 49
13.0
 74
     4
 75
     0
340
0
 46
0.0
 50
0.0
 44
0.0
 45
0.0
 49
-13.0
 74
     4
 75
     0
340
0
 46
0.0
 50
0.0
 44
0.0
 45
0.0
  0
ENDTAB
  0
TABLE
  2
LAYER
  5
2
330
0
100
AcDbSymbolTable
 70
     2
  0
LAYER
  5
10
330
2
100
AcDbSymbolTableRecord
100
AcDbLayerTableRecord
  2
0
 70
     0
 62
     7
  6
CONTINUOUS
370
    -3
390
F
  0
LAYER
  5
53
330
2
100
AcDbSymbolTableRecord
100
AcDbLayerTableRecord
  2
1
 70
     0
 62
     7
  6
CONTINUOUS
370
    -3
390
F
  0
ENDTAB
  0
TABLE
  2
STYLE
  5
3
330
0
100
AcDbSymbolTable
 70
     1
  0
STYLE
  5
11
330
3
100
AcDbSymbolTableRecord
100
AcDbTextStyleTableRecord
  2
Standard
 70
     0
 40
0.0
 41
1.0
 50
0.0
 71
     0
 42
0.2
  3
txt
  4

  0
ENDTAB
  0
TABLE
  2
VIEW
  5
6
330
0
100
AcDbSymbolTable
 70
     8
  0
VIEW
  5
46
330
6
100
AcDbSymbolTableRecord
100
AcDbViewTableRecord
  2
TOP
 70
     0
 40
9.942483
 10
0.0
 20
0.0
 41
13.88718
 11
0.0
 21
0.0
 31
1.0
 12
0.0
 22
0.0
 32
0.0
 42
50.0
 43
29.643875
 44
-29.643875
 50
0.0
 71
     0
281
     0
 72
     0
  0
VIEW
  5
47
330
6
100
AcDbSymbolTableRecord
100
AcDbViewTableRecord
  2
FRONT
 70
     0
 40
59.28775
 10
0.0
 20
0.0
 41
13.88718
 11
0.0
 21
-1.0
 31
0.0
 12
0.0
 22
0.0
 32
0.0
 42
50.0
 43
30.446227
 44
-30.446227
 50
0.0
 71
     0
281
     0
 72
     0
  0
VIEW
  5
48
330
6
100
AcDbSymbolTableRecord
100
AcDbViewTableRecord
  2
RIGHT
 70
     0
 40
59.28775
 10
0.0
 20
0.0
 41
9.942483
 11
1.0
 21
0.0
 31
0.0
 12
0.0
 22
0.0
 32
0.0
 42
50.0
 43
30.05782
 44
-30.05782
 50
0.0
 71
     0
281
     0
 72
     0
  0
VIEW
  5
49
330
6
100
AcDbSymbolTableRecord
100
AcDbViewTableRecord
  2
BACK
 70
     0
 40
59.28775
 10
0.0
 20
0.0
 41
13.88718
 11
0.0
 21
1.0
 31
0.0
 12
0.0
 22
0.0
 32
0.0
 42
50.0
 43
30.446227
 44
-30.446227
 50
0.0
 71
     0
281
     0
 72
     0
  0
VIEW
  5
4A
330
6
100
AcDbSymbolTableRecord
100
AcDbViewTableRecord
  2
BOTTOM
 70
     0
 40
9.942483
 10
0.0
 20
0.0
 41
13.88718
 11
0.0
 21
0.0
 31
-1.0
 12
0.0
 22
0.0
 32
0.0
 42
50.0
 43
29.643875
 44
-29.643875
 50
180.0
 71
     0
281
     0
 72
     0
  0
VIEW
  5
4B
330
6
100
AcDbSymbolTableRecord
100
AcDbViewTableRecord
  2
LEFT
 70
     0
 40
59.28775
 10
0.0
 20
0.0
 41
9.942483
 11
-1.0
 21
0.0
 31
0.0
 12
0.0
 22
0.0
 32
0.0
 42
50.0
 43
30.05782
 44
-30.05782
 50
0.0
 71
     0
281
     0
 72
     0
  0
VIEW
  5
4C
330
6
100
AcDbSymbolTableRecord
100
AcDbViewTableRecord
  2
TFR-ISO
 70
     0
 40
58.136664
 10
0.0
 20
0.0
 41
16.850116
 11
0.5773502691896258
 21
-0.5773502691896258
 31
0.5773502691896258
 12
0.0
 22
0.0
 32
0.0
 42
50.0
 43
30.264658
 44
-30.264658
 50
0.0
 71
     0
281
     0
 72
     0
  0
VIEW
  5
4D
330
6
100
AcDbSymbolTableRecord
100
AcDbViewTableRecord
  2
TFR-TRI
 70
     0
 40
61.350868
 10
0.0
 20
0.0
 41
16.477288
 11
0.7188730927569434
 21
-0.5850486126764431
 31
0.3754192287502549
 12
0.0
 22
0.0
 32
0.0
 42
50.0
 43
31.762517
 44
-31.762517
 50
0.0
 71
     0
281
     0
 72
     0
  0
ENDTAB
  0
TABLE
  2
UCS
  5
7
330
0
100
AcDbSymbolTable
 70
     0
  0
ENDTAB
  0
TABLE
  2
APPID
  5
9
330
0
100
AcDbSymbolTable
 70
     1
  0
APPID
  5
12
330
9
100
AcDbSymbolTableRecord
100
AcDbRegAppTableRecord
  2
ACAD
 70
     0
  0
ENDTAB
  0
TABLE
  2
DIMSTYLE
  5
A
330
0
100
AcDbSymbolTable
 70
     1
100
AcDbDimStyleTable
  0
DIMSTYLE
105
27
330
A
100
AcDbSymbolTableRecord
100
AcDbDimStyleTableRecord
  2
Standard
 70
     0
178
     0
340
11
  0
ENDTAB
  0
TABLE
  2
BLOCK_RECORD
  5
1
330
0
100
AcDbSymbolTable
 70
     2
  0
BLOCK_RECORD
  5
1F
330
1
100
AcDbSymbolTableRecord
100
AcDbBlockTableRecord
  2
*Model_Space
340
22
  0
BLOCK_RECORD
  5
4E
330
1
100
AcDbSymbolTableRecord
100
AcDbBlockTableRecord
  2
*PAPER_SPACE
340
26F
  0
ENDTAB
  0
ENDSEC
  0
SECTION
  2
BLOCKS
  0
BLOCK
  5
20
330
1F
100
AcDbEntity
  8
0
100
AcDbBlockBegin
  2
*Model_Space
 70
     0
 10
0.0
 20
0.0
 30
0.0
  3
*Model_Space
  1

  0
ENDBLK
  5
21
330
1F
100
AcDbEntity
  8
0
100
AcDbBlockEnd
  0
BLOCK
  5
4F
330
4E
100
AcDbEntity
 67
     1
  8
0
100
AcDbBlockBegin
  2
*PAPER_SPACE
 70
     0
 10
0.0
 20
0.0
 30
0.0
  3
*PAPER_SPACE
  1

  0
ENDBLK
  5
50
330
4E
100
AcDbEntity
 67
     1
  8
0
100
AcDbBlockEnd
  0
ENDSEC
  0
SECTION
  2
ENTITIES
  0
VIEWPORT
  5
51
330
4E
100
AcDbEntity
 67
     1
  8
0
100
AcDbViewport
 10
11.0
 20
8.5
 30
0.0
 40
22.0
 41
17.0
 68
     1
 69
     1
 12
11.0
 22
8.5
 13
0.0
 23
0.0
 14
1.0
 24
1.0
 15
1.0
 25
1.0
 16
0.0
 26
0.0
 36
1.0
 17
0.0
 27
0.0
 37
0.0
 42
21.640363
 43
0.0
 44
0.0
 45
17.0
 50
0.0
 51
0.0
 72
   100
 90
   557152
  1

281
     0
 71
     1
 74
     0
110
0.0
120
0.0
130
0.0
111
1.0
121
0.0
131
0.0
112
0.0
122
1.0
132
0.0
 79
     0
146
0.0
  0
LINE
  5
52
330
4E
100
AcDbEntity
 67
     1
  8
1
  6
CONTINUOUS
 62
    18
100
AcDbLine
 10
19.700338
 20
11.788094
 30
0.0
 11
19.700338
 21
11.713874
 31
0.0
  0
LINE
  5
54
330
4E
100
AcDbEntity
 67
     1
  8
1
  6
CONTINUOUS
 62
    18
100
AcDbLine
 10
19.700338
 20
11.713874
 30
0.0
 11
19.700338
 21
11.640965
 31
0.0
  0
LINE
  5
55
330
4E
100
AcDbEntity
 67
     1
  8
1
  6
CONTINUOUS
 62
    18
100
AcDbLine
 10
19.700338
 20
11.640965
 30
0.0
 11
19.700338
 21
11.570653
 31
0.0
  0
LINE
  5
56
330
4E
100
AcDbEntity
 67
     1
  8
1
  6
CONTINUOUS
 62
    18
100
AcDbLine
 10
19.700338
 20
11.570653
 30
0.0
 11
19.700338
 21
11.50418
 31
0.0
  0
LINE
  5
57
330
4E
100
AcDbEntity
 67
     1
  8
1
  6
CONTINUOUS
 62
    18
100
AcDbLine
 10
19.700338
 20
11.50418
 30
0.0
 11
19.700338
 21
11.44272
 31
0.0
  0
LINE
  5
58
330
4E
100
AcDbEntity
 67
     1
  8
1
  6
CONTINUOUS
 62
    18
100
AcDbLine
 10
19.700338
 20
11.44272
 30
0.0
 11
19.700338
 21
11.387359
 31
0.0
  0
LINE
  5
59
330
4E
100
AcDbEntity
 67
     1
  8
1
  6
CONTINUOUS
 62
    18
100
AcDbLine
 10
19.700338
 20
11.387359
 30
0.0
 11
19.700338
 21
11.339072
 31
0.0
  0
LINE
  5
5A
330
4E
100
AcDbEntity
 67
     1
  8
1
  6
CONTINUOUS
 62
    18
100
AcDbLine
 10
19.700338
 20
12.577364
 30
0.0
 11
19.700338
 21
12.605175
 31
0.0
  0
LINE
  5
5B
330
4E
100
AcDbEntity
 67
     1
  8
1
  6
CONTINUOUS
 62
    18
100
AcDbLine
 10
19.700338
 20
12.605175
 30
0.0
 11
19.700338
 21
12.630264
 31
0.0
  0
LINE
  5
5C
330
4E
100
AcDbEntity
 67
     1
  8
1
  6
CONTINUOUS
 62
    18
100
AcDbLine
 10
19.700338
 20
12.630264
 30
0.0
 11
19.700338
 21
12.650175
 31
0.0
  0
LINE
  5
5D
330
4E
100
AcDbEntity
 67
     1
  8
1
  6
CONTINUOUS
 62
    18
100
AcDbLine
 10
19.700338
 20
12.650175
 30
0.0
 11
19.700338
 21
12.662958
 31
0.0
  0
LINE
  5
5E
330
4E
100
AcDbEntity
 67
     1
  8
1
  6
CONTINUOUS
 62
    18
100
AcDbLine
 10
19.700338
 20
12.662958
 30
0.0
 11
19.700338
 21
12.667363
 31
0.0
  0
LINE
  5
5F
330
4E
100
AcDbEntity
 67
     1
  8
1
  6
CONTINUOUS
 62
    18
100
AcDbLine
 10
19.700338
 20
12.577364
 30
0.0
 11
19.700338
 21
11.788094
 31
0.0
  0
LINE
  5
60
330
4E
100
AcDbEntity
 67
     1
  8
1
  6
CONTINUOUS
 62
    18
100
AcDbLine
 10
2.535338
 20
11.788094
 30
0.0
 11
2.535338
 21
11.713874
 31
0.0
  0
LINE
  5
61
330
4E
100
AcDbEntity
 67
     1
  8
1
  6
CONTINUOUS
 62
    18
100
AcDbLine
 10
2.535338
 20
11.713874
 30
0.0
 11
2.535338
 21
11.640965
 31
0.0
  0
LINE
  5
62
330
4E
100
AcDbEntity
 67
     1
  8
1
  6
CONTINUOUS
 62
    18
100
AcDbLine
 10
2.535338
 20
11.640965
 30
0.0
 11
2.535338
 21
11.570653
 31
0.0
  0
LINE
  5
63
330
4E
100
AcDbEntity
 67
     1
  8
1
  6
CONTINUOUS
 62
    18
100
AcDbLine
 10
2.535338
 20
11.570653
 30
0.0
 11
2.535338
 21
11.50418
 31
0.0
  0
LINE
  5
64
330
4E
100
AcDbEntity
 67
     1
  8
1
  6
CONTINUOUS
 62
    18
100
AcDbLine
 10
2.535338
 20
11.50418
 30
0.0
 11
2.535338
 21
11.44272
 31
0.0
  0
LINE
  5
65
330
4E
100
AcDbEntity
 67
     1
  8
1
  6
CONTINUOUS
 62
    18
100
AcDbLine
 10
2.535338
 20
11.44272
 30
0.0
 11
2.535338
 21
11.387359
 31
0.0
  0
LINE
  5
66
330
4E
100
AcDbEntity
 67
     1
  8
1
  6
CONTINUOUS
 62
    18
100
AcDbLine
 10
2.535338
 20
11.387359
 30
0.0
 11
2.535338
 21
11.339072
 31
0.0
  0
LINE
  5
67
330
4E
100
AcDbEntity
 67
     1
  8
1
  6
CONTINUOUS
 62
    18
100
AcDbLine
 10
2.535338
 20
12.577364
 30
0.0
 11
2.535338
 21
11.788094
 31
0.0
  0
LINE
  5
68
330
4E
100
AcDbEntity
 67
     1
  8
1
  6
CONTINUOUS
 62
    18
100
AcDbLine
 10
2.535338
 20
12.577364
 30
0.0
 11
2.535338
 21
12.605175
 31
0.0
  0
LINE
  5
69
330
4E
100
AcDbEntity
 67
     1
  8
1
  6
CONTINUOUS
 62
    18
100
AcDbLine
 10
2.535338
 20
12.605175
 30
0.0
 11
2.535338
 21
12.630264
 31
0.0
  0
LINE
  5
6A
330
4E
100
AcDbEntity
 67
     1
  8
1
  6
CONTINUOUS
 62
    18
100
AcDbLine
 10
2.535338
 20
12.630264
 30
0.0
 11
2.535338
 21
12.650175
 31
0.0
  0
LINE
  5
6B
330
4E
100
AcDbEntity
 67
     1
  8
1
  6
CONTINUOUS
 62
    18
100
AcDbLine
 10
2.535338
 20
12.650175
 30
0.0
 11
2.535338
 21
12.662958
 31
0.0
  0
LINE
  5
6C
330
4E
100
AcDbEntity
 67
     1
  8
1
  6
CONTINUOUS
 62
    18
100
AcDbLine
 10
2.535338
 20
12.662958
 30
0.0
 11
2.535338
 21
12.667363
 31
0.0
  0
LINE
  5
6D
330
4E
100
AcDbEntity
 67
     1
  8
1
  6
CONTINUOUS
 62
    18
100
AcDbLine
 10
2.535338
 20
12.607564
 30
0.0
 11
2.530771
 21
12.607564
 31
0.0
  0
LINE
  5
6E
330
4E
100
AcDbEntity
 67
     1
  8
1
  6
CONTINUOUS
 62
    18
100
AcDbLine
 10
2.530771
 20
12.607564
 30
0.0
 11
2.517765
 21
12.607564
 31
0.0
  0
LINE
  5
6F
330
4E
100
AcDbEntity
 67
     1
  8
1
  6
CONTINUOUS
 62
    18
100
AcDbLine
 10
2.517765
 20
12.607564
 30
0.0
 11
2.498299
 21
12.607564
 31
0.0
  0
LINE
  5
70
330
4E
100
AcDbEntity
 67
     1
  8
1
  6
CONTINUOUS
 62
    18
100
AcDbLine
 10
2.498299
 20
12.607564
 30
0.0
 11
2.475338
 21
12.607564
 31
0.0
  0
LINE
  5
71
330
4E
100
AcDbEntity
 67
     1
  8
1
  6
CONTINUOUS
 62
    18
100
AcDbLine
 10
2.427838
 20
12.607564
 30
0.0
 11
2.475338
 21
12.607564
 31
0.0
  0
LINE
  5
72
330
4E
100
AcDbEntity
 67
     1
  8
1
  6
CONTINUOUS
 62
    18
100
AcDbLine
 10
2.427838
 20
12.607564
 30
0.0
 11
2.404877
 21
12.607564
 31
0.0
  0
LINE
  5
73
330
4E
100
AcDbEntity
 67
     1
  8
1
  6
CONTINUOUS
 62
    18
100
AcDbLine
 10
2.404877
 20
12.607564
 30
0.0
 11
2.385412
 21
12.607564
 31
0.0
  0
LINE
  5
74
330
4E
100
AcDbEntity
 67
     1
  8
1
  6
CONTINUOUS
 62
    18
100
AcDbLine
 10
2.385412
 20
12.607564
 30
0.0
 11
2.372406
 21
12.607564
 31
0.0
  0
LINE
  5
75
330
4E
100
AcDbEntity
 67
     1
  8
1
  6
CONTINUOUS
 62
    18
100
AcDbLine
 10
2.372406
 20
12.607564
 30
0.0
 11
2.367838
 21
12.607564
 31
0.0
  0
LINE
  5
76
330
4E
100
AcDbEntity
 67
     1
  8
1
  6
CONTINUOUS
 62
    18
100
AcDbLine
 10
2.367838
 20
12.607564
 30
0.0
 11
2.363271
 21
12.607564
 31
0.0
  0
LINE
  5
77
330
4E
100
AcDbEntity
 67
     1
  8
1
  6
CONTINUOUS
 62
    18
100
AcDbLine
 10
2.363271
 20
12.607564
 30
0.0
 11
2.350265
 21
12.607564
 31
0.0
  0
LINE
  5
78
330
4E
100
AcDbEntity
 67
     1
  8
1
  6
CONTINUOUS
 62
    18
100
AcDbLine
 10
2.350265
 20
12.607564
 30
0.0
 11
2.330799
 21
12.607564
 31
0.0
  0
LINE
  5
79
330
4E
100
AcDbEntity
 67
     1
  8
1
  6
CONTINUOUS
 62
    18
100
AcDbLine
 10
2.330799
 20
12.607564
 30
0.0
 11
2.307838
 21
12.607564
 31
0.0
  0
LINE
  5
7A
330
4E
100
AcDbEntity
 67
     1
  8
1
  6
CONTINUOUS
 62
    18
100
AcDbLine
 10
2.307838
 20
12.607564
 30
0.0
 11
1.677838
 21
12.607564
 31
0.0
  0
LINE
  5
7B
330
4E
100
AcDbEntity
 67
     1
  8
1
  6
CONTINUOUS
 62
    18
100
AcDbLine
 10
1.677838
 20
12.607564
 30
0.0
 11
1.654877
 21
12.607564
 31
0.0
  0
LINE
  5
7C
330
4E
100
AcDbEntity
 67
     1
  8
1
  6
CONTINUOUS
 62
    18
100
AcDbLine
 10
1.654877
 20
12.607564
 30
0.0
 11
1.635412
 21
12.607564
 31
0.0
  0
LINE
  5
7D
330
4E
100
AcDbEntity
 67
     1
  8
1
  6
CONTINUOUS
 62
    18
100
AcDbLine
 10
1.635412
 20
12.607564
 30
0.0
 11
1.622406
 21
12.607564
 31
0.0
  0
LINE
  5
7E
330
4E
100
AcDbEntity
 67
     1
  8
1
  6
CONTINUOUS
 62
    18
100
AcDbLine
 10
1.622406
 20
12.607564
 30
0.0
 11
1.617838
 21
12.607564
 31
0.0
  0
LINE
  5
7F
330
4E
100
AcDbEntity
 67
     1
  8
1
  6
CONTINUOUS
 62
    18
100
AcDbLine
 10
20.617838
 20
12.607564
 30
0.0
 11
20.613272
 21
12.607564
 31
0.0
  0
LINE
  5
80
330
4E
100
AcDbEntity
 67
     1
  8
1
  6
CONTINUOUS
 62
    18
100
AcDbLine
 10
20.613272
 20
12.607564
 30
0.0
 11
20.600266
 21
12.607564
 31
0.0
  0
LINE
  5
81
330
4E
100
AcDbEntity
 67
     1
  8
1
  6
CONTINUOUS
 62
    18
100
AcDbLine
 10
20.600266
 20
12.607564
 30
0.0
 11
20.580799
 21
12.607564
 31
0.0
  0
LINE
  5
82
330
4E
100
AcDbEntity
 67
     1
  8
1
  6
CONTINUOUS
 62
    18
100
AcDbLine
 10
20.580799
 20
12.607564
 30
0.0
 11
20.557838
 21
12.607564
 31
0.0
  0
LINE
  5
83
330
4E
100
AcDbEntity
 67
     1
  8
1
  6
CONTINUOUS
 62
    18
100
AcDbLine
 10
20.557838
 20
12.607564
 30
0.0
 11
19.927839
 21
12.607564
 31
0.0
  0
LINE
  5
84
330
4E
100
AcDbEntity
 67
     1
  8
1
  6
CONTINUOUS
 62
    18
100
AcDbLine
 10
19.927839
 20
12.607564
 30
0.0
 11
19.904877
 21
12.607564
 31
0.0
  0
LINE
  5
85
330
4E
100
AcDbEntity
 67
     1
  8
1
  6
CONTINUOUS
 62
    18
100
AcDbLine
 10
19.904877
 20
12.607564
 30
0.0
 11
19.885412
 21
12.607564
 31
0.0
  0
LINE
  5
86
330
4E
100
AcDbEntity
 67
     1
  8
1
  6
CONTINUOUS
 62
    18
100
AcDbLine
 10
19.885412
 20
12.607564
 30
0.0
 11
19.872406
 21
12.607564
 31
0.0
  0
LINE
  5
87
330
4E
100
AcDbEntity
 67
     1
  8
1
  6
CONTINUOUS
 62
    18
100
AcDbLine
 10
19.872406
 20
12.607564
 30
0.0
 11
19.867838
 21
12.607564
 31
0.0
  0
LINE
  5
88
330
4E
100
AcDbEntity
 67
     1
  8
1
  6
CONTINUOUS
 62
    18
100
AcDbLine
 10
19.867838
 20
12.607564
 30
0.0
 11
19.863272
 21
12.607564
 31
0.0
  0
LINE
  5
89
330
4E
100
AcDbEntity
 67
     1
  8
1
  6
CONTINUOUS
 62
    18
100
AcDbLine
 10
19.863272
 20
12.607564
 30
0.0
 11
19.850266
 21
12.607564
 31
0.0
  0
LINE
  5
8A
330
4E
100
AcDbEntity
 67
     1
  8
1
  6
CONTINUOUS
 62
    18
100
AcDbLine
 10
19.850266
 20
12.607564
 30
0.0
 11
19.830799
 21
12.607564
 31
0.0
  0
LINE
  5
8B
330
4E
100
AcDbEntity
 67
     1
  8
1
  6
CONTINUOUS
 62
    18
100
AcDbLine
 10
19.830799
 20
12.607564
 30
0.0
 11
19.807838
 21
12.607564
 31
0.0
  0
LINE
  5
8C
330
4E
100
AcDbEntity
 67
     1
  8
1
  6
CONTINUOUS
 62
    18
100
AcDbLine
 10
19.760338
 20
12.607564
 30
0.0
 11
19.807838
 21
12.607564
 31
0.0
  0
LINE
  5
8D
330
4E
100
AcDbEntity
 67
     1
  8
1
  6
CONTINUOUS
 62
    18
100
AcDbLine
 10
19.760338
 20
12.607564
 30
0.0
 11
19.737377
 21
12.607564
 31
0.0
  0
LINE
  5
8E
330
4E
100
AcDbEntity
 67
     1
  8
1
  6
CONTINUOUS
 62
    18
100
AcDbLine
 10
19.737377
 20
12.607564
 30
0.0
 11
19.717913
 21
12.607564
 31
0.0
  0
LINE
  5
8F
330
4E
100
AcDbEntity
 67
     1
  8
1
  6
CONTINUOUS
 62
    18
100
AcDbLine
 10
19.717913
 20
12.607564
 30
0.0
 11
19.704906
 21
12.607564
 31
0.0
  0
LINE
  5
90
330
4E
100
AcDbEntity
 67
     1
  8
1
  6
CONTINUOUS
 62
    18
100
AcDbLine
 10
19.704906
 20
12.607564
 30
0.0
 11
19.700338
 21
12.607564
 31
0.0
  0
LINE
  5
91
330
4E
100
AcDbEntity
 67
     1
  8
1
  6
CONTINUOUS
 62
    18
100
AcDbLine
 10
1.617838
 20
12.667363
 30
0.0
 11
1.622406
 21
12.667363
 31
0.0
  0
LINE
  5
92
330
4E
100
AcDbEntity
 67
     1
  8
1
  6
CONTINUOUS
 62
    18
100
AcDbLine
 10
1.622406
 20
12.667363
 30
0.0
 11
1.635412
 21
12.667363
 31
0.0
  0
LINE
  5
93
330
4E
100
AcDbEntity
 67
     1
  8
1
  6
CONTINUOUS
 62
    18
100
AcDbLine
 10
1.635412
 20
12.667363
 30
0.0
 11
1.654877
 21
12.667363
 31
0.0
  0
LINE
  5
94
330
4E
100
AcDbEntity
 67
     1
  8
1
  6
CONTINUOUS
 62
    18
100
AcDbLine
 10
1.654877
 20
12.667363
 30
0.0
 11
1.677838
 21
12.667363
 31
0.0
  0
LINE
  5
95
330
4E
100
AcDbEntity
 67
     1
  8
1
  6
CONTINUOUS
 62
    18
100
AcDbLine
 10
1.677838
 20
12.667363
 30
0.0
 11
2.307838
 21
12.667363
 31
0.0
  0
LINE
  5
96
330
4E
100
AcDbEntity
 67
     1
  8
1
  6
CONTINUOUS
 62
    18
100
AcDbLine
 10
2.307838
 20
12.667363
 30
0.0
 11
2.330799
 21
12.667363
 31
0.0
  0
LINE
  5
97
330
4E
100
AcDbEntity
 67
     1
  8
1
  6
CONTINUOUS
 62
    18
100
AcDbLine
 10
2.330799
 20
12.667363
 30
0.0
 11
2.350265
 21
12.667363
 31
0.0
  0
LINE
  5
98
330
4E
100
AcDbEntity
 67
     1
  8
1
  6
CONTINUOUS
 62
    18
100
AcDbLine
 10
2.350265
 20
12.667363
 30
0.0
 11
2.363271
 21
12.667363
 31
0.0
  0
LINE
  5
99
330
4E
100
AcDbEntity
 67
     1
  8
1
  6
CONTINUOUS
 62
    18
100
AcDbLine
 10
2.363271
 20
12.667363
 30
0.0
 11
2.367838
 21
12.667363
 31
0.0
  0
LINE
  5
9A
330
4E
100
AcDbEntity
 67
     1
  8
1
  6
CONTINUOUS
 62
    18
100
AcDbLine
 10
2.367838
 20
12.667363
 30
0.0
 11
2.372406
 21
12.667363
 31
0.0
  0
LINE
  5
9B
330
4E
100
AcDbEntity
 67
     1
  8
1
  6
CONTINUOUS
 62
    18
100
AcDbLine
 10
2.372406
 20
12.667363
 30
0.0
 11
2.385412
 21
12.667363
 31
0.0
  0
LINE
  5
9C
330
4E
100
AcDbEntity
 67
     1
  8
1
  6
CONTINUOUS
 62
    18
100
AcDbLine
 10
2.385412
 20
12.667363
 30
0.0
 11
2.404877
 21
12.667363
 31
0.0
  0
LINE
  5
9D
330
4E
100
AcDbEntity
 67
     1
  8
1
  6
CONTINUOUS
 62
    18
100
AcDbLine
 10
2.404877
 20
12.667363
 30
0.0
 11
2.427838
 21
12.667363
 31
0.0
  0
LINE
  5
9E
330
4E
100
AcDbEntity
 67
     1
  8
1
  6
CONTINUOUS
 62
    18
100
AcDbLine
 10
2.427838
 20
12.667363
 30
0.0
 11
2.475338
 21
12.667363
 31
0.0
  0
LINE
  5
9F
330
4E
100
AcDbEntity
 67
     1
  8
1
  6
CONTINUOUS
 62
    18
100
AcDbLine
 10
2.475338
 20
12.667363
 30
0.0
 11
2.498299
 21
12.667363
 31
0.0
  0
LINE
  5
A0
330
4E
100
AcDbEntity
 67
     1
  8
1
  6
CONTINUOUS
 62
    18
100
AcDbLine
 10
2.498299
 20
12.667363
 30
0.0
 11
2.517765
 21
12.667363
 31
0.0
  0
LINE
  5
A1
330
4E
100
AcDbEntity
 67
     1
  8
1
  6
CONTINUOUS
 62
    18
100
AcDbLine
 10
2.517765
 20
12.667363
 30
0.0
 11
2.530771
 21
12.667363
 31
0.0
  0
LINE
  5
A2
330
4E
100
AcDbEntity
 67
     1
  8
1
  6
CONTINUOUS
 62
    18
100
AcDbLine
 10
2.530771
 20
12.667363
 30
0.0
 11
2.535338
 21
12.667363
 31
0.0
  0
LINE
  5
A3
330
4E
100
AcDbEntity
 67
     1
  8
1
  6
CONTINUOUS
 62
    18
100
AcDbLine
 10
19.700338
 20
12.667363
 30
0.0
 11
2.535338
 21
12.667363
 31
0.0
  0
LINE
  5
A4
330
4E
100
AcDbEntity
 67
     1
  8
1
  6
CONTINUOUS
 62
    18
100
AcDbLine
 10
19.700338
 20
12.667363
 30
0.0
 11
19.704906
 21
12.667363
 31
0.0
  0
LINE
  5
A5
330
4E
100
AcDbEntity
 67
     1
  8
1
  6
CONTINUOUS
 62
    18
100
AcDbLine
 10
19.704906
 20
12.667363
 30
0.0
 11
19.717913
 21
12.667363
 31
0.0
  0
LINE
  5
A6
330
4E
100
AcDbEntity
 67
     1
  8
1
  6
CONTINUOUS
 62
    18
100
AcDbLine
 10
19.717913
 20
12.667363
 30
0.0
 11
19.737377
 21
12.667363
 31
0.0
  0
LINE
  5
A7
330
4E
100
AcDbEntity
 67
     1
  8
1
  6
CONTINUOUS
 62
    18
100
AcDbLine
 10
19.737377
 20
12.667363
 30
0.0
 11
19.760338
 21
12.667363
 31
0.0
  0
LINE
  5
A8
330
4E
100
AcDbEntity
 67
     1
  8
1
  6
CONTINUOUS
 62
    18
100
AcDbLine
 10
19.760338
 20
12.667363
 30
0.0
 11
19.807838
 21
12.667363
 31
0.0
  0
LINE
  5
A9
330
4E
100
AcDbEntity
 67
     1
  8
1
  6
CONTINUOUS
 62
    18
100
AcDbLine
 10
19.807838
 20
12.667363
 30
0.0
 11
19.830799
 21
12.667363
 31
0.0
  0
LINE
  5
AA
330
4E
100
AcDbEntity
 67
     1
  8
1
  6
CONTINUOUS
 62
    18
100
AcDbLine
 10
19.830799
 20
12.667363
 30
0.0
 11
19.850266
 21
12.667363
 31
0.0
  0
LINE
  5
AB
330
4E
100
AcDbEntity
 67
     1
  8
1
  6
CONTINUOUS
 62
    18
100
AcDbLine
 10
19.850266
 20
12.667363
 30
0.0
 11
19.863272
 21
12.667363
 31
0.0
  0
LINE
  5
AC
330
4E
100
AcDbEntity
 67
     1
  8
1
  6
CONTINUOUS
 62
    18
100
AcDbLine
 10
19.863272
 20
12.667363
 30
0.0
 11
19.867838
 21
12.667363
 31
0.0
  0
LINE
  5
AD
330
4E
100
AcDbEntity
 67
     1
  8
1
  6
CONTINUOUS
 62
    18
100
AcDbLine
 10
19.867838
 20
12.667363
 30
0.0
 11
19.872406
 21
12.667363
 31
0.0
  0
LINE
  5
AE
330
4E
100
AcDbEntity
 67
     1
  8
1
  6
CONTINUOUS
 62
    18
100
AcDbLine
 10
19.872406
 20
12.667363
 30
0.0
 11
19.885412
 21
12.667363
 31
0.0
  0
LINE
  5
AF
330
4E
100
AcDbEntity
 67
     1
  8
1
  6
CONTINUOUS
 62
    18
100
AcDbLine
 10
19.885412
 20
12.667363
 30
0.0
 11
19.904877
 21
12.667363
 31
0.0
  0
LINE
  5
B0
330
4E
100
AcDbEntity
 67
     1
  8
1
  6
CONTINUOUS
 62
    18
100
AcDbLine
 10
19.904877
 20
12.667363
 30
0.0
 11
19.927839
 21
12.667363
 31
0.0
  0
LINE
  5
B1
330
4E
100
AcDbEntity
 67
     1
  8
1
  6
CONTINUOUS
 62
    18
100
AcDbLine
 10
19.927839
 20
12.667363
 30
0.0
 11
20.557838
 21
12.667363
 31
0.0
  0
LINE
  5
B2
330
4E
100
AcDbEntity
 67
     1
  8
1
  6
CONTINUOUS
 62
    18
100
AcDbLine
 10
20.557838
 20
12.667363
 30
0.0
 11
20.580799
 21
12.667363
 31
0.0
  0
LINE
  5
B3
330
4E
100
AcDbEntity
 67
     1
  8
1
  6
CONTINUOUS
 62
    18
100
AcDbLine
 10
20.580799
 20
12.667363
 30
0.0
 11
20.600266
 21
12.667363
 31
0.0
  0
LINE
  5
B4
330
4E
100
AcDbEntity
 67
     1
  8
1
  6
CONTINUOUS
 62
    18
100
AcDbLine
 10
20.600266
 20
12.667363
 30
0.0
 11
20.613272
 21
12.667363
 31
0.0
  0
LINE
  5
B5
330
4E
100
AcDbEntity
 67
     1
  8
1
  6
CONTINUOUS
 62
    18
100
AcDbLine
 10
20.613272
 20
12.667363
 30
0.0
 11
20.617838
 21
12.667363
 31
0.0
  0
LINE
  5
B6
330
4E
100
AcDbEntity
 67
     1
  8
1
  6
CONTINUOUS
 62
    18
100
AcDbLine
 10
17.099339
 20
12.406008
 30
0.0
 11
16.976299
 21
12.406008
 31
0.0
  0
LINE
  5
B7
330
4E
100
AcDbEntity
 67
     1
  8
1
  6
CONTINUOUS
 62
    18
100
AcDbLine
 10
17.144339
 20
12.361008
 30
0.0
 11
17.144339
 21
12.171008
 31
0.0
  0
LINE
  5
B8
330
4E
100
AcDbEntity
 67
     1
  8
1
  6
CONTINUOUS
 62
    18
100
AcDbLine
 10
17.075306
 20
12.171008
 30
0.0
 11
17.144339
 21
12.171008
 31
0.0
  0
LINE
  5
B9
330
4E
100
AcDbEntity
 67
     1
  8
1
  6
CONTINUOUS
 62
    18
100
AcDbLine
 10
17.294338
 20
12.171008
 30
0.0
 11
17.363371
 21
12.171008
 31
0.0
  0
LINE
  5
BA
330
4E
100
AcDbEntity
 67
     1
  8
1
  6
CONTINUOUS
 62
    18
100
AcDbLine
 10
17.294338
 20
12.171008
 30
0.0
 11
17.294338
 21
12.361008
 31
0.0
  0
LINE
  5
BB
330
4E
100
AcDbEntity
 67
     1
  8
1
  6
CONTINUOUS
 62
    18
100
AcDbLine
 10
17.730839
 20
12.406008
 30
0.0
 11
17.339338
 21
12.406008
 31
0.0
  0
LINE
  5
BC
330
4E
100
AcDbEntity
 67
     1
  8
1
  6
CONTINUOUS
 62
    18
100
AcDbLine
 10
17.775839
 20
12.361008
 30
0.0
 11
17.775839
 21
12.171008
 31
0.0
  0
LINE
  5
BD
330
4E
100
AcDbEntity
 67
     1
  8
1
  6
CONTINUOUS
 62
    18
100
AcDbLine
 10
17.706806
 20
12.171008
 30
0.0
 11
17.775839
 21
12.171008
 31
0.0
  0
LINE
  5
BE
330
4E
100
AcDbEntity
 67
     1
  8
1
  6
CONTINUOUS
 62
    18
100
AcDbLine
 10
17.925838
 20
12.171008
 30
0.0
 11
17.994871
 21
12.171008
 31
0.0
  0
LINE
  5
BF
330
4E
100
AcDbEntity
 67
     1
  8
1
  6
CONTINUOUS
 62
    18
100
AcDbLine
 10
17.925838
 20
12.171008
 30
0.0
 11
17.925838
 21
12.361008
 31
0.0
  0
LINE
  5
C0
330
4E
100
AcDbEntity
 67
     1
  8
1
  6
CONTINUOUS
 62
    18
100
AcDbLine
 10
18.362339
 20
12.406008
 30
0.0
 11
17.970839
 21
12.406008
 31
0.0
  0
LINE
  5
C1
330
4E
100
AcDbEntity
 67
     1
  8
1
  6
CONTINUOUS
 62
    18
100
AcDbLine
 10
18.407339
 20
12.361008
 30
0.0
 11
18.407339
 21
12.171008
 31
0.0
  0
LINE
  5
C2
330
4E
100
AcDbEntity
 67
     1
  8
1
  6
CONTINUOUS
 62
    18
100
AcDbLine
 10
18.338305
 20
12.171008
 30
0.0
 11
18.407339
 21
12.171008
 31
0.0
  0
LINE
  5
C3
330
4E
100
AcDbEntity
 67
     1
  8
1
  6
CONTINUOUS
 62
    18
100
AcDbLine
 10
18.557339
 20
12.171008
 30
0.0
 11
18.626371
 21
12.171008
 31
0.0
  0
LINE
  5
C4
330
4E
100
AcDbEntity
 67
     1
  8
1
  6
CONTINUOUS
 62
    18
100
AcDbLine
 10
18.557339
 20
12.171008
 30
0.0
 11
18.557339
 21
12.361008
 31
0.0
  0
LINE
  5
C5
330
4E
100
AcDbEntity
 67
     1
  8
1
  6
CONTINUOUS
 62
    18
100
AcDbLine
 10
18.993839
 20
12.406008
 30
0.0
 11
18.602339
 21
12.406008
 31
0.0
  0
LINE
  5
C6
330
4E
100
AcDbEntity
 67
     1
  8
1
  6
CONTINUOUS
 62
    18
100
AcDbLine
 10
19.038839
 20
12.361008
 30
0.0
 11
19.038839
 21
12.171008
 31
0.0
  0
LINE
  5
C7
330
4E
100
AcDbEntity
 67
     1
  8
1
  6
CONTINUOUS
 62
    18
100
AcDbLine
 10
18.969805
 20
12.171008
 30
0.0
 11
19.038839
 21
12.171008
 31
0.0
  0
LINE
  5
C8
330
4E
100
AcDbEntity
 67
     1
  8
1
  6
CONTINUOUS
 62
    18
100
AcDbLine
 10
19.188839
 20
12.171008
 30
0.0
 11
19.257872
 21
12.171008
 31
0.0
  0
LINE
  5
C9
330
4E
100
AcDbEntity
 67
     1
  8
1
  6
CONTINUOUS
 62
    18
100
AcDbLine
 10
19.188839
 20
12.171008
 30
0.0
 11
19.188839
 21
12.361008
 31
0.0
  0
LINE
  5
CA
330
4E
100
AcDbEntity
 67
     1
  8
1
  6
CONTINUOUS
 62
    18
100
AcDbLine
 10
19.356876
 20
12.406008
 30
0.0
 11
19.233839
 21
12.406008
 31
0.0
  0
LINE
  5
CB
330
4E
100
AcDbEntity
 67
     1
  8
1
  6
CONTINUOUS
 62
    18
100
AcDbLine
 10
19.401876
 20
11.843094
 30
0.0
 11
19.401876
 21
12.361008
 31
0.0
  0
LINE
  5
CC
330
4E
100
AcDbEntity
 67
     1
  8
1
  6
CONTINUOUS
 62
    18
100
AcDbLine
 10
16.976299
 20
11.798094
 30
0.0
 11
19.356876
 21
11.798094
 31
0.0
  0
LINE
  5
CD
330
4E
100
AcDbEntity
 67
     1
  8
1
  6
CONTINUOUS
 62
    18
100
AcDbLine
 10
16.931299
 20
12.361008
 30
0.0
 11
16.931299
 21
11.843094
 31
0.0
  0
LINE
  5
CE
330
4E
100
AcDbEntity
 67
     1
  8
1
  6
CONTINUOUS
 62
    18
100
AcDbLine
 10
14.111799
 20
12.361008
 30
0.0
 11
14.111799
 21
11.843094
 31
0.0
  0
LINE
  5
CF
330
4E
100
AcDbEntity
 67
     1
  8
1
  6
CONTINUOUS
 62
    18
100
AcDbLine
 10
14.279839
 20
12.406008
 30
0.0
 11
14.156799
 21
12.406008
 31
0.0
  0
LINE
  5
D0
330
4E
100
AcDbEntity
 67
     1
  8
1
  6
CONTINUOUS
 62
    18
100
AcDbLine
 10
14.324839
 20
12.361008
 30
0.0
 11
14.324839
 21
12.171008
 31
0.0
  0
LINE
  5
D1
330
4E
100
AcDbEntity
 67
     1
  8
1
  6
CONTINUOUS
 62
    18
100
AcDbLine
 10
14.255805
 20
12.171008
 30
0.0
 11
14.324839
 21
12.171008
 31
0.0
  0
LINE
  5
D2
330
4E
100
AcDbEntity
 67
     1
  8
1
  6
CONTINUOUS
 62
    18
100
AcDbLine
 10
14.474838
 20
12.171008
 30
0.0
 11
14.543872
 21
12.171008
 31
0.0
  0
LINE
  5
D3
330
4E
100
AcDbEntity
 67
     1
  8
1
  6
CONTINUOUS
 62
    18
100
AcDbLine
 10
14.474838
 20
12.171008
 30
0.0
 11
14.474838
 21
12.361008
 31
0.0
  0
LINE
  5
D4
330
4E
100
AcDbEntity
 67
     1
  8
1
  6
CONTINUOUS
 62
    18
100
AcDbLine
 10
14.911339
 20
12.406008
 30
0.0
 11
14.519838
 21
12.406008
 31
0.0
  0
LINE
  5
D5
330
4E
100
AcDbEntity
 67
     1
  8
1
  6
CONTINUOUS
 62
    18
100
AcDbLine
 10
14.956338
 20
12.361008
 30
0.0
 11
14.956338
 21
12.171008
 31
0.0
  0
LINE
  5
D6
330
4E
100
AcDbEntity
 67
     1
  8
1
  6
CONTINUOUS
 62
    18
100
AcDbLine
 10
14.887305
 20
12.171008
 30
0.0
 11
14.956338
 21
12.171008
 31
0.0
  0
LINE
  5
D7
330
4E
100
AcDbEntity
 67
     1
  8
1
  6
CONTINUOUS
 62
    18
100
AcDbLine
 10
15.106339
 20
12.171008
 30
0.0
 11
15.175371
 21
12.171008
 31
0.0
  0
LINE
  5
D8
330
4E
100
AcDbEntity
 67
     1
  8
1
  6
CONTINUOUS
 62
    18
100
AcDbLine
 10
15.106339
 20
12.171008
 30
0.0
 11
15.106339
 21
12.361008
 31
0.0
  0
LINE
  5
D9
330
4E
100
AcDbEntity
 67
     1
  8
1
  6
CONTINUOUS
 62
    18
100
AcDbLine
 10
15.542838
 20
12.406008
 30
0.0
 11
15.151339
 21
12.406008
 31
0.0
  0
LINE
  5
DA
330
4E
100
AcDbEntity
 67
     1
  8
1
  6
CONTINUOUS
 62
    18
100
AcDbLine
 10
15.587838
 20
12.361008
 30
0.0
 11
15.587838
 21
12.171008
 31
0.0
  0
LINE
  5
DB
330
4E
100
AcDbEntity
 67
     1
  8
1
  6
CONTINUOUS
 62
    18
100
AcDbLine
 10
15.518806
 20
12.171008
 30
0.0
 11
15.587838
 21
12.171008
 31
0.0
  0
LINE
  5
DC
330
4E
100
AcDbEntity
 67
     1
  8
1
  6
CONTINUOUS
 62
    18
100
AcDbLine
 10
15.737839
 20
12.171008
 30
0.0
 11
15.806871
 21
12.171008
 31
0.0
  0
LINE
  5
DD
330
4E
100
AcDbEntity
 67
     1
  8
1
  6
CONTINUOUS
 62
    18
100
AcDbLine
 10
15.737839
 20
12.171008
 30
0.0
 11
15.737839
 21
12.361008
 31
0.0
  0
LINE
  5
DE
330
4E
100
AcDbEntity
 67
     1
  8
1
  6
CONTINUOUS
 62
    18
100
AcDbLine
 10
16.174339
 20
12.406008
 30
0.0
 11
15.782839
 21
12.406008
 31
0.0
  0
LINE
  5
DF
330
4E
100
AcDbEntity
 67
     1
  8
1
  6
CONTINUOUS
 62
    18
100
AcDbLine
 10
16.219337
 20
12.361008
 30
0.0
 11
16.219337
 21
12.171008
 31
0.0
  0
LINE
  5
E0
330
4E
100
AcDbEntity
 67
     1
  8
1
  6
CONTINUOUS
 62
    18
100
AcDbLine
 10
16.150305
 20
12.171008
 30
0.0
 11
16.219337
 21
12.171008
 31
0.0
  0
LINE
  5
E1
330
4E
100
AcDbEntity
 67
     1
  8
1
  6
CONTINUOUS
 62
    18
100
AcDbLine
 10
16.369339
 20
12.171008
 30
0.0
 11
16.438372
 21
12.171008
 31
0.0
  0
LINE
  5
E2
330
4E
100
AcDbEntity
 67
     1
  8
1
  6
CONTINUOUS
 62
    18
100
AcDbLine
 10
16.369339
 20
12.171008
 30
0.0
 11
16.369339
 21
12.361008
 31
0.0
  0
LINE
  5
E3
330
4E
100
AcDbEntity
 67
     1
  8
1
  6
CONTINUOUS
 62
    18
100
AcDbLine
 10
16.537376
 20
12.406008
 30
0.0
 11
16.414339
 21
12.406008
 31
0.0
  0
LINE
  5
E4
330
4E
100
AcDbEntity
 67
     1
  8
1
  6
CONTINUOUS
 62
    18
100
AcDbLine
 10
16.582376
 20
11.843094
 30
0.0
 11
16.582376
 21
12.361008
 31
0.0
  0
LINE
  5
E5
330
4E
100
AcDbEntity
 67
     1
  8
1
  6
CONTINUOUS
 62
    18
100
AcDbLine
 10
14.156799
 20
11.798094
 30
0.0
 11
16.537376
 21
11.798094
 31
0.0
  0
LINE
  5
E6
330
4E
100
AcDbEntity
 67
     1
  8
1
  6
CONTINUOUS
 62
    18
100
AcDbLine
 10
2.8788
 20
12.406008
 30
0.0
 11
3.001838
 21
12.406008
 31
0.0
  0
LINE
  5
E7
330
4E
100
AcDbEntity
 67
     1
  8
1
  6
CONTINUOUS
 62
    18
100
AcDbLine
 10
3.046838
 20
12.171008
 30
0.0
 11
3.046838
 21
12.361008
 31
0.0
  0
LINE
  5
E8
330
4E
100
AcDbEntity
 67
     1
  8
1
  6
CONTINUOUS
 62
    18
100
AcDbLine
 10
3.046838
 20
12.171008
 30
0.0
 11
2.977805
 21
12.171008
 31
0.0
  0
LINE
  5
E9
330
4E
100
AcDbEntity
 67
     1
  8
1
  6
CONTINUOUS
 62
    18
100
AcDbLine
 10
3.265872
 20
12.171008
 30
0.0
 11
3.196838
 21
12.171008
 31
0.0
  0
LINE
  5
EA
330
4E
100
AcDbEntity
 67
     1
  8
1
  6
CONTINUOUS
 62
    18
100
AcDbLine
 10
3.196838
 20
12.361008
 30
0.0
 11
3.196838
 21
12.171008
 31
0.0
  0
LINE
  5
EB
330
4E
100
AcDbEntity
 67
     1
  8
1
  6
CONTINUOUS
 62
    18
100
AcDbLine
 10
3.241838
 20
12.406008
 30
0.0
 11
3.633338
 21
12.406008
 31
0.0
  0
LINE
  5
EC
330
4E
100
AcDbEntity
 67
     1
  8
1
  6
CONTINUOUS
 62
    18
100
AcDbLine
 10
3.678338
 20
12.171008
 30
0.0
 11
3.678338
 21
12.361008
 31
0.0
  0
LINE
  5
ED
330
4E
100
AcDbEntity
 67
     1
  8
1
  6
CONTINUOUS
 62
    18
100
AcDbLine
 10
3.678338
 20
12.171008
 30
0.0
 11
3.609305
 21
12.171008
 31
0.0
  0
LINE
  5
EE
330
4E
100
AcDbEntity
 67
     1
  8
1
  6
CONTINUOUS
 62
    18
100
AcDbLine
 10
3.897372
 20
12.171008
 30
0.0
 11
3.828338
 21
12.171008
 31
0.0
  0
LINE
  5
EF
330
4E
100
AcDbEntity
 67
     1
  8
1
  6
CONTINUOUS
 62
    18
100
AcDbLine
 10
3.828338
 20
12.361008
 30
0.0
 11
3.828338
 21
12.171008
 31
0.0
  0
LINE
  5
F0
330
4E
100
AcDbEntity
 67
     1
  8
1
  6
CONTINUOUS
 62
    18
100
AcDbLine
 10
3.873338
 20
12.406008
 30
0.0
 11
4.264838
 21
12.406008
 31
0.0
  0
LINE
  5
F1
330
4E
100
AcDbEntity
 67
     1
  8
1
  6
CONTINUOUS
 62
    18
100
AcDbLine
 10
4.309838
 20
12.171008
 30
0.0
 11
4.309838
 21
12.361008
 31
0.0
  0
LINE
  5
F2
330
4E
100
AcDbEntity
 67
     1
  8
1
  6
CONTINUOUS
 62
    18
100
AcDbLine
 10
4.309838
 20
12.171008
 30
0.0
 11
4.240805
 21
12.171008
 31
0.0
  0
LINE
  5
F3
330
4E
100
AcDbEntity
 67
     1
  8
1
  6
CONTINUOUS
 62
    18
100
AcDbLine
 10
4.528872
 20
12.171008
 30
0.0
 11
4.459838
 21
12.171008
 31
0.0
  0
LINE
  5
F4
330
4E
100
AcDbEntity
 67
     1
  8
1
  6
CONTINUOUS
 62
    18
100
AcDbLine
 10
4.459838
 20
12.361008
 30
0.0
 11
4.459838
 21
12.171008
 31
0.0
  0
LINE
  5
F5
330
4E
100
AcDbEntity
 67
     1
  8
1
  6
CONTINUOUS
 62
    18
100
AcDbLine
 10
4.504838
 20
12.406008
 30
0.0
 11
4.896338
 21
12.406008
 31
0.0
  0
LINE
  5
F6
330
4E
100
AcDbEntity
 67
     1
  8
1
  6
CONTINUOUS
 62
    18
100
AcDbLine
 10
4.941339
 20
12.171008
 30
0.0
 11
4.941339
 21
12.361008
 31
0.0
  0
LINE
  5
F7
330
4E
100
AcDbEntity
 67
     1
  8
1
  6
CONTINUOUS
 62
    18
100
AcDbLine
 10
4.941339
 20
12.171008
 30
0.0
 11
4.872305
 21
12.171008
 31
0.0
  0
LINE
  5
F8
330
4E
100
AcDbEntity
 67
     1
  8
1
  6
CONTINUOUS
 62
    18
100
AcDbLine
 10
5.160372
 20
12.171008
 30
0.0
 11
5.091339
 21
12.171008
 31
0.0
  0
LINE
  5
F9
330
4E
100
AcDbEntity
 67
     1
  8
1
  6
CONTINUOUS
 62
    18
100
AcDbLine
 10
5.091339
 20
12.361008
 30
0.0
 11
5.091339
 21
12.171008
 31
0.0
  0
LINE
  5
FA
330
4E
100
AcDbEntity
 67
     1
  8
1
  6
CONTINUOUS
 62
    18
100
AcDbLine
 10
5.136338
 20
12.406008
 30
0.0
 11
5.259377
 21
12.406008
 31
0.0
  0
LINE
  5
FB
330
4E
100
AcDbEntity
 67
     1
  8
1
  6
CONTINUOUS
 62
    18
100
AcDbLine
 10
5.304377
 20
12.361008
 30
0.0
 11
5.304377
 21
11.843094
 31
0.0
  0
LINE
  5
FC
330
4E
100
AcDbEntity
 67
     1
  8
1
  6
CONTINUOUS
 62
    18
100
AcDbLine
 10
2.8788
 20
11.798094
 30
0.0
 11
5.259377
 21
11.798094
 31
0.0
  0
LINE
  5
FD
330
4E
100
AcDbEntity
 67
     1
  8
1
  6
CONTINUOUS
 62
    18
100
AcDbLine
 10
2.8338
 20
11.843094
 30
0.0
 11
2.8338
 21
12.361008
 31
0.0
  0
LINE
  5
FE
330
4E
100
AcDbEntity
 67
     1
  8
1
  6
CONTINUOUS
 62
    18
100
AcDbLine
 10
5.6983
 20
12.406008
 30
0.0
 11
5.821338
 21
12.406008
 31
0.0
  0
LINE
  5
FF
330
4E
100
AcDbEntity
 67
     1
  8
1
  6
CONTINUOUS
 62
    18
100
AcDbLine
 10
5.866338
 20
12.171008
 30
0.0
 11
5.866338
 21
12.361008
 31
0.0
  0
LINE
  5
100
330
4E
100
AcDbEntity
 67
     1
  8
1
  6
CONTINUOUS
 62
    18
100
AcDbLine
 10
5.866338
 20
12.171008
 30
0.0
 11
5.797305
 21
12.171008
 31
0.0
  0
LINE
  5
101
330
4E
100
AcDbEntity
 67
     1
  8
1
  6
CONTINUOUS
 62
    18
100
AcDbLine
 10
6.085371
 20
12.171008
 30
0.0
 11
6.016338
 21
12.171008
 31
0.0
  0
LINE
  5
102
330
4E
100
AcDbEntity
 67
     1
  8
1
  6
CONTINUOUS
 62
    18
100
AcDbLine
 10
6.016338
 20
12.361008
 30
0.0
 11
6.016338
 21
12.171008
 31
0.0
  0
LINE
  5
103
330
4E
100
AcDbEntity
 67
     1
  8
1
  6
CONTINUOUS
 62
    18
100
AcDbLine
 10
6.061338
 20
12.406008
 30
0.0
 11
6.452838
 21
12.406008
 31
0.0
  0
LINE
  5
104
330
4E
100
AcDbEntity
 67
     1
  8
1
  6
CONTINUOUS
 62
    18
100
AcDbLine
 10
6.497838
 20
12.171008
 30
0.0
 11
6.497838
 21
12.361008
 31
0.0
  0
LINE
  5
105
330
4E
100
AcDbEntity
 67
     1
  8
1
  6
CONTINUOUS
 62
    18
100
AcDbLine
 10
6.497838
 20
12.171008
 30
0.0
 11
6.428805
 21
12.171008
 31
0.0
  0
LINE
  5
106
330
4E
100
AcDbEntity
 67
     1
  8
1
  6
CONTINUOUS
 62
    18
100
AcDbLine
 10
6.716872
 20
12.171008
 30
0.0
 11
6.647839
 21
12.171008
 31
0.0
  0
LINE
  5
107
330
4E
100
AcDbEntity
 67
     1
  8
1
  6
CONTINUOUS
 62
    18
100
AcDbLine
 10
6.647839
 20
12.361008
 30
0.0
 11
6.647839
 21
12.171008
 31
0.0
  0
LINE
  5
108
330
4E
100
AcDbEntity
 67
     1
  8
1
  6
CONTINUOUS
 62
    18
100
AcDbLine
 10
6.692838
 20
12.406008
 30
0.0
 11
7.084338
 21
12.406008
 31
0.0
  0
LINE
  5
109
330
4E
100
AcDbEntity
 67
     1
  8
1
  6
CONTINUOUS
 62
    18
100
AcDbLine
 10
7.129338
 20
12.171008
 30
0.0
 11
7.129338
 21
12.361008
 31
0.0
  0
LINE
  5
10A
330
4E
100
AcDbEntity
 67
     1
  8
1
  6
CONTINUOUS
 62
    18
100
AcDbLine
 10
7.129338
 20
12.171008
 30
0.0
 11
7.060305
 21
12.171008
 31
0.0
  0
LINE
  5
10B
330
4E
100
AcDbEntity
 67
     1
  8
1
  6
CONTINUOUS
 62
    18
100
AcDbLine
 10
7.348372
 20
12.171008
 30
0.0
 11
7.279338
 21
12.171008
 31
0.0
  0
LINE
  5
10C
330
4E
100
AcDbEntity
 67
     1
  8
1
  6
CONTINUOUS
 62
    18
100
AcDbLine
 10
7.279338
 20
12.361008
 30
0.0
 11
7.279338
 21
12.171008
 31
0.0
  0
LINE
  5
10D
330
4E
100
AcDbEntity
 67
     1
  8
1
  6
CONTINUOUS
 62
    18
100
AcDbLine
 10
7.324338
 20
12.406008
 30
0.0
 11
7.715838
 21
12.406008
 31
0.0
  0
LINE
  5
10E
330
4E
100
AcDbEntity
 67
     1
  8
1
  6
CONTINUOUS
 62
    18
100
AcDbLine
 10
7.760839
 20
12.171008
 30
0.0
 11
7.760839
 21
12.361008
 31
0.0
  0
LINE
  5
10F
330
4E
100
AcDbEntity
 67
     1
  8
1
  6
CONTINUOUS
 62
    18
100
AcDbLine
 10
7.760839
 20
12.171008
 30
0.0
 11
7.691805
 21
12.171008
 31
0.0
  0
LINE
  5
110
330
4E
100
AcDbEntity
 67
     1
  8
1
  6
CONTINUOUS
 62
    18
100
AcDbLine
 10
7.979872
 20
12.171008
 30
0.0
 11
7.910839
 21
12.171008
 31
0.0
  0
LINE
  5
111
330
4E
100
AcDbEntity
 67
     1
  8
1
  6
CONTINUOUS
 62
    18
100
AcDbLine
 10
7.910839
 20
12.361008
 30
0.0
 11
7.910839
 21
12.171008
 31
0.0
  0
LINE
  5
112
330
4E
100
AcDbEntity
 67
     1
  8
1
  6
CONTINUOUS
 62
    18
100
AcDbLine
 10
7.955838
 20
12.406008
 30
0.0
 11
8.078877
 21
12.406008
 31
0.0
  0
LINE
  5
113
330
4E
100
AcDbEntity
 67
     1
  8
1
  6
CONTINUOUS
 62
    18
100
AcDbLine
 10
8.123878
 20
12.361008
 30
0.0
 11
8.123878
 21
11.843094
 31
0.0
  0
LINE
  5
114
330
4E
100
AcDbEntity
 67
     1
  8
1
  6
CONTINUOUS
 62
    18
100
AcDbLine
 10
5.6983
 20
11.798094
 30
0.0
 11
8.078877
 21
11.798094
 31
0.0
  0
LINE
  5
115
330
4E
100
AcDbEntity
 67
     1
  8
1
  6
CONTINUOUS
 62
    18
100
AcDbLine
 10
5.6533
 20
11.843094
 30
0.0
 11
5.6533
 21
12.361008
 31
0.0
  0
LINE
  5
116
330
4E
100
AcDbEntity
 67
     1
  8
1
  6
CONTINUOUS
 62
    18
100
AcDbLine
 10
11.460339
 20
12.406008
 30
0.0
 11
11.337299
 21
12.406008
 31
0.0
  0
LINE
  5
117
330
4E
100
AcDbEntity
 67
     1
  8
1
  6
CONTINUOUS
 62
    18
100
AcDbLine
 10
11.505339
 20
12.361008
 30
0.0
 11
11.505339
 21
12.171008
 31
0.0
  0
LINE
  5
118
330
4E
100
AcDbEntity
 67
     1
  8
1
  6
CONTINUOUS
 62
    18
100
AcDbLine
 10
11.436305
 20
12.171008
 30
0.0
 11
11.505339
 21
12.171008
 31
0.0
  0
LINE
  5
119
330
4E
100
AcDbEntity
 67
     1
  8
1
  6
CONTINUOUS
 62
    18
100
AcDbLine
 10
11.655338
 20
12.171008
 30
0.0
 11
11.724372
 21
12.171008
 31
0.0
  0
LINE
  5
11A
330
4E
100
AcDbEntity
 67
     1
  8
1
  6
CONTINUOUS
 62
    18
100
AcDbLine
 10
11.655338
 20
12.171008
 30
0.0
 11
11.655338
 21
12.361008
 31
0.0
  0
LINE
  5
11B
330
4E
100
AcDbEntity
 67
     1
  8
1
  6
CONTINUOUS
 62
    18
100
AcDbLine
 10
12.091839
 20
12.406008
 30
0.0
 11
11.700338
 21
12.406008
 31
0.0
  0
LINE
  5
11C
330
4E
100
AcDbEntity
 67
     1
  8
1
  6
CONTINUOUS
 62
    18
100
AcDbLine
 10
12.136838
 20
12.361008
 30
0.0
 11
12.136838
 21
12.171008
 31
0.0
  0
LINE
  5
11D
330
4E
100
AcDbEntity
 67
     1
  8
1
  6
CONTINUOUS
 62
    18
100
AcDbLine
 10
12.067805
 20
12.171008
 30
0.0
 11
12.136838
 21
12.171008
 31
0.0
  0
LINE
  5
11E
330
4E
100
AcDbEntity
 67
     1
  8
1
  6
CONTINUOUS
 62
    18
100
AcDbLine
 10
12.286839
 20
12.171008
 30
0.0
 11
12.355871
 21
12.171008
 31
0.0
  0
LINE
  5
11F
330
4E
100
AcDbEntity
 67
     1
  8
1
  6
CONTINUOUS
 62
    18
100
AcDbLine
 10
12.286839
 20
12.171008
 30
0.0
 11
12.286839
 21
12.361008
 31
0.0
  0
LINE
  5
120
330
4E
100
AcDbEntity
 67
     1
  8
1
  6
CONTINUOUS
 62
    18
100
AcDbLine
 10
12.723338
 20
12.406008
 30
0.0
 11
12.331839
 21
12.406008
 31
0.0
  0
LINE
  5
121
330
4E
100
AcDbEntity
 67
     1
  8
1
  6
CONTINUOUS
 62
    18
100
AcDbLine
 10
12.768338
 20
12.361008
 30
0.0
 11
12.768338
 21
12.171008
 31
0.0
  0
LINE
  5
122
330
4E
100
AcDbEntity
 67
     1
  8
1
  6
CONTINUOUS
 62
    18
100
AcDbLine
 10
12.699306
 20
12.171008
 30
0.0
 11
12.768338
 21
12.171008
 31
0.0
  0
LINE
  5
123
330
4E
100
AcDbEntity
 67
     1
  8
1
  6
CONTINUOUS
 62
    18
100
AcDbLine
 10
12.918339
 20
12.171008
 30
0.0
 11
12.987371
 21
12.171008
 31
0.0
  0
LINE
  5
124
330
4E
100
AcDbEntity
 67
     1
  8
1
  6
CONTINUOUS
 62
    18
100
AcDbLine
 10
12.918339
 20
12.171008
 30
0.0
 11
12.918339
 21
12.361008
 31
0.0
  0
LINE
  5
125
330
4E
100
AcDbEntity
 67
     1
  8
1
  6
CONTINUOUS
 62
    18
100
AcDbLine
 10
13.354838
 20
12.406008
 30
0.0
 11
12.963339
 21
12.406008
 31
0.0
  0
LINE
  5
126
330
4E
100
AcDbEntity
 67
     1
  8
1
  6
CONTINUOUS
 62
    18
100
AcDbLine
 10
13.399838
 20
12.361008
 30
0.0
 11
13.399838
 21
12.171008
 31
0.0
  0
LINE
  5
127
330
4E
100
AcDbEntity
 67
     1
  8
1
  6
CONTINUOUS
 62
    18
100
AcDbLine
 10
13.330805
 20
12.171008
 30
0.0
 11
13.399838
 21
12.171008
 31
0.0
  0
LINE
  5
128
330
4E
100
AcDbEntity
 67
     1
  8
1
  6
CONTINUOUS
 62
    18
100
AcDbLine
 10
13.549838
 20
12.171008
 30
0.0
 11
13.618872
 21
12.171008
 31
0.0
  0
LINE
  5
129
330
4E
100
AcDbEntity
 67
     1
  8
1
  6
CONTINUOUS
 62
    18
100
AcDbLine
 10
13.549838
 20
12.171008
 30
0.0
 11
13.549838
 21
12.361008
 31
0.0
  0
LINE
  5
12A
330
4E
100
AcDbEntity
 67
     1
  8
1
  6
CONTINUOUS
 62
    18
100
AcDbLine
 10
13.717877
 20
12.406008
 30
0.0
 11
13.594838
 21
12.406008
 31
0.0
  0
LINE
  5
12B
330
4E
100
AcDbEntity
 67
     1
  8
1
  6
CONTINUOUS
 62
    18
100
AcDbLine
 10
13.762877
 20
11.843094
 30
0.0
 11
13.762877
 21
12.361008
 31
0.0
  0
LINE
  5
12C
330
4E
100
AcDbEntity
 67
     1
  8
1
  6
CONTINUOUS
 62
    18
100
AcDbLine
 10
11.337299
 20
11.798094
 30
0.0
 11
13.717877
 21
11.798094
 31
0.0
  0
LINE
  5
12D
330
4E
100
AcDbEntity
 67
     1
  8
1
  6
CONTINUOUS
 62
    18
100
AcDbLine
 10
11.292299
 20
12.361008
 30
0.0
 11
11.292299
 21
11.843094
 31
0.0
  0
LINE
  5
12E
330
4E
100
AcDbEntity
 67
     1
  8
1
  6
CONTINUOUS
 62
    18
100
AcDbLine
 10
8.472799
 20
11.843094
 30
0.0
 11
8.472799
 21
12.361008
 31
0.0
  0
LINE
  5
12F
330
4E
100
AcDbEntity
 67
     1
  8
1
  6
CONTINUOUS
 62
    18
100
AcDbLine
 10
8.517799
 20
12.406008
 30
0.0
 11
8.640839
 21
12.406008
 31
0.0
  0
LINE
  5
130
330
4E
100
AcDbEntity
 67
     1
  8
1
  6
CONTINUOUS
 62
    18
100
AcDbLine
 10
8.685839
 20
12.171008
 30
0.0
 11
8.685839
 21
12.361008
 31
0.0
  0
LINE
  5
131
330
4E
100
AcDbEntity
 67
     1
  8
1
  6
CONTINUOUS
 62
    18
100
AcDbLine
 10
8.685839
 20
12.171008
 30
0.0
 11
8.616805
 21
12.171008
 31
0.0
  0
LINE
  5
132
330
4E
100
AcDbEntity
 67
     1
  8
1
  6
CONTINUOUS
 62
    18
100
AcDbLine
 10
8.904872
 20
12.171008
 30
0.0
 11
8.835838
 21
12.171008
 31
0.0
  0
LINE
  5
133
330
4E
100
AcDbEntity
 67
     1
  8
1
  6
CONTINUOUS
 62
    18
100
AcDbLine
 10
8.835838
 20
12.361008
 30
0.0
 11
8.835838
 21
12.171008
 31
0.0
  0
LINE
  5
134
330
4E
100
AcDbEntity
 67
     1
  8
1
  6
CONTINUOUS
 62
    18
100
AcDbLine
 10
8.880838
 20
12.406008
 30
0.0
 11
9.272339
 21
12.406008
 31
0.0
  0
LINE
  5
135
330
4E
100
AcDbEntity
 67
     1
  8
1
  6
CONTINUOUS
 62
    18
100
AcDbLine
 10
9.317338
 20
12.171008
 30
0.0
 11
9.317338
 21
12.361008
 31
0.0
  0
LINE
  5
136
330
4E
100
AcDbEntity
 67
     1
  8
1
  6
CONTINUOUS
 62
    18
100
AcDbLine
 10
9.317338
 20
12.171008
 30
0.0
 11
9.248305
 21
12.171008
 31
0.0
  0
LINE
  5
137
330
4E
100
AcDbEntity
 67
     1
  8
1
  6
CONTINUOUS
 62
    18
100
AcDbLine
 10
9.536371
 20
12.171008
 30
0.0
 11
9.467339
 21
12.171008
 31
0.0
  0
LINE
  5
138
330
4E
100
AcDbEntity
 67
     1
  8
1
  6
CONTINUOUS
 62
    18
100
AcDbLine
 10
9.467339
 20
12.361008
 30
0.0
 11
9.467339
 21
12.171008
 31
0.0
  0
LINE
  5
139
330
4E
100
AcDbEntity
 67
     1
  8
1
  6
CONTINUOUS
 62
    18
100
AcDbLine
 10
9.512339
 20
12.406008
 30
0.0
 11
9.903838
 21
12.406008
 31
0.0
  0
LINE
  5
13A
330
4E
100
AcDbEntity
 67
     1
  8
1
  6
CONTINUOUS
 62
    18
100
AcDbLine
 10
9.948838
 20
12.171008
 30
0.0
 11
9.948838
 21
12.361008
 31
0.0
  0
LINE
  5
13B
330
4E
100
AcDbEntity
 67
     1
  8
1
  6
CONTINUOUS
 62
    18
100
AcDbLine
 10
9.948838
 20
12.171008
 30
0.0
 11
9.879806
 21
12.171008
 31
0.0
  0
LINE
  5
13C
330
4E
100
AcDbEntity
 67
     1
  8
1
  6
CONTINUOUS
 62
    18
100
AcDbLine
 10
10.167871
 20
12.171008
 30
0.0
 11
10.098839
 21
12.171008
 31
0.0
  0
LINE
  5
13D
330
4E
100
AcDbEntity
 67
     1
  8
1
  6
CONTINUOUS
 62
    18
100
AcDbLine
 10
10.098839
 20
12.361008
 30
0.0
 11
10.098839
 21
12.171008
 31
0.0
  0
LINE
  5
13E
330
4E
100
AcDbEntity
 67
     1
  8
1
  6
CONTINUOUS
 62
    18
100
AcDbLine
 10
10.143838
 20
12.406008
 30
0.0
 11
10.535338
 21
12.406008
 31
0.0
  0
LINE
  5
13F
330
4E
100
AcDbEntity
 67
     1
  8
1
  6
CONTINUOUS
 62
    18
100
AcDbLine
 10
10.580338
 20
12.171008
 30
0.0
 11
10.580338
 21
12.361008
 31
0.0
  0
LINE
  5
140
330
4E
100
AcDbEntity
 67
     1
  8
1
  6
CONTINUOUS
 62
    18
100
AcDbLine
 10
10.580338
 20
12.171008
 30
0.0
 11
10.511305
 21
12.171008
 31
0.0
  0
LINE
  5
141
330
4E
100
AcDbEntity
 67
     1
  8
1
  6
CONTINUOUS
 62
    18
100
AcDbLine
 10
10.799372
 20
12.171008
 30
0.0
 11
10.730338
 21
12.171008
 31
0.0
  0
LINE
  5
142
330
4E
100
AcDbEntity
 67
     1
  8
1
  6
CONTINUOUS
 62
    18
100
AcDbLine
 10
10.730338
 20
12.361008
 30
0.0
 11
10.730338
 21
12.171008
 31
0.0
  0
LINE
  5
143
330
4E
100
AcDbEntity
 67
     1
  8
1
  6
CONTINUOUS
 62
    18
100
AcDbLine
 10
10.775338
 20
12.406008
 30
0.0
 11
10.898377
 21
12.406008
 31
0.0
  0
LINE
  5
144
330
4E
100
AcDbEntity
 67
     1
  8
1
  6
CONTINUOUS
 62
    18
100
AcDbLine
 10
10.943377
 20
12.361008
 30
0.0
 11
10.943377
 21
11.843094
 31
0.0
  0
LINE
  5
145
330
4E
100
AcDbEntity
 67
     1
  8
1
  6
CONTINUOUS
 62
    18
100
AcDbLine
 10
8.517799
 20
11.798094
 30
0.0
 11
10.898377
 21
11.798094
 31
0.0
  0
LINE
  5
146
330
4E
100
AcDbEntity
 67
     1
  8
1
  6
CONTINUOUS
 62
    18
100
AcDbLine
 10
19.700338
 20
12.577364
 30
0.0
 11
2.535338
 21
12.577364
 31
0.0
  0
LINE
  5
147
330
4E
100
AcDbEntity
 67
     1
  8
1
  6
CONTINUOUS
 62
    18
100
AcDbLine
 10
19.700338
 20
11.788094
 30
0.0
 11
2.535338
 21
11.788094
 31
0.0
  0
LINE
  5
148
330
4E
100
AcDbEntity
 67
     1
  8
1
  6
CONTINUOUS
 62
    18
100
AcDbLine
 10
2.543936
 20
11.303293
 30
0.0
 11
19.69174
 21
11.303293
 31
0.0
  0
LINE
  5
149
330
4E
100
AcDbEntity
 67
     1
  8
1
  6
CONTINUOUS
 62
    18
100
AcDbLine
 10
19.69174
 20
11.303293
 30
0.0
 11
19.698141
 21
11.320049
 31
0.0
  0
LINE
  5
14A
330
4E
100
AcDbEntity
 67
     1
  8
1
  6
CONTINUOUS
 62
    18
100
AcDbLine
 10
19.698141
 20
11.320049
 30
0.0
 11
19.700338
 21
11.339072
 31
0.0
  0
LINE
  5
14B
330
4E
100
AcDbEntity
 67
     1
  8
1
  6
CONTINUOUS
 62
    18
100
AcDbLine
 10
2.535338
 20
11.339072
 30
0.0
 11
2.537446
 21
11.320421
 31
0.0
  0
LINE
  5
14C
330
4E
100
AcDbEntity
 67
     1
  8
1
  6
CONTINUOUS
 62
    18
100
AcDbLine
 10
2.537446
 20
11.320421
 30
0.0
 11
2.543936
 21
11.303293
 31
0.0
  0
LINE
  5
14D
330
4E
100
AcDbEntity
 67
     1
  8
1
  6
CONTINUOUS
 62
    18
100
AcDbLine
 10
2.785338
 20
11.210793
 30
0.0
 11
19.450338
 21
11.210793
 31
0.0
  0
LINE
  5
14E
330
4E
100
AcDbEntity
 67
     1
  8
1
  6
CONTINUOUS
 62
    18
100
AcDbLine
 10
19.450338
 20
11.210793
 30
0.0
 11
19.496773
 21
11.212968
 31
0.0
  0
LINE
  5
14F
330
4E
100
AcDbEntity
 67
     1
  8
1
  6
CONTINUOUS
 62
    18
100
AcDbLine
 10
19.496773
 20
11.212968
 30
0.0
 11
19.541592
 21
11.219418
 31
0.0
  0
LINE
  5
150
330
4E
100
AcDbEntity
 67
     1
  8
1
  6
CONTINUOUS
 62
    18
100
AcDbLine
 10
19.541592
 20
11.219418
 30
0.0
 11
19.583235
 21
11.229918
 31
0.0
  0
LINE
  5
151
330
4E
100
AcDbEntity
 67
     1
  8
1
  6
CONTINUOUS
 62
    18
100
AcDbLine
 10
19.583235
 20
11.229918
 30
0.0
 11
19.620253
 21
11.244102
 31
0.0
  0
LINE
  5
152
330
4E
100
AcDbEntity
 67
     1
  8
1
  6
CONTINUOUS
 62
    18
100
AcDbLine
 10
19.620253
 20
11.244102
 30
0.0
 11
19.651358
 21
11.261477
 31
0.0
  0
LINE
  5
153
330
4E
100
AcDbEntity
 67
     1
  8
1
  6
CONTINUOUS
 62
    18
100
AcDbLine
 10
19.651358
 20
11.261477
 30
0.0
 11
19.675467
 21
11.28144
 31
0.0
  0
LINE
  5
154
330
4E
100
AcDbEntity
 67
     1
  8
1
  6
CONTINUOUS
 62
    18
100
AcDbLine
 10
19.675467
 20
11.28144
 30
0.0
 11
19.69174
 21
11.303293
 31
0.0
  0
LINE
  5
155
330
4E
100
AcDbEntity
 67
     1
  8
1
  6
CONTINUOUS
 62
    18
100
AcDbLine
 10
2.543936
 20
11.303293
 30
0.0
 11
2.56021
 21
11.28144
 31
0.0
  0
LINE
  5
156
330
4E
100
AcDbEntity
 67
     1
  8
1
  6
CONTINUOUS
 62
    18
100
AcDbLine
 10
2.56021
 20
11.28144
 30
0.0
 11
2.584319
 21
11.261477
 31
0.0
  0
LINE
  5
157
330
4E
100
AcDbEntity
 67
     1
  8
1
  6
CONTINUOUS
 62
    18
100
AcDbLine
 10
2.584319
 20
11.261477
 30
0.0
 11
2.615423
 21
11.244102
 31
0.0
  0
LINE
  5
158
330
4E
100
AcDbEntity
 67
     1
  8
1
  6
CONTINUOUS
 62
    18
100
AcDbLine
 10
2.615423
 20
11.244102
 30
0.0
 11
2.652441
 21
11.229918
 31
0.0
  0
LINE
  5
159
330
4E
100
AcDbEntity
 67
     1
  8
1
  6
CONTINUOUS
 62
    18
100
AcDbLine
 10
2.652441
 20
11.229918
 30
0.0
 11
2.694084
 21
11.219418
 31
0.0
  0
LINE
  5
15A
330
4E
100
AcDbEntity
 67
     1
  8
1
  6
CONTINUOUS
 62
    18
100
AcDbLine
 10
2.694084
 20
11.219418
 30
0.0
 11
2.738904
 21
11.212968
 31
0.0
  0
LINE
  5
15B
330
4E
100
AcDbEntity
 67
     1
  8
1
  6
CONTINUOUS
 62
    18
100
AcDbLine
 10
2.738904
 20
11.212968
 30
0.0
 11
2.785338
 21
11.210793
 31
0.0
  0
LINE
  5
15C
330
4E
100
AcDbEntity
 67
     1
  8
1
  6
CONTINUOUS
 62
    18
100
AcDbLine
 10
1.617838
 20
12.607564
 30
0.0
 11
1.617838
 21
12.667363
 31
0.0
  0
LINE
  5
15D
330
4E
100
AcDbEntity
 67
     1
  8
1
  6
CONTINUOUS
 62
    18
100
AcDbLine
 10
1.677838
 20
12.667363
 30
0.0
 11
1.677838
 21
12.607564
 31
0.0
  0
LINE
  5
15E
330
4E
100
AcDbEntity
 67
     1
  8
1
  6
CONTINUOUS
 62
    18
100
AcDbLine
 10
2.307838
 20
12.607564
 30
0.0
 11
2.307838
 21
12.667563
 31
0.0
  0
LINE
  5
15F
330
4E
100
AcDbEntity
 67
     1
  8
1
  6
CONTINUOUS
 62
    18
100
AcDbLine
 10
2.367838
 20
12.667563
 30
0.0
 11
2.367838
 21
12.607564
 31
0.0
  0
LINE
  5
160
330
4E
100
AcDbEntity
 67
     1
  8
1
  6
CONTINUOUS
 62
    18
100
AcDbLine
 10
2.427838
 20
12.667363
 30
0.0
 11
2.427838
 21
12.607564
 31
0.0
  0
LINE
  5
161
330
4E
100
AcDbEntity
 67
     1
  8
1
  6
CONTINUOUS
 62
    18
100
AcDbLine
 10
2.475338
 20
12.607564
 30
0.0
 11
2.475338
 21
12.667363
 31
0.0
  0
LINE
  5
162
330
4E
100
AcDbEntity
 67
     1
  8
1
  6
CONTINUOUS
 62
    18
100
AcDbLine
 10
19.807838
 20
12.607564
 30
0.0
 11
19.807838
 21
12.667363
 31
0.0
  0
LINE
  5
163
330
4E
100
AcDbEntity
 67
     1
  8
1
  6
CONTINUOUS
 62
    18
100
AcDbLine
 10
19.867838
 20
12.607564
 30
0.0
 11
19.867838
 21
12.667563
 31
0.0
  0
LINE
  5
164
330
4E
100
AcDbEntity
 67
     1
  8
1
  6
CONTINUOUS
 62
    18
100
AcDbLine
 10
19.927839
 20
12.667363
 30
0.0
 11
19.927839
 21
12.607564
 31
0.0
  0
LINE
  5
165
330
4E
100
AcDbEntity
 67
     1
  8
1
  6
CONTINUOUS
 62
    18
100
AcDbLine
 10
20.557838
 20
12.607564
 30
0.0
 11
20.557838
 21
12.667563
 31
0.0
  0
LINE
  5
166
330
4E
100
AcDbEntity
 67
     1
  8
1
  6
CONTINUOUS
 62
    18
100
AcDbLine
 10
20.617838
 20
12.667563
 30
0.0
 11
20.617838
 21
12.607564
 31
0.0
  0
LINE
  5
167
330
4E
100
AcDbEntity
 67
     1
  8
1
  6
CONTINUOUS
 62
    18
100
AcDbLine
 10
19.760338
 20
12.667363
 30
0.0
 11
19.760338
 21
12.607564
 31
0.0
  0
LINE
  5
168
330
4E
100
AcDbEntity
 67
     1
  8
1
  6
CONTINUOUS
 62
    18
100
AcDbLine
 10
19.700338
 20
6.202397
 30
0.0
 11
19.700338
 21
6.197455
 31
0.0
  0
LINE
  5
169
330
4E
100
AcDbEntity
 67
     1
  8
1
  6
CONTINUOUS
 62
    18
100
AcDbLine
 10
19.700338
 20
6.197455
 30
0.0
 11
19.700338
 21
6.182716
 31
0.0
  0
LINE
  5
16A
330
4E
100
AcDbEntity
 67
     1
  8
1
  6
CONTINUOUS
 62
    18
100
AcDbLine
 10
19.700338
 20
6.182716
 30
0.0
 11
19.700338
 21
6.158442
 31
0.0
  0
LINE
  5
16B
330
4E
100
AcDbEntity
 67
     1
  8
1
  6
CONTINUOUS
 62
    18
100
AcDbLine
 10
19.700338
 20
6.158442
 30
0.0
 11
19.700338
 21
6.125059
 31
0.0
  0
LINE
  5
16C
330
4E
100
AcDbEntity
 67
     1
  8
1
  6
CONTINUOUS
 62
    18
100
AcDbLine
 10
19.700338
 20
6.125059
 30
0.0
 11
19.700338
 21
6.083157
 31
0.0
  0
LINE
  5
16D
330
4E
100
AcDbEntity
 67
     1
  8
1
  6
CONTINUOUS
 62
    18
100
AcDbLine
 10
19.700338
 20
6.083157
 30
0.0
 11
19.700338
 21
6.033477
 31
0.0
  0
LINE
  5
16E
330
4E
100
AcDbEntity
 67
     1
  8
1
  6
CONTINUOUS
 62
    18
100
AcDbLine
 10
19.700338
 20
6.033477
 30
0.0
 11
19.700338
 21
5.976896
 31
0.0
  0
LINE
  5
16F
330
4E
100
AcDbEntity
 67
     1
  8
1
  6
CONTINUOUS
 62
    18
100
AcDbLine
 10
19.700338
 20
5.976896
 30
0.0
 11
19.700338
 21
5.946767
 31
0.0
  0
LINE
  5
170
330
4E
100
AcDbEntity
 67
     1
  8
1
  6
CONTINUOUS
 62
    18
100
AcDbLine
 10
2.535338
 20
5.946767
 30
0.0
 11
2.535338
 21
5.976896
 31
0.0
  0
LINE
  5
171
330
4E
100
AcDbEntity
 67
     1
  8
1
  6
CONTINUOUS
 62
    18
100
AcDbLine
 10
2.535338
 20
6.202397
 30
0.0
 11
2.535338
 21
6.197455
 31
0.0
  0
LINE
  5
172
330
4E
100
AcDbEntity
 67
     1
  8
1
  6
CONTINUOUS
 62
    18
100
AcDbLine
 10
2.535338
 20
6.197455
 30
0.0
 11
2.535338
 21
6.182716
 31
0.0
  0
LINE
  5
173
330
4E
100
AcDbEntity
 67
     1
  8
1
  6
CONTINUOUS
 62
    18
100
AcDbLine
 10
2.535338
 20
6.182716
 30
0.0
 11
2.535338
 21
6.158442
 31
0.0
  0
LINE
  5
174
330
4E
100
AcDbEntity
 67
     1
  8
1
  6
CONTINUOUS
 62
    18
100
AcDbLine
 10
2.535338
 20
6.158442
 30
0.0
 11
2.535338
 21
6.125059
 31
0.0
  0
LINE
  5
175
330
4E
100
AcDbEntity
 67
     1
  8
1
  6
CONTINUOUS
 62
    18
100
AcDbLine
 10
2.535338
 20
6.125059
 30
0.0
 11
2.535338
 21
6.083157
 31
0.0
  0
LINE
  5
176
330
4E
100
AcDbEntity
 67
     1
  8
1
  6
CONTINUOUS
 62
    18
100
AcDbLine
 10
2.535338
 20
6.083157
 30
0.0
 11
2.535338
 21
6.033477
 31
0.0
  0
LINE
  5
177
330
4E
100
AcDbEntity
 67
     1
  8
1
  6
CONTINUOUS
 62
    18
100
AcDbLine
 10
2.535338
 20
6.033477
 30
0.0
 11
2.535338
 21
5.976896
 31
0.0
  0
LINE
  5
178
330
4E
100
AcDbEntity
 67
     1
  8
1
  6
CONTINUOUS
 62
    18
100
AcDbLine
 10
20.557838
 20
5.417597
 30
0.0
 11
1.677838
 21
5.417597
 31
0.0
  0
LINE
  5
179
330
4E
100
AcDbEntity
 67
     1
  8
1
  6
CONTINUOUS
 62
    18
100
AcDbLine
 10
10.818377
 20
5.657628
 30
0.0
 11
10.818377
 21
5.732385
 31
0.0
  0
LINE
  5
17A
330
4E
100
AcDbEntity
 67
     1
  8
1
  6
CONTINUOUS
 62
    18
100
AcDbLine
 10
8.6578
 20
5.597628
 30
0.0
 11
10.758377
 21
5.597628
 31
0.0
  0
LINE
  5
17B
330
4E
100
AcDbEntity
 67
     1
  8
1
  6
CONTINUOUS
 62
    18
100
AcDbLine
 10
8.597799
 20
5.732385
 30
0.0
 11
8.597799
 21
5.657628
 31
0.0
  0
LINE
  5
17C
330
4E
100
AcDbEntity
 67
     1
  8
1
  6
CONTINUOUS
 62
    18
100
AcDbLine
 10
7.998877
 20
5.657628
 30
0.0
 11
7.998877
 21
5.732385
 31
0.0
  0
LINE
  5
17D
330
4E
100
AcDbEntity
 67
     1
  8
1
  6
CONTINUOUS
 62
    18
100
AcDbLine
 10
5.8383
 20
5.597628
 30
0.0
 11
7.938877
 21
5.597628
 31
0.0
  0
LINE
  5
17E
330
4E
100
AcDbEntity
 67
     1
  8
1
  6
CONTINUOUS
 62
    18
100
AcDbLine
 10
5.7783
 20
5.732385
 30
0.0
 11
5.7783
 21
5.657628
 31
0.0
  0
LINE
  5
17F
330
4E
100
AcDbEntity
 67
     1
  8
1
  6
CONTINUOUS
 62
    18
100
AcDbLine
 10
5.179377
 20
5.657628
 30
0.0
 11
5.179377
 21
5.732385
 31
0.0
  0
LINE
  5
180
330
4E
100
AcDbEntity
 67
     1
  8
1
  6
CONTINUOUS
 62
    18
100
AcDbLine
 10
3.0188
 20
5.597628
 30
0.0
 11
5.119377
 21
5.597628
 31
0.0
  0
LINE
  5
181
330
4E
100
AcDbEntity
 67
     1
  8
1
  6
CONTINUOUS
 62
    18
100
AcDbLine
 10
2.9588
 20
5.732385
 30
0.0
 11
2.9588
 21
5.657628
 31
0.0
  0
LINE
  5
182
330
4E
100
AcDbEntity
 67
     1
  8
1
  6
CONTINUOUS
 62
    18
100
AcDbLine
 10
13.637877
 20
5.732385
 30
0.0
 11
13.637877
 21
5.657628
 31
0.0
  0
LINE
  5
183
330
4E
100
AcDbEntity
 67
     1
  8
1
  6
CONTINUOUS
 62
    18
100
AcDbLine
 10
13.577877
 20
5.597628
 30
0.0
 11
11.4773
 21
5.597628
 31
0.0
  0
LINE
  5
184
330
4E
100
AcDbEntity
 67
     1
  8
1
  6
CONTINUOUS
 62
    18
100
AcDbLine
 10
11.417299
 20
5.657628
 30
0.0
 11
11.417299
 21
5.732385
 31
0.0
  0
LINE
  5
185
330
4E
100
AcDbEntity
 67
     1
  8
1
  6
CONTINUOUS
 62
    18
100
AcDbLine
 10
16.457376
 20
5.732385
 30
0.0
 11
16.457376
 21
5.657628
 31
0.0
  0
LINE
  5
186
330
4E
100
AcDbEntity
 67
     1
  8
1
  6
CONTINUOUS
 62
    18
100
AcDbLine
 10
16.397377
 20
5.597628
 30
0.0
 11
14.2968
 21
5.597628
 31
0.0
  0
LINE
  5
187
330
4E
100
AcDbEntity
 67
     1
  8
1
  6
CONTINUOUS
 62
    18
100
AcDbLine
 10
14.236799
 20
5.657628
 30
0.0
 11
14.236799
 21
5.732385
 31
0.0
  0
LINE
  5
188
330
4E
100
AcDbEntity
 67
     1
  8
1
  6
CONTINUOUS
 62
    18
100
AcDbLine
 10
19.276876
 20
5.732385
 30
0.0
 11
19.276876
 21
5.657628
 31
0.0
  0
LINE
  5
189
330
4E
100
AcDbEntity
 67
     1
  8
1
  6
CONTINUOUS
 62
    18
100
AcDbLine
 10
19.216877
 20
5.597628
 30
0.0
 11
17.116301
 21
5.597628
 31
0.0
  0
LINE
  5
18A
330
4E
100
AcDbEntity
 67
     1
  8
1
  6
CONTINUOUS
 62
    18
100
AcDbLine
 10
17.056299
 20
5.657628
 30
0.0
 11
17.056299
 21
5.732385
 31
0.0
  0
LINE
  5
18B
330
4E
100
AcDbEntity
 67
     1
  8
1
  6
CONTINUOUS
 62
    18
100
AcDbLine
 10
2.427838
 20
6.052397
 30
0.0
 11
2.475338
 21
6.052397
 31
0.0
  0
LINE
  5
18C
330
4E
100
AcDbEntity
 67
     1
  8
1
  6
CONTINUOUS
 62
    18
100
AcDbLine
 10
2.367838
 20
6.607597
 30
0.0
 11
2.367838
 21
6.112397
 31
0.0
  0
LINE
  5
18D
330
4E
100
AcDbEntity
 67
     1
  8
1
  6
CONTINUOUS
 62
    18
100
AcDbLine
 10
2.307838
 20
6.667597
 30
0.0
 11
1.677838
 21
6.667597
 31
0.0
  0
LINE
  5
18E
330
4E
100
AcDbEntity
 67
     1
  8
1
  6
CONTINUOUS
 62
    18
100
AcDbLine
 10
1.617838
 20
5.477597
 30
0.0
 11
1.617838
 21
6.607597
 31
0.0
  0
LINE
  5
18F
330
4E
100
AcDbEntity
 67
     1
  8
1
  6
CONTINUOUS
 62
    18
100
AcDbLine
 10
20.617838
 20
5.477597
 30
0.0
 11
20.617838
 21
6.137597
 31
0.0
  0
LINE
  5
190
330
4E
100
AcDbEntity
 67
     1
  8
1
  6
CONTINUOUS
 62
    18
100
AcDbLine
 10
20.177839
 20
6.137597
 30
0.0
 11
20.617838
 21
6.137597
 31
0.0
  0
LINE
  5
191
330
4E
100
AcDbEntity
 67
     1
  8
1
  6
CONTINUOUS
 62
    18
100
AcDbLine
 10
20.177839
 20
6.417597
 30
0.0
 11
20.617838
 21
6.417597
 31
0.0
  0
LINE
  5
192
330
4E
100
AcDbEntity
 67
     1
  8
1
  6
CONTINUOUS
 62
    18
100
AcDbLine
 10
20.617838
 20
6.417597
 30
0.0
 11
20.617838
 21
6.607597
 31
0.0
  0
LINE
  5
193
330
4E
100
AcDbEntity
 67
     1
  8
1
  6
CONTINUOUS
 62
    18
100
AcDbLine
 10
20.557838
 20
6.667597
 30
0.0
 11
19.927839
 21
6.667597
 31
0.0
  0
LINE
  5
194
330
4E
100
AcDbEntity
 67
     1
  8
1
  6
CONTINUOUS
 62
    18
100
AcDbLine
 10
19.867838
 20
6.112397
 30
0.0
 11
19.867838
 21
6.607597
 31
0.0
  0
LINE
  5
195
330
4E
100
AcDbEntity
 67
     1
  8
1
  6
CONTINUOUS
 62
    18
100
AcDbLine
 10
19.760338
 20
6.052397
 30
0.0
 11
19.807838
 21
6.052397
 31
0.0
  0
LINE
  5
196
330
4E
100
AcDbEntity
 67
     1
  8
1
  6
CONTINUOUS
 62
    18
100
AcDbLine
 10
2.104338
 20
5.937769
 30
0.0
 11
2.104338
 21
6.277597
 31
0.0
  0
LINE
  5
197
330
4E
100
AcDbEntity
 67
     1
  8
1
  6
CONTINUOUS
 62
    18
100
AcDbLine
 10
1.824338
 20
5.937769
 30
0.0
 11
1.824338
 21
6.277597
 31
0.0
  0
LINE
  5
198
330
4E
100
AcDbEntity
 67
     1
  8
1
  6
CONTINUOUS
 62
    18
100
AcDbLine
 10
20.217838
 20
5.792597
 30
0.0
 11
20.337839
 21
5.792597
 31
0.0
  0
LINE
  5
199
330
4E
100
AcDbEntity
 67
     1
  8
1
  6
CONTINUOUS
 62
    18
100
AcDbLine
 10
20.217838
 20
5.512597
 30
0.0
 11
20.337839
 21
5.512597
 31
0.0
  0
LINE
  5
19A
330
4E
100
AcDbEntity
 67
     1
  8
1
  6
CONTINUOUS
 62
    18
100
AcDbLine
 10
19.700338
 20
6.202397
 30
0.0
 11
2.535338
 21
6.202397
 31
0.0
  0
LINE
  5
19B
330
4E
100
AcDbEntity
 67
     1
  8
1
  6
CONTINUOUS
 62
    18
100
AcDbLine
 10
2.543936
 20
5.922497
 30
0.0
 11
19.69174
 21
5.922497
 31
0.0
  0
LINE
  5
19C
330
4E
100
AcDbEntity
 67
     1
  8
1
  6
CONTINUOUS
 62
    18
100
AcDbLine
 10
19.69174
 20
5.922497
 30
0.0
 11
19.698141
 21
5.949697
 31
0.0
  0
LINE
  5
19D
330
4E
100
AcDbEntity
 67
     1
  8
1
  6
CONTINUOUS
 62
    18
100
AcDbLine
 10
19.698141
 20
5.949697
 30
0.0
 11
19.700338
 21
5.976896
 31
0.0
  0
LINE
  5
19E
330
4E
100
AcDbEntity
 67
     1
  8
1
  6
CONTINUOUS
 62
    18
100
AcDbLine
 10
2.535338
 20
5.976896
 30
0.0
 11
2.537446
 21
5.950263
 31
0.0
  0
LINE
  5
19F
330
4E
100
AcDbEntity
 67
     1
  8
1
  6
CONTINUOUS
 62
    18
100
AcDbLine
 10
2.537446
 20
5.950263
 30
0.0
 11
2.543936
 21
5.922497
 31
0.0
  0
LINE
  5
1A0
330
4E
100
AcDbEntity
 67
     1
  8
1
  6
CONTINUOUS
 62
    18
100
AcDbLine
 10
19.700338
 20
5.946767
 30
0.0
 11
19.698235
 21
5.92033
 31
0.0
  0
LINE
  5
1A1
330
4E
100
AcDbEntity
 67
     1
  8
1
  6
CONTINUOUS
 62
    18
100
AcDbLine
 10
19.698235
 20
5.92033
 30
0.0
 11
19.69174
 21
5.892597
 31
0.0
  0
LINE
  5
1A2
330
4E
100
AcDbEntity
 67
     1
  8
1
  6
CONTINUOUS
 62
    18
100
AcDbLine
 10
2.543936
 20
5.892597
 30
0.0
 11
2.537535
 21
5.919742
 31
0.0
  0
LINE
  5
1A3
330
4E
100
AcDbEntity
 67
     1
  8
1
  6
CONTINUOUS
 62
    18
100
AcDbLine
 10
2.537535
 20
5.919742
 30
0.0
 11
2.535338
 21
5.946767
 31
0.0
  0
LINE
  5
1A4
330
4E
100
AcDbEntity
 67
     1
  8
1
  6
CONTINUOUS
 62
    18
100
AcDbLine
 10
2.785338
 20
5.762282
 30
0.0
 11
19.450338
 21
5.762282
 31
0.0
  0
LINE
  5
1A5
330
4E
100
AcDbEntity
 67
     1
  8
1
  6
CONTINUOUS
 62
    18
100
AcDbLine
 10
19.450338
 20
5.762282
 30
0.0
 11
19.496773
 21
5.76605
 31
0.0
  0
LINE
  5
1A6
330
4E
100
AcDbEntity
 67
     1
  8
1
  6
CONTINUOUS
 62
    18
100
AcDbLine
 10
19.496773
 20
5.76605
 30
0.0
 11
19.541592
 21
5.777221
 31
0.0
  0
LINE
  5
1A7
330
4E
100
AcDbEntity
 67
     1
  8
1
  6
CONTINUOUS
 62
    18
100
AcDbLine
 10
19.541592
 20
5.777221
 30
0.0
 11
19.583235
 21
5.795407
 31
0.0
  0
LINE
  5
1A8
330
4E
100
AcDbEntity
 67
     1
  8
1
  6
CONTINUOUS
 62
    18
100
AcDbLine
 10
19.583235
 20
5.795407
 30
0.0
 11
19.620253
 21
5.819975
 31
0.0
  0
LINE
  5
1A9
330
4E
100
AcDbEntity
 67
     1
  8
1
  6
CONTINUOUS
 62
    18
100
AcDbLine
 10
19.620253
 20
5.819975
 30
0.0
 11
19.651358
 21
5.850071
 31
0.0
  0
LINE
  5
1AA
330
4E
100
AcDbEntity
 67
     1
  8
1
  6
CONTINUOUS
 62
    18
100
AcDbLine
 10
19.651358
 20
5.850071
 30
0.0
 11
19.675467
 21
5.884646
 31
0.0
  0
LINE
  5
1AB
330
4E
100
AcDbEntity
 67
     1
  8
1
  6
CONTINUOUS
 62
    18
100
AcDbLine
 10
19.675467
 20
5.884646
 30
0.0
 11
19.69174
 21
5.922497
 31
0.0
  0
LINE
  5
1AC
330
4E
100
AcDbEntity
 67
     1
  8
1
  6
CONTINUOUS
 62
    18
100
AcDbLine
 10
2.543936
 20
5.922497
 30
0.0
 11
2.56021
 21
5.884646
 31
0.0
  0
LINE
  5
1AD
330
4E
100
AcDbEntity
 67
     1
  8
1
  6
CONTINUOUS
 62
    18
100
AcDbLine
 10
2.56021
 20
5.884646
 30
0.0
 11
2.584319
 21
5.850071
 31
0.0
  0
LINE
  5
1AE
330
4E
100
AcDbEntity
 67
     1
  8
1
  6
CONTINUOUS
 62
    18
100
AcDbLine
 10
2.584319
 20
5.850071
 30
0.0
 11
2.615423
 21
5.819975
 31
0.0
  0
LINE
  5
1AF
330
4E
100
AcDbEntity
 67
     1
  8
1
  6
CONTINUOUS
 62
    18
100
AcDbLine
 10
2.615423
 20
5.819975
 30
0.0
 11
2.652441
 21
5.795407
 31
0.0
  0
LINE
  5
1B0
330
4E
100
AcDbEntity
 67
     1
  8
1
  6
CONTINUOUS
 62
    18
100
AcDbLine
 10
2.652441
 20
5.795407
 30
0.0
 11
2.694084
 21
5.777221
 31
0.0
  0
LINE
  5
1B1
330
4E
100
AcDbEntity
 67
     1
  8
1
  6
CONTINUOUS
 62
    18
100
AcDbLine
 10
2.694084
 20
5.777221
 30
0.0
 11
2.738904
 21
5.76605
 31
0.0
  0
LINE
  5
1B2
330
4E
100
AcDbEntity
 67
     1
  8
1
  6
CONTINUOUS
 62
    18
100
AcDbLine
 10
2.738904
 20
5.76605
 30
0.0
 11
2.785338
 21
5.762282
 31
0.0
  0
LINE
  5
1B3
330
4E
100
AcDbEntity
 67
     1
  8
1
  6
CONTINUOUS
 62
    18
100
AcDbLine
 10
19.69174
 20
5.892597
 30
0.0
 11
19.675467
 21
5.854746
 31
0.0
  0
LINE
  5
1B4
330
4E
100
AcDbEntity
 67
     1
  8
1
  6
CONTINUOUS
 62
    18
100
AcDbLine
 10
19.675467
 20
5.854746
 30
0.0
 11
19.651358
 21
5.820171
 31
0.0
  0
LINE
  5
1B5
330
4E
100
AcDbEntity
 67
     1
  8
1
  6
CONTINUOUS
 62
    18
100
AcDbLine
 10
19.651358
 20
5.820171
 30
0.0
 11
19.620253
 21
5.790076
 31
0.0
  0
LINE
  5
1B6
330
4E
100
AcDbEntity
 67
     1
  8
1
  6
CONTINUOUS
 62
    18
100
AcDbLine
 10
19.620253
 20
5.790076
 30
0.0
 11
19.583235
 21
5.765507
 31
0.0
  0
LINE
  5
1B7
330
4E
100
AcDbEntity
 67
     1
  8
1
  6
CONTINUOUS
 62
    18
100
AcDbLine
 10
19.583235
 20
5.765507
 30
0.0
 11
19.541592
 21
5.747321
 31
0.0
  0
LINE
  5
1B8
330
4E
100
AcDbEntity
 67
     1
  8
1
  6
CONTINUOUS
 62
    18
100
AcDbLine
 10
19.541592
 20
5.747321
 30
0.0
 11
19.496773
 21
5.73615
 31
0.0
  0
LINE
  5
1B9
330
4E
100
AcDbEntity
 67
     1
  8
1
  6
CONTINUOUS
 62
    18
100
AcDbLine
 10
19.496773
 20
5.73615
 30
0.0
 11
19.450338
 21
5.732382
 31
0.0
  0
LINE
  5
1BA
330
4E
100
AcDbEntity
 67
     1
  8
1
  6
CONTINUOUS
 62
    18
100
AcDbLine
 10
19.450338
 20
5.732382
 30
0.0
 11
2.785338
 21
5.732382
 31
0.0
  0
LINE
  5
1BB
330
4E
100
AcDbEntity
 67
     1
  8
1
  6
CONTINUOUS
 62
    18
100
AcDbLine
 10
2.785338
 20
5.732382
 30
0.0
 11
2.738904
 21
5.73615
 31
0.0
  0
LINE
  5
1BC
330
4E
100
AcDbEntity
 67
     1
  8
1
  6
CONTINUOUS
 62
    18
100
AcDbLine
 10
2.738904
 20
5.73615
 30
0.0
 11
2.694084
 21
5.747321
 31
0.0
  0
LINE
  5
1BD
330
4E
100
AcDbEntity
 67
     1
  8
1
  6
CONTINUOUS
 62
    18
100
AcDbLine
 10
2.694084
 20
5.747321
 30
0.0
 11
2.652441
 21
5.765507
 31
0.0
  0
LINE
  5
1BE
330
4E
100
AcDbEntity
 67
     1
  8
1
  6
CONTINUOUS
 62
    18
100
AcDbLine
 10
2.652441
 20
5.765507
 30
0.0
 11
2.615423
 21
5.790076
 31
0.0
  0
LINE
  5
1BF
330
4E
100
AcDbEntity
 67
     1
  8
1
  6
CONTINUOUS
 62
    18
100
AcDbLine
 10
2.615423
 20
5.790076
 30
0.0
 11
2.584319
 21
5.820171
 31
0.0
  0
LINE
  5
1C0
330
4E
100
AcDbEntity
 67
     1
  8
1
  6
CONTINUOUS
 62
    18
100
AcDbLine
 10
2.584319
 20
5.820171
 30
0.0
 11
2.56021
 21
5.854746
 31
0.0
  0
LINE
  5
1C1
330
4E
100
AcDbEntity
 67
     1
  8
1
  6
CONTINUOUS
 62
    18
100
AcDbLine
 10
2.56021
 20
5.854746
 30
0.0
 11
2.543936
 21
5.892597
 31
0.0
  0
LINE
  5
1C2
330
4E
100
AcDbEntity
 67
     1
  8
1
  6
CONTINUOUS
 62
    18
100
AcDbLine
 10
19.450338
 20
5.732382
 30
0.0
 11
19.450338
 21
5.762282
 31
0.0
  0
LINE
  5
1C3
330
4E
100
AcDbEntity
 67
     1
  8
1
  6
CONTINUOUS
 62
    18
100
AcDbLine
 10
2.785338
 20
5.762282
 30
0.0
 11
2.785338
 21
5.732382
 31
0.0
  0
ARC
  5
1C4
330
4E
100
AcDbEntity
 67
     1
  8
1
  6
CONTINUOUS
 62
    18
100
AcDbCircle
 10
16.976299
 20
12.361008
 30
0.0
 40
0.0450000017881393
100
AcDbArc
 50
90.0
 51
180.0
  0
ARC
  5
1C5
330
4E
100
AcDbEntity
 67
     1
  8
1
  6
CONTINUOUS
 62
    18
100
AcDbCircle
 10
17.099339
 20
12.361008
 30
0.0
 40
0.0450000017881393
100
AcDbArc
 50
0.0
 51
90.0
  0
ARC
  5
1C6
330
4E
100
AcDbEntity
 67
     1
  8
1
  6
CONTINUOUS
 62
    18
100
AcDbCircle
 10
17.075306
 20
12.146008
 30
0.0
 40
0.025000000372529
100
AcDbArc
 50
90.0
 51
196.214897
  0
ARC
  5
1C7
330
4E
100
AcDbEntity
 67
     1
  8
1
  6
CONTINUOUS
 62
    18
100
AcDbCircle
 10
17.219337
 20
12.187894
 30
0.0
 40
0.1749999970197678
100
AcDbArc
 50
196.214897
 51
343.785103
  0
ARC
  5
1C8
330
4E
100
AcDbEntity
 67
     1
  8
1
  6
CONTINUOUS
 62
    18
100
AcDbCircle
 10
17.363371
 20
12.146008
 30
0.0
 40
0.025000000372529
100
AcDbArc
 50
343.785103
 51
90.0
  0
ARC
  5
1C9
330
4E
100
AcDbEntity
 67
     1
  8
1
  6
CONTINUOUS
 62
    18
100
AcDbCircle
 10
17.339338
 20
12.361008
 30
0.0
 40
0.0450000017881393
100
AcDbArc
 50
90.0
 51
180.0
  0
ARC
  5
1CA
330
4E
100
AcDbEntity
 67
     1
  8
1
  6
CONTINUOUS
 62
    18
100
AcDbCircle
 10
17.730839
 20
12.361008
 30
0.0
 40
0.0450000017881393
100
AcDbArc
 50
0.0
 51
90.0
  0
ARC
  5
1CB
330
4E
100
AcDbEntity
 67
     1
  8
1
  6
CONTINUOUS
 62
    18
100
AcDbCircle
 10
17.706806
 20
12.146008
 30
0.0
 40
0.025000000372529
100
AcDbArc
 50
90.0
 51
196.214897
  0
ARC
  5
1CC
330
4E
100
AcDbEntity
 67
     1
  8
1
  6
CONTINUOUS
 62
    18
100
AcDbCircle
 10
17.850838
 20
12.187894
 30
0.0
 40
0.1749999970197678
100
AcDbArc
 50
196.214897
 51
343.785103
  0
ARC
  5
1CD
330
4E
100
AcDbEntity
 67
     1
  8
1
  6
CONTINUOUS
 62
    18
100
AcDbCircle
 10
17.994871
 20
12.146008
 30
0.0
 40
0.025000000372529
100
AcDbArc
 50
343.785103
 51
90.0
  0
ARC
  5
1CE
330
4E
100
AcDbEntity
 67
     1
  8
1
  6
CONTINUOUS
 62
    18
100
AcDbCircle
 10
17.970839
 20
12.361008
 30
0.0
 40
0.0450000017881393
100
AcDbArc
 50
90.0
 51
180.0
  0
ARC
  5
1CF
330
4E
100
AcDbEntity
 67
     1
  8
1
  6
CONTINUOUS
 62
    18
100
AcDbCircle
 10
18.362339
 20
12.361008
 30
0.0
 40
0.0450000017881393
100
AcDbArc
 50
0.0
 51
90.0
  0
ARC
  5
1D0
330
4E
100
AcDbEntity
 67
     1
  8
1
  6
CONTINUOUS
 62
    18
100
AcDbCircle
 10
18.338305
 20
12.146008
 30
0.0
 40
0.025000000372529
100
AcDbArc
 50
90.0
 51
196.214897
  0
ARC
  5
1D1
330
4E
100
AcDbEntity
 67
     1
  8
1
  6
CONTINUOUS
 62
    18
100
AcDbCircle
 10
18.482338
 20
12.187894
 30
0.0
 40
0.1749999970197678
100
AcDbArc
 50
196.214897
 51
343.785103
  0
ARC
  5
1D2
330
4E
100
AcDbEntity
 67
     1
  8
1
  6
CONTINUOUS
 62
    18
100
AcDbCircle
 10
18.626371
 20
12.146008
 30
0.0
 40
0.025000000372529
100
AcDbArc
 50
343.785103
 51
90.0
  0
ARC
  5
1D3
330
4E
100
AcDbEntity
 67
     1
  8
1
  6
CONTINUOUS
 62
    18
100
AcDbCircle
 10
18.602339
 20
12.361008
 30
0.0
 40
0.0450000017881393
100
AcDbArc
 50
90.0
 51
180.0
  0
ARC
  5
1D4
330
4E
100
AcDbEntity
 67
     1
  8
1
  6
CONTINUOUS
 62
    18
100
AcDbCircle
 10
18.993839
 20
12.361008
 30
0.0
 40
0.0450000017881393
100
AcDbArc
 50
0.0
 51
90.0
  0
ARC
  5
1D5
330
4E
100
AcDbEntity
 67
     1
  8
1
  6
CONTINUOUS
 62
    18
100
AcDbCircle
 10
18.969805
 20
12.146008
 30
0.0
 40
0.025000000372529
100
AcDbArc
 50
90.0
 51
196.214897
  0
ARC
  5
1D6
330
4E
100
AcDbEntity
 67
     1
  8
1
  6
CONTINUOUS
 62
    18
100
AcDbCircle
 10
19.113838
 20
12.187894
 30
0.0
 40
0.1749999970197678
100
AcDbArc
 50
196.214897
 51
343.785103
  0
ARC
  5
1D7
330
4E
100
AcDbEntity
 67
     1
  8
1
  6
CONTINUOUS
 62
    18
100
AcDbCircle
 10
19.257872
 20
12.146008
 30
0.0
 40
0.025000000372529
100
AcDbArc
 50
343.785103
 51
90.0
  0
ARC
  5
1D8
330
4E
100
AcDbEntity
 67
     1
  8
1
  6
CONTINUOUS
 62
    18
100
AcDbCircle
 10
19.233839
 20
12.361008
 30
0.0
 40
0.0450000017881393
100
AcDbArc
 50
90.0
 51
180.0
  0
ARC
  5
1D9
330
4E
100
AcDbEntity
 67
     1
  8
1
  6
CONTINUOUS
 62
    18
100
AcDbCircle
 10
19.356876
 20
12.361008
 30
0.0
 40
0.0450000017881393
100
AcDbArc
 50
0.0
 51
90.0
  0
ARC
  5
1DA
330
4E
100
AcDbEntity
 67
     1
  8
1
  6
CONTINUOUS
 62
    18
100
AcDbCircle
 10
19.356876
 20
11.843094
 30
0.0
 40
0.0450000017881393
100
AcDbArc
 50
270.0
 51
0.0
  0
ARC
  5
1DB
330
4E
100
AcDbEntity
 67
     1
  8
1
  6
CONTINUOUS
 62
    18
100
AcDbCircle
 10
16.976299
 20
11.843094
 30
0.0
 40
0.0450000017881393
100
AcDbArc
 50
180.0
 51
270.0
  0
ARC
  5
1DC
330
4E
100
AcDbEntity
 67
     1
  8
1
  6
CONTINUOUS
 62
    18
100
AcDbCircle
 10
14.156799
 20
11.843094
 30
0.0
 40
0.0450000017881393
100
AcDbArc
 50
180.0
 51
270.0
  0
ARC
  5
1DD
330
4E
100
AcDbEntity
 67
     1
  8
1
  6
CONTINUOUS
 62
    18
100
AcDbCircle
 10
14.156799
 20
12.361008
 30
0.0
 40
0.0450000017881393
100
AcDbArc
 50
90.0
 51
180.0
  0
ARC
  5
1DE
330
4E
100
AcDbEntity
 67
     1
  8
1
  6
CONTINUOUS
 62
    18
100
AcDbCircle
 10
14.279839
 20
12.361008
 30
0.0
 40
0.0450000017881393
100
AcDbArc
 50
0.0
 51
90.0
  0
ARC
  5
1DF
330
4E
100
AcDbEntity
 67
     1
  8
1
  6
CONTINUOUS
 62
    18
100
AcDbCircle
 10
14.255805
 20
12.146008
 30
0.0
 40
0.025000000372529
100
AcDbArc
 50
90.0
 51
196.214897
  0
ARC
  5
1E0
330
4E
100
AcDbEntity
 67
     1
  8
1
  6
CONTINUOUS
 62
    18
100
AcDbCircle
 10
14.399838
 20
12.187894
 30
0.0
 40
0.1749999970197678
100
AcDbArc
 50
196.214897
 51
343.785103
  0
ARC
  5
1E1
330
4E
100
AcDbEntity
 67
     1
  8
1
  6
CONTINUOUS
 62
    18
100
AcDbCircle
 10
14.543872
 20
12.146008
 30
0.0
 40
0.025000000372529
100
AcDbArc
 50
343.785103
 51
90.0
  0
ARC
  5
1E2
330
4E
100
AcDbEntity
 67
     1
  8
1
  6
CONTINUOUS
 62
    18
100
AcDbCircle
 10
14.519838
 20
12.361008
 30
0.0
 40
0.0450000017881393
100
AcDbArc
 50
90.0
 51
180.0
  0
ARC
  5
1E3
330
4E
100
AcDbEntity
 67
     1
  8
1
  6
CONTINUOUS
 62
    18
100
AcDbCircle
 10
14.911339
 20
12.361008
 30
0.0
 40
0.0450000017881393
100
AcDbArc
 50
0.0
 51
90.0
  0
ARC
  5
1E4
330
4E
100
AcDbEntity
 67
     1
  8
1
  6
CONTINUOUS
 62
    18
100
AcDbCircle
 10
14.887305
 20
12.146008
 30
0.0
 40
0.025000000372529
100
AcDbArc
 50
90.0
 51
196.214897
  0
ARC
  5
1E5
330
4E
100
AcDbEntity
 67
     1
  8
1
  6
CONTINUOUS
 62
    18
100
AcDbCircle
 10
15.031339
 20
12.187894
 30
0.0
 40
0.1749999970197678
100
AcDbArc
 50
196.214897
 51
343.785103
  0
ARC
  5
1E6
330
4E
100
AcDbEntity
 67
     1
  8
1
  6
CONTINUOUS
 62
    18
100
AcDbCircle
 10
15.175371
 20
12.146008
 30
0.0
 40
0.025000000372529
100
AcDbArc
 50
343.785103
 51
90.0
  0
ARC
  5
1E7
330
4E
100
AcDbEntity
 67
     1
  8
1
  6
CONTINUOUS
 62
    18
100
AcDbCircle
 10
15.151339
 20
12.361008
 30
0.0
 40
0.0450000017881393
100
AcDbArc
 50
90.0
 51
180.0
  0
ARC
  5
1E8
330
4E
100
AcDbEntity
 67
     1
  8
1
  6
CONTINUOUS
 62
    18
100
AcDbCircle
 10
15.542838
 20
12.361008
 30
0.0
 40
0.0450000017881393
100
AcDbArc
 50
0.0
 51
90.0
  0
ARC
  5
1E9
330
4E
100
AcDbEntity
 67
     1
  8
1
  6
CONTINUOUS
 62
    18
100
AcDbCircle
 10
15.518806
 20
12.146008
 30
0.0
 40
0.025000000372529
100
AcDbArc
 50
90.0
 51
196.214897
  0
ARC
  5
1EA
330
4E
100
AcDbEntity
 67
     1
  8
1
  6
CONTINUOUS
 62
    18
100
AcDbCircle
 10
15.662838
 20
12.187894
 30
0.0
 40
0.1749999970197678
100
AcDbArc
 50
196.214897
 51
343.785103
  0
ARC
  5
1EB
330
4E
100
AcDbEntity
 67
     1
  8
1
  6
CONTINUOUS
 62
    18
100
AcDbCircle
 10
15.806871
 20
12.146008
 30
0.0
 40
0.025000000372529
100
AcDbArc
 50
343.785103
 51
90.0
  0
ARC
  5
1EC
330
4E
100
AcDbEntity
 67
     1
  8
1
  6
CONTINUOUS
 62
    18
100
AcDbCircle
 10
15.782839
 20
12.361008
 30
0.0
 40
0.0450000017881393
100
AcDbArc
 50
90.0
 51
180.0
  0
ARC
  5
1ED
330
4E
100
AcDbEntity
 67
     1
  8
1
  6
CONTINUOUS
 62
    18
100
AcDbCircle
 10
16.174339
 20
12.361008
 30
0.0
 40
0.0450000017881393
100
AcDbArc
 50
0.0
 51
90.0
  0
ARC
  5
1EE
330
4E
100
AcDbEntity
 67
     1
  8
1
  6
CONTINUOUS
 62
    18
100
AcDbCircle
 10
16.150305
 20
12.146008
 30
0.0
 40
0.025000000372529
100
AcDbArc
 50
90.0
 51
196.214897
  0
ARC
  5
1EF
330
4E
100
AcDbEntity
 67
     1
  8
1
  6
CONTINUOUS
 62
    18
100
AcDbCircle
 10
16.294338
 20
12.187894
 30
0.0
 40
0.1749999970197678
100
AcDbArc
 50
196.214897
 51
343.785103
  0
ARC
  5
1F0
330
4E
100
AcDbEntity
 67
     1
  8
1
  6
CONTINUOUS
 62
    18
100
AcDbCircle
 10
16.438372
 20
12.146008
 30
0.0
 40
0.025000000372529
100
AcDbArc
 50
343.785103
 51
90.0
  0
ARC
  5
1F1
330
4E
100
AcDbEntity
 67
     1
  8
1
  6
CONTINUOUS
 62
    18
100
AcDbCircle
 10
16.414339
 20
12.361008
 30
0.0
 40
0.0450000017881393
100
AcDbArc
 50
90.0
 51
180.0
  0
ARC
  5
1F2
330
4E
100
AcDbEntity
 67
     1
  8
1
  6
CONTINUOUS
 62
    18
100
AcDbCircle
 10
16.537376
 20
12.361008
 30
0.0
 40
0.0450000017881393
100
AcDbArc
 50
0.0
 51
90.0
  0
ARC
  5
1F3
330
4E
100
AcDbEntity
 67
     1
  8
1
  6
CONTINUOUS
 62
    18
100
AcDbCircle
 10
16.537376
 20
11.843094
 30
0.0
 40
0.0450000017881393
100
AcDbArc
 50
270.0
 51
0.0
  0
ARC
  5
1F4
330
4E
100
AcDbEntity
 67
     1
  8
1
  6
CONTINUOUS
 62
    18
100
AcDbCircle
 10
2.8788
 20
12.361008
 30
0.0
 40
0.0450000017881393
100
AcDbArc
 50
90.0
 51
180.0
  0
ARC
  5
1F5
330
4E
100
AcDbEntity
 67
     1
  8
1
  6
CONTINUOUS
 62
    18
100
AcDbCircle
 10
3.001838
 20
12.361008
 30
0.0
 40
0.0450000017881393
100
AcDbArc
 50
0.0
 51
90.0
  0
ARC
  5
1F6
330
4E
100
AcDbEntity
 67
     1
  8
1
  6
CONTINUOUS
 62
    18
100
AcDbCircle
 10
2.977805
 20
12.146008
 30
0.0
 40
0.025000000372529
100
AcDbArc
 50
90.0
 51
196.214897
  0
ARC
  5
1F7
330
4E
100
AcDbEntity
 67
     1
  8
1
  6
CONTINUOUS
 62
    18
100
AcDbCircle
 10
3.121838
 20
12.187894
 30
0.0
 40
0.1749999970197678
100
AcDbArc
 50
196.214897
 51
343.785103
  0
ARC
  5
1F8
330
4E
100
AcDbEntity
 67
     1
  8
1
  6
CONTINUOUS
 62
    18
100
AcDbCircle
 10
3.265872
 20
12.146008
 30
0.0
 40
0.025000000372529
100
AcDbArc
 50
343.785103
 51
90.0
  0
ARC
  5
1F9
330
4E
100
AcDbEntity
 67
     1
  8
1
  6
CONTINUOUS
 62
    18
100
AcDbCircle
 10
3.241838
 20
12.361008
 30
0.0
 40
0.0450000017881393
100
AcDbArc
 50
90.0
 51
180.0
  0
ARC
  5
1FA
330
4E
100
AcDbEntity
 67
     1
  8
1
  6
CONTINUOUS
 62
    18
100
AcDbCircle
 10
3.633338
 20
12.361008
 30
0.0
 40
0.0450000017881393
100
AcDbArc
 50
0.0
 51
90.0
  0
ARC
  5
1FB
330
4E
100
AcDbEntity
 67
     1
  8
1
  6
CONTINUOUS
 62
    18
100
AcDbCircle
 10
3.609305
 20
12.146008
 30
0.0
 40
0.025000000372529
100
AcDbArc
 50
90.0
 51
196.214897
  0
ARC
  5
1FC
330
4E
100
AcDbEntity
 67
     1
  8
1
  6
CONTINUOUS
 62
    18
100
AcDbCircle
 10
3.753338
 20
12.187894
 30
0.0
 40
0.1749999970197678
100
AcDbArc
 50
196.214897
 51
343.785103
  0
ARC
  5
1FD
330
4E
100
AcDbEntity
 67
     1
  8
1
  6
CONTINUOUS
 62
    18
100
AcDbCircle
 10
3.897372
 20
12.146008
 30
0.0
 40
0.025000000372529
100
AcDbArc
 50
343.785103
 51
90.0
  0
ARC
  5
1FE
330
4E
100
AcDbEntity
 67
     1
  8
1
  6
CONTINUOUS
 62
    18
100
AcDbCircle
 10
3.873338
 20
12.361008
 30
0.0
 40
0.0450000017881393
100
AcDbArc
 50
90.0
 51
180.0
  0
ARC
  5
1FF
330
4E
100
AcDbEntity
 67
     1
  8
1
  6
CONTINUOUS
 62
    18
100
AcDbCircle
 10
4.264838
 20
12.361008
 30
0.0
 40
0.0450000017881393
100
AcDbArc
 50
0.0
 51
90.0
  0
ARC
  5
200
330
4E
100
AcDbEntity
 67
     1
  8
1
  6
CONTINUOUS
 62
    18
100
AcDbCircle
 10
4.240805
 20
12.146008
 30
0.0
 40
0.025000000372529
100
AcDbArc
 50
90.0
 51
196.214897
  0
ARC
  5
201
330
4E
100
AcDbEntity
 67
     1
  8
1
  6
CONTINUOUS
 62
    18
100
AcDbCircle
 10
4.384839
 20
12.187894
 30
0.0
 40
0.1749999970197678
100
AcDbArc
 50
196.214897
 51
343.785103
  0
ARC
  5
202
330
4E
100
AcDbEntity
 67
     1
  8
1
  6
CONTINUOUS
 62
    18
100
AcDbCircle
 10
4.528872
 20
12.146008
 30
0.0
 40
0.025000000372529
100
AcDbArc
 50
343.785103
 51
90.0
  0
ARC
  5
203
330
4E
100
AcDbEntity
 67
     1
  8
1
  6
CONTINUOUS
 62
    18
100
AcDbCircle
 10
4.504838
 20
12.361008
 30
0.0
 40
0.0450000017881393
100
AcDbArc
 50
90.0
 51
180.0
  0
ARC
  5
204
330
4E
100
AcDbEntity
 67
     1
  8
1
  6
CONTINUOUS
 62
    18
100
AcDbCircle
 10
4.896338
 20
12.361008
 30
0.0
 40
0.0450000017881393
100
AcDbArc
 50
0.0
 51
90.0
  0
ARC
  5
205
330
4E
100
AcDbEntity
 67
     1
  8
1
  6
CONTINUOUS
 62
    18
100
AcDbCircle
 10
4.872305
 20
12.146008
 30
0.0
 40
0.025000000372529
100
AcDbArc
 50
90.0
 51
196.214897
  0
ARC
  5
206
330
4E
100
AcDbEntity
 67
     1
  8
1
  6
CONTINUOUS
 62
    18
100
AcDbCircle
 10
5.016338
 20
12.187894
 30
0.0
 40
0.1749999970197678
100
AcDbArc
 50
196.214897
 51
343.785103
  0
ARC
  5
207
330
4E
100
AcDbEntity
 67
     1
  8
1
  6
CONTINUOUS
 62
    18
100
AcDbCircle
 10
5.160372
 20
12.146008
 30
0.0
 40
0.025000000372529
100
AcDbArc
 50
343.785103
 51
90.0
  0
ARC
  5
208
330
4E
100
AcDbEntity
 67
     1
  8
1
  6
CONTINUOUS
 62
    18
100
AcDbCircle
 10
5.136338
 20
12.361008
 30
0.0
 40
0.0450000017881393
100
AcDbArc
 50
90.0
 51
180.0
  0
ARC
  5
209
330
4E
100
AcDbEntity
 67
     1
  8
1
  6
CONTINUOUS
 62
    18
100
AcDbCircle
 10
5.259377
 20
12.361008
 30
0.0
 40
0.0450000017881393
100
AcDbArc
 50
0.0
 51
90.0
  0
ARC
  5
20A
330
4E
100
AcDbEntity
 67
     1
  8
1
  6
CONTINUOUS
 62
    18
100
AcDbCircle
 10
5.259377
 20
11.843094
 30
0.0
 40
0.0450000017881393
100
AcDbArc
 50
270.0
 51
0.0
  0
ARC
  5
20B
330
4E
100
AcDbEntity
 67
     1
  8
1
  6
CONTINUOUS
 62
    18
100
AcDbCircle
 10
2.8788
 20
11.843094
 30
0.0
 40
0.0450000017881393
100
AcDbArc
 50
180.0
 51
270.0
  0
ARC
  5
20C
330
4E
100
AcDbEntity
 67
     1
  8
1
  6
CONTINUOUS
 62
    18
100
AcDbCircle
 10
5.6983
 20
12.361008
 30
0.0
 40
0.0450000017881393
100
AcDbArc
 50
90.0
 51
180.0
  0
ARC
  5
20D
330
4E
100
AcDbEntity
 67
     1
  8
1
  6
CONTINUOUS
 62
    18
100
AcDbCircle
 10
5.821338
 20
12.361008
 30
0.0
 40
0.0450000017881393
100
AcDbArc
 50
0.0
 51
90.0
  0
ARC
  5
20E
330
4E
100
AcDbEntity
 67
     1
  8
1
  6
CONTINUOUS
 62
    18
100
AcDbCircle
 10
5.797305
 20
12.146008
 30
0.0
 40
0.025000000372529
100
AcDbArc
 50
90.0
 51
196.214897
  0
ARC
  5
20F
330
4E
100
AcDbEntity
 67
     1
  8
1
  6
CONTINUOUS
 62
    18
100
AcDbCircle
 10
5.941339
 20
12.187894
 30
0.0
 40
0.1749999970197678
100
AcDbArc
 50
196.214897
 51
343.785103
  0
ARC
  5
210
330
4E
100
AcDbEntity
 67
     1
  8
1
  6
CONTINUOUS
 62
    18
100
AcDbCircle
 10
6.085371
 20
12.146008
 30
0.0
 40
0.025000000372529
100
AcDbArc
 50
343.785103
 51
90.0
  0
ARC
  5
211
330
4E
100
AcDbEntity
 67
     1
  8
1
  6
CONTINUOUS
 62
    18
100
AcDbCircle
 10
6.061338
 20
12.361008
 30
0.0
 40
0.0450000017881393
100
AcDbArc
 50
90.0
 51
180.0
  0
ARC
  5
212
330
4E
100
AcDbEntity
 67
     1
  8
1
  6
CONTINUOUS
 62
    18
100
AcDbCircle
 10
6.452838
 20
12.361008
 30
0.0
 40
0.0450000017881393
100
AcDbArc
 50
0.0
 51
90.0
  0
ARC
  5
213
330
4E
100
AcDbEntity
 67
     1
  8
1
  6
CONTINUOUS
 62
    18
100
AcDbCircle
 10
6.428805
 20
12.146008
 30
0.0
 40
0.025000000372529
100
AcDbArc
 50
90.0
 51
196.214897
  0
ARC
  5
214
330
4E
100
AcDbEntity
 67
     1
  8
1
  6
CONTINUOUS
 62
    18
100
AcDbCircle
 10
6.572838
 20
12.187894
 30
0.0
 40
0.1749999970197678
100
AcDbArc
 50
196.214897
 51
343.785103
  0
ARC
  5
215
330
4E
100
AcDbEntity
 67
     1
  8
1
  6
CONTINUOUS
 62
    18
100
AcDbCircle
 10
6.716872
 20
12.146008
 30
0.0
 40
0.025000000372529
100
AcDbArc
 50
343.785103
 51
90.0
  0
ARC
  5
216
330
4E
100
AcDbEntity
 67
     1
  8
1
  6
CONTINUOUS
 62
    18
100
AcDbCircle
 10
6.692838
 20
12.361008
 30
0.0
 40
0.0450000017881393
100
AcDbArc
 50
90.0
 51
180.0
  0
ARC
  5
217
330
4E
100
AcDbEntity
 67
     1
  8
1
  6
CONTINUOUS
 62
    18
100
AcDbCircle
 10
7.084338
 20
12.361008
 30
0.0
 40
0.0450000017881393
100
AcDbArc
 50
0.0
 51
90.0
  0
ARC
  5
218
330
4E
100
AcDbEntity
 67
     1
  8
1
  6
CONTINUOUS
 62
    18
100
AcDbCircle
 10
7.060305
 20
12.146008
 30
0.0
 40
0.025000000372529
100
AcDbArc
 50
90.0
 51
196.214897
  0
ARC
  5
219
330
4E
100
AcDbEntity
 67
     1
  8
1
  6
CONTINUOUS
 62
    18
100
AcDbCircle
 10
7.204339
 20
12.187894
 30
0.0
 40
0.1749999970197678
100
AcDbArc
 50
196.214897
 51
343.785103
  0
ARC
  5
21A
330
4E
100
AcDbEntity
 67
     1
  8
1
  6
CONTINUOUS
 62
    18
100
AcDbCircle
 10
7.348372
 20
12.146008
 30
0.0
 40
0.025000000372529
100
AcDbArc
 50
343.785103
 51
90.0
  0
ARC
  5
21B
330
4E
100
AcDbEntity
 67
     1
  8
1
  6
CONTINUOUS
 62
    18
100
AcDbCircle
 10
7.324338
 20
12.361008
 30
0.0
 40
0.0450000017881393
100
AcDbArc
 50
90.0
 51
180.0
  0
ARC
  5
21C
330
4E
100
AcDbEntity
 67
     1
  8
1
  6
CONTINUOUS
 62
    18
100
AcDbCircle
 10
7.715838
 20
12.361008
 30
0.0
 40
0.0450000017881393
100
AcDbArc
 50
0.0
 51
90.0
  0
ARC
  5
21D
330
4E
100
AcDbEntity
 67
     1
  8
1
  6
CONTINUOUS
 62
    18
100
AcDbCircle
 10
7.691805
 20
12.146008
 30
0.0
 40
0.025000000372529
100
AcDbArc
 50
90.0
 51
196.214897
  0
ARC
  5
21E
330
4E
100
AcDbEntity
 67
     1
  8
1
  6
CONTINUOUS
 62
    18
100
AcDbCircle
 10
7.835838
 20
12.187894
 30
0.0
 40
0.1749999970197678
100
AcDbArc
 50
196.214897
 51
343.785103
  0
ARC
  5
21F
330
4E
100
AcDbEntity
 67
     1
  8
1
  6
CONTINUOUS
 62
    18
100
AcDbCircle
 10
7.979872
 20
12.146008
 30
0.0
 40
0.025000000372529
100
AcDbArc
 50
343.785103
 51
90.0
  0
ARC
  5
220
330
4E
100
AcDbEntity
 67
     1
  8
1
  6
CONTINUOUS
 62
    18
100
AcDbCircle
 10
7.955838
 20
12.361008
 30
0.0
 40
0.0450000017881393
100
AcDbArc
 50
90.0
 51
180.0
  0
ARC
  5
221
330
4E
100
AcDbEntity
 67
     1
  8
1
  6
CONTINUOUS
 62
    18
100
AcDbCircle
 10
8.078877
 20
12.361008
 30
0.0
 40
0.0450000017881393
100
AcDbArc
 50
0.0
 51
90.0
  0
ARC
  5
222
330
4E
100
AcDbEntity
 67
     1
  8
1
  6
CONTINUOUS
 62
    18
100
AcDbCircle
 10
8.078877
 20
11.843094
 30
0.0
 40
0.0450000017881393
100
AcDbArc
 50
270.0
 51
0.0
  0
ARC
  5
223
330
4E
100
AcDbEntity
 67
     1
  8
1
  6
CONTINUOUS
 62
    18
100
AcDbCircle
 10
5.6983
 20
11.843094
 30
0.0
 40
0.0450000017881393
100
AcDbArc
 50
180.0
 51
270.0
  0
ARC
  5
224
330
4E
100
AcDbEntity
 67
     1
  8
1
  6
CONTINUOUS
 62
    18
100
AcDbCircle
 10
11.337299
 20
12.361008
 30
0.0
 40
0.0450000017881393
100
AcDbArc
 50
90.0
 51
180.0
  0
ARC
  5
225
330
4E
100
AcDbEntity
 67
     1
  8
1
  6
CONTINUOUS
 62
    18
100
AcDbCircle
 10
11.460339
 20
12.361008
 30
0.0
 40
0.0450000017881393
100
AcDbArc
 50
0.0
 51
90.0
  0
ARC
  5
226
330
4E
100
AcDbEntity
 67
     1
  8
1
  6
CONTINUOUS
 62
    18
100
AcDbCircle
 10
11.436305
 20
12.146008
 30
0.0
 40
0.025000000372529
100
AcDbArc
 50
90.0
 51
196.214897
  0
ARC
  5
227
330
4E
100
AcDbEntity
 67
     1
  8
1
  6
CONTINUOUS
 62
    18
100
AcDbCircle
 10
11.580338
 20
12.187894
 30
0.0
 40
0.1749999970197678
100
AcDbArc
 50
196.214897
 51
343.785103
  0
ARC
  5
228
330
4E
100
AcDbEntity
 67
     1
  8
1
  6
CONTINUOUS
 62
    18
100
AcDbCircle
 10
11.724372
 20
12.146008
 30
0.0
 40
0.025000000372529
100
AcDbArc
 50
343.785103
 51
90.0
  0
ARC
  5
229
330
4E
100
AcDbEntity
 67
     1
  8
1
  6
CONTINUOUS
 62
    18
100
AcDbCircle
 10
11.700338
 20
12.361008
 30
0.0
 40
0.0450000017881393
100
AcDbArc
 50
90.0
 51
180.0
  0
ARC
  5
22A
330
4E
100
AcDbEntity
 67
     1
  8
1
  6
CONTINUOUS
 62
    18
100
AcDbCircle
 10
12.091839
 20
12.361008
 30
0.0
 40
0.0450000017881393
100
AcDbArc
 50
0.0
 51
90.0
  0
ARC
  5
22B
330
4E
100
AcDbEntity
 67
     1
  8
1
  6
CONTINUOUS
 62
    18
100
AcDbCircle
 10
12.067805
 20
12.146008
 30
0.0
 40
0.025000000372529
100
AcDbArc
 50
90.0
 51
196.214897
  0
ARC
  5
22C
330
4E
100
AcDbEntity
 67
     1
  8
1
  6
CONTINUOUS
 62
    18
100
AcDbCircle
 10
12.211839
 20
12.187894
 30
0.0
 40
0.1749999970197678
100
AcDbArc
 50
196.214897
 51
343.785103
  0
ARC
  5
22D
330
4E
100
AcDbEntity
 67
     1
  8
1
  6
CONTINUOUS
 62
    18
100
AcDbCircle
 10
12.355871
 20
12.146008
 30
0.0
 40
0.025000000372529
100
AcDbArc
 50
343.785103
 51
90.0
  0
ARC
  5
22E
330
4E
100
AcDbEntity
 67
     1
  8
1
  6
CONTINUOUS
 62
    18
100
AcDbCircle
 10
12.331839
 20
12.361008
 30
0.0
 40
0.0450000017881393
100
AcDbArc
 50
90.0
 51
180.0
  0
ARC
  5
22F
330
4E
100
AcDbEntity
 67
     1
  8
1
  6
CONTINUOUS
 62
    18
100
AcDbCircle
 10
12.723338
 20
12.361008
 30
0.0
 40
0.0450000017881393
100
AcDbArc
 50
0.0
 51
90.0
  0
ARC
  5
230
330
4E
100
AcDbEntity
 67
     1
  8
1
  6
CONTINUOUS
 62
    18
100
AcDbCircle
 10
12.699306
 20
12.146008
 30
0.0
 40
0.025000000372529
100
AcDbArc
 50
90.0
 51
196.214897
  0
ARC
  5
231
330
4E
100
AcDbEntity
 67
     1
  8
1
  6
CONTINUOUS
 62
    18
100
AcDbCircle
 10
12.843338
 20
12.187894
 30
0.0
 40
0.1749999970197678
100
AcDbArc
 50
196.214897
 51
343.785103
  0
ARC
  5
232
330
4E
100
AcDbEntity
 67
     1
  8
1
  6
CONTINUOUS
 62
    18
100
AcDbCircle
 10
12.987371
 20
12.146008
 30
0.0
 40
0.025000000372529
100
AcDbArc
 50
343.785103
 51
90.0
  0
ARC
  5
233
330
4E
100
AcDbEntity
 67
     1
  8
1
  6
CONTINUOUS
 62
    18
100
AcDbCircle
 10
12.963339
 20
12.361008
 30
0.0
 40
0.0450000017881393
100
AcDbArc
 50
90.0
 51
180.0
  0
ARC
  5
234
330
4E
100
AcDbEntity
 67
     1
  8
1
  6
CONTINUOUS
 62
    18
100
AcDbCircle
 10
13.354838
 20
12.361008
 30
0.0
 40
0.0450000017881393
100
AcDbArc
 50
0.0
 51
90.0
  0
ARC
  5
235
330
4E
100
AcDbEntity
 67
     1
  8
1
  6
CONTINUOUS
 62
    18
100
AcDbCircle
 10
13.330805
 20
12.146008
 30
0.0
 40
0.025000000372529
100
AcDbArc
 50
90.0
 51
196.214897
  0
ARC
  5
236
330
4E
100
AcDbEntity
 67
     1
  8
1
  6
CONTINUOUS
 62
    18
100
AcDbCircle
 10
13.474838
 20
12.187894
 30
0.0
 40
0.1749999970197678
100
AcDbArc
 50
196.214897
 51
343.785103
  0
ARC
  5
237
330
4E
100
AcDbEntity
 67
     1
  8
1
  6
CONTINUOUS
 62
    18
100
AcDbCircle
 10
13.618872
 20
12.146008
 30
0.0
 40
0.025000000372529
100
AcDbArc
 50
343.785103
 51
90.0
  0
ARC
  5
238
330
4E
100
AcDbEntity
 67
     1
  8
1
  6
CONTINUOUS
 62
    18
100
AcDbCircle
 10
13.594838
 20
12.361008
 30
0.0
 40
0.0450000017881393
100
AcDbArc
 50
90.0
 51
180.0
  0
ARC
  5
239
330
4E
100
AcDbEntity
 67
     1
  8
1
  6
CONTINUOUS
 62
    18
100
AcDbCircle
 10
13.717877
 20
12.361008
 30
0.0
 40
0.0450000017881393
100
AcDbArc
 50
0.0
 51
90.0
  0
ARC
  5
23A
330
4E
100
AcDbEntity
 67
     1
  8
1
  6
CONTINUOUS
 62
    18
100
AcDbCircle
 10
13.717877
 20
11.843094
 30
0.0
 40
0.0450000017881393
100
AcDbArc
 50
270.0
 51
0.0
  0
ARC
  5
23B
330
4E
100
AcDbEntity
 67
     1
  8
1
  6
CONTINUOUS
 62
    18
100
AcDbCircle
 10
11.337299
 20
11.843094
 30
0.0
 40
0.0450000017881393
100
AcDbArc
 50
180.0
 51
270.0
  0
ARC
  5
23C
330
4E
100
AcDbEntity
 67
     1
  8
1
  6
CONTINUOUS
 62
    18
100
AcDbCircle
 10
8.517799
 20
11.843094
 30
0.0
 40
0.0450000017881393
100
AcDbArc
 50
180.0
 51
270.0
  0
ARC
  5
23D
330
4E
100
AcDbEntity
 67
     1
  8
1
  6
CONTINUOUS
 62
    18
100
AcDbCircle
 10
8.517799
 20
12.361008
 30
0.0
 40
0.0450000017881393
100
AcDbArc
 50
90.0
 51
180.0
  0
ARC
  5
23E
330
4E
100
AcDbEntity
 67
     1
  8
1
  6
CONTINUOUS
 62
    18
100
AcDbCircle
 10
8.640839
 20
12.361008
 30
0.0
 40
0.0450000017881393
100
AcDbArc
 50
0.0
 51
90.0
  0
ARC
  5
23F
330
4E
100
AcDbEntity
 67
     1
  8
1
  6
CONTINUOUS
 62
    18
100
AcDbCircle
 10
8.616805
 20
12.146008
 30
0.0
 40
0.025000000372529
100
AcDbArc
 50
90.0
 51
196.214897
  0
ARC
  5
240
330
4E
100
AcDbEntity
 67
     1
  8
1
  6
CONTINUOUS
 62
    18
100
AcDbCircle
 10
8.760839
 20
12.187894
 30
0.0
 40
0.1749999970197678
100
AcDbArc
 50
196.214897
 51
343.785103
  0
ARC
  5
241
330
4E
100
AcDbEntity
 67
     1
  8
1
  6
CONTINUOUS
 62
    18
100
AcDbCircle
 10
8.904872
 20
12.146008
 30
0.0
 40
0.025000000372529
100
AcDbArc
 50
343.785103
 51
90.0
  0
ARC
  5
242
330
4E
100
AcDbEntity
 67
     1
  8
1
  6
CONTINUOUS
 62
    18
100
AcDbCircle
 10
8.880838
 20
12.361008
 30
0.0
 40
0.0450000017881393
100
AcDbArc
 50
90.0
 51
180.0
  0
ARC
  5
243
330
4E
100
AcDbEntity
 67
     1
  8
1
  6
CONTINUOUS
 62
    18
100
AcDbCircle
 10
9.272339
 20
12.361008
 30
0.0
 40
0.0450000017881393
100
AcDbArc
 50
0.0
 51
90.0
  0
ARC
  5
244
330
4E
100
AcDbEntity
 67
     1
  8
1
  6
CONTINUOUS
 62
    18
100
AcDbCircle
 10
9.248305
 20
12.146008
 30
0.0
 40
0.025000000372529
100
AcDbArc
 50
90.0
 51
196.214897
  0
ARC
  5
245
330
4E
100
AcDbEntity
 67
     1
  8
1
  6
CONTINUOUS
 62
    18
100
AcDbCircle
 10
9.392339
 20
12.187894
 30
0.0
 40
0.1749999970197678
100
AcDbArc
 50
196.214897
 51
343.785103
  0
ARC
  5
246
330
4E
100
AcDbEntity
 67
     1
  8
1
  6
CONTINUOUS
 62
    18
100
AcDbCircle
 10
9.536371
 20
12.146008
 30
0.0
 40
0.025000000372529
100
AcDbArc
 50
343.785103
 51
90.0
  0
ARC
  5
247
330
4E
100
AcDbEntity
 67
     1
  8
1
  6
CONTINUOUS
 62
    18
100
AcDbCircle
 10
9.512339
 20
12.361008
 30
0.0
 40
0.0450000017881393
100
AcDbArc
 50
90.0
 51
180.0
  0
ARC
  5
248
330
4E
100
AcDbEntity
 67
     1
  8
1
  6
CONTINUOUS
 62
    18
100
AcDbCircle
 10
9.903838
 20
12.361008
 30
0.0
 40
0.0450000017881393
100
AcDbArc
 50
0.0
 51
90.0
  0
ARC
  5
249
330
4E
100
AcDbEntity
 67
     1
  8
1
  6
CONTINUOUS
 62
    18
100
AcDbCircle
 10
9.879806
 20
12.146008
 30
0.0
 40
0.025000000372529
100
AcDbArc
 50
90.0
 51
196.214897
  0
ARC
  5
24A
330
4E
100
AcDbEntity
 67
     1
  8
1
  6
CONTINUOUS
 62
    18
100
AcDbCircle
 10
10.023838
 20
12.187894
 30
0.0
 40
0.1749999970197678
100
AcDbArc
 50
196.214897
 51
343.785103
  0
ARC
  5
24B
330
4E
100
AcDbEntity
 67
     1
  8
1
  6
CONTINUOUS
 62
    18
100
AcDbCircle
 10
10.167871
 20
12.146008
 30
0.0
 40
0.025000000372529
100
AcDbArc
 50
343.785103
 51
90.0
  0
ARC
  5
24C
330
4E
100
AcDbEntity
 67
     1
  8
1
  6
CONTINUOUS
 62
    18
100
AcDbCircle
 10
10.143838
 20
12.361008
 30
0.0
 40
0.0450000017881393
100
AcDbArc
 50
90.0
 51
180.0
  0
ARC
  5
24D
330
4E
100
AcDbEntity
 67
     1
  8
1
  6
CONTINUOUS
 62
    18
100
AcDbCircle
 10
10.535338
 20
12.361008
 30
0.0
 40
0.0450000017881393
100
AcDbArc
 50
0.0
 51
90.0
  0
ARC
  5
24E
330
4E
100
AcDbEntity
 67
     1
  8
1
  6
CONTINUOUS
 62
    18
100
AcDbCircle
 10
10.511305
 20
12.146008
 30
0.0
 40
0.025000000372529
100
AcDbArc
 50
90.0
 51
196.214897
  0
ARC
  5
24F
330
4E
100
AcDbEntity
 67
     1
  8
1
  6
CONTINUOUS
 62
    18
100
AcDbCircle
 10
10.655338
 20
12.187894
 30
0.0
 40
0.1749999970197678
100
AcDbArc
 50
196.214897
 51
343.785103
  0
ARC
  5
250
330
4E
100
AcDbEntity
 67
     1
  8
1
  6
CONTINUOUS
 62
    18
100
AcDbCircle
 10
10.799372
 20
12.146008
 30
0.0
 40
0.025000000372529
100
AcDbArc
 50
343.785103
 51
90.0
  0
ARC
  5
251
330
4E
100
AcDbEntity
 67
     1
  8
1
  6
CONTINUOUS
 62
    18
100
AcDbCircle
 10
10.775338
 20
12.361008
 30
0.0
 40
0.0450000017881393
100
AcDbArc
 50
90.0
 51
180.0
  0
ARC
  5
252
330
4E
100
AcDbEntity
 67
     1
  8
1
  6
CONTINUOUS
 62
    18
100
AcDbCircle
 10
10.898377
 20
12.361008
 30
0.0
 40
0.0450000017881393
100
AcDbArc
 50
0.0
 51
90.0
  0
ARC
  5
253
330
4E
100
AcDbEntity
 67
     1
  8
1
  6
CONTINUOUS
 62
    18
100
AcDbCircle
 10
10.898377
 20
11.843094
 30
0.0
 40
0.0450000017881393
100
AcDbArc
 50
270.0
 51
0.0
  0
ARC
  5
254
330
4E
100
AcDbEntity
 67
     1
  8
1
  6
CONTINUOUS
 62
    18
100
AcDbCircle
 10
10.758377
 20
5.657628
 30
0.0
 40
0.0599999986588955
100
AcDbArc
 50
270.0
 51
0.0
  0
ARC
  5
255
330
4E
100
AcDbEntity
 67
     1
  8
1
  6
CONTINUOUS
 62
    18
100
AcDbCircle
 10
8.6578
 20
5.657628
 30
0.0
 40
0.0599999986588955
100
AcDbArc
 50
180.0
 51
270.0
  0
ARC
  5
256
330
4E
100
AcDbEntity
 67
     1
  8
1
  6
CONTINUOUS
 62
    18
100
AcDbCircle
 10
7.938877
 20
5.657628
 30
0.0
 40
0.0599999986588955
100
AcDbArc
 50
270.0
 51
0.0
  0
ARC
  5
257
330
4E
100
AcDbEntity
 67
     1
  8
1
  6
CONTINUOUS
 62
    18
100
AcDbCircle
 10
5.8383
 20
5.657628
 30
0.0
 40
0.0599999986588955
100
AcDbArc
 50
180.0
 51
270.0
  0
ARC
  5
258
330
4E
100
AcDbEntity
 67
     1
  8
1
  6
CONTINUOUS
 62
    18
100
AcDbCircle
 10
5.119377
 20
5.657628
 30
0.0
 40
0.0599999986588955
100
AcDbArc
 50
270.0
 51
0.0
  0
ARC
  5
259
330
4E
100
AcDbEntity
 67
     1
  8
1
  6
CONTINUOUS
 62
    18
100
AcDbCircle
 10
3.0188
 20
5.657628
 30
0.0
 40
0.0599999986588955
100
AcDbArc
 50
180.0
 51
270.0
  0
ARC
  5
25A
330
4E
100
AcDbEntity
 67
     1
  8
1
  6
CONTINUOUS
 62
    18
100
AcDbCircle
 10
13.577877
 20
5.657628
 30
0.0
 40
0.0599999986588955
100
AcDbArc
 50
270.0
 51
0.0
  0
ARC
  5
25B
330
4E
100
AcDbEntity
 67
     1
  8
1
  6
CONTINUOUS
 62
    18
100
AcDbCircle
 10
11.4773
 20
5.657628
 30
0.0
 40
0.0599999986588955
100
AcDbArc
 50
180.0
 51
270.0
  0
ARC
  5
25C
330
4E
100
AcDbEntity
 67
     1
  8
1
  6
CONTINUOUS
 62
    18
100
AcDbCircle
 10
16.397377
 20
5.657628
 30
0.0
 40
0.0599999986588955
100
AcDbArc
 50
270.0
 51
0.0
  0
ARC
  5
25D
330
4E
100
AcDbEntity
 67
     1
  8
1
  6
CONTINUOUS
 62
    18
100
AcDbCircle
 10
14.2968
 20
5.657628
 30
0.0
 40
0.0599999986588955
100
AcDbArc
 50
180.0
 51
270.0
  0
ARC
  5
25E
330
4E
100
AcDbEntity
 67
     1
  8
1
  6
CONTINUOUS
 62
    18
100
AcDbCircle
 10
19.216877
 20
5.657628
 30
0.0
 40
0.0599999986588955
100
AcDbArc
 50
270.0
 51
0.0
  0
ARC
  5
25F
330
4E
100
AcDbEntity
 67
     1
  8
1
  6
CONTINUOUS
 62
    18
100
AcDbCircle
 10
17.116301
 20
5.657628
 30
0.0
 40
0.0599999986588955
100
AcDbArc
 50
180.0
 51
270.0
  0
ARC
  5
260
330
4E
100
AcDbEntity
 67
     1
  8
1
  6
CONTINUOUS
 62
    18
100
AcDbCircle
 10
2.475338
 20
6.112397
 30
0.0
 40
0.0599999986588955
100
AcDbArc
 50
270.0
 51
0.0
  0
ARC
  5
261
330
4E
100
AcDbEntity
 67
     1
  8
1
  6
CONTINUOUS
 62
    18
100
AcDbCircle
 10
2.427838
 20
6.112397
 30
0.0
 40
0.0599999986588955
100
AcDbArc
 50
180.0
 51
270.0
  0
ARC
  5
262
330
4E
100
AcDbEntity
 67
     1
  8
1
  6
CONTINUOUS
 62
    18
100
AcDbCircle
 10
2.307838
 20
6.607597
 30
0.0
 40
0.0599999986588955
100
AcDbArc
 50
0.0
 51
90.0
  0
ARC
  5
263
330
4E
100
AcDbEntity
 67
     1
  8
1
  6
CONTINUOUS
 62
    18
100
AcDbCircle
 10
1.677838
 20
6.607597
 30
0.0
 40
0.0599999986588955
100
AcDbArc
 50
90.0
 51
180.0
  0
ARC
  5
264
330
4E
100
AcDbEntity
 67
     1
  8
1
  6
CONTINUOUS
 62
    18
100
AcDbCircle
 10
1.677838
 20
5.477597
 30
0.0
 40
0.0599999986588955
100
AcDbArc
 50
180.0
 51
270.0
  0
ARC
  5
265
330
4E
100
AcDbEntity
 67
     1
  8
1
  6
CONTINUOUS
 62
    18
100
AcDbCircle
 10
20.557838
 20
5.477597
 30
0.0
 40
0.0599999986588955
100
AcDbArc
 50
270.0
 51
0.0
  0
ARC
  5
266
330
4E
100
AcDbEntity
 67
     1
  8
1
  6
CONTINUOUS
 62
    18
100
AcDbCircle
 10
20.177839
 20
6.277597
 30
0.0
 40
0.1400000005960464
100
AcDbArc
 50
90.0
 51
270.0
  0
ARC
  5
267
330
4E
100
AcDbEntity
 67
     1
  8
1
  6
CONTINUOUS
 62
    18
100
AcDbCircle
 10
20.557838
 20
6.607597
 30
0.0
 40
0.0599999986588955
100
AcDbArc
 50
0.0
 51
90.0
  0
ARC
  5
268
330
4E
100
AcDbEntity
 67
     1
  8
1
  6
CONTINUOUS
 62
    18
100
AcDbCircle
 10
19.927839
 20
6.607597
 30
0.0
 40
0.0599999986588955
100
AcDbArc
 50
90.0
 51
180.0
  0
ARC
  5
269
330
4E
100
AcDbEntity
 67
     1
  8
1
  6
CONTINUOUS
 62
    18
100
AcDbCircle
 10
19.807838
 20
6.112397
 30
0.0
 40
0.0599999986588955
100
AcDbArc
 50
270.0
 51
0.0
  0
ARC
  5
26A
330
4E
100
AcDbEntity
 67
     1
  8
1
  6
CONTINUOUS
 62
    18
100
AcDbCircle
 10
19.760338
 20
6.112397
 30
0.0
 40
0.0599999986588955
100
AcDbArc
 50
180.0
 51
270.0
  0
ARC
  5
26B
330
4E
100
AcDbEntity
 67
     1
  8
1
  6
CONTINUOUS
 62
    18
100
AcDbCircle
 10
1.964338
 20
6.277597
 30
0.0
 40
0.1400000005960464
100
AcDbArc
 50
0.0
 51
180.0
  0
ARC
  5
26C
330
4E
100
AcDbEntity
 67
     1
  8
1
  6
CONTINUOUS
 62
    18
100
AcDbCircle
 10
1.964338
 20
5.774597
 30
0.0
 40
0.2150000035762787
100
AcDbArc
 50
130.629328
 51
49.370672
  0
ARC
  5
26D
330
4E
100
AcDbEntity
 67
     1
  8
1
  6
CONTINUOUS
 62
    18
100
AcDbCircle
 10
20.337839
 20
5.652597
 30
0.0
 40
0.1400000005960464
100
AcDbArc
 50
270.0
 51
90.0
  0
ARC
  5
26E
330
4E
100
AcDbEntity
 67
     1
  8
1
  6
CONTINUOUS
 62
    18
100
AcDbCircle
 10
20.217838
 20
5.652597
 30
0.0
 40
0.1400000005960464
100
AcDbArc
 50
90.0
 51
270.0
  0
ENDSEC
  0
SECTION
  2
OBJECTS
  0
DICTIONARY
  5
C
330
0
100
AcDbDictionary
281
     1
  3
ACAD_GROUP
350
D
  3
ACAD_LAYOUT
350
1A
  3
ACAD_MATERIAL
350
3B
  3
ACAD_MLEADERSTYLE
350
282
  3
ACAD_MLINESTYLE
350
17
  3
ACAD_PLOTSETTINGS
350
19
  3
ACAD_PLOTSTYLENAME
350
E
  3
ACAD_VISUALSTYLE
350
2A
  3
AcDbVariableDictionary
350
280
  0
DICTIONARY
  5
D
102
{ACAD_REACTORS
330
C
102
}
330
C
100
AcDbDictionary
281
     1
  0
DICTIONARY
  5
1A
102
{ACAD_REACTORS
330
C
102
}
330
C
100
AcDbDictionary
281
     1
  3
Model
350
22
  3
Sheet 1
350
26F
  0
DICTIONARY
  5
3B
102
{ACAD_REACTORS
330
C
102
}
330
C
100
AcDbDictionary
281
     1
  3
BYBLOCK
350
3D
  3
BYLAYER
350
3C
  3
Global
350
3E
  0
DICTIONARY
  5
282
102
{ACAD_REACTORS
330
C
102
}
330
C
100
AcDbDictionary
281
     1
  0
DICTIONARY
  5
17
102
{ACAD_REACTORS
330
C
102
}
330
C
100
AcDbDictionary
281
     1
  3
Standard
350
18
  0
DICTIONARY
  5
19
102
{ACAD_REACTORS
330
C
102
}
330
C
100
AcDbDictionary
281
     1
  0
ACDBDICTIONARYWDFLT
  5
E
102
{ACAD_REACTORS
330
C
102
}
330
C
100
AcDbDictionary
281
     1
  3
Normal
350
F
100
AcDbDictionaryWithDefault
340
F
  0
DICTIONARY
  5
2A
102
{ACAD_REACTORS
330
C
102
}
330
C
100
AcDbDictionary
281
     1
  3
2dWireframe
350
2F
  3
3D Hidden
350
31
  3
3dWireframe
350
30
  3
Basic
350
32
  3
Brighten
350
36
  3
ColorChange
350
3A
  3
Conceptual
350
34
  3
Dim
350
35
  3
Facepattern
350
39
  3
Flat
350
2B
  3
FlatWithEdges
350
2C
  3
Gouraud
350
2D
  3
GouraudWithEdges
350
2E
  3
Linepattern
350
38
  3
Realistic
350
33
  3
Thicken
350
37
  0
DICTIONARY
  5
280
102
{ACAD_REACTORS
330
C
102
}
330
C
100
AcDbDictionary
281
     1
  3
DIMASSOC
350
283
  3
HIDETEXT
350
284
  0
LAYOUT
  5
22
102
{ACAD_REACTORS
330
1A
102
}
330
1A
100
AcDbPlotSettings
  1

  2
none_device
  4

  6

 40
0.0
 41
0.0
 42
0.0
 43
0.0
 44
0.0
 45
0.0
 46
0.0
 47
0.0
 48
0.0
 49
0.0
140
0.0
141
0.0
142
1.0
143
1.0
 70
  1712
 72
     0
 73
     0
 74
     0
  7

 75
     0
147
1.0
148
0.0
149
0.0
100
AcDbLayout
  1
Model
 70
     1
 71
     0
 10
-0.5
 20
-0.5
 11
5.0
 21
5.0
 12
0.0
 22
0.0
 32
0.0
 14
-0.5
 24
-0.5
 34
-0.5
 15
5.0
 25
5.0
 35
5.0
146
0.0
 13
0.0
 23
0.0
 33
0.0
 16
1.0
 26
0.0
 36
0.0
 17
0.0
 27
1.0
 37
0.0
 76
     0
330
1F
331
29
  0
LAYOUT
  5
26F
102
{ACAD_REACTORS
330
1A
102
}
330
1A
100
AcDbPlotSettings
  1

  2
none_device
  4
ARCH_C_(24.00_x_18.00_Inches)
  6

 40
6.35
 41
19.05
 42
6.349975
 43
19.049987
 44
609.6
 45
457.2
 46
29.028576
 47
0.0
 48
0.0
 49
0.0
140
24.0
141
19.0
142
1.0
143
1.060606
 70
   692
 72
     0
 73
     0
 74
     1
  7

 75
     0
147
0.942857
148
12.7
149
12.7
100
AcDbLayout
  1
Sheet 1
 70
     1
 71
     1
 10
0.0
 20
0.0
 11
22.0
 21
17.0
 12
0.0
 22
0.0
 32
0.0
 14
0.0
 24
0.0
 34
0.0
 15
22.0
 25
17.0
 35
0.0
146
0.0
 13
0.0
 23
0.0
 33
0.0
 16
1.0
 26
0.0
 36
0.0
 17
0.0
 27
1.0
 37
0.0
 76
     0
330
4E
331
51
  0
MATERIAL
  5
3D
102
{ACAD_REACTORS
330
3B
102
}
102
{ACAD_XDICTIONARY
360
2A7
102
}
330
3B
100
AcDbMaterial
  1
BYBLOCK
  0
MATERIAL
  5
3C
102
{ACAD_REACTORS
330
3B
102
}
102
{ACAD_XDICTIONARY
360
2A5
102
}
330
3B
100
AcDbMaterial
  1
BYLAYER
  0
MATERIAL
  5
3E
102
{ACAD_REACTORS
330
3B
102
}
102
{ACAD_XDICTIONARY
360
2A9
102
}
330
3B
100
AcDbMaterial
  1
Global
  0
MLINESTYLE
  5
18
102
{ACAD_REACTORS
330
17
102
}
330
17
100
AcDbMlineStyle
  2
Standard
 70
     0
  3

 62
   256
 51
90.0
 52
90.0
 71
     2
 49
0.5
 62
   256
  6
BYLAYER
 49
-0.5
 62
   256
  6
BYLAYER
  0
ACDBPLACEHOLDER
  5
F
102
{ACAD_REACTORS
330
E
102
}
330
E
  0
VISUALSTYLE
  5
2F
102
{ACAD_REACTORS
330
2A
102
}
102
{ACAD_XDICTIONARY
360
28D
102
}
330
2A
100
AcDbVisualStyle
  2
2dWireframe
 70
     4
 71
     0
 72
     2
 73
     0
 90
        0
 40
-0.6
 41
-30.0
 62
     5
 63
     7
 74
     1
 91
        4
 64
     7
 65
   257
 75
     1
175
     1
 42
1.0
 92
        0
 66
   257
 43
1.0
 76
     1
 77
     6
 78
     2
 67
     7
 79
     5
170
     0
171
     0
290
     0
174
     0
 93
        1
 44
0.0
173
     0
291
     0
 45
0.0
1001
ACAD
1000
AcDbSavedByObjectVersion
1070
     0
  0
VISUALSTYLE
  5
31
102
{ACAD_REACTORS
330
2A
102
}
102
{ACAD_XDICTIONARY
360
291
102
}
330
2A
100
AcDbVisualStyle
  2
3D Hidden
 70
     6
 71
     1
 72
     2
 73
     2
 90
        0
 40
-0.6
 41
-30.0
 62
     5
 63
     7
 74
     2
 91
        2
 64
     7
 65
   257
 75
     2
175
     1
 42
40.0
 92
        0
 66
   257
 43
1.0
 76
     1
 77
     6
 78
     2
 67
     7
 79
     3
170
     0
171
     0
290
     0
174
     0
 93
        1
 44
0.0
173
     0
291
     0
 45
0.0
1001
ACAD
1000
AcDbSavedByObjectVersion
1070
     0
  0
VISUALSTYLE
  5
30
102
{ACAD_REACTORS
330
2A
102
}
102
{ACAD_XDICTIONARY
360
28F
102
}
330
2A
100
AcDbVisualStyle
  2
3dWireframe
 70
     5
 71
     0
 72
     2
 73
     0
 90
        0
 40
-0.6
 41
-30.0
 62
     5
 63
     7
 74
     1
 91
        4
 64
     7
 65
   257
 75
     1
175
     1
 42
1.0
 92
        0
 66
   257
 43
1.0
 76
     1
 77
     6
 78
     2
 67
     7
 79
     5
170
     0
171
     0
290
     0
174
     0
 93
        1
 44
0.0
173
     0
291
     0
 45
0.0
1001
ACAD
1000
AcDbSavedByObjectVersion
1070
     0
  0
VISUALSTYLE
  5
32
102
{ACAD_REACTORS
330
2A
102
}
102
{ACAD_XDICTIONARY
360
293
102
}
330
2A
100
AcDbVisualStyle
  2
Basic
 70
     7
 71
     1
 72
     0
 73
     1
 90
        0
 40
-0.6
 41
-30.0
 62
     5
 63
     7
 74
     0
 91
        4
 64
     7
 65
   257
 75
     1
175
     1
 42
1.0
 92
        8
 66
     7
 43
1.0
 76
     1
 77
     6
 78
     2
 67
     7
 79
     5
170
     0
171
     0
290
     0
174
     0
 93
        1
 44
0.0
173
     0
291
     1
 45
0.0
1001
ACAD
1000
AcDbSavedByObjectVersion
1070
     0
  0
VISUALSTYLE
  5
36
102
{ACAD_REACTORS
330
2A
102
}
102
{ACAD_XDICTIONARY
360
29B
102
}
330
2A
100
AcDbVisualStyle
  2
Brighten
 70
    12
 71
     2
 72
     2
 73
     0
 90
        0
 40
-0.6
 41
-30.0
 62
     5
 63
     7
 74
     1
 91
        4
 64
     7
 65
   257
 75
     1
175
     1
 42
1.0
 92
        8
 66
     7
 43
1.0
 76
     1
 77
     6
 78
     2
 67
     7
 79
     5
170
     0
171
     0
290
     0
174
     0
 93
        1
 44
50.0
173
     0
291
     1
 45
0.0
1001
ACAD
1000
AcDbSavedByObjectVersion
1070
     0
  0
VISUALSTYLE
  5
3A
102
{ACAD_REACTORS
330
2A
102
}
102
{ACAD_XDICTIONARY
360
2A3
102
}
330
2A
100
AcDbVisualStyle
  2
ColorChange
 70
    16
 71
     2
 72
     2
 73
     3
 90
        0
 40
-0.6
 41
-30.0
 62
     5
 63
     8
 74
     1
 91
        4
 64
     7
 65
   257
 75
     1
175
     1
 42
1.0
 92
        8
 66
     8
 43
1.0
 76
     1
 77
     6
 78
     2
 67
     7
 79
     5
170
     0
171
     0
290
     0
174
     0
 93
        1
 44
0.0
173
     0
291
     1
 45
0.0
1001
ACAD
1000
AcDbSavedByObjectVersion
1070
     0
  0
VISUALSTYLE
  5
34
102
{ACAD_REACTORS
330
2A
102
}
102
{ACAD_XDICTIONARY
360
297
102
}
330
2A
100
AcDbVisualStyle
  2
Conceptual
 70
     9
 71
     3
 72
     2
 73
     0
 90
        0
 40
-0.6
 41
-30.0
 62
     5
 63
     7
 74
     2
 91
        2
 64
     7
 65
   257
 75
     1
175
     1
 42
40.0
 92
        8
 66
     7
 43
1.0
 76
     1
 77
     6
 78
     2
 67
     7
 79
     3
170
     0
171
     0
290
     0
174
     0
 93
        1
 44
0.0
173
     0
291
     0
 45
0.0
1001
ACAD
1000
AcDbSavedByObjectVersion
1070
     0
  0
VISUALSTYLE
  5
35
102
{ACAD_REACTORS
330
2A
102
}
102
{ACAD_XDICTIONARY
360
299
102
}
330
2A
100
AcDbVisualStyle
  2
Dim
 70
    11
 71
     2
 72
     2
 73
     0
 90
        0
 40
-0.6
 41
-30.0
 62
     5
 63
     7
 74
     1
 91
        4
 64
     7
 65
   257
 75
     1
175
     1
 42
1.0
 92
        8
 66
     7
 43
1.0
 76
     1
 77
     6
 78
     2
 67
     7
 79
     5
170
     0
171
     0
290
     0
174
     0
 93
        1
 44
-50.0
173
     0
291
     1
 45
0.0
1001
ACAD
1000
AcDbSavedByObjectVersion
1070
     0
  0
VISUALSTYLE
  5
39
102
{ACAD_REACTORS
330
2A
102
}
102
{ACAD_XDICTIONARY
360
2A1
102
}
330
2A
100
AcDbVisualStyle
  2
Facepattern
 70
    15
 71
     2
 72
     2
 73
     0
 90
        0
 40
-0.6
 41
-30.0
 62
     5
 63
     7
 74
     1
 91
        4
 64
     7
 65
   257
 75
     1
175
     1
 42
1.0
 92
        8
 66
     7
 43
1.0
 76
     1
 77
     6
 78
     2
 67
     7
 79
     5
170
     0
171
     0
290
     0
174
     0
 93
        1
 44
0.0
173
     0
291
     1
 45
0.0
1001
ACAD
1000
AcDbSavedByObjectVersion
1070
     0
  0
VISUALSTYLE
  5
2B
102
{ACAD_REACTORS
330
2A
102
}
102
{ACAD_XDICTIONARY
360
285
102
}
330
2A
100
AcDbVisualStyle
  2
Flat
 70
     0
 71
     2
 72
     1
 73
     1
 90
        2
 40
-0.6
 41
30.0
 62
     5
 63
     7
 74
     0
 91
        4
 64
     7
 65
   257
 75
     1
175
     1
 42
1.0
 92
        8
 66
     7
 43
1.0
 76
     1
 77
     6
 78
     2
 67
     7
 79
     5
170
     0
171
     0
290
     0
174
     0
 93
       13
 44
0.0
173
     0
291
     1
 45
0.0
1001
ACAD
1000
AcDbSavedByObjectVersion
1070
     0
  0
VISUALSTYLE
  5
2C
102
{ACAD_REACTORS
330
2A
102
}
102
{ACAD_XDICTIONARY
360
287
102
}
330
2A
100
AcDbVisualStyle
  2
FlatWithEdges
 70
     1
 71
     2
 72
     1
 73
     1
 90
        2
 40
-0.6
 41
30.0
 62
     5
 63
     7
 74
     1
 91
        4
 64
     7
 65
   257
 75
     1
175
     1
 42
1.0
 92
        0
 66
   257
 43
1.0
 76
     1
 77
     6
 78
     2
 67
     7
 79
     5
170
     0
171
     0
290
     0
174
     0
 93
       13
 44
0.0
173
     0
291
     1
 45
0.0
1001
ACAD
1000
AcDbSavedByObjectVersion
1070
     0
  0
VISUALSTYLE
  5
2D
102
{ACAD_REACTORS
330
2A
102
}
102
{ACAD_XDICTIONARY
360
289
102
}
330
2A
100
AcDbVisualStyle
  2
Gouraud
 70
     2
 71
     2
 72
     2
 73
     1
 90
        2
 40
-0.6
 41
30.0
 62
     5
 63
     7
 74
     0
 91
        4
 64
     7
 65
   257
 75
     1
175
     1
 42
1.0
 92
        0
 66
     7
 43
1.0
 76
     1
 77
     6
 78
     2
 67
     7
 79
     5
170
     0
171
     0
290
     0
174
     0
 93
       13
 44
0.0
173
     0
291
     1
 45
0.0
1001
ACAD
1000
AcDbSavedByObjectVersion
1070
     0
  0
VISUALSTYLE
  5
2E
102
{ACAD_REACTORS
330
2A
102
}
102
{ACAD_XDICTIONARY
360
28B
102
}
330
2A
100
AcDbVisualStyle
  2
GouraudWithEdges
 70
     3
 71
     2
 72
     2
 73
     1
 90
        2
 40
-0.6
 41
30.0
 62
     5
 63
     7
 74
     1
 91
        4
 64
     7
 65
   257
 75
     1
175
     1
 42
1.0
 92
        0
 66
   257
 43
1.0
 76
     1
 77
     6
 78
     2
 67
     7
 79
     5
170
     0
171
     0
290
     0
174
     0
 93
       13
 44
0.0
173
     0
291
     1
 45
0.0
1001
ACAD
1000
AcDbSavedByObjectVersion
1070
     0
  0
VISUALSTYLE
  5
38
102
{ACAD_REACTORS
330
2A
102
}
102
{ACAD_XDICTIONARY
360
29F
102
}
330
2A
100
AcDbVisualStyle
  2
Linepattern
 70
    14
 71
     2
 72
     2
 73
     0
 90
        0
 40
-0.6
 41
-30.0
 62
     5
 63
     7
 74
     1
 91
        4
 64
     7
 65
   257
 75
     7
175
     7
 42
1.0
 92
        8
 66
     7
 43
1.0
 76
     1
 77
     6
 78
     2
 67
     7
 79
     5
170
     0
171
     0
290
     0
174
     0
 93
        1
 44
0.0
173
     0
291
     1
 45
0.0
1001
ACAD
1000
AcDbSavedByObjectVersion
1070
     0
  0
VISUALSTYLE
  5
33
102
{ACAD_REACTORS
330
2A
102
}
102
{ACAD_XDICTIONARY
360
295
102
}
330
2A
100
AcDbVisualStyle
  2
Realistic
 70
     8
 71
     2
 72
     2
 73
     0
 90
        0
 40
-0.6
 41
-30.0
 62
     5
 63
     7
 74
     1
 91
        0
 64
     7
 65
   257
 75
     1
175
     1
 42
1.0
 92
        8
 66
     8
 43
1.0
 76
     1
 77
     6
 78
     2
 67
     7
 79
     5
170
     0
171
     0
290
     0
174
     0
 93
       13
 44
0.0
173
     0
291
     0
 45
0.0
1001
ACAD
1000
AcDbSavedByObjectVersion
1070
     0
  0
VISUALSTYLE
  5
37
102
{ACAD_REACTORS
330
2A
102
}
102
{ACAD_XDICTIONARY
360
29D
102
}
330
2A
100
AcDbVisualStyle
  2
Thicken
 70
    13
 71
     2
 72
     2
 73
     0
 90
        0
 40
-0.6
 41
-30.0
 62
     5
 63
     7
 74
     1
 91
        4
 64
     7
 65
   257
 75
     1
175
     1
 42
1.0
 92
       12
 66
     7
 43
1.0
 76
     1
 77
     6
 78
     2
 67
     7
 79
     5
170
     0
171
     0
290
     0
174
     0
 93
        1
 44
0.0
173
     0
291
     1
 45
0.0
1001
ACAD
1000
AcDbSavedByObjectVersion
1070
     0
  0
DICTIONARYVAR
  5
283
102
{ACAD_REACTORS
330
280
102
}
330
280
100
DictionaryVariables
280
     0
  1
2
  0
DICTIONARYVAR
  5
284
102
{ACAD_REACTORS
330
280
102
}
330
280
100
DictionaryVariables
280
     0
  1
1
  0
DICTIONARY
  5
2A7
330
3D
100
AcDbDictionary
280
     1
281
     1
  3
ACAD_XREC_ROUNDTRIP
360
2A8
  0
DICTIONARY
  5
2A5
330
3C
100
AcDbDictionary
280
     1
281
     1
  3
ACAD_XREC_ROUNDTRIP
360
2A6
  0
DICTIONARY
  5
2A9
330
3E
100
AcDbDictionary
280
     1
281
     1
  3
ACAD_XREC_ROUNDTRIP
360
2AA
  0
DICTIONARY
  5
28D
330
2F
100
AcDbDictionary
280
     1
281
     1
  3
ACAD_XREC_ROUNDTRIP
360
28E
  0
DICTIONARY
  5
291
330
31
100
AcDbDictionary
280
     1
281
     1
  3
ACAD_XREC_ROUNDTRIP
360
292
  0
DICTIONARY
  5
28F
330
30
100
AcDbDictionary
280
     1
281
     1
  3
ACAD_XREC_ROUNDTRIP
360
290
  0
DICTIONARY
  5
293
330
32
100
AcDbDictionary
280
     1
281
     1
  3
ACAD_XREC_ROUNDTRIP
360
294
  0
DICTIONARY
  5
29B
330
36
100
AcDbDictionary
280
     1
281
     1
  3
ACAD_XREC_ROUNDTRIP
360
29C
  0
DICTIONARY
  5
2A3
330
3A
100
AcDbDictionary
280
     1
281
     1
  3
ACAD_XREC_ROUNDTRIP
360
2A4
  0
DICTIONARY
  5
297
330
34
100
AcDbDictionary
280
     1
281
     1
  3
ACAD_XREC_ROUNDTRIP
360
298
  0
DICTIONARY
  5
299
330
35
100
AcDbDictionary
280
     1
281
     1
  3
ACAD_XREC_ROUNDTRIP
360
29A
  0
DICTIONARY
  5
2A1
330
39
100
AcDbDictionary
280
     1
281
     1
  3
ACAD_XREC_ROUNDTRIP
360
2A2
  0
DICTIONARY
  5
285
330
2B
100
AcDbDictionary
280
     1
281
     1
  3
ACAD_XREC_ROUNDTRIP
360
286
  0
DICTIONARY
  5
287
330
2C
100
AcDbDictionary
280
     1
281
     1
  3
ACAD_XREC_ROUNDTRIP
360
288
  0
DICTIONARY
  5
289
330
2D
100
AcDbDictionary
280
     1
281
     1
  3
ACAD_XREC_ROUNDTRIP
360
28A
  0
DICTIONARY
  5
28B
330
2E
100
AcDbDictionary
280
     1
281
     1
  3
ACAD_XREC_ROUNDTRIP
360
28C
  0
DICTIONARY
  5
29F
330
38
100
AcDbDictionary
280
     1
281
     1
  3
ACAD_XREC_ROUNDTRIP
360
2A0
  0
DICTIONARY
  5
295
330
33
100
AcDbDictionary
280
     1
281
     1
  3
ACAD_XREC_ROUNDTRIP
360
296
  0
DICTIONARY
  5
29D
330
37
100
AcDbDictionary
280
     1
281
     1
  3
ACAD_XREC_ROUNDTRIP
360
29E
  0
XRECORD
  5
2A8
102
{ACAD_REACTORS
330
2A7
102
}
330
2A7
100
AcDbXrecord
280
     1
102
MATERIAL
148
0.0
149
0.0
149
0.0
 93
        0
 94
      127
282
     0
 72
     1
 77
     1
171
     1
175
     1
179
     1
273
     0
  0
XRECORD
  5
2A6
102
{ACAD_REACTORS
330
2A5
102
}
330
2A5
100
AcDbXrecord
280
     1
102
MATERIAL
148
0.0
149
0.0
149
0.0
 93
        0
 94
      127
282
     0
 72
     1
 77
     1
171
     1
175
     1
179
     1
273
     0
  0
XRECORD
  5
2AA
102
{ACAD_REACTORS
330
2A9
102
}
330
2A9
100
AcDbXrecord
280
     1
102
MATERIAL
148
0.0
149
0.0
149
0.0
 93
        0
 94
      127
282
     0
 72
     1
 77
     1
171
     1
175
     1
179
     1
273
     0
  0
XRECORD
  5
28E
102
{ACAD_REACTORS
330
28D
102
}
330
28D
100
AcDbXrecord
280
     1
102
RTVSPropertyOp0
 70
     1
102
RTVSPropertyOp1
 70
     1
102
RTVSPropertyOp2
 70
     1
102
RTVSPropertyOp3
 70
     1
102
RTVSPropertyOp4
 70
     1
102
RTVSPropertyOp5
 70
     1
102
RTVSPropertyOp6
 70
     1
102
RTVSPropertyOp7
 70
     1
102
RTVSPropertyOp8
 70
     1
102
RTVSPropertyOp9
 70
     1
102
RTVSPropertyOp10
 70
     1
102
RTVSPropertyOp11
 70
     1
102
RTVSPropertyOp12
 70
     1
102
RTVSPropertyOp13
 70
     1
102
RTVSPropertyOp14
 70
     1
102
RTVSPropertyOp15
 70
     1
102
RTVSPropertyOp16
 70
     1
102
RTVSPropertyOp17
 70
     1
102
RTVSPropertyOp18
 70
     1
102
RTVSPropertyOp19
 70
     1
102
RTVSPropertyOp20
 70
     1
102
RTVSPropertyOp21
 70
     1
102
RTVSPropertyOp22
 70
     1
102
RTVSPropertyOp23
 70
     1
102
RTVSPropertyOp24
 70
     1
102
RTVSPropertyOp25
 70
     1
102
RTVSPropertyOp26
 70
     1
102
RTVSPropertyOp27
 70
     1
  0
XRECORD
  5
292
102
{ACAD_REACTORS
330
291
102
}
330
291
100
AcDbXrecord
280
     1
102
RTVSPropertyOp0
 70
     1
102
RTVSPropertyOp1
 70
     1
102
RTVSPropertyOp2
 70
     1
102
RTVSPropertyOp3
 70
     1
102
RTVSPropertyOp4
 70
     1
102
RTVSPropertyOp5
 70
     1
102
RTVSPropertyOp6
 70
     1
102
RTVSPropertyOp7
 70
     1
102
RTVSPropertyOp8
 70
     1
102
RTVSPropertyOp9
 70
     1
102
RTVSPropertyOp10
 70
     1
102
RTVSPropertyOp11
 70
     1
102
RTVSPropertyOp12
 70
     1
102
RTVSPropertyOp13
 70
     1
102
RTVSPropertyOp14
 70
     1
102
RTVSPropertyOp15
 70
     1
102
RTVSPropertyOp16
 70
     1
102
RTVSPropertyOp17
 70
     1
102
RTVSPropertyOp18
 70
     1
102
RTVSPropertyOp19
 70
     1
102
RTVSPropertyOp20
 70
     1
102
RTVSPropertyOp21
 70
     1
102
RTVSPropertyOp22
 70
     1
102
RTVSPropertyOp23
 70
     1
102
RTVSPropertyOp24
 70
     1
102
RTVSPropertyOp25
 70
     1
102
RTVSPropertyOp26
 70
     1
102
RTVSPropertyOp27
 70
     1
  0
XRECORD
  5
290
102
{ACAD_REACTORS
330
28F
102
}
330
28F
100
AcDbXrecord
280
     1
102
RTVSPropertyOp0
 70
     1
102
RTVSPropertyOp1
 70
     1
102
RTVSPropertyOp2
 70
     1
102
RTVSPropertyOp3
 70
     1
102
RTVSPropertyOp4
 70
     1
102
RTVSPropertyOp5
 70
     1
102
RTVSPropertyOp6
 70
     1
102
RTVSPropertyOp7
 70
     1
102
RTVSPropertyOp8
 70
     1
102
RTVSPropertyOp9
 70
     1
102
RTVSPropertyOp10
 70
     1
102
RTVSPropertyOp11
 70
     1
102
RTVSPropertyOp12
 70
     1
102
RTVSPropertyOp13
 70
     1
102
RTVSPropertyOp14
 70
     1
102
RTVSPropertyOp15
 70
     1
102
RTVSPropertyOp16
 70
     1
102
RTVSPropertyOp17
 70
     1
102
RTVSPropertyOp18
 70
     1
102
RTVSPropertyOp19
 70
     1
102
RTVSPropertyOp20
 70
     1
102
RTVSPropertyOp21
 70
     1
102
RTVSPropertyOp22
 70
     1
102
RTVSPropertyOp23
 70
     1
102
RTVSPropertyOp24
 70
     1
102
RTVSPropertyOp25
 70
     1
102
RTVSPropertyOp26
 70
     1
102
RTVSPropertyOp27
 70
     1
  0
XRECORD
  5
294
102
{ACAD_REACTORS
330
293
102
}
330
293
100
AcDbXrecord
280
     1
102
RTVSPropertyOp0
 70
     1
102
RTVSPropertyOp1
 70
     1
102
RTVSPropertyOp2
 70
     1
102
RTVSPropertyOp3
 70
     1
102
RTVSPropertyOp4
 70
     1
102
RTVSPropertyOp5
 70
     1
102
RTVSPropertyOp6
 70
     1
102
RTVSPropertyOp7
 70
     1
102
RTVSPropertyOp8
 70
     1
102
RTVSPropertyOp9
 70
     1
102
RTVSPropertyOp10
 70
     1
102
RTVSPropertyOp11
 70
     1
102
RTVSPropertyOp12
 70
     1
102
RTVSPropertyOp13
 70
     1
102
RTVSPropertyOp14
 70
     1
102
RTVSPropertyOp15
 70
     1
102
RTVSPropertyOp16
 70
     1
102
RTVSPropertyOp17
 70
     1
102
RTVSPropertyOp18
 70
     1
102
RTVSPropertyOp19
 70
     1
102
RTVSPropertyOp20
 70
     1
102
RTVSPropertyOp21
 70
     1
102
RTVSPropertyOp22
 70
     1
102
RTVSPropertyOp23
 70
     1
102
RTVSPropertyOp24
 70
     1
102
RTVSPropertyOp25
 70
     1
102
RTVSPropertyOp26
 70
     1
102
RTVSPropertyOp27
 70
     1
  0
XRECORD
  5
29C
102
{ACAD_REACTORS
330
29B
102
}
330
29B
100
AcDbXrecord
280
     1
102
RTVSPropertyOp0
 70
     1
102
RTVSPropertyOp1
 70
     1
102
RTVSPropertyOp2
 70
     1
102
RTVSPropertyOp3
 70
     1
102
RTVSPropertyOp4
 70
     1
102
RTVSPropertyOp5
 70
     1
102
RTVSPropertyOp6
 70
     1
102
RTVSPropertyOp7
 70
     1
102
RTVSPropertyOp8
 70
     1
102
RTVSPropertyOp9
 70
     1
102
RTVSPropertyOp10
 70
     1
102
RTVSPropertyOp11
 70
     1
102
RTVSPropertyOp12
 70
     1
102
RTVSPropertyOp13
 70
     1
102
RTVSPropertyOp14
 70
     1
102
RTVSPropertyOp15
 70
     1
102
RTVSPropertyOp16
 70
     1
102
RTVSPropertyOp17
 70
     1
102
RTVSPropertyOp18
 70
     1
102
RTVSPropertyOp19
 70
     1
102
RTVSPropertyOp20
 70
     1
102
RTVSPropertyOp21
 70
     1
102
RTVSPropertyOp22
 70
     1
102
RTVSPropertyOp23
 70
     1
102
RTVSPropertyOp24
 70
     1
102
RTVSPropertyOp25
 70
     1
102
RTVSPropertyOp26
 70
     1
102
RTVSPropertyOp27
 70
     1
  0
XRECORD
  5
2A4
102
{ACAD_REACTORS
330
2A3
102
}
330
2A3
100
AcDbXrecord
280
     1
102
RTVSPropertyOp0
 70
     1
102
RTVSPropertyOp1
 70
     1
102
RTVSPropertyOp2
 70
     1
102
RTVSPropertyOp3
 70
     1
102
RTVSPropertyOp4
 70
     1
102
RTVSPropertyOp5
 70
     1
102
RTVSPropertyOp6
 70
     1
102
RTVSPropertyOp7
 70
     1
102
RTVSPropertyOp8
 70
     1
102
RTVSPropertyOp9
 70
     1
102
RTVSPropertyOp10
 70
     1
102
RTVSPropertyOp11
 70
     1
102
RTVSPropertyOp12
 70
     1
102
RTVSPropertyOp13
 70
     1
102
RTVSPropertyOp14
 70
     1
102
RTVSPropertyOp15
 70
     1
102
RTVSPropertyOp16
 70
     1
102
RTVSPropertyOp17
 70
     1
102
RTVSPropertyOp18
 70
     1
102
RTVSPropertyOp19
 70
     1
102
RTVSPropertyOp20
 70
     1
102
RTVSPropertyOp21
 70
     1
102
RTVSPropertyOp22
 70
     1
102
RTVSPropertyOp23
 70
     1
102
RTVSPropertyOp24
 70
     1
102
RTVSPropertyOp25
 70
     1
102
RTVSPropertyOp26
 70
     1
102
RTVSPropertyOp27
 70
     1
  0
XRECORD
  5
298
102
{ACAD_REACTORS
330
297
102
}
330
297
100
AcDbXrecord
280
     1
102
RTVSPropertyOp0
 70
     1
102
RTVSPropertyOp1
 70
     1
102
RTVSPropertyOp2
 70
     1
102
RTVSPropertyOp3
 70
     1
102
RTVSPropertyOp4
 70
     1
102
RTVSPropertyOp5
 70
     1
102
RTVSPropertyOp6
 70
     1
102
RTVSPropertyOp7
 70
     1
102
RTVSPropertyOp8
 70
     1
102
RTVSPropertyOp9
 70
     1
102
RTVSPropertyOp10
 70
     1
102
RTVSPropertyOp11
 70
     1
102
RTVSPropertyOp12
 70
     1
102
RTVSPropertyOp13
 70
     1
102
RTVSPropertyOp14
 70
     1
102
RTVSPropertyOp15
 70
     1
102
RTVSPropertyOp16
 70
     1
102
RTVSPropertyOp17
 70
     1
102
RTVSPropertyOp18
 70
     1
102
RTVSPropertyOp19
 70
     1
102
RTVSPropertyOp20
 70
     1
102
RTVSPropertyOp21
 70
     1
102
RTVSPropertyOp22
 70
     1
102
RTVSPropertyOp23
 70
     1
102
RTVSPropertyOp24
 70
     1
102
RTVSPropertyOp25
 70
     1
102
RTVSPropertyOp26
 70
     1
102
RTVSPropertyOp27
 70
     1
  0
XRECORD
  5
29A
102
{ACAD_REACTORS
330
299
102
}
330
299
100
AcDbXrecord
280
     1
102
RTVSPropertyOp0
 70
     1
102
RTVSPropertyOp1
 70
     1
102
RTVSPropertyOp2
 70
     1
102
RTVSPropertyOp3
 70
     1
102
RTVSPropertyOp4
 70
     1
102
RTVSPropertyOp5
 70
     1
102
RTVSPropertyOp6
 70
     1
102
RTVSPropertyOp7
 70
     1
102
RTVSPropertyOp8
 70
     1
102
RTVSPropertyOp9
 70
     1
102
RTVSPropertyOp10
 70
     1
102
RTVSPropertyOp11
 70
     1
102
RTVSPropertyOp12
 70
     1
102
RTVSPropertyOp13
 70
     1
102
RTVSPropertyOp14
 70
     1
102
RTVSPropertyOp15
 70
     1
102
RTVSPropertyOp16
 70
     1
102
RTVSPropertyOp17
 70
     1
102
RTVSPropertyOp18
 70
     1
102
RTVSPropertyOp19
 70
     1
102
RTVSPropertyOp20
 70
     1
102
RTVSPropertyOp21
 70
     1
102
RTVSPropertyOp22
 70
     1
102
RTVSPropertyOp23
 70
     1
102
RTVSPropertyOp24
 70
     1
102
RTVSPropertyOp25
 70
     1
102
RTVSPropertyOp26
 70
     1
102
RTVSPropertyOp27
 70
     1
  0
XRECORD
  5
2A2
102
{ACAD_REACTORS
330
2A1
102
}
330
2A1
100
AcDbXrecord
280
     1
102
RTVSPropertyOp0
 70
     1
102
RTVSPropertyOp1
 70
     1
102
RTVSPropertyOp2
 70
     1
102
RTVSPropertyOp3
 70
     1
102
RTVSPropertyOp4
 70
     1
102
RTVSPropertyOp5
 70
     1
102
RTVSPropertyOp6
 70
     1
102
RTVSPropertyOp7
 70
     1
102
RTVSPropertyOp8
 70
     1
102
RTVSPropertyOp9
 70
     1
102
RTVSPropertyOp10
 70
     1
102
RTVSPropertyOp11
 70
     1
102
RTVSPropertyOp12
 70
     1
102
RTVSPropertyOp13
 70
     1
102
RTVSPropertyOp14
 70
     1
102
RTVSPropertyOp15
 70
     1
102
RTVSPropertyOp16
 70
     1
102
RTVSPropertyOp17
 70
     1
102
RTVSPropertyOp18
 70
     1
102
RTVSPropertyOp19
 70
     1
102
RTVSPropertyOp20
 70
     1
102
RTVSPropertyOp21
 70
     1
102
RTVSPropertyOp22
 70
     1
102
RTVSPropertyOp23
 70
     1
102
RTVSPropertyOp24
 70
     1
102
RTVSPropertyOp25
 70
     1
102
RTVSPropertyOp26
 70
     1
102
RTVSPropertyOp27
 70
     1
  0
XRECORD
  5
286
102
{ACAD_REACTORS
330
285
102
}
330
285
100
AcDbXrecord
280
     1
102
RTVSPropertyOp0
 70
     1
102
RTVSPropertyOp1
 70
     1
102
RTVSPropertyOp2
 70
     1
102
RTVSPropertyOp3
 70
     1
102
RTVSPropertyOp4
 70
     1
102
RTVSPropertyOp5
 70
     1
102
RTVSPropertyOp6
 70
     1
102
RTVSPropertyOp7
 70
     1
102
RTVSPropertyOp8
 70
     1
102
RTVSPropertyOp9
 70
     1
102
RTVSPropertyOp10
 70
     1
102
RTVSPropertyOp11
 70
     1
102
RTVSPropertyOp12
 70
     1
102
RTVSPropertyOp13
 70
     1
102
RTVSPropertyOp14
 70
     1
102
RTVSPropertyOp15
 70
     1
102
RTVSPropertyOp16
 70
     1
102
RTVSPropertyOp17
 70
     1
102
RTVSPropertyOp18
 70
     1
102
RTVSPropertyOp19
 70
     1
102
RTVSPropertyOp20
 70
     1
102
RTVSPropertyOp21
 70
     1
102
RTVSPropertyOp22
 70
     1
102
RTVSPropertyOp23
 70
     1
102
RTVSPropertyOp24
 70
     1
102
RTVSPropertyOp25
 70
     1
102
RTVSPropertyOp26
 70
     1
102
RTVSPropertyOp27
 70
     1
  0
XRECORD
  5
288
102
{ACAD_REACTORS
330
287
102
}
330
287
100
AcDbXrecord
280
     1
102
RTVSPropertyOp0
 70
     1
102
RTVSPropertyOp1
 70
     1
102
RTVSPropertyOp2
 70
     1
102
RTVSPropertyOp3
 70
     1
102
RTVSPropertyOp4
 70
     1
102
RTVSPropertyOp5
 70
     1
102
RTVSPropertyOp6
 70
     1
102
RTVSPropertyOp7
 70
     1
102
RTVSPropertyOp8
 70
     1
102
RTVSPropertyOp9
 70
     1
102
RTVSPropertyOp10
 70
     1
102
RTVSPropertyOp11
 70
     1
102
RTVSPropertyOp12
 70
     1
102
RTVSPropertyOp13
 70
     1
102
RTVSPropertyOp14
 70
     1
102
RTVSPropertyOp15
 70
     1
102
RTVSPropertyOp16
 70
     1
102
RTVSPropertyOp17
 70
     1
102
RTVSPropertyOp18
 70
     1
102
RTVSPropertyOp19
 70
     1
102
RTVSPropertyOp20
 70
     1
102
RTVSPropertyOp21
 70
     1
102
RTVSPropertyOp22
 70
     1
102
RTVSPropertyOp23
 70
     1
102
RTVSPropertyOp24
 70
     1
102
RTVSPropertyOp25
 70
     1
102
RTVSPropertyOp26
 70
     1
102
RTVSPropertyOp27
 70
     1
  0
XRECORD
  5
28A
102
{ACAD_REACTORS
330
289
102
}
330
289
100
AcDbXrecord
280
     1
102
RTVSPropertyOp0
 70
     1
102
RTVSPropertyOp1
 70
     1
102
RTVSPropertyOp2
 70
     1
102
RTVSPropertyOp3
 70
     1
102
RTVSPropertyOp4
 70
     1
102
RTVSPropertyOp5
 70
     1
102
RTVSPropertyOp6
 70
     1
102
RTVSPropertyOp7
 70
     1
102
RTVSPropertyOp8
 70
     1
102
RTVSPropertyOp9
 70
     1
102
RTVSPropertyOp10
 70
     1
102
RTVSPropertyOp11
 70
     1
102
RTVSPropertyOp12
 70
     1
102
RTVSPropertyOp13
 70
     1
102
RTVSPropertyOp14
 70
     1
102
RTVSPropertyOp15
 70
     1
102
RTVSPropertyOp16
 70
     1
102
RTVSPropertyOp17
 70
     1
102
RTVSPropertyOp18
 70
     1
102
RTVSPropertyOp19
 70
     1
102
RTVSPropertyOp20
 70
     1
102
RTVSPropertyOp21
 70
     1
102
RTVSPropertyOp22
 70
     1
102
RTVSPropertyOp23
 70
     1
102
RTVSPropertyOp24
 70
     1
102
RTVSPropertyOp25
 70
     1
102
RTVSPropertyOp26
 70
     1
102
RTVSPropertyOp27
 70
     1
  0
XRECORD
  5
28C
102
{ACAD_REACTORS
330
28B
102
}
330
28B
100
AcDbXrecord
280
     1
102
RTVSPropertyOp0
 70
     1
102
RTVSPropertyOp1
 70
     1
102
RTVSPropertyOp2
 70
     1
102
RTVSPropertyOp3
 70
     1
102
RTVSPropertyOp4
 70
     1
102
RTVSPropertyOp5
 70
     1
102
RTVSPropertyOp6
 70
     1
102
RTVSPropertyOp7
 70
     1
102
RTVSPropertyOp8
 70
     1
102
RTVSPropertyOp9
 70
     1
102
RTVSPropertyOp10
 70
     1
102
RTVSPropertyOp11
 70
     1
102
RTVSPropertyOp12
 70
     1
102
RTVSPropertyOp13
 70
     1
102
RTVSPropertyOp14
 70
     1
102
RTVSPropertyOp15
 70
     1
102
RTVSPropertyOp16
 70
     1
102
RTVSPropertyOp17
 70
     1
102
RTVSPropertyOp18
 70
     1
102
RTVSPropertyOp19
 70
     1
102
RTVSPropertyOp20
 70
     1
102
RTVSPropertyOp21
 70
     1
102
RTVSPropertyOp22
 70
     1
102
RTVSPropertyOp23
 70
     1
102
RTVSPropertyOp24
 70
     1
102
RTVSPropertyOp25
 70
     1
102
RTVSPropertyOp26
 70
     1
102
RTVSPropertyOp27
 70
     1
  0
XRECORD
  5
2A0
102
{ACAD_REACTORS
330
29F
102
}
330
29F
100
AcDbXrecord
280
     1
102
RTVSPropertyOp0
 70
     1
102
RTVSPropertyOp1
 70
     1
102
RTVSPropertyOp2
 70
     1
102
RTVSPropertyOp3
 70
     1
102
RTVSPropertyOp4
 70
     1
102
RTVSPropertyOp5
 70
     1
102
RTVSPropertyOp6
 70
     1
102
RTVSPropertyOp7
 70
     1
102
RTVSPropertyOp8
 70
     1
102
RTVSPropertyOp9
 70
     1
102
RTVSPropertyOp10
 70
     1
102
RTVSPropertyOp11
 70
     1
102
RTVSPropertyOp12
 70
     1
102
RTVSPropertyOp13
 70
     1
102
RTVSPropertyOp14
 70
     1
102
RTVSPropertyOp15
 70
     1
102
RTVSPropertyOp16
 70
     1
102
RTVSPropertyOp17
 70
     1
102
RTVSPropertyOp18
 70
     1
102
RTVSPropertyOp19
 70
     1
102
RTVSPropertyOp20
 70
     1
102
RTVSPropertyOp21
 70
     1
102
RTVSPropertyOp22
 70
     1
102
RTVSPropertyOp23
 70
     1
102
RTVSPropertyOp24
 70
     1
102
RTVSPropertyOp25
 70
     1
102
RTVSPropertyOp26
 70
     1
102
RTVSPropertyOp27
 70
     1
  0
XRECORD
  5
296
102
{ACAD_REACTORS
330
295
102
}
330
295
100
AcDbXrecord
280
     1
102
RTVSPropertyOp0
 70
     1
102
RTVSPropertyOp1
 70
     1
102
RTVSPropertyOp2
 70
     1
102
RTVSPropertyOp3
 70
     1
102
RTVSPropertyOp4
 70
     1
102
RTVSPropertyOp5
 70
     1
102
RTVSPropertyOp6
 70
     1
102
RTVSPropertyOp7
 70
     1
102
RTVSPropertyOp8
 70
     1
102
RTVSPropertyOp9
 70
     1
102
RTVSPropertyOp10
 70
     1
102
RTVSPropertyOp11
 70
     1
102
RTVSPropertyOp12
 70
     1
102
RTVSPropertyOp13
 70
     1
102
RTVSPropertyOp14
 70
     1
102
RTVSPropertyOp15
 70
     1
102
RTVSPropertyOp16
 70
     1
102
RTVSPropertyOp17
 70
     1
102
RTVSPropertyOp18
 70
     1
102
RTVSPropertyOp19
 70
     1
102
RTVSPropertyOp20
 70
     1
102
RTVSPropertyOp21
 70
     1
102
RTVSPropertyOp22
 70
     1
102
RTVSPropertyOp23
 70
     1
102
RTVSPropertyOp24
 70
     1
102
RTVSPropertyOp25
 70
     1
102
RTVSPropertyOp26
 70
     1
102
RTVSPropertyOp27
 70
     1
  0
XRECORD
  5
29E
102
{ACAD_REACTORS
330
29D
102
}
330
29D
100
AcDbXrecord
280
     1
102
RTVSPropertyOp0
 70
     1
102
RTVSPropertyOp1
 70
     1
102
RTVSPropertyOp2
 70
     1
102
RTVSPropertyOp3
 70
     1
102
RTVSPropertyOp4
 70
     1
102
RTVSPropertyOp5
 70
     1
102
RTVSPropertyOp6
 70
     1
102
RTVSPropertyOp7
 70
     1
102
RTVSPropertyOp8
 70
     1
102
RTVSPropertyOp9
 70
     1
102
RTVSPropertyOp10
 70
     1
102
RTVSPropertyOp11
 70
     1
102
RTVSPropertyOp12
 70
     1
102
RTVSPropertyOp13
 70
     1
102
RTVSPropertyOp14
 70
     1
102
RTVSPropertyOp15
 70
     1
102
RTVSPropertyOp16
 70
     1
102
RTVSPropertyOp17
 70
     1
102
RTVSPropertyOp18
 70
     1
102
RTVSPropertyOp19
 70
     1
102
RTVSPropertyOp20
 70
     1
102
RTVSPropertyOp21
 70
     1
102
RTVSPropertyOp22
 70
     1
102
RTVSPropertyOp23
 70
     1
102
RTVSPropertyOp24
 70
     1
102
RTVSPropertyOp25
 70
     1
102
RTVSPropertyOp26
 70
     1
102
RTVSPropertyOp27
 70
     1
  0
ENDSEC
  0
EOF
