  0
SECTION
  2
HEADER
  9
$ACADVER
  1
AC1012
  9
$DWGCODEPAGE
  3
ANSI_1252
  9
$INSBASE
 10
0.0
 20
0.0
 30
0.0
  9
$EXTMIN
 10
3.377723634240627
 20
7.257746578377723
 30
-0.0000000349181948
  9
$EXTMAX
 10
7.582554491926991
 20
9.22793696884139
 30
0.0000000814935746
  9
$LIMMIN
 10
0.0
 20
0.0
  9
$LIMMAX
 10
12.0
 20
9.0
  9
$ORTHOMODE
 70
     0
  9
$REGENMODE
 70
     1
  9
$FILLMODE
 70
     1
  9
$QTEXTMODE
 70
     0
  9
$MIRRTEXT
 70
     1
  9
$DRAGMODE
 70
     2
  9
$LTSCALE
 40
1.0
  9
$OSMODE
 70
    33
  9
$ATTMODE
 70
     1
  9
$TEXTSIZE
 40
0.2
  9
$TRACEWID
 40
0.05
  9
$TEXTSTYLE
  7
STANDARD
  9
$CLAYER
  8
0
  9
$CELTYPE
  6
BYLAYER
  9
$CECOLOR
 62
   256
  9
$CELTSCALE
 40
1.0
  9
$DELOBJ
 70
     1
  9
$DISPSILH
 70
     0
  9
$DIMSCALE
 40
1.0
  9
$DIMASZ
 40
0.18
  9
$DIMEXO
 40
0.0625
  9
$DIMDLI
 40
0.38
  9
$DIMRND
 40
0.0
  9
$DIMDLE
 40
0.0
  9
$DIMEXE
 40
0.18
  9
$DIMTP
 40
0.0
  9
$DIMTM
 40
0.0
  9
$DIMTXT
 40
0.18
  9
$DIMCEN
 40
0.09
  9
$DIMTSZ
 40
0.0
  9
$DIMTOL
 70
     0
  9
$DIMLIM
 70
     0
  9
$DIMTIH
 70
     1
  9
$DIMTOH
 70
     1
  9
$DIMSE1
 70
     0
  9
$DIMSE2
 70
     0
  9
$DIMTAD
 70
     0
  9
$DIMZIN
 70
     0
  9
$DIMBLK
  1

  9
$DIMASO
 70
     1
  9
$DIMSHO
 70
     1
  9
$DIMPOST
  1

  9
$DIMAPOST
  1

  9
$DIMALT
 70
     0
  9
$DIMALTD
 70
     2
  9
$DIMALTF
 40
25.4
  9
$DIMLFAC
 40
1.0
  9
$DIMTOFL
 70
     0
  9
$DIMTVP
 40
0.0
  9
$DIMTIX
 70
     0
  9
$DIMSOXD
 70
     0
  9
$DIMSAH
 70
     0
  9
$DIMBLK1
  1

  9
$DIMBLK2
  1

  9
$DIMSTYLE
  2
STANDARD
  9
$DIMCLRD
 70
     0
  9
$DIMCLRE
 70
     0
  9
$DIMCLRT
 70
     0
  9
$DIMTFAC
 40
1.0
  9
$DIMGAP
 40
0.09
  9
$DIMJUST
 70
     0
  9
$DIMSD1
 70
     0
  9
$DIMSD2
 70
     0
  9
$DIMTOLJ
 70
     1
  9
$DIMTZIN
 70
     0
  9
$DIMALTZ
 70
     0
  9
$DIMALTTZ
 70
     0
  9
$DIMFIT
 70
     5
  9
$DIMUPT
 70
     0
  9
$DIMUNIT
 70
     2
  9
$DIMDEC
 70
     4
  9
$DIMTDEC
 70
     4
  9
$DIMALTU
 70
     2
  9
$DIMALTTD
 70
     2
  9
$DIMTXSTY
  7
STANDARD
  9
$DIMAUNIT
 70
     0
  9
$LUNITS
 70
     2
  9
$LUPREC
 70
     4
  9
$SKETCHINC
 40
0.1
  9
$FILLETRAD
 40
0.0
  9
$AUNITS
 70
     0
  9
$AUPREC
 70
     0
  9
$MENU
  1
acad
  9
$ELEVATION
 40
0.0
  9
$PELEVATION
 40
0.0
  9
$THICKNESS
 40
0.0
  9
$LIMCHECK
 70
     0
  9
$BLIPMODE
 70
     0
  9
$CHAMFERA
 40
0.0
  9
$CHAMFERB
 40
0.0
  9
$CHAMFERC
 40
0.0
  9
$CHAMFERD
 40
0.0
  9
$SKPOLY
 70
     0
  9
$TDCREATE
 40
2451908.391875000
  9
$TDUPDATE
 40
2452340.320280393
  9
$TDINDWG
 40
0.0009100116
  9
$TDUSRTIMER
 40
0.0009100116
  9
$USRTIMER
 70
     1
  9
$ANGBASE
 50
0.0
  9
$ANGDIR
 70
     0
  9
$PDMODE
 70
     0
  9
$PDSIZE
 40
0.0
  9
$PLINEWID
 40
0.0
  9
$COORDS
 70
     2
  9
$SPLFRAME
 70
     0
  9
$SPLINETYPE
 70
     6
  9
$SPLINESEGS
 70
     8
  9
$ATTDIA
 70
     0
  9
$ATTREQ
 70
     1
  9
$HANDLING
 70
  4097
  9
$HANDSEED
  5
3141
  9
$SURFTAB1
 70
     6
  9
$SURFTAB2
 70
     6
  9
$SURFTYPE
 70
     6
  9
$SURFU
 70
     6
  9
$SURFV
 70
     6
  9
$UCSNAME
  2

  9
$UCSORG
 10
0.0
 20
0.0
 30
0.0
  9
$UCSXDIR
 10
1.0
 20
0.0
 30
0.0
  9
$UCSYDIR
 10
0.0
 20
1.0
 30
0.0
  9
$PUCSNAME
  2

  9
$PUCSORG
 10
0.0
 20
0.0
 30
0.0
  9
$PUCSXDIR
 10
1.0
 20
0.0
 30
0.0
  9
$PUCSYDIR
 10
0.0
 20
1.0
 30
0.0
  9
$USERI1
 70
     0
  9
$USERI2
 70
     0
  9
$USERI3
 70
     0
  9
$USERI4
 70
     0
  9
$USERI5
 70
     0
  9
$USERR1
 40
0.0
  9
$USERR2
 40
0.0
  9
$USERR3
 40
0.0
  9
$USERR4
 40
0.0
  9
$USERR5
 40
0.0
  9
$WORLDVIEW
 70
     1
  9
$SHADEDGE
 70
     3
  9
$SHADEDIF
 70
    70
  9
$TILEMODE
 70
     1
  9
$MAXACTVP
 70
    16
  9
$PINSBASE
 10
0.0
 20
0.0
 30
0.0
  9
$PLIMCHECK
 70
     0
  9
$PEXTMIN
 10
1.000000000000000E+20
 20
1.000000000000000E+20
 30
1.000000000000000E+20
  9
$PEXTMAX
 10
-1.000000000000000E+20
 20
-1.000000000000000E+20
 30
-1.000000000000000E+20
  9
$PLIMMIN
 10
0.0
 20
0.0
  9
$PLIMMAX
 10
12.0
 20
9.0
  9
$UNITMODE
 70
     0
  9
$VISRETAIN
 70
     0
  9
$PLINEGEN
 70
     0
  9
$PSLTSCALE
 70
     1
  9
$TREEDEPTH
 70
  3020
  9
$PICKSTYLE
 70
     1
  9
$CMLSTYLE
  2
STANDARD
  9
$CMLJUST
 70
     0
  9
$CMLSCALE
 40
1.0
  9
$SAVEIMAGES
 70
     1
  0
ENDSEC
  0
SECTION
  2
CLASSES
  0
CLASS
  1
ACDBDICTIONARYWDFLT
  2
AcDbDictionaryWithDefault
  3
AutoCAD 2000
 90
    32768
280
     0
281
     0
  0
CLASS
  1
ACDBPLACEHOLDER
  2
AcDbPlaceHolder
  3
AutoCAD 2000
 90
    32768
280
     0
281
     0
  0
CLASS
  1
LAYOUT
  2
AcDbLayout
  3
AutoCAD 2000
 90
    32768
280
     0
281
     0
  0
CLASS
  1
LONG_TRANSACTION
  2
AcDbLongTransaction
  3
AutoCAD 2000
 90
    32768
280
     0
281
     0
  0
CLASS
  1
LWPOLYLINE
  2
AcDbPolyline
  3
AutoCAD 2000
 90
    32768
280
     0
281
     1
  0
CLASS
  1
HATCH
  2
AcDbHatch
  3
AutoCAD 2000
 90
    32768
280
     0
281
     1
  0
CLASS
  1
XRECORD
  2
AcDbXrecord
  3
AutoCAD 2000
 90
    32768
280
     0
281
     0
  0
ENDSEC
  0
SECTION
  2
TABLES
  0
TABLE
  2
VPORT
  5
8
330
0
100
AcDbSymbolTable
 70
     3
  0
VPORT
  5
313C
330
8
100
AcDbSymbolTableRecord
100
AcDbViewportTableRecord
  2
*ACTIVE
 70
     0
 10
0.0
 20
0.0
 11
1.0
 21
1.0
 12
5.480139063083809
 22
8.242841773609557
 13
0.0
 23
0.0
 14
1.0
 24
1.0
 15
0.0
 25
0.0
 16
0.0
 26
0.0
 36
1.0
 17
0.0
 27
0.0
 37
0.0
 40
2.637904528066638
 41
1.601839684625492
 42
50.0
 43
0.0
 44
0.0
 50
0.0
 51
0.0
 71
     0
 72
   100
 73
     1
 74
     1
 75
     0
 76
     0
 77
     0
 78
     0
  0
ENDTAB
  0
TABLE
  2
LTYPE
  5
5
330
0
100
AcDbSymbolTable
 70
    25
  0
LTYPE
  5
13
330
5
100
AcDbSymbolTableRecord
100
AcDbLinetypeTableRecord
  2
BYBLOCK
 70
     0
  3

 72
    65
 73
     0
 40
0.0
  0
LTYPE
  5
14
330
5
100
AcDbSymbolTableRecord
100
AcDbLinetypeTableRecord
  2
BYLAYER
 70
     0
  3

 72
    65
 73
     0
 40
0.0
  0
LTYPE
  5
15
330
5
100
AcDbSymbolTableRecord
100
AcDbLinetypeTableRecord
  2
CONTINUOUS
 70
     0
  3
Solid line
 72
    65
 73
     0
 40
0.0
  0
LTYPE
  5
22
330
5
100
AcDbSymbolTableRecord
100
AcDbLinetypeTableRecord
  2
BORDER
 70
     0
  3
__ __ . __ __ . __ __ . __ __ . __ __ . __ __ .
 72
    65
 73
     6
 40
1.75
 49
0.5
 74
     0
 49
-0.25
 74
     0
 49
0.5
 74
     0
 49
-0.25
 74
     0
 49
0.5
 74
     0
 49
-0.25
 74
     0
  0
LTYPE
  5
23
330
5
100
AcDbSymbolTableRecord
100
AcDbLinetypeTableRecord
  2
BORDER2
 70
     0
  3
__.__.__.__.__.__.__.__.__.__.__.__.__.__.__.__
 72
    65
 73
     6
 40
0.875
 49
0.25
 74
     0
 49
-0.125
 74
     0
 49
0.25
 74
     0
 49
-0.125
 74
     0
 49
0.25
 74
     0
 49
-0.125
 74
     0
  0
LTYPE
  5
24
330
5
100
AcDbSymbolTableRecord
100
AcDbLinetypeTableRecord
  2
BORDERX2
 70
     0
  3
____  ____  .  ____  ____  .  
 72
    65
 73
     6
 40
3.5
 49
1.0
 74
     0
 49
-0.5
 74
     0
 49
1.0
 74
     0
 49
-0.5
 74
     0
 49
1.0
 74
     0
 49
-0.5
 74
     0
  0
LTYPE
  5
25
330
5
100
AcDbSymbolTableRecord
100
AcDbLinetypeTableRecord
  2
CENTER
 70
     0
  3
____ _ ____ _ ____ _ ____ _ ____ _ ____ _ ____
 72
    65
 73
     4
 40
2.0
 49
1.25
 74
     0
 49
-0.25
 74
     0
 49
0.25
 74
     0
 49
-0.25
 74
     0
  0
LTYPE
  5
26
330
5
100
AcDbSymbolTableRecord
100
AcDbLinetypeTableRecord
  2
CENTER2
 70
     0
  3
____ _ ____ _ ____ _ ____ _ ____ _ ____ _ ____
 72
    65
 73
     4
 40
1.125
 49
0.75
 74
     0
 49
-0.125
 74
     0
 49
0.125
 74
     0
 49
-0.125
 74
     0
  0
LTYPE
  5
27
330
5
100
AcDbSymbolTableRecord
100
AcDbLinetypeTableRecord
  2
CENTERX2
 70
     0
  3
________  __  ________  __  ________  __  
 72
    65
 73
     4
 40
4.0
 49
2.5
 74
     0
 49
-0.5
 74
     0
 49
0.5
 74
     0
 49
-0.5
 74
     0
  0
LTYPE
  5
28
330
5
100
AcDbSymbolTableRecord
100
AcDbLinetypeTableRecord
  2
DASHDOT
 70
     0
  3
__ . __ . __ . __ . __ . __ . __ . 
 72
    65
 73
     4
 40
1.0
 49
0.5
 74
     0
 49
-0.25
 74
     0
 49
0.0
 74
     0
 49
-0.25
 74
     0
  0
LTYPE
  5
29
330
5
100
AcDbSymbolTableRecord
100
AcDbLinetypeTableRecord
  2
DASHDOT2
 70
     0
  3
_._._._._._._._._._._._._._._._.
 72
    65
 73
     4
 40
0.5
 49
0.25
 74
     0
 49
-0.125
 74
     0
 49
0.0
 74
     0
 49
-0.125
 74
     0
  0
LTYPE
  5
2A
330
5
100
AcDbSymbolTableRecord
100
AcDbLinetypeTableRecord
  2
DASHDOTX2
 70
     0
  3
____  .  ____  .  ____  .  ____  .  
 72
    65
 73
     4
 40
2.0
 49
1.0
 74
     0
 49
-0.5
 74
     0
 49
0.0
 74
     0
 49
-0.5
 74
     0
  0
LTYPE
  5
2B
330
5
100
AcDbSymbolTableRecord
100
AcDbLinetypeTableRecord
  2
DASHED
 70
     0
  3
__ __ __ __ __ __ __ __ __ __ __ __ 
 72
    65
 73
     2
 40
0.75
 49
0.5
 74
     0
 49
-0.25
 74
     0
  0
LTYPE
  5
2C
330
5
100
AcDbSymbolTableRecord
100
AcDbLinetypeTableRecord
  2
DASHED2
 70
     0
  3
_ _ _ _ _ _ _ _ _ _ _ _ _ _ _ _ _ _ 
 72
    65
 73
     2
 40
0.375
 49
0.25
 74
     0
 49
-0.125
 74
     0
  0
LTYPE
  5
2D
330
5
100
AcDbSymbolTableRecord
100
AcDbLinetypeTableRecord
  2
DASHEDX2
 70
     0
  3
____  ____  ____  ____  ____  ____  
 72
    65
 73
     2
 40
1.5
 49
1.0
 74
     0
 49
-0.5
 74
     0
  0
LTYPE
  5
2E
330
5
100
AcDbSymbolTableRecord
100
AcDbLinetypeTableRecord
  2
DIVIDE
 70
     0
  3
____ . . ____ . . ____ . . ____ . . 
 72
    65
 73
     6
 40
1.25
 49
0.5
 74
     0
 49
-0.25
 74
     0
 49
0.0
 74
     0
 49
-0.25
 74
     0
 49
0.0
 74
     0
 49
-0.25
 74
     0
  0
LTYPE
  5
2F
330
5
100
AcDbSymbolTableRecord
100
AcDbLinetypeTableRecord
  2
DIVIDE2
 70
     0
  3
__..__..__..__..__..__..__..__..__..
 72
    65
 73
     6
 40
0.625
 49
0.25
 74
     0
 49
-0.125
 74
     0
 49
0.0
 74
     0
 49
-0.125
 74
     0
 49
0.0
 74
     0
 49
-0.125
 74
     0
  0
LTYPE
  5
30
330
5
100
AcDbSymbolTableRecord
100
AcDbLinetypeTableRecord
  2
DIVIDEX2
 70
     0
  3
________  .  .  ________  .  .  ________  .  . 
 72
    65
 73
     6
 40
2.5
 49
1.0
 74
     0
 49
-0.5
 74
     0
 49
0.0
 74
     0
 49
-0.5
 74
     0
 49
0.0
 74
     0
 49
-0.5
 74
     0
  0
LTYPE
  5
31
330
5
100
AcDbSymbolTableRecord
100
AcDbLinetypeTableRecord
  2
DOT
 70
     0
  3
. . . . . . . . . . . . . . . . . . 
 72
    65
 73
     2
 40
0.25
 49
0.0
 74
     0
 49
-0.25
 74
     0
  0
LTYPE
  5
32
330
5
100
AcDbSymbolTableRecord
100
AcDbLinetypeTableRecord
  2
DOT2
 70
     0
  3
....................................
 72
    65
 73
     2
 40
0.125
 49
0.0
 74
     0
 49
-0.125
 74
     0
  0
LTYPE
  5
33
330
5
100
AcDbSymbolTableRecord
100
AcDbLinetypeTableRecord
  2
DOTX2
 70
     0
  3
.  .  .  .  .  .  .  .  .  .  .  .  .  
 72
    65
 73
     2
 40
0.5
 49
0.0
 74
     0
 49
-0.5
 74
     0
  0
LTYPE
  5
34
330
5
100
AcDbSymbolTableRecord
100
AcDbLinetypeTableRecord
  2
HIDDEN
 70
     0
  3
__ __ __ __ __ __ __ __ __ __ __ __ 
 72
    65
 73
     2
 40
0.375
 49
0.25
 74
     0
 49
-0.125
 74
     0
  0
LTYPE
  5
35
330
5
100
AcDbSymbolTableRecord
100
AcDbLinetypeTableRecord
  2
HIDDEN2
 70
     0
  3
_ _ _ _ _ _ _ _ _ _ _ _ _ _ _ _ _ _ 
 72
    65
 73
     2
 40
0.1875
 49
0.125
 74
     0
 49
-0.0625
 74
     0
  0
LTYPE
  5
36
330
5
100
AcDbSymbolTableRecord
100
AcDbLinetypeTableRecord
  2
HIDDENX2
 70
     0
  3
____ ____ ____ ____ ____ ____ ____ 
 72
    65
 73
     2
 40
0.75
 49
0.5
 74
     0
 49
-0.25
 74
     0
  0
LTYPE
  5
37
330
5
100
AcDbSymbolTableRecord
100
AcDbLinetypeTableRecord
  2
PHANTOM
 70
     0
  3
______  __  __  ______  __  __  
 72
    65
 73
     6
 40
2.5
 49
1.25
 74
     0
 49
-0.25
 74
     0
 49
0.25
 74
     0
 49
-0.25
 74
     0
 49
0.25
 74
     0
 49
-0.25
 74
     0
  0
LTYPE
  5
38
330
5
100
AcDbSymbolTableRecord
100
AcDbLinetypeTableRecord
  2
PHANTOM2
 70
     0
  3
___ _ _ ___ _ _ ___ _ _ ___ _ _ 
 72
    65
 73
     6
 40
1.25
 49
0.625
 74
     0
 49
-0.125
 74
     0
 49
0.125
 74
     0
 49
-0.125
 74
     0
 49
0.125
 74
     0
 49
-0.125
 74
     0
  0
LTYPE
  5
39
330
5
100
AcDbSymbolTableRecord
100
AcDbLinetypeTableRecord
  2
PHANTOMX2
 70
     0
  3
___ _ _ ___ _ _ ___ _ _ ___ _ _ 
 72
    65
 73
     6
 40
5.0
 49
2.5
 74
     0
 49
-0.5
 74
     0
 49
0.5
 74
     0
 49
-0.5
 74
     0
 49
0.5
 74
     0
 49
-0.5
 74
     0
  0
ENDTAB
  0
TABLE
  2
LAYER
  5
2
330
0
100
AcDbSymbolTable
 70
   256
  0
LAYER
  5
10
330
2
100
AcDbSymbolTableRecord
100
AcDbLayerTableRecord
  2
0
 70
     0
 62
     7
  6
CONTINUOUS
  0
LAYER
  5
3A
330
2
100
AcDbSymbolTableRecord
100
AcDbLayerTableRecord
  2
1
 70
     0
 62
     1
  6
CONTINUOUS
  0
LAYER
  5
3B
330
2
100
AcDbSymbolTableRecord
100
AcDbLayerTableRecord
  2
2
 70
     0
 62
     2
  6
CONTINUOUS
  0
LAYER
  5
3C
330
2
100
AcDbSymbolTableRecord
100
AcDbLayerTableRecord
  2
3
 70
     0
 62
     3
  6
CONTINUOUS
  0
LAYER
  5
3D
330
2
100
AcDbSymbolTableRecord
100
AcDbLayerTableRecord
  2
4
 70
     0
 62
     4
  6
CONTINUOUS
  0
LAYER
  5
3E
330
2
100
AcDbSymbolTableRecord
100
AcDbLayerTableRecord
  2
5
 70
     0
 62
     5
  6
CONTINUOUS
  0
LAYER
  5
3F
330
2
100
AcDbSymbolTableRecord
100
AcDbLayerTableRecord
  2
6
 70
     0
 62
     6
  6
CONTINUOUS
  0
LAYER
  5
40
330
2
100
AcDbSymbolTableRecord
100
AcDbLayerTableRecord
  2
7
 70
     0
 62
     7
  6
CONTINUOUS
  0
LAYER
  5
41
330
2
100
AcDbSymbolTableRecord
100
AcDbLayerTableRecord
  2
8
 70
     0
 62
     8
  6
CONTINUOUS
  0
LAYER
  5
42
330
2
100
AcDbSymbolTableRecord
100
AcDbLayerTableRecord
  2
9
 70
     0
 62
     9
  6
CONTINUOUS
  0
LAYER
  5
43
330
2
100
AcDbSymbolTableRecord
100
AcDbLayerTableRecord
  2
10
 70
     0
 62
    10
  6
CONTINUOUS
  0
LAYER
  5
44
330
2
100
AcDbSymbolTableRecord
100
AcDbLayerTableRecord
  2
11
 70
     0
 62
    11
  6
CONTINUOUS
  0
LAYER
  5
45
330
2
100
AcDbSymbolTableRecord
100
AcDbLayerTableRecord
  2
12
 70
     0
 62
    12
  6
CONTINUOUS
  0
LAYER
  5
46
330
2
100
AcDbSymbolTableRecord
100
AcDbLayerTableRecord
  2
13
 70
     0
 62
    13
  6
CONTINUOUS
  0
LAYER
  5
47
330
2
100
AcDbSymbolTableRecord
100
AcDbLayerTableRecord
  2
14
 70
     0
 62
    14
  6
CONTINUOUS
  0
LAYER
  5
48
330
2
100
AcDbSymbolTableRecord
100
AcDbLayerTableRecord
  2
15
 70
     0
 62
    15
  6
CONTINUOUS
  0
LAYER
  5
49
330
2
100
AcDbSymbolTableRecord
100
AcDbLayerTableRecord
  2
16
 70
     0
 62
    16
  6
CONTINUOUS
  0
LAYER
  5
4A
330
2
100
AcDbSymbolTableRecord
100
AcDbLayerTableRecord
  2
17
 70
     0
 62
    17
  6
CONTINUOUS
  0
LAYER
  5
4B
330
2
100
AcDbSymbolTableRecord
100
AcDbLayerTableRecord
  2
18
 70
     0
 62
    18
  6
CONTINUOUS
  0
LAYER
  5
4C
330
2
100
AcDbSymbolTableRecord
100
AcDbLayerTableRecord
  2
19
 70
     0
 62
    19
  6
CONTINUOUS
  0
LAYER
  5
4D
330
2
100
AcDbSymbolTableRecord
100
AcDbLayerTableRecord
  2
20
 70
     0
 62
    20
  6
CONTINUOUS
  0
LAYER
  5
4E
330
2
100
AcDbSymbolTableRecord
100
AcDbLayerTableRecord
  2
21
 70
     0
 62
    21
  6
CONTINUOUS
  0
LAYER
  5
4F
330
2
100
AcDbSymbolTableRecord
100
AcDbLayerTableRecord
  2
22
 70
     0
 62
    22
  6
CONTINUOUS
  0
LAYER
  5
50
330
2
100
AcDbSymbolTableRecord
100
AcDbLayerTableRecord
  2
23
 70
     0
 62
    23
  6
CONTINUOUS
  0
LAYER
  5
51
330
2
100
AcDbSymbolTableRecord
100
AcDbLayerTableRecord
  2
24
 70
     0
 62
    24
  6
CONTINUOUS
  0
LAYER
  5
52
330
2
100
AcDbSymbolTableRecord
100
AcDbLayerTableRecord
  2
25
 70
     0
 62
    25
  6
CONTINUOUS
  0
LAYER
  5
53
330
2
100
AcDbSymbolTableRecord
100
AcDbLayerTableRecord
  2
26
 70
     0
 62
    26
  6
CONTINUOUS
  0
LAYER
  5
54
330
2
100
AcDbSymbolTableRecord
100
AcDbLayerTableRecord
  2
27
 70
     0
 62
    27
  6
CONTINUOUS
  0
LAYER
  5
55
330
2
100
AcDbSymbolTableRecord
100
AcDbLayerTableRecord
  2
28
 70
     0
 62
    28
  6
CONTINUOUS
  0
LAYER
  5
56
330
2
100
AcDbSymbolTableRecord
100
AcDbLayerTableRecord
  2
29
 70
     0
 62
    29
  6
CONTINUOUS
  0
LAYER
  5
57
330
2
100
AcDbSymbolTableRecord
100
AcDbLayerTableRecord
  2
30
 70
     0
 62
    30
  6
CONTINUOUS
  0
LAYER
  5
58
330
2
100
AcDbSymbolTableRecord
100
AcDbLayerTableRecord
  2
31
 70
     0
 62
    31
  6
CONTINUOUS
  0
LAYER
  5
59
330
2
100
AcDbSymbolTableRecord
100
AcDbLayerTableRecord
  2
32
 70
     0
 62
    32
  6
CONTINUOUS
  0
LAYER
  5
5A
330
2
100
AcDbSymbolTableRecord
100
AcDbLayerTableRecord
  2
33
 70
     0
 62
    33
  6
CONTINUOUS
  0
LAYER
  5
5B
330
2
100
AcDbSymbolTableRecord
100
AcDbLayerTableRecord
  2
34
 70
     0
 62
    34
  6
CONTINUOUS
  0
LAYER
  5
5C
330
2
100
AcDbSymbolTableRecord
100
AcDbLayerTableRecord
  2
35
 70
     0
 62
    35
  6
CONTINUOUS
  0
LAYER
  5
5D
330
2
100
AcDbSymbolTableRecord
100
AcDbLayerTableRecord
  2
36
 70
     0
 62
    36
  6
CONTINUOUS
  0
LAYER
  5
5E
330
2
100
AcDbSymbolTableRecord
100
AcDbLayerTableRecord
  2
37
 70
     0
 62
    37
  6
CONTINUOUS
  0
LAYER
  5
5F
330
2
100
AcDbSymbolTableRecord
100
AcDbLayerTableRecord
  2
38
 70
     0
 62
    38
  6
CONTINUOUS
  0
LAYER
  5
60
330
2
100
AcDbSymbolTableRecord
100
AcDbLayerTableRecord
  2
39
 70
     0
 62
    39
  6
CONTINUOUS
  0
LAYER
  5
61
330
2
100
AcDbSymbolTableRecord
100
AcDbLayerTableRecord
  2
40
 70
     0
 62
    40
  6
CONTINUOUS
  0
LAYER
  5
62
330
2
100
AcDbSymbolTableRecord
100
AcDbLayerTableRecord
  2
41
 70
     0
 62
    41
  6
CONTINUOUS
  0
LAYER
  5
63
330
2
100
AcDbSymbolTableRecord
100
AcDbLayerTableRecord
  2
42
 70
     0
 62
    42
  6
CONTINUOUS
  0
LAYER
  5
64
330
2
100
AcDbSymbolTableRecord
100
AcDbLayerTableRecord
  2
43
 70
     0
 62
    43
  6
CONTINUOUS
  0
LAYER
  5
65
330
2
100
AcDbSymbolTableRecord
100
AcDbLayerTableRecord
  2
44
 70
     0
 62
    44
  6
CONTINUOUS
  0
LAYER
  5
66
330
2
100
AcDbSymbolTableRecord
100
AcDbLayerTableRecord
  2
45
 70
     0
 62
    45
  6
CONTINUOUS
  0
LAYER
  5
67
330
2
100
AcDbSymbolTableRecord
100
AcDbLayerTableRecord
  2
46
 70
     0
 62
    46
  6
CONTINUOUS
  0
LAYER
  5
68
330
2
100
AcDbSymbolTableRecord
100
AcDbLayerTableRecord
  2
47
 70
     0
 62
    47
  6
CONTINUOUS
  0
LAYER
  5
69
330
2
100
AcDbSymbolTableRecord
100
AcDbLayerTableRecord
  2
48
 70
     0
 62
    48
  6
CONTINUOUS
  0
LAYER
  5
6A
330
2
100
AcDbSymbolTableRecord
100
AcDbLayerTableRecord
  2
49
 70
     0
 62
    49
  6
CONTINUOUS
  0
LAYER
  5
6B
330
2
100
AcDbSymbolTableRecord
100
AcDbLayerTableRecord
  2
50
 70
     0
 62
    50
  6
CONTINUOUS
  0
LAYER
  5
6C
330
2
100
AcDbSymbolTableRecord
100
AcDbLayerTableRecord
  2
51
 70
     0
 62
    51
  6
CONTINUOUS
  0
LAYER
  5
6D
330
2
100
AcDbSymbolTableRecord
100
AcDbLayerTableRecord
  2
52
 70
     0
 62
    52
  6
CONTINUOUS
  0
LAYER
  5
6E
330
2
100
AcDbSymbolTableRecord
100
AcDbLayerTableRecord
  2
53
 70
     0
 62
    53
  6
CONTINUOUS
  0
LAYER
  5
6F
330
2
100
AcDbSymbolTableRecord
100
AcDbLayerTableRecord
  2
54
 70
     0
 62
    54
  6
CONTINUOUS
  0
LAYER
  5
70
330
2
100
AcDbSymbolTableRecord
100
AcDbLayerTableRecord
  2
55
 70
     0
 62
    55
  6
CONTINUOUS
  0
LAYER
  5
71
330
2
100
AcDbSymbolTableRecord
100
AcDbLayerTableRecord
  2
56
 70
     0
 62
    56
  6
CONTINUOUS
  0
LAYER
  5
72
330
2
100
AcDbSymbolTableRecord
100
AcDbLayerTableRecord
  2
57
 70
     0
 62
    57
  6
CONTINUOUS
  0
LAYER
  5
73
330
2
100
AcDbSymbolTableRecord
100
AcDbLayerTableRecord
  2
58
 70
     0
 62
    58
  6
CONTINUOUS
  0
LAYER
  5
74
330
2
100
AcDbSymbolTableRecord
100
AcDbLayerTableRecord
  2
59
 70
     0
 62
    59
  6
CONTINUOUS
  0
LAYER
  5
75
330
2
100
AcDbSymbolTableRecord
100
AcDbLayerTableRecord
  2
60
 70
     0
 62
    60
  6
CONTINUOUS
  0
LAYER
  5
76
330
2
100
AcDbSymbolTableRecord
100
AcDbLayerTableRecord
  2
61
 70
     0
 62
    61
  6
CONTINUOUS
  0
LAYER
  5
77
330
2
100
AcDbSymbolTableRecord
100
AcDbLayerTableRecord
  2
62
 70
     0
 62
    62
  6
CONTINUOUS
  0
LAYER
  5
78
330
2
100
AcDbSymbolTableRecord
100
AcDbLayerTableRecord
  2
63
 70
     0
 62
    63
  6
CONTINUOUS
  0
LAYER
  5
79
330
2
100
AcDbSymbolTableRecord
100
AcDbLayerTableRecord
  2
64
 70
     0
 62
    64
  6
CONTINUOUS
  0
LAYER
  5
7A
330
2
100
AcDbSymbolTableRecord
100
AcDbLayerTableRecord
  2
65
 70
     0
 62
    65
  6
CONTINUOUS
  0
LAYER
  5
7B
330
2
100
AcDbSymbolTableRecord
100
AcDbLayerTableRecord
  2
66
 70
     0
 62
    66
  6
CONTINUOUS
  0
LAYER
  5
7C
330
2
100
AcDbSymbolTableRecord
100
AcDbLayerTableRecord
  2
67
 70
     0
 62
    67
  6
CONTINUOUS
  0
LAYER
  5
7D
330
2
100
AcDbSymbolTableRecord
100
AcDbLayerTableRecord
  2
68
 70
     0
 62
    68
  6
CONTINUOUS
  0
LAYER
  5
7E
330
2
100
AcDbSymbolTableRecord
100
AcDbLayerTableRecord
  2
69
 70
     0
 62
    69
  6
CONTINUOUS
  0
LAYER
  5
7F
330
2
100
AcDbSymbolTableRecord
100
AcDbLayerTableRecord
  2
70
 70
     0
 62
    70
  6
CONTINUOUS
  0
LAYER
  5
80
330
2
100
AcDbSymbolTableRecord
100
AcDbLayerTableRecord
  2
71
 70
     0
 62
    71
  6
CONTINUOUS
  0
LAYER
  5
81
330
2
100
AcDbSymbolTableRecord
100
AcDbLayerTableRecord
  2
72
 70
     0
 62
    72
  6
CONTINUOUS
  0
LAYER
  5
82
330
2
100
AcDbSymbolTableRecord
100
AcDbLayerTableRecord
  2
73
 70
     0
 62
    73
  6
CONTINUOUS
  0
LAYER
  5
83
330
2
100
AcDbSymbolTableRecord
100
AcDbLayerTableRecord
  2
74
 70
     0
 62
    74
  6
CONTINUOUS
  0
LAYER
  5
84
330
2
100
AcDbSymbolTableRecord
100
AcDbLayerTableRecord
  2
75
 70
     0
 62
    75
  6
CONTINUOUS
  0
LAYER
  5
85
330
2
100
AcDbSymbolTableRecord
100
AcDbLayerTableRecord
  2
76
 70
     0
 62
    76
  6
CONTINUOUS
  0
LAYER
  5
86
330
2
100
AcDbSymbolTableRecord
100
AcDbLayerTableRecord
  2
77
 70
     0
 62
    77
  6
CONTINUOUS
  0
LAYER
  5
87
330
2
100
AcDbSymbolTableRecord
100
AcDbLayerTableRecord
  2
78
 70
     0
 62
    78
  6
CONTINUOUS
  0
LAYER
  5
88
330
2
100
AcDbSymbolTableRecord
100
AcDbLayerTableRecord
  2
79
 70
     0
 62
    79
  6
CONTINUOUS
  0
LAYER
  5
89
330
2
100
AcDbSymbolTableRecord
100
AcDbLayerTableRecord
  2
80
 70
     0
 62
    80
  6
CONTINUOUS
  0
LAYER
  5
8A
330
2
100
AcDbSymbolTableRecord
100
AcDbLayerTableRecord
  2
81
 70
     0
 62
    81
  6
CONTINUOUS
  0
LAYER
  5
8B
330
2
100
AcDbSymbolTableRecord
100
AcDbLayerTableRecord
  2
82
 70
     0
 62
    82
  6
CONTINUOUS
  0
LAYER
  5
8C
330
2
100
AcDbSymbolTableRecord
100
AcDbLayerTableRecord
  2
83
 70
     0
 62
    83
  6
CONTINUOUS
  0
LAYER
  5
8D
330
2
100
AcDbSymbolTableRecord
100
AcDbLayerTableRecord
  2
84
 70
     0
 62
    84
  6
CONTINUOUS
  0
LAYER
  5
8E
330
2
100
AcDbSymbolTableRecord
100
AcDbLayerTableRecord
  2
85
 70
     0
 62
    85
  6
CONTINUOUS
  0
LAYER
  5
8F
330
2
100
AcDbSymbolTableRecord
100
AcDbLayerTableRecord
  2
86
 70
     0
 62
    86
  6
CONTINUOUS
  0
LAYER
  5
90
330
2
100
AcDbSymbolTableRecord
100
AcDbLayerTableRecord
  2
87
 70
     0
 62
    87
  6
CONTINUOUS
  0
LAYER
  5
91
330
2
100
AcDbSymbolTableRecord
100
AcDbLayerTableRecord
  2
88
 70
     0
 62
    88
  6
CONTINUOUS
  0
LAYER
  5
92
330
2
100
AcDbSymbolTableRecord
100
AcDbLayerTableRecord
  2
89
 70
     0
 62
    89
  6
CONTINUOUS
  0
LAYER
  5
93
330
2
100
AcDbSymbolTableRecord
100
AcDbLayerTableRecord
  2
90
 70
     0
 62
    90
  6
CONTINUOUS
  0
LAYER
  5
94
330
2
100
AcDbSymbolTableRecord
100
AcDbLayerTableRecord
  2
91
 70
     0
 62
    91
  6
CONTINUOUS
  0
LAYER
  5
95
330
2
100
AcDbSymbolTableRecord
100
AcDbLayerTableRecord
  2
92
 70
     0
 62
    92
  6
CONTINUOUS
  0
LAYER
  5
96
330
2
100
AcDbSymbolTableRecord
100
AcDbLayerTableRecord
  2
93
 70
     0
 62
    93
  6
CONTINUOUS
  0
LAYER
  5
97
330
2
100
AcDbSymbolTableRecord
100
AcDbLayerTableRecord
  2
94
 70
     0
 62
    94
  6
CONTINUOUS
  0
LAYER
  5
98
330
2
100
AcDbSymbolTableRecord
100
AcDbLayerTableRecord
  2
95
 70
     0
 62
    95
  6
CONTINUOUS
  0
LAYER
  5
99
330
2
100
AcDbSymbolTableRecord
100
AcDbLayerTableRecord
  2
96
 70
     0
 62
    96
  6
CONTINUOUS
  0
LAYER
  5
9A
330
2
100
AcDbSymbolTableRecord
100
AcDbLayerTableRecord
  2
97
 70
     0
 62
    97
  6
CONTINUOUS
  0
LAYER
  5
9B
330
2
100
AcDbSymbolTableRecord
100
AcDbLayerTableRecord
  2
98
 70
     0
 62
    98
  6
CONTINUOUS
  0
LAYER
  5
9C
330
2
100
AcDbSymbolTableRecord
100
AcDbLayerTableRecord
  2
99
 70
     0
 62
    99
  6
CONTINUOUS
  0
LAYER
  5
9D
330
2
100
AcDbSymbolTableRecord
100
AcDbLayerTableRecord
  2
100
 70
     0
 62
   100
  6
CONTINUOUS
  0
LAYER
  5
9E
330
2
100
AcDbSymbolTableRecord
100
AcDbLayerTableRecord
  2
101
 70
     0
 62
   101
  6
CONTINUOUS
  0
LAYER
  5
9F
330
2
100
AcDbSymbolTableRecord
100
AcDbLayerTableRecord
  2
102
 70
     0
 62
   102
  6
CONTINUOUS
  0
LAYER
  5
A0
330
2
100
AcDbSymbolTableRecord
100
AcDbLayerTableRecord
  2
103
 70
     0
 62
   103
  6
CONTINUOUS
  0
LAYER
  5
A1
330
2
100
AcDbSymbolTableRecord
100
AcDbLayerTableRecord
  2
104
 70
     0
 62
   104
  6
CONTINUOUS
  0
LAYER
  5
A2
330
2
100
AcDbSymbolTableRecord
100
AcDbLayerTableRecord
  2
105
 70
     0
 62
   105
  6
CONTINUOUS
  0
LAYER
  5
A3
330
2
100
AcDbSymbolTableRecord
100
AcDbLayerTableRecord
  2
106
 70
     0
 62
   106
  6
CONTINUOUS
  0
LAYER
  5
A4
330
2
100
AcDbSymbolTableRecord
100
AcDbLayerTableRecord
  2
107
 70
     0
 62
   107
  6
CONTINUOUS
  0
LAYER
  5
A5
330
2
100
AcDbSymbolTableRecord
100
AcDbLayerTableRecord
  2
108
 70
     0
 62
   108
  6
CONTINUOUS
  0
LAYER
  5
A6
330
2
100
AcDbSymbolTableRecord
100
AcDbLayerTableRecord
  2
109
 70
     0
 62
   109
  6
CONTINUOUS
  0
LAYER
  5
A7
330
2
100
AcDbSymbolTableRecord
100
AcDbLayerTableRecord
  2
110
 70
     0
 62
   110
  6
CONTINUOUS
  0
LAYER
  5
A8
330
2
100
AcDbSymbolTableRecord
100
AcDbLayerTableRecord
  2
111
 70
     0
 62
   111
  6
CONTINUOUS
  0
LAYER
  5
A9
330
2
100
AcDbSymbolTableRecord
100
AcDbLayerTableRecord
  2
112
 70
     0
 62
   112
  6
CONTINUOUS
  0
LAYER
  5
AA
330
2
100
AcDbSymbolTableRecord
100
AcDbLayerTableRecord
  2
113
 70
     0
 62
   113
  6
CONTINUOUS
  0
LAYER
  5
AB
330
2
100
AcDbSymbolTableRecord
100
AcDbLayerTableRecord
  2
114
 70
     0
 62
   114
  6
CONTINUOUS
  0
LAYER
  5
AC
330
2
100
AcDbSymbolTableRecord
100
AcDbLayerTableRecord
  2
115
 70
     0
 62
   115
  6
CONTINUOUS
  0
LAYER
  5
AD
330
2
100
AcDbSymbolTableRecord
100
AcDbLayerTableRecord
  2
116
 70
     0
 62
   116
  6
CONTINUOUS
  0
LAYER
  5
AE
330
2
100
AcDbSymbolTableRecord
100
AcDbLayerTableRecord
  2
117
 70
     0
 62
   117
  6
CONTINUOUS
  0
LAYER
  5
AF
330
2
100
AcDbSymbolTableRecord
100
AcDbLayerTableRecord
  2
118
 70
     0
 62
   118
  6
CONTINUOUS
  0
LAYER
  5
B0
330
2
100
AcDbSymbolTableRecord
100
AcDbLayerTableRecord
  2
119
 70
     0
 62
   119
  6
CONTINUOUS
  0
LAYER
  5
B1
330
2
100
AcDbSymbolTableRecord
100
AcDbLayerTableRecord
  2
120
 70
     0
 62
   120
  6
CONTINUOUS
  0
LAYER
  5
B2
330
2
100
AcDbSymbolTableRecord
100
AcDbLayerTableRecord
  2
121
 70
     0
 62
   121
  6
CONTINUOUS
  0
LAYER
  5
B3
330
2
100
AcDbSymbolTableRecord
100
AcDbLayerTableRecord
  2
122
 70
     0
 62
   122
  6
CONTINUOUS
  0
LAYER
  5
B4
330
2
100
AcDbSymbolTableRecord
100
AcDbLayerTableRecord
  2
123
 70
     0
 62
   123
  6
CONTINUOUS
  0
LAYER
  5
B5
330
2
100
AcDbSymbolTableRecord
100
AcDbLayerTableRecord
  2
124
 70
     0
 62
   124
  6
CONTINUOUS
  0
LAYER
  5
B6
330
2
100
AcDbSymbolTableRecord
100
AcDbLayerTableRecord
  2
125
 70
     0
 62
   125
  6
CONTINUOUS
  0
LAYER
  5
B7
330
2
100
AcDbSymbolTableRecord
100
AcDbLayerTableRecord
  2
126
 70
     0
 62
   126
  6
CONTINUOUS
  0
LAYER
  5
B8
330
2
100
AcDbSymbolTableRecord
100
AcDbLayerTableRecord
  2
127
 70
     0
 62
   127
  6
CONTINUOUS
  0
LAYER
  5
B9
330
2
100
AcDbSymbolTableRecord
100
AcDbLayerTableRecord
  2
128
 70
     0
 62
   128
  6
CONTINUOUS
  0
LAYER
  5
BA
330
2
100
AcDbSymbolTableRecord
100
AcDbLayerTableRecord
  2
129
 70
     0
 62
   129
  6
CONTINUOUS
  0
LAYER
  5
BB
330
2
100
AcDbSymbolTableRecord
100
AcDbLayerTableRecord
  2
130
 70
     0
 62
   130
  6
CONTINUOUS
  0
LAYER
  5
BC
330
2
100
AcDbSymbolTableRecord
100
AcDbLayerTableRecord
  2
131
 70
     0
 62
   131
  6
CONTINUOUS
  0
LAYER
  5
BD
330
2
100
AcDbSymbolTableRecord
100
AcDbLayerTableRecord
  2
132
 70
     0
 62
   132
  6
CONTINUOUS
  0
LAYER
  5
BE
330
2
100
AcDbSymbolTableRecord
100
AcDbLayerTableRecord
  2
133
 70
     0
 62
   133
  6
CONTINUOUS
  0
LAYER
  5
BF
330
2
100
AcDbSymbolTableRecord
100
AcDbLayerTableRecord
  2
134
 70
     0
 62
   134
  6
CONTINUOUS
  0
LAYER
  5
C0
330
2
100
AcDbSymbolTableRecord
100
AcDbLayerTableRecord
  2
135
 70
     0
 62
   135
  6
CONTINUOUS
  0
LAYER
  5
C1
330
2
100
AcDbSymbolTableRecord
100
AcDbLayerTableRecord
  2
136
 70
     0
 62
   136
  6
CONTINUOUS
  0
LAYER
  5
C2
330
2
100
AcDbSymbolTableRecord
100
AcDbLayerTableRecord
  2
137
 70
     0
 62
   137
  6
CONTINUOUS
  0
LAYER
  5
C3
330
2
100
AcDbSymbolTableRecord
100
AcDbLayerTableRecord
  2
138
 70
     0
 62
   138
  6
CONTINUOUS
  0
LAYER
  5
C4
330
2
100
AcDbSymbolTableRecord
100
AcDbLayerTableRecord
  2
139
 70
     0
 62
   139
  6
CONTINUOUS
  0
LAYER
  5
C5
330
2
100
AcDbSymbolTableRecord
100
AcDbLayerTableRecord
  2
140
 70
     0
 62
   140
  6
CONTINUOUS
  0
LAYER
  5
C6
330
2
100
AcDbSymbolTableRecord
100
AcDbLayerTableRecord
  2
141
 70
     0
 62
   141
  6
CONTINUOUS
  0
LAYER
  5
C7
330
2
100
AcDbSymbolTableRecord
100
AcDbLayerTableRecord
  2
142
 70
     0
 62
   142
  6
CONTINUOUS
  0
LAYER
  5
C8
330
2
100
AcDbSymbolTableRecord
100
AcDbLayerTableRecord
  2
143
 70
     0
 62
   143
  6
CONTINUOUS
  0
LAYER
  5
C9
330
2
100
AcDbSymbolTableRecord
100
AcDbLayerTableRecord
  2
144
 70
     0
 62
   144
  6
CONTINUOUS
  0
LAYER
  5
CA
330
2
100
AcDbSymbolTableRecord
100
AcDbLayerTableRecord
  2
145
 70
     0
 62
   145
  6
CONTINUOUS
  0
LAYER
  5
CB
330
2
100
AcDbSymbolTableRecord
100
AcDbLayerTableRecord
  2
146
 70
     0
 62
   146
  6
CONTINUOUS
  0
LAYER
  5
CC
330
2
100
AcDbSymbolTableRecord
100
AcDbLayerTableRecord
  2
147
 70
     0
 62
   147
  6
CONTINUOUS
  0
LAYER
  5
CD
330
2
100
AcDbSymbolTableRecord
100
AcDbLayerTableRecord
  2
148
 70
     0
 62
   148
  6
CONTINUOUS
  0
LAYER
  5
CE
330
2
100
AcDbSymbolTableRecord
100
AcDbLayerTableRecord
  2
149
 70
     0
 62
   149
  6
CONTINUOUS
  0
LAYER
  5
CF
330
2
100
AcDbSymbolTableRecord
100
AcDbLayerTableRecord
  2
150
 70
     0
 62
   150
  6
CONTINUOUS
  0
LAYER
  5
D0
330
2
100
AcDbSymbolTableRecord
100
AcDbLayerTableRecord
  2
151
 70
     0
 62
   151
  6
CONTINUOUS
  0
LAYER
  5
D1
330
2
100
AcDbSymbolTableRecord
100
AcDbLayerTableRecord
  2
152
 70
     0
 62
   152
  6
CONTINUOUS
  0
LAYER
  5
D2
330
2
100
AcDbSymbolTableRecord
100
AcDbLayerTableRecord
  2
153
 70
     0
 62
   153
  6
CONTINUOUS
  0
LAYER
  5
D3
330
2
100
AcDbSymbolTableRecord
100
AcDbLayerTableRecord
  2
154
 70
     0
 62
   154
  6
CONTINUOUS
  0
LAYER
  5
D4
330
2
100
AcDbSymbolTableRecord
100
AcDbLayerTableRecord
  2
155
 70
     0
 62
   155
  6
CONTINUOUS
  0
LAYER
  5
D5
330
2
100
AcDbSymbolTableRecord
100
AcDbLayerTableRecord
  2
156
 70
     0
 62
   156
  6
CONTINUOUS
  0
LAYER
  5
D6
330
2
100
AcDbSymbolTableRecord
100
AcDbLayerTableRecord
  2
157
 70
     0
 62
   157
  6
CONTINUOUS
  0
LAYER
  5
D7
330
2
100
AcDbSymbolTableRecord
100
AcDbLayerTableRecord
  2
158
 70
     0
 62
   158
  6
CONTINUOUS
  0
LAYER
  5
D8
330
2
100
AcDbSymbolTableRecord
100
AcDbLayerTableRecord
  2
159
 70
     0
 62
   159
  6
CONTINUOUS
  0
LAYER
  5
D9
330
2
100
AcDbSymbolTableRecord
100
AcDbLayerTableRecord
  2
160
 70
     0
 62
   160
  6
CONTINUOUS
  0
LAYER
  5
DA
330
2
100
AcDbSymbolTableRecord
100
AcDbLayerTableRecord
  2
161
 70
     0
 62
   161
  6
CONTINUOUS
  0
LAYER
  5
DB
330
2
100
AcDbSymbolTableRecord
100
AcDbLayerTableRecord
  2
162
 70
     0
 62
   162
  6
CONTINUOUS
  0
LAYER
  5
DC
330
2
100
AcDbSymbolTableRecord
100
AcDbLayerTableRecord
  2
163
 70
     0
 62
   163
  6
CONTINUOUS
  0
LAYER
  5
DD
330
2
100
AcDbSymbolTableRecord
100
AcDbLayerTableRecord
  2
164
 70
     0
 62
   164
  6
CONTINUOUS
  0
LAYER
  5
DE
330
2
100
AcDbSymbolTableRecord
100
AcDbLayerTableRecord
  2
165
 70
     0
 62
   165
  6
CONTINUOUS
  0
LAYER
  5
DF
330
2
100
AcDbSymbolTableRecord
100
AcDbLayerTableRecord
  2
166
 70
     0
 62
   166
  6
CONTINUOUS
  0
LAYER
  5
E0
330
2
100
AcDbSymbolTableRecord
100
AcDbLayerTableRecord
  2
167
 70
     0
 62
   167
  6
CONTINUOUS
  0
LAYER
  5
E1
330
2
100
AcDbSymbolTableRecord
100
AcDbLayerTableRecord
  2
168
 70
     0
 62
   168
  6
CONTINUOUS
  0
LAYER
  5
E2
330
2
100
AcDbSymbolTableRecord
100
AcDbLayerTableRecord
  2
169
 70
     0
 62
   169
  6
CONTINUOUS
  0
LAYER
  5
E3
330
2
100
AcDbSymbolTableRecord
100
AcDbLayerTableRecord
  2
170
 70
     0
 62
   170
  6
CONTINUOUS
  0
LAYER
  5
E4
330
2
100
AcDbSymbolTableRecord
100
AcDbLayerTableRecord
  2
171
 70
     0
 62
   171
  6
CONTINUOUS
  0
LAYER
  5
E5
330
2
100
AcDbSymbolTableRecord
100
AcDbLayerTableRecord
  2
172
 70
     0
 62
   172
  6
CONTINUOUS
  0
LAYER
  5
E6
330
2
100
AcDbSymbolTableRecord
100
AcDbLayerTableRecord
  2
173
 70
     0
 62
   173
  6
CONTINUOUS
  0
LAYER
  5
E7
330
2
100
AcDbSymbolTableRecord
100
AcDbLayerTableRecord
  2
174
 70
     0
 62
   174
  6
CONTINUOUS
  0
LAYER
  5
E8
330
2
100
AcDbSymbolTableRecord
100
AcDbLayerTableRecord
  2
175
 70
     0
 62
   175
  6
CONTINUOUS
  0
LAYER
  5
E9
330
2
100
AcDbSymbolTableRecord
100
AcDbLayerTableRecord
  2
176
 70
     0
 62
   176
  6
CONTINUOUS
  0
LAYER
  5
EA
330
2
100
AcDbSymbolTableRecord
100
AcDbLayerTableRecord
  2
177
 70
     0
 62
   177
  6
CONTINUOUS
  0
LAYER
  5
EB
330
2
100
AcDbSymbolTableRecord
100
AcDbLayerTableRecord
  2
178
 70
     0
 62
   178
  6
CONTINUOUS
  0
LAYER
  5
EC
330
2
100
AcDbSymbolTableRecord
100
AcDbLayerTableRecord
  2
179
 70
     0
 62
   179
  6
CONTINUOUS
  0
LAYER
  5
ED
330
2
100
AcDbSymbolTableRecord
100
AcDbLayerTableRecord
  2
180
 70
     0
 62
   180
  6
CONTINUOUS
  0
LAYER
  5
EE
330
2
100
AcDbSymbolTableRecord
100
AcDbLayerTableRecord
  2
181
 70
     0
 62
   181
  6
CONTINUOUS
  0
LAYER
  5
EF
330
2
100
AcDbSymbolTableRecord
100
AcDbLayerTableRecord
  2
182
 70
     0
 62
   182
  6
CONTINUOUS
  0
LAYER
  5
F0
330
2
100
AcDbSymbolTableRecord
100
AcDbLayerTableRecord
  2
183
 70
     0
 62
   183
  6
CONTINUOUS
  0
LAYER
  5
F1
330
2
100
AcDbSymbolTableRecord
100
AcDbLayerTableRecord
  2
184
 70
     0
 62
   184
  6
CONTINUOUS
  0
LAYER
  5
F2
330
2
100
AcDbSymbolTableRecord
100
AcDbLayerTableRecord
  2
185
 70
     0
 62
   185
  6
CONTINUOUS
  0
LAYER
  5
F3
330
2
100
AcDbSymbolTableRecord
100
AcDbLayerTableRecord
  2
186
 70
     0
 62
   186
  6
CONTINUOUS
  0
LAYER
  5
F4
330
2
100
AcDbSymbolTableRecord
100
AcDbLayerTableRecord
  2
187
 70
     0
 62
   187
  6
CONTINUOUS
  0
LAYER
  5
F5
330
2
100
AcDbSymbolTableRecord
100
AcDbLayerTableRecord
  2
188
 70
     0
 62
   188
  6
CONTINUOUS
  0
LAYER
  5
F6
330
2
100
AcDbSymbolTableRecord
100
AcDbLayerTableRecord
  2
189
 70
     0
 62
   189
  6
CONTINUOUS
  0
LAYER
  5
F7
330
2
100
AcDbSymbolTableRecord
100
AcDbLayerTableRecord
  2
190
 70
     0
 62
   190
  6
CONTINUOUS
  0
LAYER
  5
F8
330
2
100
AcDbSymbolTableRecord
100
AcDbLayerTableRecord
  2
191
 70
     0
 62
   191
  6
CONTINUOUS
  0
LAYER
  5
F9
330
2
100
AcDbSymbolTableRecord
100
AcDbLayerTableRecord
  2
192
 70
     0
 62
   192
  6
CONTINUOUS
  0
LAYER
  5
FA
330
2
100
AcDbSymbolTableRecord
100
AcDbLayerTableRecord
  2
193
 70
     0
 62
   193
  6
CONTINUOUS
  0
LAYER
  5
FB
330
2
100
AcDbSymbolTableRecord
100
AcDbLayerTableRecord
  2
194
 70
     0
 62
   194
  6
CONTINUOUS
  0
LAYER
  5
FC
330
2
100
AcDbSymbolTableRecord
100
AcDbLayerTableRecord
  2
195
 70
     0
 62
   195
  6
CONTINUOUS
  0
LAYER
  5
FD
330
2
100
AcDbSymbolTableRecord
100
AcDbLayerTableRecord
  2
196
 70
     0
 62
   196
  6
CONTINUOUS
  0
LAYER
  5
FE
330
2
100
AcDbSymbolTableRecord
100
AcDbLayerTableRecord
  2
197
 70
     0
 62
   197
  6
CONTINUOUS
  0
LAYER
  5
FF
330
2
100
AcDbSymbolTableRecord
100
AcDbLayerTableRecord
  2
198
 70
     0
 62
   198
  6
CONTINUOUS
  0
LAYER
  5
100
330
2
100
AcDbSymbolTableRecord
100
AcDbLayerTableRecord
  2
199
 70
     0
 62
   199
  6
CONTINUOUS
  0
LAYER
  5
101
330
2
100
AcDbSymbolTableRecord
100
AcDbLayerTableRecord
  2
200
 70
     0
 62
   200
  6
CONTINUOUS
  0
LAYER
  5
102
330
2
100
AcDbSymbolTableRecord
100
AcDbLayerTableRecord
  2
201
 70
     0
 62
   201
  6
CONTINUOUS
  0
LAYER
  5
103
330
2
100
AcDbSymbolTableRecord
100
AcDbLayerTableRecord
  2
202
 70
     0
 62
   202
  6
CONTINUOUS
  0
LAYER
  5
104
330
2
100
AcDbSymbolTableRecord
100
AcDbLayerTableRecord
  2
203
 70
     0
 62
   203
  6
CONTINUOUS
  0
LAYER
  5
105
330
2
100
AcDbSymbolTableRecord
100
AcDbLayerTableRecord
  2
204
 70
     0
 62
   204
  6
CONTINUOUS
  0
LAYER
  5
106
330
2
100
AcDbSymbolTableRecord
100
AcDbLayerTableRecord
  2
205
 70
     0
 62
   205
  6
CONTINUOUS
  0
LAYER
  5
107
330
2
100
AcDbSymbolTableRecord
100
AcDbLayerTableRecord
  2
206
 70
     0
 62
   206
  6
CONTINUOUS
  0
LAYER
  5
108
330
2
100
AcDbSymbolTableRecord
100
AcDbLayerTableRecord
  2
207
 70
     0
 62
   207
  6
CONTINUOUS
  0
LAYER
  5
109
330
2
100
AcDbSymbolTableRecord
100
AcDbLayerTableRecord
  2
208
 70
     0
 62
   208
  6
CONTINUOUS
  0
LAYER
  5
10A
330
2
100
AcDbSymbolTableRecord
100
AcDbLayerTableRecord
  2
209
 70
     0
 62
   209
  6
CONTINUOUS
  0
LAYER
  5
10B
330
2
100
AcDbSymbolTableRecord
100
AcDbLayerTableRecord
  2
210
 70
     0
 62
   210
  6
CONTINUOUS
  0
LAYER
  5
10C
330
2
100
AcDbSymbolTableRecord
100
AcDbLayerTableRecord
  2
211
 70
     0
 62
   211
  6
CONTINUOUS
  0
LAYER
  5
10D
330
2
100
AcDbSymbolTableRecord
100
AcDbLayerTableRecord
  2
212
 70
     0
 62
   212
  6
CONTINUOUS
  0
LAYER
  5
10E
330
2
100
AcDbSymbolTableRecord
100
AcDbLayerTableRecord
  2
213
 70
     0
 62
   213
  6
CONTINUOUS
  0
LAYER
  5
10F
330
2
100
AcDbSymbolTableRecord
100
AcDbLayerTableRecord
  2
214
 70
     0
 62
   214
  6
CONTINUOUS
  0
LAYER
  5
110
330
2
100
AcDbSymbolTableRecord
100
AcDbLayerTableRecord
  2
215
 70
     0
 62
   215
  6
CONTINUOUS
  0
LAYER
  5
111
330
2
100
AcDbSymbolTableRecord
100
AcDbLayerTableRecord
  2
216
 70
     0
 62
   216
  6
CONTINUOUS
  0
LAYER
  5
112
330
2
100
AcDbSymbolTableRecord
100
AcDbLayerTableRecord
  2
217
 70
     0
 62
   217
  6
CONTINUOUS
  0
LAYER
  5
113
330
2
100
AcDbSymbolTableRecord
100
AcDbLayerTableRecord
  2
218
 70
     0
 62
   218
  6
CONTINUOUS
  0
LAYER
  5
114
330
2
100
AcDbSymbolTableRecord
100
AcDbLayerTableRecord
  2
219
 70
     0
 62
   219
  6
CONTINUOUS
  0
LAYER
  5
115
330
2
100
AcDbSymbolTableRecord
100
AcDbLayerTableRecord
  2
220
 70
     0
 62
   220
  6
CONTINUOUS
  0
LAYER
  5
116
330
2
100
AcDbSymbolTableRecord
100
AcDbLayerTableRecord
  2
221
 70
     0
 62
   221
  6
CONTINUOUS
  0
LAYER
  5
117
330
2
100
AcDbSymbolTableRecord
100
AcDbLayerTableRecord
  2
222
 70
     0
 62
   222
  6
CONTINUOUS
  0
LAYER
  5
118
330
2
100
AcDbSymbolTableRecord
100
AcDbLayerTableRecord
  2
223
 70
     0
 62
   223
  6
CONTINUOUS
  0
LAYER
  5
119
330
2
100
AcDbSymbolTableRecord
100
AcDbLayerTableRecord
  2
224
 70
     0
 62
   224
  6
CONTINUOUS
  0
LAYER
  5
11A
330
2
100
AcDbSymbolTableRecord
100
AcDbLayerTableRecord
  2
225
 70
     0
 62
   225
  6
CONTINUOUS
  0
LAYER
  5
11B
330
2
100
AcDbSymbolTableRecord
100
AcDbLayerTableRecord
  2
226
 70
     0
 62
   226
  6
CONTINUOUS
  0
LAYER
  5
11C
330
2
100
AcDbSymbolTableRecord
100
AcDbLayerTableRecord
  2
227
 70
     0
 62
   227
  6
CONTINUOUS
  0
LAYER
  5
11D
330
2
100
AcDbSymbolTableRecord
100
AcDbLayerTableRecord
  2
228
 70
     0
 62
   228
  6
CONTINUOUS
  0
LAYER
  5
11E
330
2
100
AcDbSymbolTableRecord
100
AcDbLayerTableRecord
  2
229
 70
     0
 62
   229
  6
CONTINUOUS
  0
LAYER
  5
11F
330
2
100
AcDbSymbolTableRecord
100
AcDbLayerTableRecord
  2
230
 70
     0
 62
   230
  6
CONTINUOUS
  0
LAYER
  5
120
330
2
100
AcDbSymbolTableRecord
100
AcDbLayerTableRecord
  2
231
 70
     0
 62
   231
  6
CONTINUOUS
  0
LAYER
  5
121
330
2
100
AcDbSymbolTableRecord
100
AcDbLayerTableRecord
  2
232
 70
     0
 62
   232
  6
CONTINUOUS
  0
LAYER
  5
122
330
2
100
AcDbSymbolTableRecord
100
AcDbLayerTableRecord
  2
233
 70
     0
 62
   233
  6
CONTINUOUS
  0
LAYER
  5
123
330
2
100
AcDbSymbolTableRecord
100
AcDbLayerTableRecord
  2
234
 70
     0
 62
   234
  6
CONTINUOUS
  0
LAYER
  5
124
330
2
100
AcDbSymbolTableRecord
100
AcDbLayerTableRecord
  2
235
 70
     0
 62
   235
  6
CONTINUOUS
  0
LAYER
  5
125
330
2
100
AcDbSymbolTableRecord
100
AcDbLayerTableRecord
  2
236
 70
     0
 62
   236
  6
CONTINUOUS
  0
LAYER
  5
126
330
2
100
AcDbSymbolTableRecord
100
AcDbLayerTableRecord
  2
237
 70
     0
 62
   237
  6
CONTINUOUS
  0
LAYER
  5
127
330
2
100
AcDbSymbolTableRecord
100
AcDbLayerTableRecord
  2
238
 70
     0
 62
   238
  6
CONTINUOUS
  0
LAYER
  5
128
330
2
100
AcDbSymbolTableRecord
100
AcDbLayerTableRecord
  2
239
 70
     0
 62
   239
  6
CONTINUOUS
  0
LAYER
  5
129
330
2
100
AcDbSymbolTableRecord
100
AcDbLayerTableRecord
  2
240
 70
     0
 62
   240
  6
CONTINUOUS
  0
LAYER
  5
12A
330
2
100
AcDbSymbolTableRecord
100
AcDbLayerTableRecord
  2
241
 70
     0
 62
   241
  6
CONTINUOUS
  0
LAYER
  5
12B
330
2
100
AcDbSymbolTableRecord
100
AcDbLayerTableRecord
  2
242
 70
     0
 62
   242
  6
CONTINUOUS
  0
LAYER
  5
12C
330
2
100
AcDbSymbolTableRecord
100
AcDbLayerTableRecord
  2
243
 70
     0
 62
   243
  6
CONTINUOUS
  0
LAYER
  5
12D
330
2
100
AcDbSymbolTableRecord
100
AcDbLayerTableRecord
  2
244
 70
     0
 62
   244
  6
CONTINUOUS
  0
LAYER
  5
12E
330
2
100
AcDbSymbolTableRecord
100
AcDbLayerTableRecord
  2
245
 70
     0
 62
   245
  6
CONTINUOUS
  0
LAYER
  5
12F
330
2
100
AcDbSymbolTableRecord
100
AcDbLayerTableRecord
  2
246
 70
     0
 62
   246
  6
CONTINUOUS
  0
LAYER
  5
130
330
2
100
AcDbSymbolTableRecord
100
AcDbLayerTableRecord
  2
247
 70
     0
 62
   247
  6
CONTINUOUS
  0
LAYER
  5
131
330
2
100
AcDbSymbolTableRecord
100
AcDbLayerTableRecord
  2
248
 70
     0
 62
   248
  6
CONTINUOUS
  0
LAYER
  5
132
330
2
100
AcDbSymbolTableRecord
100
AcDbLayerTableRecord
  2
249
 70
     0
 62
   249
  6
CONTINUOUS
  0
LAYER
  5
133
330
2
100
AcDbSymbolTableRecord
100
AcDbLayerTableRecord
  2
250
 70
     0
 62
   250
  6
CONTINUOUS
  0
LAYER
  5
134
330
2
100
AcDbSymbolTableRecord
100
AcDbLayerTableRecord
  2
251
 70
     0
 62
   251
  6
CONTINUOUS
  0
LAYER
  5
135
330
2
100
AcDbSymbolTableRecord
100
AcDbLayerTableRecord
  2
252
 70
     0
 62
   252
  6
CONTINUOUS
  0
LAYER
  5
136
330
2
100
AcDbSymbolTableRecord
100
AcDbLayerTableRecord
  2
253
 70
     0
 62
   253
  6
CONTINUOUS
  0
LAYER
  5
137
330
2
100
AcDbSymbolTableRecord
100
AcDbLayerTableRecord
  2
254
 70
     0
 62
   254
  6
CONTINUOUS
  0
LAYER
  5
138
330
2
100
AcDbSymbolTableRecord
100
AcDbLayerTableRecord
  2
255
 70
     0
 62
   255
  6
CONTINUOUS
  0
ENDTAB
  0
TABLE
  2
STYLE
  5
3
330
0
100
AcDbSymbolTable
 70
     1
  0
STYLE
  5
11
330
3
100
AcDbSymbolTableRecord
100
AcDbTextStyleTableRecord
  2
STANDARD
 70
     0
 40
0.0
 41
1.0
 50
0.0
 71
     0
 42
0.2
  3
monotxt
  4

  0
ENDTAB
  0
TABLE
  2
VIEW
  5
6
330
0
100
AcDbSymbolTable
 70
     0
  0
ENDTAB
  0
TABLE
  2
UCS
  5
7
330
0
100
AcDbSymbolTable
 70
     0
  0
ENDTAB
  0
TABLE
  2
APPID
  5
9
330
0
100
AcDbSymbolTable
 70
     1
  0
APPID
  5
12
330
9
100
AcDbSymbolTableRecord
100
AcDbRegAppTableRecord
  2
ACAD
 70
     0
  0
ENDTAB
  0
TABLE
  2
DIMSTYLE
  5
A
330
0
100
AcDbSymbolTable
 70
     1
  0
DIMSTYLE
105
2BEB
330
A
100
AcDbSymbolTableRecord
100
AcDbDimStyleTableRecord
  2
STANDARD
 70
     0
  3

  4

  5

  6

  7

 40
1.0
 41
0.18
 42
0.0625
 43
0.38
 44
0.18
 45
0.0
 46
0.0
 47
0.0
 48
0.0
140
0.18
141
0.09
142
0.0
143
25.4
144
1.0
145
0.0
146
1.0
147
0.09
 71
     0
 72
     0
 73
     1
 74
     1
 75
     0
 76
     0
 77
     0
 78
     0
170
     0
171
     2
172
     0
173
     0
174
     0
175
     0
176
     0
177
     0
178
     0
270
     2
271
     4
272
     4
273
     2
274
     2
340
11
275
     0
280
     0
281
     0
282
     0
283
     1
284
     0
285
     0
286
     0
287
     3
288
     0
  0
ENDTAB
  0
TABLE
  2
BLOCK_RECORD
  5
1
330
0
100
AcDbSymbolTable
 70
     0
  0
BLOCK_RECORD
  5
1E
102
{ACAD_XDICTIONARY
360
313F
102
}
330
1
100
AcDbSymbolTableRecord
100
AcDbBlockTableRecord
  2
*MODEL_SPACE
  0
BLOCK_RECORD
  5
1A
102
{ACAD_XDICTIONARY
360
313D
102
}
330
1
100
AcDbSymbolTableRecord
100
AcDbBlockTableRecord
  2
*PAPER_SPACE
  0
ENDTAB
  0
ENDSEC
  0
SECTION
  2
BLOCKS
  0
BLOCK
  5
13B
330
1E
100
AcDbEntity
  8
0
100
AcDbBlockBegin
  2
*MODEL_SPACE
 70
     0
 10
0.0
 20
0.0
 30
0.0
  3
*MODEL_SPACE
  1

  0
ENDBLK
  5
13C
330
1E
100
AcDbEntity
  8
0
100
AcDbBlockEnd
  0
BLOCK
  5
139
330
1A
100
AcDbEntity
 67
     1
  8
0
100
AcDbBlockBegin
  2
*PAPER_SPACE
 70
     0
 10
0.0
 20
0.0
 30
0.0
  3
*PAPER_SPACE
  1

  0
ENDBLK
  5
13A
330
1A
100
AcDbEntity
 67
     1
  8
0
100
AcDbBlockEnd
  0
ENDSEC
  0
SECTION
  2
ENTITIES
  0
LINE
  5
13E
330
1E
100
AcDbEntity
  8
7
100
AcDbLine
 10
4.133858267716535
 20
7.591535433070866
 30
0.0
 11
3.958661417322834
 21
7.591535433070866
 31
0.0
  0
LINE
  5
13F
330
1E
100
AcDbEntity
  8
7
100
AcDbLine
 10
4.768700787401574
 20
7.591535433070866
 30
0.0
 11
4.593503937007874
 21
7.591535433070866
 31
0.0
  0
LINE
  5
140
330
1E
100
AcDbEntity
  8
7
100
AcDbLine
 10
5.346456692913385
 20
8.530511811023622
 30
0.0
 11
5.346456692913385
 21
7.36023622047244
 31
0.0
  0
LINE
  5
141
330
1E
100
AcDbEntity
  8
7
100
AcDbLine
 10
5.346456692913385
 20
9.126968503937007
 30
0.0
 11
5.346456692913385
 21
8.770669291338581
 31
0.0
  0
LINE
  5
15A
330
1E
100
AcDbEntity
  8
7
100
AcDbLine
 10
5.344488188976377
 20
7.36023622047244
 30
0.0
 11
5.344488188976377
 21
9.125
 31
0.0
  0
LINE
  5
161
330
1E
100
AcDbEntity
  8
7
100
AcDbLine
 10
5.346456692913385
 20
8.770669291338581
 30
0.0
 11
5.346456692913385
 21
8.530511811023622
 31
0.0
  0
LINE
  5
162
330
1E
100
AcDbEntity
  8
7
100
AcDbLine
 10
5.344488188976377
 20
9.125
 30
0.0
 11
5.346456692913385
 21
9.126968503937007
 31
0.0
  0
LINE
  5
163
330
1E
100
AcDbEntity
  8
7
100
AcDbLine
 10
5.346456692913385
 20
7.358267716535433
 30
0.0
 11
5.344488188976377
 21
7.36023622047244
 31
0.0
  0
LINE
  5
164
330
1E
100
AcDbEntity
  8
7
100
AcDbLine
 10
5.346456692913385
 20
7.36023622047244
 30
0.0
 11
5.346456692913385
 21
7.358267716535433
 31
0.0
  0
LINE
  5
16F
330
1E
100
AcDbEntity
  8
7
100
AcDbLine
 10
5.208661417322834
 20
8.130905511811024
 30
0.0
 11
5.211614173228346
 21
8.133858267716535
 31
0.0
  0
LINE
  5
170
330
1E
100
AcDbEntity
  8
7
100
AcDbLine
 10
5.208661417322834
 20
8.130905511811024
 30
0.0
 11
5.208661417322834
 21
7.978346456692912
 31
0.0
  0
LINE
  5
171
330
1E
100
AcDbEntity
  8
7
100
AcDbLine
 10
5.211614173228346
 20
7.975393700787401
 30
0.0
 11
5.208661417322834
 21
7.978346456692912
 31
0.0
  0
LINE
  5
172
330
1E
100
AcDbEntity
  8
7
100
AcDbLine
 10
5.211614173228346
 20
8.133858267716535
 30
0.0
 11
5.211614173228346
 21
7.975393700787401
 31
0.0
  0
LINE
  5
19F
330
1E
100
AcDbEntity
  8
7
100
AcDbLine
 10
5.245078740157479
 20
7.260826771653542
 30
0.0
 11
5.247047244094487
 21
7.257874015748031
 31
0.0
  0
LINE
  5
1A9
330
1E
100
AcDbEntity
  8
7
100
AcDbLine
 10
3.575787401574802
 20
8.718503937007874
 30
0.0
 11
3.57283464566929
 21
8.721456692913385
 31
0.0
  0
LINE
  5
1AF
330
1E
100
AcDbEntity
  8
7
100
AcDbLine
 10
3.580708661417322
 20
8.729330708661416
 30
0.0
 11
3.583661417322834
 21
8.726377952755905
 31
0.0
  0
LINE
  5
1B5
330
1E
100
AcDbEntity
  8
7
100
AcDbLine
 10
3.583661417322834
 20
8.726377952755905
 30
0.0
 11
3.635826771653542
 21
8.726377952755905
 31
0.0
  0
LINE
  5
1B6
330
1E
100
AcDbEntity
  8
7
100
AcDbLine
 10
3.638779527559054
 20
8.723425196850392
 30
0.0
 11
3.635826771653542
 21
8.726377952755905
 31
0.0
  0
LINE
  5
1BC
330
1E
100
AcDbEntity
  8
7
100
AcDbLine
 10
5.140748031496062
 20
8.726377952755905
 30
0.0
 11
5.088582677165353
 21
8.726377952755905
 31
0.0
  0
LINE
  5
1BD
330
1E
100
AcDbEntity
  8
7
100
AcDbLine
 10
5.143700787401574
 20
8.729330708661416
 30
0.0
 11
5.140748031496062
 21
8.726377952755905
 31
0.0
  0
LINE
  5
1BE
330
1E
100
AcDbEntity
  8
7
100
AcDbLine
 10
3.580708661417322
 20
8.729330708661416
 30
0.0
 11
5.143700787401574
 21
8.729330708661416
 31
0.0
  0
LINE
  5
1DF
330
1E
100
AcDbEntity
  8
7
100
AcDbLine
 10
4.285433070866141
 20
9.036417322834644
 30
0.0
 11
4.281496062992125
 21
9.009842519685038
 31
0.0
  0
LINE
  5
241
330
1E
100
AcDbEntity
  8
7
100
AcDbLine
 10
3.64271653543307
 20
9.18011811023622
 30
0.0
 11
3.646653543307086
 21
9.187007874015748
 31
0.0
  0
LINE
  5
24A
330
1E
100
AcDbEntity
  8
7
100
AcDbLine
 10
3.377952755905512
 20
9.126968503937007
 30
0.0
 11
3.377952755905512
 21
8.770669291338581
 31
0.0
  0
LINE
  5
250
330
1E
100
AcDbEntity
  8
7
100
AcDbLine
 10
3.379921259842519
 20
9.125
 30
0.0
 11
3.383858267716535
 21
9.150590551181101
 31
0.0
  0
LINE
  5
265
330
1E
100
AcDbEntity
  8
7
100
AcDbLine
 10
3.413385826771652
 20
9.146653543307087
 30
0.0
 11
3.410433070866141
 21
9.125
 31
0.0
  0
LINE
  5
266
330
1E
100
AcDbEntity
  8
7
100
AcDbLine
 10
3.379921259842519
 20
9.125
 30
0.0
 11
3.377952755905512
 21
9.126968503937007
 31
0.0
  0
LINE
  5
267
330
1E
100
AcDbEntity
  8
7
100
AcDbLine
 10
3.477362204724409
 20
9.227362204724409
 30
0.0
 11
3.480314960629921
 21
9.225393700787401
 31
0.0
  0
LINE
  5
271
330
1E
100
AcDbEntity
  8
7
100
AcDbLine
 10
3.64271653543307
 20
8.839566929133857
 30
0.0
 11
3.64271653543307
 21
9.181102362204724
 31
0.0
  0
LINE
  5
272
330
1E
100
AcDbEntity
  8
7
100
AcDbLine
 10
3.64271653543307
 20
8.840551181102361
 30
0.0
 11
3.64271653543307
 21
9.18011811023622
 31
0.0
  0
LINE
  5
273
330
1E
100
AcDbEntity
  8
7
100
AcDbLine
 10
3.69783464566929
 20
9.188976377952755
 30
0.0
 11
3.69783464566929
 21
8.831692913385825
 31
0.0
  0
LINE
  5
274
330
1E
100
AcDbEntity
  8
7
100
AcDbLine
 10
3.693897637795275
 20
9.189960629921259
 30
0.0
 11
3.69783464566929
 21
9.188976377952755
 31
0.0
  0
LINE
  5
275
330
1E
100
AcDbEntity
  8
7
100
AcDbLine
 10
3.69783464566929
 20
8.831692913385825
 30
0.0
 11
3.693897637795275
 21
8.830708661417322
 31
0.0
  0
LINE
  5
276
330
1E
100
AcDbEntity
  8
7
100
AcDbLine
 10
3.653543307086613
 20
9.189960629921259
 30
0.0
 11
3.693897637795275
 21
9.189960629921259
 31
0.0
  0
LINE
  5
277
330
1E
100
AcDbEntity
  8
7
100
AcDbLine
 10
3.693897637795275
 20
8.830708661417322
 30
0.0
 11
3.653543307086613
 21
8.830708661417322
 31
0.0
  0
LINE
  5
27D
330
1E
100
AcDbEntity
  8
7
100
AcDbLine
 10
5.071850393700787
 20
8.829724409448818
 30
0.0
 11
5.070866141732283
 21
8.830708661417322
 31
0.0
  0
LINE
  5
283
330
1E
100
AcDbEntity
  8
7
100
AcDbLine
 10
5.081692913385826
 20
8.840551181102361
 30
0.0
 11
5.08267716535433
 21
8.839566929133857
 31
0.0
  0
LINE
  5
289
330
1E
100
AcDbEntity
  8
7
100
AcDbLine
 10
5.08267716535433
 20
9.181102362204724
 30
0.0
 11
5.081692913385826
 21
9.18011811023622
 31
0.0
  0
LINE
  5
28F
330
1E
100
AcDbEntity
  8
7
100
AcDbLine
 10
5.070866141732283
 20
9.189960629921259
 30
0.0
 11
5.071850393700787
 21
9.190944881889762
 31
0.0
  0
LINE
  5
290
330
1E
100
AcDbEntity
  8
7
100
AcDbLine
 10
3.480314960629921
 20
9.225393700787401
 30
0.0
 11
5.245078740157479
 21
9.225393700787401
 31
0.0
  0
LINE
  5
291
330
1E
100
AcDbEntity
  8
7
100
AcDbLine
 10
5.247047244094487
 20
9.227362204724409
 30
0.0
 11
3.477362204724409
 21
9.227362204724409
 31
0.0
  0
LINE
  5
292
330
1E
100
AcDbEntity
  8
7
100
AcDbLine
 10
5.245078740157479
 20
9.194881889763779
 30
0.0
 11
3.480314960629921
 21
9.194881889763779
 31
0.0
  0
LINE
  5
293
330
1E
100
AcDbEntity
  8
7
100
AcDbLine
 10
3.69783464566929
 20
8.831692913385825
 30
0.0
 11
5.02755905511811
 21
8.831692913385825
 31
0.0
  0
LINE
  5
294
330
1E
100
AcDbEntity
  8
7
100
AcDbLine
 10
5.02755905511811
 20
9.188976377952755
 30
0.0
 11
5.02755905511811
 21
8.831692913385825
 31
0.0
  0
LINE
  5
295
330
1E
100
AcDbEntity
  8
7
100
AcDbLine
 10
5.02755905511811
 20
9.188976377952755
 30
0.0
 11
3.69783464566929
 21
9.188976377952755
 31
0.0
  0
LINE
  5
296
330
1E
100
AcDbEntity
  8
7
100
AcDbLine
 10
5.071850393700787
 20
8.829724409448818
 30
0.0
 11
3.65255905511811
 21
8.829724409448818
 31
0.0
  0
LINE
  5
297
330
1E
100
AcDbEntity
  8
7
100
AcDbLine
 10
5.030511811023621
 20
8.830708661417322
 30
0.0
 11
5.070866141732283
 21
8.830708661417322
 31
0.0
  0
LINE
  5
298
330
1E
100
AcDbEntity
  8
7
100
AcDbLine
 10
5.02755905511811
 20
8.831692913385825
 30
0.0
 11
5.030511811023621
 21
8.830708661417322
 31
0.0
  0
LINE
  5
299
330
1E
100
AcDbEntity
  8
7
100
AcDbLine
 10
5.08267716535433
 20
8.839566929133857
 30
0.0
 11
5.08267716535433
 21
9.181102362204724
 31
0.0
  0
LINE
  5
29A
330
1E
100
AcDbEntity
  8
7
100
AcDbLine
 10
5.081692913385826
 20
8.840551181102361
 30
0.0
 11
5.081692913385826
 21
9.18011811023622
 31
0.0
  0
LINE
  5
29B
330
1E
100
AcDbEntity
  8
7
100
AcDbLine
 10
5.070866141732283
 20
9.189960629921259
 30
0.0
 11
5.030511811023621
 21
9.189960629921259
 31
0.0
  0
LINE
  5
29C
330
1E
100
AcDbEntity
  8
7
100
AcDbLine
 10
3.65255905511811
 20
9.190944881889762
 30
0.0
 11
5.071850393700787
 21
9.190944881889762
 31
0.0
  0
LINE
  5
29D
330
1E
100
AcDbEntity
  8
7
100
AcDbLine
 10
5.030511811023621
 20
9.189960629921259
 30
0.0
 11
5.02755905511811
 21
9.188976377952755
 31
0.0
  0
LINE
  5
29E
330
1E
100
AcDbEntity
  8
7
100
AcDbLine
 10
5.148622047244094
 20
8.718503937007874
 30
0.0
 11
5.148622047244094
 21
8.249015748031496
 31
0.0
  0
LINE
  5
29F
330
1E
100
AcDbEntity
  8
7
100
AcDbLine
 10
5.088582677165353
 20
8.726377952755905
 30
0.0
 11
5.088582677165353
 21
8.722440944881888
 31
0.0
  0
LINE
  5
2A0
330
1E
100
AcDbEntity
  8
7
100
AcDbLine
 10
5.144685039370078
 20
8.249015748031496
 30
0.0
 11
5.148622047244094
 21
8.249015748031496
 31
0.0
  0
LINE
  5
2A1
330
1E
100
AcDbEntity
  8
7
100
AcDbLine
 10
5.085629921259842
 20
8.722440944881888
 30
0.0
 11
5.085629921259842
 21
8.723425196850392
 31
0.0
  0
LINE
  5
2A2
330
1E
100
AcDbEntity
  8
7
100
AcDbLine
 10
3.638779527559054
 20
8.722440944881888
 30
0.0
 11
3.638779527559054
 21
8.723425196850392
 31
0.0
  0
LINE
  5
2A3
330
1E
100
AcDbEntity
  8
7
100
AcDbLine
 10
3.635826771653542
 20
8.726377952755905
 30
0.0
 11
3.635826771653542
 21
8.722440944881888
 31
0.0
  0
LINE
  5
2A4
330
1E
100
AcDbEntity
  8
7
100
AcDbLine
 10
3.575787401574802
 20
8.718503937007874
 30
0.0
 11
3.575787401574802
 21
8.249015748031496
 31
0.0
  0
LINE
  5
2A5
330
1E
100
AcDbEntity
  8
7
100
AcDbLine
 10
3.58267716535433
 20
8.249015748031496
 30
0.0
 11
3.575787401574802
 21
8.249015748031496
 31
0.0
  0
LINE
  5
2A6
330
1E
100
AcDbEntity
  8
7
100
AcDbLine
 10
3.57283464566929
 20
8.150590551181101
 30
0.0
 11
3.57283464566929
 21
8.721456692913385
 31
0.0
  0
LINE
  5
2A7
330
1E
100
AcDbEntity
  8
7
100
AcDbLine
 10
3.57283464566929
 20
8.150590551181101
 30
0.0
 11
3.575787401574802
 21
8.146653543307087
 31
0.0
  0
LINE
  5
2A8
330
1E
100
AcDbEntity
  8
7
100
AcDbLine
 10
3.575787401574802
 20
8.249015748031496
 30
0.0
 11
3.575787401574802
 21
8.146653543307087
 31
0.0
  0
LINE
  5
2A9
330
1E
100
AcDbEntity
  8
7
100
AcDbLine
 10
5.151574803149605
 20
8.150590551181101
 30
0.0
 11
5.151574803149605
 21
8.721456692913385
 31
0.0
  0
LINE
  5
2AA
330
1E
100
AcDbEntity
  8
7
100
AcDbLine
 10
5.148622047244094
 20
8.249015748031496
 30
0.0
 11
5.148622047244094
 21
8.146653543307087
 31
0.0
  0
LINE
  5
2AB
330
1E
100
AcDbEntity
  8
7
100
AcDbLine
 10
5.151574803149605
 20
8.150590551181101
 30
0.0
 11
5.148622047244094
 21
8.146653543307087
 31
0.0
  0
LINE
  5
2AC
330
1E
100
AcDbEntity
  8
7
100
AcDbLine
 10
3.480314960629921
 20
7.290354330708661
 30
0.0
 11
5.245078740157479
 21
7.290354330708661
 31
0.0
  0
LINE
  5
2B6
330
1E
100
AcDbEntity
  8
7
100
AcDbLine
 10
5.159448818897637
 20
8.14271653543307
 30
0.0
 11
5.203740157480314
 21
8.14271653543307
 31
0.0
  0
LINE
  5
2B7
330
1E
100
AcDbEntity
  8
7
100
AcDbLine
 10
5.159448818897637
 20
7.96751968503937
 30
0.0
 11
5.203740157480314
 21
7.96751968503937
 31
0.0
  0
LINE
  5
2BD
330
1E
100
AcDbEntity
  8
7
100
AcDbLine
 10
5.151574803149605
 20
7.38779527559055
 30
0.0
 11
5.151574803149605
 21
7.959645669291338
 31
0.0
  0
LINE
  5
2C3
330
1E
100
AcDbEntity
  8
7
100
AcDbLine
 10
3.580708661417322
 20
7.379921259842518
 30
0.0
 11
5.143700787401574
 21
7.379921259842518
 31
0.0
  0
LINE
  5
2D2
330
1E
100
AcDbEntity
  8
7
100
AcDbLine
 10
3.51279527559055
 20
8.133858267716535
 30
0.0
 11
3.51279527559055
 21
7.975393700787401
 31
0.0
  0
LINE
  5
2D8
330
1E
100
AcDbEntity
  8
7
100
AcDbLine
 10
3.564960629921259
 20
8.14271653543307
 30
0.0
 11
3.520669291338582
 21
8.14271653543307
 31
0.0
  0
LINE
  5
2D9
330
1E
100
AcDbEntity
  8
7
100
AcDbLine
 10
3.564960629921259
 20
8.14271653543307
 30
0.0
 11
3.570866141732283
 21
8.144685039370077
 31
0.0
  0
LINE
  5
2DA
330
1E
100
AcDbEntity
  8
7
100
AcDbLine
 10
3.570866141732283
 20
8.144685039370077
 30
0.0
 11
3.57283464566929
 21
8.150590551181101
 31
0.0
  0
LINE
  5
2EA
330
1E
100
AcDbEntity
  8
7
100
AcDbLine
 10
3.377952755905512
 20
7.36023622047244
 30
0.0
 11
3.377952755905512
 21
7.358267716535433
 31
0.0
  0
LINE
  5
2EB
330
1E
100
AcDbEntity
  8
7
100
AcDbLine
 10
3.377952755905512
 20
8.770669291338581
 30
0.0
 11
3.377952755905512
 21
8.530511811023622
 31
0.0
  0
LINE
  5
2EC
330
1E
100
AcDbEntity
  8
7
100
AcDbLine
 10
3.574803149606299
 20
7.389763779527559
 30
0.0
 11
3.574803149606299
 21
7.486220472440944
 31
0.0
  0
LINE
  5
2F2
330
1E
100
AcDbEntity
  8
7
100
AcDbLine
 10
3.701771653543306
 20
7.381889763779527
 30
0.0
 11
3.58267716535433
 21
7.381889763779527
 31
0.0
  0
LINE
  5
2FA
330
1E
100
AcDbEntity
  8
7
100
AcDbLine
 10
3.379921259842519
 20
7.36023622047244
 30
0.0
 11
3.379921259842519
 21
9.125
 31
0.0
  0
LINE
  5
2FB
330
1E
100
AcDbEntity
  8
7
100
AcDbLine
 10
3.377952755905512
 20
8.530511811023622
 30
0.0
 11
3.377952755905512
 21
7.36023622047244
 31
0.0
  0
LINE
  5
2FC
330
1E
100
AcDbEntity
  8
7
100
AcDbLine
 10
3.377952755905512
 20
7.358267716535433
 30
0.0
 11
3.379921259842519
 21
7.36023622047244
 31
0.0
  0
LINE
  5
302
330
1E
100
AcDbEntity
  8
7
100
AcDbLine
 10
3.575787401574802
 20
7.861220472440944
 30
0.0
 11
3.58267716535433
 21
7.866141732283464
 31
0.0
  0
LINE
  5
303
330
1E
100
AcDbEntity
  8
7
100
AcDbLine
 10
3.58267716535433
 20
7.861220472440944
 30
0.0
 11
3.575787401574802
 21
7.861220472440944
 31
0.0
  0
LINE
  5
304
330
1E
100
AcDbEntity
  8
7
100
AcDbLine
 10
3.575787401574802
 20
8.249015748031496
 30
0.0
 11
3.58267716535433
 21
8.243110236220472
 31
0.0
  0
LINE
  5
305
330
1E
100
AcDbEntity
  8
7
100
AcDbLine
 10
5.148622047244094
 20
8.249015748031496
 30
0.0
 11
5.144685039370078
 21
8.246062992125983
 31
0.0
  0
LINE
  5
314
330
1E
100
AcDbEntity
  8
7
100
AcDbLine
 10
3.567913385826771
 20
7.970472440944881
 30
0.0
 11
3.523622047244094
 21
7.970472440944881
 31
0.0
  0
LINE
  5
31D
330
1E
100
AcDbEntity
  8
7
100
AcDbLine
 10
5.156496062992125
 20
7.970472440944881
 30
0.0
 11
5.200787401574802
 21
7.970472440944881
 31
0.0
  0
LINE
  5
31E
330
1E
100
AcDbEntity
  8
7
100
AcDbLine
 10
5.156496062992125
 20
8.138779527559055
 30
0.0
 11
5.200787401574802
 21
8.138779527559055
 31
0.0
  0
LINE
  5
324
330
1E
100
AcDbEntity
  8
7
100
AcDbLine
 10
5.148622047244094
 20
7.96259842519685
 30
0.0
 11
5.148622047244094
 21
8.146653543307087
 31
0.0
  0
LINE
  5
32F
330
1E
100
AcDbEntity
  8
7
100
AcDbLine
 10
5.148622047244094
 20
7.96259842519685
 30
0.0
 11
5.148622047244094
 21
7.861220472440944
 31
0.0
  0
LINE
  5
330
330
1E
100
AcDbEntity
  8
7
100
AcDbLine
 10
3.708661417322834
 20
7.384842519685038
 30
0.0
 11
5.015748031496062
 21
7.384842519685038
 31
0.0
  0
LINE
  5
346
330
1E
100
AcDbEntity
  8
7
100
AcDbLine
 10
3.567913385826771
 20
8.138779527559055
 30
0.0
 11
3.564960629921259
 21
8.14271653543307
 31
0.0
  0
LINE
  5
347
330
1E
100
AcDbEntity
  8
7
100
AcDbLine
 10
3.520669291338582
 20
8.14271653543307
 30
0.0
 11
3.523622047244094
 21
8.138779527559055
 31
0.0
  0
LINE
  5
348
330
1E
100
AcDbEntity
  8
7
100
AcDbLine
 10
3.515748031496062
 20
8.130905511811024
 30
0.0
 11
3.51279527559055
 21
8.133858267716535
 31
0.0
  0
LINE
  5
349
330
1E
100
AcDbEntity
  8
7
100
AcDbLine
 10
3.51279527559055
 20
7.975393700787401
 30
0.0
 11
3.515748031496062
 21
7.978346456692912
 31
0.0
  0
LINE
  5
34A
330
1E
100
AcDbEntity
  8
7
100
AcDbLine
 10
3.523622047244094
 20
7.970472440944881
 30
0.0
 11
3.520669291338582
 21
7.96751968503937
 31
0.0
  0
LINE
  5
34B
330
1E
100
AcDbEntity
  8
7
100
AcDbLine
 10
3.564960629921259
 20
7.96751968503937
 30
0.0
 11
3.567913385826771
 21
7.970472440944881
 31
0.0
  0
LINE
  5
34C
330
1E
100
AcDbEntity
  8
7
100
AcDbLine
 10
3.575787401574802
 20
7.96259842519685
 30
0.0
 11
3.57283464566929
 21
7.959645669291338
 31
0.0
  0
LINE
  5
34D
330
1E
100
AcDbEntity
  8
7
100
AcDbLine
 10
5.159448818897637
 20
7.96751968503937
 30
0.0
 11
5.156496062992125
 21
7.970472440944881
 31
0.0
  0
LINE
  5
34E
330
1E
100
AcDbEntity
  8
7
100
AcDbLine
 10
5.148622047244094
 20
7.96259842519685
 30
0.0
 11
5.151574803149605
 21
7.959645669291338
 31
0.0
  0
LINE
  5
34F
330
1E
100
AcDbEntity
  8
7
100
AcDbLine
 10
5.156496062992125
 20
8.138779527559055
 30
0.0
 11
5.159448818897637
 21
8.14271653543307
 31
0.0
  0
LINE
  5
350
330
1E
100
AcDbEntity
  8
7
100
AcDbLine
 10
5.150590551181101
 20
7.486220472440944
 30
0.0
 11
5.148622047244094
 21
7.486220472440944
 31
0.0
  0
LINE
  5
351
330
1E
100
AcDbEntity
  8
7
100
AcDbLine
 10
5.151574803149605
 20
7.38779527559055
 30
0.0
 11
5.150590551181101
 21
7.389763779527559
 31
0.0
  0
LINE
  5
352
330
1E
100
AcDbEntity
  8
7
100
AcDbLine
 10
5.141732283464566
 20
7.381889763779527
 30
0.0
 11
5.143700787401574
 21
7.379921259842518
 31
0.0
  0
LINE
  5
353
330
1E
100
AcDbEntity
  8
7
100
AcDbLine
 10
5.015748031496062
 20
7.384842519685038
 30
0.0
 11
5.023622047244094
 21
7.381889763779527
 31
0.0
  0
LINE
  5
354
330
1E
100
AcDbEntity
  8
7
100
AcDbLine
 10
3.708661417322834
 20
7.384842519685038
 30
0.0
 11
3.701771653543306
 21
7.381889763779527
 31
0.0
  0
LINE
  5
355
330
1E
100
AcDbEntity
  8
7
100
AcDbLine
 10
3.58267716535433
 20
7.381889763779527
 30
0.0
 11
3.580708661417322
 21
7.379921259842518
 31
0.0
  0
LINE
  5
356
330
1E
100
AcDbEntity
  8
7
100
AcDbLine
 10
3.57283464566929
 20
7.38779527559055
 30
0.0
 11
3.574803149606299
 21
7.389763779527559
 31
0.0
  0
LINE
  5
357
330
1E
100
AcDbEntity
  8
7
100
AcDbLine
 10
3.574803149606299
 20
7.486220472440944
 30
0.0
 11
3.575787401574802
 21
7.486220472440944
 31
0.0
  0
LINE
  5
358
330
1E
100
AcDbEntity
  8
7
100
AcDbLine
 10
3.480314960629921
 20
7.260826771653542
 30
0.0
 11
3.477362204724409
 21
7.257874015748031
 31
0.0
  0
LINE
  5
359
330
1E
100
AcDbEntity
  8
7
100
AcDbLine
 10
3.939960629921259
 20
7.455708661417322
 30
0.0
 11
3.940944881889763
 21
7.455708661417322
 31
0.0
  0
LINE
  5
35A
330
1E
100
AcDbEntity
  8
7
100
AcDbLine
 10
3.942913385826771
 20
7.474409448818898
 30
0.0
 11
3.940944881889763
 21
7.455708661417322
 31
0.0
  0
LINE
  5
35B
330
1E
100
AcDbEntity
  8
7
100
AcDbLine
 10
4.15255905511811
 20
7.455708661417322
 30
0.0
 11
4.150590551181101
 21
7.474409448818898
 31
0.0
  0
LINE
  5
35C
330
1E
100
AcDbEntity
  8
7
100
AcDbLine
 10
4.574803149606299
 20
7.455708661417322
 30
0.0
 11
4.575787401574802
 21
7.455708661417322
 31
0.0
  0
LINE
  5
35D
330
1E
100
AcDbEntity
  8
7
100
AcDbLine
 10
4.577755905511811
 20
7.474409448818898
 30
0.0
 11
4.575787401574802
 21
7.455708661417322
 31
0.0
  0
LINE
  5
35E
330
1E
100
AcDbEntity
  8
7
100
AcDbLine
 10
4.787401574803149
 20
7.455708661417322
 30
0.0
 11
4.785433070866141
 21
7.474409448818898
 31
0.0
  0
LINE
  5
364
330
1E
100
AcDbEntity
  8
7
100
AcDbLine
 10
3.940944881889763
 20
7.474409448818898
 30
0.0
 11
3.939960629921259
 21
7.459645669291338
 31
0.0
  0
LINE
  5
365
330
1E
100
AcDbEntity
  8
7
100
AcDbLine
 10
3.932086614173227
 20
7.38779527559055
 30
0.0
 11
3.937992125984251
 21
7.474409448818898
 31
0.0
  0
LINE
  5
366
330
1E
100
AcDbEntity
  8
7
100
AcDbLine
 10
3.932086614173227
 20
7.38779527559055
 30
0.0
 11
3.933070866141732
 21
7.38779527559055
 31
0.0
  0
LINE
  5
367
330
1E
100
AcDbEntity
  8
7
100
AcDbLine
 10
3.943897637795275
 20
7.474409448818898
 30
0.0
 11
3.933070866141732
 21
7.38779527559055
 31
0.0
  0
LINE
  5
36D
330
1E
100
AcDbEntity
  8
7
100
AcDbLine
 10
4.15255905511811
 20
7.459645669291338
 30
0.0
 11
4.151574803149605
 21
7.474409448818898
 31
0.0
  0
LINE
  5
373
330
1E
100
AcDbEntity
  8
7
100
AcDbLine
 10
4.159448818897637
 20
7.38779527559055
 30
0.0
 11
4.148622047244094
 21
7.474409448818898
 31
0.0
  0
LINE
  5
374
330
1E
100
AcDbEntity
  8
7
100
AcDbLine
 10
4.159448818897637
 20
7.38779527559055
 30
0.0
 11
4.160433070866141
 21
7.38779527559055
 31
0.0
  0
LINE
  5
375
330
1E
100
AcDbEntity
  8
7
100
AcDbLine
 10
4.155511811023621
 20
7.474409448818898
 30
0.0
 11
4.160433070866141
 21
7.38779527559055
 31
0.0
  0
LINE
  5
376
330
1E
100
AcDbEntity
  8
7
100
AcDbLine
 10
3.937992125984251
 20
7.474409448818898
 30
0.0
 11
4.155511811023621
 21
7.474409448818898
 31
0.0
  0
LINE
  5
377
330
1E
100
AcDbEntity
  8
7
100
AcDbLine
 10
4.787401574803149
 20
7.459645669291338
 30
0.0
 11
4.786417322834645
 21
7.474409448818898
 31
0.0
  0
LINE
  5
37D
330
1E
100
AcDbEntity
  8
7
100
AcDbLine
 10
4.784448818897637
 20
7.474409448818898
 30
0.0
 11
4.794291338582676
 21
7.38779527559055
 31
0.0
  0
LINE
  5
37E
330
1E
100
AcDbEntity
  8
7
100
AcDbLine
 10
4.79527559055118
 20
7.38779527559055
 30
0.0
 11
4.794291338582676
 21
7.38779527559055
 31
0.0
  0
LINE
  5
37F
330
1E
100
AcDbEntity
  8
7
100
AcDbLine
 10
4.79527559055118
 20
7.38779527559055
 30
0.0
 11
4.790354330708661
 21
7.474409448818898
 31
0.0
  0
LINE
  5
380
330
1E
100
AcDbEntity
  8
7
100
AcDbLine
 10
4.575787401574802
 20
7.474409448818898
 30
0.0
 11
4.574803149606299
 21
7.459645669291338
 31
0.0
  0
LINE
  5
381
330
1E
100
AcDbEntity
  8
7
100
AcDbLine
 10
4.57283464566929
 20
7.474409448818898
 30
0.0
 11
4.566929133858267
 21
7.38779527559055
 31
0.0
  0
LINE
  5
382
330
1E
100
AcDbEntity
  8
7
100
AcDbLine
 10
4.567913385826771
 20
7.38779527559055
 30
0.0
 11
4.566929133858267
 21
7.38779527559055
 31
0.0
  0
LINE
  5
383
330
1E
100
AcDbEntity
  8
7
100
AcDbLine
 10
4.567913385826771
 20
7.38779527559055
 30
0.0
 11
4.578740157480314
 21
7.474409448818898
 31
0.0
  0
LINE
  5
389
330
1E
100
AcDbEntity
  8
7
100
AcDbLine
 10
4.790354330708661
 20
7.474409448818898
 30
0.0
 11
4.57283464566929
 21
7.474409448818898
 31
0.0
  0
LINE
  5
38A
330
1E
100
AcDbEntity
  8
7
100
AcDbLine
 10
4.435039370078739
 20
8.001968503937007
 30
0.0
 11
4.577755905511811
 21
8.001968503937007
 31
0.0
  0
LINE
  5
38B
330
1E
100
AcDbEntity
  8
7
100
AcDbLine
 10
4.292322834645668
 20
8.001968503937007
 30
0.0
 11
4.149606299212598
 21
8.001968503937007
 31
0.0
  0
LINE
  5
38C
330
1E
100
AcDbEntity
  8
7
100
AcDbLine
 10
5.144685039370078
 20
7.38779527559055
 30
0.0
 11
4.79527559055118
 21
7.38779527559055
 31
0.0
  0
LINE
  5
38D
330
1E
100
AcDbEntity
  8
7
100
AcDbLine
 10
4.794291338582676
 20
7.38779527559055
 30
0.0
 11
4.567913385826771
 21
7.38779527559055
 31
0.0
  0
LINE
  5
38E
330
1E
100
AcDbEntity
  8
7
100
AcDbLine
 10
4.566929133858267
 20
7.38779527559055
 30
0.0
 11
4.160433070866141
 21
7.38779527559055
 31
0.0
  0
LINE
  5
38F
330
1E
100
AcDbEntity
  8
7
100
AcDbLine
 10
3.933070866141732
 20
7.38779527559055
 30
0.0
 11
4.159448818897637
 21
7.38779527559055
 31
0.0
  0
LINE
  5
390
330
1E
100
AcDbEntity
  8
7
100
AcDbLine
 10
3.932086614173227
 20
7.38779527559055
 30
0.0
 11
3.58267716535433
 21
7.38779527559055
 31
0.0
  0
LINE
  5
391
330
1E
100
AcDbEntity
  8
7
100
AcDbLine
 10
4.995078740157479
 20
7.583661417322835
 30
0.0
 11
4.994094488188975
 21
7.57283464566929
 31
0.0
  0
LINE
  5
392
330
1E
100
AcDbEntity
  8
7
100
AcDbLine
 10
3.733267716535432
 20
7.57283464566929
 30
0.0
 11
4.994094488188975
 21
7.57283464566929
 31
0.0
  0
LINE
  5
393
330
1E
100
AcDbEntity
  8
7
100
AcDbLine
 10
3.733267716535432
 20
7.57283464566929
 30
0.0
 11
3.733267716535432
 21
7.583661417322835
 31
0.0
  0
LINE
  5
394
330
1E
100
AcDbEntity
  8
7
100
AcDbLine
 10
3.6751968503937
 20
7.583661417322835
 30
0.0
 11
3.733267716535432
 21
7.583661417322835
 31
0.0
  0
LINE
  5
39E
330
1E
100
AcDbEntity
  8
7
100
AcDbLine
 10
3.58267716535433
 20
7.38779527559055
 30
0.0
 11
3.58267716535433
 21
7.714566929133857
 31
0.0
  0
LINE
  5
39F
330
1E
100
AcDbEntity
  8
7
100
AcDbLine
 10
5.144685039370078
 20
7.714566929133857
 30
0.0
 11
5.144685039370078
 21
7.38779527559055
 31
0.0
  0
LINE
  5
3A9
330
1E
100
AcDbEntity
  8
7
100
AcDbLine
 10
4.995078740157479
 20
7.583661417322835
 30
0.0
 11
5.052165354330708
 21
7.583661417322835
 31
0.0
  0
LINE
  5
3AA
330
1E
100
AcDbEntity
  8
7
100
AcDbLine
 10
4.995078740157479
 20
7.954724409448818
 30
0.0
 11
4.995078740157479
 21
7.583661417322835
 31
0.0
  0
LINE
  5
3B1
330
1E
100
AcDbEntity
  8
7
100
AcDbLine
 10
3.733267716535432
 20
7.954724409448818
 30
0.0
 11
3.733267716535432
 21
7.583661417322835
 31
0.0
  0
LINE
  5
3B2
330
1E
100
AcDbEntity
  8
7
100
AcDbLine
 10
3.8001968503937
 20
7.954724409448818
 30
0.0
 11
3.733267716535432
 21
7.954724409448818
 31
0.0
  0
LINE
  5
3B3
330
1E
100
AcDbEntity
  8
7
100
AcDbLine
 10
3.8001968503937
 20
8.001968503937007
 30
0.0
 11
3.8001968503937
 21
7.954724409448818
 31
0.0
  0
LINE
  5
3B4
330
1E
100
AcDbEntity
  8
7
100
AcDbLine
 10
3.942913385826771
 20
8.001968503937007
 30
0.0
 11
3.8001968503937
 21
8.001968503937007
 31
0.0
  0
LINE
  5
3B5
330
1E
100
AcDbEntity
  8
7
100
AcDbLine
 10
3.942913385826771
 20
8.001968503937007
 30
0.0
 11
4.149606299212598
 21
8.001968503937007
 31
0.0
  0
LINE
  5
3BB
330
1E
100
AcDbEntity
  8
7
100
AcDbLine
 10
4.435039370078739
 20
8.001968503937007
 30
0.0
 11
4.435039370078739
 21
7.954724409448818
 31
0.0
  0
LINE
  5
3BC
330
1E
100
AcDbEntity
  8
7
100
AcDbLine
 10
4.784448818897637
 20
8.001968503937007
 30
0.0
 11
4.577755905511811
 21
8.001968503937007
 31
0.0
  0
LINE
  5
3C2
330
1E
100
AcDbEntity
  8
7
100
AcDbLine
 10
4.995078740157479
 20
7.954724409448818
 30
0.0
 11
4.927165354330708
 21
7.954724409448818
 31
0.0
  0
LINE
  5
3C3
330
1E
100
AcDbEntity
  8
7
100
AcDbLine
 10
4.291338582677164
 20
7.997047244094487
 30
0.0
 11
4.291338582677164
 21
8.001968503937007
 31
0.0
  0
LINE
  5
3C4
330
1E
100
AcDbEntity
  8
7
100
AcDbLine
 10
4.292322834645668
 20
7.954724409448818
 30
0.0
 11
4.291338582677164
 21
7.997047244094487
 31
0.0
  0
LINE
  5
3C5
330
1E
100
AcDbEntity
  8
7
100
AcDbLine
 10
4.435039370078739
 20
7.954724409448818
 30
0.0
 11
4.436023622047243
 21
7.997047244094487
 31
0.0
  0
LINE
  5
3C6
330
1E
100
AcDbEntity
  8
7
100
AcDbLine
 10
4.436023622047243
 20
7.997047244094487
 30
0.0
 11
4.436023622047243
 21
8.001968503937007
 31
0.0
  0
LINE
  5
3DC
330
1E
100
AcDbEntity
  8
7
100
AcDbLine
 10
5.144685039370078
 20
8.143700787401574
 30
0.0
 11
5.144685039370078
 21
7.714566929133857
 31
0.0
  0
LINE
  5
3DD
330
1E
100
AcDbEntity
  8
7
100
AcDbLine
 10
5.144685039370078
 20
8.722440944881888
 30
0.0
 11
5.144685039370078
 21
8.143700787401574
 31
0.0
  0
LINE
  5
3E3
330
1E
100
AcDbEntity
  8
7
100
AcDbLine
 10
3.6751968503937
 20
8.722440944881888
 30
0.0
 11
3.6751968503937
 21
8.208661417322835
 31
0.0
  0
LINE
  5
3F3
330
1E
100
AcDbEntity
  8
7
100
AcDbLine
 10
3.58759842519685
 20
8.164370078740157
 30
0.0
 11
3.58267716535433
 21
8.143700787401574
 31
0.0
  0
LINE
  5
414
330
1E
100
AcDbEntity
  8
7
100
AcDbLine
 10
3.733267716535432
 20
7.620078740157479
 30
0.0
 11
3.733267716535432
 21
7.584645669291338
 31
0.0
  0
LINE
  5
415
330
1E
100
AcDbEntity
  8
7
100
AcDbLine
 10
3.733267716535432
 20
7.620078740157479
 30
0.0
 11
3.734251968503937
 21
7.664370078740157
 31
0.0
  0
LINE
  5
416
330
1E
100
AcDbEntity
  8
7
100
AcDbLine
 10
3.734251968503937
 20
7.954724409448818
 30
0.0
 11
3.734251968503937
 21
7.664370078740157
 31
0.0
  0
LINE
  5
417
330
1E
100
AcDbEntity
  8
7
100
AcDbLine
 10
3.801181102362204
 20
7.997047244094487
 30
0.0
 11
3.8001968503937
 21
7.954724409448818
 31
0.0
  0
LINE
  5
41D
330
1E
100
AcDbEntity
  8
7
100
AcDbLine
 10
3.801181102362204
 20
7.997047244094487
 30
0.0
 11
3.801181102362204
 21
8.001968503937007
 31
0.0
  0
LINE
  5
423
330
1E
100
AcDbEntity
  8
7
100
AcDbLine
 10
4.995078740157479
 20
7.620078740157479
 30
0.0
 11
4.994094488188975
 21
7.664370078740157
 31
0.0
  0
LINE
  5
424
330
1E
100
AcDbEntity
  8
7
100
AcDbLine
 10
4.995078740157479
 20
7.584645669291338
 30
0.0
 11
4.995078740157479
 21
7.620078740157479
 31
0.0
  0
LINE
  5
425
330
1E
100
AcDbEntity
  8
7
100
AcDbLine
 10
4.994094488188975
 20
7.954724409448818
 30
0.0
 11
4.994094488188975
 21
7.664370078740157
 31
0.0
  0
LINE
  5
432
330
1E
100
AcDbEntity
  8
7
100
AcDbLine
 10
4.768700787401574
 20
7.588582677165353
 30
0.0
 11
4.593503937007874
 21
7.588582677165353
 31
0.0
  0
LINE
  5
43F
330
1E
100
AcDbEntity
  8
7
100
AcDbLine
 10
4.133858267716535
 20
7.588582677165353
 30
0.0
 11
3.958661417322834
 21
7.588582677165353
 31
0.0
  0
LINE
  5
287A
330
1E
100
AcDbEntity
  8
7
100
AcDbLine
 10
7.149606299212598
 20
8.840551181102361
 30
0.0
 11
7.26771653543307
 21
8.851377952755905
 31
0.0
  0
LINE
  5
2880
330
1E
100
AcDbEntity
  8
7
100
AcDbLine
 10
7.306102362204724
 20
8.294291338582675
 30
0.0
 11
7.385826771653542
 21
8.293307086614172
 31
0.0
  0
LINE
  5
2881
330
1E
100
AcDbEntity
  8
7
100
AcDbLine
 10
7.306102362204724
 20
7.814960629921259
 30
0.0
 11
7.306102362204724
 21
8.294291338582675
 31
0.0
  0
LINE
  5
2882
330
1E
100
AcDbEntity
  8
7
100
AcDbLine
 10
7.306102362204724
 20
7.814960629921259
 30
0.0
 11
7.385826771653542
 21
7.816929133858266
 31
0.0
  0
LINE
  5
2883
330
1E
100
AcDbEntity
  8
7
100
AcDbLine
 10
7.385826771653542
 20
8.293307086614172
 30
0.0
 11
7.385826771653542
 21
7.816929133858266
 31
0.0
  0
LINE
  5
2884
330
1E
100
AcDbEntity
  8
7
100
AcDbLine
 10
7.306102362204724
 20
8.294291338582675
 30
0.0
 11
7.140748031496062
 21
8.297244094488188
 31
0.0
  0
LINE
  5
2885
330
1E
100
AcDbEntity
  8
7
100
AcDbLine
 10
7.306102362204724
 20
7.814960629921259
 30
0.0
 11
7.140748031496062
 21
7.812007874015748
 31
0.0
  0
LINE
  5
2886
330
1E
100
AcDbEntity
  8
7
100
AcDbLine
 10
7.294291338582676
 20
8.294291338582675
 30
0.0
 11
7.294291338582676
 21
8.769685039370077
 31
0.0
  0
LINE
  5
2887
330
1E
100
AcDbEntity
  8
7
100
AcDbLine
 10
7.294291338582676
 20
7.814960629921259
 30
0.0
 11
7.294291338582676
 21
7.486220472440944
 31
0.0
  0
LINE
  5
2888
330
1E
100
AcDbEntity
  8
7
100
AcDbLine
 10
7.140748031496062
 20
7.362204724409448
 30
0.0
 11
7.140748031496062
 21
8.529527559055118
 31
0.0
  0
LINE
  5
288F
330
1E
100
AcDbEntity
  8
7
100
AcDbLine
 10
7.140748031496062
 20
8.771653543307087
 30
0.0
 11
7.140748031496062
 21
9.125
 31
0.0
  0
LINE
  5
2890
330
1E
100
AcDbEntity
  8
7
100
AcDbLine
 10
7.140748031496062
 20
8.771653543307087
 30
0.0
 11
7.11515748031496
 21
8.770669291338581
 31
0.0
  0
LINE
  5
2891
330
1E
100
AcDbEntity
  8
7
100
AcDbLine
 10
7.11515748031496
 20
9.126968503937007
 30
0.0
 11
7.140748031496062
 21
9.125
 31
0.0
  0
LINE
  5
2892
330
1E
100
AcDbEntity
  8
7
100
AcDbLine
 10
7.11515748031496
 20
9.126968503937007
 30
0.0
 11
7.11515748031496
 21
8.770669291338581
 31
0.0
  0
LINE
  5
28AB
330
1E
100
AcDbEntity
  8
7
100
AcDbLine
 10
7.051181102362204
 20
7.36023622047244
 30
0.0
 11
7.051181102362204
 21
9.125
 31
0.0
  0
LINE
  5
28B2
330
1E
100
AcDbEntity
  8
7
100
AcDbLine
 10
7.140748031496062
 20
9.214566929133857
 30
0.0
 11
7.140748031496062
 21
9.125
 31
0.0
  0
LINE
  5
28B3
330
1E
100
AcDbEntity
  8
7
100
AcDbLine
 10
7.140748031496062
 20
9.214566929133857
 30
0.0
 11
7.11515748031496
 21
9.215551181102361
 31
0.0
  0
LINE
  5
28B4
330
1E
100
AcDbEntity
  8
7
100
AcDbLine
 10
7.263779527559054
 20
8.98523622047244
 30
0.0
 11
7.140748031496062
 21
8.983267716535433
 31
0.0
  0
LINE
  5
28BA
330
1E
100
AcDbEntity
  8
7
100
AcDbLine
 10
7.11515748031496
 20
8.770669291338581
 30
0.0
 11
7.11515748031496
 21
8.530511811023622
 31
0.0
  0
LINE
  5
28BB
330
1E
100
AcDbEntity
  8
7
100
AcDbLine
 10
7.051181102362204
 20
9.125
 30
0.0
 11
7.11515748031496
 21
9.126968503937007
 31
0.0
  0
LINE
  5
28BC
330
1E
100
AcDbEntity
  8
7
100
AcDbLine
 10
7.11515748031496
 20
7.358267716535433
 30
0.0
 11
7.051181102362204
 21
7.36023622047244
 31
0.0
  0
LINE
  5
28BD
330
1E
100
AcDbEntity
  8
7
100
AcDbLine
 10
7.11515748031496
 20
7.36023622047244
 30
0.0
 11
7.11515748031496
 21
7.358267716535433
 31
0.0
  0
LINE
  5
28CF
330
1E
100
AcDbEntity
  8
7
100
AcDbLine
 10
7.022637795275589
 20
7.294291338582675
 30
0.0
 11
7.022637795275589
 21
7.290354330708661
 31
0.0
  0
LINE
  5
28DE
330
1E
100
AcDbEntity
  8
7
100
AcDbLine
 10
7.294291338582676
 20
8.769685039370077
 30
0.0
 11
7.140748031496062
 21
8.77263779527559
 31
0.0
  0
LINE
  5
28DF
330
1E
100
AcDbEntity
  8
7
100
AcDbLine
 10
7.294291338582676
 20
7.486220472440944
 30
0.0
 11
7.140748031496062
 21
7.486220472440944
 31
0.0
  0
LINE
  5
28EA
330
1E
100
AcDbEntity
  8
7
100
AcDbLine
 10
7.385826771653542
 20
8.293307086614172
 30
0.0
 11
7.385826771653542
 21
8.768700787401574
 31
0.0
  0
LINE
  5
28EB
330
1E
100
AcDbEntity
  8
7
100
AcDbLine
 10
7.385826771653542
 20
8.768700787401574
 30
0.0
 11
7.294291338582676
 21
8.769685039370077
 31
0.0
  0
LINE
  5
2909
330
1E
100
AcDbEntity
  8
7
100
AcDbLine
 10
7.149606299212598
 20
9.154527559055118
 30
0.0
 11
7.26771653543307
 21
9.152559055118109
 31
0.0
  0
LINE
  5
290A
330
1E
100
AcDbEntity
  8
7
100
AcDbLine
 10
7.149606299212598
 20
9.154527559055118
 30
0.0
 11
7.147637795275589
 21
9.154527559055118
 31
0.0
  0
LINE
  5
2912
330
1E
100
AcDbEntity
  8
7
100
AcDbLine
 10
7.581692913385826
 20
7.812992125984251
 30
0.0
 11
7.466535433070865
 21
7.814960629921259
 31
0.0
  0
LINE
  5
291B
330
1E
100
AcDbEntity
  8
7
100
AcDbLine
 10
7.466535433070865
 20
7.53543307086614
 30
0.0
 11
7.440944881889763
 21
7.573818897637794
 31
0.0
  0
LINE
  5
291C
330
1E
100
AcDbEntity
  8
7
100
AcDbLine
 10
7.466535433070865
 20
7.53543307086614
 30
0.0
 11
7.474409448818897
 21
7.530511811023622
 31
0.0
  0
LINE
  5
291D
330
1E
100
AcDbEntity
  8
7
100
AcDbLine
 10
7.581692913385826
 20
7.530511811023622
 30
0.0
 11
7.474409448818897
 21
7.530511811023622
 31
0.0
  0
LINE
  5
291E
330
1E
100
AcDbEntity
  8
7
100
AcDbLine
 10
7.581692913385826
 20
7.530511811023622
 30
0.0
 11
7.581692913385826
 21
7.812992125984251
 31
0.0
  0
LINE
  5
291F
330
1E
100
AcDbEntity
  8
7
100
AcDbLine
 10
7.466535433070865
 20
7.814960629921259
 30
0.0
 11
7.385826771653542
 21
7.816929133858266
 31
0.0
  0
LINE
  5
2920
330
1E
100
AcDbEntity
  8
7
100
AcDbLine
 10
7.294291338582676
 20
7.486220472440944
 30
0.0
 11
7.32283464566929
 21
7.486220472440944
 31
0.0
  0
LINE
  5
2921
330
1E
100
AcDbEntity
  8
7
100
AcDbLine
 10
7.325787401574802
 20
7.577755905511811
 30
0.0
 11
7.32283464566929
 21
7.486220472440944
 31
0.0
  0
LINE
  5
2927
330
1E
100
AcDbEntity
  8
7
100
AcDbLine
 10
7.318897637795275
 20
7.384842519685038
 30
0.0
 11
7.317913385826771
 21
7.348425196850392
 31
0.0
  0
LINE
  5
2928
330
1E
100
AcDbEntity
  8
7
100
AcDbLine
 10
7.11515748031496
 20
7.344488188976377
 30
0.0
 11
7.317913385826771
 21
7.348425196850392
 31
0.0
  0
LINE
  5
2929
330
1E
100
AcDbEntity
  8
7
100
AcDbLine
 10
7.318897637795275
 20
7.384842519685038
 30
0.0
 11
7.140748031496062
 21
7.381889763779527
 31
0.0
  0
LINE
  5
292A
330
1E
100
AcDbEntity
  8
7
100
AcDbLine
 10
7.317913385826771
 20
7.340551181102361
 30
0.0
 11
7.11515748031496
 21
7.336614173228346
 31
0.0
  0
LINE
  5
292B
330
1E
100
AcDbEntity
  8
7
100
AcDbLine
 10
7.140748031496062
 20
7.38779527559055
 30
0.0
 11
7.209645669291337
 21
7.38779527559055
 31
0.0
  0
LINE
  5
292C
330
1E
100
AcDbEntity
  8
7
100
AcDbLine
 10
7.022637795275589
 20
7.583661417322835
 30
0.0
 11
6.52755905511811
 21
8.078740157480314
 31
0.0
  0
LINE
  5
292D
330
1E
100
AcDbEntity
  8
7
100
AcDbLine
 10
7.209645669291337
 20
7.38779527559055
 30
0.0
 11
7.209645669291337
 21
7.486220472440944
 31
0.0
  0
LINE
  5
292E
330
1E
100
AcDbEntity
  8
7
100
AcDbLine
 10
6.593503937007874
 20
8.143700787401574
 30
0.0
 11
7.022637795275589
 21
7.714566929133857
 31
0.0
  0
LINE
  5
292F
330
1E
100
AcDbEntity
  8
7
100
AcDbLine
 10
7.022637795275589
 20
8.588582677165353
 30
0.0
 11
6.593503937007874
 21
8.143700787401574
 31
0.0
  0
LINE
  5
2930
330
1E
100
AcDbEntity
  8
7
100
AcDbLine
 10
6.526574803149605
 20
8.208661417322835
 30
0.0
 11
7.022637795275589
 21
8.722440944881888
 31
0.0
  0
LINE
  5
2949
330
1E
100
AcDbEntity
  8
7
100
AcDbLine
 10
7.391732283464566
 20
7.89271653543307
 30
0.0
 11
7.385826771653542
 21
7.89271653543307
 31
0.0
  0
LINE
  5
294A
330
1E
100
AcDbEntity
  8
7
100
AcDbLine
 10
7.54035433070866
 20
7.89271653543307
 30
0.0
 11
7.410433070866141
 21
7.89271653543307
 31
0.0
  0
LINE
  5
294B
330
1E
100
AcDbEntity
  8
7
100
AcDbLine
 10
7.391732283464566
 20
7.89271653543307
 30
0.0
 11
7.410433070866141
 21
7.89271653543307
 31
0.0
  0
LINE
  5
294C
330
1E
100
AcDbEntity
  8
7
100
AcDbLine
 10
7.410433070866141
 20
8.21751968503937
 30
0.0
 11
7.391732283464566
 21
8.21751968503937
 31
0.0
  0
LINE
  5
294D
330
1E
100
AcDbEntity
  8
7
100
AcDbLine
 10
7.410433070866141
 20
8.21751968503937
 30
0.0
 11
7.54035433070866
 21
8.21751968503937
 31
0.0
  0
LINE
  5
294E
330
1E
100
AcDbEntity
  8
7
100
AcDbLine
 10
7.385826771653542
 20
8.21751968503937
 30
0.0
 11
7.391732283464566
 21
8.21751968503937
 31
0.0
  0
LINE
  5
294F
330
1E
100
AcDbEntity
  8
7
100
AcDbLine
 10
7.54035433070866
 20
8.21751968503937
 30
0.0
 11
7.54035433070866
 21
7.89271653543307
 31
0.0
  0
LINE
  5
2950
330
1E
100
AcDbEntity
  8
7
100
AcDbLine
 10
7.391732283464566
 20
8.21751968503937
 30
0.0
 11
7.391732283464566
 21
7.89271653543307
 31
0.0
  0
LINE
  5
2951
330
1E
100
AcDbEntity
  8
7
100
AcDbLine
 10
7.410433070866141
 20
7.89271653543307
 30
0.0
 11
7.410433070866141
 21
8.21751968503937
 31
0.0
  0
LINE
  5
2C98
330
1E
100
AcDbEntity
  8
7
100
AcDbLine
 10
6.593503937007874
 20
8.143700787401574
 30
0.0
 11
6.57283464566929
 21
8.124015748031496
 31
0.0
  0
LINE
  5
2C99
330
1E
100
AcDbEntity
  8
7
100
AcDbLine
 10
6.57283464566929
 20
8.124015748031496
 30
0.0
 11
6.554133858267715
 21
8.10531496062992
 31
0.0
  0
LINE
  5
2C9A
330
1E
100
AcDbEntity
  8
7
100
AcDbLine
 10
6.554133858267715
 20
8.10531496062992
 30
0.0
 11
6.540354330708661
 21
8.090551181102361
 31
0.0
  0
LINE
  5
2C9B
330
1E
100
AcDbEntity
  8
7
100
AcDbLine
 10
6.540354330708661
 20
8.090551181102361
 30
0.0
 11
6.530511811023621
 21
8.081692913385825
 31
0.0
  0
LINE
  5
2C9C
330
1E
100
AcDbEntity
  8
7
100
AcDbLine
 10
6.530511811023621
 20
8.081692913385825
 30
0.0
 11
6.52755905511811
 21
8.078740157480314
 31
0.0
  0
LINE
  5
2C9D
330
1E
100
AcDbEntity
  8
7
100
AcDbLine
 10
6.593503937007874
 20
8.143700787401574
 30
0.0
 11
6.57283464566929
 21
8.164370078740157
 31
0.0
  0
LINE
  5
2C9E
330
1E
100
AcDbEntity
  8
7
100
AcDbLine
 10
6.57283464566929
 20
8.164370078740157
 30
0.0
 11
6.554133858267715
 21
8.182086614173227
 31
0.0
  0
LINE
  5
2C9F
330
1E
100
AcDbEntity
  8
7
100
AcDbLine
 10
6.554133858267715
 20
8.182086614173227
 30
0.0
 11
6.539370078740157
 21
8.195866141732283
 31
0.0
  0
LINE
  5
2CA0
330
1E
100
AcDbEntity
  8
7
100
AcDbLine
 10
6.539370078740157
 20
8.195866141732283
 30
0.0
 11
6.529527559055117
 21
8.205708661417322
 31
0.0
  0
LINE
  5
2CA1
330
1E
100
AcDbEntity
  8
7
100
AcDbLine
 10
6.529527559055117
 20
8.205708661417322
 30
0.0
 11
6.526574803149605
 21
8.208661417322835
 31
0.0
  0
LINE
  5
2CA2
330
1E
100
AcDbEntity
  8
7
100
AcDbLine
 10
6.526574803149605
 20
8.207677165354329
 30
0.0
 11
6.510826771653542
 21
8.185039370078738
 31
0.0
  0
LINE
  5
2CA3
330
1E
100
AcDbEntity
  8
7
100
AcDbLine
 10
6.510826771653542
 20
8.185039370078738
 30
0.0
 11
6.501968503937007
 21
8.157480314960629
 31
0.0
  0
LINE
  5
2CA4
330
1E
100
AcDbEntity
  8
7
100
AcDbLine
 10
6.501968503937007
 20
8.157480314960629
 30
0.0
 11
6.501968503937007
 21
8.128937007874014
 31
0.0
  0
LINE
  5
2CA5
330
1E
100
AcDbEntity
  8
7
100
AcDbLine
 10
6.501968503937007
 20
8.128937007874014
 30
0.0
 11
6.510826771653542
 21
8.101377952755905
 31
0.0
  0
LINE
  5
2CA6
330
1E
100
AcDbEntity
  8
7
100
AcDbLine
 10
6.510826771653542
 20
8.101377952755905
 30
0.0
 11
6.528543307086613
 21
8.078740157480314
 31
0.0
  0
LINE
  5
2CA7
330
1E
100
AcDbEntity
  8
7
100
AcDbLine
 10
7.317913385826771
 20
7.340551181102361
 30
0.0
 11
7.317913385826771
 21
7.34251968503937
 31
0.0
  0
LINE
  5
2CA8
330
1E
100
AcDbEntity
  8
7
100
AcDbLine
 10
7.317913385826771
 20
7.34251968503937
 30
0.0
 11
7.317913385826771
 21
7.348425196850392
 31
0.0
  0
LINE
  5
2CA9
330
1E
100
AcDbEntity
  8
7
100
AcDbLine
 10
7.325787401574802
 20
7.577755905511811
 30
0.0
 11
7.331692913385825
 21
7.591535433070866
 31
0.0
  0
LINE
  5
2CAA
330
1E
100
AcDbEntity
  8
7
100
AcDbLine
 10
7.331692913385825
 20
7.591535433070866
 30
0.0
 11
7.345472440944881
 21
7.597440944881888
 31
0.0
  0
LINE
  5
2CAB
330
1E
100
AcDbEntity
  8
7
100
AcDbLine
 10
7.345472440944881
 20
7.597440944881888
 30
0.0
 11
7.410433070866141
 21
7.597440944881888
 31
0.0
  0
LINE
  5
2CAC
330
1E
100
AcDbEntity
  8
7
100
AcDbLine
 10
7.410433070866141
 20
7.597440944881888
 30
0.0
 11
7.428149606299212
 21
7.588582677165353
 31
0.0
  0
LINE
  5
2CAD
330
1E
100
AcDbEntity
  8
7
100
AcDbLine
 10
7.428149606299212
 20
7.588582677165353
 30
0.0
 11
7.440944881889763
 21
7.573818897637794
 31
0.0
  0
LINE
  5
2CAE
330
1E
100
AcDbEntity
  8
7
100
AcDbLine
 10
7.147637795275589
 20
9.154527559055118
 30
0.0
 11
7.146653543307086
 21
9.154527559055118
 31
0.0
  0
LINE
  5
2CAF
330
1E
100
AcDbEntity
  8
7
100
AcDbLine
 10
7.146653543307086
 20
9.154527559055118
 30
0.0
 11
7.143700787401574
 21
9.154527559055118
 31
0.0
  0
LINE
  5
2CB0
330
1E
100
AcDbEntity
  8
7
100
AcDbLine
 10
7.143700787401574
 20
9.154527559055118
 30
0.0
 11
7.141732283464566
 21
9.154527559055118
 31
0.0
  0
LINE
  5
2CB1
330
1E
100
AcDbEntity
  8
7
100
AcDbLine
 10
7.141732283464566
 20
9.154527559055118
 30
0.0
 11
7.140748031496062
 21
9.154527559055118
 31
0.0
  0
LINE
  5
2CB2
330
1E
100
AcDbEntity
  8
7
100
AcDbLine
 10
7.149606299212598
 20
8.983267716535433
 30
0.0
 11
7.149606299212598
 21
8.944881889763779
 31
0.0
  0
LINE
  5
2CB3
330
1E
100
AcDbEntity
  8
7
100
AcDbLine
 10
7.149606299212598
 20
8.944881889763779
 30
0.0
 11
7.149606299212598
 21
8.91043307086614
 31
0.0
  0
LINE
  5
2CB4
330
1E
100
AcDbEntity
  8
7
100
AcDbLine
 10
7.149606299212598
 20
8.91043307086614
 30
0.0
 11
7.149606299212598
 21
8.881889763779527
 31
0.0
  0
LINE
  5
2CB5
330
1E
100
AcDbEntity
  8
7
100
AcDbLine
 10
7.149606299212598
 20
8.881889763779527
 30
0.0
 11
7.149606299212598
 21
8.859251968503937
 31
0.0
  0
LINE
  5
2CB6
330
1E
100
AcDbEntity
  8
7
100
AcDbLine
 10
7.149606299212598
 20
8.859251968503937
 30
0.0
 11
7.149606299212598
 21
8.845472440944881
 31
0.0
  0
LINE
  5
2CB7
330
1E
100
AcDbEntity
  8
7
100
AcDbLine
 10
7.149606299212598
 20
8.845472440944881
 30
0.0
 11
7.149606299212598
 21
8.840551181102361
 31
0.0
  0
LINE
  5
2CB8
330
1E
100
AcDbEntity
  8
7
100
AcDbLine
 10
7.149606299212598
 20
9.154527559055118
 30
0.0
 11
7.149606299212598
 21
9.123031496062992
 31
0.0
  0
LINE
  5
2CB9
330
1E
100
AcDbEntity
  8
7
100
AcDbLine
 10
7.149606299212598
 20
9.123031496062992
 30
0.0
 11
7.149606299212598
 21
9.083661417322835
 31
0.0
  0
LINE
  5
2CBA
330
1E
100
AcDbEntity
  8
7
100
AcDbLine
 10
7.149606299212598
 20
9.083661417322835
 30
0.0
 11
7.149606299212598
 21
9.037401574803149
 31
0.0
  0
LINE
  5
2CBB
330
1E
100
AcDbEntity
  8
7
100
AcDbLine
 10
7.26771653543307
 20
9.152559055118109
 30
0.0
 11
7.26771653543307
 21
9.130905511811024
 31
0.0
  0
LINE
  5
2CBC
330
1E
100
AcDbEntity
  8
7
100
AcDbLine
 10
7.26771653543307
 20
9.130905511811024
 30
0.0
 11
7.26771653543307
 21
9.102362204724409
 31
0.0
  0
LINE
  5
2CBD
330
1E
100
AcDbEntity
  8
7
100
AcDbLine
 10
7.26771653543307
 20
9.102362204724409
 30
0.0
 11
7.26771653543307
 21
9.068897637795275
 31
0.0
  0
LINE
  5
2CBE
330
1E
100
AcDbEntity
  8
7
100
AcDbLine
 10
7.26771653543307
 20
9.068897637795275
 30
0.0
 11
7.26771653543307
 21
9.031496062992125
 31
0.0
  0
LINE
  5
2CBF
330
1E
100
AcDbEntity
  8
7
100
AcDbLine
 10
7.26771653543307
 20
9.031496062992125
 30
0.0
 11
7.26771653543307
 21
8.993110236220472
 31
0.0
  0
LINE
  5
2CC0
330
1E
100
AcDbEntity
  8
7
100
AcDbLine
 10
7.26771653543307
 20
8.993110236220472
 30
0.0
 11
7.26771653543307
 21
8.955708661417322
 31
0.0
  0
LINE
  5
2CC1
330
1E
100
AcDbEntity
  8
7
100
AcDbLine
 10
7.26771653543307
 20
8.955708661417322
 30
0.0
 11
7.26771653543307
 21
8.921259842519685
 31
0.0
  0
LINE
  5
2CC2
330
1E
100
AcDbEntity
  8
7
100
AcDbLine
 10
7.26771653543307
 20
8.921259842519685
 30
0.0
 11
7.26771653543307
 21
8.891732283464566
 31
0.0
  0
LINE
  5
2CC3
330
1E
100
AcDbEntity
  8
7
100
AcDbLine
 10
7.26771653543307
 20
8.891732283464566
 30
0.0
 11
7.26771653543307
 21
8.870078740157479
 31
0.0
  0
LINE
  5
2CC4
330
1E
100
AcDbEntity
  8
7
100
AcDbLine
 10
7.26771653543307
 20
8.870078740157479
 30
0.0
 11
7.26771653543307
 21
8.856299212598424
 31
0.0
  0
LINE
  5
2CC5
330
1E
100
AcDbEntity
  8
7
100
AcDbLine
 10
7.26771653543307
 20
8.856299212598424
 30
0.0
 11
7.26771653543307
 21
8.851377952755905
 31
0.0
  0
LINE
  5
2CC6
330
1E
100
AcDbEntity
  8
7
100
AcDbLine
 10
7.051181102362204
 20
7.260826771653542
 30
0.0
 11
7.11515748031496
 21
7.257874015748031
 31
0.0
  0
LINE
  5
2CC7
330
1E
100
AcDbEntity
  8
7
100
AcDbLine
 10
7.11515748031496
 20
7.257874015748031
 30
0.0
 11
7.11515748031496
 21
7.261811023622046
 31
0.0
  0
LINE
  5
2CC8
330
1E
100
AcDbEntity
  8
7
100
AcDbLine
 10
7.11515748031496
 20
7.261811023622046
 30
0.0
 11
7.11515748031496
 21
7.271653543307087
 31
0.0
  0
LINE
  5
2CC9
330
1E
100
AcDbEntity
  8
7
100
AcDbLine
 10
7.11515748031496
 20
7.271653543307087
 30
0.0
 11
7.11515748031496
 21
7.287401574803149
 31
0.0
  0
LINE
  5
2CCA
330
1E
100
AcDbEntity
  8
7
100
AcDbLine
 10
7.11515748031496
 20
7.287401574803149
 30
0.0
 11
7.11515748031496
 21
7.308070866141731
 31
0.0
  0
LINE
  5
2CCB
330
1E
100
AcDbEntity
  8
7
100
AcDbLine
 10
7.11515748031496
 20
7.308070866141731
 30
0.0
 11
7.11515748031496
 21
7.332677165354329
 31
0.0
  0
LINE
  5
2CCC
330
1E
100
AcDbEntity
  8
7
100
AcDbLine
 10
7.11515748031496
 20
7.332677165354329
 30
0.0
 11
7.11515748031496
 21
7.358267716535433
 31
0.0
  0
LINE
  5
2CCD
330
1E
100
AcDbEntity
  8
7
100
AcDbLine
 10
7.051181102362204
 20
7.260826771653542
 30
0.0
 11
7.051181102362204
 21
7.263779527559055
 31
0.0
  0
LINE
  5
2CCE
330
1E
100
AcDbEntity
  8
7
100
AcDbLine
 10
7.051181102362204
 20
7.263779527559055
 30
0.0
 11
7.051181102362204
 21
7.273622047244094
 31
0.0
  0
LINE
  5
2CCF
330
1E
100
AcDbEntity
  8
7
100
AcDbLine
 10
7.051181102362204
 20
7.273622047244094
 30
0.0
 11
7.051181102362204
 21
7.289370078740157
 31
0.0
  0
LINE
  5
2CD0
330
1E
100
AcDbEntity
  8
7
100
AcDbLine
 10
7.051181102362204
 20
7.289370078740157
 30
0.0
 11
7.051181102362204
 21
7.310039370078738
 31
0.0
  0
LINE
  5
2CD1
330
1E
100
AcDbEntity
  8
7
100
AcDbLine
 10
7.051181102362204
 20
7.310039370078738
 30
0.0
 11
7.051181102362204
 21
7.334645669291338
 31
0.0
  0
LINE
  5
2CD2
330
1E
100
AcDbEntity
  8
7
100
AcDbLine
 10
7.051181102362204
 20
7.334645669291338
 30
0.0
 11
7.051181102362204
 21
7.36023622047244
 31
0.0
  0
LINE
  5
2CD3
330
1E
100
AcDbEntity
  8
7
100
AcDbLine
 10
7.022637795275589
 20
7.290354330708661
 30
0.0
 11
7.030511811023621
 21
7.269685039370077
 31
0.0
  0
LINE
  5
2CD4
330
1E
100
AcDbEntity
  8
7
100
AcDbLine
 10
7.030511811023621
 20
7.269685039370077
 30
0.0
 11
7.051181102362204
 21
7.260826771653542
 31
0.0
  0
LINE
  5
2CD5
330
1E
100
AcDbEntity
  8
7
100
AcDbLine
 10
7.022637795275589
 20
7.36023622047244
 30
0.0
 11
7.022637795275589
 21
7.338582677165353
 31
0.0
  0
LINE
  5
2CD6
330
1E
100
AcDbEntity
  8
7
100
AcDbLine
 10
7.022637795275589
 20
7.338582677165353
 30
0.0
 11
7.022637795275589
 21
7.318897637795275
 31
0.0
  0
LINE
  5
2CD7
330
1E
100
AcDbEntity
  8
7
100
AcDbLine
 10
7.022637795275589
 20
7.318897637795275
 30
0.0
 11
7.022637795275589
 21
7.304133858267716
 31
0.0
  0
LINE
  5
2CD8
330
1E
100
AcDbEntity
  8
7
100
AcDbLine
 10
7.022637795275589
 20
7.304133858267716
 30
0.0
 11
7.022637795275589
 21
7.294291338582675
 31
0.0
  0
LINE
  5
2CD9
330
1E
100
AcDbEntity
  8
7
100
AcDbLine
 10
7.11515748031496
 20
9.126968503937007
 30
0.0
 11
7.11515748031496
 21
9.153543307086613
 31
0.0
  0
LINE
  5
2CDA
330
1E
100
AcDbEntity
  8
7
100
AcDbLine
 10
7.11515748031496
 20
9.153543307086613
 30
0.0
 11
7.11515748031496
 21
9.177165354330707
 31
0.0
  0
LINE
  5
2CDB
330
1E
100
AcDbEntity
  8
7
100
AcDbLine
 10
7.11515748031496
 20
9.177165354330707
 30
0.0
 11
7.11515748031496
 21
9.19783464566929
 31
0.0
  0
LINE
  5
2CDC
330
1E
100
AcDbEntity
  8
7
100
AcDbLine
 10
7.11515748031496
 20
9.19783464566929
 30
0.0
 11
7.11515748031496
 21
9.213582677165353
 31
0.0
  0
LINE
  5
2CDD
330
1E
100
AcDbEntity
  8
7
100
AcDbLine
 10
7.11515748031496
 20
9.213582677165353
 30
0.0
 11
7.11515748031496
 21
9.223425196850392
 31
0.0
  0
LINE
  5
2CDE
330
1E
100
AcDbEntity
  8
7
100
AcDbLine
 10
7.11515748031496
 20
9.223425196850392
 30
0.0
 11
7.11515748031496
 21
9.227362204724409
 31
0.0
  0
LINE
  5
2CDF
330
1E
100
AcDbEntity
  8
7
100
AcDbLine
 10
7.11515748031496
 20
9.227362204724409
 30
0.0
 11
7.051181102362204
 21
9.225393700787401
 31
0.0
  0
LINE
  5
2CE0
330
1E
100
AcDbEntity
  8
7
100
AcDbLine
 10
7.263779527559054
 20
8.98523622047244
 30
0.0
 11
7.263779527559054
 21
9.03543307086614
 31
0.0
  0
LINE
  5
2CE1
330
1E
100
AcDbEntity
  8
7
100
AcDbLine
 10
7.263779527559054
 20
9.03543307086614
 30
0.0
 11
7.140748031496062
 21
9.037401574803149
 31
0.0
  0
LINE
  5
2CE2
330
1E
100
AcDbEntity
  8
7
100
AcDbLine
 10
7.022637795275589
 20
9.125
 30
0.0
 11
7.022637795275589
 21
7.36023622047244
 31
0.0
  0
LINE
  5
2CE3
330
1E
100
AcDbEntity
  8
7
100
AcDbLine
 10
7.022637795275589
 20
7.36023622047244
 30
0.0
 11
7.030511811023621
 21
7.36023622047244
 31
0.0
  0
LINE
  5
2CE4
330
1E
100
AcDbEntity
  8
7
100
AcDbLine
 10
7.030511811023621
 20
7.36023622047244
 30
0.0
 11
7.051181102362204
 21
7.36023622047244
 31
0.0
  0
LINE
  5
2CE5
330
1E
100
AcDbEntity
  8
7
100
AcDbLine
 10
7.051181102362204
 20
9.195866141732283
 30
0.0
 11
7.051181102362204
 21
9.211614173228346
 31
0.0
  0
LINE
  5
2CE6
330
1E
100
AcDbEntity
  8
7
100
AcDbLine
 10
7.051181102362204
 20
9.211614173228346
 30
0.0
 11
7.051181102362204
 21
9.221456692913385
 31
0.0
  0
LINE
  5
2CE7
330
1E
100
AcDbEntity
  8
7
100
AcDbLine
 10
7.051181102362204
 20
9.221456692913385
 30
0.0
 11
7.051181102362204
 21
9.225393700787401
 31
0.0
  0
LINE
  5
2CE8
330
1E
100
AcDbEntity
  8
7
100
AcDbLine
 10
7.022637795275589
 20
9.194881889763779
 30
0.0
 11
7.022637795275589
 21
9.191929133858266
 31
0.0
  0
LINE
  5
2CE9
330
1E
100
AcDbEntity
  8
7
100
AcDbLine
 10
7.022637795275589
 20
9.191929133858266
 30
0.0
 11
7.022637795275589
 21
9.182086614173227
 31
0.0
  0
LINE
  5
2CEA
330
1E
100
AcDbEntity
  8
7
100
AcDbLine
 10
7.022637795275589
 20
9.182086614173227
 30
0.0
 11
7.022637795275589
 21
9.166338582677164
 31
0.0
  0
LINE
  5
2CEB
330
1E
100
AcDbEntity
  8
7
100
AcDbLine
 10
7.022637795275589
 20
9.166338582677164
 30
0.0
 11
7.022637795275589
 21
9.146653543307087
 31
0.0
  0
LINE
  5
2CEC
330
1E
100
AcDbEntity
  8
7
100
AcDbLine
 10
7.022637795275589
 20
9.146653543307087
 30
0.0
 11
7.022637795275589
 21
9.125
 31
0.0
  0
LINE
  5
2CED
330
1E
100
AcDbEntity
  8
7
100
AcDbLine
 10
7.022637795275589
 20
9.125
 30
0.0
 11
7.030511811023621
 21
9.125
 31
0.0
  0
LINE
  5
2CEE
330
1E
100
AcDbEntity
  8
7
100
AcDbLine
 10
7.030511811023621
 20
9.125
 30
0.0
 11
7.051181102362204
 21
9.125
 31
0.0
  0
LINE
  5
2CEF
330
1E
100
AcDbEntity
  8
7
100
AcDbLine
 10
7.051181102362204
 20
9.125
 30
0.0
 11
7.051181102362204
 21
9.150590551181101
 31
0.0
  0
LINE
  5
2CF0
330
1E
100
AcDbEntity
  8
7
100
AcDbLine
 10
7.051181102362204
 20
9.150590551181101
 30
0.0
 11
7.051181102362204
 21
9.1751968503937
 31
0.0
  0
LINE
  5
2CF1
330
1E
100
AcDbEntity
  8
7
100
AcDbLine
 10
7.051181102362204
 20
9.1751968503937
 30
0.0
 11
7.051181102362204
 21
9.195866141732283
 31
0.0
  0
LINE
  5
2CF2
330
1E
100
AcDbEntity
  8
7
100
AcDbLine
 10
7.051181102362204
 20
9.224409448818898
 30
0.0
 11
7.030511811023621
 21
9.215551181102361
 31
0.0
  0
LINE
  5
2CF3
330
1E
100
AcDbEntity
  8
7
100
AcDbLine
 10
7.030511811023621
 20
9.215551181102361
 30
0.0
 11
7.022637795275589
 21
9.194881889763779
 31
0.0
  0
LINE
  5
2CF4
330
1E
100
AcDbEntity
  8
7
100
AcDbLine
 10
7.140748031496062
 20
8.529527559055118
 30
0.0
 11
7.11515748031496
 21
8.530511811023622
 31
0.0
  0
LINE
  5
2CF5
330
1E
100
AcDbEntity
  8
7
100
AcDbLine
 10
7.11515748031496
 20
8.530511811023622
 30
0.0
 11
7.11515748031496
 21
7.36023622047244
 31
0.0
  0
LINE
  5
2CF6
330
1E
100
AcDbEntity
  8
7
100
AcDbLine
 10
7.11515748031496
 20
7.36023622047244
 30
0.0
 11
7.140748031496062
 21
7.362204724409448
 31
0.0
  0
LINE
  5
2CF7
330
1E
100
AcDbEntity
  8
7
100
AcDbLine
 10
7.149606299212598
 20
8.840551181102361
 30
0.0
 11
7.143700787401574
 21
8.83759842519685
 31
0.0
  0
LINE
  5
2CF8
330
1E
100
AcDbEntity
  8
7
100
AcDbLine
 10
7.143700787401574
 20
8.83759842519685
 30
0.0
 11
7.140748031496062
 21
8.830708661417322
 31
0.0
  0
LINE
  5
2FAD
330
1E
100
AcDbEntity
  8
7
100
AcDbLine
 10
4.133858267716535
 20
7.591535433070866
 30
0.0
 11
4.133858267716535
 21
7.590551181102361
 31
0.0
  0
LINE
  5
2FAE
330
1E
100
AcDbEntity
  8
7
100
AcDbLine
 10
4.133858267716535
 20
7.590551181102361
 30
0.0
 11
4.133858267716535
 21
7.588582677165353
 31
0.0
  0
LINE
  5
2FAF
330
1E
100
AcDbEntity
  8
7
100
AcDbLine
 10
4.133858267716535
 20
7.588582677165353
 30
0.0
 11
4.133858267716535
 21
7.57283464566929
 31
0.0
  0
LINE
  5
2FB0
330
1E
100
AcDbEntity
  8
7
100
AcDbLine
 10
3.958661417322834
 20
7.57283464566929
 30
0.0
 11
3.958661417322834
 21
7.588582677165353
 31
0.0
  0
LINE
  5
2FB1
330
1E
100
AcDbEntity
  8
7
100
AcDbLine
 10
3.958661417322834
 20
7.588582677165353
 30
0.0
 11
3.958661417322834
 21
7.590551181102361
 31
0.0
  0
LINE
  5
2FB2
330
1E
100
AcDbEntity
  8
7
100
AcDbLine
 10
3.958661417322834
 20
7.590551181102361
 30
0.0
 11
3.958661417322834
 21
7.591535433070866
 31
0.0
  0
LINE
  5
2FB3
330
1E
100
AcDbEntity
  8
7
100
AcDbLine
 10
4.768700787401574
 20
7.591535433070866
 30
0.0
 11
4.768700787401574
 21
7.590551181102361
 31
0.0
  0
LINE
  5
2FB4
330
1E
100
AcDbEntity
  8
7
100
AcDbLine
 10
4.768700787401574
 20
7.590551181102361
 30
0.0
 11
4.768700787401574
 21
7.588582677165353
 31
0.0
  0
LINE
  5
2FB5
330
1E
100
AcDbEntity
  8
7
100
AcDbLine
 10
4.768700787401574
 20
7.588582677165353
 30
0.0
 11
4.768700787401574
 21
7.57283464566929
 31
0.0
  0
LINE
  5
2FB6
330
1E
100
AcDbEntity
  8
7
100
AcDbLine
 10
4.593503937007874
 20
7.57283464566929
 30
0.0
 11
4.593503937007874
 21
7.588582677165353
 31
0.0
  0
LINE
  5
2FB7
330
1E
100
AcDbEntity
  8
7
100
AcDbLine
 10
4.593503937007874
 20
7.588582677165353
 30
0.0
 11
4.593503937007874
 21
7.590551181102361
 31
0.0
  0
LINE
  5
2FB8
330
1E
100
AcDbEntity
  8
7
100
AcDbLine
 10
4.593503937007874
 20
7.590551181102361
 30
0.0
 11
4.593503937007874
 21
7.591535433070866
 31
0.0
  0
LINE
  5
2FB9
330
1E
100
AcDbEntity
  8
7
100
AcDbLine
 10
4.927165354330708
 20
7.954724409448818
 30
0.0
 11
4.926181102362204
 21
7.997047244094487
 31
0.0
  0
LINE
  5
2FBA
330
1E
100
AcDbEntity
  8
7
100
AcDbLine
 10
4.926181102362204
 20
7.997047244094487
 30
0.0
 11
4.926181102362204
 21
8.001968503937007
 31
0.0
  0
LINE
  5
2FBB
330
1E
100
AcDbEntity
  8
7
100
AcDbLine
 10
4.995078740157479
 20
7.583661417322835
 30
0.0
 11
4.995078740157479
 21
7.584645669291338
 31
0.0
  0
LINE
  5
2FBC
330
1E
100
AcDbEntity
  8
7
100
AcDbLine
 10
4.995078740157479
 20
7.584645669291338
 30
0.0
 11
4.995078740157479
 21
7.583661417322835
 31
0.0
  0
LINE
  5
2FBD
330
1E
100
AcDbEntity
  8
7
100
AcDbLine
 10
5.144685039370078
 20
8.143700787401574
 30
0.0
 11
5.140748031496062
 21
8.124015748031496
 31
0.0
  0
LINE
  5
2FBE
330
1E
100
AcDbEntity
  8
7
100
AcDbLine
 10
5.140748031496062
 20
8.124015748031496
 30
0.0
 11
5.126968503937007
 21
8.10531496062992
 31
0.0
  0
LINE
  5
2FBF
330
1E
100
AcDbEntity
  8
7
100
AcDbLine
 10
5.126968503937007
 20
8.10531496062992
 30
0.0
 11
5.107283464566928
 21
8.090551181102361
 31
0.0
  0
LINE
  5
2FC0
330
1E
100
AcDbEntity
  8
7
100
AcDbLine
 10
5.107283464566928
 20
8.090551181102361
 30
0.0
 11
5.080708661417322
 21
8.081692913385825
 31
0.0
  0
LINE
  5
2FC1
330
1E
100
AcDbEntity
  8
7
100
AcDbLine
 10
5.080708661417322
 20
8.081692913385825
 30
0.0
 11
5.052165354330708
 21
8.078740157480314
 31
0.0
  0
LINE
  5
2FC2
330
1E
100
AcDbEntity
  8
7
100
AcDbLine
 10
5.144685039370078
 20
8.143700787401574
 30
0.0
 11
5.140748031496062
 21
8.164370078740157
 31
0.0
  0
LINE
  5
2FC3
330
1E
100
AcDbEntity
  8
7
100
AcDbLine
 10
5.140748031496062
 20
8.164370078740157
 30
0.0
 11
5.126968503937007
 21
8.182086614173227
 31
0.0
  0
LINE
  5
2FC4
330
1E
100
AcDbEntity
  8
7
100
AcDbLine
 10
5.126968503937007
 20
8.182086614173227
 30
0.0
 11
5.107283464566928
 21
8.195866141732283
 31
0.0
  0
LINE
  5
2FC5
330
1E
100
AcDbEntity
  8
7
100
AcDbLine
 10
5.107283464566928
 20
8.195866141732283
 30
0.0
 11
5.080708661417322
 21
8.205708661417322
 31
0.0
  0
LINE
  5
2FC6
330
1E
100
AcDbEntity
  8
7
100
AcDbLine
 10
5.080708661417322
 20
8.205708661417322
 30
0.0
 11
5.052165354330708
 21
8.208661417322835
 31
0.0
  0
LINE
  5
2FC7
330
1E
100
AcDbEntity
  8
7
100
AcDbLine
 10
5.052165354330708
 20
8.208661417322835
 30
0.0
 11
5.052165354330708
 21
8.185039370078738
 31
0.0
  0
LINE
  5
2FC8
330
1E
100
AcDbEntity
  8
7
100
AcDbLine
 10
5.052165354330708
 20
8.185039370078738
 30
0.0
 11
5.052165354330708
 21
8.157480314960629
 31
0.0
  0
LINE
  5
2FC9
330
1E
100
AcDbEntity
  8
7
100
AcDbLine
 10
5.052165354330708
 20
8.157480314960629
 30
0.0
 11
5.052165354330708
 21
8.128937007874014
 31
0.0
  0
LINE
  5
2FCA
330
1E
100
AcDbEntity
  8
7
100
AcDbLine
 10
5.052165354330708
 20
8.128937007874014
 30
0.0
 11
5.052165354330708
 21
8.101377952755905
 31
0.0
  0
LINE
  5
2FCB
330
1E
100
AcDbEntity
  8
7
100
AcDbLine
 10
5.052165354330708
 20
8.101377952755905
 30
0.0
 11
5.052165354330708
 21
8.078740157480314
 31
0.0
  0
LINE
  5
2FCC
330
1E
100
AcDbEntity
  8
7
100
AcDbLine
 10
3.6751968503937
 20
8.208661417322835
 30
0.0
 11
3.6751968503937
 21
8.185039370078738
 31
0.0
  0
LINE
  5
2FCD
330
1E
100
AcDbEntity
  8
7
100
AcDbLine
 10
3.6751968503937
 20
8.185039370078738
 30
0.0
 11
3.6751968503937
 21
8.157480314960629
 31
0.0
  0
LINE
  5
2FCE
330
1E
100
AcDbEntity
  8
7
100
AcDbLine
 10
3.6751968503937
 20
8.157480314960629
 30
0.0
 11
3.6751968503937
 21
8.128937007874014
 31
0.0
  0
LINE
  5
2FCF
330
1E
100
AcDbEntity
  8
7
100
AcDbLine
 10
3.6751968503937
 20
8.128937007874014
 30
0.0
 11
3.6751968503937
 21
8.101377952755905
 31
0.0
  0
LINE
  5
2FD0
330
1E
100
AcDbEntity
  8
7
100
AcDbLine
 10
3.6751968503937
 20
8.101377952755905
 30
0.0
 11
3.6751968503937
 21
8.078740157480314
 31
0.0
  0
LINE
  5
2FD1
330
1E
100
AcDbEntity
  8
7
100
AcDbLine
 10
3.6751968503937
 20
8.208661417322835
 30
0.0
 11
3.646653543307086
 21
8.205708661417322
 31
0.0
  0
LINE
  5
2FD2
330
1E
100
AcDbEntity
  8
7
100
AcDbLine
 10
3.646653543307086
 20
8.205708661417322
 30
0.0
 11
3.621062992125984
 21
8.195866141732283
 31
0.0
  0
LINE
  5
2FD3
330
1E
100
AcDbEntity
  8
7
100
AcDbLine
 10
3.621062992125984
 20
8.195866141732283
 30
0.0
 11
3.6003937007874
 21
8.182086614173227
 31
0.0
  0
LINE
  5
2FD4
330
1E
100
AcDbEntity
  8
7
100
AcDbLine
 10
3.6003937007874
 20
8.182086614173227
 30
0.0
 11
3.58759842519685
 21
8.164370078740157
 31
0.0
  0
LINE
  5
2FD5
330
1E
100
AcDbEntity
  8
7
100
AcDbLine
 10
3.58267716535433
 20
8.143700787401574
 30
0.0
 11
3.58759842519685
 21
8.124015748031496
 31
0.0
  0
LINE
  5
2FD6
330
1E
100
AcDbEntity
  8
7
100
AcDbLine
 10
3.58759842519685
 20
8.124015748031496
 30
0.0
 11
3.6003937007874
 21
8.10531496062992
 31
0.0
  0
LINE
  5
2FD7
330
1E
100
AcDbEntity
  8
7
100
AcDbLine
 10
3.6003937007874
 20
8.10531496062992
 30
0.0
 11
3.621062992125984
 21
8.090551181102361
 31
0.0
  0
LINE
  5
2FD8
330
1E
100
AcDbEntity
  8
7
100
AcDbLine
 10
3.621062992125984
 20
8.090551181102361
 30
0.0
 11
3.646653543307086
 21
8.081692913385825
 31
0.0
  0
LINE
  5
2FD9
330
1E
100
AcDbEntity
  8
7
100
AcDbLine
 10
3.646653543307086
 20
8.081692913385825
 30
0.0
 11
3.6751968503937
 21
8.078740157480314
 31
0.0
  0
LINE
  5
2FDA
330
1E
100
AcDbEntity
  8
7
100
AcDbLine
 10
3.6751968503937
 20
8.208661417322835
 30
0.0
 11
5.052165354330708
 21
8.208661417322835
 31
0.0
  0
LINE
  5
2FDB
330
1E
100
AcDbEntity
  8
7
100
AcDbLine
 10
5.052165354330708
 20
8.208661417322835
 30
0.0
 11
5.052165354330708
 21
8.722440944881888
 31
0.0
  0
LINE
  5
2FDC
330
1E
100
AcDbEntity
  8
7
100
AcDbLine
 10
3.58267716535433
 20
7.714566929133857
 30
0.0
 11
3.58267716535433
 21
8.143700787401574
 31
0.0
  0
LINE
  5
2FDD
330
1E
100
AcDbEntity
  8
7
100
AcDbLine
 10
3.58267716535433
 20
8.143700787401574
 30
0.0
 11
3.58267716535433
 21
8.722440944881888
 31
0.0
  0
LINE
  5
2FDE
330
1E
100
AcDbEntity
  8
7
100
AcDbLine
 10
3.58267716535433
 20
8.722440944881888
 30
0.0
 11
3.585629921259842
 21
8.722440944881888
 31
0.0
  0
LINE
  5
2FDF
330
1E
100
AcDbEntity
  8
7
100
AcDbLine
 10
3.585629921259842
 20
8.722440944881888
 30
0.0
 11
3.595472440944881
 21
8.722440944881888
 31
0.0
  0
LINE
  5
2FE0
330
1E
100
AcDbEntity
  8
7
100
AcDbLine
 10
3.595472440944881
 20
8.722440944881888
 30
0.0
 11
3.61023622047244
 21
8.722440944881888
 31
0.0
  0
LINE
  5
2FE1
330
1E
100
AcDbEntity
  8
7
100
AcDbLine
 10
3.61023622047244
 20
8.722440944881888
 30
0.0
 11
3.628937007874015
 21
8.722440944881888
 31
0.0
  0
LINE
  5
2FE2
330
1E
100
AcDbEntity
  8
7
100
AcDbLine
 10
3.628937007874015
 20
8.722440944881888
 30
0.0
 11
3.651574803149605
 21
8.722440944881888
 31
0.0
  0
LINE
  5
2FE3
330
1E
100
AcDbEntity
  8
7
100
AcDbLine
 10
3.651574803149605
 20
8.722440944881888
 30
0.0
 11
3.6751968503937
 21
8.722440944881888
 31
0.0
  0
LINE
  5
2FE4
330
1E
100
AcDbEntity
  8
7
100
AcDbLine
 10
3.6751968503937
 20
8.722440944881888
 30
0.0
 11
5.052165354330708
 21
8.722440944881888
 31
0.0
  0
LINE
  5
2FE5
330
1E
100
AcDbEntity
  8
7
100
AcDbLine
 10
5.052165354330708
 20
8.722440944881888
 30
0.0
 11
5.075787401574802
 21
8.722440944881888
 31
0.0
  0
LINE
  5
2FE6
330
1E
100
AcDbEntity
  8
7
100
AcDbLine
 10
5.075787401574802
 20
8.722440944881888
 30
0.0
 11
5.098425196850393
 21
8.722440944881888
 31
0.0
  0
LINE
  5
2FE7
330
1E
100
AcDbEntity
  8
7
100
AcDbLine
 10
5.098425196850393
 20
8.722440944881888
 30
0.0
 11
5.118110236220472
 21
8.722440944881888
 31
0.0
  0
LINE
  5
2FE8
330
1E
100
AcDbEntity
  8
7
100
AcDbLine
 10
5.118110236220472
 20
8.722440944881888
 30
0.0
 11
5.132874015748031
 21
8.722440944881888
 31
0.0
  0
LINE
  5
2FE9
330
1E
100
AcDbEntity
  8
7
100
AcDbLine
 10
5.132874015748031
 20
8.722440944881888
 30
0.0
 11
5.141732283464566
 21
8.722440944881888
 31
0.0
  0
LINE
  5
2FEA
330
1E
100
AcDbEntity
  8
7
100
AcDbLine
 10
5.141732283464566
 20
8.722440944881888
 30
0.0
 11
5.144685039370078
 21
8.722440944881888
 31
0.0
  0
LINE
  5
2FEB
330
1E
100
AcDbEntity
  8
7
100
AcDbLine
 10
4.784448818897637
 20
8.001968503937007
 30
0.0
 11
4.927165354330708
 21
8.001968503937007
 31
0.0
  0
LINE
  5
2FEC
330
1E
100
AcDbEntity
  8
7
100
AcDbLine
 10
4.927165354330708
 20
8.001968503937007
 30
0.0
 11
4.927165354330708
 21
7.954724409448818
 31
0.0
  0
LINE
  5
2FED
330
1E
100
AcDbEntity
  8
7
100
AcDbLine
 10
4.292322834645668
 20
8.001968503937007
 30
0.0
 11
4.292322834645668
 21
7.954724409448818
 31
0.0
  0
LINE
  5
2FEE
330
1E
100
AcDbEntity
  8
7
100
AcDbLine
 10
4.292322834645668
 20
7.954724409448818
 30
0.0
 11
4.435039370078739
 21
7.954724409448818
 31
0.0
  0
LINE
  5
2FEF
330
1E
100
AcDbEntity
  8
7
100
AcDbLine
 10
5.052165354330708
 20
7.583661417322835
 30
0.0
 11
5.052165354330708
 21
8.078740157480314
 31
0.0
  0
LINE
  5
2FF0
330
1E
100
AcDbEntity
  8
7
100
AcDbLine
 10
5.052165354330708
 20
8.078740157480314
 30
0.0
 11
3.6751968503937
 21
8.078740157480314
 31
0.0
  0
LINE
  5
2FF1
330
1E
100
AcDbEntity
  8
7
100
AcDbLine
 10
3.6751968503937
 20
8.078740157480314
 30
0.0
 11
3.6751968503937
 21
7.583661417322835
 31
0.0
  0
LINE
  5
2FF2
330
1E
100
AcDbEntity
  8
7
100
AcDbLine
 10
5.144685039370078
 20
7.714566929133857
 30
0.0
 11
5.141732283464566
 21
7.681102362204724
 31
0.0
  0
LINE
  5
2FF3
330
1E
100
AcDbEntity
  8
7
100
AcDbLine
 10
5.141732283464566
 20
7.681102362204724
 30
0.0
 11
5.132874015748031
 21
7.648622047244094
 31
0.0
  0
LINE
  5
2FF4
330
1E
100
AcDbEntity
  8
7
100
AcDbLine
 10
5.132874015748031
 20
7.648622047244094
 30
0.0
 11
5.118110236220472
 21
7.622047244094487
 31
0.0
  0
LINE
  5
2FF5
330
1E
100
AcDbEntity
  8
7
100
AcDbLine
 10
5.118110236220472
 20
7.622047244094487
 30
0.0
 11
5.098425196850393
 21
7.601377952755905
 31
0.0
  0
LINE
  5
2FF6
330
1E
100
AcDbEntity
  8
7
100
AcDbLine
 10
5.098425196850393
 20
7.601377952755905
 30
0.0
 11
5.075787401574802
 21
7.58759842519685
 31
0.0
  0
LINE
  5
2FF7
330
1E
100
AcDbEntity
  8
7
100
AcDbLine
 10
5.075787401574802
 20
7.58759842519685
 30
0.0
 11
5.052165354330708
 21
7.583661417322835
 31
0.0
  0
LINE
  5
2FF8
330
1E
100
AcDbEntity
  8
7
100
AcDbLine
 10
3.6751968503937
 20
7.583661417322835
 30
0.0
 11
3.651574803149605
 21
7.58759842519685
 31
0.0
  0
LINE
  5
2FF9
330
1E
100
AcDbEntity
  8
7
100
AcDbLine
 10
3.651574803149605
 20
7.58759842519685
 30
0.0
 11
3.628937007874015
 21
7.601377952755905
 31
0.0
  0
LINE
  5
2FFA
330
1E
100
AcDbEntity
  8
7
100
AcDbLine
 10
3.628937007874015
 20
7.601377952755905
 30
0.0
 11
3.61023622047244
 21
7.622047244094487
 31
0.0
  0
LINE
  5
2FFB
330
1E
100
AcDbEntity
  8
7
100
AcDbLine
 10
3.61023622047244
 20
7.622047244094487
 30
0.0
 11
3.595472440944881
 21
7.648622047244094
 31
0.0
  0
LINE
  5
2FFC
330
1E
100
AcDbEntity
  8
7
100
AcDbLine
 10
3.595472440944881
 20
7.648622047244094
 30
0.0
 11
3.585629921259842
 21
7.681102362204724
 31
0.0
  0
LINE
  5
2FFD
330
1E
100
AcDbEntity
  8
7
100
AcDbLine
 10
3.585629921259842
 20
7.681102362204724
 30
0.0
 11
3.58267716535433
 21
7.714566929133857
 31
0.0
  0
LINE
  5
2FFE
330
1E
100
AcDbEntity
  8
7
100
AcDbLine
 10
4.574803149606299
 20
7.459645669291338
 30
0.0
 11
4.574803149606299
 21
7.454724409448818
 31
0.0
  0
LINE
  5
2FFF
330
1E
100
AcDbEntity
  8
7
100
AcDbLine
 10
4.574803149606299
 20
7.454724409448818
 30
0.0
 11
4.575787401574802
 21
7.455708661417322
 31
0.0
  0
LINE
  5
3000
330
1E
100
AcDbEntity
  8
7
100
AcDbLine
 10
4.787401574803149
 20
7.455708661417322
 30
0.0
 11
4.787401574803149
 21
7.454724409448818
 31
0.0
  0
LINE
  5
3001
330
1E
100
AcDbEntity
  8
7
100
AcDbLine
 10
4.787401574803149
 20
7.454724409448818
 30
0.0
 11
4.787401574803149
 21
7.459645669291338
 31
0.0
  0
LINE
  5
3002
330
1E
100
AcDbEntity
  8
7
100
AcDbLine
 10
4.15255905511811
 20
7.455708661417322
 30
0.0
 11
4.15255905511811
 21
7.454724409448818
 31
0.0
  0
LINE
  5
3003
330
1E
100
AcDbEntity
  8
7
100
AcDbLine
 10
4.15255905511811
 20
7.454724409448818
 30
0.0
 11
4.15255905511811
 21
7.459645669291338
 31
0.0
  0
LINE
  5
3004
330
1E
100
AcDbEntity
  8
7
100
AcDbLine
 10
3.939960629921259
 20
7.459645669291338
 30
0.0
 11
3.939960629921259
 21
7.454724409448818
 31
0.0
  0
LINE
  5
3005
330
1E
100
AcDbEntity
  8
7
100
AcDbLine
 10
3.939960629921259
 20
7.454724409448818
 30
0.0
 11
3.940944881889763
 21
7.455708661417322
 31
0.0
  0
LINE
  5
3006
330
1E
100
AcDbEntity
  8
7
100
AcDbLine
 10
3.733267716535432
 20
7.584645669291338
 30
0.0
 11
3.733267716535432
 21
7.583661417322835
 31
0.0
  0
LINE
  5
3007
330
1E
100
AcDbEntity
  8
7
100
AcDbLine
 10
3.733267716535432
 20
7.583661417322835
 30
0.0
 11
3.733267716535432
 21
7.584645669291338
 31
0.0
  0
LINE
  5
3008
330
1E
100
AcDbEntity
  8
7
100
AcDbLine
 10
3.480314960629921
 20
7.260826771653542
 30
0.0
 11
3.453740157480314
 21
7.263779527559055
 31
0.0
  0
LINE
  5
3009
330
1E
100
AcDbEntity
  8
7
100
AcDbLine
 10
3.453740157480314
 20
7.263779527559055
 30
0.0
 11
3.43011811023622
 21
7.273622047244094
 31
0.0
  0
LINE
  5
300A
330
1E
100
AcDbEntity
  8
7
100
AcDbLine
 10
3.43011811023622
 20
7.273622047244094
 30
0.0
 11
3.409448818897637
 21
7.289370078740157
 31
0.0
  0
LINE
  5
300B
330
1E
100
AcDbEntity
  8
7
100
AcDbLine
 10
3.409448818897637
 20
7.289370078740157
 30
0.0
 11
3.393700787401574
 21
7.310039370078738
 31
0.0
  0
LINE
  5
300C
330
1E
100
AcDbEntity
  8
7
100
AcDbLine
 10
3.393700787401574
 20
7.310039370078738
 30
0.0
 11
3.383858267716535
 21
7.334645669291338
 31
0.0
  0
LINE
  5
300D
330
1E
100
AcDbEntity
  8
7
100
AcDbLine
 10
3.383858267716535
 20
7.334645669291338
 30
0.0
 11
3.379921259842519
 21
7.36023622047244
 31
0.0
  0
LINE
  5
300E
330
1E
100
AcDbEntity
  8
7
100
AcDbLine
 10
5.245078740157479
 20
7.260826771653542
 30
0.0
 11
3.480314960629921
 21
7.260826771653542
 31
0.0
  0
LINE
  5
300F
330
1E
100
AcDbEntity
  8
7
100
AcDbLine
 10
3.480314960629921
 20
7.260826771653542
 30
0.0
 11
3.480314960629921
 21
7.269685039370077
 31
0.0
  0
LINE
  5
3010
330
1E
100
AcDbEntity
  8
7
100
AcDbLine
 10
3.480314960629921
 20
7.269685039370077
 30
0.0
 11
3.480314960629921
 21
7.290354330708661
 31
0.0
  0
LINE
  5
3011
330
1E
100
AcDbEntity
  8
7
100
AcDbLine
 10
3.575787401574802
 20
7.96259842519685
 30
0.0
 11
3.575787401574802
 21
7.861220472440944
 31
0.0
  0
LINE
  5
3012
330
1E
100
AcDbEntity
  8
7
100
AcDbLine
 10
3.575787401574802
 20
7.861220472440944
 30
0.0
 11
3.575787401574802
 21
7.486220472440944
 31
0.0
  0
LINE
  5
3013
330
1E
100
AcDbEntity
  8
7
100
AcDbLine
 10
3.575787401574802
 20
7.486220472440944
 30
0.0
 11
3.58267716535433
 21
7.486220472440944
 31
0.0
  0
LINE
  5
3014
330
1E
100
AcDbEntity
  8
7
100
AcDbLine
 10
5.148622047244094
 20
7.861220472440944
 30
0.0
 11
5.148622047244094
 21
7.486220472440944
 31
0.0
  0
LINE
  5
3015
330
1E
100
AcDbEntity
  8
7
100
AcDbLine
 10
5.148622047244094
 20
7.486220472440944
 30
0.0
 11
5.144685039370078
 21
7.486220472440944
 31
0.0
  0
LINE
  5
3016
330
1E
100
AcDbEntity
  8
7
100
AcDbLine
 10
5.156496062992125
 20
7.970472440944881
 30
0.0
 11
5.150590551181101
 21
7.968503937007874
 31
0.0
  0
LINE
  5
3017
330
1E
100
AcDbEntity
  8
7
100
AcDbLine
 10
5.150590551181101
 20
7.968503937007874
 30
0.0
 11
5.148622047244094
 21
7.96259842519685
 31
0.0
  0
LINE
  5
3018
330
1E
100
AcDbEntity
  8
7
100
AcDbLine
 10
5.148622047244094
 20
8.146653543307087
 30
0.0
 11
5.150590551181101
 21
8.141732283464566
 31
0.0
  0
LINE
  5
3019
330
1E
100
AcDbEntity
  8
7
100
AcDbLine
 10
5.150590551181101
 20
8.141732283464566
 30
0.0
 11
5.156496062992125
 21
8.138779527559055
 31
0.0
  0
LINE
  5
301A
330
1E
100
AcDbEntity
  8
7
100
AcDbLine
 10
3.567913385826771
 20
7.970472440944881
 30
0.0
 11
3.573818897637795
 21
7.968503937007874
 31
0.0
  0
LINE
  5
301B
330
1E
100
AcDbEntity
  8
7
100
AcDbLine
 10
3.573818897637795
 20
7.968503937007874
 30
0.0
 11
3.575787401574802
 21
7.96259842519685
 31
0.0
  0
LINE
  5
301C
330
1E
100
AcDbEntity
  8
7
100
AcDbLine
 10
3.575787401574802
 20
7.96259842519685
 30
0.0
 11
3.575787401574802
 21
8.146653543307087
 31
0.0
  0
LINE
  5
301D
330
1E
100
AcDbEntity
  8
7
100
AcDbLine
 10
3.575787401574802
 20
8.146653543307087
 30
0.0
 11
3.573818897637795
 21
8.141732283464566
 31
0.0
  0
LINE
  5
301E
330
1E
100
AcDbEntity
  8
7
100
AcDbLine
 10
3.573818897637795
 20
8.141732283464566
 30
0.0
 11
3.567913385826771
 21
8.138779527559055
 31
0.0
  0
LINE
  5
301F
330
1E
100
AcDbEntity
  8
7
100
AcDbLine
 10
3.567913385826771
 20
8.138779527559055
 30
0.0
 11
3.523622047244094
 21
8.138779527559055
 31
0.0
  0
LINE
  5
3020
330
1E
100
AcDbEntity
  8
7
100
AcDbLine
 10
3.523622047244094
 20
8.138779527559055
 30
0.0
 11
3.518700787401574
 21
8.136811023622046
 31
0.0
  0
LINE
  5
3021
330
1E
100
AcDbEntity
  8
7
100
AcDbLine
 10
3.518700787401574
 20
8.136811023622046
 30
0.0
 11
3.515748031496062
 21
8.130905511811024
 31
0.0
  0
LINE
  5
3022
330
1E
100
AcDbEntity
  8
7
100
AcDbLine
 10
3.515748031496062
 20
8.130905511811024
 30
0.0
 11
3.515748031496062
 21
7.978346456692912
 31
0.0
  0
LINE
  5
3023
330
1E
100
AcDbEntity
  8
7
100
AcDbLine
 10
3.515748031496062
 20
7.978346456692912
 30
0.0
 11
3.518700787401574
 21
7.972440944881888
 31
0.0
  0
LINE
  5
3024
330
1E
100
AcDbEntity
  8
7
100
AcDbLine
 10
3.518700787401574
 20
7.972440944881888
 30
0.0
 11
3.523622047244094
 21
7.970472440944881
 31
0.0
  0
LINE
  5
3025
330
1E
100
AcDbEntity
  8
7
100
AcDbLine
 10
5.144685039370078
 20
7.861220472440944
 30
0.0
 11
5.148622047244094
 21
7.861220472440944
 31
0.0
  0
LINE
  5
3026
330
1E
100
AcDbEntity
  8
7
100
AcDbLine
 10
5.148622047244094
 20
7.861220472440944
 30
0.0
 11
5.144685039370078
 21
7.864173228346455
 31
0.0
  0
LINE
  5
3027
330
1E
100
AcDbEntity
  8
7
100
AcDbLine
 10
3.410433070866141
 20
7.36023622047244
 30
0.0
 11
3.388779527559054
 21
7.36023622047244
 31
0.0
  0
LINE
  5
3028
330
1E
100
AcDbEntity
  8
7
100
AcDbLine
 10
3.388779527559054
 20
7.36023622047244
 30
0.0
 11
3.379921259842519
 21
7.36023622047244
 31
0.0
  0
LINE
  5
3029
330
1E
100
AcDbEntity
  8
7
100
AcDbLine
 10
5.023622047244094
 20
7.381889763779527
 30
0.0
 11
5.141732283464566
 21
7.381889763779527
 31
0.0
  0
LINE
  5
302A
330
1E
100
AcDbEntity
  8
7
100
AcDbLine
 10
5.141732283464566
 20
7.381889763779527
 30
0.0
 11
5.147637795275589
 21
7.383858267716535
 31
0.0
  0
LINE
  5
302B
330
1E
100
AcDbEntity
  8
7
100
AcDbLine
 10
5.147637795275589
 20
7.383858267716535
 30
0.0
 11
5.150590551181101
 21
7.389763779527559
 31
0.0
  0
LINE
  5
302C
330
1E
100
AcDbEntity
  8
7
100
AcDbLine
 10
5.150590551181101
 20
7.389763779527559
 30
0.0
 11
5.150590551181101
 21
7.486220472440944
 31
0.0
  0
LINE
  5
302D
330
1E
100
AcDbEntity
  8
7
100
AcDbLine
 10
3.58267716535433
 20
7.381889763779527
 30
0.0
 11
3.576771653543306
 21
7.383858267716535
 31
0.0
  0
LINE
  5
302E
330
1E
100
AcDbEntity
  8
7
100
AcDbLine
 10
3.576771653543306
 20
7.383858267716535
 30
0.0
 11
3.574803149606299
 21
7.389763779527559
 31
0.0
  0
LINE
  5
302F
330
1E
100
AcDbEntity
  8
7
100
AcDbLine
 10
5.247047244094487
 20
7.257874015748031
 30
0.0
 11
3.477362204724409
 21
7.257874015748031
 31
0.0
  0
LINE
  5
3030
330
1E
100
AcDbEntity
  8
7
100
AcDbLine
 10
3.477362204724409
 20
7.257874015748031
 30
0.0
 11
3.451771653543306
 21
7.261811023622046
 31
0.0
  0
LINE
  5
3031
330
1E
100
AcDbEntity
  8
7
100
AcDbLine
 10
3.451771653543306
 20
7.261811023622046
 30
0.0
 11
3.428149606299212
 21
7.271653543307087
 31
0.0
  0
LINE
  5
3032
330
1E
100
AcDbEntity
  8
7
100
AcDbLine
 10
3.428149606299212
 20
7.271653543307087
 30
0.0
 11
3.407480314960629
 21
7.287401574803149
 31
0.0
  0
LINE
  5
3033
330
1E
100
AcDbEntity
  8
7
100
AcDbLine
 10
3.407480314960629
 20
7.287401574803149
 30
0.0
 11
3.390748031496062
 21
7.308070866141731
 31
0.0
  0
LINE
  5
3034
330
1E
100
AcDbEntity
  8
7
100
AcDbLine
 10
3.390748031496062
 20
7.308070866141731
 30
0.0
 11
3.380905511811023
 21
7.332677165354329
 31
0.0
  0
LINE
  5
3035
330
1E
100
AcDbEntity
  8
7
100
AcDbLine
 10
3.380905511811023
 20
7.332677165354329
 30
0.0
 11
3.377952755905512
 21
7.358267716535433
 31
0.0
  0
LINE
  5
3036
330
1E
100
AcDbEntity
  8
7
100
AcDbLine
 10
5.159448818897637
 20
8.14271653543307
 30
0.0
 11
5.154527559055117
 21
8.144685039370077
 31
0.0
  0
LINE
  5
3037
330
1E
100
AcDbEntity
  8
7
100
AcDbLine
 10
5.154527559055117
 20
8.144685039370077
 30
0.0
 11
5.151574803149605
 21
8.150590551181101
 31
0.0
  0
LINE
  5
3038
330
1E
100
AcDbEntity
  8
7
100
AcDbLine
 10
3.51279527559055
 20
8.133858267716535
 30
0.0
 11
3.514763779527558
 21
8.139763779527559
 31
0.0
  0
LINE
  5
3039
330
1E
100
AcDbEntity
  8
7
100
AcDbLine
 10
3.514763779527558
 20
8.139763779527559
 30
0.0
 11
3.520669291338582
 21
8.14271653543307
 31
0.0
  0
LINE
  5
303A
330
1E
100
AcDbEntity
  8
7
100
AcDbLine
 10
3.57283464566929
 20
7.38779527559055
 30
0.0
 11
3.57283464566929
 21
7.959645669291338
 31
0.0
  0
LINE
  5
303B
330
1E
100
AcDbEntity
  8
7
100
AcDbLine
 10
3.57283464566929
 20
7.959645669291338
 30
0.0
 11
3.570866141732283
 21
7.964566929133857
 31
0.0
  0
LINE
  5
303C
330
1E
100
AcDbEntity
  8
7
100
AcDbLine
 10
3.570866141732283
 20
7.964566929133857
 30
0.0
 11
3.564960629921259
 21
7.96751968503937
 31
0.0
  0
LINE
  5
303D
330
1E
100
AcDbEntity
  8
7
100
AcDbLine
 10
3.564960629921259
 20
7.96751968503937
 30
0.0
 11
3.520669291338582
 21
7.96751968503937
 31
0.0
  0
LINE
  5
303E
330
1E
100
AcDbEntity
  8
7
100
AcDbLine
 10
3.520669291338582
 20
7.96751968503937
 30
0.0
 11
3.514763779527558
 21
7.969488188976377
 31
0.0
  0
LINE
  5
303F
330
1E
100
AcDbEntity
  8
7
100
AcDbLine
 10
3.514763779527558
 20
7.969488188976377
 30
0.0
 11
3.51279527559055
 21
7.975393700787401
 31
0.0
  0
LINE
  5
3040
330
1E
100
AcDbEntity
  8
7
100
AcDbLine
 10
3.580708661417322
 20
7.379921259842518
 30
0.0
 11
3.574803149606299
 21
7.381889763779527
 31
0.0
  0
LINE
  5
3041
330
1E
100
AcDbEntity
  8
7
100
AcDbLine
 10
3.574803149606299
 20
7.381889763779527
 30
0.0
 11
3.57283464566929
 21
7.38779527559055
 31
0.0
  0
LINE
  5
3042
330
1E
100
AcDbEntity
  8
7
100
AcDbLine
 10
5.143700787401574
 20
7.379921259842518
 30
0.0
 11
5.149606299212598
 21
7.381889763779527
 31
0.0
  0
LINE
  5
3043
330
1E
100
AcDbEntity
  8
7
100
AcDbLine
 10
5.149606299212598
 20
7.381889763779527
 30
0.0
 11
5.151574803149605
 21
7.38779527559055
 31
0.0
  0
LINE
  5
3044
330
1E
100
AcDbEntity
  8
7
100
AcDbLine
 10
5.151574803149605
 20
7.959645669291338
 30
0.0
 11
5.154527559055117
 21
7.964566929133857
 31
0.0
  0
LINE
  5
3045
330
1E
100
AcDbEntity
  8
7
100
AcDbLine
 10
5.154527559055117
 20
7.964566929133857
 30
0.0
 11
5.159448818897637
 21
7.96751968503937
 31
0.0
  0
LINE
  5
3046
330
1E
100
AcDbEntity
  8
7
100
AcDbLine
 10
3.410433070866141
 20
9.125
 30
0.0
 11
3.410433070866141
 21
7.36023622047244
 31
0.0
  0
LINE
  5
3047
330
1E
100
AcDbEntity
  8
7
100
AcDbLine
 10
3.410433070866141
 20
7.36023622047244
 30
0.0
 11
3.413385826771652
 21
7.338582677165353
 31
0.0
  0
LINE
  5
3048
330
1E
100
AcDbEntity
  8
7
100
AcDbLine
 10
3.413385826771652
 20
7.338582677165353
 30
0.0
 11
3.423228346456692
 21
7.318897637795275
 31
0.0
  0
LINE
  5
3049
330
1E
100
AcDbEntity
  8
7
100
AcDbLine
 10
3.423228346456692
 20
7.318897637795275
 30
0.0
 11
3.438976377952755
 21
7.304133858267716
 31
0.0
  0
LINE
  5
304A
330
1E
100
AcDbEntity
  8
7
100
AcDbLine
 10
3.438976377952755
 20
7.304133858267716
 30
0.0
 11
3.458661417322834
 21
7.294291338582675
 31
0.0
  0
LINE
  5
304B
330
1E
100
AcDbEntity
  8
7
100
AcDbLine
 10
3.458661417322834
 20
7.294291338582675
 30
0.0
 11
3.480314960629921
 21
7.290354330708661
 31
0.0
  0
LINE
  5
304C
330
1E
100
AcDbEntity
  8
7
100
AcDbLine
 10
5.071850393700787
 20
9.190944881889762
 30
0.0
 11
5.079724409448818
 21
9.187992125984251
 31
0.0
  0
LINE
  5
304D
330
1E
100
AcDbEntity
  8
7
100
AcDbLine
 10
5.079724409448818
 20
9.187992125984251
 30
0.0
 11
5.08267716535433
 21
9.181102362204724
 31
0.0
  0
LINE
  5
304E
330
1E
100
AcDbEntity
  8
7
100
AcDbLine
 10
5.081692913385826
 20
9.18011811023622
 30
0.0
 11
5.078740157480314
 21
9.187007874015748
 31
0.0
  0
LINE
  5
304F
330
1E
100
AcDbEntity
  8
7
100
AcDbLine
 10
5.078740157480314
 20
9.187007874015748
 30
0.0
 11
5.070866141732283
 21
9.189960629921259
 31
0.0
  0
LINE
  5
3050
330
1E
100
AcDbEntity
  8
7
100
AcDbLine
 10
5.08267716535433
 20
8.839566929133857
 30
0.0
 11
5.079724409448818
 21
8.832677165354329
 31
0.0
  0
LINE
  5
3051
330
1E
100
AcDbEntity
  8
7
100
AcDbLine
 10
5.079724409448818
 20
8.832677165354329
 30
0.0
 11
5.071850393700787
 21
8.829724409448818
 31
0.0
  0
LINE
  5
3052
330
1E
100
AcDbEntity
  8
7
100
AcDbLine
 10
5.070866141732283
 20
8.830708661417322
 30
0.0
 11
5.078740157480314
 21
8.833661417322835
 31
0.0
  0
LINE
  5
3053
330
1E
100
AcDbEntity
  8
7
100
AcDbLine
 10
5.078740157480314
 20
8.833661417322835
 30
0.0
 11
5.081692913385826
 21
8.840551181102361
 31
0.0
  0
LINE
  5
3054
330
1E
100
AcDbEntity
  8
7
100
AcDbLine
 10
3.377952755905512
 20
9.126968503937007
 30
0.0
 11
3.380905511811023
 21
9.153543307086613
 31
0.0
  0
LINE
  5
3055
330
1E
100
AcDbEntity
  8
7
100
AcDbLine
 10
3.380905511811023
 20
9.153543307086613
 30
0.0
 11
3.390748031496062
 21
9.177165354330707
 31
0.0
  0
LINE
  5
3056
330
1E
100
AcDbEntity
  8
7
100
AcDbLine
 10
3.390748031496062
 20
9.177165354330707
 30
0.0
 11
3.407480314960629
 21
9.19783464566929
 31
0.0
  0
LINE
  5
3057
330
1E
100
AcDbEntity
  8
7
100
AcDbLine
 10
3.407480314960629
 20
9.19783464566929
 30
0.0
 11
3.428149606299212
 21
9.213582677165353
 31
0.0
  0
LINE
  5
3058
330
1E
100
AcDbEntity
  8
7
100
AcDbLine
 10
3.428149606299212
 20
9.213582677165353
 30
0.0
 11
3.451771653543306
 21
9.223425196850392
 31
0.0
  0
LINE
  5
3059
330
1E
100
AcDbEntity
  8
7
100
AcDbLine
 10
3.451771653543306
 20
9.223425196850392
 30
0.0
 11
3.477362204724409
 21
9.227362204724409
 31
0.0
  0
LINE
  5
305A
330
1E
100
AcDbEntity
  8
7
100
AcDbLine
 10
3.480314960629921
 20
9.194881889763779
 30
0.0
 11
3.458661417322834
 21
9.191929133858266
 31
0.0
  0
LINE
  5
305B
330
1E
100
AcDbEntity
  8
7
100
AcDbLine
 10
3.458661417322834
 20
9.191929133858266
 30
0.0
 11
3.438976377952755
 21
9.182086614173227
 31
0.0
  0
LINE
  5
305C
330
1E
100
AcDbEntity
  8
7
100
AcDbLine
 10
3.438976377952755
 20
9.182086614173227
 30
0.0
 11
3.423228346456692
 21
9.166338582677164
 31
0.0
  0
LINE
  5
305D
330
1E
100
AcDbEntity
  8
7
100
AcDbLine
 10
3.423228346456692
 20
9.166338582677164
 30
0.0
 11
3.413385826771652
 21
9.146653543307087
 31
0.0
  0
LINE
  5
305E
330
1E
100
AcDbEntity
  8
7
100
AcDbLine
 10
3.410433070866141
 20
9.125
 30
0.0
 11
3.388779527559054
 21
9.125
 31
0.0
  0
LINE
  5
305F
330
1E
100
AcDbEntity
  8
7
100
AcDbLine
 10
3.388779527559054
 20
9.125
 30
0.0
 11
3.379921259842519
 21
9.125
 31
0.0
  0
LINE
  5
3060
330
1E
100
AcDbEntity
  8
7
100
AcDbLine
 10
3.383858267716535
 20
9.150590551181101
 30
0.0
 11
3.393700787401574
 21
9.1751968503937
 31
0.0
  0
LINE
  5
3061
330
1E
100
AcDbEntity
  8
7
100
AcDbLine
 10
3.393700787401574
 20
9.1751968503937
 30
0.0
 11
3.409448818897637
 21
9.195866141732283
 31
0.0
  0
LINE
  5
3062
330
1E
100
AcDbEntity
  8
7
100
AcDbLine
 10
3.409448818897637
 20
9.195866141732283
 30
0.0
 11
3.43011811023622
 21
9.211614173228346
 31
0.0
  0
LINE
  5
3063
330
1E
100
AcDbEntity
  8
7
100
AcDbLine
 10
3.43011811023622
 20
9.211614173228346
 30
0.0
 11
3.453740157480314
 21
9.221456692913385
 31
0.0
  0
LINE
  5
3064
330
1E
100
AcDbEntity
  8
7
100
AcDbLine
 10
3.453740157480314
 20
9.221456692913385
 30
0.0
 11
3.480314960629921
 21
9.225393700787401
 31
0.0
  0
LINE
  5
3065
330
1E
100
AcDbEntity
  8
7
100
AcDbLine
 10
3.480314960629921
 20
9.194881889763779
 30
0.0
 11
3.480314960629921
 21
9.215551181102361
 31
0.0
  0
LINE
  5
3066
330
1E
100
AcDbEntity
  8
7
100
AcDbLine
 10
3.480314960629921
 20
9.215551181102361
 30
0.0
 11
3.480314960629921
 21
9.225393700787401
 31
0.0
  0
LINE
  5
3067
330
1E
100
AcDbEntity
  8
7
100
AcDbLine
 10
3.646653543307086
 20
9.187007874015748
 30
0.0
 11
3.653543307086613
 21
9.189960629921259
 31
0.0
  0
LINE
  5
3068
330
1E
100
AcDbEntity
  8
7
100
AcDbLine
 10
3.653543307086613
 20
9.189960629921259
 30
0.0
 11
3.65255905511811
 21
9.190944881889762
 31
0.0
  0
LINE
  5
3069
330
1E
100
AcDbEntity
  8
7
100
AcDbLine
 10
3.65255905511811
 20
9.190944881889762
 30
0.0
 11
3.645669291338582
 21
9.187992125984251
 31
0.0
  0
LINE
  5
306A
330
1E
100
AcDbEntity
  8
7
100
AcDbLine
 10
3.645669291338582
 20
9.187992125984251
 30
0.0
 11
3.64271653543307
 21
9.181102362204724
 31
0.0
  0
LINE
  5
306B
330
1E
100
AcDbEntity
  8
7
100
AcDbLine
 10
3.64271653543307
 20
9.181102362204724
 30
0.0
 11
3.64271653543307
 21
9.18011811023622
 31
0.0
  0
LINE
  5
306C
330
1E
100
AcDbEntity
  8
7
100
AcDbLine
 10
3.653543307086613
 20
8.830708661417322
 30
0.0
 11
3.646653543307086
 21
8.833661417322835
 31
0.0
  0
LINE
  5
306D
330
1E
100
AcDbEntity
  8
7
100
AcDbLine
 10
3.646653543307086
 20
8.833661417322835
 30
0.0
 11
3.64271653543307
 21
8.840551181102361
 31
0.0
  0
LINE
  5
306E
330
1E
100
AcDbEntity
  8
7
100
AcDbLine
 10
3.64271653543307
 20
8.840551181102361
 30
0.0
 11
3.64271653543307
 21
8.839566929133857
 31
0.0
  0
LINE
  5
306F
330
1E
100
AcDbEntity
  8
7
100
AcDbLine
 10
3.64271653543307
 20
8.839566929133857
 30
0.0
 11
3.645669291338582
 21
8.832677165354329
 31
0.0
  0
LINE
  5
3070
330
1E
100
AcDbEntity
  8
7
100
AcDbLine
 10
3.645669291338582
 20
8.832677165354329
 30
0.0
 11
3.65255905511811
 21
8.829724409448818
 31
0.0
  0
LINE
  5
3071
330
1E
100
AcDbEntity
  8
7
100
AcDbLine
 10
3.65255905511811
 20
8.829724409448818
 30
0.0
 11
3.653543307086613
 21
8.830708661417322
 31
0.0
  0
LINE
  5
3072
330
1E
100
AcDbEntity
  8
7
100
AcDbLine
 10
4.302165354330708
 20
9.114173228346455
 30
0.0
 11
4.27755905511811
 21
9.094488188976377
 31
0.0
  0
LINE
  5
3073
330
1E
100
AcDbEntity
  8
7
100
AcDbLine
 10
4.27755905511811
 20
9.094488188976377
 30
0.0
 11
4.257874015748031
 21
9.069881889763779
 31
0.0
  0
LINE
  5
3074
330
1E
100
AcDbEntity
  8
7
100
AcDbLine
 10
4.257874015748031
 20
9.069881889763779
 30
0.0
 11
4.246062992125984
 21
9.041338582677164
 31
0.0
  0
LINE
  5
3075
330
1E
100
AcDbEntity
  8
7
100
AcDbLine
 10
4.246062992125984
 20
9.041338582677164
 30
0.0
 11
4.242125984251968
 21
9.009842519685038
 31
0.0
  0
LINE
  5
3076
330
1E
100
AcDbEntity
  8
7
100
AcDbLine
 10
4.330708661417322
 20
8.893700787401574
 30
0.0
 11
4.362204724409448
 21
8.889763779527559
 31
0.0
  0
LINE
  5
3077
330
1E
100
AcDbEntity
  8
7
100
AcDbLine
 10
4.362204724409448
 20
8.889763779527559
 30
0.0
 11
4.393700787401574
 21
8.893700787401574
 31
0.0
  0
LINE
  5
3078
330
1E
100
AcDbEntity
  8
7
100
AcDbLine
 10
4.393700787401574
 20
8.893700787401574
 30
0.0
 11
4.422244094488188
 21
8.905511811023622
 31
0.0
  0
LINE
  5
3079
330
1E
100
AcDbEntity
  8
7
100
AcDbLine
 10
4.422244094488188
 20
8.905511811023622
 30
0.0
 11
4.446850393700787
 21
8.9251968503937
 31
0.0
  0
LINE
  5
307A
330
1E
100
AcDbEntity
  8
7
100
AcDbLine
 10
4.446850393700787
 20
8.9251968503937
 30
0.0
 11
4.466535433070865
 21
8.949803149606298
 31
0.0
  0
LINE
  5
307B
330
1E
100
AcDbEntity
  8
7
100
AcDbLine
 10
4.466535433070865
 20
8.949803149606298
 30
0.0
 11
4.478346456692912
 21
8.978346456692912
 31
0.0
  0
LINE
  5
307C
330
1E
100
AcDbEntity
  8
7
100
AcDbLine
 10
4.478346456692912
 20
8.978346456692912
 30
0.0
 11
4.482283464566928
 21
9.009842519685038
 31
0.0
  0
LINE
  5
307D
330
1E
100
AcDbEntity
  8
7
100
AcDbLine
 10
4.482283464566928
 20
9.009842519685038
 30
0.0
 11
4.478346456692912
 21
9.041338582677164
 31
0.0
  0
LINE
  5
307E
330
1E
100
AcDbEntity
  8
7
100
AcDbLine
 10
4.478346456692912
 20
9.041338582677164
 30
0.0
 11
4.466535433070865
 21
9.069881889763779
 31
0.0
  0
LINE
  5
307F
330
1E
100
AcDbEntity
  8
7
100
AcDbLine
 10
4.466535433070865
 20
9.069881889763779
 30
0.0
 11
4.446850393700787
 21
9.094488188976377
 31
0.0
  0
LINE
  5
3080
330
1E
100
AcDbEntity
  8
7
100
AcDbLine
 10
4.446850393700787
 20
9.094488188976377
 30
0.0
 11
4.422244094488188
 21
9.114173228346455
 31
0.0
  0
LINE
  5
3081
330
1E
100
AcDbEntity
  8
7
100
AcDbLine
 10
4.422244094488188
 20
9.114173228346455
 30
0.0
 11
4.393700787401574
 21
9.125984251968503
 31
0.0
  0
LINE
  5
3082
330
1E
100
AcDbEntity
  8
7
100
AcDbLine
 10
4.393700787401574
 20
9.125984251968503
 30
0.0
 11
4.362204724409448
 21
9.129921259842518
 31
0.0
  0
LINE
  5
3083
330
1E
100
AcDbEntity
  8
7
100
AcDbLine
 10
4.362204724409448
 20
9.129921259842518
 30
0.0
 11
4.330708661417322
 21
9.125984251968503
 31
0.0
  0
LINE
  5
3084
330
1E
100
AcDbEntity
  8
7
100
AcDbLine
 10
4.330708661417322
 20
9.125984251968503
 30
0.0
 11
4.302165354330708
 21
9.114173228346455
 31
0.0
  0
LINE
  5
3085
330
1E
100
AcDbEntity
  8
7
100
AcDbLine
 10
4.242125984251968
 20
9.009842519685038
 30
0.0
 11
4.246062992125984
 21
8.978346456692912
 31
0.0
  0
LINE
  5
3086
330
1E
100
AcDbEntity
  8
7
100
AcDbLine
 10
4.246062992125984
 20
8.978346456692912
 30
0.0
 11
4.257874015748031
 21
8.949803149606298
 31
0.0
  0
LINE
  5
3087
330
1E
100
AcDbEntity
  8
7
100
AcDbLine
 10
4.257874015748031
 20
8.949803149606298
 30
0.0
 11
4.27755905511811
 21
8.9251968503937
 31
0.0
  0
LINE
  5
3088
330
1E
100
AcDbEntity
  8
7
100
AcDbLine
 10
4.27755905511811
 20
8.9251968503937
 30
0.0
 11
4.302165354330708
 21
8.905511811023622
 31
0.0
  0
LINE
  5
3089
330
1E
100
AcDbEntity
  8
7
100
AcDbLine
 10
4.302165354330708
 20
8.905511811023622
 30
0.0
 11
4.330708661417322
 21
8.893700787401574
 31
0.0
  0
LINE
  5
308A
330
1E
100
AcDbEntity
  8
7
100
AcDbLine
 10
4.311023622047243
 20
8.953740157480314
 30
0.0
 11
4.331692913385826
 21
8.939960629921259
 31
0.0
  0
LINE
  5
308B
330
1E
100
AcDbEntity
  8
7
100
AcDbLine
 10
4.331692913385826
 20
8.939960629921259
 30
0.0
 11
4.356299212598425
 21
8.934055118110235
 31
0.0
  0
LINE
  5
308C
330
1E
100
AcDbEntity
  8
7
100
AcDbLine
 10
4.356299212598425
 20
8.934055118110235
 30
0.0
 11
4.380905511811023
 21
8.936023622047244
 31
0.0
  0
LINE
  5
308D
330
1E
100
AcDbEntity
  8
7
100
AcDbLine
 10
4.380905511811023
 20
8.936023622047244
 30
0.0
 11
4.403543307086613
 21
8.946850393700787
 31
0.0
  0
LINE
  5
308E
330
1E
100
AcDbEntity
  8
7
100
AcDbLine
 10
4.403543307086613
 20
8.946850393700787
 30
0.0
 11
4.422244094488188
 21
8.963582677165353
 31
0.0
  0
LINE
  5
308F
330
1E
100
AcDbEntity
  8
7
100
AcDbLine
 10
4.422244094488188
 20
8.963582677165353
 30
0.0
 11
4.434055118110236
 21
8.98523622047244
 31
0.0
  0
LINE
  5
3090
330
1E
100
AcDbEntity
  8
7
100
AcDbLine
 10
4.434055118110236
 20
8.98523622047244
 30
0.0
 11
4.437992125984251
 21
9.009842519685038
 31
0.0
  0
LINE
  5
3091
330
1E
100
AcDbEntity
  8
7
100
AcDbLine
 10
4.437992125984251
 20
9.009842519685038
 30
0.0
 11
4.434055118110236
 21
9.034448818897637
 31
0.0
  0
LINE
  5
3092
330
1E
100
AcDbEntity
  8
7
100
AcDbLine
 10
4.434055118110236
 20
9.034448818897637
 30
0.0
 11
4.422244094488188
 21
9.056102362204724
 31
0.0
  0
LINE
  5
3093
330
1E
100
AcDbEntity
  8
7
100
AcDbLine
 10
4.422244094488188
 20
9.056102362204724
 30
0.0
 11
4.403543307086613
 21
9.07283464566929
 31
0.0
  0
LINE
  5
3094
330
1E
100
AcDbEntity
  8
7
100
AcDbLine
 10
4.403543307086613
 20
9.07283464566929
 30
0.0
 11
4.380905511811023
 21
9.083661417322835
 31
0.0
  0
LINE
  5
3095
330
1E
100
AcDbEntity
  8
7
100
AcDbLine
 10
4.380905511811023
 20
9.083661417322835
 30
0.0
 11
4.356299212598425
 21
9.085629921259842
 31
0.0
  0
LINE
  5
3096
330
1E
100
AcDbEntity
  8
7
100
AcDbLine
 10
4.356299212598425
 20
9.085629921259842
 30
0.0
 11
4.331692913385826
 21
9.079724409448818
 31
0.0
  0
LINE
  5
3097
330
1E
100
AcDbEntity
  8
7
100
AcDbLine
 10
4.331692913385826
 20
9.079724409448818
 30
0.0
 11
4.311023622047243
 21
9.065944881889762
 31
0.0
  0
LINE
  5
3098
330
1E
100
AcDbEntity
  8
7
100
AcDbLine
 10
4.311023622047243
 20
9.065944881889762
 30
0.0
 11
4.29527559055118
 21
9.046259842519685
 31
0.0
  0
LINE
  5
3099
330
1E
100
AcDbEntity
  8
7
100
AcDbLine
 10
4.29527559055118
 20
9.046259842519685
 30
0.0
 11
4.287401574803149
 21
9.02263779527559
 31
0.0
  0
LINE
  5
309A
330
1E
100
AcDbEntity
  8
7
100
AcDbLine
 10
4.287401574803149
 20
9.02263779527559
 30
0.0
 11
4.287401574803149
 21
8.997047244094487
 31
0.0
  0
LINE
  5
309B
330
1E
100
AcDbEntity
  8
7
100
AcDbLine
 10
4.287401574803149
 20
8.997047244094487
 30
0.0
 11
4.29527559055118
 21
8.973425196850392
 31
0.0
  0
LINE
  5
309C
330
1E
100
AcDbEntity
  8
7
100
AcDbLine
 10
4.29527559055118
 20
8.973425196850392
 30
0.0
 11
4.311023622047243
 21
8.953740157480314
 31
0.0
  0
LINE
  5
309D
330
1E
100
AcDbEntity
  8
7
100
AcDbLine
 10
4.258858267716535
 20
9.069881889763779
 30
0.0
 11
4.247047244094487
 21
9.040354330708661
 31
0.0
  0
LINE
  5
309E
330
1E
100
AcDbEntity
  8
7
100
AcDbLine
 10
4.247047244094487
 20
9.040354330708661
 30
0.0
 11
4.243110236220472
 21
9.009842519685038
 31
0.0
  0
LINE
  5
309F
330
1E
100
AcDbEntity
  8
7
100
AcDbLine
 10
4.243110236220472
 20
9.009842519685038
 30
0.0
 11
4.247047244094487
 21
8.979330708661416
 31
0.0
  0
LINE
  5
30A0
330
1E
100
AcDbEntity
  8
7
100
AcDbLine
 10
4.247047244094487
 20
8.979330708661416
 30
0.0
 11
4.258858267716535
 21
8.950787401574801
 31
0.0
  0
LINE
  5
30A1
330
1E
100
AcDbEntity
  8
7
100
AcDbLine
 10
4.258858267716535
 20
8.950787401574801
 30
0.0
 11
4.27755905511811
 21
8.9251968503937
 31
0.0
  0
LINE
  5
30A2
330
1E
100
AcDbEntity
  8
7
100
AcDbLine
 10
4.27755905511811
 20
8.9251968503937
 30
0.0
 11
4.302165354330708
 21
8.906496062992125
 31
0.0
  0
LINE
  5
30A3
330
1E
100
AcDbEntity
  8
7
100
AcDbLine
 10
4.302165354330708
 20
8.906496062992125
 30
0.0
 11
4.331692913385826
 21
8.894685039370077
 31
0.0
  0
LINE
  5
30A4
330
1E
100
AcDbEntity
  8
7
100
AcDbLine
 10
4.331692913385826
 20
8.894685039370077
 30
0.0
 11
4.362204724409448
 21
8.890748031496062
 31
0.0
  0
LINE
  5
30A5
330
1E
100
AcDbEntity
  8
7
100
AcDbLine
 10
4.362204724409448
 20
8.890748031496062
 30
0.0
 11
4.39271653543307
 21
8.894685039370077
 31
0.0
  0
LINE
  5
30A6
330
1E
100
AcDbEntity
  8
7
100
AcDbLine
 10
4.39271653543307
 20
8.894685039370077
 30
0.0
 11
4.421259842519684
 21
8.906496062992125
 31
0.0
  0
LINE
  5
30A7
330
1E
100
AcDbEntity
  8
7
100
AcDbLine
 10
4.421259842519684
 20
8.906496062992125
 30
0.0
 11
4.446850393700787
 21
8.9251968503937
 31
0.0
  0
LINE
  5
30A8
330
1E
100
AcDbEntity
  8
7
100
AcDbLine
 10
4.446850393700787
 20
8.9251968503937
 30
0.0
 11
4.465551181102362
 21
8.949803149606298
 31
0.0
  0
LINE
  5
30A9
330
1E
100
AcDbEntity
  8
7
100
AcDbLine
 10
4.465551181102362
 20
8.949803149606298
 30
0.0
 11
4.477362204724409
 21
8.979330708661416
 31
0.0
  0
LINE
  5
30AA
330
1E
100
AcDbEntity
  8
7
100
AcDbLine
 10
4.477362204724409
 20
8.979330708661416
 30
0.0
 11
4.481299212598425
 21
9.009842519685038
 31
0.0
  0
LINE
  5
30AB
330
1E
100
AcDbEntity
  8
7
100
AcDbLine
 10
4.481299212598425
 20
9.009842519685038
 30
0.0
 11
4.477362204724409
 21
9.040354330708661
 31
0.0
  0
LINE
  5
30AC
330
1E
100
AcDbEntity
  8
7
100
AcDbLine
 10
4.477362204724409
 20
9.040354330708661
 30
0.0
 11
4.465551181102362
 21
9.068897637795275
 31
0.0
  0
LINE
  5
30AD
330
1E
100
AcDbEntity
  8
7
100
AcDbLine
 10
4.465551181102362
 20
9.068897637795275
 30
0.0
 11
4.446850393700787
 21
9.094488188976377
 31
0.0
  0
LINE
  5
30AE
330
1E
100
AcDbEntity
  8
7
100
AcDbLine
 10
4.446850393700787
 20
9.094488188976377
 30
0.0
 11
4.422244094488188
 21
9.113188976377951
 31
0.0
  0
LINE
  5
30AF
330
1E
100
AcDbEntity
  8
7
100
AcDbLine
 10
4.422244094488188
 20
9.113188976377951
 30
0.0
 11
4.39271653543307
 21
9.125
 31
0.0
  0
LINE
  5
30B0
330
1E
100
AcDbEntity
  8
7
100
AcDbLine
 10
4.39271653543307
 20
9.125
 30
0.0
 11
4.362204724409448
 21
9.128937007874014
 31
0.0
  0
LINE
  5
30B1
330
1E
100
AcDbEntity
  8
7
100
AcDbLine
 10
4.362204724409448
 20
9.128937007874014
 30
0.0
 11
4.331692913385826
 21
9.125
 31
0.0
  0
LINE
  5
30B2
330
1E
100
AcDbEntity
  8
7
100
AcDbLine
 10
4.331692913385826
 20
9.125
 30
0.0
 11
4.303149606299212
 21
9.113188976377951
 31
0.0
  0
LINE
  5
30B3
330
1E
100
AcDbEntity
  8
7
100
AcDbLine
 10
4.303149606299212
 20
9.113188976377951
 30
0.0
 11
4.27755905511811
 21
9.094488188976377
 31
0.0
  0
LINE
  5
30B4
330
1E
100
AcDbEntity
  8
7
100
AcDbLine
 10
4.27755905511811
 20
9.094488188976377
 30
0.0
 11
4.258858267716535
 21
9.069881889763779
 31
0.0
  0
LINE
  5
30B5
330
1E
100
AcDbEntity
  8
7
100
AcDbLine
 10
4.342519685039369
 20
8.932086614173227
 30
0.0
 11
4.369094488188975
 21
8.929133858267716
 31
0.0
  0
LINE
  5
30B6
330
1E
100
AcDbEntity
  8
7
100
AcDbLine
 10
4.369094488188975
 20
8.929133858267716
 30
0.0
 11
4.394685039370078
 21
8.936023622047244
 31
0.0
  0
LINE
  5
30B7
330
1E
100
AcDbEntity
  8
7
100
AcDbLine
 10
4.394685039370078
 20
8.936023622047244
 30
0.0
 11
4.417322834645668
 21
8.950787401574801
 31
0.0
  0
LINE
  5
30B8
330
1E
100
AcDbEntity
  8
7
100
AcDbLine
 10
4.417322834645668
 20
8.950787401574801
 30
0.0
 11
4.433070866141731
 21
8.971456692913385
 31
0.0
  0
LINE
  5
30B9
330
1E
100
AcDbEntity
  8
7
100
AcDbLine
 10
4.433070866141731
 20
8.971456692913385
 30
0.0
 11
4.441929133858267
 21
8.997047244094487
 31
0.0
  0
LINE
  5
30BA
330
1E
100
AcDbEntity
  8
7
100
AcDbLine
 10
4.441929133858267
 20
8.997047244094487
 30
0.0
 11
4.441929133858267
 21
9.02263779527559
 31
0.0
  0
LINE
  5
30BB
330
1E
100
AcDbEntity
  8
7
100
AcDbLine
 10
4.441929133858267
 20
9.02263779527559
 30
0.0
 11
4.433070866141731
 21
9.048228346456692
 31
0.0
  0
LINE
  5
30BC
330
1E
100
AcDbEntity
  8
7
100
AcDbLine
 10
4.433070866141731
 20
9.048228346456692
 30
0.0
 11
4.417322834645668
 21
9.068897637795275
 31
0.0
  0
LINE
  5
30BD
330
1E
100
AcDbEntity
  8
7
100
AcDbLine
 10
4.417322834645668
 20
9.068897637795275
 30
0.0
 11
4.394685039370078
 21
9.083661417322835
 31
0.0
  0
LINE
  5
30BE
330
1E
100
AcDbEntity
  8
7
100
AcDbLine
 10
4.394685039370078
 20
9.083661417322835
 30
0.0
 11
4.369094488188975
 21
9.090551181102361
 31
0.0
  0
LINE
  5
30BF
330
1E
100
AcDbEntity
  8
7
100
AcDbLine
 10
4.369094488188975
 20
9.090551181102361
 30
0.0
 11
4.342519685039369
 21
9.08759842519685
 31
0.0
  0
LINE
  5
30C0
330
1E
100
AcDbEntity
  8
7
100
AcDbLine
 10
4.342519685039369
 20
9.08759842519685
 30
0.0
 11
4.317913385826771
 21
9.077755905511811
 31
0.0
  0
LINE
  5
30C1
330
1E
100
AcDbEntity
  8
7
100
AcDbLine
 10
4.317913385826771
 20
9.077755905511811
 30
0.0
 11
4.298228346456692
 21
9.059055118110235
 31
0.0
  0
LINE
  5
30C2
330
1E
100
AcDbEntity
  8
7
100
AcDbLine
 10
4.298228346456692
 20
9.059055118110235
 30
0.0
 11
4.285433070866141
 21
9.036417322834644
 31
0.0
  0
LINE
  5
30C3
330
1E
100
AcDbEntity
  8
7
100
AcDbLine
 10
4.281496062992125
 20
9.009842519685038
 30
0.0
 11
4.285433070866141
 21
8.983267716535433
 31
0.0
  0
LINE
  5
30C4
330
1E
100
AcDbEntity
  8
7
100
AcDbLine
 10
4.285433070866141
 20
8.983267716535433
 30
0.0
 11
4.298228346456692
 21
8.960629921259842
 31
0.0
  0
LINE
  5
30C5
330
1E
100
AcDbEntity
  8
7
100
AcDbLine
 10
4.298228346456692
 20
8.960629921259842
 30
0.0
 11
4.317913385826771
 21
8.941929133858266
 31
0.0
  0
LINE
  5
30C6
330
1E
100
AcDbEntity
  8
7
100
AcDbLine
 10
4.317913385826771
 20
8.941929133858266
 30
0.0
 11
4.342519685039369
 21
8.932086614173227
 31
0.0
  0
LINE
  5
30C7
330
1E
100
AcDbEntity
  8
7
100
AcDbLine
 10
5.140748031496062
 20
8.726377952755905
 30
0.0
 11
5.146653543307086
 21
8.724409448818898
 31
0.0
  0
LINE
  5
30C8
330
1E
100
AcDbEntity
  8
7
100
AcDbLine
 10
5.146653543307086
 20
8.724409448818898
 30
0.0
 11
5.148622047244094
 21
8.718503937007874
 31
0.0
  0
LINE
  5
30C9
330
1E
100
AcDbEntity
  8
7
100
AcDbLine
 10
5.148622047244094
 20
8.718503937007874
 30
0.0
 11
5.151574803149605
 21
8.721456692913385
 31
0.0
  0
LINE
  5
30CA
330
1E
100
AcDbEntity
  8
7
100
AcDbLine
 10
5.151574803149605
 20
8.721456692913385
 30
0.0
 11
5.149606299212598
 21
8.727362204724409
 31
0.0
  0
LINE
  5
30CB
330
1E
100
AcDbEntity
  8
7
100
AcDbLine
 10
5.149606299212598
 20
8.727362204724409
 30
0.0
 11
5.143700787401574
 21
8.729330708661416
 31
0.0
  0
LINE
  5
30CC
330
1E
100
AcDbEntity
  8
7
100
AcDbLine
 10
3.638779527559054
 20
8.723425196850392
 30
0.0
 11
5.085629921259842
 21
8.723425196850392
 31
0.0
  0
LINE
  5
30CD
330
1E
100
AcDbEntity
  8
7
100
AcDbLine
 10
5.085629921259842
 20
8.723425196850392
 30
0.0
 11
5.088582677165353
 21
8.726377952755905
 31
0.0
  0
LINE
  5
30CE
330
1E
100
AcDbEntity
  8
7
100
AcDbLine
 10
3.57283464566929
 20
8.721456692913385
 30
0.0
 11
3.574803149606299
 21
8.727362204724409
 31
0.0
  0
LINE
  5
30CF
330
1E
100
AcDbEntity
  8
7
100
AcDbLine
 10
3.574803149606299
 20
8.727362204724409
 30
0.0
 11
3.580708661417322
 21
8.729330708661416
 31
0.0
  0
LINE
  5
30D0
330
1E
100
AcDbEntity
  8
7
100
AcDbLine
 10
3.583661417322834
 20
8.726377952755905
 30
0.0
 11
3.578740157480314
 21
8.724409448818898
 31
0.0
  0
LINE
  5
30D1
330
1E
100
AcDbEntity
  8
7
100
AcDbLine
 10
3.578740157480314
 20
8.724409448818898
 30
0.0
 11
3.575787401574802
 21
8.718503937007874
 31
0.0
  0
LINE
  5
30D2
330
1E
100
AcDbEntity
  8
7
100
AcDbLine
 10
5.247047244094487
 20
7.257874015748031
 30
0.0
 11
5.272637795275589
 21
7.261811023622046
 31
0.0
  0
LINE
  5
30D3
330
1E
100
AcDbEntity
  8
7
100
AcDbLine
 10
5.272637795275589
 20
7.261811023622046
 30
0.0
 11
5.297244094488188
 21
7.271653543307087
 31
0.0
  0
LINE
  5
30D4
330
1E
100
AcDbEntity
  8
7
100
AcDbLine
 10
5.297244094488188
 20
7.271653543307087
 30
0.0
 11
5.317913385826771
 21
7.287401574803149
 31
0.0
  0
LINE
  5
30D5
330
1E
100
AcDbEntity
  8
7
100
AcDbLine
 10
5.317913385826771
 20
7.287401574803149
 30
0.0
 11
5.333661417322834
 21
7.308070866141731
 31
0.0
  0
LINE
  5
30D6
330
1E
100
AcDbEntity
  8
7
100
AcDbLine
 10
5.333661417322834
 20
7.308070866141731
 30
0.0
 11
5.343503937007874
 21
7.332677165354329
 31
0.0
  0
LINE
  5
30D7
330
1E
100
AcDbEntity
  8
7
100
AcDbLine
 10
5.343503937007874
 20
7.332677165354329
 30
0.0
 11
5.346456692913385
 21
7.358267716535433
 31
0.0
  0
LINE
  5
30D8
330
1E
100
AcDbEntity
  8
7
100
AcDbLine
 10
5.211614173228346
 20
8.133858267716535
 30
0.0
 11
5.209645669291337
 21
8.139763779527559
 31
0.0
  0
LINE
  5
30D9
330
1E
100
AcDbEntity
  8
7
100
AcDbLine
 10
5.209645669291337
 20
8.139763779527559
 30
0.0
 11
5.203740157480314
 21
8.14271653543307
 31
0.0
  0
LINE
  5
30DA
330
1E
100
AcDbEntity
  8
7
100
AcDbLine
 10
5.203740157480314
 20
8.14271653543307
 30
0.0
 11
5.200787401574802
 21
8.138779527559055
 31
0.0
  0
LINE
  5
30DB
330
1E
100
AcDbEntity
  8
7
100
AcDbLine
 10
5.200787401574802
 20
8.138779527559055
 30
0.0
 11
5.206692913385826
 21
8.136811023622046
 31
0.0
  0
LINE
  5
30DC
330
1E
100
AcDbEntity
  8
7
100
AcDbLine
 10
5.206692913385826
 20
8.136811023622046
 30
0.0
 11
5.208661417322834
 21
8.130905511811024
 31
0.0
  0
LINE
  5
30DD
330
1E
100
AcDbEntity
  8
7
100
AcDbLine
 10
5.208661417322834
 20
7.978346456692912
 30
0.0
 11
5.206692913385826
 21
7.972440944881888
 31
0.0
  0
LINE
  5
30DE
330
1E
100
AcDbEntity
  8
7
100
AcDbLine
 10
5.206692913385826
 20
7.972440944881888
 30
0.0
 11
5.200787401574802
 21
7.970472440944881
 31
0.0
  0
LINE
  5
30DF
330
1E
100
AcDbEntity
  8
7
100
AcDbLine
 10
5.200787401574802
 20
7.970472440944881
 30
0.0
 11
5.203740157480314
 21
7.96751968503937
 31
0.0
  0
LINE
  5
30E0
330
1E
100
AcDbEntity
  8
7
100
AcDbLine
 10
5.203740157480314
 20
7.96751968503937
 30
0.0
 11
5.209645669291337
 21
7.969488188976377
 31
0.0
  0
LINE
  5
30E1
330
1E
100
AcDbEntity
  8
7
100
AcDbLine
 10
5.209645669291337
 20
7.969488188976377
 30
0.0
 11
5.211614173228346
 21
7.975393700787401
 31
0.0
  0
LINE
  5
30E2
330
1E
100
AcDbEntity
  8
7
100
AcDbLine
 10
5.245078740157479
 20
7.260826771653542
 30
0.0
 11
5.270669291338582
 21
7.263779527559055
 31
0.0
  0
LINE
  5
30E3
330
1E
100
AcDbEntity
  8
7
100
AcDbLine
 10
5.270669291338582
 20
7.263779527559055
 30
0.0
 11
5.294291338582676
 21
7.273622047244094
 31
0.0
  0
LINE
  5
30E4
330
1E
100
AcDbEntity
  8
7
100
AcDbLine
 10
5.294291338582676
 20
7.273622047244094
 30
0.0
 11
5.314960629921259
 21
7.289370078740157
 31
0.0
  0
LINE
  5
30E5
330
1E
100
AcDbEntity
  8
7
100
AcDbLine
 10
5.314960629921259
 20
7.289370078740157
 30
0.0
 11
5.330708661417322
 21
7.310039370078738
 31
0.0
  0
LINE
  5
30E6
330
1E
100
AcDbEntity
  8
7
100
AcDbLine
 10
5.330708661417322
 20
7.310039370078738
 30
0.0
 11
5.341535433070865
 21
7.334645669291338
 31
0.0
  0
LINE
  5
30E7
330
1E
100
AcDbEntity
  8
7
100
AcDbLine
 10
5.341535433070865
 20
7.334645669291338
 30
0.0
 11
5.344488188976377
 21
7.36023622047244
 31
0.0
  0
LINE
  5
30E8
330
1E
100
AcDbEntity
  8
7
100
AcDbLine
 10
5.245078740157479
 20
7.260826771653542
 30
0.0
 11
5.245078740157479
 21
7.269685039370077
 31
0.0
  0
LINE
  5
30E9
330
1E
100
AcDbEntity
  8
7
100
AcDbLine
 10
5.245078740157479
 20
7.269685039370077
 30
0.0
 11
5.245078740157479
 21
7.290354330708661
 31
0.0
  0
LINE
  5
30EA
330
1E
100
AcDbEntity
  8
7
100
AcDbLine
 10
5.301181102362204
 20
7.318897637795275
 30
0.0
 11
5.285433070866141
 21
7.304133858267716
 31
0.0
  0
LINE
  5
30EB
330
1E
100
AcDbEntity
  8
7
100
AcDbLine
 10
5.285433070866141
 20
7.304133858267716
 30
0.0
 11
5.266732283464566
 21
7.294291338582675
 31
0.0
  0
LINE
  5
30EC
330
1E
100
AcDbEntity
  8
7
100
AcDbLine
 10
5.266732283464566
 20
7.294291338582675
 30
0.0
 11
5.245078740157479
 21
7.290354330708661
 31
0.0
  0
LINE
  5
30ED
330
1E
100
AcDbEntity
  8
7
100
AcDbLine
 10
5.314960629921259
 20
7.36023622047244
 30
0.0
 11
5.311023622047243
 21
7.338582677165353
 31
0.0
  0
LINE
  5
30EE
330
1E
100
AcDbEntity
  8
7
100
AcDbLine
 10
5.311023622047243
 20
7.338582677165353
 30
0.0
 11
5.301181102362204
 21
7.318897637795275
 31
0.0
  0
LINE
  5
30EF
330
1E
100
AcDbEntity
  8
7
100
AcDbLine
 10
5.346456692913385
 20
9.126968503937007
 30
0.0
 11
5.343503937007874
 21
9.153543307086613
 31
0.0
  0
LINE
  5
30F0
330
1E
100
AcDbEntity
  8
7
100
AcDbLine
 10
5.343503937007874
 20
9.153543307086613
 30
0.0
 11
5.333661417322834
 21
9.177165354330707
 31
0.0
  0
LINE
  5
30F1
330
1E
100
AcDbEntity
  8
7
100
AcDbLine
 10
5.333661417322834
 20
9.177165354330707
 30
0.0
 11
5.317913385826771
 21
9.19783464566929
 31
0.0
  0
LINE
  5
30F2
330
1E
100
AcDbEntity
  8
7
100
AcDbLine
 10
5.317913385826771
 20
9.19783464566929
 30
0.0
 11
5.297244094488188
 21
9.213582677165353
 31
0.0
  0
LINE
  5
30F3
330
1E
100
AcDbEntity
  8
7
100
AcDbLine
 10
5.297244094488188
 20
9.213582677165353
 30
0.0
 11
5.272637795275589
 21
9.223425196850392
 31
0.0
  0
LINE
  5
30F4
330
1E
100
AcDbEntity
  8
7
100
AcDbLine
 10
5.272637795275589
 20
9.223425196850392
 30
0.0
 11
5.247047244094487
 21
9.227362204724409
 31
0.0
  0
LINE
  5
30F5
330
1E
100
AcDbEntity
  8
7
100
AcDbLine
 10
5.247047244094487
 20
9.227362204724409
 30
0.0
 11
5.245078740157479
 21
9.225393700787401
 31
0.0
  0
LINE
  5
30F6
330
1E
100
AcDbEntity
  8
7
100
AcDbLine
 10
5.314960629921259
 20
9.125
 30
0.0
 11
5.314960629921259
 21
7.36023622047244
 31
0.0
  0
LINE
  5
30F7
330
1E
100
AcDbEntity
  8
7
100
AcDbLine
 10
5.314960629921259
 20
7.36023622047244
 30
0.0
 11
5.335629921259842
 21
7.36023622047244
 31
0.0
  0
LINE
  5
30F8
330
1E
100
AcDbEntity
  8
7
100
AcDbLine
 10
5.335629921259842
 20
7.36023622047244
 30
0.0
 11
5.344488188976377
 21
7.36023622047244
 31
0.0
  0
LINE
  5
30F9
330
1E
100
AcDbEntity
  8
7
100
AcDbLine
 10
5.314960629921259
 20
9.195866141732283
 30
0.0
 11
5.294291338582676
 21
9.211614173228346
 31
0.0
  0
LINE
  5
30FA
330
1E
100
AcDbEntity
  8
7
100
AcDbLine
 10
5.294291338582676
 20
9.211614173228346
 30
0.0
 11
5.270669291338582
 21
9.221456692913385
 31
0.0
  0
LINE
  5
30FB
330
1E
100
AcDbEntity
  8
7
100
AcDbLine
 10
5.270669291338582
 20
9.221456692913385
 30
0.0
 11
5.245078740157479
 21
9.225393700787401
 31
0.0
  0
LINE
  5
30FC
330
1E
100
AcDbEntity
  8
7
100
AcDbLine
 10
5.245078740157479
 20
9.194881889763779
 30
0.0
 11
5.266732283464566
 21
9.191929133858266
 31
0.0
  0
LINE
  5
30FD
330
1E
100
AcDbEntity
  8
7
100
AcDbLine
 10
5.266732283464566
 20
9.191929133858266
 30
0.0
 11
5.285433070866141
 21
9.182086614173227
 31
0.0
  0
LINE
  5
30FE
330
1E
100
AcDbEntity
  8
7
100
AcDbLine
 10
5.285433070866141
 20
9.182086614173227
 30
0.0
 11
5.301181102362204
 21
9.166338582677164
 31
0.0
  0
LINE
  5
30FF
330
1E
100
AcDbEntity
  8
7
100
AcDbLine
 10
5.301181102362204
 20
9.166338582677164
 30
0.0
 11
5.311023622047243
 21
9.146653543307087
 31
0.0
  0
LINE
  5
3100
330
1E
100
AcDbEntity
  8
7
100
AcDbLine
 10
5.311023622047243
 20
9.146653543307087
 30
0.0
 11
5.314960629921259
 21
9.125
 31
0.0
  0
LINE
  5
3101
330
1E
100
AcDbEntity
  8
7
100
AcDbLine
 10
5.314960629921259
 20
9.125
 30
0.0
 11
5.335629921259842
 21
9.125
 31
0.0
  0
LINE
  5
3102
330
1E
100
AcDbEntity
  8
7
100
AcDbLine
 10
5.335629921259842
 20
9.125
 30
0.0
 11
5.344488188976377
 21
9.125
 31
0.0
  0
LINE
  5
3103
330
1E
100
AcDbEntity
  8
7
100
AcDbLine
 10
5.344488188976377
 20
9.125
 30
0.0
 11
5.341535433070865
 21
9.150590551181101
 31
0.0
  0
LINE
  5
3104
330
1E
100
AcDbEntity
  8
7
100
AcDbLine
 10
5.341535433070865
 20
9.150590551181101
 30
0.0
 11
5.330708661417322
 21
9.1751968503937
 31
0.0
  0
LINE
  5
3105
330
1E
100
AcDbEntity
  8
7
100
AcDbLine
 10
5.330708661417322
 20
9.1751968503937
 30
0.0
 11
5.314960629921259
 21
9.195866141732283
 31
0.0
  0
LINE
  5
3106
330
1E
100
AcDbEntity
  8
7
100
AcDbLine
 10
5.245078740157479
 20
9.194881889763779
 30
0.0
 11
5.245078740157479
 21
9.215551181102361
 31
0.0
  0
LINE
  5
3107
330
1E
100
AcDbEntity
  8
7
100
AcDbLine
 10
5.245078740157479
 20
9.215551181102361
 30
0.0
 11
5.245078740157479
 21
9.225393700787401
 31
0.0
  0
ENDSEC
  0
SECTION
  2
OBJECTS
  0
DICTIONARY
  5
C
330
0
100
AcDbDictionary
  3
ACAD_GROUP
350
D
  3
ACAD_LAYOUT
350
19
  3
ACAD_MLINESTYLE
350
16
  3
ACAD_PLOTSETTINGS
350
18
1001
ACAD
1000
TREAT_AS_HARD
1070
     0
  0
DICTIONARY
  5
313F
330
1E
100
AcDbDictionary
  3
ACAD_LAYOUTSELFREF
350
3140
  0
DICTIONARY
  5
313D
330
1A
100
AcDbDictionary
  3
ACAD_LAYOUTSELFREF
350
313E
  0
DICTIONARY
  5
D
102
{ACAD_REACTORS
330
C
102
}
330
C
100
AcDbDictionary
1001
ACAD
1000
TREAT_AS_HARD
1070
     0
  0
DICTIONARY
  5
19
102
{ACAD_REACTORS
330
C
102
}
330
C
100
AcDbDictionary
1001
ACAD
1000
TREAT_AS_HARD
1070
     0
  0
DICTIONARY
  5
16
102
{ACAD_REACTORS
330
C
102
}
330
C
100
AcDbDictionary
  3
STANDARD
350
17
1001
ACAD
1000
TREAT_AS_HARD
1070
     0
  0
DICTIONARY
  5
18
102
{ACAD_REACTORS
330
C
102
}
330
C
100
AcDbDictionary
1001
ACAD
1000
TREAT_AS_HARD
1070
     0
  0
XRECORD
  5
3140
102
{ACAD_REACTORS
330
313F
102
}
330
313F
100
AcDbXrecord
340
1E
  0
XRECORD
  5
313E
102
{ACAD_REACTORS
330
313D
102
}
330
313D
100
AcDbXrecord
340
1A
  0
MLINESTYLE
  5
17
102
{ACAD_REACTORS
330
16
102
}
330
16
100
AcDbMlineStyle
  2
STANDARD
 70
     0
  3

 62
   256
 51
90.0
 52
90.0
 71
     2
 49
0.5
 62
   256
  6
BYLAYER
 49
-0.5
 62
   256
  6
BYLAYER
  0
ENDSEC
  0
EOF
