  0
SECTION
  2
HEADER
  9
$ACADVER
  1
AC1012
  9
$DWGCODEPAGE
  3
ANSI_1252
  9
$INSBASE
 10
0.0
 20
0.0
 30
0.0
  9
$EXTMIN
 10
-1.020583079870878
 20
3.198120141865359
 30
-0.0000000000000058
  9
$EXTMAX
 10
5.954339014675511
 20
7.699081440338726
 30
0.0000000000000104
  9
$LIMMIN
 10
0.0
 20
0.0
  9
$LIMMAX
 10
12.0
 20
9.0
  9
$ORTHOMODE
 70
     0
  9
$REGENMODE
 70
     1
  9
$FILLMODE
 70
     1
  9
$QTEXTMODE
 70
     0
  9
$MIRRTEXT
 70
     1
  9
$DRAGMODE
 70
     2
  9
$LTSCALE
 40
1.0
  9
$OSMODE
 70
   547
  9
$ATTMODE
 70
     1
  9
$TEXTSIZE
 40
0.2
  9
$TRACEWID
 40
0.05
  9
$TEXTSTYLE
  7
STANDARD
  9
$CLAYER
  8
0
  9
$CELTYPE
  6
BYLAYER
  9
$CECOLOR
 62
   256
  9
$CELTSCALE
 40
1.0
  9
$DELOBJ
 70
     1
  9
$DISPSILH
 70
     0
  9
$DIMSCALE
 40
1.0
  9
$DIMASZ
 40
0.18
  9
$DIMEXO
 40
0.0625
  9
$DIMDLI
 40
0.38
  9
$DIMRND
 40
0.0
  9
$DIMDLE
 40
0.0
  9
$DIMEXE
 40
0.18
  9
$DIMTP
 40
0.0
  9
$DIMTM
 40
0.0
  9
$DIMTXT
 40
0.18
  9
$DIMCEN
 40
0.09
  9
$DIMTSZ
 40
0.0
  9
$DIMTOL
 70
     0
  9
$DIMLIM
 70
     0
  9
$DIMTIH
 70
     1
  9
$DIMTOH
 70
     1
  9
$DIMSE1
 70
     0
  9
$DIMSE2
 70
     0
  9
$DIMTAD
 70
     0
  9
$DIMZIN
 70
     0
  9
$DIMBLK
  1

  9
$DIMASO
 70
     1
  9
$DIMSHO
 70
     1
  9
$DIMPOST
  1

  9
$DIMAPOST
  1

  9
$DIMALT
 70
     0
  9
$DIMALTD
 70
     2
  9
$DIMALTF
 40
25.4
  9
$DIMLFAC
 40
1.0
  9
$DIMTOFL
 70
     0
  9
$DIMTVP
 40
0.0
  9
$DIMTIX
 70
     0
  9
$DIMSOXD
 70
     0
  9
$DIMSAH
 70
     0
  9
$DIMBLK1
  1

  9
$DIMBLK2
  1

  9
$DIMSTYLE
  2
STANDARD
  9
$DIMCLRD
 70
     0
  9
$DIMCLRE
 70
     0
  9
$DIMCLRT
 70
     0
  9
$DIMTFAC
 40
1.0
  9
$DIMGAP
 40
0.09
  9
$DIMJUST
 70
     0
  9
$DIMSD1
 70
     0
  9
$DIMSD2
 70
     0
  9
$DIMTOLJ
 70
     1
  9
$DIMTZIN
 70
     0
  9
$DIMALTZ
 70
     0
  9
$DIMALTTZ
 70
     0
  9
$DIMFIT
 70
     5
  9
$DIMUPT
 70
     0
  9
$DIMUNIT
 70
     2
  9
$DIMDEC
 70
     4
  9
$DIMTDEC
 70
     4
  9
$DIMALTU
 70
     2
  9
$DIMALTTD
 70
     2
  9
$DIMTXSTY
  7
STANDARD
  9
$DIMAUNIT
 70
     0
  9
$LUNITS
 70
     2
  9
$LUPREC
 70
     4
  9
$SKETCHINC
 40
0.1
  9
$FILLETRAD
 40
0.0
  9
$AUNITS
 70
     0
  9
$AUPREC
 70
     0
  9
$MENU
  1
acad
  9
$ELEVATION
 40
0.0
  9
$PELEVATION
 40
0.0
  9
$THICKNESS
 40
0.0
  9
$LIMCHECK
 70
     0
  9
$BLIPMODE
 70
     0
  9
$CHAMFERA
 40
0.0
  9
$CHAMFERB
 40
0.0
  9
$CHAMFERC
 40
0.0
  9
$CHAMFERD
 40
0.0
  9
$SKPOLY
 70
     0
  9
$TDCREATE
 40
2452031.318425925
  9
$TDUPDATE
 40
2453944.469106250
  9
$TDINDWG
 40
0.0020944329
  9
$TDUSRTIMER
 40
0.0020944329
  9
$USRTIMER
 70
     1
  9
$ANGBASE
 50
0.0
  9
$ANGDIR
 70
     0
  9
$PDMODE
 70
     0
  9
$PDSIZE
 40
0.0
  9
$PLINEWID
 40
0.0
  9
$COORDS
 70
     1
  9
$SPLFRAME
 70
     0
  9
$SPLINETYPE
 70
     6
  9
$SPLINESEGS
 70
     8
  9
$ATTDIA
 70
     0
  9
$ATTREQ
 70
     1
  9
$HANDLING
 70
  4097
  9
$HANDSEED
  5
3406
  9
$SURFTAB1
 70
     6
  9
$SURFTAB2
 70
     6
  9
$SURFTYPE
 70
     6
  9
$SURFU
 70
     6
  9
$SURFV
 70
     6
  9
$UCSNAME
  2

  9
$UCSORG
 10
0.0
 20
0.0
 30
0.0
  9
$UCSXDIR
 10
1.0
 20
0.0
 30
0.0
  9
$UCSYDIR
 10
0.0
 20
1.0
 30
0.0
  9
$PUCSNAME
  2

  9
$PUCSORG
 10
0.0
 20
0.0
 30
0.0
  9
$PUCSXDIR
 10
1.0
 20
0.0
 30
0.0
  9
$PUCSYDIR
 10
0.0
 20
1.0
 30
0.0
  9
$USERI1
 70
     0
  9
$USERI2
 70
     0
  9
$USERI3
 70
     0
  9
$USERI4
 70
     0
  9
$USERI5
 70
     0
  9
$USERR1
 40
0.0
  9
$USERR2
 40
0.0
  9
$USERR3
 40
0.0
  9
$USERR4
 40
0.0
  9
$USERR5
 40
0.0
  9
$WORLDVIEW
 70
     1
  9
$SHADEDGE
 70
     3
  9
$SHADEDIF
 70
    70
  9
$TILEMODE
 70
     1
  9
$MAXACTVP
 70
    16
  9
$PINSBASE
 10
0.0
 20
0.0
 30
0.0
  9
$PLIMCHECK
 70
     0
  9
$PEXTMIN
 10
1.000000000000000E+20
 20
1.000000000000000E+20
 30
1.000000000000000E+20
  9
$PEXTMAX
 10
-1.000000000000000E+20
 20
-1.000000000000000E+20
 30
-1.000000000000000E+20
  9
$PLIMMIN
 10
0.0
 20
0.0
  9
$PLIMMAX
 10
12.0
 20
9.0
  9
$UNITMODE
 70
     0
  9
$VISRETAIN
 70
     0
  9
$PLINEGEN
 70
     0
  9
$PSLTSCALE
 70
     1
  9
$TREEDEPTH
 70
  3020
  9
$PICKSTYLE
 70
     1
  9
$CMLSTYLE
  2
STANDARD
  9
$CMLJUST
 70
     0
  9
$CMLSCALE
 40
1.0
  9
$SAVEIMAGES
 70
     1
  0
ENDSEC
  0
SECTION
  2
CLASSES
  0
CLASS
  1
ACDBDICTIONARYWDFLT
  2
AcDbDictionaryWithDefault
  3
AutoCAD 2000
 90
    32768
280
     0
281
     0
  0
CLASS
  1
ACDBPLACEHOLDER
  2
AcDbPlaceHolder
  3
AutoCAD 2000
 90
    32768
280
     0
281
     0
  0
CLASS
  1
LAYOUT
  2
AcDbLayout
  3
AutoCAD 2000
 90
    32768
280
     0
281
     0
  0
CLASS
  1
LONG_TRANSACTION
  2
AcDbLongTransaction
  3
AutoCAD 2000
 90
    32768
280
     0
281
     0
  0
CLASS
  1
LWPOLYLINE
  2
AcDbPolyline
  3
AutoCAD 2000
 90
    32768
280
     0
281
     1
  0
CLASS
  1
HATCH
  2
AcDbHatch
  3
AutoCAD 2000
 90
    32768
280
     0
281
     1
  0
CLASS
  1
XRECORD
  2
AcDbXrecord
  3
AutoCAD 2000
 90
    32768
280
     0
281
     0
  0
CLASS
  1
LONG_TRANSACTION
  2
AcDbLongTransaction
  3
AutoCAD 2000
 90
    32768
280
     0
281
     0
  0
CLASS
  1
LWPOLYLINE
  2
AcDbPolyline
  3
AutoCAD 2000
 90
    32768
280
     0
281
     1
  0
CLASS
  1
HATCH
  2
AcDbHatch
  3
AutoCAD 2000
 90
    32768
280
     0
281
     1
  0
CLASS
  1
XRECORD
  2
AcDbXrecord
  3
AutoCAD 2000
 90
    32768
280
     0
281
     0
  0
CLASS
  1
LONG_TRANSACTION
  2
AcDbLongTransaction
  3
AutoCAD 2000
 90
    32768
280
     0
281
     0
  0
CLASS
  1
LWPOLYLINE
  2
AcDbPolyline
  3
AutoCAD 2000
 90
    32768
280
     0
281
     1
  0
CLASS
  1
HATCH
  2
AcDbHatch
  3
AutoCAD 2000
 90
    32768
280
     0
281
     1
  0
CLASS
  1
XRECORD
  2
AcDbXrecord
  3
AutoCAD 2000
 90
    32768
280
     0
281
     0
  0
ENDSEC
  0
SECTION
  2
TABLES
  0
TABLE
  2
VPORT
  5
8
330
0
100
AcDbSymbolTable
 70
     3
  0
VPORT
  5
3403
330
8
100
AcDbSymbolTableRecord
100
AcDbViewportTableRecord
  2
*ACTIVE
 70
     0
 10
0.0
 20
0.0
 11
1.0
 21
1.0
 12
2.466877967402316
 22
5.448600791102043
 13
0.0
 23
0.0
 14
1.0
 24
1.0
 15
0.0
 25
0.0
 16
0.0
 26
0.0
 36
1.0
 17
0.0
 27
0.0
 37
0.0
 40
4.547765055476556
 41
1.647569444444444
 42
50.0
 43
0.0
 44
0.0
 50
0.0
 51
0.0
 71
     0
 72
   100
 73
     1
 74
     1
 75
     0
 76
     0
 77
     0
 78
     0
  0
ENDTAB
  0
TABLE
  2
LTYPE
  5
5
330
0
100
AcDbSymbolTable
 70
    25
  0
LTYPE
  5
13
330
5
100
AcDbSymbolTableRecord
100
AcDbLinetypeTableRecord
  2
BYBLOCK
 70
     0
  3

 72
    65
 73
     0
 40
0.0
  0
LTYPE
  5
14
330
5
100
AcDbSymbolTableRecord
100
AcDbLinetypeTableRecord
  2
BYLAYER
 70
     0
  3

 72
    65
 73
     0
 40
0.0
  0
LTYPE
  5
15
330
5
100
AcDbSymbolTableRecord
100
AcDbLinetypeTableRecord
  2
CONTINUOUS
 70
     0
  3
Solid line
 72
    65
 73
     0
 40
0.0
  0
LTYPE
  5
22
330
5
100
AcDbSymbolTableRecord
100
AcDbLinetypeTableRecord
  2
BORDER
 70
     0
  3
__ __ . __ __ . __ __ . __ __ . __ __ . __ __ .
 72
    65
 73
     6
 40
1.75
 49
0.5
 74
     0
 49
-0.25
 74
     0
 49
0.5
 74
     0
 49
-0.25
 74
     0
 49
0.5
 74
     0
 49
-0.25
 74
     0
  0
LTYPE
  5
23
330
5
100
AcDbSymbolTableRecord
100
AcDbLinetypeTableRecord
  2
BORDER2
 70
     0
  3
__.__.__.__.__.__.__.__.__.__.__.__.__.__.__.__
 72
    65
 73
     6
 40
0.875
 49
0.25
 74
     0
 49
-0.125
 74
     0
 49
0.25
 74
     0
 49
-0.125
 74
     0
 49
0.25
 74
     0
 49
-0.125
 74
     0
  0
LTYPE
  5
24
330
5
100
AcDbSymbolTableRecord
100
AcDbLinetypeTableRecord
  2
BORDERX2
 70
     0
  3
____  ____  .  ____  ____  .  
 72
    65
 73
     6
 40
3.5
 49
1.0
 74
     0
 49
-0.5
 74
     0
 49
1.0
 74
     0
 49
-0.5
 74
     0
 49
1.0
 74
     0
 49
-0.5
 74
     0
  0
LTYPE
  5
25
330
5
100
AcDbSymbolTableRecord
100
AcDbLinetypeTableRecord
  2
CENTER
 70
     0
  3
____ _ ____ _ ____ _ ____ _ ____ _ ____ _ ____
 72
    65
 73
     4
 40
2.0
 49
1.25
 74
     0
 49
-0.25
 74
     0
 49
0.25
 74
     0
 49
-0.25
 74
     0
  0
LTYPE
  5
26
330
5
100
AcDbSymbolTableRecord
100
AcDbLinetypeTableRecord
  2
CENTER2
 70
     0
  3
____ _ ____ _ ____ _ ____ _ ____ _ ____ _ ____
 72
    65
 73
     4
 40
1.125
 49
0.75
 74
     0
 49
-0.125
 74
     0
 49
0.125
 74
     0
 49
-0.125
 74
     0
  0
LTYPE
  5
27
330
5
100
AcDbSymbolTableRecord
100
AcDbLinetypeTableRecord
  2
CENTERX2
 70
     0
  3
________  __  ________  __  ________  __  
 72
    65
 73
     4
 40
4.0
 49
2.5
 74
     0
 49
-0.5
 74
     0
 49
0.5
 74
     0
 49
-0.5
 74
     0
  0
LTYPE
  5
28
330
5
100
AcDbSymbolTableRecord
100
AcDbLinetypeTableRecord
  2
DASHDOT
 70
     0
  3
__ . __ . __ . __ . __ . __ . __ . 
 72
    65
 73
     4
 40
1.0
 49
0.5
 74
     0
 49
-0.25
 74
     0
 49
0.0
 74
     0
 49
-0.25
 74
     0
  0
LTYPE
  5
29
330
5
100
AcDbSymbolTableRecord
100
AcDbLinetypeTableRecord
  2
DASHDOT2
 70
     0
  3
_._._._._._._._._._._._._._._._.
 72
    65
 73
     4
 40
0.5
 49
0.25
 74
     0
 49
-0.125
 74
     0
 49
0.0
 74
     0
 49
-0.125
 74
     0
  0
LTYPE
  5
2A
330
5
100
AcDbSymbolTableRecord
100
AcDbLinetypeTableRecord
  2
DASHDOTX2
 70
     0
  3
____  .  ____  .  ____  .  ____  .  
 72
    65
 73
     4
 40
2.0
 49
1.0
 74
     0
 49
-0.5
 74
     0
 49
0.0
 74
     0
 49
-0.5
 74
     0
  0
LTYPE
  5
2B
330
5
100
AcDbSymbolTableRecord
100
AcDbLinetypeTableRecord
  2
DASHED
 70
     0
  3
__ __ __ __ __ __ __ __ __ __ __ __ 
 72
    65
 73
     2
 40
0.75
 49
0.5
 74
     0
 49
-0.25
 74
     0
  0
LTYPE
  5
2C
330
5
100
AcDbSymbolTableRecord
100
AcDbLinetypeTableRecord
  2
DASHED2
 70
     0
  3
_ _ _ _ _ _ _ _ _ _ _ _ _ _ _ _ _ _ 
 72
    65
 73
     2
 40
0.375
 49
0.25
 74
     0
 49
-0.125
 74
     0
  0
LTYPE
  5
2D
330
5
100
AcDbSymbolTableRecord
100
AcDbLinetypeTableRecord
  2
DASHEDX2
 70
     0
  3
____  ____  ____  ____  ____  ____  
 72
    65
 73
     2
 40
1.5
 49
1.0
 74
     0
 49
-0.5
 74
     0
  0
LTYPE
  5
2E
330
5
100
AcDbSymbolTableRecord
100
AcDbLinetypeTableRecord
  2
DIVIDE
 70
     0
  3
____ . . ____ . . ____ . . ____ . . 
 72
    65
 73
     6
 40
1.25
 49
0.5
 74
     0
 49
-0.25
 74
     0
 49
0.0
 74
     0
 49
-0.25
 74
     0
 49
0.0
 74
     0
 49
-0.25
 74
     0
  0
LTYPE
  5
2F
330
5
100
AcDbSymbolTableRecord
100
AcDbLinetypeTableRecord
  2
DIVIDE2
 70
     0
  3
__..__..__..__..__..__..__..__..__..
 72
    65
 73
     6
 40
0.625
 49
0.25
 74
     0
 49
-0.125
 74
     0
 49
0.0
 74
     0
 49
-0.125
 74
     0
 49
0.0
 74
     0
 49
-0.125
 74
     0
  0
LTYPE
  5
30
330
5
100
AcDbSymbolTableRecord
100
AcDbLinetypeTableRecord
  2
DIVIDEX2
 70
     0
  3
________  .  .  ________  .  .  ________  .  . 
 72
    65
 73
     6
 40
2.5
 49
1.0
 74
     0
 49
-0.5
 74
     0
 49
0.0
 74
     0
 49
-0.5
 74
     0
 49
0.0
 74
     0
 49
-0.5
 74
     0
  0
LTYPE
  5
31
330
5
100
AcDbSymbolTableRecord
100
AcDbLinetypeTableRecord
  2
DOT
 70
     0
  3
. . . . . . . . . . . . . . . . . . 
 72
    65
 73
     2
 40
0.25
 49
0.0
 74
     0
 49
-0.25
 74
     0
  0
LTYPE
  5
32
330
5
100
AcDbSymbolTableRecord
100
AcDbLinetypeTableRecord
  2
DOT2
 70
     0
  3
....................................
 72
    65
 73
     2
 40
0.125
 49
0.0
 74
     0
 49
-0.125
 74
     0
  0
LTYPE
  5
33
330
5
100
AcDbSymbolTableRecord
100
AcDbLinetypeTableRecord
  2
DOTX2
 70
     0
  3
.  .  .  .  .  .  .  .  .  .  .  .  .  
 72
    65
 73
     2
 40
0.5
 49
0.0
 74
     0
 49
-0.5
 74
     0
  0
LTYPE
  5
34
330
5
100
AcDbSymbolTableRecord
100
AcDbLinetypeTableRecord
  2
HIDDEN
 70
     0
  3
__ __ __ __ __ __ __ __ __ __ __ __ 
 72
    65
 73
     2
 40
0.375
 49
0.25
 74
     0
 49
-0.125
 74
     0
  0
LTYPE
  5
35
330
5
100
AcDbSymbolTableRecord
100
AcDbLinetypeTableRecord
  2
HIDDEN2
 70
     0
  3
_ _ _ _ _ _ _ _ _ _ _ _ _ _ _ _ _ _ 
 72
    65
 73
     2
 40
0.1875
 49
0.125
 74
     0
 49
-0.0625
 74
     0
  0
LTYPE
  5
36
330
5
100
AcDbSymbolTableRecord
100
AcDbLinetypeTableRecord
  2
HIDDENX2
 70
     0
  3
____ ____ ____ ____ ____ ____ ____ 
 72
    65
 73
     2
 40
0.75
 49
0.5
 74
     0
 49
-0.25
 74
     0
  0
LTYPE
  5
37
330
5
100
AcDbSymbolTableRecord
100
AcDbLinetypeTableRecord
  2
PHANTOM
 70
     0
  3
______  __  __  ______  __  __  
 72
    65
 73
     6
 40
2.5
 49
1.25
 74
     0
 49
-0.25
 74
     0
 49
0.25
 74
     0
 49
-0.25
 74
     0
 49
0.25
 74
     0
 49
-0.25
 74
     0
  0
LTYPE
  5
38
330
5
100
AcDbSymbolTableRecord
100
AcDbLinetypeTableRecord
  2
PHANTOM2
 70
     0
  3
___ _ _ ___ _ _ ___ _ _ ___ _ _ 
 72
    65
 73
     6
 40
1.25
 49
0.625
 74
     0
 49
-0.125
 74
     0
 49
0.125
 74
     0
 49
-0.125
 74
     0
 49
0.125
 74
     0
 49
-0.125
 74
     0
  0
LTYPE
  5
39
330
5
100
AcDbSymbolTableRecord
100
AcDbLinetypeTableRecord
  2
PHANTOMX2
 70
     0
  3
___ _ _ ___ _ _ ___ _ _ ___ _ _ 
 72
    65
 73
     6
 40
5.0
 49
2.5
 74
     0
 49
-0.5
 74
     0
 49
0.5
 74
     0
 49
-0.5
 74
     0
 49
0.5
 74
     0
 49
-0.5
 74
     0
  0
ENDTAB
  0
TABLE
  2
LAYER
  5
2
330
0
100
AcDbSymbolTable
 70
   256
  0
LAYER
  5
10
330
2
100
AcDbSymbolTableRecord
100
AcDbLayerTableRecord
  2
0
 70
     0
 62
     7
  6
CONTINUOUS
  0
LAYER
  5
3A
330
2
100
AcDbSymbolTableRecord
100
AcDbLayerTableRecord
  2
1
 70
     0
 62
     1
  6
CONTINUOUS
  0
LAYER
  5
3B
330
2
100
AcDbSymbolTableRecord
100
AcDbLayerTableRecord
  2
2
 70
     0
 62
     2
  6
CONTINUOUS
  0
LAYER
  5
3C
330
2
100
AcDbSymbolTableRecord
100
AcDbLayerTableRecord
  2
3
 70
     0
 62
     3
  6
CONTINUOUS
  0
LAYER
  5
3D
330
2
100
AcDbSymbolTableRecord
100
AcDbLayerTableRecord
  2
4
 70
     0
 62
     4
  6
CONTINUOUS
  0
LAYER
  5
3E
330
2
100
AcDbSymbolTableRecord
100
AcDbLayerTableRecord
  2
5
 70
     0
 62
     5
  6
CONTINUOUS
  0
LAYER
  5
3F
330
2
100
AcDbSymbolTableRecord
100
AcDbLayerTableRecord
  2
6
 70
     0
 62
     6
  6
CONTINUOUS
  0
LAYER
  5
40
330
2
100
AcDbSymbolTableRecord
100
AcDbLayerTableRecord
  2
7
 70
     0
 62
     7
  6
CONTINUOUS
  0
LAYER
  5
41
330
2
100
AcDbSymbolTableRecord
100
AcDbLayerTableRecord
  2
8
 70
     0
 62
     8
  6
CONTINUOUS
  0
LAYER
  5
42
330
2
100
AcDbSymbolTableRecord
100
AcDbLayerTableRecord
  2
9
 70
     0
 62
     9
  6
CONTINUOUS
  0
LAYER
  5
43
330
2
100
AcDbSymbolTableRecord
100
AcDbLayerTableRecord
  2
10
 70
     0
 62
    10
  6
CONTINUOUS
  0
LAYER
  5
44
330
2
100
AcDbSymbolTableRecord
100
AcDbLayerTableRecord
  2
11
 70
     0
 62
    11
  6
CONTINUOUS
  0
LAYER
  5
45
330
2
100
AcDbSymbolTableRecord
100
AcDbLayerTableRecord
  2
12
 70
     0
 62
    12
  6
CONTINUOUS
  0
LAYER
  5
46
330
2
100
AcDbSymbolTableRecord
100
AcDbLayerTableRecord
  2
13
 70
     0
 62
    13
  6
CONTINUOUS
  0
LAYER
  5
47
330
2
100
AcDbSymbolTableRecord
100
AcDbLayerTableRecord
  2
14
 70
     0
 62
    14
  6
CONTINUOUS
  0
LAYER
  5
48
330
2
100
AcDbSymbolTableRecord
100
AcDbLayerTableRecord
  2
15
 70
     0
 62
    15
  6
CONTINUOUS
  0
LAYER
  5
49
330
2
100
AcDbSymbolTableRecord
100
AcDbLayerTableRecord
  2
16
 70
     0
 62
    16
  6
CONTINUOUS
  0
LAYER
  5
4A
330
2
100
AcDbSymbolTableRecord
100
AcDbLayerTableRecord
  2
17
 70
     0
 62
    17
  6
CONTINUOUS
  0
LAYER
  5
4B
330
2
100
AcDbSymbolTableRecord
100
AcDbLayerTableRecord
  2
18
 70
     0
 62
    18
  6
CONTINUOUS
  0
LAYER
  5
4C
330
2
100
AcDbSymbolTableRecord
100
AcDbLayerTableRecord
  2
19
 70
     0
 62
    19
  6
CONTINUOUS
  0
LAYER
  5
4D
330
2
100
AcDbSymbolTableRecord
100
AcDbLayerTableRecord
  2
20
 70
     0
 62
    20
  6
CONTINUOUS
  0
LAYER
  5
4E
330
2
100
AcDbSymbolTableRecord
100
AcDbLayerTableRecord
  2
21
 70
     0
 62
    21
  6
CONTINUOUS
  0
LAYER
  5
4F
330
2
100
AcDbSymbolTableRecord
100
AcDbLayerTableRecord
  2
22
 70
     0
 62
    22
  6
CONTINUOUS
  0
LAYER
  5
50
330
2
100
AcDbSymbolTableRecord
100
AcDbLayerTableRecord
  2
23
 70
     0
 62
    23
  6
CONTINUOUS
  0
LAYER
  5
51
330
2
100
AcDbSymbolTableRecord
100
AcDbLayerTableRecord
  2
24
 70
     0
 62
    24
  6
CONTINUOUS
  0
LAYER
  5
52
330
2
100
AcDbSymbolTableRecord
100
AcDbLayerTableRecord
  2
25
 70
     0
 62
    25
  6
CONTINUOUS
  0
LAYER
  5
53
330
2
100
AcDbSymbolTableRecord
100
AcDbLayerTableRecord
  2
26
 70
     0
 62
    26
  6
CONTINUOUS
  0
LAYER
  5
54
330
2
100
AcDbSymbolTableRecord
100
AcDbLayerTableRecord
  2
27
 70
     0
 62
    27
  6
CONTINUOUS
  0
LAYER
  5
55
330
2
100
AcDbSymbolTableRecord
100
AcDbLayerTableRecord
  2
28
 70
     0
 62
    28
  6
CONTINUOUS
  0
LAYER
  5
56
330
2
100
AcDbSymbolTableRecord
100
AcDbLayerTableRecord
  2
29
 70
     0
 62
    29
  6
CONTINUOUS
  0
LAYER
  5
57
330
2
100
AcDbSymbolTableRecord
100
AcDbLayerTableRecord
  2
30
 70
     0
 62
    30
  6
CONTINUOUS
  0
LAYER
  5
58
330
2
100
AcDbSymbolTableRecord
100
AcDbLayerTableRecord
  2
31
 70
     0
 62
    31
  6
CONTINUOUS
  0
LAYER
  5
59
330
2
100
AcDbSymbolTableRecord
100
AcDbLayerTableRecord
  2
32
 70
     0
 62
    32
  6
CONTINUOUS
  0
LAYER
  5
5A
330
2
100
AcDbSymbolTableRecord
100
AcDbLayerTableRecord
  2
33
 70
     0
 62
    33
  6
CONTINUOUS
  0
LAYER
  5
5B
330
2
100
AcDbSymbolTableRecord
100
AcDbLayerTableRecord
  2
34
 70
     0
 62
    34
  6
CONTINUOUS
  0
LAYER
  5
5C
330
2
100
AcDbSymbolTableRecord
100
AcDbLayerTableRecord
  2
35
 70
     0
 62
    35
  6
CONTINUOUS
  0
LAYER
  5
5D
330
2
100
AcDbSymbolTableRecord
100
AcDbLayerTableRecord
  2
36
 70
     0
 62
    36
  6
CONTINUOUS
  0
LAYER
  5
5E
330
2
100
AcDbSymbolTableRecord
100
AcDbLayerTableRecord
  2
37
 70
     0
 62
    37
  6
CONTINUOUS
  0
LAYER
  5
5F
330
2
100
AcDbSymbolTableRecord
100
AcDbLayerTableRecord
  2
38
 70
     0
 62
    38
  6
CONTINUOUS
  0
LAYER
  5
60
330
2
100
AcDbSymbolTableRecord
100
AcDbLayerTableRecord
  2
39
 70
     0
 62
    39
  6
CONTINUOUS
  0
LAYER
  5
61
330
2
100
AcDbSymbolTableRecord
100
AcDbLayerTableRecord
  2
40
 70
     0
 62
    40
  6
CONTINUOUS
  0
LAYER
  5
62
330
2
100
AcDbSymbolTableRecord
100
AcDbLayerTableRecord
  2
41
 70
     0
 62
    41
  6
CONTINUOUS
  0
LAYER
  5
63
330
2
100
AcDbSymbolTableRecord
100
AcDbLayerTableRecord
  2
42
 70
     0
 62
    42
  6
CONTINUOUS
  0
LAYER
  5
64
330
2
100
AcDbSymbolTableRecord
100
AcDbLayerTableRecord
  2
43
 70
     0
 62
    43
  6
CONTINUOUS
  0
LAYER
  5
65
330
2
100
AcDbSymbolTableRecord
100
AcDbLayerTableRecord
  2
44
 70
     0
 62
    44
  6
CONTINUOUS
  0
LAYER
  5
66
330
2
100
AcDbSymbolTableRecord
100
AcDbLayerTableRecord
  2
45
 70
     0
 62
    45
  6
CONTINUOUS
  0
LAYER
  5
67
330
2
100
AcDbSymbolTableRecord
100
AcDbLayerTableRecord
  2
46
 70
     0
 62
    46
  6
CONTINUOUS
  0
LAYER
  5
68
330
2
100
AcDbSymbolTableRecord
100
AcDbLayerTableRecord
  2
47
 70
     0
 62
    47
  6
CONTINUOUS
  0
LAYER
  5
69
330
2
100
AcDbSymbolTableRecord
100
AcDbLayerTableRecord
  2
48
 70
     0
 62
    48
  6
CONTINUOUS
  0
LAYER
  5
6A
330
2
100
AcDbSymbolTableRecord
100
AcDbLayerTableRecord
  2
49
 70
     0
 62
    49
  6
CONTINUOUS
  0
LAYER
  5
6B
330
2
100
AcDbSymbolTableRecord
100
AcDbLayerTableRecord
  2
50
 70
     0
 62
    50
  6
CONTINUOUS
  0
LAYER
  5
6C
330
2
100
AcDbSymbolTableRecord
100
AcDbLayerTableRecord
  2
51
 70
     0
 62
    51
  6
CONTINUOUS
  0
LAYER
  5
6D
330
2
100
AcDbSymbolTableRecord
100
AcDbLayerTableRecord
  2
52
 70
     0
 62
    52
  6
CONTINUOUS
  0
LAYER
  5
6E
330
2
100
AcDbSymbolTableRecord
100
AcDbLayerTableRecord
  2
53
 70
     0
 62
    53
  6
CONTINUOUS
  0
LAYER
  5
6F
330
2
100
AcDbSymbolTableRecord
100
AcDbLayerTableRecord
  2
54
 70
     0
 62
    54
  6
CONTINUOUS
  0
LAYER
  5
70
330
2
100
AcDbSymbolTableRecord
100
AcDbLayerTableRecord
  2
55
 70
     0
 62
    55
  6
CONTINUOUS
  0
LAYER
  5
71
330
2
100
AcDbSymbolTableRecord
100
AcDbLayerTableRecord
  2
56
 70
     0
 62
    56
  6
CONTINUOUS
  0
LAYER
  5
72
330
2
100
AcDbSymbolTableRecord
100
AcDbLayerTableRecord
  2
57
 70
     0
 62
    57
  6
CONTINUOUS
  0
LAYER
  5
73
330
2
100
AcDbSymbolTableRecord
100
AcDbLayerTableRecord
  2
58
 70
     0
 62
    58
  6
CONTINUOUS
  0
LAYER
  5
74
330
2
100
AcDbSymbolTableRecord
100
AcDbLayerTableRecord
  2
59
 70
     0
 62
    59
  6
CONTINUOUS
  0
LAYER
  5
75
330
2
100
AcDbSymbolTableRecord
100
AcDbLayerTableRecord
  2
60
 70
     0
 62
    60
  6
CONTINUOUS
  0
LAYER
  5
76
330
2
100
AcDbSymbolTableRecord
100
AcDbLayerTableRecord
  2
61
 70
     0
 62
    61
  6
CONTINUOUS
  0
LAYER
  5
77
330
2
100
AcDbSymbolTableRecord
100
AcDbLayerTableRecord
  2
62
 70
     0
 62
    62
  6
CONTINUOUS
  0
LAYER
  5
78
330
2
100
AcDbSymbolTableRecord
100
AcDbLayerTableRecord
  2
63
 70
     0
 62
    63
  6
CONTINUOUS
  0
LAYER
  5
79
330
2
100
AcDbSymbolTableRecord
100
AcDbLayerTableRecord
  2
64
 70
     0
 62
    64
  6
CONTINUOUS
  0
LAYER
  5
7A
330
2
100
AcDbSymbolTableRecord
100
AcDbLayerTableRecord
  2
65
 70
     0
 62
    65
  6
CONTINUOUS
  0
LAYER
  5
7B
330
2
100
AcDbSymbolTableRecord
100
AcDbLayerTableRecord
  2
66
 70
     0
 62
    66
  6
CONTINUOUS
  0
LAYER
  5
7C
330
2
100
AcDbSymbolTableRecord
100
AcDbLayerTableRecord
  2
67
 70
     0
 62
    67
  6
CONTINUOUS
  0
LAYER
  5
7D
330
2
100
AcDbSymbolTableRecord
100
AcDbLayerTableRecord
  2
68
 70
     0
 62
    68
  6
CONTINUOUS
  0
LAYER
  5
7E
330
2
100
AcDbSymbolTableRecord
100
AcDbLayerTableRecord
  2
69
 70
     0
 62
    69
  6
CONTINUOUS
  0
LAYER
  5
7F
330
2
100
AcDbSymbolTableRecord
100
AcDbLayerTableRecord
  2
70
 70
     0
 62
    70
  6
CONTINUOUS
  0
LAYER
  5
80
330
2
100
AcDbSymbolTableRecord
100
AcDbLayerTableRecord
  2
71
 70
     0
 62
    71
  6
CONTINUOUS
  0
LAYER
  5
81
330
2
100
AcDbSymbolTableRecord
100
AcDbLayerTableRecord
  2
72
 70
     0
 62
    72
  6
CONTINUOUS
  0
LAYER
  5
82
330
2
100
AcDbSymbolTableRecord
100
AcDbLayerTableRecord
  2
73
 70
     0
 62
    73
  6
CONTINUOUS
  0
LAYER
  5
83
330
2
100
AcDbSymbolTableRecord
100
AcDbLayerTableRecord
  2
74
 70
     0
 62
    74
  6
CONTINUOUS
  0
LAYER
  5
84
330
2
100
AcDbSymbolTableRecord
100
AcDbLayerTableRecord
  2
75
 70
     0
 62
    75
  6
CONTINUOUS
  0
LAYER
  5
85
330
2
100
AcDbSymbolTableRecord
100
AcDbLayerTableRecord
  2
76
 70
     0
 62
    76
  6
CONTINUOUS
  0
LAYER
  5
86
330
2
100
AcDbSymbolTableRecord
100
AcDbLayerTableRecord
  2
77
 70
     0
 62
    77
  6
CONTINUOUS
  0
LAYER
  5
87
330
2
100
AcDbSymbolTableRecord
100
AcDbLayerTableRecord
  2
78
 70
     0
 62
    78
  6
CONTINUOUS
  0
LAYER
  5
88
330
2
100
AcDbSymbolTableRecord
100
AcDbLayerTableRecord
  2
79
 70
     0
 62
    79
  6
CONTINUOUS
  0
LAYER
  5
89
330
2
100
AcDbSymbolTableRecord
100
AcDbLayerTableRecord
  2
80
 70
     0
 62
    80
  6
CONTINUOUS
  0
LAYER
  5
8A
330
2
100
AcDbSymbolTableRecord
100
AcDbLayerTableRecord
  2
81
 70
     0
 62
    81
  6
CONTINUOUS
  0
LAYER
  5
8B
330
2
100
AcDbSymbolTableRecord
100
AcDbLayerTableRecord
  2
82
 70
     0
 62
    82
  6
CONTINUOUS
  0
LAYER
  5
8C
330
2
100
AcDbSymbolTableRecord
100
AcDbLayerTableRecord
  2
83
 70
     0
 62
    83
  6
CONTINUOUS
  0
LAYER
  5
8D
330
2
100
AcDbSymbolTableRecord
100
AcDbLayerTableRecord
  2
84
 70
     0
 62
    84
  6
CONTINUOUS
  0
LAYER
  5
8E
330
2
100
AcDbSymbolTableRecord
100
AcDbLayerTableRecord
  2
85
 70
     0
 62
    85
  6
CONTINUOUS
  0
LAYER
  5
8F
330
2
100
AcDbSymbolTableRecord
100
AcDbLayerTableRecord
  2
86
 70
     0
 62
    86
  6
CONTINUOUS
  0
LAYER
  5
90
330
2
100
AcDbSymbolTableRecord
100
AcDbLayerTableRecord
  2
87
 70
     0
 62
    87
  6
CONTINUOUS
  0
LAYER
  5
91
330
2
100
AcDbSymbolTableRecord
100
AcDbLayerTableRecord
  2
88
 70
     0
 62
    88
  6
CONTINUOUS
  0
LAYER
  5
92
330
2
100
AcDbSymbolTableRecord
100
AcDbLayerTableRecord
  2
89
 70
     0
 62
    89
  6
CONTINUOUS
  0
LAYER
  5
93
330
2
100
AcDbSymbolTableRecord
100
AcDbLayerTableRecord
  2
90
 70
     0
 62
    90
  6
CONTINUOUS
  0
LAYER
  5
94
330
2
100
AcDbSymbolTableRecord
100
AcDbLayerTableRecord
  2
91
 70
     0
 62
    91
  6
CONTINUOUS
  0
LAYER
  5
95
330
2
100
AcDbSymbolTableRecord
100
AcDbLayerTableRecord
  2
92
 70
     0
 62
    92
  6
CONTINUOUS
  0
LAYER
  5
96
330
2
100
AcDbSymbolTableRecord
100
AcDbLayerTableRecord
  2
93
 70
     0
 62
    93
  6
CONTINUOUS
  0
LAYER
  5
97
330
2
100
AcDbSymbolTableRecord
100
AcDbLayerTableRecord
  2
94
 70
     0
 62
    94
  6
CONTINUOUS
  0
LAYER
  5
98
330
2
100
AcDbSymbolTableRecord
100
AcDbLayerTableRecord
  2
95
 70
     0
 62
    95
  6
CONTINUOUS
  0
LAYER
  5
99
330
2
100
AcDbSymbolTableRecord
100
AcDbLayerTableRecord
  2
96
 70
     0
 62
    96
  6
CONTINUOUS
  0
LAYER
  5
9A
330
2
100
AcDbSymbolTableRecord
100
AcDbLayerTableRecord
  2
97
 70
     0
 62
    97
  6
CONTINUOUS
  0
LAYER
  5
9B
330
2
100
AcDbSymbolTableRecord
100
AcDbLayerTableRecord
  2
98
 70
     0
 62
    98
  6
CONTINUOUS
  0
LAYER
  5
9C
330
2
100
AcDbSymbolTableRecord
100
AcDbLayerTableRecord
  2
99
 70
     0
 62
    99
  6
CONTINUOUS
  0
LAYER
  5
9D
330
2
100
AcDbSymbolTableRecord
100
AcDbLayerTableRecord
  2
100
 70
     0
 62
   100
  6
CONTINUOUS
  0
LAYER
  5
9E
330
2
100
AcDbSymbolTableRecord
100
AcDbLayerTableRecord
  2
101
 70
     0
 62
   101
  6
CONTINUOUS
  0
LAYER
  5
9F
330
2
100
AcDbSymbolTableRecord
100
AcDbLayerTableRecord
  2
102
 70
     0
 62
   102
  6
CONTINUOUS
  0
LAYER
  5
A0
330
2
100
AcDbSymbolTableRecord
100
AcDbLayerTableRecord
  2
103
 70
     0
 62
   103
  6
CONTINUOUS
  0
LAYER
  5
A1
330
2
100
AcDbSymbolTableRecord
100
AcDbLayerTableRecord
  2
104
 70
     0
 62
   104
  6
CONTINUOUS
  0
LAYER
  5
A2
330
2
100
AcDbSymbolTableRecord
100
AcDbLayerTableRecord
  2
105
 70
     0
 62
   105
  6
CONTINUOUS
  0
LAYER
  5
A3
330
2
100
AcDbSymbolTableRecord
100
AcDbLayerTableRecord
  2
106
 70
     0
 62
   106
  6
CONTINUOUS
  0
LAYER
  5
A4
330
2
100
AcDbSymbolTableRecord
100
AcDbLayerTableRecord
  2
107
 70
     0
 62
   107
  6
CONTINUOUS
  0
LAYER
  5
A5
330
2
100
AcDbSymbolTableRecord
100
AcDbLayerTableRecord
  2
108
 70
     0
 62
   108
  6
CONTINUOUS
  0
LAYER
  5
A6
330
2
100
AcDbSymbolTableRecord
100
AcDbLayerTableRecord
  2
109
 70
     0
 62
   109
  6
CONTINUOUS
  0
LAYER
  5
A7
330
2
100
AcDbSymbolTableRecord
100
AcDbLayerTableRecord
  2
110
 70
     0
 62
   110
  6
CONTINUOUS
  0
LAYER
  5
A8
330
2
100
AcDbSymbolTableRecord
100
AcDbLayerTableRecord
  2
111
 70
     0
 62
   111
  6
CONTINUOUS
  0
LAYER
  5
A9
330
2
100
AcDbSymbolTableRecord
100
AcDbLayerTableRecord
  2
112
 70
     0
 62
   112
  6
CONTINUOUS
  0
LAYER
  5
AA
330
2
100
AcDbSymbolTableRecord
100
AcDbLayerTableRecord
  2
113
 70
     0
 62
   113
  6
CONTINUOUS
  0
LAYER
  5
AB
330
2
100
AcDbSymbolTableRecord
100
AcDbLayerTableRecord
  2
114
 70
     0
 62
   114
  6
CONTINUOUS
  0
LAYER
  5
AC
330
2
100
AcDbSymbolTableRecord
100
AcDbLayerTableRecord
  2
115
 70
     0
 62
   115
  6
CONTINUOUS
  0
LAYER
  5
AD
330
2
100
AcDbSymbolTableRecord
100
AcDbLayerTableRecord
  2
116
 70
     0
 62
   116
  6
CONTINUOUS
  0
LAYER
  5
AE
330
2
100
AcDbSymbolTableRecord
100
AcDbLayerTableRecord
  2
117
 70
     0
 62
   117
  6
CONTINUOUS
  0
LAYER
  5
AF
330
2
100
AcDbSymbolTableRecord
100
AcDbLayerTableRecord
  2
118
 70
     0
 62
   118
  6
CONTINUOUS
  0
LAYER
  5
B0
330
2
100
AcDbSymbolTableRecord
100
AcDbLayerTableRecord
  2
119
 70
     0
 62
   119
  6
CONTINUOUS
  0
LAYER
  5
B1
330
2
100
AcDbSymbolTableRecord
100
AcDbLayerTableRecord
  2
120
 70
     0
 62
   120
  6
CONTINUOUS
  0
LAYER
  5
B2
330
2
100
AcDbSymbolTableRecord
100
AcDbLayerTableRecord
  2
121
 70
     0
 62
   121
  6
CONTINUOUS
  0
LAYER
  5
B3
330
2
100
AcDbSymbolTableRecord
100
AcDbLayerTableRecord
  2
122
 70
     0
 62
   122
  6
CONTINUOUS
  0
LAYER
  5
B4
330
2
100
AcDbSymbolTableRecord
100
AcDbLayerTableRecord
  2
123
 70
     0
 62
   123
  6
CONTINUOUS
  0
LAYER
  5
B5
330
2
100
AcDbSymbolTableRecord
100
AcDbLayerTableRecord
  2
124
 70
     0
 62
   124
  6
CONTINUOUS
  0
LAYER
  5
B6
330
2
100
AcDbSymbolTableRecord
100
AcDbLayerTableRecord
  2
125
 70
     0
 62
   125
  6
CONTINUOUS
  0
LAYER
  5
B7
330
2
100
AcDbSymbolTableRecord
100
AcDbLayerTableRecord
  2
126
 70
     0
 62
   126
  6
CONTINUOUS
  0
LAYER
  5
B8
330
2
100
AcDbSymbolTableRecord
100
AcDbLayerTableRecord
  2
127
 70
     0
 62
   127
  6
CONTINUOUS
  0
LAYER
  5
B9
330
2
100
AcDbSymbolTableRecord
100
AcDbLayerTableRecord
  2
128
 70
     0
 62
   128
  6
CONTINUOUS
  0
LAYER
  5
BA
330
2
100
AcDbSymbolTableRecord
100
AcDbLayerTableRecord
  2
129
 70
     0
 62
   129
  6
CONTINUOUS
  0
LAYER
  5
BB
330
2
100
AcDbSymbolTableRecord
100
AcDbLayerTableRecord
  2
130
 70
     0
 62
   130
  6
CONTINUOUS
  0
LAYER
  5
BC
330
2
100
AcDbSymbolTableRecord
100
AcDbLayerTableRecord
  2
131
 70
     0
 62
   131
  6
CONTINUOUS
  0
LAYER
  5
BD
330
2
100
AcDbSymbolTableRecord
100
AcDbLayerTableRecord
  2
132
 70
     0
 62
   132
  6
CONTINUOUS
  0
LAYER
  5
BE
330
2
100
AcDbSymbolTableRecord
100
AcDbLayerTableRecord
  2
133
 70
     0
 62
   133
  6
CONTINUOUS
  0
LAYER
  5
BF
330
2
100
AcDbSymbolTableRecord
100
AcDbLayerTableRecord
  2
134
 70
     0
 62
   134
  6
CONTINUOUS
  0
LAYER
  5
C0
330
2
100
AcDbSymbolTableRecord
100
AcDbLayerTableRecord
  2
135
 70
     0
 62
   135
  6
CONTINUOUS
  0
LAYER
  5
C1
330
2
100
AcDbSymbolTableRecord
100
AcDbLayerTableRecord
  2
136
 70
     0
 62
   136
  6
CONTINUOUS
  0
LAYER
  5
C2
330
2
100
AcDbSymbolTableRecord
100
AcDbLayerTableRecord
  2
137
 70
     0
 62
   137
  6
CONTINUOUS
  0
LAYER
  5
C3
330
2
100
AcDbSymbolTableRecord
100
AcDbLayerTableRecord
  2
138
 70
     0
 62
   138
  6
CONTINUOUS
  0
LAYER
  5
C4
330
2
100
AcDbSymbolTableRecord
100
AcDbLayerTableRecord
  2
139
 70
     0
 62
   139
  6
CONTINUOUS
  0
LAYER
  5
C5
330
2
100
AcDbSymbolTableRecord
100
AcDbLayerTableRecord
  2
140
 70
     0
 62
   140
  6
CONTINUOUS
  0
LAYER
  5
C6
330
2
100
AcDbSymbolTableRecord
100
AcDbLayerTableRecord
  2
141
 70
     0
 62
   141
  6
CONTINUOUS
  0
LAYER
  5
C7
330
2
100
AcDbSymbolTableRecord
100
AcDbLayerTableRecord
  2
142
 70
     0
 62
   142
  6
CONTINUOUS
  0
LAYER
  5
C8
330
2
100
AcDbSymbolTableRecord
100
AcDbLayerTableRecord
  2
143
 70
     0
 62
   143
  6
CONTINUOUS
  0
LAYER
  5
C9
330
2
100
AcDbSymbolTableRecord
100
AcDbLayerTableRecord
  2
144
 70
     0
 62
   144
  6
CONTINUOUS
  0
LAYER
  5
CA
330
2
100
AcDbSymbolTableRecord
100
AcDbLayerTableRecord
  2
145
 70
     0
 62
   145
  6
CONTINUOUS
  0
LAYER
  5
CB
330
2
100
AcDbSymbolTableRecord
100
AcDbLayerTableRecord
  2
146
 70
     0
 62
   146
  6
CONTINUOUS
  0
LAYER
  5
CC
330
2
100
AcDbSymbolTableRecord
100
AcDbLayerTableRecord
  2
147
 70
     0
 62
   147
  6
CONTINUOUS
  0
LAYER
  5
CD
330
2
100
AcDbSymbolTableRecord
100
AcDbLayerTableRecord
  2
148
 70
     0
 62
   148
  6
CONTINUOUS
  0
LAYER
  5
CE
330
2
100
AcDbSymbolTableRecord
100
AcDbLayerTableRecord
  2
149
 70
     0
 62
   149
  6
CONTINUOUS
  0
LAYER
  5
CF
330
2
100
AcDbSymbolTableRecord
100
AcDbLayerTableRecord
  2
150
 70
     0
 62
   150
  6
CONTINUOUS
  0
LAYER
  5
D0
330
2
100
AcDbSymbolTableRecord
100
AcDbLayerTableRecord
  2
151
 70
     0
 62
   151
  6
CONTINUOUS
  0
LAYER
  5
D1
330
2
100
AcDbSymbolTableRecord
100
AcDbLayerTableRecord
  2
152
 70
     0
 62
   152
  6
CONTINUOUS
  0
LAYER
  5
D2
330
2
100
AcDbSymbolTableRecord
100
AcDbLayerTableRecord
  2
153
 70
     0
 62
   153
  6
CONTINUOUS
  0
LAYER
  5
D3
330
2
100
AcDbSymbolTableRecord
100
AcDbLayerTableRecord
  2
154
 70
     0
 62
   154
  6
CONTINUOUS
  0
LAYER
  5
D4
330
2
100
AcDbSymbolTableRecord
100
AcDbLayerTableRecord
  2
155
 70
     0
 62
   155
  6
CONTINUOUS
  0
LAYER
  5
D5
330
2
100
AcDbSymbolTableRecord
100
AcDbLayerTableRecord
  2
156
 70
     0
 62
   156
  6
CONTINUOUS
  0
LAYER
  5
D6
330
2
100
AcDbSymbolTableRecord
100
AcDbLayerTableRecord
  2
157
 70
     0
 62
   157
  6
CONTINUOUS
  0
LAYER
  5
D7
330
2
100
AcDbSymbolTableRecord
100
AcDbLayerTableRecord
  2
158
 70
     0
 62
   158
  6
CONTINUOUS
  0
LAYER
  5
D8
330
2
100
AcDbSymbolTableRecord
100
AcDbLayerTableRecord
  2
159
 70
     0
 62
   159
  6
CONTINUOUS
  0
LAYER
  5
D9
330
2
100
AcDbSymbolTableRecord
100
AcDbLayerTableRecord
  2
160
 70
     0
 62
   160
  6
CONTINUOUS
  0
LAYER
  5
DA
330
2
100
AcDbSymbolTableRecord
100
AcDbLayerTableRecord
  2
161
 70
     0
 62
   161
  6
CONTINUOUS
  0
LAYER
  5
DB
330
2
100
AcDbSymbolTableRecord
100
AcDbLayerTableRecord
  2
162
 70
     0
 62
   162
  6
CONTINUOUS
  0
LAYER
  5
DC
330
2
100
AcDbSymbolTableRecord
100
AcDbLayerTableRecord
  2
163
 70
     0
 62
   163
  6
CONTINUOUS
  0
LAYER
  5
DD
330
2
100
AcDbSymbolTableRecord
100
AcDbLayerTableRecord
  2
164
 70
     0
 62
   164
  6
CONTINUOUS
  0
LAYER
  5
DE
330
2
100
AcDbSymbolTableRecord
100
AcDbLayerTableRecord
  2
165
 70
     0
 62
   165
  6
CONTINUOUS
  0
LAYER
  5
DF
330
2
100
AcDbSymbolTableRecord
100
AcDbLayerTableRecord
  2
166
 70
     0
 62
   166
  6
CONTINUOUS
  0
LAYER
  5
E0
330
2
100
AcDbSymbolTableRecord
100
AcDbLayerTableRecord
  2
167
 70
     0
 62
   167
  6
CONTINUOUS
  0
LAYER
  5
E1
330
2
100
AcDbSymbolTableRecord
100
AcDbLayerTableRecord
  2
168
 70
     0
 62
   168
  6
CONTINUOUS
  0
LAYER
  5
E2
330
2
100
AcDbSymbolTableRecord
100
AcDbLayerTableRecord
  2
169
 70
     0
 62
   169
  6
CONTINUOUS
  0
LAYER
  5
E3
330
2
100
AcDbSymbolTableRecord
100
AcDbLayerTableRecord
  2
170
 70
     0
 62
   170
  6
CONTINUOUS
  0
LAYER
  5
E4
330
2
100
AcDbSymbolTableRecord
100
AcDbLayerTableRecord
  2
171
 70
     0
 62
   171
  6
CONTINUOUS
  0
LAYER
  5
E5
330
2
100
AcDbSymbolTableRecord
100
AcDbLayerTableRecord
  2
172
 70
     0
 62
   172
  6
CONTINUOUS
  0
LAYER
  5
E6
330
2
100
AcDbSymbolTableRecord
100
AcDbLayerTableRecord
  2
173
 70
     0
 62
   173
  6
CONTINUOUS
  0
LAYER
  5
E7
330
2
100
AcDbSymbolTableRecord
100
AcDbLayerTableRecord
  2
174
 70
     0
 62
   174
  6
CONTINUOUS
  0
LAYER
  5
E8
330
2
100
AcDbSymbolTableRecord
100
AcDbLayerTableRecord
  2
175
 70
     0
 62
   175
  6
CONTINUOUS
  0
LAYER
  5
E9
330
2
100
AcDbSymbolTableRecord
100
AcDbLayerTableRecord
  2
176
 70
     0
 62
   176
  6
CONTINUOUS
  0
LAYER
  5
EA
330
2
100
AcDbSymbolTableRecord
100
AcDbLayerTableRecord
  2
177
 70
     0
 62
   177
  6
CONTINUOUS
  0
LAYER
  5
EB
330
2
100
AcDbSymbolTableRecord
100
AcDbLayerTableRecord
  2
178
 70
     0
 62
   178
  6
CONTINUOUS
  0
LAYER
  5
EC
330
2
100
AcDbSymbolTableRecord
100
AcDbLayerTableRecord
  2
179
 70
     0
 62
   179
  6
CONTINUOUS
  0
LAYER
  5
ED
330
2
100
AcDbSymbolTableRecord
100
AcDbLayerTableRecord
  2
180
 70
     0
 62
   180
  6
CONTINUOUS
  0
LAYER
  5
EE
330
2
100
AcDbSymbolTableRecord
100
AcDbLayerTableRecord
  2
181
 70
     0
 62
   181
  6
CONTINUOUS
  0
LAYER
  5
EF
330
2
100
AcDbSymbolTableRecord
100
AcDbLayerTableRecord
  2
182
 70
     0
 62
   182
  6
CONTINUOUS
  0
LAYER
  5
F0
330
2
100
AcDbSymbolTableRecord
100
AcDbLayerTableRecord
  2
183
 70
     0
 62
   183
  6
CONTINUOUS
  0
LAYER
  5
F1
330
2
100
AcDbSymbolTableRecord
100
AcDbLayerTableRecord
  2
184
 70
     0
 62
   184
  6
CONTINUOUS
  0
LAYER
  5
F2
330
2
100
AcDbSymbolTableRecord
100
AcDbLayerTableRecord
  2
185
 70
     0
 62
   185
  6
CONTINUOUS
  0
LAYER
  5
F3
330
2
100
AcDbSymbolTableRecord
100
AcDbLayerTableRecord
  2
186
 70
     0
 62
   186
  6
CONTINUOUS
  0
LAYER
  5
F4
330
2
100
AcDbSymbolTableRecord
100
AcDbLayerTableRecord
  2
187
 70
     0
 62
   187
  6
CONTINUOUS
  0
LAYER
  5
F5
330
2
100
AcDbSymbolTableRecord
100
AcDbLayerTableRecord
  2
188
 70
     0
 62
   188
  6
CONTINUOUS
  0
LAYER
  5
F6
330
2
100
AcDbSymbolTableRecord
100
AcDbLayerTableRecord
  2
189
 70
     0
 62
   189
  6
CONTINUOUS
  0
LAYER
  5
F7
330
2
100
AcDbSymbolTableRecord
100
AcDbLayerTableRecord
  2
190
 70
     0
 62
   190
  6
CONTINUOUS
  0
LAYER
  5
F8
330
2
100
AcDbSymbolTableRecord
100
AcDbLayerTableRecord
  2
191
 70
     0
 62
   191
  6
CONTINUOUS
  0
LAYER
  5
F9
330
2
100
AcDbSymbolTableRecord
100
AcDbLayerTableRecord
  2
192
 70
     0
 62
   192
  6
CONTINUOUS
  0
LAYER
  5
FA
330
2
100
AcDbSymbolTableRecord
100
AcDbLayerTableRecord
  2
193
 70
     0
 62
   193
  6
CONTINUOUS
  0
LAYER
  5
FB
330
2
100
AcDbSymbolTableRecord
100
AcDbLayerTableRecord
  2
194
 70
     0
 62
   194
  6
CONTINUOUS
  0
LAYER
  5
FC
330
2
100
AcDbSymbolTableRecord
100
AcDbLayerTableRecord
  2
195
 70
     0
 62
   195
  6
CONTINUOUS
  0
LAYER
  5
FD
330
2
100
AcDbSymbolTableRecord
100
AcDbLayerTableRecord
  2
196
 70
     0
 62
   196
  6
CONTINUOUS
  0
LAYER
  5
FE
330
2
100
AcDbSymbolTableRecord
100
AcDbLayerTableRecord
  2
197
 70
     0
 62
   197
  6
CONTINUOUS
  0
LAYER
  5
FF
330
2
100
AcDbSymbolTableRecord
100
AcDbLayerTableRecord
  2
198
 70
     0
 62
   198
  6
CONTINUOUS
  0
LAYER
  5
100
330
2
100
AcDbSymbolTableRecord
100
AcDbLayerTableRecord
  2
199
 70
     0
 62
   199
  6
CONTINUOUS
  0
LAYER
  5
101
330
2
100
AcDbSymbolTableRecord
100
AcDbLayerTableRecord
  2
200
 70
     0
 62
   200
  6
CONTINUOUS
  0
LAYER
  5
102
330
2
100
AcDbSymbolTableRecord
100
AcDbLayerTableRecord
  2
201
 70
     0
 62
   201
  6
CONTINUOUS
  0
LAYER
  5
103
330
2
100
AcDbSymbolTableRecord
100
AcDbLayerTableRecord
  2
202
 70
     0
 62
   202
  6
CONTINUOUS
  0
LAYER
  5
104
330
2
100
AcDbSymbolTableRecord
100
AcDbLayerTableRecord
  2
203
 70
     0
 62
   203
  6
CONTINUOUS
  0
LAYER
  5
105
330
2
100
AcDbSymbolTableRecord
100
AcDbLayerTableRecord
  2
204
 70
     0
 62
   204
  6
CONTINUOUS
  0
LAYER
  5
106
330
2
100
AcDbSymbolTableRecord
100
AcDbLayerTableRecord
  2
205
 70
     0
 62
   205
  6
CONTINUOUS
  0
LAYER
  5
107
330
2
100
AcDbSymbolTableRecord
100
AcDbLayerTableRecord
  2
206
 70
     0
 62
   206
  6
CONTINUOUS
  0
LAYER
  5
108
330
2
100
AcDbSymbolTableRecord
100
AcDbLayerTableRecord
  2
207
 70
     0
 62
   207
  6
CONTINUOUS
  0
LAYER
  5
109
330
2
100
AcDbSymbolTableRecord
100
AcDbLayerTableRecord
  2
208
 70
     0
 62
   208
  6
CONTINUOUS
  0
LAYER
  5
10A
330
2
100
AcDbSymbolTableRecord
100
AcDbLayerTableRecord
  2
209
 70
     0
 62
   209
  6
CONTINUOUS
  0
LAYER
  5
10B
330
2
100
AcDbSymbolTableRecord
100
AcDbLayerTableRecord
  2
210
 70
     0
 62
   210
  6
CONTINUOUS
  0
LAYER
  5
10C
330
2
100
AcDbSymbolTableRecord
100
AcDbLayerTableRecord
  2
211
 70
     0
 62
   211
  6
CONTINUOUS
  0
LAYER
  5
10D
330
2
100
AcDbSymbolTableRecord
100
AcDbLayerTableRecord
  2
212
 70
     0
 62
   212
  6
CONTINUOUS
  0
LAYER
  5
10E
330
2
100
AcDbSymbolTableRecord
100
AcDbLayerTableRecord
  2
213
 70
     0
 62
   213
  6
CONTINUOUS
  0
LAYER
  5
10F
330
2
100
AcDbSymbolTableRecord
100
AcDbLayerTableRecord
  2
214
 70
     0
 62
   214
  6
CONTINUOUS
  0
LAYER
  5
110
330
2
100
AcDbSymbolTableRecord
100
AcDbLayerTableRecord
  2
215
 70
     0
 62
   215
  6
CONTINUOUS
  0
LAYER
  5
111
330
2
100
AcDbSymbolTableRecord
100
AcDbLayerTableRecord
  2
216
 70
     0
 62
   216
  6
CONTINUOUS
  0
LAYER
  5
112
330
2
100
AcDbSymbolTableRecord
100
AcDbLayerTableRecord
  2
217
 70
     0
 62
   217
  6
CONTINUOUS
  0
LAYER
  5
113
330
2
100
AcDbSymbolTableRecord
100
AcDbLayerTableRecord
  2
218
 70
     0
 62
   218
  6
CONTINUOUS
  0
LAYER
  5
114
330
2
100
AcDbSymbolTableRecord
100
AcDbLayerTableRecord
  2
219
 70
     0
 62
   219
  6
CONTINUOUS
  0
LAYER
  5
115
330
2
100
AcDbSymbolTableRecord
100
AcDbLayerTableRecord
  2
220
 70
     0
 62
   220
  6
CONTINUOUS
  0
LAYER
  5
116
330
2
100
AcDbSymbolTableRecord
100
AcDbLayerTableRecord
  2
221
 70
     0
 62
   221
  6
CONTINUOUS
  0
LAYER
  5
117
330
2
100
AcDbSymbolTableRecord
100
AcDbLayerTableRecord
  2
222
 70
     0
 62
   222
  6
CONTINUOUS
  0
LAYER
  5
118
330
2
100
AcDbSymbolTableRecord
100
AcDbLayerTableRecord
  2
223
 70
     0
 62
   223
  6
CONTINUOUS
  0
LAYER
  5
119
330
2
100
AcDbSymbolTableRecord
100
AcDbLayerTableRecord
  2
224
 70
     0
 62
   224
  6
CONTINUOUS
  0
LAYER
  5
11A
330
2
100
AcDbSymbolTableRecord
100
AcDbLayerTableRecord
  2
225
 70
     0
 62
   225
  6
CONTINUOUS
  0
LAYER
  5
11B
330
2
100
AcDbSymbolTableRecord
100
AcDbLayerTableRecord
  2
226
 70
     0
 62
   226
  6
CONTINUOUS
  0
LAYER
  5
11C
330
2
100
AcDbSymbolTableRecord
100
AcDbLayerTableRecord
  2
227
 70
     0
 62
   227
  6
CONTINUOUS
  0
LAYER
  5
11D
330
2
100
AcDbSymbolTableRecord
100
AcDbLayerTableRecord
  2
228
 70
     0
 62
   228
  6
CONTINUOUS
  0
LAYER
  5
11E
330
2
100
AcDbSymbolTableRecord
100
AcDbLayerTableRecord
  2
229
 70
     0
 62
   229
  6
CONTINUOUS
  0
LAYER
  5
11F
330
2
100
AcDbSymbolTableRecord
100
AcDbLayerTableRecord
  2
230
 70
     0
 62
   230
  6
CONTINUOUS
  0
LAYER
  5
120
330
2
100
AcDbSymbolTableRecord
100
AcDbLayerTableRecord
  2
231
 70
     0
 62
   231
  6
CONTINUOUS
  0
LAYER
  5
121
330
2
100
AcDbSymbolTableRecord
100
AcDbLayerTableRecord
  2
232
 70
     0
 62
   232
  6
CONTINUOUS
  0
LAYER
  5
122
330
2
100
AcDbSymbolTableRecord
100
AcDbLayerTableRecord
  2
233
 70
     0
 62
   233
  6
CONTINUOUS
  0
LAYER
  5
123
330
2
100
AcDbSymbolTableRecord
100
AcDbLayerTableRecord
  2
234
 70
     0
 62
   234
  6
CONTINUOUS
  0
LAYER
  5
124
330
2
100
AcDbSymbolTableRecord
100
AcDbLayerTableRecord
  2
235
 70
     0
 62
   235
  6
CONTINUOUS
  0
LAYER
  5
125
330
2
100
AcDbSymbolTableRecord
100
AcDbLayerTableRecord
  2
236
 70
     0
 62
   236
  6
CONTINUOUS
  0
LAYER
  5
126
330
2
100
AcDbSymbolTableRecord
100
AcDbLayerTableRecord
  2
237
 70
     0
 62
   237
  6
CONTINUOUS
  0
LAYER
  5
127
330
2
100
AcDbSymbolTableRecord
100
AcDbLayerTableRecord
  2
238
 70
     0
 62
   238
  6
CONTINUOUS
  0
LAYER
  5
128
330
2
100
AcDbSymbolTableRecord
100
AcDbLayerTableRecord
  2
239
 70
     0
 62
   239
  6
CONTINUOUS
  0
LAYER
  5
129
330
2
100
AcDbSymbolTableRecord
100
AcDbLayerTableRecord
  2
240
 70
     0
 62
   240
  6
CONTINUOUS
  0
LAYER
  5
12A
330
2
100
AcDbSymbolTableRecord
100
AcDbLayerTableRecord
  2
241
 70
     0
 62
   241
  6
CONTINUOUS
  0
LAYER
  5
12B
330
2
100
AcDbSymbolTableRecord
100
AcDbLayerTableRecord
  2
242
 70
     0
 62
   242
  6
CONTINUOUS
  0
LAYER
  5
12C
330
2
100
AcDbSymbolTableRecord
100
AcDbLayerTableRecord
  2
243
 70
     0
 62
   243
  6
CONTINUOUS
  0
LAYER
  5
12D
330
2
100
AcDbSymbolTableRecord
100
AcDbLayerTableRecord
  2
244
 70
     0
 62
   244
  6
CONTINUOUS
  0
LAYER
  5
12E
330
2
100
AcDbSymbolTableRecord
100
AcDbLayerTableRecord
  2
245
 70
     0
 62
   245
  6
CONTINUOUS
  0
LAYER
  5
12F
330
2
100
AcDbSymbolTableRecord
100
AcDbLayerTableRecord
  2
246
 70
     0
 62
   246
  6
CONTINUOUS
  0
LAYER
  5
130
330
2
100
AcDbSymbolTableRecord
100
AcDbLayerTableRecord
  2
247
 70
     0
 62
   247
  6
CONTINUOUS
  0
LAYER
  5
131
330
2
100
AcDbSymbolTableRecord
100
AcDbLayerTableRecord
  2
248
 70
     0
 62
   248
  6
CONTINUOUS
  0
LAYER
  5
132
330
2
100
AcDbSymbolTableRecord
100
AcDbLayerTableRecord
  2
249
 70
     0
 62
   249
  6
CONTINUOUS
  0
LAYER
  5
133
330
2
100
AcDbSymbolTableRecord
100
AcDbLayerTableRecord
  2
250
 70
     0
 62
   250
  6
CONTINUOUS
  0
LAYER
  5
134
330
2
100
AcDbSymbolTableRecord
100
AcDbLayerTableRecord
  2
251
 70
     0
 62
   251
  6
CONTINUOUS
  0
LAYER
  5
135
330
2
100
AcDbSymbolTableRecord
100
AcDbLayerTableRecord
  2
252
 70
     0
 62
   252
  6
CONTINUOUS
  0
LAYER
  5
136
330
2
100
AcDbSymbolTableRecord
100
AcDbLayerTableRecord
  2
253
 70
     0
 62
   253
  6
CONTINUOUS
  0
LAYER
  5
137
330
2
100
AcDbSymbolTableRecord
100
AcDbLayerTableRecord
  2
254
 70
     0
 62
   254
  6
CONTINUOUS
  0
LAYER
  5
138
330
2
100
AcDbSymbolTableRecord
100
AcDbLayerTableRecord
  2
255
 70
     0
 62
   255
  6
CONTINUOUS
  0
ENDTAB
  0
TABLE
  2
STYLE
  5
3
330
0
100
AcDbSymbolTable
 70
     1
  0
STYLE
  5
11
330
3
100
AcDbSymbolTableRecord
100
AcDbTextStyleTableRecord
  2
STANDARD
 70
     0
 40
0.0
 41
1.0
 50
0.0
 71
     0
 42
0.2
  3
monotxt
  4

  0
ENDTAB
  0
TABLE
  2
VIEW
  5
6
330
0
100
AcDbSymbolTable
 70
     0
  0
ENDTAB
  0
TABLE
  2
UCS
  5
7
330
0
100
AcDbSymbolTable
 70
     0
  0
ENDTAB
  0
TABLE
  2
APPID
  5
9
330
0
100
AcDbSymbolTable
 70
     1
  0
APPID
  5
12
330
9
100
AcDbSymbolTableRecord
100
AcDbRegAppTableRecord
  2
ACAD
 70
     0
  0
ENDTAB
  0
TABLE
  2
DIMSTYLE
  5
A
330
0
100
AcDbSymbolTable
 70
     1
  0
DIMSTYLE
105
2E42
330
A
100
AcDbSymbolTableRecord
100
AcDbDimStyleTableRecord
  2
STANDARD
 70
     0
  3

  4

  5

  6

  7

 40
1.0
 41
0.18
 42
0.0625
 43
0.38
 44
0.18
 45
0.0
 46
0.0
 47
0.0
 48
0.0
140
0.18
141
0.09
142
0.0
143
25.4
144
1.0
145
0.0
146
1.0
147
0.09
 71
     0
 72
     0
 73
     1
 74
     1
 75
     0
 76
     0
 77
     0
 78
     0
170
     0
171
     2
172
     0
173
     0
174
     0
175
     0
176
     0
177
     0
178
     0
270
     2
271
     4
272
     4
273
     2
274
     2
340
11
275
     0
280
     0
281
     0
282
     0
283
     1
284
     0
285
     0
286
     0
287
     3
288
     0
  0
ENDTAB
  0
TABLE
  2
BLOCK_RECORD
  5
1
330
0
100
AcDbSymbolTable
 70
     0
  0
BLOCK_RECORD
  5
1E
102
{ACAD_XDICTIONARY
360
2E4A
102
}
330
1
100
AcDbSymbolTableRecord
100
AcDbBlockTableRecord
  2
*MODEL_SPACE
  0
BLOCK_RECORD
  5
1A
102
{ACAD_XDICTIONARY
360
2E4C
102
}
330
1
100
AcDbSymbolTableRecord
100
AcDbBlockTableRecord
  2
*PAPER_SPACE
  0
ENDTAB
  0
ENDSEC
  0
SECTION
  2
BLOCKS
  0
BLOCK
  5
13B
330
1E
100
AcDbEntity
  8
0
100
AcDbBlockBegin
  2
*MODEL_SPACE
 70
     0
 10
0.0
 20
0.0
 30
0.0
  3
*MODEL_SPACE
  1

  0
ENDBLK
  5
13C
330
1E
100
AcDbEntity
  8
0
100
AcDbBlockEnd
  0
BLOCK
  5
139
330
1A
100
AcDbEntity
 67
     1
  8
0
100
AcDbBlockBegin
  2
*PAPER_SPACE
 70
     0
 10
0.0
 20
0.0
 30
0.0
  3
*PAPER_SPACE
  1

  0
ENDBLK
  5
13A
330
1A
100
AcDbEntity
 67
     1
  8
0
100
AcDbBlockEnd
  0
ENDSEC
  0
SECTION
  2
ENTITIES
  0
LINE
  5
28BC
330
1E
100
AcDbEntity
  8
7
100
AcDbLine
 10
-0.5519888692563271
 20
6.881763752707184
 30
0.0
 11
1.261003256727924
 21
6.881763752707184
 31
0.0
  0
LINE
  5
28BD
330
1E
100
AcDbEntity
  8
7
100
AcDbLine
 10
1.259034752790917
 20
6.883732256644192
 30
0.0
 11
1.261003256727924
 21
6.881763752707184
 31
0.0
  0
LINE
  5
28BE
330
1E
100
AcDbEntity
  8
7
100
AcDbLine
 10
1.259034752790917
 20
6.883732256644192
 30
0.0
 11
1.229507193735798
 21
6.883732256644192
 31
0.0
  0
LINE
  5
28BF
330
1E
100
AcDbEntity
  8
7
100
AcDbLine
 10
1.227538689798791
 20
6.883732256644192
 30
0.0
 11
1.229507193735798
 21
6.883732256644192
 31
0.0
  0
LINE
  5
28C0
330
1E
100
AcDbEntity
  8
7
100
AcDbLine
 10
-0.5185243023271937
 20
6.883732256644192
 30
0.0
 11
1.227538689798791
 21
6.883732256644192
 31
0.0
  0
LINE
  5
28C1
330
1E
100
AcDbEntity
  8
7
100
AcDbLine
 10
-0.5185243023271937
 20
6.883732256644192
 30
0.0
 11
-0.5204928062642012
 21
6.883732256644192
 31
0.0
  0
LINE
  5
28C2
330
1E
100
AcDbEntity
  8
7
100
AcDbLine
 10
-0.5204928062642012
 20
6.883732256644192
 30
0.0
 11
-0.5500203653193197
 21
6.883732256644192
 31
0.0
  0
LINE
  5
28C3
330
1E
100
AcDbEntity
  8
7
100
AcDbLine
 10
-0.5519888692563271
 20
6.881763752707184
 30
0.0
 11
-0.5500203653193197
 21
6.883732256644192
 31
0.0
  0
LINE
  5
28C4
330
1E
100
AcDbEntity
  8
7
100
AcDbLine
 10
1.227538689798791
 20
7.293181075541831
 30
0.0
 11
-0.5185243023271937
 21
7.293181075541831
 31
0.0
  0
LINE
  5
28CA
330
1E
100
AcDbEntity
  8
7
100
AcDbLine
 10
1.261003256727924
 20
7.295149579478838
 30
0.0
 11
1.259034752790917
 21
7.293181075541831
 31
0.0
  0
LINE
  5
28CB
330
1E
100
AcDbEntity
  8
7
100
AcDbLine
 10
1.261003256727924
 20
7.295149579478838
 30
0.0
 11
-0.5519888692563271
 21
7.295149579478838
 31
0.0
  0
LINE
  5
28CC
330
1E
100
AcDbEntity
  8
7
100
AcDbLine
 10
-0.5500203653193197
 20
7.293181075541831
 30
0.0
 11
-0.5519888692563271
 21
7.295149579478838
 31
0.0
  0
LINE
  5
28CD
330
1E
100
AcDbEntity
  8
7
100
AcDbLine
 10
-0.5500203653193197
 20
7.293181075541831
 30
0.0
 11
-0.5204928062642012
 21
7.293181075541831
 31
0.0
  0
LINE
  5
28CE
330
1E
100
AcDbEntity
  8
7
100
AcDbLine
 10
-0.5185243023271937
 20
7.293181075541831
 30
0.0
 11
-0.5204928062642012
 21
7.293181075541831
 31
0.0
  0
LINE
  5
28CF
330
1E
100
AcDbEntity
  8
7
100
AcDbLine
 10
0.4145465638145387
 20
6.936881862943405
 30
0.0
 11
0.294467823657059
 21
6.936881862943405
 31
0.0
  0
LINE
  5
28DF
330
1E
100
AcDbEntity
  8
7
100
AcDbLine
 10
0.294467823657059
 20
7.240031469242618
 30
0.0
 11
0.4145465638145387
 21
7.240031469242618
 31
0.0
  0
LINE
  5
28EF
330
1E
100
AcDbEntity
  8
7
100
AcDbLine
 10
1.227538689798791
 20
6.883732256644192
 30
0.0
 11
1.227538689798791
 21
7.293181075541831
 31
0.0
  0
LINE
  5
28F0
330
1E
100
AcDbEntity
  8
7
100
AcDbLine
 10
-0.5185243023271937
 20
6.883732256644192
 30
0.0
 11
-0.5185243023271937
 21
7.293181075541831
 31
0.0
  0
LINE
  5
28F6
330
1E
100
AcDbEntity
  8
7
100
AcDbLine
 10
1.259034752790917
 20
4.013653516486712
 30
0.0
 11
1.229507193735798
 21
4.013653516486712
 31
0.0
  0
LINE
  5
28FD
330
1E
100
AcDbEntity
  8
7
100
AcDbLine
 10
-0.5204928062642012
 20
4.013653516486712
 30
0.0
 11
-0.5500203653193197
 21
4.013653516486712
 31
0.0
  0
LINE
  5
28FE
330
1E
100
AcDbEntity
  8
7
100
AcDbLine
 10
-0.5185243023271937
 20
4.011685012549705
 30
0.0
 11
-0.5204928062642012
 21
4.013653516486712
 31
0.0
  0
LINE
  5
28FF
330
1E
100
AcDbEntity
  8
7
100
AcDbLine
 10
1.501160737042885
 20
7.470346429872538
 30
0.0
 11
-0.7921463495712882
 21
7.470346429872538
 31
0.0
  0
LINE
  5
2909
330
1E
100
AcDbEntity
  8
7
100
AcDbLine
 10
-0.9575006802799492
 20
7.694755878691436
 30
0.0
 11
1.666515067751547
 21
7.694755878691436
 31
0.0
  0
LINE
  5
2916
330
1E
100
AcDbEntity
  8
7
100
AcDbLine
 10
1.666515067751547
 20
3.20066139050246
 30
0.0
 11
-0.9575006802799492
 21
3.20066139050246
 31
0.0
  0
LINE
  5
2920
330
1E
100
AcDbEntity
  8
7
100
AcDbLine
 10
-0.7921463495712882
 20
3.425070839321358
 30
0.0
 11
1.501160737042885
 21
3.425070839321358
 31
0.0
  0
LINE
  5
292A
330
1E
100
AcDbEntity
  8
7
100
AcDbLine
 10
1.501160737042885
 20
3.425070839321358
 30
0.0
 11
1.501160737042885
 21
7.470346429872538
 31
0.0
  0
LINE
  5
292B
330
1E
100
AcDbEntity
  8
7
100
AcDbLine
 10
-0.7921463495712882
 20
7.470346429872538
 30
0.0
 11
-0.7921463495712882
 21
3.425070839321358
 31
0.0
  0
LINE
  5
2936
330
1E
100
AcDbEntity
  8
7
100
AcDbLine
 10
-0.583484932248453
 20
7.263653516486712
 30
0.0
 11
-0.583484932248453
 21
6.91325981569931
 31
0.0
  0
LINE
  5
2941
330
1E
100
AcDbEntity
  8
7
100
AcDbLine
 10
1.29249931972005
 20
6.91325981569931
 30
0.0
 11
1.29249931972005
 21
7.263653516486712
 31
0.0
  0
LINE
  5
2953
330
1E
100
AcDbEntity
  8
7
100
AcDbLine
 10
0.5995859338932794
 20
6.09042517003002
 30
0.0
 11
0.5995859338932794
 21
6.155385799951279
 31
0.0
  0
LINE
  5
295A
330
1E
100
AcDbEntity
  8
7
100
AcDbLine
 10
0.0405308157830424
 20
6.816803122785925
 30
0.0
 11
0.0405308157830424
 21
6.155385799951279
 31
0.0
  0
LINE
  5
295B
330
1E
100
AcDbEntity
  8
7
100
AcDbLine
 10
0.6684835716885545
 20
6.816803122785925
 30
0.0
 11
0.0405308157830424
 21
6.816803122785925
 31
0.0
  0
LINE
  5
295C
330
1E
100
AcDbEntity
  8
7
100
AcDbLine
 10
0.6684835716885545
 20
6.816803122785925
 30
0.0
 11
0.6684835716885545
 21
6.155385799951279
 31
0.0
  0
LINE
  5
295D
330
1E
100
AcDbEntity
  8
7
100
AcDbLine
 10
0.5995859338932794
 20
6.155385799951279
 30
0.0
 11
0.6684835716885545
 21
6.155385799951279
 31
0.0
  0
LINE
  5
295E
330
1E
100
AcDbEntity
  8
7
100
AcDbLine
 10
0.5995859338932794
 20
4.106173201526083
 30
0.0
 11
0.5995859338932794
 21
4.171133831447342
 31
0.0
  0
LINE
  5
295F
330
1E
100
AcDbEntity
  8
7
100
AcDbLine
 10
0.5995859338932794
 20
4.106173201526083
 30
0.0
 11
0.1074599496413109
 21
4.106173201526083
 31
0.0
  0
LINE
  5
2965
330
1E
100
AcDbEntity
  8
7
100
AcDbLine
 10
0.0405308157830424
 20
4.834519658218995
 30
0.0
 11
0.0405308157830424
 21
4.171133831447342
 31
0.0
  0
LINE
  5
2966
330
1E
100
AcDbEntity
  8
7
100
AcDbLine
 10
0.6684835716885545
 20
4.834519658218995
 30
0.0
 11
0.0405308157830424
 21
4.834519658218995
 31
0.0
  0
LINE
  5
2967
330
1E
100
AcDbEntity
  8
7
100
AcDbLine
 10
0.6684835716885545
 20
4.834519658218995
 30
0.0
 11
0.6684835716885545
 21
4.171133831447342
 31
0.0
  0
LINE
  5
2968
330
1E
100
AcDbEntity
  8
7
100
AcDbLine
 10
0.5995859338932794
 20
4.171133831447342
 30
0.0
 11
0.6684835716885545
 21
4.171133831447342
 31
0.0
  0
LINE
  5
2969
330
1E
100
AcDbEntity
  8
7
100
AcDbLine
 10
0.5995859338932794
 20
5.098299185778051
 30
0.0
 11
0.5995859338932794
 21
5.16325981569931
 31
0.0
  0
LINE
  5
2970
330
1E
100
AcDbEntity
  8
7
100
AcDbLine
 10
0.0405308157830424
 20
5.824677138533957
 30
0.0
 11
0.0405308157830424
 21
5.16325981569931
 31
0.0
  0
LINE
  5
2971
330
1E
100
AcDbEntity
  8
7
100
AcDbLine
 10
0.6684835716885545
 20
5.824677138533957
 30
0.0
 11
0.0405308157830424
 21
5.824677138533957
 31
0.0
  0
LINE
  5
2972
330
1E
100
AcDbEntity
  8
7
100
AcDbLine
 10
0.6684835716885545
 20
5.824677138533957
 30
0.0
 11
0.6684835716885545
 21
5.16325981569931
 31
0.0
  0
LINE
  5
2973
330
1E
100
AcDbEntity
  8
7
100
AcDbLine
 10
0.5995859338932794
 20
5.16325981569931
 30
0.0
 11
0.6684835716885545
 21
5.16325981569931
 31
0.0
  0
LINE
  5
2974
330
1E
100
AcDbEntity
  8
7
100
AcDbLine
 10
1.261003256727924
 20
3.602236193652066
 30
0.0
 11
1.259034752790917
 21
3.602236193652066
 31
0.0
  0
LINE
  5
2975
330
1E
100
AcDbEntity
  8
7
100
AcDbLine
 10
1.229507193735798
 20
3.602236193652066
 30
0.0
 11
1.259034752790917
 21
3.602236193652066
 31
0.0
  0
LINE
  5
2976
330
1E
100
AcDbEntity
  8
7
100
AcDbLine
 10
1.227538689798791
 20
3.602236193652066
 30
0.0
 11
1.229507193735798
 21
3.602236193652066
 31
0.0
  0
LINE
  5
297C
330
1E
100
AcDbEntity
  8
7
100
AcDbLine
 10
-0.5500203653193197
 20
3.602236193652066
 30
0.0
 11
-0.5204928062642012
 21
3.602236193652066
 31
0.0
  0
LINE
  5
297D
330
1E
100
AcDbEntity
  8
7
100
AcDbLine
 10
-0.5500203653193197
 20
3.602236193652066
 30
0.0
 11
-0.5519888692563271
 21
3.602236193652066
 31
0.0
  0
LINE
  5
297E
330
1E
100
AcDbEntity
  8
7
100
AcDbLine
 10
0.4145465638145387
 20
3.958535406250492
 30
0.0
 11
0.294467823657059
 21
3.958535406250492
 31
0.0
  0
LINE
  5
298B
330
1E
100
AcDbEntity
  8
7
100
AcDbLine
 10
0.294467823657059
 20
3.655385799951279
 30
0.0
 11
0.4145465638145387
 21
3.655385799951279
 31
0.0
  0
LINE
  5
2998
330
1E
100
AcDbEntity
  8
7
100
AcDbLine
 10
1.227538689798791
 20
4.011685012549705
 30
0.0
 11
1.227538689798791
 21
3.602236193652066
 31
0.0
  0
LINE
  5
2999
330
1E
100
AcDbEntity
  8
7
100
AcDbLine
 10
-0.5185243023271937
 20
4.011685012549705
 30
0.0
 11
-0.5185243023271937
 21
3.602236193652066
 31
0.0
  0
LINE
  5
299A
330
1E
100
AcDbEntity
  8
7
100
AcDbLine
 10
1.668483571688554
 20
7.698692886565453
 30
0.0
 11
-0.9614376881539659
 21
7.698692886565453
 31
0.0
  0
LINE
  5
29A1
330
1E
100
AcDbEntity
  8
7
100
AcDbLine
 10
1.729507193735798
 20
3.257748004675688
 30
0.0
 11
1.729507193735798
 21
7.637669264518208
 31
0.0
  0
LINE
  5
29A8
330
1E
100
AcDbEntity
  8
7
100
AcDbLine
 10
-0.9614376881539659
 20
3.198692886565453
 30
0.0
 11
1.668483571688554
 21
3.198692886565453
 31
0.0
  0
LINE
  5
29AE
330
1E
100
AcDbEntity
  8
7
100
AcDbLine
 10
-1.012618790516169
 20
3.22822044562057
 30
0.0
 11
-1.020492806264201
 21
3.257748004675688
 31
0.0
  0
LINE
  5
29AF
330
1E
100
AcDbEntity
  8
7
100
AcDbLine
 10
-1.020492806264201
 20
7.637669264518208
 30
0.0
 11
-1.020492806264201
 21
3.257748004675688
 31
0.0
  0
LINE
  5
29B6
330
1E
100
AcDbEntity
  8
7
100
AcDbLine
 10
1.668483571688554
 20
3.198692886565453
 30
0.0
 11
1.666515067751547
 21
3.20066139050246
 31
0.0
  0
LINE
  5
29B7
330
1E
100
AcDbEntity
  8
7
100
AcDbLine
 10
-0.9575006802799492
 20
3.20066139050246
 30
0.0
 11
-0.9614376881539659
 21
3.198692886565453
 31
0.0
  0
LINE
  5
29B8
330
1E
100
AcDbEntity
  8
7
100
AcDbLine
 10
1.666515067751547
 20
7.694755878691436
 30
0.0
 11
1.668483571688554
 21
7.698692886565453
 31
0.0
  0
LINE
  5
29B9
330
1E
100
AcDbEntity
  8
7
100
AcDbLine
 10
-0.9614376881539659
 20
7.698692886565453
 30
0.0
 11
-0.9575006802799492
 21
7.694755878691436
 31
0.0
  0
LINE
  5
29BA
330
1E
100
AcDbEntity
  8
7
100
AcDbLine
 10
0.4145465638145387
 20
6.938850366880412
 30
0.0
 11
0.4145465638145387
 21
6.936881862943405
 31
0.0
  0
LINE
  5
29BB
330
1E
100
AcDbEntity
  8
7
100
AcDbLine
 10
0.294467823657059
 20
6.938850366880412
 30
0.0
 11
0.4145465638145387
 21
6.938850366880412
 31
0.0
  0
LINE
  5
29BC
330
1E
100
AcDbEntity
  8
7
100
AcDbLine
 10
0.294467823657059
 20
6.936881862943405
 30
0.0
 11
0.294467823657059
 21
6.938850366880412
 31
0.0
  0
LINE
  5
29C9
330
1E
100
AcDbEntity
  8
7
100
AcDbLine
 10
0.294467823657059
 20
7.23806296530561
 30
0.0
 11
0.294467823657059
 21
7.240031469242618
 31
0.0
  0
LINE
  5
29CA
330
1E
100
AcDbEntity
  8
7
100
AcDbLine
 10
0.4145465638145387
 20
7.23806296530561
 30
0.0
 11
0.294467823657059
 21
7.23806296530561
 31
0.0
  0
LINE
  5
29CB
330
1E
100
AcDbEntity
  8
7
100
AcDbLine
 10
0.4145465638145387
 20
7.240031469242618
 30
0.0
 11
0.4145465638145387
 21
7.23806296530561
 31
0.0
  0
LINE
  5
29D8
330
1E
100
AcDbEntity
  8
7
100
AcDbLine
 10
0.0424993197200503
 20
6.157354303888286
 30
0.0
 11
0.0405308157830424
 21
6.155385799951279
 31
0.0
  0
LINE
  5
29D9
330
1E
100
AcDbEntity
  8
7
100
AcDbLine
 10
0.1074599496413109
 20
6.155385799951279
 30
0.0
 11
0.1094284535783183
 21
6.157354303888286
 31
0.0
  0
LINE
  5
29DA
330
1E
100
AcDbEntity
  8
7
100
AcDbLine
 10
0.0424993197200503
 20
6.157354303888286
 30
0.0
 11
0.1094284535783183
 21
6.157354303888286
 31
0.0
  0
LINE
  5
29DB
330
1E
100
AcDbEntity
  8
7
100
AcDbLine
 10
0.4421056189326489
 20
6.816803122785925
 30
0.0
 11
0.666515067751547
 21
6.816803122785925
 31
0.0
  0
LINE
  5
29DC
330
1E
100
AcDbEntity
  8
7
100
AcDbLine
 10
0.6684835716885545
 20
6.816803122785925
 30
0.0
 11
0.666515067751547
 21
6.816803122785925
 31
0.0
  0
LINE
  5
29E2
330
1E
100
AcDbEntity
  8
7
100
AcDbLine
 10
0.2669087685389488
 20
6.816803122785925
 30
0.0
 11
0.4421056189326489
 21
6.816803122785925
 31
0.0
  0
LINE
  5
29E3
330
1E
100
AcDbEntity
  8
7
100
AcDbLine
 10
0.5995859338932794
 20
6.155385799951279
 30
0.0
 11
0.5995859338932794
 21
6.157354303888286
 31
0.0
  0
LINE
  5
29E4
330
1E
100
AcDbEntity
  8
7
100
AcDbLine
 10
0.666515067751547
 20
6.157354303888286
 30
0.0
 11
0.6684835716885545
 21
6.155385799951279
 31
0.0
  0
LINE
  5
29E5
330
1E
100
AcDbEntity
  8
7
100
AcDbLine
 10
0.5995859338932794
 20
6.157354303888286
 30
0.0
 11
0.666515067751547
 21
6.157354303888286
 31
0.0
  0
LINE
  5
29E6
330
1E
100
AcDbEntity
  8
7
100
AcDbLine
 10
0.5995859338932794
 20
4.171133831447342
 30
0.0
 11
0.5995859338932794
 21
4.173102335384349
 31
0.0
  0
LINE
  5
29E7
330
1E
100
AcDbEntity
  8
7
100
AcDbLine
 10
0.666515067751547
 20
4.173102335384349
 30
0.0
 11
0.6684835716885545
 21
4.171133831447342
 31
0.0
  0
LINE
  5
29E8
330
1E
100
AcDbEntity
  8
7
100
AcDbLine
 10
0.5995859338932794
 20
4.173102335384349
 30
0.0
 11
0.666515067751547
 21
4.173102335384349
 31
0.0
  0
LINE
  5
29E9
330
1E
100
AcDbEntity
  8
7
100
AcDbLine
 10
0.5995859338932794
 20
5.16325981569931
 30
0.0
 11
0.5995859338932794
 21
5.165228319636318
 31
0.0
  0
LINE
  5
29EA
330
1E
100
AcDbEntity
  8
7
100
AcDbLine
 10
0.666515067751547
 20
5.165228319636318
 30
0.0
 11
0.6684835716885545
 21
5.16325981569931
 31
0.0
  0
LINE
  5
29EB
330
1E
100
AcDbEntity
  8
7
100
AcDbLine
 10
0.5995859338932794
 20
5.165228319636318
 30
0.0
 11
0.666515067751547
 21
5.165228319636318
 31
0.0
  0
LINE
  5
29EC
330
1E
100
AcDbEntity
  8
7
100
AcDbLine
 10
0.0424993197200503
 20
4.173102335384349
 30
0.0
 11
0.0405308157830424
 21
4.171133831447342
 31
0.0
  0
LINE
  5
29ED
330
1E
100
AcDbEntity
  8
7
100
AcDbLine
 10
0.1074599496413109
 20
4.171133831447342
 30
0.0
 11
0.1094284535783183
 21
4.173102335384349
 31
0.0
  0
LINE
  5
29EE
330
1E
100
AcDbEntity
  8
7
100
AcDbLine
 10
0.0424993197200503
 20
4.173102335384349
 30
0.0
 11
0.1094284535783183
 21
4.173102335384349
 31
0.0
  0
LINE
  5
29EF
330
1E
100
AcDbEntity
  8
7
100
AcDbLine
 10
0.4421056189326489
 20
4.832551154281988
 30
0.0
 11
0.666515067751547
 21
4.832551154281988
 31
0.0
  0
LINE
  5
29F0
330
1E
100
AcDbEntity
  8
7
100
AcDbLine
 10
0.6684835716885545
 20
4.834519658218995
 30
0.0
 11
0.666515067751547
 21
4.832551154281988
 31
0.0
  0
LINE
  5
29F7
330
1E
100
AcDbEntity
  8
7
100
AcDbLine
 10
0.0424993197200503
 20
5.165228319636318
 30
0.0
 11
0.0405308157830424
 21
5.16325981569931
 31
0.0
  0
LINE
  5
29F8
330
1E
100
AcDbEntity
  8
7
100
AcDbLine
 10
0.1074599496413109
 20
5.16325981569931
 30
0.0
 11
0.1094284535783183
 21
5.165228319636318
 31
0.0
  0
LINE
  5
29F9
330
1E
100
AcDbEntity
  8
7
100
AcDbLine
 10
0.0424993197200503
 20
5.165228319636318
 30
0.0
 11
0.1094284535783183
 21
5.165228319636318
 31
0.0
  0
LINE
  5
29FA
330
1E
100
AcDbEntity
  8
7
100
AcDbLine
 10
0.4421056189326489
 20
5.824677138533957
 30
0.0
 11
0.666515067751547
 21
5.824677138533957
 31
0.0
  0
LINE
  5
29FB
330
1E
100
AcDbEntity
  8
7
100
AcDbLine
 10
0.6684835716885545
 20
5.824677138533957
 30
0.0
 11
0.666515067751547
 21
5.824677138533957
 31
0.0
  0
LINE
  5
2A02
330
1E
100
AcDbEntity
  8
7
100
AcDbLine
 10
0.5995859338932794
 20
4.173102335384349
 30
0.0
 11
0.5995859338932794
 21
4.10814170546309
 31
0.0
  0
LINE
  5
2A03
330
1E
100
AcDbEntity
  8
7
100
AcDbLine
 10
0.5995859338932794
 20
4.106173201526083
 30
0.0
 11
0.5995859338932794
 21
4.10814170546309
 31
0.0
  0
LINE
  5
2A04
330
1E
100
AcDbEntity
  8
7
100
AcDbLine
 10
0.1094284535783183
 20
4.10814170546309
 30
0.0
 11
0.1094284535783183
 21
4.173102335384349
 31
0.0
  0
LINE
  5
2A05
330
1E
100
AcDbEntity
  8
7
100
AcDbLine
 10
0.1074599496413109
 20
4.106173201526083
 30
0.0
 11
0.1094284535783183
 21
4.10814170546309
 31
0.0
  0
LINE
  5
2A0B
330
1E
100
AcDbEntity
  8
7
100
AcDbLine
 10
0.4421056189326489
 20
4.832551154281988
 30
0.0
 11
0.4421056189326489
 21
4.793181075541831
 31
0.0
  0
LINE
  5
2A0C
330
1E
100
AcDbEntity
  8
7
100
AcDbLine
 10
0.5995859338932794
 20
5.165228319636318
 30
0.0
 11
0.5995859338932794
 21
5.100267689715058
 31
0.0
  0
LINE
  5
2A0D
330
1E
100
AcDbEntity
  8
7
100
AcDbLine
 10
0.5995859338932794
 20
5.098299185778051
 30
0.0
 11
0.5995859338932794
 21
5.100267689715058
 31
0.0
  0
LINE
  5
2A0E
330
1E
100
AcDbEntity
  8
7
100
AcDbLine
 10
0.1094284535783183
 20
5.100267689715058
 30
0.0
 11
0.1094284535783183
 21
5.165228319636318
 31
0.0
  0
LINE
  5
2A0F
330
1E
100
AcDbEntity
  8
7
100
AcDbLine
 10
0.1074599496413109
 20
5.098299185778051
 30
0.0
 11
0.1094284535783183
 21
5.100267689715058
 31
0.0
  0
LINE
  5
2A15
330
1E
100
AcDbEntity
  8
7
100
AcDbLine
 10
0.4421056189326489
 20
5.824677138533957
 30
0.0
 11
0.4421056189326489
 21
5.785307059793799
 31
0.0
  0
LINE
  5
2A16
330
1E
100
AcDbEntity
  8
7
100
AcDbLine
 10
0.5995859338932794
 20
6.157354303888286
 30
0.0
 11
0.5995859338932794
 21
6.09042517003002
 31
0.0
  0
LINE
  5
2A17
330
1E
100
AcDbEntity
  8
7
100
AcDbLine
 10
0.666515067751547
 20
5.165228319636318
 30
0.0
 11
0.666515067751547
 21
5.824677138533957
 31
0.0
  0
LINE
  5
2A18
330
1E
100
AcDbEntity
  8
7
100
AcDbLine
 10
0.5995859338932794
 20
5.100267689715058
 30
0.0
 11
0.4814756976728072
 21
5.100267689715058
 31
0.0
  0
LINE
  5
2A19
330
1E
100
AcDbEntity
  8
7
100
AcDbLine
 10
0.2275386897987914
 20
5.100267689715058
 30
0.0
 11
0.2511607370428859
 21
5.112078713337107
 31
0.0
  0
LINE
  5
2A1F
330
1E
100
AcDbEntity
  8
7
100
AcDbLine
 10
0.2511607370428859
 20
5.137669264518208
 30
0.0
 11
0.2511607370428859
 21
5.12585824089616
 31
0.0
  0
LINE
  5
2A20
330
1E
100
AcDbEntity
  8
7
100
AcDbLine
 10
0.2511607370428859
 20
5.173102335384349
 30
0.0
 11
0.2511607370428859
 21
5.137669264518208
 31
0.0
  0
LINE
  5
2A21
330
1E
100
AcDbEntity
  8
7
100
AcDbLine
 10
0.2511607370428859
 20
5.179007847195373
 30
0.0
 11
0.2511607370428859
 21
5.173102335384349
 31
0.0
  0
LINE
  5
2A22
330
1E
100
AcDbEntity
  8
7
100
AcDbLine
 10
0.2511607370428859
 20
5.198692886565453
 30
0.0
 11
0.2511607370428859
 21
5.179007847195373
 31
0.0
  0
LINE
  5
2A23
330
1E
100
AcDbEntity
  8
7
100
AcDbLine
 10
0.4578536504287128
 20
5.198692886565453
 30
0.0
 11
0.4578536504287128
 21
5.179007847195373
 31
0.0
  0
LINE
  5
2A24
330
1E
100
AcDbEntity
  8
7
100
AcDbLine
 10
0.4578536504287128
 20
5.173102335384349
 30
0.0
 11
0.4578536504287128
 21
5.179007847195373
 31
0.0
  0
LINE
  5
2A25
330
1E
100
AcDbEntity
  8
7
100
AcDbLine
 10
0.4558851464917045
 20
5.137669264518208
 30
0.0
 11
0.4578536504287128
 21
5.173102335384349
 31
0.0
  0
LINE
  5
2A26
330
1E
100
AcDbEntity
  8
7
100
AcDbLine
 10
0.4558851464917045
 20
5.137669264518208
 30
0.0
 11
0.4558851464917045
 21
5.12585824089616
 31
0.0
  0
LINE
  5
2A2C
330
1E
100
AcDbEntity
  8
7
100
AcDbLine
 10
0.4578536504287128
 20
5.112078713337107
 30
0.0
 11
0.4814756976728072
 21
5.100267689715058
 31
0.0
  0
LINE
  5
2A2D
330
1E
100
AcDbEntity
  8
7
100
AcDbLine
 10
0.2511607370428859
 20
5.112078713337107
 30
0.0
 11
0.4578536504287128
 21
5.112078713337107
 31
0.0
  0
LINE
  5
2A2E
330
1E
100
AcDbEntity
  8
7
100
AcDbLine
 10
0.2275386897987914
 20
5.100267689715058
 30
0.0
 11
0.1094284535783183
 21
5.100267689715058
 31
0.0
  0
LINE
  5
2A2F
330
1E
100
AcDbEntity
  8
7
100
AcDbLine
 10
0.0424993197200503
 20
5.824677138533957
 30
0.0
 11
0.0424993197200503
 21
5.165228319636318
 31
0.0
  0
LINE
  5
2A30
330
1E
100
AcDbEntity
  8
7
100
AcDbLine
 10
0.666515067751547
 20
4.173102335384349
 30
0.0
 11
0.666515067751547
 21
4.832551154281988
 31
0.0
  0
LINE
  5
2A31
330
1E
100
AcDbEntity
  8
7
100
AcDbLine
 10
0.5995859338932794
 20
4.10814170546309
 30
0.0
 11
0.4814756976728072
 21
4.10814170546309
 31
0.0
  0
LINE
  5
2A32
330
1E
100
AcDbEntity
  8
7
100
AcDbLine
 10
0.2275386897987914
 20
4.10814170546309
 30
0.0
 11
0.2511607370428859
 21
4.119952729085138
 31
0.0
  0
LINE
  5
2A38
330
1E
100
AcDbEntity
  8
7
100
AcDbLine
 10
0.2511607370428859
 20
4.14554328026624
 30
0.0
 11
0.2511607370428859
 21
4.135700760581201
 31
0.0
  0
LINE
  5
2A39
330
1E
100
AcDbEntity
  8
7
100
AcDbLine
 10
0.2511607370428859
 20
4.180976351132381
 30
0.0
 11
0.2511607370428859
 21
4.14554328026624
 31
0.0
  0
LINE
  5
2A3A
330
1E
100
AcDbEntity
  8
7
100
AcDbLine
 10
0.2511607370428859
 20
4.186881862943405
 30
0.0
 11
0.2511607370428859
 21
4.180976351132381
 31
0.0
  0
LINE
  5
2A3B
330
1E
100
AcDbEntity
  8
7
100
AcDbLine
 10
0.2511607370428859
 20
4.206566902313484
 30
0.0
 11
0.2511607370428859
 21
4.186881862943405
 31
0.0
  0
LINE
  5
2A3C
330
1E
100
AcDbEntity
  8
7
100
AcDbLine
 10
0.4578536504287128
 20
4.206566902313484
 30
0.0
 11
0.4578536504287128
 21
4.186881862943405
 31
0.0
  0
LINE
  5
2A3D
330
1E
100
AcDbEntity
  8
7
100
AcDbLine
 10
0.4578536504287128
 20
4.180976351132381
 30
0.0
 11
0.4578536504287128
 21
4.186881862943405
 31
0.0
  0
LINE
  5
2A3E
330
1E
100
AcDbEntity
  8
7
100
AcDbLine
 10
0.4558851464917045
 20
4.14554328026624
 30
0.0
 11
0.4578536504287128
 21
4.180976351132381
 31
0.0
  0
LINE
  5
2A3F
330
1E
100
AcDbEntity
  8
7
100
AcDbLine
 10
0.4558851464917045
 20
4.14554328026624
 30
0.0
 11
0.4558851464917045
 21
4.135700760581201
 31
0.0
  0
LINE
  5
2A45
330
1E
100
AcDbEntity
  8
7
100
AcDbLine
 10
0.4578536504287128
 20
4.119952729085138
 30
0.0
 11
0.4814756976728072
 21
4.10814170546309
 31
0.0
  0
LINE
  5
2A46
330
1E
100
AcDbEntity
  8
7
100
AcDbLine
 10
0.2511607370428859
 20
4.119952729085138
 30
0.0
 11
0.4578536504287128
 21
4.119952729085138
 31
0.0
  0
LINE
  5
2A47
330
1E
100
AcDbEntity
  8
7
100
AcDbLine
 10
0.2275386897987914
 20
4.10814170546309
 30
0.0
 11
0.1094284535783183
 21
4.10814170546309
 31
0.0
  0
LINE
  5
2A48
330
1E
100
AcDbEntity
  8
7
100
AcDbLine
 10
0.0424993197200503
 20
4.832551154281988
 30
0.0
 11
0.0424993197200503
 21
4.173102335384349
 31
0.0
  0
LINE
  5
2A49
330
1E
100
AcDbEntity
  8
7
100
AcDbLine
 10
0.1094284535783183
 20
6.09042517003002
 30
0.0
 11
0.1094284535783183
 21
6.157354303888286
 31
0.0
  0
LINE
  5
2A4A
330
1E
100
AcDbEntity
  8
7
100
AcDbLine
 10
0.1074599496413109
 20
6.09042517003002
 30
0.0
 11
0.1094284535783183
 21
6.09042517003002
 31
0.0
  0
LINE
  5
2A4B
330
1E
100
AcDbEntity
  8
7
100
AcDbLine
 10
0.5995859338932794
 20
6.09042517003002
 30
0.0
 11
0.4814756976728072
 21
6.09042517003002
 31
0.0
  0
LINE
  5
2A4C
330
1E
100
AcDbEntity
  8
7
100
AcDbLine
 10
0.2275386897987914
 20
6.09042517003002
 30
0.0
 11
0.2511607370428859
 21
6.104204697589075
 31
0.0
  0
LINE
  5
2A52
330
1E
100
AcDbEntity
  8
7
100
AcDbLine
 10
0.2511607370428859
 20
6.129795248770177
 30
0.0
 11
0.2511607370428859
 21
6.117984225148129
 31
0.0
  0
LINE
  5
2A53
330
1E
100
AcDbEntity
  8
7
100
AcDbLine
 10
0.2511607370428859
 20
6.165228319636318
 30
0.0
 11
0.2511607370428859
 21
6.129795248770177
 31
0.0
  0
LINE
  5
2A54
330
1E
100
AcDbEntity
  8
7
100
AcDbLine
 10
0.2511607370428859
 20
6.171133831447342
 30
0.0
 11
0.2511607370428859
 21
6.165228319636318
 31
0.0
  0
LINE
  5
2A55
330
1E
100
AcDbEntity
  8
7
100
AcDbLine
 10
0.2511607370428859
 20
6.190818870817421
 30
0.0
 11
0.2511607370428859
 21
6.171133831447342
 31
0.0
  0
LINE
  5
2A56
330
1E
100
AcDbEntity
  8
7
100
AcDbLine
 10
0.4578536504287128
 20
6.190818870817421
 30
0.0
 11
0.4578536504287128
 21
6.171133831447342
 31
0.0
  0
LINE
  5
2A57
330
1E
100
AcDbEntity
  8
7
100
AcDbLine
 10
0.4578536504287128
 20
6.165228319636318
 30
0.0
 11
0.4578536504287128
 21
6.171133831447342
 31
0.0
  0
LINE
  5
2A58
330
1E
100
AcDbEntity
  8
7
100
AcDbLine
 10
0.4558851464917045
 20
6.129795248770177
 30
0.0
 11
0.4578536504287128
 21
6.165228319636318
 31
0.0
  0
LINE
  5
2A59
330
1E
100
AcDbEntity
  8
7
100
AcDbLine
 10
0.4558851464917045
 20
6.129795248770177
 30
0.0
 11
0.4558851464917045
 21
6.117984225148129
 31
0.0
  0
LINE
  5
2A5F
330
1E
100
AcDbEntity
  8
7
100
AcDbLine
 10
0.4578536504287128
 20
6.104204697589075
 30
0.0
 11
0.4814756976728072
 21
6.09042517003002
 31
0.0
  0
LINE
  5
2A60
330
1E
100
AcDbEntity
  8
7
100
AcDbLine
 10
0.2511607370428859
 20
6.104204697589075
 30
0.0
 11
0.4578536504287128
 21
6.104204697589075
 31
0.0
  0
LINE
  5
2A61
330
1E
100
AcDbEntity
  8
7
100
AcDbLine
 10
0.2275386897987914
 20
6.09042517003002
 30
0.0
 11
0.1094284535783183
 21
6.09042517003002
 31
0.0
  0
LINE
  5
2A62
330
1E
100
AcDbEntity
  8
7
100
AcDbLine
 10
0.0424993197200503
 20
6.816803122785925
 30
0.0
 11
0.0424993197200503
 21
6.157354303888286
 31
0.0
  0
LINE
  5
2A63
330
1E
100
AcDbEntity
  8
7
100
AcDbLine
 10
0.2669087685389488
 20
6.816803122785925
 30
0.0
 11
0.2669087685389488
 21
6.777433044045768
 31
0.0
  0
LINE
  5
2A64
330
1E
100
AcDbEntity
  8
7
100
AcDbLine
 10
0.2669087685389488
 20
6.777433044045768
 30
0.0
 11
0.4421056189326489
 21
6.777433044045768
 31
0.0
  0
LINE
  5
2A65
330
1E
100
AcDbEntity
  8
7
100
AcDbLine
 10
0.4421056189326489
 20
6.816803122785925
 30
0.0
 11
0.4421056189326489
 21
6.777433044045768
 31
0.0
  0
LINE
  5
2A66
330
1E
100
AcDbEntity
  8
7
100
AcDbLine
 10
0.666515067751547
 20
6.157354303888286
 30
0.0
 11
0.666515067751547
 21
6.816803122785925
 31
0.0
  0
LINE
  5
2A67
330
1E
100
AcDbEntity
  8
7
100
AcDbLine
 10
0.4145465638145387
 20
3.956566902313484
 30
0.0
 11
0.4145465638145387
 21
3.958535406250492
 31
0.0
  0
LINE
  5
2A77
330
1E
100
AcDbEntity
  8
7
100
AcDbLine
 10
0.4145465638145387
 20
3.655385799951279
 30
0.0
 11
0.4145465638145387
 21
3.657354303888286
 31
0.0
  0
LINE
  5
2A78
330
1E
100
AcDbEntity
  8
7
100
AcDbLine
 10
0.294467823657059
 20
3.657354303888286
 30
0.0
 11
0.294467823657059
 21
3.655385799951279
 31
0.0
  0
LINE
  5
2A88
330
1E
100
AcDbEntity
  8
7
100
AcDbLine
 10
0.294467823657059
 20
3.958535406250492
 30
0.0
 11
0.294467823657059
 21
3.956566902313484
 31
0.0
  0
LINE
  5
2A89
330
1E
100
AcDbEntity
  8
7
100
AcDbLine
 10
0.4145465638145387
 20
3.657354303888286
 30
0.0
 11
0.294467823657059
 21
3.657354303888286
 31
0.0
  0
LINE
  5
2A8A
330
1E
100
AcDbEntity
  8
7
100
AcDbLine
 10
0.294467823657059
 20
3.956566902313484
 30
0.0
 11
0.4145465638145387
 21
3.956566902313484
 31
0.0
  0
LINE
  5
2A8B
330
1E
100
AcDbEntity
  8
7
100
AcDbLine
 10
0.2472237291688701
 20
3.747905484990649
 30
0.0
 11
0.4598221543657202
 21
3.747905484990649
 31
0.0
  0
LINE
  5
2A8C
330
1E
100
AcDbEntity
  8
7
100
AcDbLine
 10
0.2472237291688701
 20
3.867984225148129
 30
0.0
 11
0.4598221543657202
 21
3.867984225148129
 31
0.0
  0
LINE
  5
2A8D
330
1E
100
AcDbEntity
  8
7
100
AcDbLine
 10
0.4499796346806813
 20
3.740031469242618
 30
0.0
 11
0.2590347527909174
 21
3.740031469242618
 31
0.0
  0
LINE
  5
2A93
330
1E
100
AcDbEntity
  8
7
100
AcDbLine
 10
0.4145465638145387
 20
3.730188949557579
 30
0.0
 11
0.294467823657059
 21
3.730188949557579
 31
0.0
  0
LINE
  5
2A99
330
1E
100
AcDbEntity
  8
7
100
AcDbLine
 10
0.2472237291688701
 20
3.747905484990649
 30
0.0
 11
0.2590347527909174
 21
3.740031469242618
 31
0.0
  0
LINE
  5
2A9A
330
1E
100
AcDbEntity
  8
7
100
AcDbLine
 10
0.4499796346806813
 20
3.740031469242618
 30
0.0
 11
0.4598221543657202
 21
3.747905484990649
 31
0.0
  0
LINE
  5
2AA0
330
1E
100
AcDbEntity
  8
7
100
AcDbLine
 10
0.4598221543657202
 20
3.867984225148129
 30
0.0
 11
0.4499796346806813
 21
3.873889736959153
 31
0.0
  0
LINE
  5
2AAB
330
1E
100
AcDbEntity
  8
7
100
AcDbLine
 10
0.4145465638145387
 20
3.883732256644192
 30
0.0
 11
0.294467823657059
 21
3.883732256644192
 31
0.0
  0
LINE
  5
2AC1
330
1E
100
AcDbEntity
  8
7
100
AcDbLine
 10
0.4145465638145387
 20
3.730188949557579
 30
0.0
 11
0.294467823657059
 21
3.730188949557579
 31
0.0
  0
LINE
  5
2ACB
330
1E
100
AcDbEntity
  8
7
100
AcDbLine
 10
0.4145465638145387
 20
3.883732256644192
 30
0.0
 11
0.294467823657059
 21
3.883732256644192
 31
0.0
  0
LINE
  5
2ACC
330
1E
100
AcDbEntity
  8
7
100
AcDbLine
 10
0.4578536504287128
 20
4.206566902313484
 30
0.0
 11
0.2511607370428859
 21
4.206566902313484
 31
0.0
  0
LINE
  5
2ACD
330
1E
100
AcDbEntity
  8
7
100
AcDbLine
 10
0.4578536504287128
 20
4.186881862943405
 30
0.0
 11
0.2511607370428859
 21
4.186881862943405
 31
0.0
  0
LINE
  5
2ACE
330
1E
100
AcDbEntity
  8
7
100
AcDbLine
 10
0.2511607370428859
 20
4.180976351132381
 30
0.0
 11
0.4578536504287128
 21
4.180976351132381
 31
0.0
  0
LINE
  5
2ACF
330
1E
100
AcDbEntity
  8
7
100
AcDbLine
 10
0.4558851464917045
 20
4.14554328026624
 30
0.0
 11
0.2511607370428859
 21
4.14554328026624
 31
0.0
  0
LINE
  5
2AD0
330
1E
100
AcDbEntity
  8
7
100
AcDbLine
 10
0.4558851464917045
 20
4.135700760581201
 30
0.0
 11
0.2511607370428859
 21
4.135700760581201
 31
0.0
  0
LINE
  5
2AD1
330
1E
100
AcDbEntity
  8
7
100
AcDbLine
 10
0.4558851464917045
 20
5.12585824089616
 30
0.0
 11
0.2511607370428859
 21
5.12585824089616
 31
0.0
  0
LINE
  5
2AD2
330
1E
100
AcDbEntity
  8
7
100
AcDbLine
 10
0.4558851464917045
 20
5.137669264518208
 30
0.0
 11
0.2511607370428859
 21
5.137669264518208
 31
0.0
  0
LINE
  5
2AD3
330
1E
100
AcDbEntity
  8
7
100
AcDbLine
 10
0.2511607370428859
 20
5.173102335384349
 30
0.0
 11
0.4578536504287128
 21
5.173102335384349
 31
0.0
  0
LINE
  5
2AD4
330
1E
100
AcDbEntity
  8
7
100
AcDbLine
 10
0.4578536504287128
 20
5.179007847195373
 30
0.0
 11
0.2511607370428859
 21
5.179007847195373
 31
0.0
  0
LINE
  5
2AD5
330
1E
100
AcDbEntity
  8
7
100
AcDbLine
 10
0.4578536504287128
 20
5.198692886565453
 30
0.0
 11
0.2511607370428859
 21
5.198692886565453
 31
0.0
  0
LINE
  5
2AD6
330
1E
100
AcDbEntity
  8
7
100
AcDbLine
 10
0.4499796346806813
 20
7.021527532234744
 30
0.0
 11
0.2590347527909174
 21
7.021527532234744
 31
0.0
  0
LINE
  5
2AD7
330
1E
100
AcDbEntity
  8
7
100
AcDbLine
 10
0.4598221543657202
 20
7.029401547982775
 30
0.0
 11
0.4499796346806813
 21
7.021527532234744
 31
0.0
  0
LINE
  5
2AD8
330
1E
100
AcDbEntity
  8
7
100
AcDbLine
 10
0.2472237291688701
 20
7.029401547982775
 30
0.0
 11
0.4598221543657202
 21
7.029401547982775
 31
0.0
  0
LINE
  5
2AD9
330
1E
100
AcDbEntity
  8
7
100
AcDbLine
 10
0.2590347527909174
 20
7.021527532234744
 30
0.0
 11
0.2472237291688701
 21
7.029401547982775
 31
0.0
  0
LINE
  5
2ADA
330
1E
100
AcDbEntity
  8
7
100
AcDbLine
 10
0.4499796346806813
 20
7.155385799951279
 30
0.0
 11
0.2590347527909174
 21
7.155385799951279
 31
0.0
  0
LINE
  5
2AE0
330
1E
100
AcDbEntity
  8
7
100
AcDbLine
 10
0.4145465638145387
 20
7.165228319636318
 30
0.0
 11
0.294467823657059
 21
7.165228319636318
 31
0.0
  0
LINE
  5
2AE6
330
1E
100
AcDbEntity
  8
7
100
AcDbLine
 10
0.2472237291688701
 20
7.149480288140255
 30
0.0
 11
0.4598221543657202
 21
7.149480288140255
 31
0.0
  0
LINE
  5
2AE7
330
1E
100
AcDbEntity
  8
7
100
AcDbLine
 10
0.4499796346806813
 20
7.155385799951279
 30
0.0
 11
0.4598221543657202
 21
7.149480288140255
 31
0.0
  0
LINE
  5
2AE8
330
1E
100
AcDbEntity
  8
7
100
AcDbLine
 10
0.2472237291688701
 20
7.149480288140255
 30
0.0
 11
0.2590347527909174
 21
7.155385799951279
 31
0.0
  0
LINE
  5
2AEE
330
1E
100
AcDbEntity
  8
7
100
AcDbLine
 10
0.4145465638145387
 20
7.011685012549705
 30
0.0
 11
0.294467823657059
 21
7.011685012549705
 31
0.0
  0
LINE
  5
2B03
330
1E
100
AcDbEntity
  8
7
100
AcDbLine
 10
0.4145465638145387
 20
7.165228319636318
 30
0.0
 11
0.294467823657059
 21
7.165228319636318
 31
0.0
  0
LINE
  5
2B13
330
1E
100
AcDbEntity
  8
7
100
AcDbLine
 10
0.4145465638145387
 20
7.011685012549705
 30
0.0
 11
0.294467823657059
 21
7.011685012549705
 31
0.0
  0
LINE
  5
2B14
330
1E
100
AcDbEntity
  8
7
100
AcDbLine
 10
0.4558851464917045
 20
6.117984225148129
 30
0.0
 11
0.2511607370428859
 21
6.117984225148129
 31
0.0
  0
LINE
  5
2B15
330
1E
100
AcDbEntity
  8
7
100
AcDbLine
 10
0.4558851464917045
 20
6.129795248770177
 30
0.0
 11
0.2511607370428859
 21
6.129795248770177
 31
0.0
  0
LINE
  5
2B16
330
1E
100
AcDbEntity
  8
7
100
AcDbLine
 10
0.2511607370428859
 20
6.165228319636318
 30
0.0
 11
0.4578536504287128
 21
6.165228319636318
 31
0.0
  0
LINE
  5
2B17
330
1E
100
AcDbEntity
  8
7
100
AcDbLine
 10
0.4578536504287128
 20
6.171133831447342
 30
0.0
 11
0.2511607370428859
 21
6.171133831447342
 31
0.0
  0
LINE
  5
2B18
330
1E
100
AcDbEntity
  8
7
100
AcDbLine
 10
0.4578536504287128
 20
6.190818870817421
 30
0.0
 11
0.2511607370428859
 21
6.190818870817421
 31
0.0
  0
LINE
  5
2B1E
330
1E
100
AcDbEntity
  8
7
100
AcDbLine
 10
-0.5815164283114456
 20
6.91325981569931
 30
0.0
 11
-0.5815164283114456
 21
7.263653516486712
 31
0.0
  0
LINE
  5
2B24
330
1E
100
AcDbEntity
  8
7
100
AcDbLine
 10
-0.9575006802799492
 20
7.694755878691436
 30
0.0
 11
-0.9870282393350677
 21
7.686881862943405
 31
0.0
  0
LINE
  5
2B45
330
1E
100
AcDbEntity
  8
7
100
AcDbLine
 10
-0.583484932248453
 20
7.263653516486712
 30
0.0
 11
-0.5815164283114456
 21
7.263653516486712
 31
0.0
  0
LINE
  5
2B46
330
1E
100
AcDbEntity
  8
7
100
AcDbLine
 10
-0.5815164283114456
 20
6.91325981569931
 30
0.0
 11
-0.583484932248453
 21
6.91325981569931
 31
0.0
  0
LINE
  5
2B47
330
1E
100
AcDbEntity
  8
7
100
AcDbLine
 10
-0.5815164283114456
 20
3.982157453494586
 30
0.0
 11
-0.583484932248453
 21
3.982157453494586
 31
0.0
  0
LINE
  5
2B4D
330
1E
100
AcDbEntity
  8
7
100
AcDbLine
 10
-0.583484932248453
 20
3.631763752707184
 30
0.0
 11
-0.5815164283114456
 21
3.633732256644192
 31
0.0
  0
LINE
  5
2B4E
330
1E
100
AcDbEntity
  8
7
100
AcDbLine
 10
-0.5815164283114456
 20
3.982157453494586
 30
0.0
 11
-0.5815164283114456
 21
3.633732256644192
 31
0.0
  0
LINE
  5
2B4F
330
1E
100
AcDbEntity
  8
7
100
AcDbLine
 10
-1.016555798390186
 20
3.261685012549705
 30
0.0
 11
-1.016555798390186
 21
7.635700760581201
 31
0.0
  0
LINE
  5
2B55
330
1E
100
AcDbEntity
  8
7
100
AcDbLine
 10
-1.016555798390186
 20
7.635700760581201
 30
0.0
 11
-1.020492806264201
 21
7.637669264518208
 31
0.0
  0
LINE
  5
2B56
330
1E
100
AcDbEntity
  8
7
100
AcDbLine
 10
-1.020492806264201
 20
3.257748004675688
 30
0.0
 11
-1.016555798390186
 21
3.261685012549705
 31
0.0
  0
LINE
  5
2B5C
330
1E
100
AcDbEntity
  8
7
100
AcDbLine
 10
1.290530815783043
 20
7.263653516486712
 30
0.0
 11
1.290530815783043
 21
6.91325981569931
 31
0.0
  0
LINE
  5
2B6B
330
1E
100
AcDbEntity
  8
7
100
AcDbLine
 10
1.725570185861783
 20
7.635700760581201
 30
0.0
 11
1.717696170113751
 21
7.665228319636318
 31
0.0
  0
LINE
  5
2B80
330
1E
100
AcDbEntity
  8
7
100
AcDbLine
 10
1.29249931972005
 20
3.982157453494586
 30
0.0
 11
1.290530815783043
 21
3.982157453494586
 31
0.0
  0
LINE
  5
2B81
330
1E
100
AcDbEntity
  8
7
100
AcDbLine
 10
1.290530815783043
 20
3.633732256644192
 30
0.0
 11
1.290530815783043
 21
3.982157453494586
 31
0.0
  0
LINE
  5
2B82
330
1E
100
AcDbEntity
  8
7
100
AcDbLine
 10
1.290530815783043
 20
3.633732256644192
 30
0.0
 11
1.29249931972005
 21
3.631763752707184
 31
0.0
  0
LINE
  5
2B88
330
1E
100
AcDbEntity
  8
7
100
AcDbLine
 10
1.29249931972005
 20
6.91325981569931
 30
0.0
 11
1.290530815783043
 21
6.91325981569931
 31
0.0
  0
LINE
  5
2B89
330
1E
100
AcDbEntity
  8
7
100
AcDbLine
 10
1.290530815783043
 20
7.263653516486712
 30
0.0
 11
1.29249931972005
 21
7.263653516486712
 31
0.0
  0
LINE
  5
2B8A
330
1E
100
AcDbEntity
  8
7
100
AcDbLine
 10
1.725570185861783
 20
7.635700760581201
 30
0.0
 11
1.725570185861783
 21
3.261685012549705
 31
0.0
  0
LINE
  5
2B90
330
1E
100
AcDbEntity
  8
7
100
AcDbLine
 10
1.729507193735798
 20
7.637669264518208
 30
0.0
 11
1.725570185861783
 21
7.635700760581201
 31
0.0
  0
LINE
  5
2B91
330
1E
100
AcDbEntity
  8
7
100
AcDbLine
 10
1.725570185861783
 20
3.261685012549705
 30
0.0
 11
1.729507193735798
 21
3.257748004675688
 31
0.0
  0
LINE
  5
2BB0
330
1E
100
AcDbEntity
  8
7
100
AcDbLine
 10
5.294467823657058
 20
3.425070839321358
 30
0.0
 11
5.294467823657058
 21
7.470346429872538
 31
0.0
  0
LINE
  5
2BB7
330
1E
100
AcDbEntity
  8
7
100
AcDbLine
 10
5.568089870901152
 20
3.257748004675688
 30
0.0
 11
5.568089870901152
 21
7.637669264518208
 31
0.0
  0
LINE
  5
2BBE
330
1E
100
AcDbEntity
  8
7
100
AcDbLine
 10
5.568089870901152
 20
3.198692886565453
 30
0.0
 11
5.507066248853909
 21
3.20066139050246
 31
0.0
  0
LINE
  5
2BBF
330
1E
100
AcDbEntity
  8
7
100
AcDbLine
 10
5.507066248853909
 20
7.694755878691436
 30
0.0
 11
5.568089870901152
 21
7.698692886565453
 31
0.0
  0
LINE
  5
2BC0
330
1E
100
AcDbEntity
  8
7
100
AcDbLine
 10
5.916515067751547
 20
5.043181075541831
 30
0.0
 11
5.568089870901152
 21
5.017590524360729
 31
0.0
  0
LINE
  5
2BCA
330
1E
100
AcDbEntity
  8
7
100
AcDbLine
 10
5.804310343342098
 20
5.198692886565453
 30
0.0
 11
5.841711918145247
 21
5.194755878691436
 31
0.0
  0
LINE
  5
2BCB
330
1E
100
AcDbEntity
  8
7
100
AcDbLine
 10
5.804310343342098
 20
5.198692886565453
 30
0.0
 11
5.804310343342098
 21
5.179007847195373
 31
0.0
  0
LINE
  5
2BCC
330
1E
100
AcDbEntity
  8
7
100
AcDbLine
 10
5.806278847279106
 20
5.173102335384349
 30
0.0
 11
5.804310343342098
 21
5.179007847195373
 31
0.0
  0
LINE
  5
2BCD
330
1E
100
AcDbEntity
  8
7
100
AcDbLine
 10
5.818089870901152
 20
5.137669264518208
 30
0.0
 11
5.806278847279106
 21
5.173102335384349
 31
0.0
  0
LINE
  5
2BCE
330
1E
100
AcDbEntity
  8
7
100
AcDbLine
 10
5.818089870901152
 20
5.137669264518208
 30
0.0
 11
5.818089870901152
 21
5.12585824089616
 31
0.0
  0
LINE
  5
2BD4
330
1E
100
AcDbEntity
  8
7
100
AcDbLine
 10
5.802341839405089
 20
5.112078713337107
 30
0.0
 11
5.568089870901152
 21
5.106173201526083
 31
0.0
  0
LINE
  5
2BD5
330
1E
100
AcDbEntity
  8
7
100
AcDbLine
 10
5.916515067751547
 20
4.051055091289862
 30
0.0
 11
5.568089870901152
 21
4.02546454010876
 31
0.0
  0
LINE
  5
2BDF
330
1E
100
AcDbEntity
  8
7
100
AcDbLine
 10
5.804310343342098
 20
4.206566902313484
 30
0.0
 11
5.841711918145247
 21
4.202629894439468
 31
0.0
  0
LINE
  5
2BE0
330
1E
100
AcDbEntity
  8
7
100
AcDbLine
 10
5.804310343342098
 20
4.206566902313484
 30
0.0
 11
5.804310343342098
 21
4.186881862943405
 31
0.0
  0
LINE
  5
2BE1
330
1E
100
AcDbEntity
  8
7
100
AcDbLine
 10
5.806278847279106
 20
4.180976351132381
 30
0.0
 11
5.804310343342098
 21
4.186881862943405
 31
0.0
  0
LINE
  5
2BE2
330
1E
100
AcDbEntity
  8
7
100
AcDbLine
 10
5.818089870901152
 20
4.14554328026624
 30
0.0
 11
5.806278847279106
 21
4.180976351132381
 31
0.0
  0
LINE
  5
2BE3
330
1E
100
AcDbEntity
  8
7
100
AcDbLine
 10
5.818089870901152
 20
4.14554328026624
 30
0.0
 11
5.818089870901152
 21
4.135700760581201
 31
0.0
  0
LINE
  5
2BE9
330
1E
100
AcDbEntity
  8
7
100
AcDbLine
 10
5.802341839405089
 20
4.119952729085138
 30
0.0
 11
5.568089870901152
 21
4.114047217274114
 31
0.0
  0
LINE
  5
2BEA
330
1E
100
AcDbEntity
  8
7
100
AcDbLine
 10
5.916515067751547
 20
6.033338555856792
 30
0.0
 11
5.568089870901152
 21
6.009716508612697
 31
0.0
  0
LINE
  5
2BF4
330
1E
100
AcDbEntity
  8
7
100
AcDbLine
 10
5.804310343342098
 20
6.190818870817421
 30
0.0
 11
5.841711918145247
 21
6.186881862943405
 31
0.0
  0
LINE
  5
2BF5
330
1E
100
AcDbEntity
  8
7
100
AcDbLine
 10
5.804310343342098
 20
6.190818870817421
 30
0.0
 11
5.804310343342098
 21
6.171133831447342
 31
0.0
  0
LINE
  5
2BF6
330
1E
100
AcDbEntity
  8
7
100
AcDbLine
 10
5.806278847279106
 20
6.165228319636318
 30
0.0
 11
5.804310343342098
 21
6.171133831447342
 31
0.0
  0
LINE
  5
2BF7
330
1E
100
AcDbEntity
  8
7
100
AcDbLine
 10
5.818089870901152
 20
6.129795248770177
 30
0.0
 11
5.806278847279106
 21
6.165228319636318
 31
0.0
  0
LINE
  5
2BF8
330
1E
100
AcDbEntity
  8
7
100
AcDbLine
 10
5.818089870901152
 20
6.129795248770177
 30
0.0
 11
5.818089870901152
 21
6.117984225148129
 31
0.0
  0
LINE
  5
2BFE
330
1E
100
AcDbEntity
  8
7
100
AcDbLine
 10
5.802341839405089
 20
6.104204697589075
 30
0.0
 11
5.568089870901152
 21
6.096330681841044
 31
0.0
  0
LINE
  5
2C13
330
1E
100
AcDbEntity
  8
7
100
AcDbLine
 10
5.5050977449169
 20
3.232157453494586
 30
0.0
 11
5.507066248853909
 21
3.261685012549705
 31
0.0
  0
LINE
  5
2C1D
330
1E
100
AcDbEntity
  8
7
100
AcDbLine
 10
5.507066248853909
 20
7.635700760581201
 30
0.0
 11
5.507066248853909
 21
3.261685012549705
 31
0.0
  0
LINE
  5
2C1E
330
1E
100
AcDbEntity
  8
7
100
AcDbLine
 10
5.568089870901152
 20
7.637669264518208
 30
0.0
 11
5.507066248853909
 21
7.635700760581201
 31
0.0
  0
LINE
  5
2C1F
330
1E
100
AcDbEntity
  8
7
100
AcDbLine
 10
5.507066248853909
 20
3.261685012549705
 30
0.0
 11
5.568089870901152
 21
3.257748004675688
 31
0.0
  0
LINE
  5
2F4F
330
1E
100
AcDbEntity
  8
7
100
AcDbLine
 10
5.294467823657058
 20
3.425070839321358
 30
0.0
 11
5.300373335468082
 21
3.383732256644192
 31
0.0
  0
LINE
  5
2F50
330
1E
100
AcDbEntity
  8
7
100
AcDbLine
 10
5.300373335468082
 20
3.383732256644192
 30
0.0
 11
5.322026878775169
 21
3.346330681841044
 31
0.0
  0
LINE
  5
2F51
330
1E
100
AcDbEntity
  8
7
100
AcDbLine
 10
5.322026878775169
 20
3.346330681841044
 30
0.0
 11
5.355491445704302
 21
3.312866114911908
 31
0.0
  0
LINE
  5
2F52
330
1E
100
AcDbEntity
  8
7
100
AcDbLine
 10
5.355491445704302
 20
3.312866114911908
 30
0.0
 11
5.398798532318476
 21
3.285307059793799
 31
0.0
  0
LINE
  5
2F53
330
1E
100
AcDbEntity
  8
7
100
AcDbLine
 10
5.398798532318476
 20
3.285307059793799
 30
0.0
 11
5.451948138617687
 21
3.267590524360729
 31
0.0
  0
LINE
  5
2F54
330
1E
100
AcDbEntity
  8
7
100
AcDbLine
 10
5.451948138617687
 20
3.267590524360729
 30
0.0
 11
5.507066248853909
 21
3.261685012549705
 31
0.0
  0
LINE
  5
2F55
330
1E
100
AcDbEntity
  8
7
100
AcDbLine
 10
5.507066248853909
 20
3.20066139050246
 30
0.0
 11
5.5050977449169
 21
3.208535406250492
 31
0.0
  0
LINE
  5
2F56
330
1E
100
AcDbEntity
  8
7
100
AcDbLine
 10
5.5050977449169
 20
3.208535406250492
 30
0.0
 11
5.5050977449169
 21
3.232157453494586
 31
0.0
  0
LINE
  5
2F57
330
1E
100
AcDbEntity
  8
7
100
AcDbLine
 10
5.507066248853909
 20
7.635700760581201
 30
0.0
 11
5.5050977449169
 21
7.665228319636318
 31
0.0
  0
LINE
  5
2F58
330
1E
100
AcDbEntity
  8
7
100
AcDbLine
 10
5.5050977449169
 20
7.665228319636318
 30
0.0
 11
5.5050977449169
 21
7.686881862943405
 31
0.0
  0
LINE
  5
2F59
330
1E
100
AcDbEntity
  8
7
100
AcDbLine
 10
5.5050977449169
 20
7.686881862943405
 30
0.0
 11
5.507066248853909
 21
7.694755878691436
 31
0.0
  0
LINE
  5
2F5A
330
1E
100
AcDbEntity
  8
7
100
AcDbLine
 10
5.507066248853909
 20
7.635700760581201
 30
0.0
 11
5.451948138617687
 21
7.62782674483317
 31
0.0
  0
LINE
  5
2F5B
330
1E
100
AcDbEntity
  8
7
100
AcDbLine
 10
5.451948138617687
 20
7.62782674483317
 30
0.0
 11
5.398798532318476
 21
7.610110209400097
 31
0.0
  0
LINE
  5
2F5C
330
1E
100
AcDbEntity
  8
7
100
AcDbLine
 10
5.398798532318476
 20
7.610110209400097
 30
0.0
 11
5.355491445704302
 21
7.584519658218995
 31
0.0
  0
LINE
  5
2F5D
330
1E
100
AcDbEntity
  8
7
100
AcDbLine
 10
5.355491445704302
 20
7.584519658218995
 30
0.0
 11
5.322026878775169
 21
7.549086587352855
 31
0.0
  0
LINE
  5
2F5E
330
1E
100
AcDbEntity
  8
7
100
AcDbLine
 10
5.322026878775169
 20
7.549086587352855
 30
0.0
 11
5.300373335468082
 21
7.511685012549705
 31
0.0
  0
LINE
  5
2F5F
330
1E
100
AcDbEntity
  8
7
100
AcDbLine
 10
5.300373335468082
 20
7.511685012549705
 30
0.0
 11
5.294467823657058
 21
7.470346429872538
 31
0.0
  0
LINE
  5
2F60
330
1E
100
AcDbEntity
  8
7
100
AcDbLine
 10
5.802341839405089
 20
6.104204697589075
 30
0.0
 11
5.814152863027137
 21
6.10814170546309
 31
0.0
  0
LINE
  5
2F61
330
1E
100
AcDbEntity
  8
7
100
AcDbLine
 10
5.814152863027137
 20
6.10814170546309
 30
0.0
 11
5.818089870901152
 21
6.117984225148129
 31
0.0
  0
LINE
  5
2F62
330
1E
100
AcDbEntity
  8
7
100
AcDbLine
 10
5.916515067751547
 20
6.033338555856792
 30
0.0
 11
5.938168611058634
 21
6.041212571604823
 31
0.0
  0
LINE
  5
2F63
330
1E
100
AcDbEntity
  8
7
100
AcDbLine
 10
5.938168611058634
 20
6.041212571604823
 30
0.0
 11
5.951948138617687
 21
6.060897610974901
 31
0.0
  0
LINE
  5
2F64
330
1E
100
AcDbEntity
  8
7
100
AcDbLine
 10
5.951948138617687
 20
6.060897610974901
 30
0.0
 11
5.953916642554696
 21
6.082551154281988
 31
0.0
  0
LINE
  5
2F65
330
1E
100
AcDbEntity
  8
7
100
AcDbLine
 10
5.953916642554696
 20
6.082551154281988
 30
0.0
 11
5.942105618932648
 21
6.102236193652066
 31
0.0
  0
LINE
  5
2F66
330
1E
100
AcDbEntity
  8
7
100
AcDbLine
 10
5.942105618932648
 20
6.102236193652066
 30
0.0
 11
5.873207981137372
 21
6.173102335384349
 31
0.0
  0
LINE
  5
2F67
330
1E
100
AcDbEntity
  8
7
100
AcDbLine
 10
5.873207981137372
 20
6.173102335384349
 30
0.0
 11
5.841711918145247
 21
6.186881862943405
 31
0.0
  0
LINE
  5
2F68
330
1E
100
AcDbEntity
  8
7
100
AcDbLine
 10
5.802341839405089
 20
4.119952729085138
 30
0.0
 11
5.814152863027137
 21
4.123889736959153
 31
0.0
  0
LINE
  5
2F69
330
1E
100
AcDbEntity
  8
7
100
AcDbLine
 10
5.814152863027137
 20
4.123889736959153
 30
0.0
 11
5.818089870901152
 21
4.135700760581201
 31
0.0
  0
LINE
  5
2F6A
330
1E
100
AcDbEntity
  8
7
100
AcDbLine
 10
5.916515067751547
 20
4.051055091289862
 30
0.0
 11
5.938168611058634
 21
4.058929107037894
 31
0.0
  0
LINE
  5
2F6B
330
1E
100
AcDbEntity
  8
7
100
AcDbLine
 10
5.938168611058634
 20
4.058929107037894
 30
0.0
 11
5.951948138617687
 21
4.076645642470964
 31
0.0
  0
LINE
  5
2F6C
330
1E
100
AcDbEntity
  8
7
100
AcDbLine
 10
5.951948138617687
 20
4.076645642470964
 30
0.0
 11
5.953916642554696
 21
4.098299185778051
 31
0.0
  0
LINE
  5
2F6D
330
1E
100
AcDbEntity
  8
7
100
AcDbLine
 10
5.953916642554696
 20
4.098299185778051
 30
0.0
 11
5.942105618932648
 21
4.117984225148129
 31
0.0
  0
LINE
  5
2F6E
330
1E
100
AcDbEntity
  8
7
100
AcDbLine
 10
5.942105618932648
 20
4.117984225148129
 30
0.0
 11
5.873207981137372
 21
4.188850366880412
 31
0.0
  0
LINE
  5
2F6F
330
1E
100
AcDbEntity
  8
7
100
AcDbLine
 10
5.873207981137372
 20
4.188850366880412
 30
0.0
 11
5.841711918145247
 21
4.202629894439468
 31
0.0
  0
LINE
  5
2F70
330
1E
100
AcDbEntity
  8
7
100
AcDbLine
 10
5.802341839405089
 20
5.112078713337107
 30
0.0
 11
5.814152863027137
 21
5.116015721211121
 31
0.0
  0
LINE
  5
2F71
330
1E
100
AcDbEntity
  8
7
100
AcDbLine
 10
5.814152863027137
 20
5.116015721211121
 30
0.0
 11
5.818089870901152
 21
5.12585824089616
 31
0.0
  0
LINE
  5
2F72
330
1E
100
AcDbEntity
  8
7
100
AcDbLine
 10
5.916515067751547
 20
5.043181075541831
 30
0.0
 11
5.938168611058634
 21
5.051055091289862
 31
0.0
  0
LINE
  5
2F73
330
1E
100
AcDbEntity
  8
7
100
AcDbLine
 10
5.938168611058634
 20
5.051055091289862
 30
0.0
 11
5.951948138617687
 21
5.068771626722933
 31
0.0
  0
LINE
  5
2F74
330
1E
100
AcDbEntity
  8
7
100
AcDbLine
 10
5.951948138617687
 20
5.068771626722933
 30
0.0
 11
5.953916642554696
 21
5.09042517003002
 31
0.0
  0
LINE
  5
2F75
330
1E
100
AcDbEntity
  8
7
100
AcDbLine
 10
5.953916642554696
 20
5.09042517003002
 30
0.0
 11
5.942105618932648
 21
5.110110209400097
 31
0.0
  0
LINE
  5
2F76
330
1E
100
AcDbEntity
  8
7
100
AcDbLine
 10
5.942105618932648
 20
5.110110209400097
 30
0.0
 11
5.873207981137372
 21
5.180976351132381
 31
0.0
  0
LINE
  5
2F77
330
1E
100
AcDbEntity
  8
7
100
AcDbLine
 10
5.873207981137372
 20
5.180976351132381
 30
0.0
 11
5.841711918145247
 21
5.194755878691436
 31
0.0
  0
LINE
  5
2F78
330
1E
100
AcDbEntity
  8
7
100
AcDbLine
 10
5.568089870901152
 20
3.257748004675688
 30
0.0
 11
5.568089870901152
 21
3.22822044562057
 31
0.0
  0
LINE
  5
2F79
330
1E
100
AcDbEntity
  8
7
100
AcDbLine
 10
5.568089870901152
 20
3.22822044562057
 30
0.0
 11
5.568089870901152
 21
3.206566902313484
 31
0.0
  0
LINE
  5
2F7A
330
1E
100
AcDbEntity
  8
7
100
AcDbLine
 10
5.568089870901152
 20
3.206566902313484
 30
0.0
 11
5.568089870901152
 21
3.198692886565453
 31
0.0
  0
LINE
  5
2F7B
330
1E
100
AcDbEntity
  8
7
100
AcDbLine
 10
5.568089870901152
 20
7.698692886565453
 30
0.0
 11
5.568089870901152
 21
7.690818870817421
 31
0.0
  0
LINE
  5
2F7C
330
1E
100
AcDbEntity
  8
7
100
AcDbLine
 10
5.568089870901152
 20
7.690818870817421
 30
0.0
 11
5.568089870901152
 21
7.667196823573327
 31
0.0
  0
LINE
  5
2F7D
330
1E
100
AcDbEntity
  8
7
100
AcDbLine
 10
5.568089870901152
 20
7.667196823573327
 30
0.0
 11
5.568089870901152
 21
7.637669264518208
 31
0.0
  0
LINE
  5
2F7E
330
1E
100
AcDbEntity
  8
7
100
AcDbLine
 10
5.507066248853909
 20
3.20066139050246
 30
0.0
 11
5.451948138617687
 21
3.210503910187499
 31
0.0
  0
LINE
  5
2F7F
330
1E
100
AcDbEntity
  8
7
100
AcDbLine
 10
5.451948138617687
 20
3.210503910187499
 30
0.0
 11
5.398798532318476
 21
3.236094461368603
 31
0.0
  0
LINE
  5
2F80
330
1E
100
AcDbEntity
  8
7
100
AcDbLine
 10
5.398798532318476
 20
3.236094461368603
 30
0.0
 11
5.355491445704302
 21
3.271527532234744
 31
0.0
  0
LINE
  5
2F81
330
1E
100
AcDbEntity
  8
7
100
AcDbLine
 10
5.355491445704302
 20
3.271527532234744
 30
0.0
 11
5.322026878775169
 21
3.316803122785925
 31
0.0
  0
LINE
  5
2F82
330
1E
100
AcDbEntity
  8
7
100
AcDbLine
 10
5.322026878775169
 20
3.316803122785925
 30
0.0
 11
5.300373335468082
 21
3.369952729085138
 31
0.0
  0
LINE
  5
2F83
330
1E
100
AcDbEntity
  8
7
100
AcDbLine
 10
5.300373335468082
 20
3.369952729085138
 30
0.0
 11
5.294467823657058
 21
3.425070839321358
 31
0.0
  0
LINE
  5
2F84
330
1E
100
AcDbEntity
  8
7
100
AcDbLine
 10
5.294467823657058
 20
3.425070839321358
 30
0.0
 11
5.300373335468082
 21
3.369952729085138
 31
0.0
  0
LINE
  5
2F85
330
1E
100
AcDbEntity
  8
7
100
AcDbLine
 10
5.300373335468082
 20
3.369952729085138
 30
0.0
 11
5.322026878775169
 21
3.316803122785925
 31
0.0
  0
LINE
  5
2F86
330
1E
100
AcDbEntity
  8
7
100
AcDbLine
 10
5.322026878775169
 20
3.316803122785925
 30
0.0
 11
5.355491445704302
 21
3.271527532234744
 31
0.0
  0
LINE
  5
2F87
330
1E
100
AcDbEntity
  8
7
100
AcDbLine
 10
5.355491445704302
 20
3.271527532234744
 30
0.0
 11
5.398798532318476
 21
3.236094461368603
 31
0.0
  0
LINE
  5
2F88
330
1E
100
AcDbEntity
  8
7
100
AcDbLine
 10
5.398798532318476
 20
3.236094461368603
 30
0.0
 11
5.451948138617687
 21
3.210503910187499
 31
0.0
  0
LINE
  5
2F89
330
1E
100
AcDbEntity
  8
7
100
AcDbLine
 10
5.451948138617687
 20
3.210503910187499
 30
0.0
 11
5.507066248853909
 21
3.20066139050246
 31
0.0
  0
LINE
  5
2F8A
330
1E
100
AcDbEntity
  8
7
100
AcDbLine
 10
5.294467823657058
 20
7.470346429872538
 30
0.0
 11
5.300373335468082
 21
7.52546454010876
 31
0.0
  0
LINE
  5
2F8B
330
1E
100
AcDbEntity
  8
7
100
AcDbLine
 10
5.300373335468082
 20
7.52546454010876
 30
0.0
 11
5.322026878775169
 21
7.578614146407971
 31
0.0
  0
LINE
  5
2F8C
330
1E
100
AcDbEntity
  8
7
100
AcDbLine
 10
5.322026878775169
 20
7.578614146407971
 30
0.0
 11
5.355491445704302
 21
7.62585824089616
 31
0.0
  0
LINE
  5
2F8D
330
1E
100
AcDbEntity
  8
7
100
AcDbLine
 10
5.355491445704302
 20
7.62585824089616
 30
0.0
 11
5.398798532318476
 21
7.661291311762303
 31
0.0
  0
LINE
  5
2F8E
330
1E
100
AcDbEntity
  8
7
100
AcDbLine
 10
5.398798532318476
 20
7.661291311762303
 30
0.0
 11
5.451948138617687
 21
7.684913359006397
 31
0.0
  0
LINE
  5
2F8F
330
1E
100
AcDbEntity
  8
7
100
AcDbLine
 10
5.451948138617687
 20
7.684913359006397
 30
0.0
 11
5.507066248853909
 21
7.694755878691436
 31
0.0
  0
LINE
  5
2F90
330
1E
100
AcDbEntity
  8
7
100
AcDbLine
 10
5.507066248853909
 20
7.694755878691436
 30
0.0
 11
5.451948138617687
 21
7.684913359006397
 31
0.0
  0
LINE
  5
2F91
330
1E
100
AcDbEntity
  8
7
100
AcDbLine
 10
5.451948138617687
 20
7.684913359006397
 30
0.0
 11
5.398798532318476
 21
7.661291311762303
 31
0.0
  0
LINE
  5
2F92
330
1E
100
AcDbEntity
  8
7
100
AcDbLine
 10
5.398798532318476
 20
7.661291311762303
 30
0.0
 11
5.355491445704302
 21
7.62585824089616
 31
0.0
  0
LINE
  5
2F93
330
1E
100
AcDbEntity
  8
7
100
AcDbLine
 10
5.355491445704302
 20
7.62585824089616
 30
0.0
 11
5.322026878775169
 21
7.578614146407971
 31
0.0
  0
LINE
  5
2F94
330
1E
100
AcDbEntity
  8
7
100
AcDbLine
 10
5.322026878775169
 20
7.578614146407971
 30
0.0
 11
5.300373335468082
 21
7.52546454010876
 31
0.0
  0
LINE
  5
2F95
330
1E
100
AcDbEntity
  8
7
100
AcDbLine
 10
5.300373335468082
 20
7.52546454010876
 30
0.0
 11
5.294467823657058
 21
7.470346429872538
 31
0.0
  0
LINE
  5
2F96
330
1E
100
AcDbEntity
  8
7
100
AcDbLine
 10
1.259034752790917
 20
3.602236193652066
 30
0.0
 11
1.280688296098003
 21
3.612078713337107
 31
0.0
  0
LINE
  5
2F97
330
1E
100
AcDbEntity
  8
7
100
AcDbLine
 10
1.280688296098003
 20
3.612078713337107
 30
0.0
 11
1.290530815783043
 21
3.633732256644192
 31
0.0
  0
LINE
  5
2F98
330
1E
100
AcDbEntity
  8
7
100
AcDbLine
 10
1.290530815783043
 20
3.982157453494586
 30
0.0
 11
1.280688296098003
 21
4.003810996801673
 31
0.0
  0
LINE
  5
2F99
330
1E
100
AcDbEntity
  8
7
100
AcDbLine
 10
1.280688296098003
 20
4.003810996801673
 30
0.0
 11
1.259034752790917
 21
4.013653516486712
 31
0.0
  0
LINE
  5
2F9A
330
1E
100
AcDbEntity
  8
7
100
AcDbLine
 10
1.501160737042885
 20
3.425070839321358
 30
0.0
 11
1.558247351216113
 21
3.383732256644192
 31
0.0
  0
LINE
  5
2F9B
330
1E
100
AcDbEntity
  8
7
100
AcDbLine
 10
1.558247351216113
 20
3.383732256644192
 30
0.0
 11
1.611396957515326
 21
3.346330681841044
 31
0.0
  0
LINE
  5
2F9C
330
1E
100
AcDbEntity
  8
7
100
AcDbLine
 10
1.611396957515326
 20
3.346330681841044
 30
0.0
 11
1.656672548066507
 21
3.312866114911908
 31
0.0
  0
LINE
  5
2F9D
330
1E
100
AcDbEntity
  8
7
100
AcDbLine
 10
1.656672548066507
 20
3.312866114911908
 30
0.0
 11
1.692105618932648
 21
3.285307059793799
 31
0.0
  0
LINE
  5
2F9E
330
1E
100
AcDbEntity
  8
7
100
AcDbLine
 10
1.692105618932648
 20
3.285307059793799
 30
0.0
 11
1.715727666176744
 21
3.267590524360729
 31
0.0
  0
LINE
  5
2F9F
330
1E
100
AcDbEntity
  8
7
100
AcDbLine
 10
1.715727666176744
 20
3.267590524360729
 30
0.0
 11
1.725570185861783
 21
3.261685012549705
 31
0.0
  0
LINE
  5
2FA0
330
1E
100
AcDbEntity
  8
7
100
AcDbLine
 10
1.666515067751547
 20
3.20066139050246
 30
0.0
 11
1.696042626806664
 21
3.208535406250492
 31
0.0
  0
LINE
  5
2FA1
330
1E
100
AcDbEntity
  8
7
100
AcDbLine
 10
1.696042626806664
 20
3.208535406250492
 30
0.0
 11
1.717696170113751
 21
3.232157453494586
 31
0.0
  0
LINE
  5
2FA2
330
1E
100
AcDbEntity
  8
7
100
AcDbLine
 10
1.717696170113751
 20
3.232157453494586
 30
0.0
 11
1.725570185861783
 21
3.261685012549705
 31
0.0
  0
LINE
  5
2FA3
330
1E
100
AcDbEntity
  8
7
100
AcDbLine
 10
1.717696170113751
 20
7.665228319636318
 30
0.0
 11
1.696042626806664
 21
7.686881862943405
 31
0.0
  0
LINE
  5
2FA4
330
1E
100
AcDbEntity
  8
7
100
AcDbLine
 10
1.696042626806664
 20
7.686881862943405
 30
0.0
 11
1.666515067751547
 21
7.694755878691436
 31
0.0
  0
LINE
  5
2FA5
330
1E
100
AcDbEntity
  8
7
100
AcDbLine
 10
1.725570185861783
 20
7.635700760581201
 30
0.0
 11
1.715727666176744
 21
7.62782674483317
 31
0.0
  0
LINE
  5
2FA6
330
1E
100
AcDbEntity
  8
7
100
AcDbLine
 10
1.715727666176744
 20
7.62782674483317
 30
0.0
 11
1.692105618932648
 21
7.610110209400097
 31
0.0
  0
LINE
  5
2FA7
330
1E
100
AcDbEntity
  8
7
100
AcDbLine
 10
1.692105618932648
 20
7.610110209400097
 30
0.0
 11
1.656672548066507
 21
7.584519658218995
 31
0.0
  0
LINE
  5
2FA8
330
1E
100
AcDbEntity
  8
7
100
AcDbLine
 10
1.656672548066507
 20
7.584519658218995
 30
0.0
 11
1.611396957515326
 21
7.549086587352855
 31
0.0
  0
LINE
  5
2FA9
330
1E
100
AcDbEntity
  8
7
100
AcDbLine
 10
1.611396957515326
 20
7.549086587352855
 30
0.0
 11
1.558247351216113
 21
7.511685012549705
 31
0.0
  0
LINE
  5
2FAA
330
1E
100
AcDbEntity
  8
7
100
AcDbLine
 10
1.558247351216113
 20
7.511685012549705
 30
0.0
 11
1.501160737042885
 21
7.470346429872538
 31
0.0
  0
LINE
  5
2FAB
330
1E
100
AcDbEntity
  8
7
100
AcDbLine
 10
1.259034752790917
 20
7.293181075541831
 30
0.0
 11
1.280688296098003
 21
7.285307059793799
 31
0.0
  0
LINE
  5
2FAC
330
1E
100
AcDbEntity
  8
7
100
AcDbLine
 10
1.280688296098003
 20
7.285307059793799
 30
0.0
 11
1.290530815783043
 21
7.263653516486712
 31
0.0
  0
LINE
  5
2FAD
330
1E
100
AcDbEntity
  8
7
100
AcDbLine
 10
1.290530815783043
 20
6.91325981569931
 30
0.0
 11
1.280688296098003
 21
6.891606272392223
 31
0.0
  0
LINE
  5
2FAE
330
1E
100
AcDbEntity
  8
7
100
AcDbLine
 10
1.280688296098003
 20
6.891606272392223
 30
0.0
 11
1.259034752790917
 21
6.883732256644192
 31
0.0
  0
LINE
  5
2FAF
330
1E
100
AcDbEntity
  8
7
100
AcDbLine
 10
-0.5815164283114456
 20
3.633732256644192
 30
0.0
 11
-0.5716739086264067
 21
3.612078713337107
 31
0.0
  0
LINE
  5
2FB0
330
1E
100
AcDbEntity
  8
7
100
AcDbLine
 10
-0.5716739086264067
 20
3.612078713337107
 30
0.0
 11
-0.5500203653193197
 21
3.602236193652066
 31
0.0
  0
LINE
  5
2FB1
330
1E
100
AcDbEntity
  8
7
100
AcDbLine
 10
-0.5500203653193197
 20
4.013653516486712
 30
0.0
 11
-0.5716739086264067
 21
4.003810996801673
 31
0.0
  0
LINE
  5
2FB2
330
1E
100
AcDbEntity
  8
7
100
AcDbLine
 10
-0.5716739086264067
 20
4.003810996801673
 30
0.0
 11
-0.5815164283114456
 21
3.982157453494586
 31
0.0
  0
LINE
  5
2FB3
330
1E
100
AcDbEntity
  8
7
100
AcDbLine
 10
-1.016555798390186
 20
3.261685012549705
 30
0.0
 11
-1.008681782642154
 21
3.232157453494586
 31
0.0
  0
LINE
  5
2FB4
330
1E
100
AcDbEntity
  8
7
100
AcDbLine
 10
-1.008681782642154
 20
3.232157453494586
 30
0.0
 11
-0.9870282393350677
 21
3.208535406250492
 31
0.0
  0
LINE
  5
2FB5
330
1E
100
AcDbEntity
  8
7
100
AcDbLine
 10
-0.9870282393350677
 20
3.208535406250492
 30
0.0
 11
-0.9575006802799492
 21
3.20066139050246
 31
0.0
  0
LINE
  5
2FB6
330
1E
100
AcDbEntity
  8
7
100
AcDbLine
 10
-0.9476581605949103
 20
3.312866114911908
 30
0.0
 11
-0.9023825700437289
 21
3.346330681841044
 31
0.0
  0
LINE
  5
2FB7
330
1E
100
AcDbEntity
  8
7
100
AcDbLine
 10
-0.9023825700437289
 20
3.346330681841044
 30
0.0
 11
-0.8492329637445159
 21
3.383732256644192
 31
0.0
  0
LINE
  5
2FB8
330
1E
100
AcDbEntity
  8
7
100
AcDbLine
 10
-0.8492329637445159
 20
3.383732256644192
 30
0.0
 11
-0.7921463495712882
 21
3.425070839321358
 31
0.0
  0
LINE
  5
2FB9
330
1E
100
AcDbEntity
  8
7
100
AcDbLine
 10
-1.016555798390186
 20
3.261685012549705
 30
0.0
 11
-1.006713278705146
 21
3.267590524360729
 31
0.0
  0
LINE
  5
2FBA
330
1E
100
AcDbEntity
  8
7
100
AcDbLine
 10
-1.006713278705146
 20
3.267590524360729
 30
0.0
 11
-0.983091231461052
 21
3.285307059793799
 31
0.0
  0
LINE
  5
2FBB
330
1E
100
AcDbEntity
  8
7
100
AcDbLine
 10
-0.983091231461052
 20
3.285307059793799
 30
0.0
 11
-0.9476581605949103
 21
3.312866114911908
 31
0.0
  0
LINE
  5
2FBC
330
1E
100
AcDbEntity
  8
7
100
AcDbLine
 10
-0.7921463495712882
 20
7.470346429872538
 30
0.0
 11
-0.8492329637445159
 21
7.511685012549705
 31
0.0
  0
LINE
  5
2FBD
330
1E
100
AcDbEntity
  8
7
100
AcDbLine
 10
-0.8492329637445159
 20
7.511685012549705
 30
0.0
 11
-0.9023825700437289
 21
7.549086587352855
 31
0.0
  0
LINE
  5
2FBE
330
1E
100
AcDbEntity
  8
7
100
AcDbLine
 10
-0.9023825700437289
 20
7.549086587352855
 30
0.0
 11
-0.9476581605949103
 21
7.584519658218995
 31
0.0
  0
LINE
  5
2FBF
330
1E
100
AcDbEntity
  8
7
100
AcDbLine
 10
-0.9476581605949103
 20
7.584519658218995
 30
0.0
 11
-0.983091231461052
 21
7.610110209400097
 31
0.0
  0
LINE
  5
2FC0
330
1E
100
AcDbEntity
  8
7
100
AcDbLine
 10
-0.983091231461052
 20
7.610110209400097
 30
0.0
 11
-1.006713278705146
 21
7.62782674483317
 31
0.0
  0
LINE
  5
2FC1
330
1E
100
AcDbEntity
  8
7
100
AcDbLine
 10
-1.006713278705146
 20
7.62782674483317
 30
0.0
 11
-1.016555798390186
 21
7.635700760581201
 31
0.0
  0
LINE
  5
2FC2
330
1E
100
AcDbEntity
  8
7
100
AcDbLine
 10
-0.9870282393350677
 20
7.686881862943405
 30
0.0
 11
-1.008681782642154
 21
7.665228319636318
 31
0.0
  0
LINE
  5
2FC3
330
1E
100
AcDbEntity
  8
7
100
AcDbLine
 10
-1.008681782642154
 20
7.665228319636318
 30
0.0
 11
-1.016555798390186
 21
7.635700760581201
 31
0.0
  0
LINE
  5
2FC4
330
1E
100
AcDbEntity
  8
7
100
AcDbLine
 10
-0.5500203653193197
 20
6.883732256644192
 30
0.0
 11
-0.5716739086264067
 21
6.891606272392223
 31
0.0
  0
LINE
  5
2FC5
330
1E
100
AcDbEntity
  8
7
100
AcDbLine
 10
-0.5716739086264067
 20
6.891606272392223
 30
0.0
 11
-0.5815164283114456
 21
6.91325981569931
 31
0.0
  0
LINE
  5
2FC6
330
1E
100
AcDbEntity
  8
7
100
AcDbLine
 10
-0.5815164283114456
 20
7.263653516486712
 30
0.0
 11
-0.5716739086264067
 21
7.285307059793799
 31
0.0
  0
LINE
  5
2FC7
330
1E
100
AcDbEntity
  8
7
100
AcDbLine
 10
-0.5716739086264067
 20
7.285307059793799
 30
0.0
 11
-0.5500203653193197
 21
7.293181075541831
 31
0.0
  0
LINE
  5
2FC8
330
1E
100
AcDbEntity
  8
7
100
AcDbLine
 10
0.2491922331058776
 20
7.147511784203247
 30
0.0
 11
0.2236016819247757
 21
7.110110209400097
 31
0.0
  0
LINE
  5
2FC9
330
1E
100
AcDbEntity
  8
7
100
AcDbLine
 10
0.2236016819247757
 20
7.110110209400097
 30
0.0
 11
0.2236016819247757
 21
7.066803122785925
 31
0.0
  0
LINE
  5
2FCA
330
1E
100
AcDbEntity
  8
7
100
AcDbLine
 10
0.2236016819247757
 20
7.066803122785925
 30
0.0
 11
0.2491922331058776
 21
7.029401547982775
 31
0.0
  0
LINE
  5
2FCB
330
1E
100
AcDbEntity
  8
7
100
AcDbLine
 10
0.294467823657059
 20
7.16325981569931
 30
0.0
 11
0.257066248853909
 21
7.153417296014271
 31
0.0
  0
LINE
  5
2FCC
330
1E
100
AcDbEntity
  8
7
100
AcDbLine
 10
0.257066248853909
 20
7.153417296014271
 30
0.0
 11
0.2295071937357989
 21
7.12585824089616
 31
0.0
  0
LINE
  5
2FCD
330
1E
100
AcDbEntity
  8
7
100
AcDbLine
 10
0.2295071937357989
 20
7.12585824089616
 30
0.0
 11
0.21966467405076
 21
7.088456666093012
 31
0.0
  0
LINE
  5
2FCE
330
1E
100
AcDbEntity
  8
7
100
AcDbLine
 10
0.21966467405076
 20
7.088456666093012
 30
0.0
 11
0.2295071937357989
 21
7.051055091289862
 31
0.0
  0
LINE
  5
2FCF
330
1E
100
AcDbEntity
  8
7
100
AcDbLine
 10
0.2295071937357989
 20
7.051055091289862
 30
0.0
 11
0.257066248853909
 21
7.023496036171751
 31
0.0
  0
LINE
  5
2FD0
330
1E
100
AcDbEntity
  8
7
100
AcDbLine
 10
0.257066248853909
 20
7.023496036171751
 30
0.0
 11
0.294467823657059
 21
7.013653516486712
 31
0.0
  0
LINE
  5
2FD1
330
1E
100
AcDbEntity
  8
7
100
AcDbLine
 10
0.4145465638145387
 20
7.013653516486712
 30
0.0
 11
0.4519481386176887
 21
7.023496036171751
 31
0.0
  0
LINE
  5
2FD2
330
1E
100
AcDbEntity
  8
7
100
AcDbLine
 10
0.4519481386176887
 20
7.023496036171751
 30
0.0
 11
0.4795071937357989
 21
7.051055091289862
 31
0.0
  0
LINE
  5
2FD3
330
1E
100
AcDbEntity
  8
7
100
AcDbLine
 10
0.4795071937357989
 20
7.051055091289862
 30
0.0
 11
0.4893497134208387
 21
7.088456666093012
 31
0.0
  0
LINE
  5
2FD4
330
1E
100
AcDbEntity
  8
7
100
AcDbLine
 10
0.4893497134208387
 20
7.088456666093012
 30
0.0
 11
0.4795071937357989
 21
7.12585824089616
 31
0.0
  0
LINE
  5
2FD5
330
1E
100
AcDbEntity
  8
7
100
AcDbLine
 10
0.4795071937357989
 20
7.12585824089616
 30
0.0
 11
0.4519481386176887
 21
7.153417296014271
 31
0.0
  0
LINE
  5
2FD6
330
1E
100
AcDbEntity
  8
7
100
AcDbLine
 10
0.4519481386176887
 20
7.153417296014271
 30
0.0
 11
0.4145465638145387
 21
7.16325981569931
 31
0.0
  0
LINE
  5
2FD7
330
1E
100
AcDbEntity
  8
7
100
AcDbLine
 10
0.4598221543657202
 20
7.029401547982775
 30
0.0
 11
0.485412705546823
 21
7.066803122785925
 31
0.0
  0
LINE
  5
2FD8
330
1E
100
AcDbEntity
  8
7
100
AcDbLine
 10
0.485412705546823
 20
7.066803122785925
 30
0.0
 11
0.485412705546823
 21
7.110110209400097
 31
0.0
  0
LINE
  5
2FD9
330
1E
100
AcDbEntity
  8
7
100
AcDbLine
 10
0.485412705546823
 20
7.110110209400097
 30
0.0
 11
0.4598221543657202
 21
7.147511784203247
 31
0.0
  0
LINE
  5
2FDA
330
1E
100
AcDbEntity
  8
7
100
AcDbLine
 10
0.4145465638145387
 20
7.013653516486712
 30
0.0
 11
0.43226309924761
 21
7.01562202042372
 31
0.0
  0
LINE
  5
2FDB
330
1E
100
AcDbEntity
  8
7
100
AcDbLine
 10
0.43226309924761
 20
7.01562202042372
 30
0.0
 11
0.4499796346806813
 21
7.023496036171751
 31
0.0
  0
LINE
  5
2FDC
330
1E
100
AcDbEntity
  8
7
100
AcDbLine
 10
0.2590347527909174
 20
7.023496036171751
 30
0.0
 11
0.2767512882239878
 21
7.01562202042372
 31
0.0
  0
LINE
  5
2FDD
330
1E
100
AcDbEntity
  8
7
100
AcDbLine
 10
0.2767512882239878
 20
7.01562202042372
 30
0.0
 11
0.294467823657059
 21
7.013653516486712
 31
0.0
  0
LINE
  5
2FDE
330
1E
100
AcDbEntity
  8
7
100
AcDbLine
 10
0.294467823657059
 20
7.16325981569931
 30
0.0
 11
0.2767512882239878
 21
7.161291311762303
 31
0.0
  0
LINE
  5
2FDF
330
1E
100
AcDbEntity
  8
7
100
AcDbLine
 10
0.2767512882239878
 20
7.161291311762303
 30
0.0
 11
0.2590347527909174
 21
7.153417296014271
 31
0.0
  0
LINE
  5
2FE0
330
1E
100
AcDbEntity
  8
7
100
AcDbLine
 10
0.4499796346806813
 20
7.153417296014271
 30
0.0
 11
0.43226309924761
 21
7.161291311762303
 31
0.0
  0
LINE
  5
2FE1
330
1E
100
AcDbEntity
  8
7
100
AcDbLine
 10
0.43226309924761
 20
7.161291311762303
 30
0.0
 11
0.4145465638145387
 21
7.16325981569931
 31
0.0
  0
LINE
  5
2FE2
330
1E
100
AcDbEntity
  8
7
100
AcDbLine
 10
0.4145465638145387
 20
3.732157453494586
 30
0.0
 11
0.4519481386176887
 21
3.741999973179625
 31
0.0
  0
LINE
  5
2FE3
330
1E
100
AcDbEntity
  8
7
100
AcDbLine
 10
0.4519481386176887
 20
3.741999973179625
 30
0.0
 11
0.4795071937357989
 21
3.769559028297736
 31
0.0
  0
LINE
  5
2FE4
330
1E
100
AcDbEntity
  8
7
100
AcDbLine
 10
0.4795071937357989
 20
3.769559028297736
 30
0.0
 11
0.4893497134208387
 21
3.806960603100886
 31
0.0
  0
LINE
  5
2FE5
330
1E
100
AcDbEntity
  8
7
100
AcDbLine
 10
0.4893497134208387
 20
3.806960603100886
 30
0.0
 11
0.4795071937357989
 21
3.844362177904034
 31
0.0
  0
LINE
  5
2FE6
330
1E
100
AcDbEntity
  8
7
100
AcDbLine
 10
0.4795071937357989
 20
3.844362177904034
 30
0.0
 11
0.4519481386176887
 21
3.871921233022145
 31
0.0
  0
LINE
  5
2FE7
330
1E
100
AcDbEntity
  8
7
100
AcDbLine
 10
0.4519481386176887
 20
3.871921233022145
 30
0.0
 11
0.4145465638145387
 21
3.881763752707184
 31
0.0
  0
LINE
  5
2FE8
330
1E
100
AcDbEntity
  8
7
100
AcDbLine
 10
0.294467823657059
 20
3.881763752707184
 30
0.0
 11
0.257066248853909
 21
3.871921233022145
 31
0.0
  0
LINE
  5
2FE9
330
1E
100
AcDbEntity
  8
7
100
AcDbLine
 10
0.257066248853909
 20
3.871921233022145
 30
0.0
 11
0.2295071937357989
 21
3.844362177904034
 31
0.0
  0
LINE
  5
2FEA
330
1E
100
AcDbEntity
  8
7
100
AcDbLine
 10
0.2295071937357989
 20
3.844362177904034
 30
0.0
 11
0.21966467405076
 21
3.806960603100886
 31
0.0
  0
LINE
  5
2FEB
330
1E
100
AcDbEntity
  8
7
100
AcDbLine
 10
0.21966467405076
 20
3.806960603100886
 30
0.0
 11
0.2295071937357989
 21
3.769559028297736
 31
0.0
  0
LINE
  5
2FEC
330
1E
100
AcDbEntity
  8
7
100
AcDbLine
 10
0.2295071937357989
 20
3.769559028297736
 30
0.0
 11
0.257066248853909
 21
3.741999973179625
 31
0.0
  0
LINE
  5
2FED
330
1E
100
AcDbEntity
  8
7
100
AcDbLine
 10
0.257066248853909
 20
3.741999973179625
 30
0.0
 11
0.294467823657059
 21
3.732157453494586
 31
0.0
  0
LINE
  5
2FEE
330
1E
100
AcDbEntity
  8
7
100
AcDbLine
 10
0.2491922331058776
 20
3.866015721211121
 30
0.0
 11
0.2236016819247757
 21
3.828614146407971
 31
0.0
  0
LINE
  5
2FEF
330
1E
100
AcDbEntity
  8
7
100
AcDbLine
 10
0.2236016819247757
 20
3.828614146407971
 30
0.0
 11
0.2236016819247757
 21
3.785307059793799
 31
0.0
  0
LINE
  5
2FF0
330
1E
100
AcDbEntity
  8
7
100
AcDbLine
 10
0.2236016819247757
 20
3.785307059793799
 30
0.0
 11
0.2491922331058776
 21
3.747905484990649
 31
0.0
  0
LINE
  5
2FF1
330
1E
100
AcDbEntity
  8
7
100
AcDbLine
 10
0.4598221543657202
 20
3.747905484990649
 30
0.0
 11
0.485412705546823
 21
3.785307059793799
 31
0.0
  0
LINE
  5
2FF2
330
1E
100
AcDbEntity
  8
7
100
AcDbLine
 10
0.485412705546823
 20
3.785307059793799
 30
0.0
 11
0.485412705546823
 21
3.828614146407971
 31
0.0
  0
LINE
  5
2FF3
330
1E
100
AcDbEntity
  8
7
100
AcDbLine
 10
0.485412705546823
 20
3.828614146407971
 30
0.0
 11
0.4598221543657202
 21
3.866015721211121
 31
0.0
  0
LINE
  5
2FF4
330
1E
100
AcDbEntity
  8
7
100
AcDbLine
 10
0.4499796346806813
 20
3.871921233022145
 30
0.0
 11
0.43226309924761
 21
3.879795248770177
 31
0.0
  0
LINE
  5
2FF5
330
1E
100
AcDbEntity
  8
7
100
AcDbLine
 10
0.43226309924761
 20
3.879795248770177
 30
0.0
 11
0.4145465638145387
 21
3.881763752707184
 31
0.0
  0
LINE
  5
2FF6
330
1E
100
AcDbEntity
  8
7
100
AcDbLine
 10
0.294467823657059
 20
3.881763752707184
 30
0.0
 11
0.2767512882239878
 21
3.879795248770177
 31
0.0
  0
LINE
  5
2FF7
330
1E
100
AcDbEntity
  8
7
100
AcDbLine
 10
0.2767512882239878
 20
3.879795248770177
 30
0.0
 11
0.2590347527909174
 21
3.871921233022145
 31
0.0
  0
LINE
  5
2FF8
330
1E
100
AcDbEntity
  8
7
100
AcDbLine
 10
0.4499796346806813
 20
3.873889736959153
 30
0.0
 11
0.2590347527909174
 21
3.873889736959153
 31
0.0
  0
LINE
  5
2FF9
330
1E
100
AcDbEntity
  8
7
100
AcDbLine
 10
0.2590347527909174
 20
3.873889736959153
 30
0.0
 11
0.2472237291688701
 21
3.867984225148129
 31
0.0
  0
LINE
  5
2FFA
330
1E
100
AcDbEntity
  8
7
100
AcDbLine
 10
0.4145465638145387
 20
3.732157453494586
 30
0.0
 11
0.43226309924761
 21
3.734125957431594
 31
0.0
  0
LINE
  5
2FFB
330
1E
100
AcDbEntity
  8
7
100
AcDbLine
 10
0.43226309924761
 20
3.734125957431594
 30
0.0
 11
0.4499796346806813
 21
3.741999973179625
 31
0.0
  0
LINE
  5
2FFC
330
1E
100
AcDbEntity
  8
7
100
AcDbLine
 10
0.2590347527909174
 20
3.741999973179625
 30
0.0
 11
0.2767512882239878
 21
3.734125957431594
 31
0.0
  0
LINE
  5
2FFD
330
1E
100
AcDbEntity
  8
7
100
AcDbLine
 10
0.2767512882239878
 20
3.734125957431594
 30
0.0
 11
0.294467823657059
 21
3.732157453494586
 31
0.0
  0
LINE
  5
2FFE
330
1E
100
AcDbEntity
  8
7
100
AcDbLine
 10
0.1980111307436729
 20
3.921133831447342
 30
0.0
 11
0.1645465638145387
 21
3.881763752707184
 31
0.0
  0
LINE
  5
2FFF
330
1E
100
AcDbEntity
  8
7
100
AcDbLine
 10
0.1645465638145387
 20
3.881763752707184
 30
0.0
 11
0.1468300283814683
 21
3.832551154281988
 31
0.0
  0
LINE
  5
3000
330
1E
100
AcDbEntity
  8
7
100
AcDbLine
 10
0.1468300283814683
 20
3.832551154281988
 30
0.0
 11
0.1468300283814683
 21
3.781370051919783
 31
0.0
  0
LINE
  5
3001
330
1E
100
AcDbEntity
  8
7
100
AcDbLine
 10
0.1468300283814683
 20
3.781370051919783
 30
0.0
 11
0.1645465638145387
 21
3.732157453494586
 31
0.0
  0
LINE
  5
3002
330
1E
100
AcDbEntity
  8
7
100
AcDbLine
 10
0.1645465638145387
 20
3.732157453494586
 30
0.0
 11
0.1980111307436729
 21
3.692787374754429
 31
0.0
  0
LINE
  5
3003
330
1E
100
AcDbEntity
  8
7
100
AcDbLine
 10
0.1980111307436729
 20
3.692787374754429
 30
0.0
 11
0.2432867212948544
 21
3.667196823573327
 31
0.0
  0
LINE
  5
3004
330
1E
100
AcDbEntity
  8
7
100
AcDbLine
 10
0.2432867212948544
 20
3.667196823573327
 30
0.0
 11
0.294467823657059
 21
3.657354303888286
 31
0.0
  0
LINE
  5
3005
330
1E
100
AcDbEntity
  8
7
100
AcDbLine
 10
0.294467823657059
 20
3.956566902313484
 30
0.0
 11
0.2432867212948544
 21
3.946724382628444
 31
0.0
  0
LINE
  5
3006
330
1E
100
AcDbEntity
  8
7
100
AcDbLine
 10
0.2432867212948544
 20
3.946724382628444
 30
0.0
 11
0.1980111307436729
 21
3.921133831447342
 31
0.0
  0
LINE
  5
3007
330
1E
100
AcDbEntity
  8
7
100
AcDbLine
 10
0.5621843590901295
 20
3.781370051919783
 30
0.0
 11
0.5621843590901295
 21
3.832551154281988
 31
0.0
  0
LINE
  5
3008
330
1E
100
AcDbEntity
  8
7
100
AcDbLine
 10
0.5621843590901295
 20
3.832551154281988
 30
0.0
 11
0.5444678236570591
 21
3.881763752707184
 31
0.0
  0
LINE
  5
3009
330
1E
100
AcDbEntity
  8
7
100
AcDbLine
 10
0.5444678236570591
 20
3.881763752707184
 30
0.0
 11
0.5110032567279248
 21
3.921133831447342
 31
0.0
  0
LINE
  5
300A
330
1E
100
AcDbEntity
  8
7
100
AcDbLine
 10
0.5110032567279248
 20
3.921133831447342
 30
0.0
 11
0.4657276661767443
 21
3.946724382628444
 31
0.0
  0
LINE
  5
300B
330
1E
100
AcDbEntity
  8
7
100
AcDbLine
 10
0.4657276661767443
 20
3.946724382628444
 30
0.0
 11
0.4145465638145387
 21
3.956566902313484
 31
0.0
  0
LINE
  5
300C
330
1E
100
AcDbEntity
  8
7
100
AcDbLine
 10
0.4145465638145387
 20
3.657354303888286
 30
0.0
 11
0.4657276661767443
 21
3.667196823573327
 31
0.0
  0
LINE
  5
300D
330
1E
100
AcDbEntity
  8
7
100
AcDbLine
 10
0.4657276661767443
 20
3.667196823573327
 30
0.0
 11
0.5110032567279248
 21
3.692787374754429
 31
0.0
  0
LINE
  5
300E
330
1E
100
AcDbEntity
  8
7
100
AcDbLine
 10
0.5110032567279248
 20
3.692787374754429
 30
0.0
 11
0.5444678236570591
 21
3.732157453494586
 31
0.0
  0
LINE
  5
300F
330
1E
100
AcDbEntity
  8
7
100
AcDbLine
 10
0.5444678236570591
 20
3.732157453494586
 30
0.0
 11
0.5621843590901295
 21
3.781370051919783
 31
0.0
  0
LINE
  5
3010
330
1E
100
AcDbEntity
  8
7
100
AcDbLine
 10
0.4578536504287128
 20
6.104204697589075
 30
0.0
 11
0.4578536504287128
 21
6.10814170546309
 31
0.0
  0
LINE
  5
3011
330
1E
100
AcDbEntity
  8
7
100
AcDbLine
 10
0.4578536504287128
 20
6.10814170546309
 30
0.0
 11
0.4558851464917045
 21
6.117984225148129
 31
0.0
  0
LINE
  5
3012
330
1E
100
AcDbEntity
  8
7
100
AcDbLine
 10
0.2511607370428859
 20
6.117984225148129
 30
0.0
 11
0.2511607370428859
 21
6.10814170546309
 31
0.0
  0
LINE
  5
3013
330
1E
100
AcDbEntity
  8
7
100
AcDbLine
 10
0.2511607370428859
 20
6.10814170546309
 30
0.0
 11
0.2511607370428859
 21
6.104204697589075
 31
0.0
  0
LINE
  5
3014
330
1E
100
AcDbEntity
  8
7
100
AcDbLine
 10
0.4578536504287128
 20
4.119952729085138
 30
0.0
 11
0.4578536504287128
 21
4.123889736959153
 31
0.0
  0
LINE
  5
3015
330
1E
100
AcDbEntity
  8
7
100
AcDbLine
 10
0.4578536504287128
 20
4.123889736959153
 30
0.0
 11
0.4558851464917045
 21
4.135700760581201
 31
0.0
  0
LINE
  5
3016
330
1E
100
AcDbEntity
  8
7
100
AcDbLine
 10
0.2511607370428859
 20
4.135700760581201
 30
0.0
 11
0.2511607370428859
 21
4.123889736959153
 31
0.0
  0
LINE
  5
3017
330
1E
100
AcDbEntity
  8
7
100
AcDbLine
 10
0.2511607370428859
 20
4.123889736959153
 30
0.0
 11
0.2511607370428859
 21
4.119952729085138
 31
0.0
  0
LINE
  5
3018
330
1E
100
AcDbEntity
  8
7
100
AcDbLine
 10
0.4578536504287128
 20
5.112078713337107
 30
0.0
 11
0.4578536504287128
 21
5.116015721211121
 31
0.0
  0
LINE
  5
3019
330
1E
100
AcDbEntity
  8
7
100
AcDbLine
 10
0.4578536504287128
 20
5.116015721211121
 30
0.0
 11
0.4558851464917045
 21
5.12585824089616
 31
0.0
  0
LINE
  5
301A
330
1E
100
AcDbEntity
  8
7
100
AcDbLine
 10
0.2511607370428859
 20
5.12585824089616
 30
0.0
 11
0.2511607370428859
 21
5.116015721211121
 31
0.0
  0
LINE
  5
301B
330
1E
100
AcDbEntity
  8
7
100
AcDbLine
 10
0.2511607370428859
 20
5.116015721211121
 30
0.0
 11
0.2511607370428859
 21
5.112078713337107
 31
0.0
  0
LINE
  5
301C
330
1E
100
AcDbEntity
  8
7
100
AcDbLine
 10
0.2669087685389488
 20
5.824677138533957
 30
0.0
 11
0.2669087685389488
 21
5.785307059793799
 31
0.0
  0
LINE
  5
301D
330
1E
100
AcDbEntity
  8
7
100
AcDbLine
 10
0.2669087685389488
 20
5.785307059793799
 30
0.0
 11
0.4421056189326489
 21
5.785307059793799
 31
0.0
  0
LINE
  5
301E
330
1E
100
AcDbEntity
  8
7
100
AcDbLine
 10
0.2669087685389488
 20
4.832551154281988
 30
0.0
 11
0.2669087685389488
 21
4.793181075541831
 31
0.0
  0
LINE
  5
301F
330
1E
100
AcDbEntity
  8
7
100
AcDbLine
 10
0.2669087685389488
 20
4.793181075541831
 30
0.0
 11
0.4421056189326489
 21
4.793181075541831
 31
0.0
  0
LINE
  5
3020
330
1E
100
AcDbEntity
  8
7
100
AcDbLine
 10
0.0405308157830424
 20
5.824677138533957
 30
0.0
 11
0.0424993197200503
 21
5.824677138533957
 31
0.0
  0
LINE
  5
3021
330
1E
100
AcDbEntity
  8
7
100
AcDbLine
 10
0.0424993197200503
 20
5.824677138533957
 30
0.0
 11
0.2669087685389488
 21
5.824677138533957
 31
0.0
  0
LINE
  5
3022
330
1E
100
AcDbEntity
  8
7
100
AcDbLine
 10
0.2669087685389488
 20
5.824677138533957
 30
0.0
 11
0.4421056189326489
 21
5.824677138533957
 31
0.0
  0
LINE
  5
3023
330
1E
100
AcDbEntity
  8
7
100
AcDbLine
 10
0.0405308157830424
 20
4.834519658218995
 30
0.0
 11
0.0424993197200503
 21
4.832551154281988
 31
0.0
  0
LINE
  5
3024
330
1E
100
AcDbEntity
  8
7
100
AcDbLine
 10
0.0424993197200503
 20
4.832551154281988
 30
0.0
 11
0.2669087685389488
 21
4.832551154281988
 31
0.0
  0
LINE
  5
3025
330
1E
100
AcDbEntity
  8
7
100
AcDbLine
 10
0.2669087685389488
 20
4.832551154281988
 30
0.0
 11
0.4421056189326489
 21
4.832551154281988
 31
0.0
  0
LINE
  5
3026
330
1E
100
AcDbEntity
  8
7
100
AcDbLine
 10
0.0405308157830424
 20
6.816803122785925
 30
0.0
 11
0.0424993197200503
 21
6.816803122785925
 31
0.0
  0
LINE
  5
3027
330
1E
100
AcDbEntity
  8
7
100
AcDbLine
 10
0.0424993197200503
 20
6.816803122785925
 30
0.0
 11
0.2669087685389488
 21
6.816803122785925
 31
0.0
  0
LINE
  5
3028
330
1E
100
AcDbEntity
  8
7
100
AcDbLine
 10
0.4145465638145387
 20
6.938850366880412
 30
0.0
 11
0.4657276661767443
 21
6.948692886565453
 31
0.0
  0
LINE
  5
3029
330
1E
100
AcDbEntity
  8
7
100
AcDbLine
 10
0.4657276661767443
 20
6.948692886565453
 30
0.0
 11
0.5110032567279248
 21
6.974283437746555
 31
0.0
  0
LINE
  5
302A
330
1E
100
AcDbEntity
  8
7
100
AcDbLine
 10
0.5110032567279248
 20
6.974283437746555
 30
0.0
 11
0.5444678236570591
 21
7.013653516486712
 31
0.0
  0
LINE
  5
302B
330
1E
100
AcDbEntity
  8
7
100
AcDbLine
 10
0.5444678236570591
 20
7.013653516486712
 30
0.0
 11
0.5621843590901295
 21
7.062866114911908
 31
0.0
  0
LINE
  5
302C
330
1E
100
AcDbEntity
  8
7
100
AcDbLine
 10
0.5621843590901295
 20
7.062866114911908
 30
0.0
 11
0.5621843590901295
 21
7.114047217274114
 31
0.0
  0
LINE
  5
302D
330
1E
100
AcDbEntity
  8
7
100
AcDbLine
 10
0.5621843590901295
 20
7.114047217274114
 30
0.0
 11
0.5444678236570591
 21
7.16325981569931
 31
0.0
  0
LINE
  5
302E
330
1E
100
AcDbEntity
  8
7
100
AcDbLine
 10
0.5444678236570591
 20
7.16325981569931
 30
0.0
 11
0.5110032567279248
 21
7.202629894439468
 31
0.0
  0
LINE
  5
302F
330
1E
100
AcDbEntity
  8
7
100
AcDbLine
 10
0.5110032567279248
 20
7.202629894439468
 30
0.0
 11
0.4657276661767443
 21
7.22822044562057
 31
0.0
  0
LINE
  5
3030
330
1E
100
AcDbEntity
  8
7
100
AcDbLine
 10
0.4657276661767443
 20
7.22822044562057
 30
0.0
 11
0.4145465638145387
 21
7.23806296530561
 31
0.0
  0
LINE
  5
3031
330
1E
100
AcDbEntity
  8
7
100
AcDbLine
 10
0.294467823657059
 20
7.23806296530561
 30
0.0
 11
0.2432867212948544
 21
7.22822044562057
 31
0.0
  0
LINE
  5
3032
330
1E
100
AcDbEntity
  8
7
100
AcDbLine
 10
0.2432867212948544
 20
7.22822044562057
 30
0.0
 11
0.1980111307436729
 21
7.202629894439468
 31
0.0
  0
LINE
  5
3033
330
1E
100
AcDbEntity
  8
7
100
AcDbLine
 10
0.1980111307436729
 20
7.202629894439468
 30
0.0
 11
0.1645465638145387
 21
7.16325981569931
 31
0.0
  0
LINE
  5
3034
330
1E
100
AcDbEntity
  8
7
100
AcDbLine
 10
0.1645465638145387
 20
7.16325981569931
 30
0.0
 11
0.1468300283814683
 21
7.114047217274114
 31
0.0
  0
LINE
  5
3035
330
1E
100
AcDbEntity
  8
7
100
AcDbLine
 10
0.1468300283814683
 20
7.114047217274114
 30
0.0
 11
0.1468300283814683
 21
7.062866114911908
 31
0.0
  0
LINE
  5
3036
330
1E
100
AcDbEntity
  8
7
100
AcDbLine
 10
0.1468300283814683
 20
7.062866114911908
 30
0.0
 11
0.1645465638145387
 21
7.013653516486712
 31
0.0
  0
LINE
  5
3037
330
1E
100
AcDbEntity
  8
7
100
AcDbLine
 10
0.1645465638145387
 20
7.013653516486712
 30
0.0
 11
0.1980111307436729
 21
6.974283437746555
 31
0.0
  0
LINE
  5
3038
330
1E
100
AcDbEntity
  8
7
100
AcDbLine
 10
0.1980111307436729
 20
6.974283437746555
 30
0.0
 11
0.2432867212948544
 21
6.948692886565453
 31
0.0
  0
LINE
  5
3039
330
1E
100
AcDbEntity
  8
7
100
AcDbLine
 10
0.2432867212948544
 20
6.948692886565453
 30
0.0
 11
0.294467823657059
 21
6.938850366880412
 31
0.0
  0
LINE
  5
303A
330
1E
100
AcDbEntity
  8
7
100
AcDbLine
 10
-1.020492806264201
 20
7.637669264518208
 30
0.0
 11
-1.012618790516169
 21
7.667196823573327
 31
0.0
  0
LINE
  5
303B
330
1E
100
AcDbEntity
  8
7
100
AcDbLine
 10
-1.012618790516169
 20
7.667196823573327
 30
0.0
 11
-0.9909652472090835
 21
7.690818870817421
 31
0.0
  0
LINE
  5
303C
330
1E
100
AcDbEntity
  8
7
100
AcDbLine
 10
-0.9909652472090835
 20
7.690818870817421
 30
0.0
 11
-0.9614376881539659
 21
7.698692886565453
 31
0.0
  0
LINE
  5
303D
330
1E
100
AcDbEntity
  8
7
100
AcDbLine
 10
-0.9614376881539659
 20
3.198692886565453
 30
0.0
 11
-0.9909652472090835
 21
3.206566902313484
 31
0.0
  0
LINE
  5
303E
330
1E
100
AcDbEntity
  8
7
100
AcDbLine
 10
-0.9909652472090835
 20
3.206566902313484
 30
0.0
 11
-1.012618790516169
 21
3.22822044562057
 31
0.0
  0
LINE
  5
303F
330
1E
100
AcDbEntity
  8
7
100
AcDbLine
 10
1.729507193735798
 20
3.257748004675688
 30
0.0
 11
1.721633177987767
 21
3.22822044562057
 31
0.0
  0
LINE
  5
3040
330
1E
100
AcDbEntity
  8
7
100
AcDbLine
 10
1.721633177987767
 20
3.22822044562057
 30
0.0
 11
1.69997963468068
 21
3.206566902313484
 31
0.0
  0
LINE
  5
3041
330
1E
100
AcDbEntity
  8
7
100
AcDbLine
 10
1.69997963468068
 20
3.206566902313484
 30
0.0
 11
1.668483571688554
 21
3.198692886565453
 31
0.0
  0
LINE
  5
3042
330
1E
100
AcDbEntity
  8
7
100
AcDbLine
 10
1.668483571688554
 20
7.698692886565453
 30
0.0
 11
1.69997963468068
 21
7.690818870817421
 31
0.0
  0
LINE
  5
3043
330
1E
100
AcDbEntity
  8
7
100
AcDbLine
 10
1.69997963468068
 20
7.690818870817421
 30
0.0
 11
1.721633177987767
 21
7.667196823573327
 31
0.0
  0
LINE
  5
3044
330
1E
100
AcDbEntity
  8
7
100
AcDbLine
 10
1.721633177987767
 20
7.667196823573327
 30
0.0
 11
1.729507193735798
 21
7.637669264518208
 31
0.0
  0
LINE
  5
3045
330
1E
100
AcDbEntity
  8
7
100
AcDbLine
 10
0.294467823657059
 20
3.958535406250492
 30
0.0
 11
0.2432867212948544
 21
3.948692886565453
 31
0.0
  0
LINE
  5
3046
330
1E
100
AcDbEntity
  8
7
100
AcDbLine
 10
0.2432867212948544
 20
3.948692886565453
 30
0.0
 11
0.1980111307436729
 21
3.923102335384349
 31
0.0
  0
LINE
  5
3047
330
1E
100
AcDbEntity
  8
7
100
AcDbLine
 10
0.1980111307436729
 20
3.923102335384349
 30
0.0
 11
0.1625780598775313
 21
3.883732256644192
 31
0.0
  0
LINE
  5
3048
330
1E
100
AcDbEntity
  8
7
100
AcDbLine
 10
0.1625780598775313
 20
3.883732256644192
 30
0.0
 11
0.14486152444446
 21
3.832551154281988
 31
0.0
  0
LINE
  5
3049
330
1E
100
AcDbEntity
  8
7
100
AcDbLine
 10
0.14486152444446
 20
3.832551154281988
 30
0.0
 11
0.14486152444446
 21
3.781370051919783
 31
0.0
  0
LINE
  5
304A
330
1E
100
AcDbEntity
  8
7
100
AcDbLine
 10
0.14486152444446
 20
3.781370051919783
 30
0.0
 11
0.1625780598775313
 21
3.732157453494586
 31
0.0
  0
LINE
  5
304B
330
1E
100
AcDbEntity
  8
7
100
AcDbLine
 10
0.1625780598775313
 20
3.732157453494586
 30
0.0
 11
0.1980111307436729
 21
3.690818870817421
 31
0.0
  0
LINE
  5
304C
330
1E
100
AcDbEntity
  8
7
100
AcDbLine
 10
0.1980111307436729
 20
3.690818870817421
 30
0.0
 11
0.2432867212948544
 21
3.665228319636318
 31
0.0
  0
LINE
  5
304D
330
1E
100
AcDbEntity
  8
7
100
AcDbLine
 10
0.2432867212948544
 20
3.665228319636318
 30
0.0
 11
0.294467823657059
 21
3.655385799951279
 31
0.0
  0
LINE
  5
304E
330
1E
100
AcDbEntity
  8
7
100
AcDbLine
 10
0.4145465638145387
 20
3.655385799951279
 30
0.0
 11
0.4657276661767443
 21
3.665228319636318
 31
0.0
  0
LINE
  5
304F
330
1E
100
AcDbEntity
  8
7
100
AcDbLine
 10
0.4657276661767443
 20
3.665228319636318
 30
0.0
 11
0.5110032567279248
 21
3.690818870817421
 31
0.0
  0
LINE
  5
3050
330
1E
100
AcDbEntity
  8
7
100
AcDbLine
 10
0.5110032567279248
 20
3.690818870817421
 30
0.0
 11
0.5464363275940665
 21
3.730188949557579
 31
0.0
  0
LINE
  5
3051
330
1E
100
AcDbEntity
  8
7
100
AcDbLine
 10
0.5464363275940665
 20
3.730188949557579
 30
0.0
 11
0.5641528630271378
 21
3.781370051919783
 31
0.0
  0
LINE
  5
3052
330
1E
100
AcDbEntity
  8
7
100
AcDbLine
 10
0.5641528630271378
 20
3.781370051919783
 30
0.0
 11
0.5641528630271378
 21
3.832551154281988
 31
0.0
  0
LINE
  5
3053
330
1E
100
AcDbEntity
  8
7
100
AcDbLine
 10
0.5641528630271378
 20
3.832551154281988
 30
0.0
 11
0.5464363275940665
 21
3.881763752707184
 31
0.0
  0
LINE
  5
3054
330
1E
100
AcDbEntity
  8
7
100
AcDbLine
 10
0.5464363275940665
 20
3.881763752707184
 30
0.0
 11
0.5110032567279248
 21
3.923102335384349
 31
0.0
  0
LINE
  5
3055
330
1E
100
AcDbEntity
  8
7
100
AcDbLine
 10
0.5110032567279248
 20
3.923102335384349
 30
0.0
 11
0.4657276661767443
 21
3.948692886565453
 31
0.0
  0
LINE
  5
3056
330
1E
100
AcDbEntity
  8
7
100
AcDbLine
 10
0.4657276661767443
 20
3.948692886565453
 30
0.0
 11
0.4145465638145387
 21
3.958535406250492
 31
0.0
  0
LINE
  5
3057
330
1E
100
AcDbEntity
  8
7
100
AcDbLine
 10
1.227538689798791
 20
3.602236193652066
 30
0.0
 11
-0.5185243023271937
 21
3.602236193652066
 31
0.0
  0
LINE
  5
3058
330
1E
100
AcDbEntity
  8
7
100
AcDbLine
 10
-0.5185243023271937
 20
3.602236193652066
 30
0.0
 11
-0.5204928062642012
 21
3.602236193652066
 31
0.0
  0
LINE
  5
3059
330
1E
100
AcDbEntity
  8
7
100
AcDbLine
 10
0.5995859338932794
 20
5.098299185778051
 30
0.0
 11
0.1074599496413109
 21
5.098299185778051
 31
0.0
  0
LINE
  5
305A
330
1E
100
AcDbEntity
  8
7
100
AcDbLine
 10
0.1074599496413109
 20
5.098299185778051
 30
0.0
 11
0.1074599496413109
 21
5.16325981569931
 31
0.0
  0
LINE
  5
305B
330
1E
100
AcDbEntity
  8
7
100
AcDbLine
 10
0.1074599496413109
 20
5.16325981569931
 30
0.0
 11
0.0405308157830424
 21
5.16325981569931
 31
0.0
  0
LINE
  5
305C
330
1E
100
AcDbEntity
  8
7
100
AcDbLine
 10
0.1074599496413109
 20
4.106173201526083
 30
0.0
 11
0.1074599496413109
 21
4.171133831447342
 31
0.0
  0
LINE
  5
305D
330
1E
100
AcDbEntity
  8
7
100
AcDbLine
 10
0.1074599496413109
 20
4.171133831447342
 30
0.0
 11
0.0405308157830424
 21
4.171133831447342
 31
0.0
  0
LINE
  5
305E
330
1E
100
AcDbEntity
  8
7
100
AcDbLine
 10
0.5995859338932794
 20
6.09042517003002
 30
0.0
 11
0.1074599496413109
 21
6.09042517003002
 31
0.0
  0
LINE
  5
305F
330
1E
100
AcDbEntity
  8
7
100
AcDbLine
 10
0.1074599496413109
 20
6.09042517003002
 30
0.0
 11
0.1074599496413109
 21
6.155385799951279
 31
0.0
  0
LINE
  5
3060
330
1E
100
AcDbEntity
  8
7
100
AcDbLine
 10
0.1074599496413109
 20
6.155385799951279
 30
0.0
 11
0.0405308157830424
 21
6.155385799951279
 31
0.0
  0
LINE
  5
3061
330
1E
100
AcDbEntity
  8
7
100
AcDbLine
 10
1.282656800035011
 20
3.610110209400097
 30
0.0
 11
1.261003256727924
 21
3.602236193652066
 31
0.0
  0
LINE
  5
3062
330
1E
100
AcDbEntity
  8
7
100
AcDbLine
 10
1.261003256727924
 20
3.602236193652066
 30
0.0
 11
-0.5519888692563271
 21
3.602236193652066
 31
0.0
  0
LINE
  5
3063
330
1E
100
AcDbEntity
  8
7
100
AcDbLine
 10
-0.5519888692563271
 20
3.602236193652066
 30
0.0
 11
-0.5736424125634141
 21
3.610110209400097
 31
0.0
  0
LINE
  5
3064
330
1E
100
AcDbEntity
  8
7
100
AcDbLine
 10
-0.5736424125634141
 20
3.610110209400097
 30
0.0
 11
-0.583484932248453
 21
3.631763752707184
 31
0.0
  0
LINE
  5
3065
330
1E
100
AcDbEntity
  8
7
100
AcDbLine
 10
-0.583484932248453
 20
3.631763752707184
 30
0.0
 11
-0.583484932248453
 21
3.982157453494586
 31
0.0
  0
LINE
  5
3066
330
1E
100
AcDbEntity
  8
7
100
AcDbLine
 10
-0.583484932248453
 20
3.982157453494586
 30
0.0
 11
-0.5736424125634141
 21
4.003810996801673
 31
0.0
  0
LINE
  5
3067
330
1E
100
AcDbEntity
  8
7
100
AcDbLine
 10
-0.5736424125634141
 20
4.003810996801673
 30
0.0
 11
-0.5519888692563271
 21
4.013653516486712
 31
0.0
  0
LINE
  5
3068
330
1E
100
AcDbEntity
  8
7
100
AcDbLine
 10
1.261003256727924
 20
4.013653516486712
 30
0.0
 11
1.282656800035011
 21
4.003810996801673
 31
0.0
  0
LINE
  5
3069
330
1E
100
AcDbEntity
  8
7
100
AcDbLine
 10
1.282656800035011
 20
4.003810996801673
 30
0.0
 11
1.29249931972005
 21
3.982157453494586
 31
0.0
  0
LINE
  5
306A
330
1E
100
AcDbEntity
  8
7
100
AcDbLine
 10
1.29249931972005
 20
3.982157453494586
 30
0.0
 11
1.29249931972005
 21
3.631763752707184
 31
0.0
  0
LINE
  5
306B
330
1E
100
AcDbEntity
  8
7
100
AcDbLine
 10
1.29249931972005
 20
3.631763752707184
 30
0.0
 11
1.282656800035011
 21
3.610110209400097
 31
0.0
  0
LINE
  5
306C
330
1E
100
AcDbEntity
  8
7
100
AcDbLine
 10
1.29249931972005
 20
7.263653516486712
 30
0.0
 11
1.282656800035011
 21
7.285307059793799
 31
0.0
  0
LINE
  5
306D
330
1E
100
AcDbEntity
  8
7
100
AcDbLine
 10
1.282656800035011
 20
7.285307059793799
 30
0.0
 11
1.261003256727924
 21
7.295149579478838
 31
0.0
  0
LINE
  5
306E
330
1E
100
AcDbEntity
  8
7
100
AcDbLine
 10
-0.5519888692563271
 20
7.295149579478838
 30
0.0
 11
-0.5736424125634141
 21
7.285307059793799
 31
0.0
  0
LINE
  5
306F
330
1E
100
AcDbEntity
  8
7
100
AcDbLine
 10
-0.5736424125634141
 20
7.285307059793799
 30
0.0
 11
-0.583484932248453
 21
7.263653516486712
 31
0.0
  0
LINE
  5
3070
330
1E
100
AcDbEntity
  8
7
100
AcDbLine
 10
-0.583484932248453
 20
6.91325981569931
 30
0.0
 11
-0.5736424125634141
 21
6.891606272392223
 31
0.0
  0
LINE
  5
3071
330
1E
100
AcDbEntity
  8
7
100
AcDbLine
 10
-0.5736424125634141
 20
6.891606272392223
 30
0.0
 11
-0.5519888692563271
 21
6.881763752707184
 31
0.0
  0
LINE
  5
3072
330
1E
100
AcDbEntity
  8
7
100
AcDbLine
 10
1.261003256727924
 20
6.881763752707184
 30
0.0
 11
1.282656800035011
 21
6.891606272392223
 31
0.0
  0
LINE
  5
3073
330
1E
100
AcDbEntity
  8
7
100
AcDbLine
 10
1.282656800035011
 20
6.891606272392223
 30
0.0
 11
1.29249931972005
 21
6.91325981569931
 31
0.0
  0
LINE
  5
3074
330
1E
100
AcDbEntity
  8
7
100
AcDbLine
 10
-0.7921463495712882
 20
3.425070839321358
 30
0.0
 11
-0.8334849322484529
 21
3.369952729085138
 31
0.0
  0
LINE
  5
3075
330
1E
100
AcDbEntity
  8
7
100
AcDbLine
 10
-0.8334849322484529
 20
3.369952729085138
 30
0.0
 11
-0.8728550109886104
 21
3.316803122785925
 31
0.0
  0
LINE
  5
3076
330
1E
100
AcDbEntity
  8
7
100
AcDbLine
 10
-0.8728550109886104
 20
3.316803122785925
 30
0.0
 11
-0.9063195779177446
 21
3.271527532234744
 31
0.0
  0
LINE
  5
3077
330
1E
100
AcDbEntity
  8
7
100
AcDbLine
 10
-0.9063195779177446
 20
3.271527532234744
 30
0.0
 11
-0.9319101290988474
 21
3.236094461368603
 31
0.0
  0
LINE
  5
3078
330
1E
100
AcDbEntity
  8
7
100
AcDbLine
 10
-0.9319101290988474
 20
3.236094461368603
 30
0.0
 11
-0.9496266645319177
 21
3.210503910187499
 31
0.0
  0
LINE
  5
3079
330
1E
100
AcDbEntity
  8
7
100
AcDbLine
 10
-0.9496266645319177
 20
3.210503910187499
 30
0.0
 11
-0.9575006802799492
 21
3.20066139050246
 31
0.0
  0
LINE
  5
307A
330
1E
100
AcDbEntity
  8
7
100
AcDbLine
 10
1.666515067751547
 20
3.20066139050246
 30
0.0
 11
1.658641052003515
 21
3.210503910187499
 31
0.0
  0
LINE
  5
307B
330
1E
100
AcDbEntity
  8
7
100
AcDbLine
 10
1.658641052003515
 20
3.210503910187499
 30
0.0
 11
1.640924516570444
 21
3.236094461368603
 31
0.0
  0
LINE
  5
307C
330
1E
100
AcDbEntity
  8
7
100
AcDbLine
 10
1.640924516570444
 20
3.236094461368603
 30
0.0
 11
1.615333965389342
 21
3.271527532234744
 31
0.0
  0
LINE
  5
307D
330
1E
100
AcDbEntity
  8
7
100
AcDbLine
 10
1.615333965389342
 20
3.271527532234744
 30
0.0
 11
1.581869398460208
 21
3.316803122785925
 31
0.0
  0
LINE
  5
307E
330
1E
100
AcDbEntity
  8
7
100
AcDbLine
 10
1.581869398460208
 20
3.316803122785925
 30
0.0
 11
1.54249931972005
 21
3.369952729085138
 31
0.0
  0
LINE
  5
307F
330
1E
100
AcDbEntity
  8
7
100
AcDbLine
 10
1.54249931972005
 20
3.369952729085138
 30
0.0
 11
1.501160737042885
 21
3.425070839321358
 31
0.0
  0
LINE
  5
3080
330
1E
100
AcDbEntity
  8
7
100
AcDbLine
 10
-0.8728550109886104
 20
7.578614146407971
 30
0.0
 11
-0.8334849322484529
 21
7.52546454010876
 31
0.0
  0
LINE
  5
3081
330
1E
100
AcDbEntity
  8
7
100
AcDbLine
 10
-0.8334849322484529
 20
7.52546454010876
 30
0.0
 11
-0.7921463495712882
 21
7.470346429872538
 31
0.0
  0
LINE
  5
3082
330
1E
100
AcDbEntity
  8
7
100
AcDbLine
 10
-0.9575006802799492
 20
7.694755878691436
 30
0.0
 11
-0.9496266645319177
 21
7.684913359006397
 31
0.0
  0
LINE
  5
3083
330
1E
100
AcDbEntity
  8
7
100
AcDbLine
 10
-0.9496266645319177
 20
7.684913359006397
 30
0.0
 11
-0.9319101290988474
 21
7.661291311762303
 31
0.0
  0
LINE
  5
3084
330
1E
100
AcDbEntity
  8
7
100
AcDbLine
 10
-0.9319101290988474
 20
7.661291311762303
 30
0.0
 11
-0.9063195779177446
 21
7.62585824089616
 31
0.0
  0
LINE
  5
3085
330
1E
100
AcDbEntity
  8
7
100
AcDbLine
 10
-0.9063195779177446
 20
7.62585824089616
 30
0.0
 11
-0.8728550109886104
 21
7.578614146407971
 31
0.0
  0
LINE
  5
3086
330
1E
100
AcDbEntity
  8
7
100
AcDbLine
 10
1.501160737042885
 20
7.470346429872538
 30
0.0
 11
1.54249931972005
 21
7.52546454010876
 31
0.0
  0
LINE
  5
3087
330
1E
100
AcDbEntity
  8
7
100
AcDbLine
 10
1.54249931972005
 20
7.52546454010876
 30
0.0
 11
1.581869398460208
 21
7.578614146407971
 31
0.0
  0
LINE
  5
3088
330
1E
100
AcDbEntity
  8
7
100
AcDbLine
 10
1.581869398460208
 20
7.578614146407971
 30
0.0
 11
1.615333965389342
 21
7.62585824089616
 31
0.0
  0
LINE
  5
3089
330
1E
100
AcDbEntity
  8
7
100
AcDbLine
 10
1.615333965389342
 20
7.62585824089616
 30
0.0
 11
1.640924516570444
 21
7.661291311762303
 31
0.0
  0
LINE
  5
308A
330
1E
100
AcDbEntity
  8
7
100
AcDbLine
 10
1.640924516570444
 20
7.661291311762303
 30
0.0
 11
1.658641052003515
 21
7.684913359006397
 31
0.0
  0
LINE
  5
308B
330
1E
100
AcDbEntity
  8
7
100
AcDbLine
 10
1.658641052003515
 20
7.684913359006397
 30
0.0
 11
1.666515067751547
 21
7.694755878691436
 31
0.0
  0
LINE
  5
308C
330
1E
100
AcDbEntity
  8
7
100
AcDbLine
 10
1.259034752790917
 20
4.013653516486712
 30
0.0
 11
1.261003256727924
 21
4.013653516486712
 31
0.0
  0
LINE
  5
308D
330
1E
100
AcDbEntity
  8
7
100
AcDbLine
 10
1.261003256727924
 20
4.013653516486712
 30
0.0
 11
-0.5519888692563271
 21
4.013653516486712
 31
0.0
  0
LINE
  5
308E
330
1E
100
AcDbEntity
  8
7
100
AcDbLine
 10
-0.5519888692563271
 20
4.013653516486712
 30
0.0
 11
-0.5500203653193197
 21
4.013653516486712
 31
0.0
  0
LINE
  5
308F
330
1E
100
AcDbEntity
  8
7
100
AcDbLine
 10
-0.5185243023271937
 20
4.011685012549705
 30
0.0
 11
1.227538689798791
 21
4.011685012549705
 31
0.0
  0
LINE
  5
3090
330
1E
100
AcDbEntity
  8
7
100
AcDbLine
 10
1.227538689798791
 20
4.011685012549705
 30
0.0
 11
1.229507193735798
 21
4.013653516486712
 31
0.0
  0
LINE
  5
3091
330
1E
100
AcDbEntity
  8
7
100
AcDbLine
 10
0.5641528630271378
 20
7.114047217274114
 30
0.0
 11
0.5464363275940665
 21
7.16325981569931
 31
0.0
  0
LINE
  5
3092
330
1E
100
AcDbEntity
  8
7
100
AcDbLine
 10
0.5464363275940665
 20
7.16325981569931
 30
0.0
 11
0.5110032567279248
 21
7.204598398376475
 31
0.0
  0
LINE
  5
3093
330
1E
100
AcDbEntity
  8
7
100
AcDbLine
 10
0.5110032567279248
 20
7.204598398376475
 30
0.0
 11
0.4657276661767443
 21
7.230188949557579
 31
0.0
  0
LINE
  5
3094
330
1E
100
AcDbEntity
  8
7
100
AcDbLine
 10
0.4657276661767443
 20
7.230188949557579
 30
0.0
 11
0.4145465638145387
 21
7.240031469242618
 31
0.0
  0
LINE
  5
3095
330
1E
100
AcDbEntity
  8
7
100
AcDbLine
 10
0.4145465638145387
 20
6.936881862943405
 30
0.0
 11
0.4657276661767443
 21
6.946724382628444
 31
0.0
  0
LINE
  5
3096
330
1E
100
AcDbEntity
  8
7
100
AcDbLine
 10
0.4657276661767443
 20
6.946724382628444
 30
0.0
 11
0.5110032567279248
 21
6.972314933809547
 31
0.0
  0
LINE
  5
3097
330
1E
100
AcDbEntity
  8
7
100
AcDbLine
 10
0.5110032567279248
 20
6.972314933809547
 30
0.0
 11
0.5464363275940665
 21
7.011685012549705
 31
0.0
  0
LINE
  5
3098
330
1E
100
AcDbEntity
  8
7
100
AcDbLine
 10
0.5464363275940665
 20
7.011685012549705
 30
0.0
 11
0.5641528630271378
 21
7.062866114911908
 31
0.0
  0
LINE
  5
3099
330
1E
100
AcDbEntity
  8
7
100
AcDbLine
 10
0.5641528630271378
 20
7.062866114911908
 30
0.0
 11
0.5641528630271378
 21
7.114047217274114
 31
0.0
  0
LINE
  5
309A
330
1E
100
AcDbEntity
  8
7
100
AcDbLine
 10
0.14486152444446
 20
7.114047217274114
 30
0.0
 11
0.14486152444446
 21
7.062866114911908
 31
0.0
  0
LINE
  5
309B
330
1E
100
AcDbEntity
  8
7
100
AcDbLine
 10
0.14486152444446
 20
7.062866114911908
 30
0.0
 11
0.1625780598775313
 21
7.013653516486712
 31
0.0
  0
LINE
  5
309C
330
1E
100
AcDbEntity
  8
7
100
AcDbLine
 10
0.1625780598775313
 20
7.013653516486712
 30
0.0
 11
0.1980111307436729
 21
6.972314933809547
 31
0.0
  0
LINE
  5
309D
330
1E
100
AcDbEntity
  8
7
100
AcDbLine
 10
0.1980111307436729
 20
6.972314933809547
 30
0.0
 11
0.2432867212948544
 21
6.946724382628444
 31
0.0
  0
LINE
  5
309E
330
1E
100
AcDbEntity
  8
7
100
AcDbLine
 10
0.2432867212948544
 20
6.946724382628444
 30
0.0
 11
0.294467823657059
 21
6.936881862943405
 31
0.0
  0
LINE
  5
309F
330
1E
100
AcDbEntity
  8
7
100
AcDbLine
 10
0.294467823657059
 20
7.240031469242618
 30
0.0
 11
0.2432867212948544
 21
7.230188949557579
 31
0.0
  0
LINE
  5
30A0
330
1E
100
AcDbEntity
  8
7
100
AcDbLine
 10
0.2432867212948544
 20
7.230188949557579
 30
0.0
 11
0.1980111307436729
 21
7.204598398376475
 31
0.0
  0
LINE
  5
30A1
330
1E
100
AcDbEntity
  8
7
100
AcDbLine
 10
0.1980111307436729
 20
7.204598398376475
 30
0.0
 11
0.1625780598775313
 21
7.165228319636318
 31
0.0
  0
LINE
  5
30A2
330
1E
100
AcDbEntity
  8
7
100
AcDbLine
 10
0.1625780598775313
 20
7.165228319636318
 30
0.0
 11
0.14486152444446
 21
7.114047217274114
 31
0.0
  0
LINE
  5
30A3
330
1E
100
AcDbEntity
  8
7
100
AcDbLine
 10
1.227538689798791
 20
7.293181075541831
 30
0.0
 11
1.229507193735798
 21
7.293181075541831
 31
0.0
  0
LINE
  5
30A4
330
1E
100
AcDbEntity
  8
7
100
AcDbLine
 10
1.229507193735798
 20
7.293181075541831
 30
0.0
 11
1.259034752790917
 21
7.293181075541831
 31
0.0
  0
ENDSEC
  0
SECTION
  2
OBJECTS
  0
DICTIONARY
  5
C
330
0
100
AcDbDictionary
  3
ACAD_GROUP
350
D
  3
ACAD_LAYOUT
350
19
  3
ACAD_MLINESTYLE
350
16
  3
ACAD_PLOTSETTINGS
350
18
1001
ACAD
1000
TREAT_AS_HARD
1070
     0
  0
DICTIONARY
  5
2E4A
330
1E
100
AcDbDictionary
  3
ACAD_LAYOUTSELFREF
350
3405
1001
ACAD
1000
TREAT_AS_HARD
1070
     1
  0
DICTIONARY
  5
2E4C
330
1A
100
AcDbDictionary
  3
ACAD_LAYOUTSELFREF
350
3404
1001
ACAD
1000
TREAT_AS_HARD
1070
     1
  0
DICTIONARY
  5
D
102
{ACAD_REACTORS
330
C
102
}
330
C
100
AcDbDictionary
1001
ACAD
1000
TREAT_AS_HARD
1070
     0
  0
DICTIONARY
  5
19
102
{ACAD_REACTORS
330
C
102
}
330
C
100
AcDbDictionary
1001
ACAD
1000
TREAT_AS_HARD
1070
     0
  0
DICTIONARY
  5
16
102
{ACAD_REACTORS
330
C
102
}
330
C
100
AcDbDictionary
  3
STANDARD
350
17
1001
ACAD
1000
TREAT_AS_HARD
1070
     0
  0
DICTIONARY
  5
18
102
{ACAD_REACTORS
330
C
102
}
330
C
100
AcDbDictionary
1001
ACAD
1000
TREAT_AS_HARD
1070
     0
  0
XRECORD
  5
3405
102
{ACAD_REACTORS
330
2E4A
102
}
330
2E4A
100
AcDbXrecord
340
1E
  0
XRECORD
  5
3404
102
{ACAD_REACTORS
330
2E4C
102
}
330
2E4C
100
AcDbXrecord
340
1A
  0
MLINESTYLE
  5
17
102
{ACAD_REACTORS
330
16
102
}
330
16
100
AcDbMlineStyle
  2
STANDARD
 70
     0
  3

 62
   256
 51
90.0
 52
90.0
 71
     2
 49
0.5
 62
   256
  6
BYLAYER
 49
-0.5
 62
   256
  6
BYLAYER
  0
ENDSEC
  0
EOF
