  0
SECTION
  2
HEADER
  9
$ACADVER
  1
AC1014
  9
$ACADMAINTVER
 70
     9
  9
$DWGCODEPAGE
  3
ANSI_1252
  9
$INSBASE
 10
0.0
 20
0.0
 30
0.0
  9
$EXTMIN
 10
-2.294677709106679
 20
3.175460840081168
 30
-0.0015258207003583
  9
$EXTMAX
 10
3.015380876855203
 20
4.91404725740902
 30
0.0000000349246037
  9
$LIMMIN
 10
0.0
 20
0.0
  9
$LIMMAX
 10
12.0
 20
9.0
  9
$ORTHOMODE
 70
     0
  9
$REGENMODE
 70
     1
  9
$FILLMODE
 70
     1
  9
$QTEXTMODE
 70
     0
  9
$MIRRTEXT
 70
     1
  9
$DRAGMODE
 70
     2
  9
$LTSCALE
 40
1.0
  9
$OSMODE
 70
    37
  9
$ATTMODE
 70
     1
  9
$TEXTSIZE
 40
0.2
  9
$TRACEWID
 40
0.05
  9
$TEXTSTYLE
  7
STANDARD
  9
$CLAYER
  8
0
  9
$CELTYPE
  6
BYLAYER
  9
$CECOLOR
 62
   256
  9
$CELTSCALE
 40
1.0
  9
$DELOBJ
 70
     1
  9
$DISPSILH
 70
     0
  9
$DIMSCALE
 40
1.0
  9
$DIMASZ
 40
0.18
  9
$DIMEXO
 40
0.0625
  9
$DIMDLI
 40
0.38
  9
$DIMRND
 40
0.0
  9
$DIMDLE
 40
0.0
  9
$DIMEXE
 40
0.18
  9
$DIMTP
 40
0.0
  9
$DIMTM
 40
0.0
  9
$DIMTXT
 40
0.18
  9
$DIMCEN
 40
0.09
  9
$DIMTSZ
 40
0.0
  9
$DIMTOL
 70
     0
  9
$DIMLIM
 70
     0
  9
$DIMTIH
 70
     1
  9
$DIMTOH
 70
     1
  9
$DIMSE1
 70
     0
  9
$DIMSE2
 70
     0
  9
$DIMTAD
 70
     0
  9
$DIMZIN
 70
     0
  9
$DIMBLK
  1

  9
$DIMASO
 70
     1
  9
$DIMSHO
 70
     1
  9
$DIMPOST
  1

  9
$DIMAPOST
  1

  9
$DIMALT
 70
     0
  9
$DIMALTD
 70
     2
  9
$DIMALTF
 40
25.4
  9
$DIMLFAC
 40
1.0
  9
$DIMTOFL
 70
     0
  9
$DIMTVP
 40
0.0
  9
$DIMTIX
 70
     0
  9
$DIMSOXD
 70
     0
  9
$DIMSAH
 70
     0
  9
$DIMBLK1
  1

  9
$DIMBLK2
  1

  9
$DIMSTYLE
  2
STANDARD
  9
$DIMCLRD
 70
     0
  9
$DIMCLRE
 70
     0
  9
$DIMCLRT
 70
     0
  9
$DIMTFAC
 40
1.0
  9
$DIMGAP
 40
0.09
  9
$DIMJUST
 70
     0
  9
$DIMSD1
 70
     0
  9
$DIMSD2
 70
     0
  9
$DIMTOLJ
 70
     1
  9
$DIMTZIN
 70
     0
  9
$DIMALTZ
 70
     0
  9
$DIMALTTZ
 70
     0
  9
$DIMFIT
 70
     5
  9
$DIMUPT
 70
     0
  9
$DIMUNIT
 70
     2
  9
$DIMDEC
 70
     4
  9
$DIMTDEC
 70
     4
  9
$DIMALTU
 70
     2
  9
$DIMALTTD
 70
     2
  9
$DIMTXSTY
  7
STANDARD
  9
$DIMAUNIT
 70
     0
  9
$LUNITS
 70
     2
  9
$LUPREC
 70
     4
  9
$SKETCHINC
 40
0.1
  9
$FILLETRAD
 40
0.0
  9
$AUNITS
 70
     0
  9
$AUPREC
 70
     0
  9
$MENU
  1
acad
  9
$ELEVATION
 40
0.0
  9
$PELEVATION
 40
0.0
  9
$THICKNESS
 40
0.0
  9
$LIMCHECK
 70
     0
  9
$BLIPMODE
 70
     0
  9
$CHAMFERA
 40
0.0
  9
$CHAMFERB
 40
0.0
  9
$CHAMFERC
 40
0.0
  9
$CHAMFERD
 40
0.0
  9
$SKPOLY
 70
     0
  9
$TDCREATE
 40
2452346.615127314
  9
$TDUPDATE
 40
2452346.646767210
  9
$TDINDWG
 40
0.0043840394
  9
$TDUSRTIMER
 40
0.0043840394
  9
$USRTIMER
 70
     1
  9
$ANGBASE
 50
0.0
  9
$ANGDIR
 70
     0
  9
$PDMODE
 70
     0
  9
$PDSIZE
 40
0.0
  9
$PLINEWID
 40
0.0
  9
$COORDS
 70
     0
  9
$SPLFRAME
 70
     0
  9
$SPLINETYPE
 70
     6
  9
$SPLINESEGS
 70
     8
  9
$ATTDIA
 70
     0
  9
$ATTREQ
 70
     1
  9
$HANDLING
 70
-16383
  9
$HANDSEED
  5
269B
  9
$SURFTAB1
 70
     6
  9
$SURFTAB2
 70
     6
  9
$SURFTYPE
 70
     6
  9
$SURFU
 70
     6
  9
$SURFV
 70
     6
  9
$UCSNAME
  2

  9
$UCSORG
 10
0.0
 20
0.0
 30
0.0
  9
$UCSXDIR
 10
1.0
 20
0.0
 30
0.0
  9
$UCSYDIR
 10
0.0
 20
1.0
 30
0.0
  9
$PUCSNAME
  2

  9
$PUCSORG
 10
0.0
 20
0.0
 30
0.0
  9
$PUCSXDIR
 10
1.0
 20
0.0
 30
0.0
  9
$PUCSYDIR
 10
0.0
 20
1.0
 30
0.0
  9
$USERI1
 70
     0
  9
$USERI2
 70
     0
  9
$USERI3
 70
     0
  9
$USERI4
 70
     0
  9
$USERI5
 70
     0
  9
$USERR1
 40
0.0
  9
$USERR2
 40
0.0
  9
$USERR3
 40
0.0
  9
$USERR4
 40
0.0
  9
$USERR5
 40
0.0
  9
$WORLDVIEW
 70
     1
  9
$SHADEDGE
 70
     3
  9
$SHADEDIF
 70
    70
  9
$TILEMODE
 70
     1
  9
$MAXACTVP
 70
    16
  9
$PINSBASE
 10
0.0
 20
0.0
 30
0.0
  9
$PLIMCHECK
 70
     0
  9
$PEXTMIN
 10
1.000000000000000E+20
 20
1.000000000000000E+20
 30
1.000000000000000E+20
  9
$PEXTMAX
 10
-1.000000000000000E+20
 20
-1.000000000000000E+20
 30
-1.000000000000000E+20
  9
$PLIMMIN
 10
0.0
 20
0.0
  9
$PLIMMAX
 10
12.0
 20
9.0
  9
$UNITMODE
 70
     0
  9
$VISRETAIN
 70
     0
  9
$PLINEGEN
 70
     0
  9
$PSLTSCALE
 70
     1
  9
$TREEDEPTH
 70
  3020
  9
$PICKSTYLE
 70
     0
  9
$CMLSTYLE
  2
STANDARD
  9
$CMLJUST
 70
     0
  9
$CMLSCALE
 40
1.0
  9
$PROXYGRAPHICS
 70
     1
  9
$MEASUREMENT
 70
     0
  0
ENDSEC
  0
SECTION
  2
CLASSES
  0
CLASS
  1
ACDBDICTIONARYWDFLT
  2
AcDbDictionaryWithDefault
  3
AutoCAD 2000
 90
        0
280
     0
281
     0
  0
CLASS
  1
ACDBPLACEHOLDER
  2
AcDbPlaceHolder
  3
AutoCAD 2000
 90
        0
280
     0
281
     0
  0
CLASS
  1
LAYOUT
  2
AcDbLayout
  3
AutoCAD 2000
 90
        0
280
     0
281
     0
  0
CLASS
  1
LONG_TRANSACTION
  2
AcDbLongTransaction
  3
AutoCAD 2000
 90
        0
280
     0
281
     0
  0
CLASS
  1
LWPOLYLINE
  2
AcDbPolyline
  3
AutoCAD 2000
 90
        0
280
     0
281
     1
  0
CLASS
  1
HATCH
  2
AcDbHatch
  3
AutoCAD 2000
 90
        0
280
     0
281
     1
  0
CLASS
  1
XRECORD
  2
AcDbXrecord
  3
AutoCAD 2000
 90
        0
280
     0
281
     0
  0
ENDSEC
  0
SECTION
  2
TABLES
  0
TABLE
  2
VPORT
  5
8
330
0
100
AcDbSymbolTable
 70
     3
  0
VPORT
  5
2675
330
8
100
AcDbSymbolTableRecord
100
AcDbViewportTableRecord
  2
*ACTIVE
 70
     0
 10
0.0
 20
0.0
 11
1.0
 21
1.0
 12
0.3603515838742624
 22
4.044754048745094
 13
0.0
 23
0.0
 14
1.0
 24
1.0
 15
0.0
 25
0.0
 16
0.0
 26
0.0
 36
1.0
 17
0.0
 27
0.0
 37
0.0
 40
3.397232311194531
 41
1.571045576407506
 42
50.0
 43
0.0
 44
0.0
 50
0.0
 51
0.0
 71
     0
 72
   100
 73
     1
 74
     1
 75
     0
 76
     0
 77
     0
 78
     0
  0
ENDTAB
  0
TABLE
  2
LTYPE
  5
5
330
0
100
AcDbSymbolTable
 70
    25
  0
LTYPE
  5
13
330
5
100
AcDbSymbolTableRecord
100
AcDbLinetypeTableRecord
  2
BYBLOCK
 70
     0
  3

 72
    65
 73
     0
 40
0.0
  0
LTYPE
  5
14
330
5
100
AcDbSymbolTableRecord
100
AcDbLinetypeTableRecord
  2
BYLAYER
 70
     0
  3

 72
    65
 73
     0
 40
0.0
  0
LTYPE
  5
15
330
5
100
AcDbSymbolTableRecord
100
AcDbLinetypeTableRecord
  2
CONTINUOUS
 70
     0
  3
Solid line
 72
    65
 73
     0
 40
0.0
  0
LTYPE
  5
22
330
5
100
AcDbSymbolTableRecord
100
AcDbLinetypeTableRecord
  2
BORDER
 70
     0
  3
__ __ . __ __ . __ __ . __ __ . __ __ . __ __ .
 72
    65
 73
     6
 40
1.75
 49
0.5
 74
     0
 49
-0.25
 74
     0
 49
0.5
 74
     0
 49
-0.25
 74
     0
 49
0.5
 74
     0
 49
-0.25
 74
     0
  0
LTYPE
  5
23
330
5
100
AcDbSymbolTableRecord
100
AcDbLinetypeTableRecord
  2
BORDER2
 70
     0
  3
__.__.__.__.__.__.__.__.__.__.__.__.__.__.__.__
 72
    65
 73
     6
 40
0.875
 49
0.25
 74
     0
 49
-0.125
 74
     0
 49
0.25
 74
     0
 49
-0.125
 74
     0
 49
0.25
 74
     0
 49
-0.125
 74
     0
  0
LTYPE
  5
24
330
5
100
AcDbSymbolTableRecord
100
AcDbLinetypeTableRecord
  2
BORDERX2
 70
     0
  3
____  ____  .  ____  ____  .  
 72
    65
 73
     6
 40
3.5
 49
1.0
 74
     0
 49
-0.5
 74
     0
 49
1.0
 74
     0
 49
-0.5
 74
     0
 49
1.0
 74
     0
 49
-0.5
 74
     0
  0
LTYPE
  5
25
330
5
100
AcDbSymbolTableRecord
100
AcDbLinetypeTableRecord
  2
CENTER
 70
     0
  3
____ _ ____ _ ____ _ ____ _ ____ _ ____ _ ____
 72
    65
 73
     4
 40
2.0
 49
1.25
 74
     0
 49
-0.25
 74
     0
 49
0.25
 74
     0
 49
-0.25
 74
     0
  0
LTYPE
  5
26
330
5
100
AcDbSymbolTableRecord
100
AcDbLinetypeTableRecord
  2
CENTER2
 70
     0
  3
____ _ ____ _ ____ _ ____ _ ____ _ ____ _ ____
 72
    65
 73
     4
 40
1.125
 49
0.75
 74
     0
 49
-0.125
 74
     0
 49
0.125
 74
     0
 49
-0.125
 74
     0
  0
LTYPE
  5
27
330
5
100
AcDbSymbolTableRecord
100
AcDbLinetypeTableRecord
  2
CENTERX2
 70
     0
  3
________  __  ________  __  ________  __  
 72
    65
 73
     4
 40
4.0
 49
2.5
 74
     0
 49
-0.5
 74
     0
 49
0.5
 74
     0
 49
-0.5
 74
     0
  0
LTYPE
  5
28
330
5
100
AcDbSymbolTableRecord
100
AcDbLinetypeTableRecord
  2
DASHDOT
 70
     0
  3
__ . __ . __ . __ . __ . __ . __ . 
 72
    65
 73
     4
 40
1.0
 49
0.5
 74
     0
 49
-0.25
 74
     0
 49
0.0
 74
     0
 49
-0.25
 74
     0
  0
LTYPE
  5
29
330
5
100
AcDbSymbolTableRecord
100
AcDbLinetypeTableRecord
  2
DASHDOT2
 70
     0
  3
_._._._._._._._._._._._._._._._.
 72
    65
 73
     4
 40
0.5
 49
0.25
 74
     0
 49
-0.125
 74
     0
 49
0.0
 74
     0
 49
-0.125
 74
     0
  0
LTYPE
  5
2A
330
5
100
AcDbSymbolTableRecord
100
AcDbLinetypeTableRecord
  2
DASHDOTX2
 70
     0
  3
____  .  ____  .  ____  .  ____  .  
 72
    65
 73
     4
 40
2.0
 49
1.0
 74
     0
 49
-0.5
 74
     0
 49
0.0
 74
     0
 49
-0.5
 74
     0
  0
LTYPE
  5
2B
330
5
100
AcDbSymbolTableRecord
100
AcDbLinetypeTableRecord
  2
DASHED
 70
     0
  3
__ __ __ __ __ __ __ __ __ __ __ __ 
 72
    65
 73
     2
 40
0.75
 49
0.5
 74
     0
 49
-0.25
 74
     0
  0
LTYPE
  5
2C
330
5
100
AcDbSymbolTableRecord
100
AcDbLinetypeTableRecord
  2
DASHED2
 70
     0
  3
_ _ _ _ _ _ _ _ _ _ _ _ _ _ _ _ _ _ 
 72
    65
 73
     2
 40
0.375
 49
0.25
 74
     0
 49
-0.125
 74
     0
  0
LTYPE
  5
2D
330
5
100
AcDbSymbolTableRecord
100
AcDbLinetypeTableRecord
  2
DASHEDX2
 70
     0
  3
____  ____  ____  ____  ____  ____  
 72
    65
 73
     2
 40
1.5
 49
1.0
 74
     0
 49
-0.5
 74
     0
  0
LTYPE
  5
2E
330
5
100
AcDbSymbolTableRecord
100
AcDbLinetypeTableRecord
  2
DIVIDE
 70
     0
  3
____ . . ____ . . ____ . . ____ . . 
 72
    65
 73
     6
 40
1.25
 49
0.5
 74
     0
 49
-0.25
 74
     0
 49
0.0
 74
     0
 49
-0.25
 74
     0
 49
0.0
 74
     0
 49
-0.25
 74
     0
  0
LTYPE
  5
2F
330
5
100
AcDbSymbolTableRecord
100
AcDbLinetypeTableRecord
  2
DIVIDE2
 70
     0
  3
__..__..__..__..__..__..__..__..__..
 72
    65
 73
     6
 40
0.625
 49
0.25
 74
     0
 49
-0.125
 74
     0
 49
0.0
 74
     0
 49
-0.125
 74
     0
 49
0.0
 74
     0
 49
-0.125
 74
     0
  0
LTYPE
  5
30
330
5
100
AcDbSymbolTableRecord
100
AcDbLinetypeTableRecord
  2
DIVIDEX2
 70
     0
  3
________  .  .  ________  .  .  ________  .  . 
 72
    65
 73
     6
 40
2.5
 49
1.0
 74
     0
 49
-0.5
 74
     0
 49
0.0
 74
     0
 49
-0.5
 74
     0
 49
0.0
 74
     0
 49
-0.5
 74
     0
  0
LTYPE
  5
31
330
5
100
AcDbSymbolTableRecord
100
AcDbLinetypeTableRecord
  2
DOT
 70
     0
  3
. . . . . . . . . . . . . . . . . . 
 72
    65
 73
     2
 40
0.25
 49
0.0
 74
     0
 49
-0.25
 74
     0
  0
LTYPE
  5
32
330
5
100
AcDbSymbolTableRecord
100
AcDbLinetypeTableRecord
  2
DOT2
 70
     0
  3
....................................
 72
    65
 73
     2
 40
0.125
 49
0.0
 74
     0
 49
-0.125
 74
     0
  0
LTYPE
  5
33
330
5
100
AcDbSymbolTableRecord
100
AcDbLinetypeTableRecord
  2
DOTX2
 70
     0
  3
.  .  .  .  .  .  .  .  .  .  .  .  .  
 72
    65
 73
     2
 40
0.5
 49
0.0
 74
     0
 49
-0.5
 74
     0
  0
LTYPE
  5
34
330
5
100
AcDbSymbolTableRecord
100
AcDbLinetypeTableRecord
  2
HIDDEN
 70
     0
  3
__ __ __ __ __ __ __ __ __ __ __ __ 
 72
    65
 73
     2
 40
0.375
 49
0.25
 74
     0
 49
-0.125
 74
     0
  0
LTYPE
  5
35
330
5
100
AcDbSymbolTableRecord
100
AcDbLinetypeTableRecord
  2
HIDDEN2
 70
     0
  3
_ _ _ _ _ _ _ _ _ _ _ _ _ _ _ _ _ _ 
 72
    65
 73
     2
 40
0.1875
 49
0.125
 74
     0
 49
-0.0625
 74
     0
  0
LTYPE
  5
36
330
5
100
AcDbSymbolTableRecord
100
AcDbLinetypeTableRecord
  2
HIDDENX2
 70
     0
  3
____ ____ ____ ____ ____ ____ ____ 
 72
    65
 73
     2
 40
0.75
 49
0.5
 74
     0
 49
-0.25
 74
     0
  0
LTYPE
  5
37
330
5
100
AcDbSymbolTableRecord
100
AcDbLinetypeTableRecord
  2
PHANTOM
 70
     0
  3
______  __  __  ______  __  __  
 72
    65
 73
     6
 40
2.5
 49
1.25
 74
     0
 49
-0.25
 74
     0
 49
0.25
 74
     0
 49
-0.25
 74
     0
 49
0.25
 74
     0
 49
-0.25
 74
     0
  0
LTYPE
  5
38
330
5
100
AcDbSymbolTableRecord
100
AcDbLinetypeTableRecord
  2
PHANTOM2
 70
     0
  3
___ _ _ ___ _ _ ___ _ _ ___ _ _ 
 72
    65
 73
     6
 40
1.25
 49
0.625
 74
     0
 49
-0.125
 74
     0
 49
0.125
 74
     0
 49
-0.125
 74
     0
 49
0.125
 74
     0
 49
-0.125
 74
     0
  0
LTYPE
  5
39
330
5
100
AcDbSymbolTableRecord
100
AcDbLinetypeTableRecord
  2
PHANTOMX2
 70
     0
  3
___ _ _ ___ _ _ ___ _ _ ___ _ _ 
 72
    65
 73
     6
 40
5.0
 49
2.5
 74
     0
 49
-0.5
 74
     0
 49
0.5
 74
     0
 49
-0.5
 74
     0
 49
0.5
 74
     0
 49
-0.5
 74
     0
  0
ENDTAB
  0
TABLE
  2
LAYER
  5
2
330
0
100
AcDbSymbolTable
 70
   256
  0
LAYER
  5
10
330
2
100
AcDbSymbolTableRecord
100
AcDbLayerTableRecord
  2
0
 70
     0
 62
     7
  6
CONTINUOUS
  0
LAYER
  5
3A
330
2
100
AcDbSymbolTableRecord
100
AcDbLayerTableRecord
  2
1
 70
     0
 62
     1
  6
CONTINUOUS
  0
LAYER
  5
3B
330
2
100
AcDbSymbolTableRecord
100
AcDbLayerTableRecord
  2
2
 70
     0
 62
     2
  6
CONTINUOUS
  0
LAYER
  5
3C
330
2
100
AcDbSymbolTableRecord
100
AcDbLayerTableRecord
  2
3
 70
     0
 62
     3
  6
CONTINUOUS
  0
LAYER
  5
3D
330
2
100
AcDbSymbolTableRecord
100
AcDbLayerTableRecord
  2
4
 70
     0
 62
     4
  6
CONTINUOUS
  0
LAYER
  5
3E
330
2
100
AcDbSymbolTableRecord
100
AcDbLayerTableRecord
  2
5
 70
     0
 62
     5
  6
CONTINUOUS
  0
LAYER
  5
3F
330
2
100
AcDbSymbolTableRecord
100
AcDbLayerTableRecord
  2
6
 70
     0
 62
     6
  6
CONTINUOUS
  0
LAYER
  5
40
330
2
100
AcDbSymbolTableRecord
100
AcDbLayerTableRecord
  2
7
 70
     0
 62
     7
  6
CONTINUOUS
  0
LAYER
  5
41
330
2
100
AcDbSymbolTableRecord
100
AcDbLayerTableRecord
  2
8
 70
     0
 62
     8
  6
CONTINUOUS
  0
LAYER
  5
42
330
2
100
AcDbSymbolTableRecord
100
AcDbLayerTableRecord
  2
9
 70
     0
 62
     9
  6
CONTINUOUS
  0
LAYER
  5
43
330
2
100
AcDbSymbolTableRecord
100
AcDbLayerTableRecord
  2
10
 70
     0
 62
    10
  6
CONTINUOUS
  0
LAYER
  5
44
330
2
100
AcDbSymbolTableRecord
100
AcDbLayerTableRecord
  2
11
 70
     0
 62
    11
  6
CONTINUOUS
  0
LAYER
  5
45
330
2
100
AcDbSymbolTableRecord
100
AcDbLayerTableRecord
  2
12
 70
     0
 62
    12
  6
CONTINUOUS
  0
LAYER
  5
46
330
2
100
AcDbSymbolTableRecord
100
AcDbLayerTableRecord
  2
13
 70
     0
 62
    13
  6
CONTINUOUS
  0
LAYER
  5
47
330
2
100
AcDbSymbolTableRecord
100
AcDbLayerTableRecord
  2
14
 70
     0
 62
    14
  6
CONTINUOUS
  0
LAYER
  5
48
330
2
100
AcDbSymbolTableRecord
100
AcDbLayerTableRecord
  2
15
 70
     0
 62
    15
  6
CONTINUOUS
  0
LAYER
  5
49
330
2
100
AcDbSymbolTableRecord
100
AcDbLayerTableRecord
  2
16
 70
     0
 62
    16
  6
CONTINUOUS
  0
LAYER
  5
4A
330
2
100
AcDbSymbolTableRecord
100
AcDbLayerTableRecord
  2
17
 70
     0
 62
    17
  6
CONTINUOUS
  0
LAYER
  5
4B
330
2
100
AcDbSymbolTableRecord
100
AcDbLayerTableRecord
  2
18
 70
     0
 62
    18
  6
CONTINUOUS
  0
LAYER
  5
4C
330
2
100
AcDbSymbolTableRecord
100
AcDbLayerTableRecord
  2
19
 70
     0
 62
    19
  6
CONTINUOUS
  0
LAYER
  5
4D
330
2
100
AcDbSymbolTableRecord
100
AcDbLayerTableRecord
  2
20
 70
     0
 62
    20
  6
CONTINUOUS
  0
LAYER
  5
4E
330
2
100
AcDbSymbolTableRecord
100
AcDbLayerTableRecord
  2
21
 70
     0
 62
    21
  6
CONTINUOUS
  0
LAYER
  5
4F
330
2
100
AcDbSymbolTableRecord
100
AcDbLayerTableRecord
  2
22
 70
     0
 62
    22
  6
CONTINUOUS
  0
LAYER
  5
50
330
2
100
AcDbSymbolTableRecord
100
AcDbLayerTableRecord
  2
23
 70
     0
 62
    23
  6
CONTINUOUS
  0
LAYER
  5
51
330
2
100
AcDbSymbolTableRecord
100
AcDbLayerTableRecord
  2
24
 70
     0
 62
    24
  6
CONTINUOUS
  0
LAYER
  5
52
330
2
100
AcDbSymbolTableRecord
100
AcDbLayerTableRecord
  2
25
 70
     0
 62
    25
  6
CONTINUOUS
  0
LAYER
  5
53
330
2
100
AcDbSymbolTableRecord
100
AcDbLayerTableRecord
  2
26
 70
     0
 62
    26
  6
CONTINUOUS
  0
LAYER
  5
54
330
2
100
AcDbSymbolTableRecord
100
AcDbLayerTableRecord
  2
27
 70
     0
 62
    27
  6
CONTINUOUS
  0
LAYER
  5
55
330
2
100
AcDbSymbolTableRecord
100
AcDbLayerTableRecord
  2
28
 70
     0
 62
    28
  6
CONTINUOUS
  0
LAYER
  5
56
330
2
100
AcDbSymbolTableRecord
100
AcDbLayerTableRecord
  2
29
 70
     0
 62
    29
  6
CONTINUOUS
  0
LAYER
  5
57
330
2
100
AcDbSymbolTableRecord
100
AcDbLayerTableRecord
  2
30
 70
     0
 62
    30
  6
CONTINUOUS
  0
LAYER
  5
58
330
2
100
AcDbSymbolTableRecord
100
AcDbLayerTableRecord
  2
31
 70
     0
 62
    31
  6
CONTINUOUS
  0
LAYER
  5
59
330
2
100
AcDbSymbolTableRecord
100
AcDbLayerTableRecord
  2
32
 70
     0
 62
    32
  6
CONTINUOUS
  0
LAYER
  5
5A
330
2
100
AcDbSymbolTableRecord
100
AcDbLayerTableRecord
  2
33
 70
     0
 62
    33
  6
CONTINUOUS
  0
LAYER
  5
5B
330
2
100
AcDbSymbolTableRecord
100
AcDbLayerTableRecord
  2
34
 70
     0
 62
    34
  6
CONTINUOUS
  0
LAYER
  5
5C
330
2
100
AcDbSymbolTableRecord
100
AcDbLayerTableRecord
  2
35
 70
     0
 62
    35
  6
CONTINUOUS
  0
LAYER
  5
5D
330
2
100
AcDbSymbolTableRecord
100
AcDbLayerTableRecord
  2
36
 70
     0
 62
    36
  6
CONTINUOUS
  0
LAYER
  5
5E
330
2
100
AcDbSymbolTableRecord
100
AcDbLayerTableRecord
  2
37
 70
     0
 62
    37
  6
CONTINUOUS
  0
LAYER
  5
5F
330
2
100
AcDbSymbolTableRecord
100
AcDbLayerTableRecord
  2
38
 70
     0
 62
    38
  6
CONTINUOUS
  0
LAYER
  5
60
330
2
100
AcDbSymbolTableRecord
100
AcDbLayerTableRecord
  2
39
 70
     0
 62
    39
  6
CONTINUOUS
  0
LAYER
  5
61
330
2
100
AcDbSymbolTableRecord
100
AcDbLayerTableRecord
  2
40
 70
     0
 62
    40
  6
CONTINUOUS
  0
LAYER
  5
62
330
2
100
AcDbSymbolTableRecord
100
AcDbLayerTableRecord
  2
41
 70
     0
 62
    41
  6
CONTINUOUS
  0
LAYER
  5
63
330
2
100
AcDbSymbolTableRecord
100
AcDbLayerTableRecord
  2
42
 70
     0
 62
    42
  6
CONTINUOUS
  0
LAYER
  5
64
330
2
100
AcDbSymbolTableRecord
100
AcDbLayerTableRecord
  2
43
 70
     0
 62
    43
  6
CONTINUOUS
  0
LAYER
  5
65
330
2
100
AcDbSymbolTableRecord
100
AcDbLayerTableRecord
  2
44
 70
     0
 62
    44
  6
CONTINUOUS
  0
LAYER
  5
66
330
2
100
AcDbSymbolTableRecord
100
AcDbLayerTableRecord
  2
45
 70
     0
 62
    45
  6
CONTINUOUS
  0
LAYER
  5
67
330
2
100
AcDbSymbolTableRecord
100
AcDbLayerTableRecord
  2
46
 70
     0
 62
    46
  6
CONTINUOUS
  0
LAYER
  5
68
330
2
100
AcDbSymbolTableRecord
100
AcDbLayerTableRecord
  2
47
 70
     0
 62
    47
  6
CONTINUOUS
  0
LAYER
  5
69
330
2
100
AcDbSymbolTableRecord
100
AcDbLayerTableRecord
  2
48
 70
     0
 62
    48
  6
CONTINUOUS
  0
LAYER
  5
6A
330
2
100
AcDbSymbolTableRecord
100
AcDbLayerTableRecord
  2
49
 70
     0
 62
    49
  6
CONTINUOUS
  0
LAYER
  5
6B
330
2
100
AcDbSymbolTableRecord
100
AcDbLayerTableRecord
  2
50
 70
     0
 62
    50
  6
CONTINUOUS
  0
LAYER
  5
6C
330
2
100
AcDbSymbolTableRecord
100
AcDbLayerTableRecord
  2
51
 70
     0
 62
    51
  6
CONTINUOUS
  0
LAYER
  5
6D
330
2
100
AcDbSymbolTableRecord
100
AcDbLayerTableRecord
  2
52
 70
     0
 62
    52
  6
CONTINUOUS
  0
LAYER
  5
6E
330
2
100
AcDbSymbolTableRecord
100
AcDbLayerTableRecord
  2
53
 70
     0
 62
    53
  6
CONTINUOUS
  0
LAYER
  5
6F
330
2
100
AcDbSymbolTableRecord
100
AcDbLayerTableRecord
  2
54
 70
     0
 62
    54
  6
CONTINUOUS
  0
LAYER
  5
70
330
2
100
AcDbSymbolTableRecord
100
AcDbLayerTableRecord
  2
55
 70
     0
 62
    55
  6
CONTINUOUS
  0
LAYER
  5
71
330
2
100
AcDbSymbolTableRecord
100
AcDbLayerTableRecord
  2
56
 70
     0
 62
    56
  6
CONTINUOUS
  0
LAYER
  5
72
330
2
100
AcDbSymbolTableRecord
100
AcDbLayerTableRecord
  2
57
 70
     0
 62
    57
  6
CONTINUOUS
  0
LAYER
  5
73
330
2
100
AcDbSymbolTableRecord
100
AcDbLayerTableRecord
  2
58
 70
     0
 62
    58
  6
CONTINUOUS
  0
LAYER
  5
74
330
2
100
AcDbSymbolTableRecord
100
AcDbLayerTableRecord
  2
59
 70
     0
 62
    59
  6
CONTINUOUS
  0
LAYER
  5
75
330
2
100
AcDbSymbolTableRecord
100
AcDbLayerTableRecord
  2
60
 70
     0
 62
    60
  6
CONTINUOUS
  0
LAYER
  5
76
330
2
100
AcDbSymbolTableRecord
100
AcDbLayerTableRecord
  2
61
 70
     0
 62
    61
  6
CONTINUOUS
  0
LAYER
  5
77
330
2
100
AcDbSymbolTableRecord
100
AcDbLayerTableRecord
  2
62
 70
     0
 62
    62
  6
CONTINUOUS
  0
LAYER
  5
78
330
2
100
AcDbSymbolTableRecord
100
AcDbLayerTableRecord
  2
63
 70
     0
 62
    63
  6
CONTINUOUS
  0
LAYER
  5
79
330
2
100
AcDbSymbolTableRecord
100
AcDbLayerTableRecord
  2
64
 70
     0
 62
    64
  6
CONTINUOUS
  0
LAYER
  5
7A
330
2
100
AcDbSymbolTableRecord
100
AcDbLayerTableRecord
  2
65
 70
     0
 62
    65
  6
CONTINUOUS
  0
LAYER
  5
7B
330
2
100
AcDbSymbolTableRecord
100
AcDbLayerTableRecord
  2
66
 70
     0
 62
    66
  6
CONTINUOUS
  0
LAYER
  5
7C
330
2
100
AcDbSymbolTableRecord
100
AcDbLayerTableRecord
  2
67
 70
     0
 62
    67
  6
CONTINUOUS
  0
LAYER
  5
7D
330
2
100
AcDbSymbolTableRecord
100
AcDbLayerTableRecord
  2
68
 70
     0
 62
    68
  6
CONTINUOUS
  0
LAYER
  5
7E
330
2
100
AcDbSymbolTableRecord
100
AcDbLayerTableRecord
  2
69
 70
     0
 62
    69
  6
CONTINUOUS
  0
LAYER
  5
7F
330
2
100
AcDbSymbolTableRecord
100
AcDbLayerTableRecord
  2
70
 70
     0
 62
    70
  6
CONTINUOUS
  0
LAYER
  5
80
330
2
100
AcDbSymbolTableRecord
100
AcDbLayerTableRecord
  2
71
 70
     0
 62
    71
  6
CONTINUOUS
  0
LAYER
  5
81
330
2
100
AcDbSymbolTableRecord
100
AcDbLayerTableRecord
  2
72
 70
     0
 62
    72
  6
CONTINUOUS
  0
LAYER
  5
82
330
2
100
AcDbSymbolTableRecord
100
AcDbLayerTableRecord
  2
73
 70
     0
 62
    73
  6
CONTINUOUS
  0
LAYER
  5
83
330
2
100
AcDbSymbolTableRecord
100
AcDbLayerTableRecord
  2
74
 70
     0
 62
    74
  6
CONTINUOUS
  0
LAYER
  5
84
330
2
100
AcDbSymbolTableRecord
100
AcDbLayerTableRecord
  2
75
 70
     0
 62
    75
  6
CONTINUOUS
  0
LAYER
  5
85
330
2
100
AcDbSymbolTableRecord
100
AcDbLayerTableRecord
  2
76
 70
     0
 62
    76
  6
CONTINUOUS
  0
LAYER
  5
86
330
2
100
AcDbSymbolTableRecord
100
AcDbLayerTableRecord
  2
77
 70
     0
 62
    77
  6
CONTINUOUS
  0
LAYER
  5
87
330
2
100
AcDbSymbolTableRecord
100
AcDbLayerTableRecord
  2
78
 70
     0
 62
    78
  6
CONTINUOUS
  0
LAYER
  5
88
330
2
100
AcDbSymbolTableRecord
100
AcDbLayerTableRecord
  2
79
 70
     0
 62
    79
  6
CONTINUOUS
  0
LAYER
  5
89
330
2
100
AcDbSymbolTableRecord
100
AcDbLayerTableRecord
  2
80
 70
     0
 62
    80
  6
CONTINUOUS
  0
LAYER
  5
8A
330
2
100
AcDbSymbolTableRecord
100
AcDbLayerTableRecord
  2
81
 70
     0
 62
    81
  6
CONTINUOUS
  0
LAYER
  5
8B
330
2
100
AcDbSymbolTableRecord
100
AcDbLayerTableRecord
  2
82
 70
     0
 62
    82
  6
CONTINUOUS
  0
LAYER
  5
8C
330
2
100
AcDbSymbolTableRecord
100
AcDbLayerTableRecord
  2
83
 70
     0
 62
    83
  6
CONTINUOUS
  0
LAYER
  5
8D
330
2
100
AcDbSymbolTableRecord
100
AcDbLayerTableRecord
  2
84
 70
     0
 62
    84
  6
CONTINUOUS
  0
LAYER
  5
8E
330
2
100
AcDbSymbolTableRecord
100
AcDbLayerTableRecord
  2
85
 70
     0
 62
    85
  6
CONTINUOUS
  0
LAYER
  5
8F
330
2
100
AcDbSymbolTableRecord
100
AcDbLayerTableRecord
  2
86
 70
     0
 62
    86
  6
CONTINUOUS
  0
LAYER
  5
90
330
2
100
AcDbSymbolTableRecord
100
AcDbLayerTableRecord
  2
87
 70
     0
 62
    87
  6
CONTINUOUS
  0
LAYER
  5
91
330
2
100
AcDbSymbolTableRecord
100
AcDbLayerTableRecord
  2
88
 70
     0
 62
    88
  6
CONTINUOUS
  0
LAYER
  5
92
330
2
100
AcDbSymbolTableRecord
100
AcDbLayerTableRecord
  2
89
 70
     0
 62
    89
  6
CONTINUOUS
  0
LAYER
  5
93
330
2
100
AcDbSymbolTableRecord
100
AcDbLayerTableRecord
  2
90
 70
     0
 62
    90
  6
CONTINUOUS
  0
LAYER
  5
94
330
2
100
AcDbSymbolTableRecord
100
AcDbLayerTableRecord
  2
91
 70
     0
 62
    91
  6
CONTINUOUS
  0
LAYER
  5
95
330
2
100
AcDbSymbolTableRecord
100
AcDbLayerTableRecord
  2
92
 70
     0
 62
    92
  6
CONTINUOUS
  0
LAYER
  5
96
330
2
100
AcDbSymbolTableRecord
100
AcDbLayerTableRecord
  2
93
 70
     0
 62
    93
  6
CONTINUOUS
  0
LAYER
  5
97
330
2
100
AcDbSymbolTableRecord
100
AcDbLayerTableRecord
  2
94
 70
     0
 62
    94
  6
CONTINUOUS
  0
LAYER
  5
98
330
2
100
AcDbSymbolTableRecord
100
AcDbLayerTableRecord
  2
95
 70
     0
 62
    95
  6
CONTINUOUS
  0
LAYER
  5
99
330
2
100
AcDbSymbolTableRecord
100
AcDbLayerTableRecord
  2
96
 70
     0
 62
    96
  6
CONTINUOUS
  0
LAYER
  5
9A
330
2
100
AcDbSymbolTableRecord
100
AcDbLayerTableRecord
  2
97
 70
     0
 62
    97
  6
CONTINUOUS
  0
LAYER
  5
9B
330
2
100
AcDbSymbolTableRecord
100
AcDbLayerTableRecord
  2
98
 70
     0
 62
    98
  6
CONTINUOUS
  0
LAYER
  5
9C
330
2
100
AcDbSymbolTableRecord
100
AcDbLayerTableRecord
  2
99
 70
     0
 62
    99
  6
CONTINUOUS
  0
LAYER
  5
9D
330
2
100
AcDbSymbolTableRecord
100
AcDbLayerTableRecord
  2
100
 70
     0
 62
   100
  6
CONTINUOUS
  0
LAYER
  5
9E
330
2
100
AcDbSymbolTableRecord
100
AcDbLayerTableRecord
  2
101
 70
     0
 62
   101
  6
CONTINUOUS
  0
LAYER
  5
9F
330
2
100
AcDbSymbolTableRecord
100
AcDbLayerTableRecord
  2
102
 70
     0
 62
   102
  6
CONTINUOUS
  0
LAYER
  5
A0
330
2
100
AcDbSymbolTableRecord
100
AcDbLayerTableRecord
  2
103
 70
     0
 62
   103
  6
CONTINUOUS
  0
LAYER
  5
A1
330
2
100
AcDbSymbolTableRecord
100
AcDbLayerTableRecord
  2
104
 70
     0
 62
   104
  6
CONTINUOUS
  0
LAYER
  5
A2
330
2
100
AcDbSymbolTableRecord
100
AcDbLayerTableRecord
  2
105
 70
     0
 62
   105
  6
CONTINUOUS
  0
LAYER
  5
A3
330
2
100
AcDbSymbolTableRecord
100
AcDbLayerTableRecord
  2
106
 70
     0
 62
   106
  6
CONTINUOUS
  0
LAYER
  5
A4
330
2
100
AcDbSymbolTableRecord
100
AcDbLayerTableRecord
  2
107
 70
     0
 62
   107
  6
CONTINUOUS
  0
LAYER
  5
A5
330
2
100
AcDbSymbolTableRecord
100
AcDbLayerTableRecord
  2
108
 70
     0
 62
   108
  6
CONTINUOUS
  0
LAYER
  5
A6
330
2
100
AcDbSymbolTableRecord
100
AcDbLayerTableRecord
  2
109
 70
     0
 62
   109
  6
CONTINUOUS
  0
LAYER
  5
A7
330
2
100
AcDbSymbolTableRecord
100
AcDbLayerTableRecord
  2
110
 70
     0
 62
   110
  6
CONTINUOUS
  0
LAYER
  5
A8
330
2
100
AcDbSymbolTableRecord
100
AcDbLayerTableRecord
  2
111
 70
     0
 62
   111
  6
CONTINUOUS
  0
LAYER
  5
A9
330
2
100
AcDbSymbolTableRecord
100
AcDbLayerTableRecord
  2
112
 70
     0
 62
   112
  6
CONTINUOUS
  0
LAYER
  5
AA
330
2
100
AcDbSymbolTableRecord
100
AcDbLayerTableRecord
  2
113
 70
     0
 62
   113
  6
CONTINUOUS
  0
LAYER
  5
AB
330
2
100
AcDbSymbolTableRecord
100
AcDbLayerTableRecord
  2
114
 70
     0
 62
   114
  6
CONTINUOUS
  0
LAYER
  5
AC
330
2
100
AcDbSymbolTableRecord
100
AcDbLayerTableRecord
  2
115
 70
     0
 62
   115
  6
CONTINUOUS
  0
LAYER
  5
AD
330
2
100
AcDbSymbolTableRecord
100
AcDbLayerTableRecord
  2
116
 70
     0
 62
   116
  6
CONTINUOUS
  0
LAYER
  5
AE
330
2
100
AcDbSymbolTableRecord
100
AcDbLayerTableRecord
  2
117
 70
     0
 62
   117
  6
CONTINUOUS
  0
LAYER
  5
AF
330
2
100
AcDbSymbolTableRecord
100
AcDbLayerTableRecord
  2
118
 70
     0
 62
   118
  6
CONTINUOUS
  0
LAYER
  5
B0
330
2
100
AcDbSymbolTableRecord
100
AcDbLayerTableRecord
  2
119
 70
     0
 62
   119
  6
CONTINUOUS
  0
LAYER
  5
B1
330
2
100
AcDbSymbolTableRecord
100
AcDbLayerTableRecord
  2
120
 70
     0
 62
   120
  6
CONTINUOUS
  0
LAYER
  5
B2
330
2
100
AcDbSymbolTableRecord
100
AcDbLayerTableRecord
  2
121
 70
     0
 62
   121
  6
CONTINUOUS
  0
LAYER
  5
B3
330
2
100
AcDbSymbolTableRecord
100
AcDbLayerTableRecord
  2
122
 70
     0
 62
   122
  6
CONTINUOUS
  0
LAYER
  5
B4
330
2
100
AcDbSymbolTableRecord
100
AcDbLayerTableRecord
  2
123
 70
     0
 62
   123
  6
CONTINUOUS
  0
LAYER
  5
B5
330
2
100
AcDbSymbolTableRecord
100
AcDbLayerTableRecord
  2
124
 70
     0
 62
   124
  6
CONTINUOUS
  0
LAYER
  5
B6
330
2
100
AcDbSymbolTableRecord
100
AcDbLayerTableRecord
  2
125
 70
     0
 62
   125
  6
CONTINUOUS
  0
LAYER
  5
B7
330
2
100
AcDbSymbolTableRecord
100
AcDbLayerTableRecord
  2
126
 70
     0
 62
   126
  6
CONTINUOUS
  0
LAYER
  5
B8
330
2
100
AcDbSymbolTableRecord
100
AcDbLayerTableRecord
  2
127
 70
     0
 62
   127
  6
CONTINUOUS
  0
LAYER
  5
B9
330
2
100
AcDbSymbolTableRecord
100
AcDbLayerTableRecord
  2
128
 70
     0
 62
   128
  6
CONTINUOUS
  0
LAYER
  5
BA
330
2
100
AcDbSymbolTableRecord
100
AcDbLayerTableRecord
  2
129
 70
     0
 62
   129
  6
CONTINUOUS
  0
LAYER
  5
BB
330
2
100
AcDbSymbolTableRecord
100
AcDbLayerTableRecord
  2
130
 70
     0
 62
   130
  6
CONTINUOUS
  0
LAYER
  5
BC
330
2
100
AcDbSymbolTableRecord
100
AcDbLayerTableRecord
  2
131
 70
     0
 62
   131
  6
CONTINUOUS
  0
LAYER
  5
BD
330
2
100
AcDbSymbolTableRecord
100
AcDbLayerTableRecord
  2
132
 70
     0
 62
   132
  6
CONTINUOUS
  0
LAYER
  5
BE
330
2
100
AcDbSymbolTableRecord
100
AcDbLayerTableRecord
  2
133
 70
     0
 62
   133
  6
CONTINUOUS
  0
LAYER
  5
BF
330
2
100
AcDbSymbolTableRecord
100
AcDbLayerTableRecord
  2
134
 70
     0
 62
   134
  6
CONTINUOUS
  0
LAYER
  5
C0
330
2
100
AcDbSymbolTableRecord
100
AcDbLayerTableRecord
  2
135
 70
     0
 62
   135
  6
CONTINUOUS
  0
LAYER
  5
C1
330
2
100
AcDbSymbolTableRecord
100
AcDbLayerTableRecord
  2
136
 70
     0
 62
   136
  6
CONTINUOUS
  0
LAYER
  5
C2
330
2
100
AcDbSymbolTableRecord
100
AcDbLayerTableRecord
  2
137
 70
     0
 62
   137
  6
CONTINUOUS
  0
LAYER
  5
C3
330
2
100
AcDbSymbolTableRecord
100
AcDbLayerTableRecord
  2
138
 70
     0
 62
   138
  6
CONTINUOUS
  0
LAYER
  5
C4
330
2
100
AcDbSymbolTableRecord
100
AcDbLayerTableRecord
  2
139
 70
     0
 62
   139
  6
CONTINUOUS
  0
LAYER
  5
C5
330
2
100
AcDbSymbolTableRecord
100
AcDbLayerTableRecord
  2
140
 70
     0
 62
   140
  6
CONTINUOUS
  0
LAYER
  5
C6
330
2
100
AcDbSymbolTableRecord
100
AcDbLayerTableRecord
  2
141
 70
     0
 62
   141
  6
CONTINUOUS
  0
LAYER
  5
C7
330
2
100
AcDbSymbolTableRecord
100
AcDbLayerTableRecord
  2
142
 70
     0
 62
   142
  6
CONTINUOUS
  0
LAYER
  5
C8
330
2
100
AcDbSymbolTableRecord
100
AcDbLayerTableRecord
  2
143
 70
     0
 62
   143
  6
CONTINUOUS
  0
LAYER
  5
C9
330
2
100
AcDbSymbolTableRecord
100
AcDbLayerTableRecord
  2
144
 70
     0
 62
   144
  6
CONTINUOUS
  0
LAYER
  5
CA
330
2
100
AcDbSymbolTableRecord
100
AcDbLayerTableRecord
  2
145
 70
     0
 62
   145
  6
CONTINUOUS
  0
LAYER
  5
CB
330
2
100
AcDbSymbolTableRecord
100
AcDbLayerTableRecord
  2
146
 70
     0
 62
   146
  6
CONTINUOUS
  0
LAYER
  5
CC
330
2
100
AcDbSymbolTableRecord
100
AcDbLayerTableRecord
  2
147
 70
     0
 62
   147
  6
CONTINUOUS
  0
LAYER
  5
CD
330
2
100
AcDbSymbolTableRecord
100
AcDbLayerTableRecord
  2
148
 70
     0
 62
   148
  6
CONTINUOUS
  0
LAYER
  5
CE
330
2
100
AcDbSymbolTableRecord
100
AcDbLayerTableRecord
  2
149
 70
     0
 62
   149
  6
CONTINUOUS
  0
LAYER
  5
CF
330
2
100
AcDbSymbolTableRecord
100
AcDbLayerTableRecord
  2
150
 70
     0
 62
   150
  6
CONTINUOUS
  0
LAYER
  5
D0
330
2
100
AcDbSymbolTableRecord
100
AcDbLayerTableRecord
  2
151
 70
     0
 62
   151
  6
CONTINUOUS
  0
LAYER
  5
D1
330
2
100
AcDbSymbolTableRecord
100
AcDbLayerTableRecord
  2
152
 70
     0
 62
   152
  6
CONTINUOUS
  0
LAYER
  5
D2
330
2
100
AcDbSymbolTableRecord
100
AcDbLayerTableRecord
  2
153
 70
     0
 62
   153
  6
CONTINUOUS
  0
LAYER
  5
D3
330
2
100
AcDbSymbolTableRecord
100
AcDbLayerTableRecord
  2
154
 70
     0
 62
   154
  6
CONTINUOUS
  0
LAYER
  5
D4
330
2
100
AcDbSymbolTableRecord
100
AcDbLayerTableRecord
  2
155
 70
     0
 62
   155
  6
CONTINUOUS
  0
LAYER
  5
D5
330
2
100
AcDbSymbolTableRecord
100
AcDbLayerTableRecord
  2
156
 70
     0
 62
   156
  6
CONTINUOUS
  0
LAYER
  5
D6
330
2
100
AcDbSymbolTableRecord
100
AcDbLayerTableRecord
  2
157
 70
     0
 62
   157
  6
CONTINUOUS
  0
LAYER
  5
D7
330
2
100
AcDbSymbolTableRecord
100
AcDbLayerTableRecord
  2
158
 70
     0
 62
   158
  6
CONTINUOUS
  0
LAYER
  5
D8
330
2
100
AcDbSymbolTableRecord
100
AcDbLayerTableRecord
  2
159
 70
     0
 62
   159
  6
CONTINUOUS
  0
LAYER
  5
D9
330
2
100
AcDbSymbolTableRecord
100
AcDbLayerTableRecord
  2
160
 70
     0
 62
   160
  6
CONTINUOUS
  0
LAYER
  5
DA
330
2
100
AcDbSymbolTableRecord
100
AcDbLayerTableRecord
  2
161
 70
     0
 62
   161
  6
CONTINUOUS
  0
LAYER
  5
DB
330
2
100
AcDbSymbolTableRecord
100
AcDbLayerTableRecord
  2
162
 70
     0
 62
   162
  6
CONTINUOUS
  0
LAYER
  5
DC
330
2
100
AcDbSymbolTableRecord
100
AcDbLayerTableRecord
  2
163
 70
     0
 62
   163
  6
CONTINUOUS
  0
LAYER
  5
DD
330
2
100
AcDbSymbolTableRecord
100
AcDbLayerTableRecord
  2
164
 70
     0
 62
   164
  6
CONTINUOUS
  0
LAYER
  5
DE
330
2
100
AcDbSymbolTableRecord
100
AcDbLayerTableRecord
  2
165
 70
     0
 62
   165
  6
CONTINUOUS
  0
LAYER
  5
DF
330
2
100
AcDbSymbolTableRecord
100
AcDbLayerTableRecord
  2
166
 70
     0
 62
   166
  6
CONTINUOUS
  0
LAYER
  5
E0
330
2
100
AcDbSymbolTableRecord
100
AcDbLayerTableRecord
  2
167
 70
     0
 62
   167
  6
CONTINUOUS
  0
LAYER
  5
E1
330
2
100
AcDbSymbolTableRecord
100
AcDbLayerTableRecord
  2
168
 70
     0
 62
   168
  6
CONTINUOUS
  0
LAYER
  5
E2
330
2
100
AcDbSymbolTableRecord
100
AcDbLayerTableRecord
  2
169
 70
     0
 62
   169
  6
CONTINUOUS
  0
LAYER
  5
E3
330
2
100
AcDbSymbolTableRecord
100
AcDbLayerTableRecord
  2
170
 70
     0
 62
   170
  6
CONTINUOUS
  0
LAYER
  5
E4
330
2
100
AcDbSymbolTableRecord
100
AcDbLayerTableRecord
  2
171
 70
     0
 62
   171
  6
CONTINUOUS
  0
LAYER
  5
E5
330
2
100
AcDbSymbolTableRecord
100
AcDbLayerTableRecord
  2
172
 70
     0
 62
   172
  6
CONTINUOUS
  0
LAYER
  5
E6
330
2
100
AcDbSymbolTableRecord
100
AcDbLayerTableRecord
  2
173
 70
     0
 62
   173
  6
CONTINUOUS
  0
LAYER
  5
E7
330
2
100
AcDbSymbolTableRecord
100
AcDbLayerTableRecord
  2
174
 70
     0
 62
   174
  6
CONTINUOUS
  0
LAYER
  5
E8
330
2
100
AcDbSymbolTableRecord
100
AcDbLayerTableRecord
  2
175
 70
     0
 62
   175
  6
CONTINUOUS
  0
LAYER
  5
E9
330
2
100
AcDbSymbolTableRecord
100
AcDbLayerTableRecord
  2
176
 70
     0
 62
   176
  6
CONTINUOUS
  0
LAYER
  5
EA
330
2
100
AcDbSymbolTableRecord
100
AcDbLayerTableRecord
  2
177
 70
     0
 62
   177
  6
CONTINUOUS
  0
LAYER
  5
EB
330
2
100
AcDbSymbolTableRecord
100
AcDbLayerTableRecord
  2
178
 70
     0
 62
   178
  6
CONTINUOUS
  0
LAYER
  5
EC
330
2
100
AcDbSymbolTableRecord
100
AcDbLayerTableRecord
  2
179
 70
     0
 62
   179
  6
CONTINUOUS
  0
LAYER
  5
ED
330
2
100
AcDbSymbolTableRecord
100
AcDbLayerTableRecord
  2
180
 70
     0
 62
   180
  6
CONTINUOUS
  0
LAYER
  5
EE
330
2
100
AcDbSymbolTableRecord
100
AcDbLayerTableRecord
  2
181
 70
     0
 62
   181
  6
CONTINUOUS
  0
LAYER
  5
EF
330
2
100
AcDbSymbolTableRecord
100
AcDbLayerTableRecord
  2
182
 70
     0
 62
   182
  6
CONTINUOUS
  0
LAYER
  5
F0
330
2
100
AcDbSymbolTableRecord
100
AcDbLayerTableRecord
  2
183
 70
     0
 62
   183
  6
CONTINUOUS
  0
LAYER
  5
F1
330
2
100
AcDbSymbolTableRecord
100
AcDbLayerTableRecord
  2
184
 70
     0
 62
   184
  6
CONTINUOUS
  0
LAYER
  5
F2
330
2
100
AcDbSymbolTableRecord
100
AcDbLayerTableRecord
  2
185
 70
     0
 62
   185
  6
CONTINUOUS
  0
LAYER
  5
F3
330
2
100
AcDbSymbolTableRecord
100
AcDbLayerTableRecord
  2
186
 70
     0
 62
   186
  6
CONTINUOUS
  0
LAYER
  5
F4
330
2
100
AcDbSymbolTableRecord
100
AcDbLayerTableRecord
  2
187
 70
     0
 62
   187
  6
CONTINUOUS
  0
LAYER
  5
F5
330
2
100
AcDbSymbolTableRecord
100
AcDbLayerTableRecord
  2
188
 70
     0
 62
   188
  6
CONTINUOUS
  0
LAYER
  5
F6
330
2
100
AcDbSymbolTableRecord
100
AcDbLayerTableRecord
  2
189
 70
     0
 62
   189
  6
CONTINUOUS
  0
LAYER
  5
F7
330
2
100
AcDbSymbolTableRecord
100
AcDbLayerTableRecord
  2
190
 70
     0
 62
   190
  6
CONTINUOUS
  0
LAYER
  5
F8
330
2
100
AcDbSymbolTableRecord
100
AcDbLayerTableRecord
  2
191
 70
     0
 62
   191
  6
CONTINUOUS
  0
LAYER
  5
F9
330
2
100
AcDbSymbolTableRecord
100
AcDbLayerTableRecord
  2
192
 70
     0
 62
   192
  6
CONTINUOUS
  0
LAYER
  5
FA
330
2
100
AcDbSymbolTableRecord
100
AcDbLayerTableRecord
  2
193
 70
     0
 62
   193
  6
CONTINUOUS
  0
LAYER
  5
FB
330
2
100
AcDbSymbolTableRecord
100
AcDbLayerTableRecord
  2
194
 70
     0
 62
   194
  6
CONTINUOUS
  0
LAYER
  5
FC
330
2
100
AcDbSymbolTableRecord
100
AcDbLayerTableRecord
  2
195
 70
     0
 62
   195
  6
CONTINUOUS
  0
LAYER
  5
FD
330
2
100
AcDbSymbolTableRecord
100
AcDbLayerTableRecord
  2
196
 70
     0
 62
   196
  6
CONTINUOUS
  0
LAYER
  5
FE
330
2
100
AcDbSymbolTableRecord
100
AcDbLayerTableRecord
  2
197
 70
     0
 62
   197
  6
CONTINUOUS
  0
LAYER
  5
FF
330
2
100
AcDbSymbolTableRecord
100
AcDbLayerTableRecord
  2
198
 70
     0
 62
   198
  6
CONTINUOUS
  0
LAYER
  5
100
330
2
100
AcDbSymbolTableRecord
100
AcDbLayerTableRecord
  2
199
 70
     0
 62
   199
  6
CONTINUOUS
  0
LAYER
  5
101
330
2
100
AcDbSymbolTableRecord
100
AcDbLayerTableRecord
  2
200
 70
     0
 62
   200
  6
CONTINUOUS
  0
LAYER
  5
102
330
2
100
AcDbSymbolTableRecord
100
AcDbLayerTableRecord
  2
201
 70
     0
 62
   201
  6
CONTINUOUS
  0
LAYER
  5
103
330
2
100
AcDbSymbolTableRecord
100
AcDbLayerTableRecord
  2
202
 70
     0
 62
   202
  6
CONTINUOUS
  0
LAYER
  5
104
330
2
100
AcDbSymbolTableRecord
100
AcDbLayerTableRecord
  2
203
 70
     0
 62
   203
  6
CONTINUOUS
  0
LAYER
  5
105
330
2
100
AcDbSymbolTableRecord
100
AcDbLayerTableRecord
  2
204
 70
     0
 62
   204
  6
CONTINUOUS
  0
LAYER
  5
106
330
2
100
AcDbSymbolTableRecord
100
AcDbLayerTableRecord
  2
205
 70
     0
 62
   205
  6
CONTINUOUS
  0
LAYER
  5
107
330
2
100
AcDbSymbolTableRecord
100
AcDbLayerTableRecord
  2
206
 70
     0
 62
   206
  6
CONTINUOUS
  0
LAYER
  5
108
330
2
100
AcDbSymbolTableRecord
100
AcDbLayerTableRecord
  2
207
 70
     0
 62
   207
  6
CONTINUOUS
  0
LAYER
  5
109
330
2
100
AcDbSymbolTableRecord
100
AcDbLayerTableRecord
  2
208
 70
     0
 62
   208
  6
CONTINUOUS
  0
LAYER
  5
10A
330
2
100
AcDbSymbolTableRecord
100
AcDbLayerTableRecord
  2
209
 70
     0
 62
   209
  6
CONTINUOUS
  0
LAYER
  5
10B
330
2
100
AcDbSymbolTableRecord
100
AcDbLayerTableRecord
  2
210
 70
     0
 62
   210
  6
CONTINUOUS
  0
LAYER
  5
10C
330
2
100
AcDbSymbolTableRecord
100
AcDbLayerTableRecord
  2
211
 70
     0
 62
   211
  6
CONTINUOUS
  0
LAYER
  5
10D
330
2
100
AcDbSymbolTableRecord
100
AcDbLayerTableRecord
  2
212
 70
     0
 62
   212
  6
CONTINUOUS
  0
LAYER
  5
10E
330
2
100
AcDbSymbolTableRecord
100
AcDbLayerTableRecord
  2
213
 70
     0
 62
   213
  6
CONTINUOUS
  0
LAYER
  5
10F
330
2
100
AcDbSymbolTableRecord
100
AcDbLayerTableRecord
  2
214
 70
     0
 62
   214
  6
CONTINUOUS
  0
LAYER
  5
110
330
2
100
AcDbSymbolTableRecord
100
AcDbLayerTableRecord
  2
215
 70
     0
 62
   215
  6
CONTINUOUS
  0
LAYER
  5
111
330
2
100
AcDbSymbolTableRecord
100
AcDbLayerTableRecord
  2
216
 70
     0
 62
   216
  6
CONTINUOUS
  0
LAYER
  5
112
330
2
100
AcDbSymbolTableRecord
100
AcDbLayerTableRecord
  2
217
 70
     0
 62
   217
  6
CONTINUOUS
  0
LAYER
  5
113
330
2
100
AcDbSymbolTableRecord
100
AcDbLayerTableRecord
  2
218
 70
     0
 62
   218
  6
CONTINUOUS
  0
LAYER
  5
114
330
2
100
AcDbSymbolTableRecord
100
AcDbLayerTableRecord
  2
219
 70
     0
 62
   219
  6
CONTINUOUS
  0
LAYER
  5
115
330
2
100
AcDbSymbolTableRecord
100
AcDbLayerTableRecord
  2
220
 70
     0
 62
   220
  6
CONTINUOUS
  0
LAYER
  5
116
330
2
100
AcDbSymbolTableRecord
100
AcDbLayerTableRecord
  2
221
 70
     0
 62
   221
  6
CONTINUOUS
  0
LAYER
  5
117
330
2
100
AcDbSymbolTableRecord
100
AcDbLayerTableRecord
  2
222
 70
     0
 62
   222
  6
CONTINUOUS
  0
LAYER
  5
118
330
2
100
AcDbSymbolTableRecord
100
AcDbLayerTableRecord
  2
223
 70
     0
 62
   223
  6
CONTINUOUS
  0
LAYER
  5
119
330
2
100
AcDbSymbolTableRecord
100
AcDbLayerTableRecord
  2
224
 70
     0
 62
   224
  6
CONTINUOUS
  0
LAYER
  5
11A
330
2
100
AcDbSymbolTableRecord
100
AcDbLayerTableRecord
  2
225
 70
     0
 62
   225
  6
CONTINUOUS
  0
LAYER
  5
11B
330
2
100
AcDbSymbolTableRecord
100
AcDbLayerTableRecord
  2
226
 70
     0
 62
   226
  6
CONTINUOUS
  0
LAYER
  5
11C
330
2
100
AcDbSymbolTableRecord
100
AcDbLayerTableRecord
  2
227
 70
     0
 62
   227
  6
CONTINUOUS
  0
LAYER
  5
11D
330
2
100
AcDbSymbolTableRecord
100
AcDbLayerTableRecord
  2
228
 70
     0
 62
   228
  6
CONTINUOUS
  0
LAYER
  5
11E
330
2
100
AcDbSymbolTableRecord
100
AcDbLayerTableRecord
  2
229
 70
     0
 62
   229
  6
CONTINUOUS
  0
LAYER
  5
11F
330
2
100
AcDbSymbolTableRecord
100
AcDbLayerTableRecord
  2
230
 70
     0
 62
   230
  6
CONTINUOUS
  0
LAYER
  5
120
330
2
100
AcDbSymbolTableRecord
100
AcDbLayerTableRecord
  2
231
 70
     0
 62
   231
  6
CONTINUOUS
  0
LAYER
  5
121
330
2
100
AcDbSymbolTableRecord
100
AcDbLayerTableRecord
  2
232
 70
     0
 62
   232
  6
CONTINUOUS
  0
LAYER
  5
122
330
2
100
AcDbSymbolTableRecord
100
AcDbLayerTableRecord
  2
233
 70
     0
 62
   233
  6
CONTINUOUS
  0
LAYER
  5
123
330
2
100
AcDbSymbolTableRecord
100
AcDbLayerTableRecord
  2
234
 70
     0
 62
   234
  6
CONTINUOUS
  0
LAYER
  5
124
330
2
100
AcDbSymbolTableRecord
100
AcDbLayerTableRecord
  2
235
 70
     0
 62
   235
  6
CONTINUOUS
  0
LAYER
  5
125
330
2
100
AcDbSymbolTableRecord
100
AcDbLayerTableRecord
  2
236
 70
     0
 62
   236
  6
CONTINUOUS
  0
LAYER
  5
126
330
2
100
AcDbSymbolTableRecord
100
AcDbLayerTableRecord
  2
237
 70
     0
 62
   237
  6
CONTINUOUS
  0
LAYER
  5
127
330
2
100
AcDbSymbolTableRecord
100
AcDbLayerTableRecord
  2
238
 70
     0
 62
   238
  6
CONTINUOUS
  0
LAYER
  5
128
330
2
100
AcDbSymbolTableRecord
100
AcDbLayerTableRecord
  2
239
 70
     0
 62
   239
  6
CONTINUOUS
  0
LAYER
  5
129
330
2
100
AcDbSymbolTableRecord
100
AcDbLayerTableRecord
  2
240
 70
     0
 62
   240
  6
CONTINUOUS
  0
LAYER
  5
12A
330
2
100
AcDbSymbolTableRecord
100
AcDbLayerTableRecord
  2
241
 70
     0
 62
   241
  6
CONTINUOUS
  0
LAYER
  5
12B
330
2
100
AcDbSymbolTableRecord
100
AcDbLayerTableRecord
  2
242
 70
     0
 62
   242
  6
CONTINUOUS
  0
LAYER
  5
12C
330
2
100
AcDbSymbolTableRecord
100
AcDbLayerTableRecord
  2
243
 70
     0
 62
   243
  6
CONTINUOUS
  0
LAYER
  5
12D
330
2
100
AcDbSymbolTableRecord
100
AcDbLayerTableRecord
  2
244
 70
     0
 62
   244
  6
CONTINUOUS
  0
LAYER
  5
12E
330
2
100
AcDbSymbolTableRecord
100
AcDbLayerTableRecord
  2
245
 70
     0
 62
   245
  6
CONTINUOUS
  0
LAYER
  5
12F
330
2
100
AcDbSymbolTableRecord
100
AcDbLayerTableRecord
  2
246
 70
     0
 62
   246
  6
CONTINUOUS
  0
LAYER
  5
130
330
2
100
AcDbSymbolTableRecord
100
AcDbLayerTableRecord
  2
247
 70
     0
 62
   247
  6
CONTINUOUS
  0
LAYER
  5
131
330
2
100
AcDbSymbolTableRecord
100
AcDbLayerTableRecord
  2
248
 70
     0
 62
   248
  6
CONTINUOUS
  0
LAYER
  5
132
330
2
100
AcDbSymbolTableRecord
100
AcDbLayerTableRecord
  2
249
 70
     0
 62
   249
  6
CONTINUOUS
  0
LAYER
  5
133
330
2
100
AcDbSymbolTableRecord
100
AcDbLayerTableRecord
  2
250
 70
     0
 62
   250
  6
CONTINUOUS
  0
LAYER
  5
134
330
2
100
AcDbSymbolTableRecord
100
AcDbLayerTableRecord
  2
251
 70
     0
 62
   251
  6
CONTINUOUS
  0
LAYER
  5
135
330
2
100
AcDbSymbolTableRecord
100
AcDbLayerTableRecord
  2
252
 70
     0
 62
   252
  6
CONTINUOUS
  0
LAYER
  5
136
330
2
100
AcDbSymbolTableRecord
100
AcDbLayerTableRecord
  2
253
 70
     0
 62
   253
  6
CONTINUOUS
  0
LAYER
  5
137
330
2
100
AcDbSymbolTableRecord
100
AcDbLayerTableRecord
  2
254
 70
     0
 62
   254
  6
CONTINUOUS
  0
LAYER
  5
138
330
2
100
AcDbSymbolTableRecord
100
AcDbLayerTableRecord
  2
255
 70
     0
 62
   255
  6
CONTINUOUS
  0
ENDTAB
  0
TABLE
  2
STYLE
  5
3
330
0
100
AcDbSymbolTable
 70
     1
  0
STYLE
  5
11
330
3
100
AcDbSymbolTableRecord
100
AcDbTextStyleTableRecord
  2
STANDARD
 70
     0
 40
0.0
 41
1.0
 50
0.0
 71
     0
 42
0.2
  3
monotxt
  4

  0
ENDTAB
  0
TABLE
  2
VIEW
  5
6
330
0
100
AcDbSymbolTable
 70
     0
  0
ENDTAB
  0
TABLE
  2
UCS
  5
7
330
0
100
AcDbSymbolTable
 70
     0
  0
ENDTAB
  0
TABLE
  2
APPID
  5
9
330
0
100
AcDbSymbolTable
 70
     1
  0
APPID
  5
12
330
9
100
AcDbSymbolTableRecord
100
AcDbRegAppTableRecord
  2
ACAD
 70
     0
  0
ENDTAB
  0
TABLE
  2
DIMSTYLE
  5
A
330
0
100
AcDbSymbolTable
 70
     1
  0
DIMSTYLE
105
248F
330
A
100
AcDbSymbolTableRecord
100
AcDbDimStyleTableRecord
  2
STANDARD
 70
     0
  3

  4

  5

  6

  7

 40
1.0
 41
0.18
 42
0.0625
 43
0.38
 44
0.18
 45
0.0
 46
0.0
 47
0.0
 48
0.0
140
0.18
141
0.09
142
0.0
143
25.4
144
1.0
145
0.0
146
1.0
147
0.09
 71
     0
 72
     0
 73
     1
 74
     1
 75
     0
 76
     0
 77
     0
 78
     0
170
     0
171
     2
172
     0
173
     0
174
     0
175
     0
176
     0
177
     0
178
     0
270
     2
271
     4
272
     4
273
     2
274
     2
340
11
275
     0
280
     0
281
     0
282
     0
283
     1
284
     0
285
     0
286
     0
287
     3
288
     0
  0
ENDTAB
  0
TABLE
  2
BLOCK_RECORD
  5
1
330
0
100
AcDbSymbolTable
 70
     0
  0
BLOCK_RECORD
  5
1E
102
{ACAD_XDICTIONARY
360
2699
102
}
330
1
100
AcDbSymbolTableRecord
100
AcDbBlockTableRecord
  2
*MODEL_SPACE
  0
BLOCK_RECORD
  5
1A
102
{ACAD_XDICTIONARY
360
2697
102
}
330
1
100
AcDbSymbolTableRecord
100
AcDbBlockTableRecord
  2
*PAPER_SPACE
  0
ENDTAB
  0
ENDSEC
  0
SECTION
  2
BLOCKS
  0
BLOCK
  5
13B
330
1E
100
AcDbEntity
  8
0
100
AcDbBlockBegin
  2
*MODEL_SPACE
 70
     0
 10
0.0
 20
0.0
 30
0.0
  3
*MODEL_SPACE
  1

  0
ENDBLK
  5
13C
330
1E
100
AcDbEntity
  8
0
100
AcDbBlockEnd
  0
BLOCK
  5
139
330
1A
100
AcDbEntity
 67
     1
  8
0
100
AcDbBlockBegin
  2
*PAPER_SPACE
 70
     0
 10
0.0
 20
0.0
 30
0.0
  3
*PAPER_SPACE
  1

  0
ENDBLK
  5
13A
330
1A
100
AcDbEntity
 67
     1
  8
0
100
AcDbBlockEnd
  0
ENDSEC
  0
SECTION
  2
ENTITIES
  0
LINE
  5
2038
330
1E
100
AcDbEntity
  8
7
100
AcDbLine
 10
2.34065508034269
 20
4.33984764066159
 30
0.0
 11
2.34065508034269
 21
3.747937553752141
 31
0.0
  0
LINE
  5
2039
330
1E
100
AcDbEntity
  8
7
100
AcDbLine
 10
2.613743840086785
 20
3.857695715563164
 30
0.0
 11
2.702595685362376
 21
3.894281769500172
 31
0.0
  0
LINE
  5
203A
330
1E
100
AcDbEntity
  8
7
100
AcDbLine
 10
2.702595685362376
 20
4.070678815267889
 30
0.0
 11
2.684302658393872
 21
4.088971842236393
 31
0.0
  0
LINE
  5
203B
330
1E
100
AcDbEntity
  8
7
100
AcDbLine
 10
2.828033584574974
 20
4.040625985248204
 30
0.0
 11
2.79275417542143
 21
4.040625985248204
 31
0.0
  0
LINE
  5
203C
330
1E
100
AcDbEntity
  8
7
100
AcDbLine
 10
2.613743840086785
 20
4.115104737905685
 30
0.0
 11
2.684302658393872
 21
4.115104737905685
 31
0.0
  0
LINE
  5
203D
330
1E
100
AcDbEntity
  8
7
100
AcDbLine
 10
2.837180098059226
 20
4.0223329582797
 30
0.0
 11
2.828033584574974
 21
4.040625985248204
 31
0.0
  0
LINE
  5
203E
330
1E
100
AcDbEntity
  8
7
100
AcDbLine
 10
2.702595685362376
 20
4.167370529244267
 30
0.0
 11
2.684302658393872
 21
4.186970200996235
 31
0.0
  0
LINE
  5
203F
330
1E
100
AcDbEntity
  8
7
100
AcDbLine
 10
2.756168121484423
 20
4.031479471763951
 30
0.0
 11
2.774461148452926
 21
4.031479471763951
 31
0.0
  0
LINE
  5
2040
330
1E
100
AcDbEntity
  8
7
100
AcDbLine
 10
2.748328252783635
 20
3.827642885543479
 30
0.0
 11
2.766621279752139
 21
3.845935912511984
 31
0.0
  0
LINE
  5
2041
330
1E
100
AcDbEntity
  8
7
100
AcDbLine
 10
2.837180098059226
 20
4.138624344008047
 30
0.0
 11
2.79275417542143
 21
4.121637961823006
 31
0.0
  0
LINE
  5
2042
330
1E
100
AcDbEntity
  8
7
100
AcDbLine
 10
2.748328252783635
 20
4.121637961823006
 30
0.0
 11
2.756168121484423
 21
4.138624344008047
 31
0.0
  0
LINE
  5
2043
330
1E
100
AcDbEntity
  8
7
100
AcDbLine
 10
2.649023249240328
 20
3.796283410740329
 30
0.0
 11
2.658169762724581
 21
3.777990383771826
 31
0.0
  0
LINE
  5
2044
330
1E
100
AcDbEntity
  8
7
100
AcDbLine
 10
2.783607661937179
 20
3.970067166941118
 30
0.0
 11
2.748328252783635
 21
3.970067166941118
 31
0.0
  0
LINE
  5
204A
330
1E
100
AcDbEntity
  8
7
100
AcDbLine
 10
2.684302658393872
 20
4.186970200996235
 30
0.0
 11
2.613743840086785
 21
4.186970200996235
 31
0.0
  0
LINE
  5
204B
330
1E
100
AcDbEntity
  8
7
100
AcDbLine
 10
2.748328252783635
 20
3.792363476389936
 30
0.0
 11
2.748328252783635
 21
3.827642885543479
 31
0.0
  0
LINE
  5
204C
330
1E
100
AcDbEntity
  8
7
100
AcDbLine
 10
2.613743840086785
 20
4.239235992334818
 30
0.0
 11
2.613743840086785
 21
4.257529019303321
 31
0.0
  0
LINE
  5
204D
330
1E
100
AcDbEntity
  8
7
100
AcDbLine
 10
2.837180098059226
 20
4.218329675799386
 30
0.0
 11
2.837180098059226
 21
4.183050266645842
 31
0.0
  0
LINE
  5
204E
330
1E
100
AcDbEntity
  8
7
100
AcDbLine
 10
2.818887071090722
 20
4.166063884460802
 30
0.0
 11
2.766621279752139
 21
4.166063884460802
 31
0.0
  0
LINE
  5
204F
330
1E
100
AcDbEntity
  8
7
100
AcDbLine
 10
2.632036867055289
 20
4.088971842236393
 30
0.0
 11
2.613743840086785
 21
4.070678815267889
 31
0.0
  0
LINE
  5
2055
330
1E
100
AcDbEntity
  8
7
100
AcDbLine
 10
2.702595685362376
 20
3.920414665169463
 30
0.0
 11
2.613743840086785
 21
3.920414665169463
 31
0.0
  0
LINE
  5
2056
330
1E
100
AcDbEntity
  8
7
100
AcDbLine
 10
2.702595685362376
 20
4.132091120090723
 30
0.0
 11
2.702595685362376
 21
4.167370529244267
 31
0.0
  0
LINE
  5
2057
330
1E
100
AcDbEntity
  8
7
100
AcDbLine
 10
2.613743840086785
 20
4.018413023929306
 30
0.0
 11
2.702595685362376
 21
4.018413023929306
 31
0.0
  0
LINE
  5
2058
330
1E
100
AcDbEntity
  8
7
100
AcDbLine
 10
2.774461148452926
 20
4.031479471763951
 30
0.0
 11
2.783607661937179
 21
4.023639603063164
 31
0.0
  0
LINE
  5
2059
330
1E
100
AcDbEntity
  8
7
100
AcDbLine
 10
2.684302658393872
 20
4.115104737905685
 30
0.0
 11
2.702595685362376
 21
4.132091120090723
 31
0.0
  0
LINE
  5
205A
330
1E
100
AcDbEntity
  8
7
100
AcDbLine
 10
2.613743840086785
 20
4.248382505819069
 30
0.0
 11
2.702595685362376
 21
4.248382505819069
 31
0.0
  0
LINE
  5
205B
330
1E
100
AcDbEntity
  8
7
100
AcDbLine
 10
2.613743840086785
 20
4.346380864578912
 30
0.0
 11
2.702595685362376
 21
4.346380864578912
 31
0.0
  0
LINE
  5
205C
330
1E
100
AcDbEntity
  8
7
100
AcDbLine
 10
2.702595685362376
 20
3.82241630640962
 30
0.0
 11
2.613743840086785
 21
3.857695715563164
 31
0.0
  0
LINE
  5
205D
330
1E
100
AcDbEntity
  8
7
100
AcDbLine
 10
2.658169762724581
 20
3.840709333378125
 30
0.0
 11
2.658169762724581
 21
3.875988742531669
 31
0.0
  0
LINE
  5
205E
330
1E
100
AcDbEntity
  8
7
100
AcDbLine
 10
2.684302658393872
 20
4.088971842236393
 30
0.0
 11
2.632036867055289
 21
4.088971842236393
 31
0.0
  0
LINE
  5
205F
330
1E
100
AcDbEntity
  8
7
100
AcDbLine
 10
2.783607661937179
 20
4.138624344008047
 30
0.0
 11
2.79275417542143
 21
4.121637961823006
 31
0.0
  0
LINE
  5
2060
330
1E
100
AcDbEntity
  8
7
100
AcDbLine
 10
2.748328252783635
 20
3.970067166941118
 30
0.0
 11
2.748328252783635
 21
4.023639603063164
 31
0.0
  0
LINE
  5
2061
330
1E
100
AcDbEntity
  8
7
100
AcDbLine
 10
2.748328252783635
 20
4.183050266645842
 30
0.0
 11
2.748328252783635
 21
4.218329675799386
 31
0.0
  0
LINE
  5
2062
330
1E
100
AcDbEntity
  8
7
100
AcDbLine
 10
2.837180098059226
 20
4.287581849323007
 30
0.0
 11
2.837180098059226
 21
4.309794810641904
 31
0.0
  0
LINE
  5
2063
330
1E
100
AcDbEntity
  8
7
100
AcDbLine
 10
2.748328252783635
 20
4.298035007590724
 30
0.0
 11
2.837180098059226
 21
4.298035007590724
 31
0.0
  0
LINE
  5
2064
330
1E
100
AcDbEntity
  8
7
100
AcDbLine
 10
2.748328252783635
 20
3.943934271271826
 30
0.0
 11
2.837180098059226
 21
3.943934271271826
 31
0.0
  0
LINE
  5
2065
330
1E
100
AcDbEntity
  8
7
100
AcDbLine
 10
2.837180098059226
 20
3.872068808181275
 30
0.0
 11
2.748328252783635
 21
3.872068808181275
 31
0.0
  0
LINE
  5
2066
330
1E
100
AcDbEntity
  8
7
100
AcDbLine
 10
2.613743840086785
 20
4.381660273732455
 30
0.0
 11
2.613743840086785
 21
4.311101455425369
 31
0.0
  0
LINE
  5
2067
330
1E
100
AcDbEntity
  8
7
100
AcDbLine
 10
2.756168121484423
 20
4.291501783673401
 30
0.0
 11
2.748328252783635
 21
4.298035007590724
 31
0.0
  0
LINE
  5
2068
330
1E
100
AcDbEntity
  8
7
100
AcDbLine
 10
2.702595685362376
 20
4.239235992334818
 30
0.0
 11
2.702595685362376
 21
4.257529019303321
 31
0.0
  0
LINE
  5
2069
330
1E
100
AcDbEntity
  8
7
100
AcDbLine
 10
2.748328252783635
 20
4.023639603063164
 30
0.0
 11
2.756168121484423
 21
4.031479471763951
 31
0.0
  0
LINE
  5
206A
330
1E
100
AcDbEntity
  8
7
100
AcDbLine
 10
2.837180098059226
 20
4.06806552570096
 30
0.0
 11
2.748328252783635
 21
4.06806552570096
 31
0.0
  0
LINE
  5
206B
330
1E
100
AcDbEntity
  8
7
100
AcDbLine
 10
2.818887071090722
 20
3.775377094204896
 30
0.0
 11
2.766621279752139
 21
3.775377094204896
 31
0.0
  0
LINE
  5
206C
330
1E
100
AcDbEntity
  8
7
100
AcDbLine
 10
2.783607661937179
 20
3.970067166941118
 30
0.0
 11
2.837180098059226
 21
3.970067166941118
 31
0.0
  0
LINE
  5
206D
330
1E
100
AcDbEntity
  8
7
100
AcDbLine
 10
2.837180098059226
 20
3.907348217334818
 30
0.0
 11
2.748328252783635
 21
3.943934271271826
 31
0.0
  0
LINE
  5
206E
330
1E
100
AcDbEntity
  8
7
100
AcDbLine
 10
2.837180098059226
 20
4.183050266645842
 30
0.0
 11
2.818887071090722
 21
4.166063884460802
 31
0.0
  0
LINE
  5
206F
330
1E
100
AcDbEntity
  8
7
100
AcDbLine
 10
2.748328252783635
 20
4.06806552570096
 30
0.0
 11
2.748328252783635
 21
4.121637961823006
 31
0.0
  0
LINE
  5
2070
330
1E
100
AcDbEntity
  8
7
100
AcDbLine
 10
2.621583708787572
 20
3.796283410740329
 30
0.0
 11
2.649023249240328
 21
3.796283410740329
 31
0.0
  0
LINE
  5
2071
330
1E
100
AcDbEntity
  8
7
100
AcDbLine
 10
2.702595685362376
 20
4.018413023929306
 30
0.0
 11
2.702595685362376
 21
4.070678815267889
 31
0.0
  0
LINE
  5
2072
330
1E
100
AcDbEntity
  8
7
100
AcDbLine
 10
2.613743840086785
 20
4.070678815267889
 30
0.0
 11
2.613743840086785
 21
4.018413023929306
 31
0.0
  0
LINE
  5
2073
330
1E
100
AcDbEntity
  8
7
100
AcDbLine
 10
2.658169762724581
 20
3.777990383771826
 30
0.0
 11
2.658169762724581
 21
3.725724592433244
 31
0.0
  0
LINE
  5
2074
330
1E
100
AcDbEntity
  8
7
100
AcDbLine
 10
2.79275417542143
 20
4.121637961823006
 30
0.0
 11
2.79275417542143
 21
4.06806552570096
 31
0.0
  0
LINE
  5
2075
330
1E
100
AcDbEntity
  8
7
100
AcDbLine
 10
2.748328252783635
 20
4.218329675799386
 30
0.0
 11
2.766621279752139
 21
4.236622702767888
 31
0.0
  0
LINE
  5
2076
330
1E
100
AcDbEntity
  8
7
100
AcDbLine
 10
2.748328252783635
 20
3.872068808181275
 30
0.0
 11
2.837180098059226
 21
3.907348217334818
 31
0.0
  0
LINE
  5
2077
330
1E
100
AcDbEntity
  8
7
100
AcDbLine
 10
2.837180098059226
 20
3.827642885543479
 30
0.0
 11
2.837180098059226
 21
3.792363476389936
 31
0.0
  0
LINE
  5
2078
330
1E
100
AcDbEntity
  8
7
100
AcDbLine
 10
2.702595685362376
 20
3.99097348347655
 30
0.0
 11
2.613743840086785
 21
3.99097348347655
 31
0.0
  0
LINE
  5
2079
330
1E
100
AcDbEntity
  8
7
100
AcDbLine
 10
2.613743840086785
 20
3.920414665169463
 30
0.0
 11
2.702595685362376
 21
3.99097348347655
 31
0.0
  0
LINE
  5
207A
330
1E
100
AcDbEntity
  8
7
100
AcDbLine
 10
2.613743840086785
 20
3.777990383771826
 30
0.0
 11
2.621583708787572
 21
3.796283410740329
 31
0.0
  0
LINE
  5
207B
330
1E
100
AcDbEntity
  8
7
100
AcDbLine
 10
2.756168121484423
 20
4.138624344008047
 30
0.0
 11
2.783607661937179
 21
4.138624344008047
 31
0.0
  0
LINE
  5
207C
330
1E
100
AcDbEntity
  8
7
100
AcDbLine
 10
2.766621279752139
 20
4.166063884460802
 30
0.0
 11
2.748328252783635
 21
4.183050266645842
 31
0.0
  0
LINE
  5
207D
330
1E
100
AcDbEntity
  8
7
100
AcDbLine
 10
2.837180098059226
 20
3.970067166941118
 30
0.0
 11
2.837180098059226
 21
4.0223329582797
 31
0.0
  0
LINE
  5
207E
330
1E
100
AcDbEntity
  8
7
100
AcDbLine
 10
2.837180098059226
 20
3.792363476389936
 30
0.0
 11
2.818887071090722
 21
3.775377094204896
 31
0.0
  0
LINE
  5
207F
330
1E
100
AcDbEntity
  8
7
100
AcDbLine
 10
2.766621279752139
 20
3.775377094204896
 30
0.0
 11
2.748328252783635
 21
3.792363476389936
 31
0.0
  0
LINE
  5
2080
330
1E
100
AcDbEntity
  8
7
100
AcDbLine
 10
2.818887071090722
 20
3.844629267728518
 30
0.0
 11
2.837180098059226
 21
3.827642885543479
 31
0.0
  0
LINE
  5
2081
330
1E
100
AcDbEntity
  8
7
100
AcDbLine
 10
2.818887071090722
 20
4.235316057984425
 30
0.0
 11
2.837180098059226
 21
4.218329675799386
 31
0.0
  0
LINE
  5
20B3
330
1E
100
AcDbEntity
  8
7
100
AcDbLine
 10
3.008350564693085
 20
4.790640090956865
 30
0.0
 11
3.001817340775762
 21
4.797173314874187
 31
0.0
  0
LINE
  5
20C2
330
1E
100
AcDbEntity
  8
7
100
AcDbLine
 10
3.001817340775762
 20
4.535844358181275
 30
0.0
 11
3.008350564693085
 21
4.542377582098597
 31
0.0
  0
LINE
  5
20C3
330
1E
100
AcDbEntity
  8
7
100
AcDbLine
 10
3.001817340775762
 20
4.535844358181275
 30
0.0
 11
3.001817340775762
 21
3.551940836232455
 31
0.0
  0
LINE
  5
20C4
330
1E
100
AcDbEntity
  8
7
100
AcDbLine
 10
3.008350564693085
 20
3.546714257098598
 30
0.0
 11
3.001817340775762
 21
3.551940836232455
 31
0.0
  0
LINE
  5
20D6
330
1E
100
AcDbEntity
  8
7
100
AcDbLine
 10
3.001817340775762
 20
3.291918524323007
 30
0.0
 11
3.008350564693085
 21
3.297145103456865
 31
0.0
  0
LINE
  5
210C
330
1E
100
AcDbEntity
  8
7
100
AcDbLine
 10
3.001817340775762
 20
4.900398252767889
 30
0.0
 11
2.92733858811828
 21
4.900398252767889
 31
0.0
  0
LINE
  5
2116
330
1E
100
AcDbEntity
  8
7
100
AcDbLine
 10
2.918192074634029
 20
4.908238121468677
 30
0.0
 11
0.0239738792600148
 21
4.908238121468677
 31
0.0
  0
LINE
  5
2117
330
1E
100
AcDbEntity
  8
7
100
AcDbLine
 10
3.001817340775762
 20
3.188693586429306
 30
0.0
 11
2.92733858811828
 21
3.188693586429306
 31
0.0
  0
LINE
  5
2118
330
1E
100
AcDbEntity
  8
7
100
AcDbLine
 10
2.918192074634029
 20
3.179547072945053
 30
0.0
 11
0.0239738792600148
 21
3.179547072945053
 31
0.0
  0
LINE
  5
2119
330
1E
100
AcDbEntity
  8
7
100
AcDbLine
 10
0.0148273657757621
 20
3.17562713859466
 30
0.0
 11
0.0239738792600148
 21
3.179547072945053
 31
0.0
  0
LINE
  5
211A
330
1E
100
AcDbEntity
  8
7
100
AcDbLine
 10
0.0814662497324559
 20
3.17562713859466
 30
0.0
 11
0.0148273657757621
 21
3.17562713859466
 31
0.0
  0
LINE
  5
211B
330
1E
100
AcDbEntity
  8
7
100
AcDbLine
 10
2.349801593826943
 20
3.17562713859466
 30
0.0
 11
0.0814662497324559
 21
3.17562713859466
 31
0.0
  0
LINE
  5
211C
330
1E
100
AcDbEntity
  8
7
100
AcDbLine
 10
2.4177471225671
 20
3.17562713859466
 30
0.0
 11
2.349801593826943
 21
3.17562713859466
 31
0.0
  0
LINE
  5
211D
330
1E
100
AcDbEntity
  8
7
100
AcDbLine
 10
2.914272140283635
 20
3.17562713859466
 30
0.0
 11
2.4177471225671
 21
3.17562713859466
 31
0.0
  0
LINE
  5
211E
330
1E
100
AcDbEntity
  8
7
100
AcDbLine
 10
3.014883788610407
 20
3.17562713859466
 30
0.0
 11
2.914272140283635
 21
3.17562713859466
 31
0.0
  0
LINE
  5
211F
330
1E
100
AcDbEntity
  8
7
100
AcDbLine
 10
0.0239738792600148
 20
4.121637961823006
 30
0.0
 11
0.0357336823111956
 21
4.116411382689149
 31
0.0
  0
LINE
  5
2176
330
1E
100
AcDbEntity
  8
7
100
AcDbLine
 10
0.0906127632167069
 20
3.971373811724582
 30
0.0
 11
0.0906127632167069
 21
3.747937553752141
 31
0.0
  0
LINE
  5
2177
330
1E
100
AcDbEntity
  8
7
100
AcDbLine
 10
0.0906127632167069
 20
4.33984764066159
 30
0.0
 11
0.0906127632167069
 21
4.116411382689149
 31
0.0
  0
LINE
  5
2178
330
1E
100
AcDbEntity
  8
7
100
AcDbLine
 10
2.92733858811828
 20
4.797173314874187
 30
0.0
 11
3.001817340775762
 21
4.797173314874187
 31
0.0
  0
LINE
  5
2179
330
1E
100
AcDbEntity
  8
7
100
AcDbLine
 10
3.008350564693085
 20
4.790640090956865
 30
0.0
 11
2.922112008984423
 21
4.790640090956865
 31
0.0
  0
LINE
  5
217A
330
1E
100
AcDbEntity
  8
7
100
AcDbLine
 10
3.001817340775762
 20
4.535844358181275
 30
0.0
 11
2.92733858811828
 21
4.535844358181275
 31
0.0
  0
LINE
  5
217B
330
1E
100
AcDbEntity
  8
7
100
AcDbLine
 10
3.008350564693085
 20
4.542377582098597
 30
0.0
 11
2.922112008984423
 21
4.542377582098597
 31
0.0
  0
LINE
  5
217C
330
1E
100
AcDbEntity
  8
7
100
AcDbLine
 10
3.001817340775762
 20
3.291918524323007
 30
0.0
 11
2.92733858811828
 21
3.291918524323007
 31
0.0
  0
LINE
  5
217D
330
1E
100
AcDbEntity
  8
7
100
AcDbLine
 10
3.008350564693085
 20
3.297145103456865
 30
0.0
 11
2.922112008984423
 21
3.297145103456865
 31
0.0
  0
LINE
  5
217E
330
1E
100
AcDbEntity
  8
7
100
AcDbLine
 10
2.92733858811828
 20
3.551940836232455
 30
0.0
 11
3.001817340775762
 21
3.551940836232455
 31
0.0
  0
LINE
  5
217F
330
1E
100
AcDbEntity
  8
7
100
AcDbLine
 10
3.008350564693085
 20
3.546714257098598
 30
0.0
 11
2.922112008984423
 21
3.546714257098598
 31
0.0
  0
LINE
  5
2189
330
1E
100
AcDbEntity
  8
3
100
AcDbLine
 10
2.514438836543478
 20
4.343767575011984
 30
0.0
 11
2.514438836543478
 21
3.745324264185211
 31
0.0
  0
LINE
  5
2193
330
1E
100
AcDbEntity
  8
7
100
AcDbLine
 10
2.34065508034269
 20
4.33984764066159
 30
0.0
 11
0.0906127632167069
 21
4.33984764066159
 31
0.0
  0
LINE
  5
2194
330
1E
100
AcDbEntity
  8
7
100
AcDbLine
 10
0.0906127632167069
 20
3.747937553752141
 30
0.0
 11
2.34065508034269
 21
3.747937553752141
 31
0.0
  0
LINE
  5
2195
330
1E
100
AcDbEntity
  8
3
100
AcDbLine
 10
0.1010659214844232
 20
4.44307257855529
 30
0.0
 11
0.030507103177337
 21
4.44307257855529
 31
0.0
  0
LINE
  5
2196
330
1E
100
AcDbEntity
  8
7
100
AcDbLine
 10
0.0357336823111956
 20
4.419552972452928
 30
0.0
 11
2.924725298551352
 21
4.419552972452928
 31
0.0
  0
LINE
  5
2197
330
1E
100
AcDbEntity
  8
7
100
AcDbLine
 10
0.1010659214844232
 20
4.842905882295448
 30
0.0
 11
2.9155787850671
 21
4.842905882295448
 31
0.0
  0
LINE
  5
2198
330
1E
100
AcDbEntity
  8
7
100
AcDbLine
 10
2.118525467153714
 20
4.639069296074976
 30
0.0
 11
0.1010659214844232
 21
4.639069296074976
 31
0.0
  0
LINE
  5
2199
330
1E
100
AcDbEntity
  8
7
100
AcDbLine
 10
2.07148625494899
 20
4.578963636035605
 30
0.0
 11
2.118525467153714
 21
4.639069296074976
 31
0.0
  0
LINE
  5
219A
330
1E
100
AcDbEntity
  8
7
100
AcDbLine
 10
0.1010659214844232
 20
4.578963636035605
 30
0.0
 11
2.07148625494899
 21
4.578963636035605
 31
0.0
  0
LINE
  5
219B
330
1E
100
AcDbEntity
  8
3
100
AcDbLine
 10
0.030507103177337
 20
3.64471261585844
 30
0.0
 11
0.1010659214844232
 21
3.64471261585844
 31
0.0
  0
LINE
  5
219C
330
1E
100
AcDbEntity
  8
7
100
AcDbLine
 10
2.07148625494899
 20
3.508821558378126
 30
0.0
 11
0.1010659214844232
 21
3.508821558378126
 31
0.0
  0
LINE
  5
219D
330
1E
100
AcDbEntity
  8
7
100
AcDbLine
 10
2.118525467153714
 20
3.448715898338755
 30
0.0
 11
2.07148625494899
 21
3.508821558378126
 31
0.0
  0
LINE
  5
219E
330
1E
100
AcDbEntity
  8
7
100
AcDbLine
 10
0.1010659214844232
 20
3.448715898338755
 30
0.0
 11
2.118525467153714
 21
3.448715898338755
 31
0.0
  0
LINE
  5
219F
330
1E
100
AcDbEntity
  8
7
100
AcDbLine
 10
2.9155787850671
 20
3.244879312118283
 30
0.0
 11
0.1010659214844232
 21
3.244879312118283
 31
0.0
  0
LINE
  5
21A0
330
1E
100
AcDbEntity
  8
7
100
AcDbLine
 10
2.924725298551352
 20
3.668232221960802
 30
0.0
 11
0.0357336823111956
 21
3.668232221960802
 31
0.0
  0
LINE
  5
21A1
330
1E
100
AcDbEntity
  8
7
100
AcDbLine
 10
0.0357336823111956
 20
3.971373811724582
 30
0.0
 11
0.0906127632167069
 21
3.971373811724582
 31
0.0
  0
LINE
  5
21A2
330
1E
100
AcDbEntity
  8
7
100
AcDbLine
 10
0.0906127632167069
 20
4.116411382689149
 30
0.0
 11
0.0357336823111956
 21
4.116411382689149
 31
0.0
  0
LINE
  5
21A3
330
1E
100
AcDbEntity
  8
7
100
AcDbLine
 10
2.918192074634029
 20
4.845519171862376
 30
0.0
 11
0.1010659214844232
 21
4.845519171862376
 31
0.0
  0
LINE
  5
21A4
330
1E
100
AcDbEntity
  8
3
100
AcDbLine
 10
0.0239738792600148
 20
4.680881929145842
 30
0.0
 11
0.1010659214844232
 21
4.680881929145842
 31
0.0
  0
LINE
  5
21A5
330
1E
100
AcDbEntity
  8
7
100
AcDbLine
 10
0.1010659214844232
 20
4.845519171862376
 30
0.0
 11
0.1010659214844232
 21
4.680881929145842
 31
0.0
  0
LINE
  5
21A6
330
1E
100
AcDbEntity
  8
7
100
AcDbLine
 10
2.918192074634029
 20
3.242266022551353
 30
0.0
 11
0.1010659214844232
 21
3.242266022551353
 31
0.0
  0
LINE
  5
21A7
330
1E
100
AcDbEntity
  8
7
100
AcDbLine
 10
0.1010659214844232
 20
3.408209910051353
 30
0.0
 11
0.1010659214844232
 21
3.242266022551353
 31
0.0
  0
LINE
  5
21A8
330
1E
100
AcDbEntity
  8
3
100
AcDbLine
 10
0.1010659214844232
 20
3.408209910051353
 30
0.0
 11
0.0239738792600148
 21
3.408209910051353
 31
0.0
  0
LINE
  5
21A9
330
1E
100
AcDbEntity
  8
7
100
AcDbLine
 10
2.011380594909619
 20
4.580270280819069
 30
0.0
 11
2.07148625494899
 21
4.578963636035605
 31
0.0
  0
LINE
  5
21AA
330
1E
100
AcDbEntity
  8
7
100
AcDbLine
 10
2.011380594909619
 20
4.580270280819069
 30
0.0
 11
0.1010659214844232
 21
4.580270280819069
 31
0.0
  0
LINE
  5
21AB
330
1E
100
AcDbEntity
  8
7
100
AcDbLine
 10
0.1010659214844232
 20
4.63776265129151
 30
0.0
 11
2.028366977094659
 21
4.63776265129151
 31
0.0
  0
LINE
  5
21B1
330
1E
100
AcDbEntity
  8
7
100
AcDbLine
 10
2.028366977094659
 20
3.451329187905685
 30
0.0
 11
2.118525467153714
 21
3.448715898338755
 31
0.0
  0
LINE
  5
21B2
330
1E
100
AcDbEntity
  8
7
100
AcDbLine
 10
2.028366977094659
 20
3.451329187905685
 30
0.0
 11
0.1010659214844232
 21
3.451329187905685
 31
0.0
  0
LINE
  5
21B3
330
1E
100
AcDbEntity
  8
7
100
AcDbLine
 10
0.1010659214844232
 20
3.507514913594659
 30
0.0
 11
2.011380594909619
 21
3.507514913594659
 31
0.0
  0
LINE
  5
21D1
330
1E
100
AcDbEntity
  8
7
100
AcDbLine
 10
2.514438836543478
 20
3.745324264185211
 30
0.0
 11
0.087999473649778
 21
3.745324264185211
 31
0.0
  0
LINE
  5
21D2
330
1E
100
AcDbEntity
  8
7
100
AcDbLine
 10
0.087999473649778
 20
3.797590055523794
 30
0.0
 11
0.087999473649778
 21
3.745324264185211
 31
0.0
  0
LINE
  5
21D3
330
1E
100
AcDbEntity
  8
3
100
AcDbLine
 10
0.0409602614450542
 20
3.797590055523794
 30
0.0
 11
0.087999473649778
 21
3.797590055523794
 31
0.0
  0
LINE
  5
21D4
330
1E
100
AcDbEntity
  8
7
100
AcDbLine
 10
2.92733858811828
 20
3.670845511527732
 30
0.0
 11
0.0409602614450542
 21
3.670845511527732
 31
0.0
  0
LINE
  5
21D5
330
1E
100
AcDbEntity
  8
7
100
AcDbLine
 10
2.92733858811828
 20
4.416939682885999
 30
0.0
 11
0.0409602614450542
 21
4.416939682885999
 31
0.0
  0
LINE
  5
21D6
330
1E
100
AcDbEntity
  8
3
100
AcDbLine
 10
0.087999473649778
 20
4.290195138889935
 30
0.0
 11
0.0409602614450542
 21
4.290195138889935
 31
0.0
  0
LINE
  5
21D7
330
1E
100
AcDbEntity
  8
7
100
AcDbLine
 10
0.087999473649778
 20
4.343767575011984
 30
0.0
 11
0.087999473649778
 21
4.290195138889935
 31
0.0
  0
LINE
  5
21D8
330
1E
100
AcDbEntity
  8
7
100
AcDbLine
 10
2.514438836543478
 20
4.343767575011984
 30
0.0
 11
0.087999473649778
 21
4.343767575011984
 31
0.0
  0
LINE
  5
21E2
330
1E
100
AcDbEntity
  8
7
100
AcDbLine
 10
0.0906127632167069
 20
3.747937553752141
 30
0.0
 11
0.087999473649778
 21
3.745324264185211
 31
0.0
  0
LINE
  5
21EC
330
1E
100
AcDbEntity
  8
7
100
AcDbLine
 10
0.087999473649778
 20
4.343767575011984
 30
0.0
 11
0.0906127632167069
 21
4.33984764066159
 31
0.0
  0
LINE
  5
23C7
330
1E
100
AcDbEntity
  8
7
100
AcDbLine
 10
-1.548184785125225
 20
3.859002360346629
 30
0.0
 11
-1.548184785125225
 21
3.894281769500173
 31
0.0
  0
LINE
  5
23C8
330
1E
100
AcDbEntity
  8
7
100
AcDbLine
 10
-1.548184785125225
 20
4.070678815267889
 30
0.0
 11
-1.548184785125225
 21
4.088971842236392
 31
0.0
  0
LINE
  5
23C9
330
1E
100
AcDbEntity
  8
7
100
AcDbLine
 10
-1.548184785125225
 20
4.022332958279699
 30
0.0
 11
-1.548184785125225
 21
4.040625985248204
 31
0.0
  0
LINE
  5
23CA
330
1E
100
AcDbEntity
  8
7
100
AcDbLine
 10
-1.548184785125225
 20
4.168677174027732
 30
0.0
 11
-1.548184785125225
 21
4.186970200996235
 31
0.0
  0
LINE
  5
23CB
330
1E
100
AcDbEntity
  8
7
100
AcDbLine
 10
-1.548184785125225
 20
3.828949530326943
 30
0.0
 11
-1.548184785125225
 21
3.845935912511983
 31
0.0
  0
LINE
  5
23D1
330
1E
100
AcDbEntity
  8
7
100
AcDbLine
 10
-1.548184785125225
 20
3.79628341074033
 30
0.0
 11
-1.548184785125225
 21
3.777990383771825
 31
0.0
  0
LINE
  5
23D7
330
1E
100
AcDbEntity
  8
7
100
AcDbLine
 10
-1.548184785125225
 20
3.792363476389936
 30
0.0
 11
-1.548184785125225
 21
3.828949530326943
 31
0.0
  0
LINE
  5
23D8
330
1E
100
AcDbEntity
  8
7
100
AcDbLine
 10
-1.548184785125225
 20
4.239235992334818
 30
0.0
 11
-1.548184785125225
 21
4.257529019303322
 31
0.0
  0
LINE
  5
23D9
330
1E
100
AcDbEntity
  8
7
100
AcDbLine
 10
-1.548184785125225
 20
4.218329675799385
 30
0.0
 11
-1.548184785125225
 21
4.183050266645842
 31
0.0
  0
LINE
  5
23DA
330
1E
100
AcDbEntity
  8
7
100
AcDbLine
 10
-1.548184785125225
 20
4.088971842236392
 30
0.0
 11
-1.548184785125225
 21
4.070678815267889
 31
0.0
  0
LINE
  5
23DB
330
1E
100
AcDbEntity
  8
7
100
AcDbLine
 10
-1.548184785125225
 20
3.725724592433243
 30
0.0
 11
-1.548184785125225
 21
3.777990383771825
 31
0.0
  0
LINE
  5
23DC
330
1E
100
AcDbEntity
  8
7
100
AcDbLine
 10
-1.548184785125225
 20
4.132091120090724
 30
0.0
 11
-1.548184785125225
 21
4.168677174027732
 31
0.0
  0
LINE
  5
23DD
330
1E
100
AcDbEntity
  8
7
100
AcDbLine
 10
-1.548184785125225
 20
4.031479471763952
 30
0.0
 11
-1.548184785125225
 21
4.023639603063165
 31
0.0
  0
LINE
  5
23DE
330
1E
100
AcDbEntity
  8
7
100
AcDbLine
 10
-1.548184785125225
 20
4.116411382689149
 30
0.0
 11
-1.548184785125225
 21
4.132091120090724
 31
0.0
  0
LINE
  5
23DF
330
1E
100
AcDbEntity
  8
7
100
AcDbLine
 10
-1.548184785125225
 20
3.822416306409621
 30
0.0
 11
-1.548184785125225
 21
3.859002360346629
 31
0.0
  0
LINE
  5
23E0
330
1E
100
AcDbEntity
  8
7
100
AcDbLine
 10
-1.548184785125225
 20
3.840709333378124
 30
0.0
 11
-1.548184785125225
 21
3.875988742531668
 31
0.0
  0
LINE
  5
23E1
330
1E
100
AcDbEntity
  8
7
100
AcDbLine
 10
-1.548184785125225
 20
4.138624344008047
 30
0.0
 11
-1.548184785125225
 21
4.121637961823007
 31
0.0
  0
LINE
  5
23E2
330
1E
100
AcDbEntity
  8
7
100
AcDbLine
 10
-1.548184785125225
 20
3.970067166941117
 30
0.0
 11
-1.548184785125225
 21
4.023639603063165
 31
0.0
  0
LINE
  5
23E3
330
1E
100
AcDbEntity
  8
7
100
AcDbLine
 10
-1.548184785125225
 20
4.183050266645842
 30
0.0
 11
-1.548184785125225
 21
4.218329675799385
 31
0.0
  0
LINE
  5
23E4
330
1E
100
AcDbEntity
  8
7
100
AcDbLine
 10
-1.548184785125225
 20
4.287581849323007
 30
0.0
 11
-1.548184785125225
 21
4.309794810641904
 31
0.0
  0
LINE
  5
23E5
330
1E
100
AcDbEntity
  8
7
100
AcDbLine
 10
-1.548184785125225
 20
4.381660273732456
 30
0.0
 11
-1.548184785125225
 21
4.311101455425369
 31
0.0
  0
LINE
  5
23E6
330
1E
100
AcDbEntity
  8
7
100
AcDbLine
 10
-1.548184785125225
 20
4.291501783673401
 30
0.0
 11
-1.548184785125225
 21
4.299341652374188
 31
0.0
  0
LINE
  5
23E7
330
1E
100
AcDbEntity
  8
7
100
AcDbLine
 10
-1.548184785125225
 20
4.239235992334818
 30
0.0
 11
-1.548184785125225
 21
4.257529019303322
 31
0.0
  0
LINE
  5
23E8
330
1E
100
AcDbEntity
  8
7
100
AcDbLine
 10
-1.548184785125225
 20
4.023639603063165
 30
0.0
 11
-1.548184785125225
 21
4.031479471763952
 31
0.0
  0
LINE
  5
23E9
330
1E
100
AcDbEntity
  8
7
100
AcDbLine
 10
-1.548184785125225
 20
3.908654862118283
 30
0.0
 11
-1.548184785125225
 21
3.943934271271825
 31
0.0
  0
LINE
  5
23EA
330
1E
100
AcDbEntity
  8
7
100
AcDbLine
 10
-1.548184785125225
 20
4.183050266645842
 30
0.0
 11
-1.548184785125225
 21
4.166063884460802
 31
0.0
  0
LINE
  5
23EB
330
1E
100
AcDbEntity
  8
7
100
AcDbLine
 10
-1.548184785125225
 20
4.068065525700959
 30
0.0
 11
-1.548184785125225
 21
4.121637961823007
 31
0.0
  0
LINE
  5
23F1
330
1E
100
AcDbEntity
  8
7
100
AcDbLine
 10
-1.548184785125225
 20
3.777990383771825
 30
0.0
 11
-1.548184785125225
 21
3.725724592433243
 31
0.0
  0
LINE
  5
23F2
330
1E
100
AcDbEntity
  8
7
100
AcDbLine
 10
-1.548184785125225
 20
4.121637961823007
 30
0.0
 11
-1.548184785125225
 21
4.068065525700959
 31
0.0
  0
LINE
  5
23F3
330
1E
100
AcDbEntity
  8
7
100
AcDbLine
 10
-1.548184785125225
 20
4.218329675799385
 30
0.0
 11
-1.548184785125225
 21
4.236622702767889
 31
0.0
  0
LINE
  5
23F4
330
1E
100
AcDbEntity
  8
7
100
AcDbLine
 10
-1.548184785125225
 20
3.873375452964739
 30
0.0
 11
-1.548184785125225
 21
3.908654862118283
 31
0.0
  0
LINE
  5
23F5
330
1E
100
AcDbEntity
  8
7
100
AcDbLine
 10
-1.548184785125225
 20
3.82764288554348
 30
0.0
 11
-1.548184785125225
 21
3.792363476389936
 31
0.0
  0
LINE
  5
23F6
330
1E
100
AcDbEntity
  8
7
100
AcDbLine
 10
-1.548184785125225
 20
3.920414665169464
 30
0.0
 11
-1.548184785125225
 21
3.99097348347655
 31
0.0
  0
LINE
  5
23F7
330
1E
100
AcDbEntity
  8
7
100
AcDbLine
 10
-1.548184785125225
 20
3.777990383771825
 30
0.0
 11
-1.548184785125225
 21
3.79628341074033
 31
0.0
  0
LINE
  5
23F8
330
1E
100
AcDbEntity
  8
7
100
AcDbLine
 10
-1.548184785125225
 20
4.166063884460802
 30
0.0
 11
-1.548184785125225
 21
4.183050266645842
 31
0.0
  0
LINE
  5
23F9
330
1E
100
AcDbEntity
  8
7
100
AcDbLine
 10
-1.548184785125225
 20
3.970067166941117
 30
0.0
 11
-1.548184785125225
 21
4.022332958279699
 31
0.0
  0
LINE
  5
23FF
330
1E
100
AcDbEntity
  8
7
100
AcDbLine
 10
-1.548184785125225
 20
3.844629267728518
 30
0.0
 11
-1.548184785125225
 21
3.82764288554348
 31
0.0
  0
LINE
  5
2400
330
1E
100
AcDbEntity
  8
7
100
AcDbLine
 10
-1.548184785125225
 20
4.235316057984425
 30
0.0
 11
-1.548184785125225
 21
4.218329675799385
 31
0.0
  0
LINE
  5
2415
330
1E
100
AcDbEntity
  8
7
100
AcDbLine
 10
-1.881379204908689
 20
3.546714257098598
 30
0.0
 11
-1.548184785125225
 21
3.551940836232456
 31
0.0
  0
LINE
  5
2416
330
1E
100
AcDbEntity
  8
7
100
AcDbLine
 10
-1.548184785125225
 20
3.551940836232456
 30
0.0
 11
-1.548184785125225
 21
3.672152156311196
 31
0.0
  0
LINE
  5
2433
330
1E
100
AcDbEntity
  8
7
100
AcDbLine
 10
-2.294278956483491
 20
4.913464700602534
 30
0.0
 11
-2.046016447625224
 21
4.908238121468676
 31
0.0
  0
LINE
  5
2434
330
1E
100
AcDbEntity
  8
7
100
AcDbLine
 10
-2.294278956483491
 20
3.17562713859466
 30
0.0
 11
-2.046016447625224
 21
3.179547072945054
 31
0.0
  0
LINE
  5
2435
330
1E
100
AcDbEntity
  8
7
100
AcDbLine
 10
-2.049936381975618
 20
4.122944606606472
 30
0.0
 11
-1.721968541326012
 21
4.116411382689149
 31
0.0
  0
LINE
  5
2472
330
1E
100
AcDbEntity
  8
7
100
AcDbLine
 10
-1.721968541326012
 20
3.972680456508046
 30
0.0
 11
-2.049936381975618
 21
3.966147232590723
 31
0.0
  0
LINE
  5
248C
330
1E
100
AcDbEntity
  8
7
100
AcDbLine
 10
-1.548184785125225
 20
4.290195138889936
 30
0.0
 11
-1.548184785125225
 21
3.797590055523794
 31
0.0
  0
LINE
  5
248D
330
1E
100
AcDbEntity
  8
3
100
AcDbLine
 10
-1.724581830892941
 20
3.972680456508046
 30
0.0
 11
-1.724581830892941
 21
4.116411382689149
 31
0.0
  0
LINE
  5
248E
330
1E
100
AcDbEntity
  8
7
100
AcDbLine
 10
-2.294278956483491
 20
4.37120711546474
 30
0.0
 11
-2.294278956483491
 21
3.717884723732456
 31
0.0
  0
LINE
  5
249D
330
1E
100
AcDbEntity
  8
7
100
AcDbLine
 10
0.0239738792600148
 20
3.179547072945053
 30
0.0
 11
0.0239738792600148
 21
3.408209910051353
 31
0.0
  0
LINE
  5
249E
330
1E
100
AcDbEntity
  8
7
100
AcDbLine
 10
0.0239738792600148
 20
3.408209910051353
 30
0.0
 11
0.0239738792600148
 21
3.459169056606471
 31
0.0
  0
LINE
  5
249F
330
1E
100
AcDbEntity
  8
7
100
AcDbLine
 10
0.0239738792600148
 20
3.459169056606471
 30
0.0
 11
0.0252805240434793
 21
3.508821558378126
 31
0.0
  0
LINE
  5
24A0
330
1E
100
AcDbEntity
  8
7
100
AcDbLine
 10
0.0252805240434793
 20
3.508821558378126
 30
0.0
 11
0.0252805240434793
 21
3.554554125799385
 31
0.0
  0
LINE
  5
24A1
330
1E
100
AcDbEntity
  8
7
100
AcDbLine
 10
0.0252805240434793
 20
3.554554125799385
 30
0.0
 11
0.0265871688269437
 21
3.592446824519857
 31
0.0
  0
LINE
  5
24A2
330
1E
100
AcDbEntity
  8
7
100
AcDbLine
 10
0.0265871688269437
 20
3.592446824519857
 30
0.0
 11
0.0278938136104072
 21
3.623806299323007
 31
0.0
  0
LINE
  5
24A3
330
1E
100
AcDbEntity
  8
7
100
AcDbLine
 10
0.0278938136104072
 20
3.623806299323007
 30
0.0
 11
0.030507103177337
 21
3.64471261585844
 31
0.0
  0
LINE
  5
24A4
330
1E
100
AcDbEntity
  8
7
100
AcDbLine
 10
0.0161340105592265
 20
3.85377578121277
 30
0.0
 11
0.0161340105592265
 21
3.811963148141904
 31
0.0
  0
LINE
  5
24A5
330
1E
100
AcDbEntity
  8
7
100
AcDbLine
 10
0.0161340105592265
 20
3.811963148141904
 30
0.0
 11
0.0148273657757621
 21
3.76492393593718
 31
0.0
  0
LINE
  5
24A6
330
1E
100
AcDbEntity
  8
7
100
AcDbLine
 10
0.0148273657757621
 20
3.76492393593718
 30
0.0
 11
0.0148273657757621
 21
3.717884723732455
 31
0.0
  0
LINE
  5
24A7
330
1E
100
AcDbEntity
  8
7
100
AcDbLine
 10
0.0148273657757621
 20
3.717884723732455
 30
0.0
 11
0.0148273657757621
 21
3.17562713859466
 31
0.0
  0
LINE
  5
24A8
330
1E
100
AcDbEntity
  8
7
100
AcDbLine
 10
3.001817340775762
 20
3.291918524323007
 30
0.0
 11
3.001817340775762
 21
3.188693586429306
 31
0.0
  0
LINE
  5
24A9
330
1E
100
AcDbEntity
  8
7
100
AcDbLine
 10
3.001817340775762
 20
3.188693586429306
 30
0.0
 11
3.014883788610407
 21
3.17562713859466
 31
0.0
  0
LINE
  5
24AA
330
1E
100
AcDbEntity
  8
7
100
AcDbLine
 10
3.014883788610407
 20
3.17562713859466
 30
0.0
 11
3.014883788610407
 21
4.913464700602535
 31
0.0
  0
LINE
  5
24AB
330
1E
100
AcDbEntity
  8
7
100
AcDbLine
 10
3.008350564693085
 20
3.297145103456865
 30
0.0
 11
3.008350564693085
 21
3.302371682590724
 31
0.0
  0
LINE
  5
24AC
330
1E
100
AcDbEntity
  8
7
100
AcDbLine
 10
3.008350564693085
 20
3.302371682590724
 30
0.0
 11
3.009657209476549
 21
3.316744775208834
 31
0.0
  0
LINE
  5
24AD
330
1E
100
AcDbEntity
  8
7
100
AcDbLine
 10
3.009657209476549
 20
3.316744775208834
 30
0.0
 11
3.009657209476549
 21
3.340264381311196
 31
0.0
  0
LINE
  5
24AE
330
1E
100
AcDbEntity
  8
7
100
AcDbLine
 10
3.009657209476549
 20
3.340264381311196
 30
0.0
 11
3.009657209476549
 21
3.370317211330881
 31
0.0
  0
LINE
  5
24AF
330
1E
100
AcDbEntity
  8
7
100
AcDbLine
 10
3.009657209476549
 20
3.370317211330881
 30
0.0
 11
3.009657209476549
 21
3.40428997570096
 31
0.0
  0
LINE
  5
24B0
330
1E
100
AcDbEntity
  8
7
100
AcDbLine
 10
3.009657209476549
 20
3.40428997570096
 30
0.0
 11
3.009657209476549
 21
3.439569384854502
 31
0.0
  0
LINE
  5
24B1
330
1E
100
AcDbEntity
  8
7
100
AcDbLine
 10
3.009657209476549
 20
3.439569384854502
 30
0.0
 11
3.009657209476549
 21
3.473542149224582
 31
0.0
  0
LINE
  5
24B2
330
1E
100
AcDbEntity
  8
7
100
AcDbLine
 10
3.009657209476549
 20
3.473542149224582
 30
0.0
 11
3.009657209476549
 21
3.503594979244267
 31
0.0
  0
LINE
  5
24B3
330
1E
100
AcDbEntity
  8
7
100
AcDbLine
 10
2.9155787850671
 20
3.244879312118283
 30
0.0
 11
2.9155787850671
 21
3.314131485641905
 31
0.0
  0
LINE
  5
24B4
330
1E
100
AcDbEntity
  8
7
100
AcDbLine
 10
2.9155787850671
 20
3.314131485641905
 30
0.0
 11
2.916885429850564
 21
3.379463724815133
 31
0.0
  0
LINE
  5
24B5
330
1E
100
AcDbEntity
  8
7
100
AcDbLine
 10
2.916885429850564
 20
3.379463724815133
 30
0.0
 11
2.916885429850564
 21
3.442182674421432
 31
0.0
  0
LINE
  5
24B6
330
1E
100
AcDbEntity
  8
7
100
AcDbLine
 10
2.916885429850564
 20
3.442182674421432
 30
0.0
 11
2.918192074634029
 21
3.498368400110408
 31
0.0
  0
LINE
  5
24B7
330
1E
100
AcDbEntity
  8
7
100
AcDbLine
 10
2.918192074634029
 20
3.498368400110408
 30
0.0
 11
2.918192074634029
 21
3.548020901882062
 31
0.0
  0
LINE
  5
24B8
330
1E
100
AcDbEntity
  8
7
100
AcDbLine
 10
2.918192074634029
 20
3.548020901882062
 30
0.0
 11
2.919498719417494
 21
3.589833534952927
 31
0.0
  0
LINE
  5
24B9
330
1E
100
AcDbEntity
  8
7
100
AcDbLine
 10
2.919498719417494
 20
3.589833534952927
 30
0.0
 11
2.920805364200958
 21
3.623806299323007
 31
0.0
  0
LINE
  5
24BA
330
1E
100
AcDbEntity
  8
7
100
AcDbLine
 10
2.920805364200958
 20
3.623806299323007
 30
0.0
 11
2.922112008984423
 21
3.648632550208834
 31
0.0
  0
LINE
  5
24BB
330
1E
100
AcDbEntity
  8
7
100
AcDbLine
 10
2.922112008984423
 20
3.648632550208834
 30
0.0
 11
2.923418653767887
 21
3.663005642826943
 31
0.0
  0
LINE
  5
24BC
330
1E
100
AcDbEntity
  8
7
100
AcDbLine
 10
2.923418653767887
 20
3.663005642826943
 30
0.0
 11
2.924725298551352
 21
3.668232221960802
 31
0.0
  0
LINE
  5
24BD
330
1E
100
AcDbEntity
  8
7
100
AcDbLine
 10
2.922112008984423
 20
3.546714257098598
 30
0.0
 11
2.920805364200958
 21
3.541487677964739
 31
0.0
  0
LINE
  5
24BE
330
1E
100
AcDbEntity
  8
7
100
AcDbLine
 10
2.920805364200958
 20
3.541487677964739
 30
0.0
 11
2.920805364200958
 21
3.527114585346629
 31
0.0
  0
LINE
  5
24BF
330
1E
100
AcDbEntity
  8
7
100
AcDbLine
 10
2.920805364200958
 20
3.527114585346629
 30
0.0
 11
2.919498719417494
 21
3.503594979244267
 31
0.0
  0
LINE
  5
24C0
330
1E
100
AcDbEntity
  8
7
100
AcDbLine
 10
2.919498719417494
 20
3.503594979244267
 30
0.0
 11
2.919498719417494
 21
3.473542149224582
 31
0.0
  0
LINE
  5
24C1
330
1E
100
AcDbEntity
  8
7
100
AcDbLine
 10
2.919498719417494
 20
3.473542149224582
 30
0.0
 11
2.919498719417494
 21
3.439569384854502
 31
0.0
  0
LINE
  5
24C2
330
1E
100
AcDbEntity
  8
7
100
AcDbLine
 10
2.919498719417494
 20
3.439569384854502
 30
0.0
 11
2.919498719417494
 21
3.40428997570096
 31
0.0
  0
LINE
  5
24C3
330
1E
100
AcDbEntity
  8
7
100
AcDbLine
 10
2.919498719417494
 20
3.40428997570096
 30
0.0
 11
2.919498719417494
 21
3.370317211330881
 31
0.0
  0
LINE
  5
24C4
330
1E
100
AcDbEntity
  8
7
100
AcDbLine
 10
2.919498719417494
 20
3.370317211330881
 30
0.0
 11
2.919498719417494
 21
3.340264381311196
 31
0.0
  0
LINE
  5
24C5
330
1E
100
AcDbEntity
  8
7
100
AcDbLine
 10
2.919498719417494
 20
3.340264381311196
 30
0.0
 11
2.920805364200958
 21
3.316744775208834
 31
0.0
  0
LINE
  5
24C6
330
1E
100
AcDbEntity
  8
7
100
AcDbLine
 10
2.920805364200958
 20
3.316744775208834
 30
0.0
 11
2.920805364200958
 21
3.302371682590724
 31
0.0
  0
LINE
  5
24C7
330
1E
100
AcDbEntity
  8
7
100
AcDbLine
 10
2.920805364200958
 20
3.302371682590724
 30
0.0
 11
2.922112008984423
 21
3.297145103456865
 31
0.0
  0
LINE
  5
2514
330
1E
100
AcDbEntity
  8
7
100
AcDbLine
 10
2.9155787850671
 20
3.244879312118283
 30
0.0
 11
2.918192074634029
 21
3.242266022551353
 31
0.0
  0
LINE
  5
2515
330
1E
100
AcDbEntity
  8
7
100
AcDbLine
 10
2.918192074634029
 20
3.242266022551353
 30
0.0
 11
2.918192074634029
 21
3.179547072945053
 31
0.0
  0
LINE
  5
2516
330
1E
100
AcDbEntity
  8
7
100
AcDbLine
 10
2.918192074634029
 20
3.179547072945053
 30
0.0
 11
2.92733858811828
 21
3.188693586429306
 31
0.0
  0
LINE
  5
2517
330
1E
100
AcDbEntity
  8
7
100
AcDbLine
 10
2.92733858811828
 20
3.188693586429306
 30
0.0
 11
2.92733858811828
 21
3.291918524323007
 31
0.0
  0
LINE
  5
2518
330
1E
100
AcDbEntity
  8
7
100
AcDbLine
 10
2.92733858811828
 20
3.291918524323007
 30
0.0
 11
2.922112008984423
 21
3.297145103456865
 31
0.0
  0
LINE
  5
251B
330
1E
100
AcDbEntity
  8
7
100
AcDbLine
 10
-2.023803486306327
 20
3.508821558378125
 30
0.0
 11
-1.997670590637035
 21
3.554554125799385
 31
0.0
  0
LINE
  5
251C
330
1E
100
AcDbEntity
  8
7
100
AcDbLine
 10
-1.997670590637035
 20
3.554554125799385
 30
0.0
 11
-1.962391181483492
 21
3.593753469303322
 31
0.0
  0
LINE
  5
251D
330
1E
100
AcDbEntity
  8
7
100
AcDbLine
 10
-1.962391181483492
 20
3.593753469303322
 30
0.0
 11
-1.920578548412626
 21
3.623806299323008
 31
0.0
  0
LINE
  5
251E
330
1E
100
AcDbEntity
  8
7
100
AcDbLine
 10
-1.920578548412626
 20
3.623806299323008
 30
0.0
 11
-1.872232691424437
 21
3.64471261585844
 31
0.0
  0
LINE
  5
251F
330
1E
100
AcDbEntity
  8
7
100
AcDbLine
 10
-1.872232691424437
 20
4.444379223338756
 30
0.0
 11
-1.920578548412626
 21
4.465285539874188
 31
0.0
  0
LINE
  5
2520
330
1E
100
AcDbEntity
  8
7
100
AcDbLine
 10
-1.920578548412626
 20
4.465285539874188
 30
0.0
 11
-1.962391181483492
 21
4.495338369893874
 31
0.0
  0
LINE
  5
2521
330
1E
100
AcDbEntity
  8
7
100
AcDbLine
 10
-1.962391181483492
 20
4.495338369893874
 30
0.0
 11
-1.997670590637035
 21
4.53453771339781
 31
0.0
  0
LINE
  5
2522
330
1E
100
AcDbEntity
  8
7
100
AcDbLine
 10
-1.997670590637035
 20
4.53453771339781
 30
0.0
 11
-2.023803486306327
 21
4.578963636035606
 31
0.0
  0
LINE
  5
2523
330
1E
100
AcDbEntity
  8
7
100
AcDbLine
 10
-2.023803486306327
 20
4.578963636035606
 30
0.0
 11
-2.0394832237079
 21
4.628616137807259
 31
0.0
  0
LINE
  5
2524
330
1E
100
AcDbEntity
  8
7
100
AcDbLine
 10
-2.0394832237079
 20
4.628616137807259
 30
0.0
 11
-2.046016447625224
 21
4.680881929145841
 31
0.0
  0
LINE
  5
2525
330
1E
100
AcDbEntity
  8
7
100
AcDbLine
 10
-2.046016447625224
 20
4.680881929145841
 30
0.0
 11
-2.046016447625224
 21
4.908238121468676
 31
0.0
  0
LINE
  5
2526
330
1E
100
AcDbEntity
  8
7
100
AcDbLine
 10
-1.881379204908689
 20
4.790640090956865
 30
0.0
 11
-1.548184785125225
 21
4.797173314874188
 31
0.0
  0
LINE
  5
2527
330
1E
100
AcDbEntity
  8
7
100
AcDbLine
 10
-1.548184785125225
 20
4.797173314874188
 30
0.0
 11
-1.548184785125225
 21
4.900398252767889
 31
0.0
  0
LINE
  5
2528
330
1E
100
AcDbEntity
  8
7
100
AcDbLine
 10
-1.548184785125225
 20
4.900398252767889
 30
0.0
 11
-2.046016447625224
 21
4.908238121468676
 31
0.0
  0
LINE
  5
2529
330
1E
100
AcDbEntity
  8
7
100
AcDbLine
 10
-1.975457629318137
 20
4.585496859952928
 30
0.0
 11
-1.948018088865381
 21
4.561977253850566
 31
0.0
  0
LINE
  5
252A
330
1E
100
AcDbEntity
  8
7
100
AcDbLine
 10
-1.948018088865381
 20
4.561977253850566
 30
0.0
 11
-1.916658614062233
 21
4.547604161232456
 31
0.0
  0
LINE
  5
252B
330
1E
100
AcDbEntity
  8
7
100
AcDbLine
 10
-1.916658614062233
 20
4.547604161232456
 30
0.0
 11
-1.881379204908689
 21
4.542377582098597
 31
0.0
  0
LINE
  5
252C
330
1E
100
AcDbEntity
  8
7
100
AcDbLine
 10
-1.881379204908689
 20
4.790640090956865
 30
0.0
 11
-1.916658614062233
 21
4.786720156606472
 31
0.0
  0
LINE
  5
252D
330
1E
100
AcDbEntity
  8
7
100
AcDbLine
 10
-1.916658614062233
 20
4.786720156606472
 30
0.0
 11
-1.948018088865381
 21
4.771040419204897
 31
0.0
  0
LINE
  5
252E
330
1E
100
AcDbEntity
  8
7
100
AcDbLine
 10
-1.948018088865381
 20
4.771040419204897
 30
0.0
 11
-1.975457629318137
 21
4.748827457886
 31
0.0
  0
LINE
  5
252F
330
1E
100
AcDbEntity
  8
7
100
AcDbLine
 10
-1.975457629318137
 20
4.748827457886
 30
0.0
 11
-1.995057301070106
 21
4.718774627866315
 31
0.0
  0
LINE
  5
2530
330
1E
100
AcDbEntity
  8
7
100
AcDbLine
 10
-1.995057301070106
 20
4.718774627866315
 30
0.0
 11
-2.004203814554358
 21
4.684801863496235
 31
0.0
  0
LINE
  5
2531
330
1E
100
AcDbEntity
  8
7
100
AcDbLine
 10
-2.004203814554358
 20
4.684801863496235
 30
0.0
 11
-2.004203814554358
 21
4.649522454342691
 31
0.0
  0
LINE
  5
2532
330
1E
100
AcDbEntity
  8
7
100
AcDbLine
 10
-2.004203814554358
 20
4.649522454342691
 30
0.0
 11
-1.995057301070106
 21
4.615549689972613
 31
0.0
  0
LINE
  5
2533
330
1E
100
AcDbEntity
  8
7
100
AcDbLine
 10
-1.995057301070106
 20
4.615549689972613
 30
0.0
 11
-1.975457629318137
 21
4.585496859952928
 31
0.0
  0
LINE
  5
2534
330
1E
100
AcDbEntity
  8
7
100
AcDbLine
 10
-1.881379204908689
 20
3.546714257098598
 30
0.0
 11
-1.916658614062233
 21
3.541487677964739
 31
0.0
  0
LINE
  5
2535
330
1E
100
AcDbEntity
  8
7
100
AcDbLine
 10
-1.916658614062233
 20
3.541487677964739
 30
0.0
 11
-1.948018088865381
 21
3.527114585346629
 31
0.0
  0
LINE
  5
2536
330
1E
100
AcDbEntity
  8
7
100
AcDbLine
 10
-1.948018088865381
 20
3.527114585346629
 30
0.0
 11
-1.975457629318137
 21
3.503594979244266
 31
0.0
  0
LINE
  5
2537
330
1E
100
AcDbEntity
  8
7
100
AcDbLine
 10
-1.975457629318137
 20
3.503594979244266
 30
0.0
 11
-1.995057301070106
 21
3.473542149224582
 31
0.0
  0
LINE
  5
2538
330
1E
100
AcDbEntity
  8
7
100
AcDbLine
 10
-1.995057301070106
 20
3.473542149224582
 30
0.0
 11
-2.004203814554358
 21
3.439569384854503
 31
0.0
  0
LINE
  5
2539
330
1E
100
AcDbEntity
  8
7
100
AcDbLine
 10
-2.004203814554358
 20
3.439569384854503
 30
0.0
 11
-2.004203814554358
 21
3.404289975700959
 31
0.0
  0
LINE
  5
253A
330
1E
100
AcDbEntity
  8
7
100
AcDbLine
 10
-2.004203814554358
 20
3.404289975700959
 30
0.0
 11
-1.995057301070106
 21
3.370317211330881
 31
0.0
  0
LINE
  5
253B
330
1E
100
AcDbEntity
  8
7
100
AcDbLine
 10
-1.995057301070106
 20
3.370317211330881
 30
0.0
 11
-1.975457629318137
 21
3.340264381311196
 31
0.0
  0
LINE
  5
253C
330
1E
100
AcDbEntity
  8
7
100
AcDbLine
 10
-1.975457629318137
 20
3.340264381311196
 30
0.0
 11
-1.948018088865381
 21
3.316744775208833
 31
0.0
  0
LINE
  5
253D
330
1E
100
AcDbEntity
  8
7
100
AcDbLine
 10
-1.948018088865381
 20
3.316744775208833
 30
0.0
 11
-1.916658614062233
 21
3.302371682590724
 31
0.0
  0
LINE
  5
253E
330
1E
100
AcDbEntity
  8
7
100
AcDbLine
 10
-1.916658614062233
 20
3.302371682590724
 30
0.0
 11
-1.881379204908689
 21
3.297145103456865
 31
0.0
  0
LINE
  5
253F
330
1E
100
AcDbEntity
  8
7
100
AcDbLine
 10
-2.046016447625224
 20
3.179547072945054
 30
0.0
 11
-1.548184785125225
 21
3.188693586429306
 31
0.0
  0
LINE
  5
2540
330
1E
100
AcDbEntity
  8
7
100
AcDbLine
 10
-1.548184785125225
 20
3.188693586429306
 30
0.0
 11
-1.548184785125225
 21
3.291918524323008
 31
0.0
  0
LINE
  5
2541
330
1E
100
AcDbEntity
  8
7
100
AcDbLine
 10
-1.548184785125225
 20
3.291918524323008
 30
0.0
 11
-1.881379204908689
 21
3.297145103456865
 31
0.0
  0
LINE
  5
2542
330
1E
100
AcDbEntity
  8
7
100
AcDbLine
 10
3.014883788610407
 20
4.913464700602535
 30
0.0
 11
2.914272140283635
 21
4.913464700602535
 31
0.0
  0
LINE
  5
2543
330
1E
100
AcDbEntity
  8
7
100
AcDbLine
 10
2.914272140283635
 20
4.913464700602535
 30
0.0
 11
2.4177471225671
 21
4.913464700602535
 31
0.0
  0
LINE
  5
2544
330
1E
100
AcDbEntity
  8
7
100
AcDbLine
 10
2.4177471225671
 20
4.913464700602535
 30
0.0
 11
2.349801593826943
 21
4.913464700602535
 31
0.0
  0
LINE
  5
2545
330
1E
100
AcDbEntity
  8
7
100
AcDbLine
 10
2.349801593826943
 20
4.913464700602535
 30
0.0
 11
0.0814662497324559
 21
4.913464700602535
 31
0.0
  0
LINE
  5
2546
330
1E
100
AcDbEntity
  8
7
100
AcDbLine
 10
0.0814662497324559
 20
4.913464700602535
 30
0.0
 11
0.0148273657757621
 21
4.913464700602535
 31
0.0
  0
LINE
  5
2547
330
1E
100
AcDbEntity
  8
7
100
AcDbLine
 10
0.0148273657757621
 20
4.913464700602535
 30
0.0
 11
0.0239738792600148
 21
4.908238121468677
 31
0.0
  0
LINE
  5
2548
330
1E
100
AcDbEntity
  8
7
100
AcDbLine
 10
-2.294278956483491
 20
4.913464700602534
 30
0.0
 11
-2.294278956483491
 21
4.37120711546474
 31
0.0
  0
LINE
  5
2549
330
1E
100
AcDbEntity
  8
7
100
AcDbLine
 10
-2.294278956483491
 20
4.37120711546474
 30
0.0
 11
-2.290359022133098
 21
4.32286125847655
 31
0.0
  0
LINE
  5
254A
330
1E
100
AcDbEntity
  8
7
100
AcDbLine
 10
-2.290359022133098
 20
4.32286125847655
 30
0.0
 11
-2.275985929514988
 21
4.277128691055291
 31
0.0
  0
LINE
  5
254B
330
1E
100
AcDbEntity
  8
7
100
AcDbLine
 10
-2.275985929514988
 20
4.277128691055291
 30
0.0
 11
-2.25377296819609
 21
4.23400941320096
 31
0.0
  0
LINE
  5
254C
330
1E
100
AcDbEntity
  8
7
100
AcDbLine
 10
-2.25377296819609
 20
4.23400941320096
 30
0.0
 11
-2.222413493392941
 21
4.196116714480488
 31
0.0
  0
LINE
  5
254D
330
1E
100
AcDbEntity
  8
7
100
AcDbLine
 10
-2.222413493392941
 20
4.196116714480488
 30
0.0
 11
-2.185827439455933
 21
4.166063884460802
 31
0.0
  0
LINE
  5
254E
330
1E
100
AcDbEntity
  8
7
100
AcDbLine
 10
-2.185827439455933
 20
4.166063884460802
 30
0.0
 11
-2.144014806385066
 21
4.142544278358441
 31
0.0
  0
LINE
  5
254F
330
1E
100
AcDbEntity
  8
7
100
AcDbLine
 10
-2.144014806385066
 20
4.142544278358441
 30
0.0
 11
-2.098282238963807
 21
4.12817118574033
 31
0.0
  0
LINE
  5
2550
330
1E
100
AcDbEntity
  8
7
100
AcDbLine
 10
-2.098282238963807
 20
4.12817118574033
 30
0.0
 11
-2.049936381975618
 21
4.122944606606472
 31
0.0
  0
LINE
  5
2551
330
1E
100
AcDbEntity
  8
7
100
AcDbLine
 10
0.0906127632167069
 20
4.116411382689149
 30
0.0
 11
0.0906127632167069
 21
4.121637961823006
 31
0.0
  0
LINE
  5
2552
330
1E
100
AcDbEntity
  8
7
100
AcDbLine
 10
0.0906127632167069
 20
4.121637961823006
 30
0.0
 11
0.0893061184332425
 21
4.13993098879151
 31
0.0
  0
LINE
  5
2553
330
1E
100
AcDbEntity
  8
7
100
AcDbLine
 10
0.0893061184332425
 20
4.13993098879151
 30
0.0
 11
0.0893061184332425
 21
4.167370529244267
 31
0.0
  0
LINE
  5
2554
330
1E
100
AcDbEntity
  8
7
100
AcDbLine
 10
0.0893061184332425
 20
4.167370529244267
 30
0.0
 11
0.087999473649778
 21
4.203956583181275
 31
0.0
  0
LINE
  5
2555
330
1E
100
AcDbEntity
  8
7
100
AcDbLine
 10
0.087999473649778
 20
4.203956583181275
 30
0.0
 11
0.087999473649778
 21
4.24576921625214
 31
0.0
  0
LINE
  5
2556
330
1E
100
AcDbEntity
  8
7
100
AcDbLine
 10
0.087999473649778
 20
4.24576921625214
 30
0.0
 11
0.087999473649778
 21
4.290195138889935
 31
0.0
  0
LINE
  5
2557
330
1E
100
AcDbEntity
  8
7
100
AcDbLine
 10
0.0148273657757621
 20
4.913464700602535
 30
0.0
 11
0.0148273657757621
 21
4.37120711546474
 31
0.0
  0
LINE
  5
2558
330
1E
100
AcDbEntity
  8
7
100
AcDbLine
 10
0.0148273657757621
 20
4.37120711546474
 30
0.0
 11
0.0148273657757621
 21
4.32286125847655
 31
0.0
  0
LINE
  5
2559
330
1E
100
AcDbEntity
  8
7
100
AcDbLine
 10
0.0148273657757621
 20
4.32286125847655
 30
0.0
 11
0.0161340105592265
 21
4.27712869105529
 31
0.0
  0
LINE
  5
255A
330
1E
100
AcDbEntity
  8
7
100
AcDbLine
 10
0.0161340105592265
 20
4.27712869105529
 30
0.0
 11
0.0161340105592265
 21
4.23400941320096
 31
0.0
  0
LINE
  5
255B
330
1E
100
AcDbEntity
  8
7
100
AcDbLine
 10
0.0161340105592265
 20
4.23400941320096
 30
0.0
 11
0.0174406553426909
 21
4.196116714480487
 31
0.0
  0
LINE
  5
255C
330
1E
100
AcDbEntity
  8
7
100
AcDbLine
 10
0.0174406553426909
 20
4.196116714480487
 30
0.0
 11
0.0187473001261553
 21
4.166063884460802
 31
0.0
  0
LINE
  5
255D
330
1E
100
AcDbEntity
  8
7
100
AcDbLine
 10
0.0187473001261553
 20
4.166063884460802
 30
0.0
 11
0.0200539449096207
 21
4.14254427835844
 31
0.0
  0
LINE
  5
255E
330
1E
100
AcDbEntity
  8
7
100
AcDbLine
 10
0.0200539449096207
 20
4.14254427835844
 30
0.0
 11
0.0226672344765495
 21
4.128171185740329
 31
0.0
  0
LINE
  5
255F
330
1E
100
AcDbEntity
  8
7
100
AcDbLine
 10
0.0226672344765495
 20
4.128171185740329
 30
0.0
 11
0.0239738792600148
 21
4.121637961823006
 31
0.0
  0
LINE
  5
2560
330
1E
100
AcDbEntity
  8
7
100
AcDbLine
 10
0.0409602614450542
 20
4.290195138889935
 30
0.0
 11
0.0409602614450542
 21
4.24576921625214
 31
0.0
  0
LINE
  5
2561
330
1E
100
AcDbEntity
  8
7
100
AcDbLine
 10
0.0409602614450542
 20
4.24576921625214
 30
0.0
 11
0.0409602614450542
 21
4.203956583181275
 31
0.0
  0
LINE
  5
2562
330
1E
100
AcDbEntity
  8
7
100
AcDbLine
 10
0.0409602614450542
 20
4.203956583181275
 30
0.0
 11
0.039653616661588
 21
4.167370529244267
 31
0.0
  0
LINE
  5
2563
330
1E
100
AcDbEntity
  8
7
100
AcDbLine
 10
0.039653616661588
 20
4.167370529244267
 30
0.0
 11
0.0383469718781244
 21
4.13993098879151
 31
0.0
  0
LINE
  5
2564
330
1E
100
AcDbEntity
  8
7
100
AcDbLine
 10
0.0383469718781244
 20
4.13993098879151
 30
0.0
 11
0.03704032709466
 21
4.121637961823006
 31
0.0
  0
LINE
  5
2565
330
1E
100
AcDbEntity
  8
7
100
AcDbLine
 10
0.03704032709466
 20
4.121637961823006
 30
0.0
 11
0.0357336823111956
 21
4.116411382689149
 31
0.0
  0
LINE
  5
2566
330
1E
100
AcDbEntity
  8
7
100
AcDbLine
 10
0.087999473649778
 20
3.797590055523794
 30
0.0
 11
0.087999473649778
 21
3.843322622945054
 31
0.0
  0
LINE
  5
2567
330
1E
100
AcDbEntity
  8
7
100
AcDbLine
 10
0.087999473649778
 20
3.843322622945054
 30
0.0
 11
0.087999473649778
 21
3.88513525601592
 31
0.0
  0
LINE
  5
2568
330
1E
100
AcDbEntity
  8
7
100
AcDbLine
 10
0.087999473649778
 20
3.88513525601592
 30
0.0
 11
0.0893061184332425
 21
3.920414665169463
 31
0.0
  0
LINE
  5
2569
330
1E
100
AcDbEntity
  8
7
100
AcDbLine
 10
0.0893061184332425
 20
3.920414665169463
 30
0.0
 11
0.0893061184332425
 21
3.949160850405684
 31
0.0
  0
LINE
  5
256A
330
1E
100
AcDbEntity
  8
7
100
AcDbLine
 10
0.0893061184332425
 20
3.949160850405684
 30
0.0
 11
0.0906127632167069
 21
3.966147232590723
 31
0.0
  0
LINE
  5
256B
330
1E
100
AcDbEntity
  8
7
100
AcDbLine
 10
0.0906127632167069
 20
3.966147232590723
 30
0.0
 11
0.0906127632167069
 21
3.971373811724582
 31
0.0
  0
LINE
  5
256C
330
1E
100
AcDbEntity
  8
7
100
AcDbLine
 10
0.0357336823111956
 20
3.971373811724582
 30
0.0
 11
0.03704032709466
 21
3.966147232590723
 31
0.0
  0
LINE
  5
256D
330
1E
100
AcDbEntity
  8
7
100
AcDbLine
 10
0.03704032709466
 20
3.966147232590723
 30
0.0
 11
0.0383469718781244
 21
3.949160850405684
 31
0.0
  0
LINE
  5
256E
330
1E
100
AcDbEntity
  8
7
100
AcDbLine
 10
0.0383469718781244
 20
3.949160850405684
 30
0.0
 11
0.039653616661588
 21
3.920414665169463
 31
0.0
  0
LINE
  5
256F
330
1E
100
AcDbEntity
  8
7
100
AcDbLine
 10
0.039653616661588
 20
3.920414665169463
 30
0.0
 11
0.0409602614450542
 21
3.88513525601592
 31
0.0
  0
LINE
  5
2570
330
1E
100
AcDbEntity
  8
7
100
AcDbLine
 10
0.0409602614450542
 20
3.88513525601592
 30
0.0
 11
0.0409602614450542
 21
3.843322622945054
 31
0.0
  0
LINE
  5
2571
330
1E
100
AcDbEntity
  8
7
100
AcDbLine
 10
0.0409602614450542
 20
3.843322622945054
 30
0.0
 11
0.0409602614450542
 21
3.797590055523794
 31
0.0
  0
LINE
  5
2572
330
1E
100
AcDbEntity
  8
7
100
AcDbLine
 10
0.1010659214844232
 20
3.64471261585844
 30
0.0
 11
0.1010659214844232
 21
3.623806299323007
 31
0.0
  0
LINE
  5
2573
330
1E
100
AcDbEntity
  8
7
100
AcDbLine
 10
0.1010659214844232
 20
3.623806299323007
 30
0.0
 11
0.1010659214844232
 21
3.592446824519857
 31
0.0
  0
LINE
  5
2574
330
1E
100
AcDbEntity
  8
7
100
AcDbLine
 10
0.1010659214844232
 20
3.592446824519857
 30
0.0
 11
0.1010659214844232
 21
3.55324748101592
 31
0.0
  0
LINE
  5
2575
330
1E
100
AcDbEntity
  8
7
100
AcDbLine
 10
0.1010659214844232
 20
3.55324748101592
 30
0.0
 11
0.1010659214844232
 21
3.507514913594659
 31
0.0
  0
LINE
  5
2576
330
1E
100
AcDbEntity
  8
7
100
AcDbLine
 10
0.1010659214844232
 20
3.451329187905685
 30
0.0
 11
0.1010659214844232
 21
3.429116226586786
 31
0.0
  0
LINE
  5
2577
330
1E
100
AcDbEntity
  8
7
100
AcDbLine
 10
0.1010659214844232
 20
3.429116226586786
 30
0.0
 11
0.1010659214844232
 21
3.408209910051353
 31
0.0
  0
LINE
  5
2578
330
1E
100
AcDbEntity
  8
7
100
AcDbLine
 10
0.0357336823111956
 20
3.668232221960802
 30
0.0
 11
0.0409602614450542
 21
3.670845511527732
 31
0.0
  0
LINE
  5
2579
330
1E
100
AcDbEntity
  8
7
100
AcDbLine
 10
0.0409602614450542
 20
3.670845511527732
 30
0.0
 11
0.0409602614450542
 21
3.797590055523794
 31
0.0
  0
LINE
  5
257A
330
1E
100
AcDbEntity
  8
7
100
AcDbLine
 10
0.0357336823111956
 20
3.668232221960802
 30
0.0
 11
0.0331203927442658
 21
3.661698998043479
 31
0.0
  0
LINE
  5
257B
330
1E
100
AcDbEntity
  8
7
100
AcDbLine
 10
0.0331203927442658
 20
3.661698998043479
 30
0.0
 11
0.030507103177337
 21
3.64471261585844
 31
0.0
  0
LINE
  5
257C
330
1E
100
AcDbEntity
  8
7
100
AcDbLine
 10
0.0357336823111956
 20
3.971373811724582
 30
0.0
 11
0.0239738792600148
 21
3.966147232590723
 31
0.0
  0
LINE
  5
257D
330
1E
100
AcDbEntity
  8
7
100
AcDbLine
 10
0.0239738792600148
 20
3.966147232590723
 30
0.0
 11
0.0226672344765495
 21
3.960920653456865
 31
0.0
  0
LINE
  5
257E
330
1E
100
AcDbEntity
  8
7
100
AcDbLine
 10
0.0226672344765495
 20
3.960920653456865
 30
0.0
 11
0.0200539449096207
 21
3.946547560838754
 31
0.0
  0
LINE
  5
257F
330
1E
100
AcDbEntity
  8
7
100
AcDbLine
 10
0.0200539449096207
 20
3.946547560838754
 30
0.0
 11
0.0187473001261553
 21
3.923027954736393
 31
0.0
  0
LINE
  5
2580
330
1E
100
AcDbEntity
  8
7
100
AcDbLine
 10
0.0187473001261553
 20
3.923027954736393
 30
0.0
 11
0.0174406553426909
 21
3.891668479933244
 31
0.0
  0
LINE
  5
2581
330
1E
100
AcDbEntity
  8
7
100
AcDbLine
 10
0.0174406553426909
 20
3.891668479933244
 30
0.0
 11
0.0161340105592265
 21
3.85377578121277
 31
0.0
  0
LINE
  5
2582
330
1E
100
AcDbEntity
  8
7
100
AcDbLine
 10
0.030507103177337
 20
4.44307257855529
 30
0.0
 11
0.0278938136104072
 21
4.465285539874187
 31
0.0
  0
LINE
  5
2583
330
1E
100
AcDbEntity
  8
7
100
AcDbLine
 10
0.0278938136104072
 20
4.465285539874187
 30
0.0
 11
0.0265871688269437
 21
4.495338369893874
 31
0.0
  0
LINE
  5
2584
330
1E
100
AcDbEntity
  8
7
100
AcDbLine
 10
0.0265871688269437
 20
4.495338369893874
 30
0.0
 11
0.0252805240434793
 21
4.53453771339781
 31
0.0
  0
LINE
  5
2585
330
1E
100
AcDbEntity
  8
7
100
AcDbLine
 10
0.0252805240434793
 20
4.53453771339781
 30
0.0
 11
0.0252805240434793
 21
4.578963636035605
 31
0.0
  0
LINE
  5
2586
330
1E
100
AcDbEntity
  8
7
100
AcDbLine
 10
0.0252805240434793
 20
4.578963636035605
 30
0.0
 11
0.0239738792600148
 21
4.628616137807259
 31
0.0
  0
LINE
  5
2587
330
1E
100
AcDbEntity
  8
7
100
AcDbLine
 10
0.0239738792600148
 20
4.628616137807259
 30
0.0
 11
0.0239738792600148
 21
4.680881929145842
 31
0.0
  0
LINE
  5
2588
330
1E
100
AcDbEntity
  8
7
100
AcDbLine
 10
0.0239738792600148
 20
4.680881929145842
 30
0.0
 11
0.0239738792600148
 21
4.908238121468677
 31
0.0
  0
LINE
  5
2589
330
1E
100
AcDbEntity
  8
7
100
AcDbLine
 10
0.1010659214844232
 20
4.580270280819069
 30
0.0
 11
0.1010659214844232
 21
4.53453771339781
 31
0.0
  0
LINE
  5
258A
330
1E
100
AcDbEntity
  8
7
100
AcDbLine
 10
0.1010659214844232
 20
4.53453771339781
 30
0.0
 11
0.1010659214844232
 21
4.495338369893874
 31
0.0
  0
LINE
  5
258B
330
1E
100
AcDbEntity
  8
7
100
AcDbLine
 10
0.1010659214844232
 20
4.495338369893874
 30
0.0
 11
0.1010659214844232
 21
4.465285539874187
 31
0.0
  0
LINE
  5
258C
330
1E
100
AcDbEntity
  8
7
100
AcDbLine
 10
0.1010659214844232
 20
4.465285539874187
 30
0.0
 11
0.1010659214844232
 21
4.44307257855529
 31
0.0
  0
LINE
  5
258D
330
1E
100
AcDbEntity
  8
7
100
AcDbLine
 10
0.030507103177337
 20
4.44307257855529
 30
0.0
 11
0.0331203927442658
 21
4.426086196370251
 31
0.0
  0
LINE
  5
258E
330
1E
100
AcDbEntity
  8
7
100
AcDbLine
 10
0.0331203927442658
 20
4.426086196370251
 30
0.0
 11
0.0357336823111956
 21
4.419552972452928
 31
0.0
  0
LINE
  5
258F
330
1E
100
AcDbEntity
  8
7
100
AcDbLine
 10
0.0409602614450542
 20
4.290195138889935
 30
0.0
 11
0.0409602614450542
 21
4.416939682885999
 31
0.0
  0
LINE
  5
2590
330
1E
100
AcDbEntity
  8
7
100
AcDbLine
 10
0.0409602614450542
 20
4.416939682885999
 30
0.0
 11
0.0357336823111956
 21
4.419552972452928
 31
0.0
  0
LINE
  5
2591
330
1E
100
AcDbEntity
  8
7
100
AcDbLine
 10
0.1010659214844232
 20
4.680881929145842
 30
0.0
 11
0.1010659214844232
 21
4.658668967826944
 31
0.0
  0
LINE
  5
2592
330
1E
100
AcDbEntity
  8
7
100
AcDbLine
 10
0.1010659214844232
 20
4.658668967826944
 30
0.0
 11
0.1010659214844232
 21
4.63776265129151
 31
0.0
  0
LINE
  5
2593
330
1E
100
AcDbEntity
  8
7
100
AcDbLine
 10
-2.049936381975618
 20
3.966147232590723
 30
0.0
 11
-2.098282238963807
 21
3.960920653456866
 31
0.0
  0
LINE
  5
2594
330
1E
100
AcDbEntity
  8
7
100
AcDbLine
 10
-2.098282238963807
 20
3.960920653456866
 30
0.0
 11
-2.144014806385066
 21
3.946547560838755
 31
0.0
  0
LINE
  5
2595
330
1E
100
AcDbEntity
  8
7
100
AcDbLine
 10
-2.144014806385066
 20
3.946547560838755
 30
0.0
 11
-2.185827439455933
 21
3.923027954736393
 31
0.0
  0
LINE
  5
2596
330
1E
100
AcDbEntity
  8
7
100
AcDbLine
 10
-2.185827439455933
 20
3.923027954736393
 30
0.0
 11
-2.222413493392941
 21
3.891668479933243
 31
0.0
  0
LINE
  5
2597
330
1E
100
AcDbEntity
  8
7
100
AcDbLine
 10
-2.222413493392941
 20
3.891668479933243
 30
0.0
 11
-2.25377296819609
 21
3.855082425996235
 31
0.0
  0
LINE
  5
2598
330
1E
100
AcDbEntity
  8
7
100
AcDbLine
 10
-2.25377296819609
 20
3.855082425996235
 30
0.0
 11
-2.275985929514988
 21
3.811963148141905
 31
0.0
  0
LINE
  5
2599
330
1E
100
AcDbEntity
  8
7
100
AcDbLine
 10
-2.275985929514988
 20
3.811963148141905
 30
0.0
 11
-2.290359022133098
 21
3.766230580720645
 31
0.0
  0
LINE
  5
259A
330
1E
100
AcDbEntity
  8
7
100
AcDbLine
 10
-2.290359022133098
 20
3.766230580720645
 30
0.0
 11
-2.294278956483491
 21
3.717884723732456
 31
0.0
  0
LINE
  5
259B
330
1E
100
AcDbEntity
  8
7
100
AcDbLine
 10
-2.294278956483491
 20
3.717884723732456
 30
0.0
 11
-2.294278956483491
 21
3.17562713859466
 31
0.0
  0
LINE
  5
259C
330
1E
100
AcDbEntity
  8
7
100
AcDbLine
 10
-2.046016447625224
 20
3.179547072945054
 30
0.0
 11
-2.046016447625224
 21
3.408209910051353
 31
0.0
  0
LINE
  5
259D
330
1E
100
AcDbEntity
  8
7
100
AcDbLine
 10
-2.046016447625224
 20
3.408209910051353
 30
0.0
 11
-2.0394832237079
 21
3.459169056606472
 31
0.0
  0
LINE
  5
259E
330
1E
100
AcDbEntity
  8
7
100
AcDbLine
 10
-2.0394832237079
 20
3.459169056606472
 30
0.0
 11
-2.023803486306327
 21
3.508821558378125
 31
0.0
  0
LINE
  5
259F
330
1E
100
AcDbEntity
  8
7
100
AcDbLine
 10
2.34065508034269
 20
4.33984764066159
 30
0.0
 11
2.345881659476549
 21
4.341154285445053
 31
0.0
  0
LINE
  5
25A0
330
1E
100
AcDbEntity
  8
7
100
AcDbLine
 10
2.345881659476549
 20
4.341154285445053
 30
0.0
 11
2.362868041661588
 21
4.342460930228519
 31
0.0
  0
LINE
  5
25A1
330
1E
100
AcDbEntity
  8
7
100
AcDbLine
 10
2.362868041661588
 20
4.342460930228519
 30
0.0
 11
2.391614226897809
 21
4.342460930228519
 31
0.0
  0
LINE
  5
25A2
330
1E
100
AcDbEntity
  8
7
100
AcDbLine
 10
2.391614226897809
 20
4.342460930228519
 30
0.0
 11
2.426893636051352
 21
4.342460930228519
 31
0.0
  0
LINE
  5
25A3
330
1E
100
AcDbEntity
  8
7
100
AcDbLine
 10
2.426893636051352
 20
4.342460930228519
 30
0.0
 11
2.468706269122217
 21
4.343767575011984
 31
0.0
  0
LINE
  5
25A4
330
1E
100
AcDbEntity
  8
7
100
AcDbLine
 10
2.468706269122217
 20
4.343767575011984
 30
0.0
 11
2.514438836543478
 21
4.343767575011984
 31
0.0
  0
LINE
  5
25A5
330
1E
100
AcDbEntity
  8
7
100
AcDbLine
 10
2.514438836543478
 20
3.745324264185211
 30
0.0
 11
2.468706269122217
 21
3.745324264185211
 31
0.0
  0
LINE
  5
25A6
330
1E
100
AcDbEntity
  8
7
100
AcDbLine
 10
2.468706269122217
 20
3.745324264185211
 30
0.0
 11
2.426893636051352
 21
3.745324264185211
 31
0.0
  0
LINE
  5
25A7
330
1E
100
AcDbEntity
  8
7
100
AcDbLine
 10
2.426893636051352
 20
3.745324264185211
 30
0.0
 11
2.391614226897809
 21
3.745324264185211
 31
0.0
  0
LINE
  5
25A8
330
1E
100
AcDbEntity
  8
7
100
AcDbLine
 10
2.391614226897809
 20
3.745324264185211
 30
0.0
 11
2.362868041661588
 21
3.746630908968676
 31
0.0
  0
LINE
  5
25A9
330
1E
100
AcDbEntity
  8
7
100
AcDbLine
 10
2.362868041661588
 20
3.746630908968676
 30
0.0
 11
2.345881659476549
 21
3.746630908968676
 31
0.0
  0
LINE
  5
25AA
330
1E
100
AcDbEntity
  8
7
100
AcDbLine
 10
2.345881659476549
 20
3.746630908968676
 30
0.0
 11
2.34065508034269
 21
3.747937553752141
 31
0.0
  0
LINE
  5
25AB
330
1E
100
AcDbEntity
  8
7
100
AcDbLine
 10
2.07148625494899
 20
3.508821558378126
 30
0.0
 11
2.011380594909619
 21
3.507514913594659
 31
0.0
  0
LINE
  5
25AC
330
1E
100
AcDbEntity
  8
7
100
AcDbLine
 10
2.011380594909619
 20
3.507514913594659
 30
0.0
 11
2.028366977094659
 21
3.451329187905685
 31
0.0
  0
LINE
  5
25AD
330
1E
100
AcDbEntity
  8
7
100
AcDbLine
 10
2.118525467153714
 20
4.639069296074976
 30
0.0
 11
2.028366977094659
 21
4.63776265129151
 31
0.0
  0
LINE
  5
25AE
330
1E
100
AcDbEntity
  8
7
100
AcDbLine
 10
2.028366977094659
 20
4.63776265129151
 30
0.0
 11
2.011380594909619
 21
4.580270280819069
 31
0.0
  0
LINE
  5
25AF
330
1E
100
AcDbEntity
  8
7
100
AcDbLine
 10
2.702595685362376
 20
3.725724592433244
 30
0.0
 11
2.613743840086785
 21
3.725724592433244
 31
0.0
  0
LINE
  5
25B0
330
1E
100
AcDbEntity
  8
7
100
AcDbLine
 10
2.613743840086785
 20
3.725724592433244
 30
0.0
 11
2.613743840086785
 21
3.777990383771826
 31
0.0
  0
LINE
  5
25B1
330
1E
100
AcDbEntity
  8
7
100
AcDbLine
 10
2.922112008984423
 20
3.546714257098598
 30
0.0
 11
2.92733858811828
 21
3.551940836232455
 31
0.0
  0
LINE
  5
25B2
330
1E
100
AcDbEntity
  8
7
100
AcDbLine
 10
2.92733858811828
 20
3.551940836232455
 30
0.0
 11
2.92733858811828
 21
3.670845511527732
 31
0.0
  0
LINE
  5
25B3
330
1E
100
AcDbEntity
  8
7
100
AcDbLine
 10
2.92733858811828
 20
3.670845511527732
 30
0.0
 11
2.924725298551352
 21
3.668232221960802
 31
0.0
  0
LINE
  5
25B4
330
1E
100
AcDbEntity
  8
7
100
AcDbLine
 10
3.009657209476549
 20
3.503594979244267
 30
0.0
 11
3.009657209476549
 21
3.527114585346629
 31
0.0
  0
LINE
  5
25B5
330
1E
100
AcDbEntity
  8
7
100
AcDbLine
 10
3.009657209476549
 20
3.527114585346629
 30
0.0
 11
3.008350564693085
 21
3.541487677964739
 31
0.0
  0
LINE
  5
25B6
330
1E
100
AcDbEntity
  8
7
100
AcDbLine
 10
3.008350564693085
 20
3.541487677964739
 30
0.0
 11
3.008350564693085
 21
3.546714257098598
 31
0.0
  0
LINE
  5
25B7
330
1E
100
AcDbEntity
  8
7
100
AcDbLine
 10
2.79275417542143
 20
4.040625985248204
 30
0.0
 11
2.783607661937179
 21
4.023639603063164
 31
0.0
  0
LINE
  5
25B8
330
1E
100
AcDbEntity
  8
7
100
AcDbLine
 10
2.783607661937179
 20
4.023639603063164
 30
0.0
 11
2.783607661937179
 21
3.970067166941118
 31
0.0
  0
LINE
  5
25B9
330
1E
100
AcDbEntity
  8
7
100
AcDbLine
 10
2.919498719417494
 20
4.747520813102535
 30
0.0
 11
2.919498719417494
 21
4.718774627866314
 31
0.0
  0
LINE
  5
25BA
330
1E
100
AcDbEntity
  8
7
100
AcDbLine
 10
2.919498719417494
 20
4.718774627866314
 30
0.0
 11
2.919498719417494
 21
4.684801863496234
 31
0.0
  0
LINE
  5
25BB
330
1E
100
AcDbEntity
  8
7
100
AcDbLine
 10
2.919498719417494
 20
4.684801863496234
 30
0.0
 11
2.919498719417494
 21
4.648215809559227
 31
0.0
  0
LINE
  5
25BC
330
1E
100
AcDbEntity
  8
7
100
AcDbLine
 10
2.919498719417494
 20
4.648215809559227
 30
0.0
 11
2.919498719417494
 21
4.614243045189148
 31
0.0
  0
LINE
  5
25BD
330
1E
100
AcDbEntity
  8
7
100
AcDbLine
 10
2.919498719417494
 20
4.614243045189148
 30
0.0
 11
2.919498719417494
 21
4.585496859952927
 31
0.0
  0
LINE
  5
25BE
330
1E
100
AcDbEntity
  8
7
100
AcDbLine
 10
2.919498719417494
 20
4.585496859952927
 30
0.0
 11
2.920805364200958
 21
4.561977253850566
 31
0.0
  0
LINE
  5
25BF
330
1E
100
AcDbEntity
  8
7
100
AcDbLine
 10
2.920805364200958
 20
4.561977253850566
 30
0.0
 11
2.920805364200958
 21
4.547604161232456
 31
0.0
  0
LINE
  5
25C0
330
1E
100
AcDbEntity
  8
7
100
AcDbLine
 10
2.920805364200958
 20
4.547604161232456
 30
0.0
 11
2.922112008984423
 21
4.542377582098597
 31
0.0
  0
LINE
  5
25C1
330
1E
100
AcDbEntity
  8
7
100
AcDbLine
 10
2.920805364200958
 20
4.463978895090724
 30
0.0
 11
2.919498719417494
 21
4.497951659460801
 31
0.0
  0
LINE
  5
25C2
330
1E
100
AcDbEntity
  8
7
100
AcDbLine
 10
2.919498719417494
 20
4.497951659460801
 30
0.0
 11
2.918192074634029
 21
4.541070937315133
 31
0.0
  0
LINE
  5
25C3
330
1E
100
AcDbEntity
  8
7
100
AcDbLine
 10
2.918192074634029
 20
4.541070937315133
 30
0.0
 11
2.918192074634029
 21
4.590723439086787
 31
0.0
  0
LINE
  5
25C4
330
1E
100
AcDbEntity
  8
7
100
AcDbLine
 10
2.918192074634029
 20
4.590723439086787
 30
0.0
 11
2.916885429850564
 21
4.646909164775762
 31
0.0
  0
LINE
  5
25C5
330
1E
100
AcDbEntity
  8
7
100
AcDbLine
 10
2.916885429850564
 20
4.646909164775762
 30
0.0
 11
2.916885429850564
 21
4.708321469598597
 31
0.0
  0
LINE
  5
25C6
330
1E
100
AcDbEntity
  8
7
100
AcDbLine
 10
2.916885429850564
 20
4.708321469598597
 30
0.0
 11
2.9155787850671
 21
4.77496035355529
 31
0.0
  0
LINE
  5
25C7
330
1E
100
AcDbEntity
  8
7
100
AcDbLine
 10
2.9155787850671
 20
4.77496035355529
 30
0.0
 11
2.9155787850671
 21
4.842905882295448
 31
0.0
  0
LINE
  5
25C8
330
1E
100
AcDbEntity
  8
7
100
AcDbLine
 10
3.008350564693085
 20
4.542377582098597
 30
0.0
 11
3.008350564693085
 21
4.547604161232456
 31
0.0
  0
LINE
  5
25C9
330
1E
100
AcDbEntity
  8
7
100
AcDbLine
 10
3.008350564693085
 20
4.547604161232456
 30
0.0
 11
3.009657209476549
 21
4.561977253850566
 31
0.0
  0
LINE
  5
25CA
330
1E
100
AcDbEntity
  8
7
100
AcDbLine
 10
3.009657209476549
 20
4.561977253850566
 30
0.0
 11
3.009657209476549
 21
4.585496859952927
 31
0.0
  0
LINE
  5
25CB
330
1E
100
AcDbEntity
  8
7
100
AcDbLine
 10
3.009657209476549
 20
4.585496859952927
 30
0.0
 11
3.009657209476549
 21
4.614243045189148
 31
0.0
  0
LINE
  5
25CC
330
1E
100
AcDbEntity
  8
7
100
AcDbLine
 10
3.009657209476549
 20
4.614243045189148
 30
0.0
 11
3.009657209476549
 21
4.648215809559227
 31
0.0
  0
LINE
  5
25CD
330
1E
100
AcDbEntity
  8
7
100
AcDbLine
 10
3.009657209476549
 20
4.648215809559227
 30
0.0
 11
3.009657209476549
 21
4.684801863496234
 31
0.0
  0
LINE
  5
25CE
330
1E
100
AcDbEntity
  8
7
100
AcDbLine
 10
3.009657209476549
 20
4.684801863496234
 30
0.0
 11
3.009657209476549
 21
4.718774627866314
 31
0.0
  0
LINE
  5
25CF
330
1E
100
AcDbEntity
  8
7
100
AcDbLine
 10
3.009657209476549
 20
4.718774627866314
 30
0.0
 11
3.009657209476549
 21
4.747520813102535
 31
0.0
  0
LINE
  5
25D0
330
1E
100
AcDbEntity
  8
7
100
AcDbLine
 10
3.009657209476549
 20
4.747520813102535
 30
0.0
 11
3.009657209476549
 21
4.771040419204896
 31
0.0
  0
LINE
  5
25D1
330
1E
100
AcDbEntity
  8
7
100
AcDbLine
 10
3.009657209476549
 20
4.771040419204896
 30
0.0
 11
3.008350564693085
 21
4.785413511823007
 31
0.0
  0
LINE
  5
25D2
330
1E
100
AcDbEntity
  8
7
100
AcDbLine
 10
3.008350564693085
 20
4.785413511823007
 30
0.0
 11
3.008350564693085
 21
4.790640090956865
 31
0.0
  0
LINE
  5
25D3
330
1E
100
AcDbEntity
  8
7
100
AcDbLine
 10
2.924725298551352
 20
4.419552972452928
 30
0.0
 11
2.92733858811828
 21
4.416939682885999
 31
0.0
  0
LINE
  5
25D4
330
1E
100
AcDbEntity
  8
7
100
AcDbLine
 10
2.92733858811828
 20
4.416939682885999
 30
0.0
 11
2.92733858811828
 21
4.535844358181275
 31
0.0
  0
LINE
  5
25D5
330
1E
100
AcDbEntity
  8
7
100
AcDbLine
 10
2.92733858811828
 20
4.535844358181275
 30
0.0
 11
2.922112008984423
 21
4.542377582098597
 31
0.0
  0
LINE
  5
25D6
330
1E
100
AcDbEntity
  8
7
100
AcDbLine
 10
2.924725298551352
 20
4.419552972452928
 30
0.0
 11
2.923418653767887
 21
4.424779551586786
 31
0.0
  0
LINE
  5
25D7
330
1E
100
AcDbEntity
  8
7
100
AcDbLine
 10
2.923418653767887
 20
4.424779551586786
 30
0.0
 11
2.922112008984423
 21
4.44045928898836
 31
0.0
  0
LINE
  5
25D8
330
1E
100
AcDbEntity
  8
7
100
AcDbLine
 10
2.922112008984423
 20
4.44045928898836
 30
0.0
 11
2.920805364200958
 21
4.463978895090724
 31
0.0
  0
LINE
  5
25D9
330
1E
100
AcDbEntity
  8
7
100
AcDbLine
 10
2.922112008984423
 20
4.790640090956865
 30
0.0
 11
2.92733858811828
 21
4.797173314874187
 31
0.0
  0
LINE
  5
25DA
330
1E
100
AcDbEntity
  8
7
100
AcDbLine
 10
2.92733858811828
 20
4.797173314874187
 30
0.0
 11
2.92733858811828
 21
4.900398252767889
 31
0.0
  0
LINE
  5
25DB
330
1E
100
AcDbEntity
  8
7
100
AcDbLine
 10
2.92733858811828
 20
4.900398252767889
 30
0.0
 11
2.918192074634029
 21
4.908238121468677
 31
0.0
  0
LINE
  5
25DC
330
1E
100
AcDbEntity
  8
7
100
AcDbLine
 10
2.918192074634029
 20
4.908238121468677
 30
0.0
 11
2.918192074634029
 21
4.845519171862376
 31
0.0
  0
LINE
  5
25DD
330
1E
100
AcDbEntity
  8
7
100
AcDbLine
 10
2.918192074634029
 20
4.845519171862376
 30
0.0
 11
2.9155787850671
 21
4.842905882295448
 31
0.0
  0
LINE
  5
25DE
330
1E
100
AcDbEntity
  8
7
100
AcDbLine
 10
2.922112008984423
 20
4.790640090956865
 30
0.0
 11
2.920805364200958
 21
4.785413511823007
 31
0.0
  0
LINE
  5
25DF
330
1E
100
AcDbEntity
  8
7
100
AcDbLine
 10
2.920805364200958
 20
4.785413511823007
 30
0.0
 11
2.920805364200958
 21
4.771040419204896
 31
0.0
  0
LINE
  5
25E0
330
1E
100
AcDbEntity
  8
7
100
AcDbLine
 10
2.920805364200958
 20
4.771040419204896
 30
0.0
 11
2.919498719417494
 21
4.747520813102535
 31
0.0
  0
LINE
  5
25E1
330
1E
100
AcDbEntity
  8
7
100
AcDbLine
 10
3.014883788610407
 20
4.913464700602535
 30
0.0
 11
3.001817340775762
 21
4.900398252767889
 31
0.0
  0
LINE
  5
25E2
330
1E
100
AcDbEntity
  8
7
100
AcDbLine
 10
3.001817340775762
 20
4.900398252767889
 30
0.0
 11
3.001817340775762
 21
4.797173314874187
 31
0.0
  0
LINE
  5
25E3
330
1E
100
AcDbEntity
  8
7
100
AcDbLine
 10
-1.721968541326012
 20
3.972680456508046
 30
0.0
 11
-1.676235973904751
 21
3.966147232590723
 31
0.0
  0
LINE
  5
25E4
330
1E
100
AcDbEntity
  8
7
100
AcDbLine
 10
-1.676235973904751
 20
3.966147232590723
 30
0.0
 11
-1.634423340833885
 21
3.949160850405683
 31
0.0
  0
LINE
  5
25E5
330
1E
100
AcDbEntity
  8
7
100
AcDbLine
 10
-1.634423340833885
 20
3.949160850405683
 30
0.0
 11
-1.599143931680343
 21
3.921721309952928
 31
0.0
  0
LINE
  5
25E6
330
1E
100
AcDbEntity
  8
7
100
AcDbLine
 10
-1.599143931680343
 20
3.921721309952928
 30
0.0
 11
-1.570397746444122
 21
3.88513525601592
 31
0.0
  0
LINE
  5
25E7
330
1E
100
AcDbEntity
  8
7
100
AcDbLine
 10
-1.570397746444122
 20
3.88513525601592
 30
0.0
 11
-1.553411364259082
 21
3.843322622945055
 31
0.0
  0
LINE
  5
25E8
330
1E
100
AcDbEntity
  8
7
100
AcDbLine
 10
-1.553411364259082
 20
3.843322622945055
 30
0.0
 11
-1.548184785125225
 21
3.797590055523794
 31
0.0
  0
LINE
  5
25E9
330
1E
100
AcDbEntity
  8
7
100
AcDbLine
 10
-1.721968541326012
 20
3.668232221960802
 30
0.0
 11
-1.548184785125225
 21
3.672152156311196
 31
0.0
  0
LINE
  5
25EA
330
1E
100
AcDbEntity
  8
7
100
AcDbLine
 10
-1.548184785125225
 20
3.672152156311196
 30
0.0
 11
-1.548184785125225
 21
3.797590055523794
 31
0.0
  0
LINE
  5
25EB
330
1E
100
AcDbEntity
  8
7
100
AcDbLine
 10
-1.721968541326012
 20
3.668232221960802
 30
0.0
 11
-1.797753938766956
 21
3.663005642826944
 31
0.0
  0
LINE
  5
25EC
330
1E
100
AcDbEntity
  8
7
100
AcDbLine
 10
-1.797753938766956
 20
3.663005642826944
 30
0.0
 11
-1.872232691424437
 21
3.64471261585844
 31
0.0
  0
LINE
  5
25ED
330
1E
100
AcDbEntity
  8
7
100
AcDbLine
 10
-1.548184785125225
 20
3.792363476389936
 30
0.0
 11
-1.548184785125225
 21
3.775377094204897
 31
0.0
  0
LINE
  5
25EE
330
1E
100
AcDbEntity
  8
7
100
AcDbLine
 10
-1.548184785125225
 20
3.775377094204897
 30
0.0
 11
-1.548184785125225
 21
3.792363476389936
 31
0.0
  0
LINE
  5
25EF
330
1E
100
AcDbEntity
  8
7
100
AcDbLine
 10
-1.548184785125225
 20
4.018413023929307
 30
0.0
 11
-1.548184785125225
 21
4.070678815267889
 31
0.0
  0
LINE
  5
25F0
330
1E
100
AcDbEntity
  8
7
100
AcDbLine
 10
-1.548184785125225
 20
4.070678815267889
 30
0.0
 11
-1.548184785125225
 21
4.018413023929307
 31
0.0
  0
LINE
  5
25F1
330
1E
100
AcDbEntity
  8
7
100
AcDbLine
 10
-1.548184785125225
 20
4.040625985248204
 30
0.0
 11
-1.548184785125225
 21
4.023639603063165
 31
0.0
  0
LINE
  5
25F2
330
1E
100
AcDbEntity
  8
7
100
AcDbLine
 10
-1.548184785125225
 20
4.023639603063165
 30
0.0
 11
-1.548184785125225
 21
3.970067166941117
 31
0.0
  0
LINE
  5
25F3
330
1E
100
AcDbEntity
  8
7
100
AcDbLine
 10
-1.548184785125225
 20
4.290195138889936
 30
0.0
 11
-1.548184785125225
 21
4.416939682886
 31
0.0
  0
LINE
  5
25F4
330
1E
100
AcDbEntity
  8
7
100
AcDbLine
 10
-1.548184785125225
 20
4.416939682886
 30
0.0
 11
-1.721968541326012
 21
4.420859617236392
 31
0.0
  0
LINE
  5
25F5
330
1E
100
AcDbEntity
  8
7
100
AcDbLine
 10
-1.548184785125225
 20
4.290195138889936
 30
0.0
 11
-1.553411364259082
 21
4.245769216252141
 31
0.0
  0
LINE
  5
25F6
330
1E
100
AcDbEntity
  8
7
100
AcDbLine
 10
-1.553411364259082
 20
4.245769216252141
 30
0.0
 11
-1.570397746444122
 21
4.203956583181274
 31
0.0
  0
LINE
  5
25F7
330
1E
100
AcDbEntity
  8
7
100
AcDbLine
 10
-1.570397746444122
 20
4.203956583181274
 30
0.0
 11
-1.599143931680343
 21
4.167370529244267
 31
0.0
  0
LINE
  5
25F8
330
1E
100
AcDbEntity
  8
7
100
AcDbLine
 10
-1.599143931680343
 20
4.167370529244267
 30
0.0
 11
-1.634423340833885
 21
4.139930988791511
 31
0.0
  0
LINE
  5
25F9
330
1E
100
AcDbEntity
  8
7
100
AcDbLine
 10
-1.634423340833885
 20
4.139930988791511
 30
0.0
 11
-1.676235973904751
 21
4.122944606606472
 31
0.0
  0
LINE
  5
25FA
330
1E
100
AcDbEntity
  8
7
100
AcDbLine
 10
-1.676235973904751
 20
4.122944606606472
 30
0.0
 11
-1.721968541326012
 21
4.116411382689149
 31
0.0
  0
LINE
  5
25FB
330
1E
100
AcDbEntity
  8
7
100
AcDbLine
 10
-1.548184785125225
 20
4.416939682886
 30
0.0
 11
-1.548184785125225
 21
4.535844358181274
 31
0.0
  0
LINE
  5
25FC
330
1E
100
AcDbEntity
  8
7
100
AcDbLine
 10
-1.548184785125225
 20
4.535844358181274
 30
0.0
 11
-1.881379204908689
 21
4.542377582098597
 31
0.0
  0
LINE
  5
25FD
330
1E
100
AcDbEntity
  8
7
100
AcDbLine
 10
-1.872232691424437
 20
4.444379223338756
 30
0.0
 11
-1.797753938766956
 21
4.426086196370251
 31
0.0
  0
LINE
  5
25FE
330
1E
100
AcDbEntity
  8
7
100
AcDbLine
 10
-1.797753938766956
 20
4.426086196370251
 30
0.0
 11
-1.721968541326012
 21
4.420859617236392
 31
0.0
  0
LINE
  5
25FF
330
1E
100
AcDbEntity
  8
7
100
AcDbLine
 10
-1.548184785125225
 20
4.138624344008047
 30
0.0
 11
-1.548184785125225
 21
4.121637961823007
 31
0.0
  0
LINE
  5
2600
330
1E
100
AcDbEntity
  8
7
100
AcDbLine
 10
-1.548184785125225
 20
4.121637961823007
 30
0.0
 11
-1.548184785125225
 21
4.138624344008047
 31
0.0
  0
ENDSEC
  0
SECTION
  2
OBJECTS
  0
DICTIONARY
  5
C
330
0
100
AcDbDictionary
  3
ACAD_GROUP
350
D
  3
ACAD_LAYOUT
350
19
  3
ACAD_MLINESTYLE
350
16
  3
ACAD_PLOTSETTINGS
350
18
  3
ACAD_PLOTSTYLENAME
350
E
  3
ACDBHEADERROUNDTRIPXREC
350
2676
  0
DICTIONARY
  5
2699
330
1E
100
AcDbDictionary
280
     1
  3
ACAD_LAYOUTSELFREF
360
269A
  0
DICTIONARY
  5
2697
330
1A
100
AcDbDictionary
280
     1
  3
ACAD_LAYOUTSELFREF
360
2698
  0
DICTIONARY
  5
D
102
{ACAD_REACTORS
330
C
102
}
330
C
100
AcDbDictionary
  0
DICTIONARY
  5
19
102
{ACAD_REACTORS
330
C
102
}
330
C
100
AcDbDictionary
  0
DICTIONARY
  5
16
102
{ACAD_REACTORS
330
C
102
}
330
C
100
AcDbDictionary
  3
STANDARD
350
17
  0
DICTIONARY
  5
18
102
{ACAD_REACTORS
330
C
102
}
330
C
100
AcDbDictionary
  0
ACDBDICTIONARYWDFLT
  5
E
102
{ACAD_REACTORS
330
C
102
}
330
C
100
AcDbDictionary
281
     1
  3
Normal
350
F
100
AcDbDictionaryWithDefault
340
F
  0
DICTIONARY
  5
2676
102
{ACAD_REACTORS
330
C
102
}
330
C
100
AcDbDictionary
  3
CEPSNTYPE
350
2680
  3
DIMSTYLEDATA
350
2684
  3
FINGERPRINTGUID
350
2681
  3
HYPERLINKBASE
350
2679
  3
INSUNITS
350
267F
  3
LAYOUTDICT
350
267B
  3
LWETCUNION
350
267E
  3
PLOTSETDICT
350
267C
  3
PLOTSTYLNAMDICT
350
267D
  3
PSVPSCALE
350
2683
  3
PUCSBASE
350
2687
  3
PUCSORGBACK
350
268D
  3
PUCSORGBOTTOM
350
2689
  3
PUCSORGFRONT
350
268C
  3
PUCSORGLEFT
350
268A
  3
PUCSORGRIGHT
350
268B
  3
PUCSORGTOP
350
2688
  3
PUCSORTHOREF
350
2685
  3
PUCSORTHOVIEW
350
2686
  3
STYLESHEET
350
267A
  3
TSTACKALIGN
350
2677
  3
TSTACKSIZE
350
2678
  3
UCSBASE
350
2690
  3
UCSORGBACK
350
2696
  3
UCSORGBOTTOM
350
2692
  3
UCSORGFRONT
350
2695
  3
UCSORGLEFT
350
2693
  3
UCSORGRIGHT
350
2694
  3
UCSORGTOP
350
2691
  3
UCSORTHOREF
350
268E
  3
UCSORTHOVIEW
350
268F
  3
VERSIONGUID
350
2682
  0
XRECORD
  5
269A
102
{ACAD_REACTORS
330
2699
102
}
330
2699
100
AcDbXrecord
340
1E
  0
XRECORD
  5
2698
102
{ACAD_REACTORS
330
2697
102
}
330
2697
100
AcDbXrecord
340
1A
  0
MLINESTYLE
  5
17
102
{ACAD_REACTORS
330
16
102
}
330
16
100
AcDbMlineStyle
  2
STANDARD
 70
     0
  3

 62
   256
 51
90.0
 52
90.0
 71
     2
 49
0.5
 62
   256
  6
BYLAYER
 49
-0.5
 62
   256
  6
BYLAYER
  0
ACDBPLACEHOLDER
  5
F
102
{ACAD_REACTORS
330
E
102
}
330
E
100
AcDbPlaceHolder
280
     0
  0
XRECORD
  5
2680
102
{ACAD_REACTORS
330
2676
102
}
330
2676
100
AcDbXrecord
 90
        0
  0
XRECORD
  5
2684
102
{ACAD_REACTORS
330
2676
102
}
330
2676
100
AcDbXrecord
1000
DSTYLE
1002
{
1070
   279
 70
     2
1002
}
  0
XRECORD
  5
2681
102
{ACAD_REACTORS
330
2676
102
}
330
2676
100
AcDbXrecord
  1
{8C3477AF-35EB-11D6-B7B1-00B0D0207C23}
  0
XRECORD
  5
2679
102
{ACAD_REACTORS
330
2676
102
}
330
2676
100
AcDbXrecord
  1

  0
XRECORD
  5
267F
102
{ACAD_REACTORS
330
2676
102
}
330
2676
100
AcDbXrecord
 90
        0
  0
XRECORD
  5
267B
102
{ACAD_REACTORS
330
2676
102
}
330
2676
100
AcDbXrecord
340
19
  0
XRECORD
  5
267E
102
{ACAD_REACTORS
330
2676
102
}
330
2676
100
AcDbXrecord
 90
    14877
  0
XRECORD
  5
267C
102
{ACAD_REACTORS
330
2676
102
}
330
2676
100
AcDbXrecord
340
18
  0
XRECORD
  5
267D
102
{ACAD_REACTORS
330
2676
102
}
330
2676
100
AcDbXrecord
340
E
  0
XRECORD
  5
2683
102
{ACAD_REACTORS
330
2676
102
}
330
2676
100
AcDbXrecord
 40
0.0
  0
XRECORD
  5
2687
102
{ACAD_REACTORS
330
2676
102
}
330
2676
100
AcDbXrecord
340
0
  0
XRECORD
  5
268D
102
{ACAD_REACTORS
330
2676
102
}
330
2676
100
AcDbXrecord
 10
0.0
 20
0.0
 30
0.0
  0
XRECORD
  5
2689
102
{ACAD_REACTORS
330
2676
102
}
330
2676
100
AcDbXrecord
 10
0.0
 20
0.0
 30
0.0
  0
XRECORD
  5
268C
102
{ACAD_REACTORS
330
2676
102
}
330
2676
100
AcDbXrecord
 10
0.0
 20
0.0
 30
0.0
  0
XRECORD
  5
268A
102
{ACAD_REACTORS
330
2676
102
}
330
2676
100
AcDbXrecord
 10
0.0
 20
0.0
 30
0.0
  0
XRECORD
  5
268B
102
{ACAD_REACTORS
330
2676
102
}
330
2676
100
AcDbXrecord
 10
0.0
 20
0.0
 30
0.0
  0
XRECORD
  5
2688
102
{ACAD_REACTORS
330
2676
102
}
330
2676
100
AcDbXrecord
 10
0.0
 20
0.0
 30
0.0
  0
XRECORD
  5
2685
102
{ACAD_REACTORS
330
2676
102
}
330
2676
100
AcDbXrecord
340
0
  0
XRECORD
  5
2686
102
{ACAD_REACTORS
330
2676
102
}
330
2676
100
AcDbXrecord
 70
     0
  0
XRECORD
  5
267A
102
{ACAD_REACTORS
330
2676
102
}
330
2676
100
AcDbXrecord
  1

  0
XRECORD
  5
2677
102
{ACAD_REACTORS
330
2676
102
}
330
2676
100
AcDbXrecord
 90
        1
  0
XRECORD
  5
2678
102
{ACAD_REACTORS
330
2676
102
}
330
2676
100
AcDbXrecord
 90
       70
  0
XRECORD
  5
2690
102
{ACAD_REACTORS
330
2676
102
}
330
2676
100
AcDbXrecord
340
0
  0
XRECORD
  5
2696
102
{ACAD_REACTORS
330
2676
102
}
330
2676
100
AcDbXrecord
 10
0.0
 20
0.0
 30
0.0
  0
XRECORD
  5
2692
102
{ACAD_REACTORS
330
2676
102
}
330
2676
100
AcDbXrecord
 10
0.0
 20
0.0
 30
0.0
  0
XRECORD
  5
2695
102
{ACAD_REACTORS
330
2676
102
}
330
2676
100
AcDbXrecord
 10
0.0
 20
0.0
 30
0.0
  0
XRECORD
  5
2693
102
{ACAD_REACTORS
330
2676
102
}
330
2676
100
AcDbXrecord
 10
0.0
 20
0.0
 30
0.0
  0
XRECORD
  5
2694
102
{ACAD_REACTORS
330
2676
102
}
330
2676
100
AcDbXrecord
 10
0.0
 20
0.0
 30
0.0
  0
XRECORD
  5
2691
102
{ACAD_REACTORS
330
2676
102
}
330
2676
100
AcDbXrecord
 10
0.0
 20
0.0
 30
0.0
  0
XRECORD
  5
268E
102
{ACAD_REACTORS
330
2676
102
}
330
2676
100
AcDbXrecord
340
0
  0
XRECORD
  5
268F
102
{ACAD_REACTORS
330
2676
102
}
330
2676
100
AcDbXrecord
 70
     0
  0
XRECORD
  5
2682
102
{ACAD_REACTORS
330
2676
102
}
330
2676
100
AcDbXrecord
  1
{8C3477B1-35EB-11D6-B7B1-00B0D0207C23}
  0
ENDSEC
  0
EOF
