  0
SECTION
  2
HEADER
  9
$ACADVER
  1
AC1012
  9
$DWGCODEPAGE
  3
ANSI_1252
  9
$INSBASE
 10
0.0
 20
0.0
 30
0.0
  9
$EXTMIN
 10
1.105590849539254
 20
3.582641626688001
 30
-0.0015258207003583
  9
$EXTMAX
 10
5.696044942475907
 20
6.534530657733011
 30
0.0000000349246037
  9
$LIMMIN
 10
0.0
 20
0.0
  9
$LIMMAX
 10
12.0
 20
9.0
  9
$ORTHOMODE
 70
     0
  9
$REGENMODE
 70
     1
  9
$FILLMODE
 70
     1
  9
$QTEXTMODE
 70
     0
  9
$MIRRTEXT
 70
     1
  9
$DRAGMODE
 70
     2
  9
$LTSCALE
 40
1.0
  9
$OSMODE
 70
   547
  9
$ATTMODE
 70
     1
  9
$TEXTSIZE
 40
0.2
  9
$TRACEWID
 40
0.05
  9
$TEXTSTYLE
  7
STANDARD
  9
$CLAYER
  8
0
  9
$CELTYPE
  6
BYLAYER
  9
$CECOLOR
 62
   256
  9
$CELTSCALE
 40
1.0
  9
$DELOBJ
 70
     1
  9
$DISPSILH
 70
     0
  9
$DIMSCALE
 40
1.0
  9
$DIMASZ
 40
0.18
  9
$DIMEXO
 40
0.0625
  9
$DIMDLI
 40
0.38
  9
$DIMRND
 40
0.0
  9
$DIMDLE
 40
0.0
  9
$DIMEXE
 40
0.18
  9
$DIMTP
 40
0.0
  9
$DIMTM
 40
0.0
  9
$DIMTXT
 40
0.18
  9
$DIMCEN
 40
0.09
  9
$DIMTSZ
 40
0.0
  9
$DIMTOL
 70
     0
  9
$DIMLIM
 70
     0
  9
$DIMTIH
 70
     1
  9
$DIMTOH
 70
     1
  9
$DIMSE1
 70
     0
  9
$DIMSE2
 70
     0
  9
$DIMTAD
 70
     0
  9
$DIMZIN
 70
     0
  9
$DIMBLK
  1

  9
$DIMASO
 70
     1
  9
$DIMSHO
 70
     1
  9
$DIMPOST
  1

  9
$DIMAPOST
  1

  9
$DIMALT
 70
     0
  9
$DIMALTD
 70
     2
  9
$DIMALTF
 40
25.4
  9
$DIMLFAC
 40
1.0
  9
$DIMTOFL
 70
     0
  9
$DIMTVP
 40
0.0
  9
$DIMTIX
 70
     0
  9
$DIMSOXD
 70
     0
  9
$DIMSAH
 70
     0
  9
$DIMBLK1
  1

  9
$DIMBLK2
  1

  9
$DIMSTYLE
  2
STANDARD
  9
$DIMCLRD
 70
     0
  9
$DIMCLRE
 70
     0
  9
$DIMCLRT
 70
     0
  9
$DIMTFAC
 40
1.0
  9
$DIMGAP
 40
0.09
  9
$DIMJUST
 70
     0
  9
$DIMSD1
 70
     0
  9
$DIMSD2
 70
     0
  9
$DIMTOLJ
 70
     1
  9
$DIMTZIN
 70
     0
  9
$DIMALTZ
 70
     0
  9
$DIMALTTZ
 70
     0
  9
$DIMFIT
 70
     5
  9
$DIMUPT
 70
     0
  9
$DIMUNIT
 70
     2
  9
$DIMDEC
 70
     4
  9
$DIMTDEC
 70
     4
  9
$DIMALTU
 70
     2
  9
$DIMALTTD
 70
     2
  9
$DIMTXSTY
  7
STANDARD
  9
$DIMAUNIT
 70
     0
  9
$LUNITS
 70
     2
  9
$LUPREC
 70
     4
  9
$SKETCHINC
 40
0.1
  9
$FILLETRAD
 40
0.0
  9
$AUNITS
 70
     0
  9
$AUPREC
 70
     0
  9
$MENU
  1
acad
  9
$ELEVATION
 40
0.0
  9
$PELEVATION
 40
0.0
  9
$THICKNESS
 40
0.0
  9
$LIMCHECK
 70
     0
  9
$BLIPMODE
 70
     0
  9
$CHAMFERA
 40
0.0
  9
$CHAMFERB
 40
0.0
  9
$CHAMFERC
 40
0.0
  9
$CHAMFERD
 40
0.0
  9
$SKPOLY
 70
     0
  9
$TDCREATE
 40
2453586.530208333
  9
$TDUPDATE
 40
2453586.560756492
  9
$TDINDWG
 40
0.0005005787
  9
$TDUSRTIMER
 40
0.0005005787
  9
$USRTIMER
 70
     1
  9
$ANGBASE
 50
0.0
  9
$ANGDIR
 70
     0
  9
$PDMODE
 70
     0
  9
$PDSIZE
 40
0.0
  9
$PLINEWID
 40
0.0
  9
$COORDS
 70
     1
  9
$SPLFRAME
 70
     0
  9
$SPLINETYPE
 70
     6
  9
$SPLINESEGS
 70
     8
  9
$ATTDIA
 70
     0
  9
$ATTREQ
 70
     1
  9
$HANDLING
 70
  4097
  9
$HANDSEED
  5
4AA6
  9
$SURFTAB1
 70
     6
  9
$SURFTAB2
 70
     6
  9
$SURFTYPE
 70
     6
  9
$SURFU
 70
     6
  9
$SURFV
 70
     6
  9
$UCSNAME
  2

  9
$UCSORG
 10
0.0
 20
0.0
 30
0.0
  9
$UCSXDIR
 10
1.0
 20
0.0
 30
0.0
  9
$UCSYDIR
 10
0.0
 20
1.0
 30
0.0
  9
$PUCSNAME
  2

  9
$PUCSORG
 10
0.0
 20
0.0
 30
0.0
  9
$PUCSXDIR
 10
1.0
 20
0.0
 30
0.0
  9
$PUCSYDIR
 10
0.0
 20
1.0
 30
0.0
  9
$USERI1
 70
     0
  9
$USERI2
 70
     0
  9
$USERI3
 70
     0
  9
$USERI4
 70
     0
  9
$USERI5
 70
     0
  9
$USERR1
 40
0.0
  9
$USERR2
 40
0.0
  9
$USERR3
 40
0.0
  9
$USERR4
 40
0.0
  9
$USERR5
 40
0.0
  9
$WORLDVIEW
 70
     1
  9
$SHADEDGE
 70
     3
  9
$SHADEDIF
 70
    70
  9
$TILEMODE
 70
     1
  9
$MAXACTVP
 70
    16
  9
$PINSBASE
 10
0.0
 20
0.0
 30
0.0
  9
$PLIMCHECK
 70
     0
  9
$PEXTMIN
 10
1.000000000000000E+20
 20
1.000000000000000E+20
 30
1.000000000000000E+20
  9
$PEXTMAX
 10
-1.000000000000000E+20
 20
-1.000000000000000E+20
 30
-1.000000000000000E+20
  9
$PLIMMIN
 10
0.0
 20
0.0
  9
$PLIMMAX
 10
12.0
 20
9.0
  9
$UNITMODE
 70
     0
  9
$VISRETAIN
 70
     0
  9
$PLINEGEN
 70
     0
  9
$PSLTSCALE
 70
     1
  9
$TREEDEPTH
 70
  3020
  9
$PICKSTYLE
 70
     1
  9
$CMLSTYLE
  2
STANDARD
  9
$CMLJUST
 70
     0
  9
$CMLSCALE
 40
1.0
  9
$SAVEIMAGES
 70
     1
  0
ENDSEC
  0
SECTION
  2
CLASSES
  0
CLASS
  1
ACDBDICTIONARYWDFLT
  2
AcDbDictionaryWithDefault
  3
AutoCAD 2000
 90
    32768
280
     0
281
     0
  0
CLASS
  1
ACDBPLACEHOLDER
  2
AcDbPlaceHolder
  3
AutoCAD 2000
 90
    32768
280
     0
281
     0
  0
CLASS
  1
LAYOUT
  2
AcDbLayout
  3
AutoCAD 2000
 90
    32768
280
     0
281
     0
  0
CLASS
  1
LONG_TRANSACTION
  2
AcDbLongTransaction
  3
AutoCAD 2000
 90
    32768
280
     0
281
     0
  0
CLASS
  1
LWPOLYLINE
  2
AcDbPolyline
  3
AutoCAD 2000
 90
    32768
280
     0
281
     1
  0
CLASS
  1
HATCH
  2
AcDbHatch
  3
AutoCAD 2000
 90
    32768
280
     0
281
     1
  0
CLASS
  1
XRECORD
  2
AcDbXrecord
  3
AutoCAD 2000
 90
    32768
280
     0
281
     0
  0
ENDSEC
  0
SECTION
  2
TABLES
  0
TABLE
  2
VPORT
  5
8
330
0
100
AcDbSymbolTable
 70
     3
  0
VPORT
  5
4AA1
330
8
100
AcDbSymbolTableRecord
100
AcDbViewportTableRecord
  2
*ACTIVE
 70
     0
 10
0.0
 20
0.0
 11
1.0
 21
1.0
 12
3.40081789600758
 22
5.058586142210506
 13
0.0
 23
0.0
 14
1.0
 24
1.0
 15
0.0
 25
0.0
 16
0.0
 26
0.0
 36
1.0
 17
0.0
 27
0.0
 37
0.0
 40
2.984871031391881
 41
1.748134328358208
 42
50.0
 43
0.0
 44
0.0
 50
0.0
 51
0.0
 71
     0
 72
   100
 73
     1
 74
     1
 75
     0
 76
     0
 77
     0
 78
     0
  0
ENDTAB
  0
TABLE
  2
LTYPE
  5
5
330
0
100
AcDbSymbolTable
 70
    25
  0
LTYPE
  5
13
330
5
100
AcDbSymbolTableRecord
100
AcDbLinetypeTableRecord
  2
BYBLOCK
 70
     0
  3

 72
    65
 73
     0
 40
0.0
  0
LTYPE
  5
14
330
5
100
AcDbSymbolTableRecord
100
AcDbLinetypeTableRecord
  2
BYLAYER
 70
     0
  3

 72
    65
 73
     0
 40
0.0
  0
LTYPE
  5
15
330
5
100
AcDbSymbolTableRecord
100
AcDbLinetypeTableRecord
  2
CONTINUOUS
 70
     0
  3
Solid line
 72
    65
 73
     0
 40
0.0
  0
LTYPE
  5
22
330
5
100
AcDbSymbolTableRecord
100
AcDbLinetypeTableRecord
  2
BORDER
 70
     0
  3
__ __ . __ __ . __ __ . __ __ . __ __ . __ __ .
 72
    65
 73
     6
 40
1.75
 49
0.5
 74
     0
 49
-0.25
 74
     0
 49
0.5
 74
     0
 49
-0.25
 74
     0
 49
0.5
 74
     0
 49
-0.25
 74
     0
  0
LTYPE
  5
23
330
5
100
AcDbSymbolTableRecord
100
AcDbLinetypeTableRecord
  2
BORDER2
 70
     0
  3
__.__.__.__.__.__.__.__.__.__.__.__.__.__.__.__
 72
    65
 73
     6
 40
0.875
 49
0.25
 74
     0
 49
-0.125
 74
     0
 49
0.25
 74
     0
 49
-0.125
 74
     0
 49
0.25
 74
     0
 49
-0.125
 74
     0
  0
LTYPE
  5
24
330
5
100
AcDbSymbolTableRecord
100
AcDbLinetypeTableRecord
  2
BORDERX2
 70
     0
  3
____  ____  .  ____  ____  .  
 72
    65
 73
     6
 40
3.5
 49
1.0
 74
     0
 49
-0.5
 74
     0
 49
1.0
 74
     0
 49
-0.5
 74
     0
 49
1.0
 74
     0
 49
-0.5
 74
     0
  0
LTYPE
  5
25
330
5
100
AcDbSymbolTableRecord
100
AcDbLinetypeTableRecord
  2
CENTER
 70
     0
  3
____ _ ____ _ ____ _ ____ _ ____ _ ____ _ ____
 72
    65
 73
     4
 40
2.0
 49
1.25
 74
     0
 49
-0.25
 74
     0
 49
0.25
 74
     0
 49
-0.25
 74
     0
  0
LTYPE
  5
26
330
5
100
AcDbSymbolTableRecord
100
AcDbLinetypeTableRecord
  2
CENTER2
 70
     0
  3
____ _ ____ _ ____ _ ____ _ ____ _ ____ _ ____
 72
    65
 73
     4
 40
1.125
 49
0.75
 74
     0
 49
-0.125
 74
     0
 49
0.125
 74
     0
 49
-0.125
 74
     0
  0
LTYPE
  5
27
330
5
100
AcDbSymbolTableRecord
100
AcDbLinetypeTableRecord
  2
CENTERX2
 70
     0
  3
________  __  ________  __  ________  __  
 72
    65
 73
     4
 40
4.0
 49
2.5
 74
     0
 49
-0.5
 74
     0
 49
0.5
 74
     0
 49
-0.5
 74
     0
  0
LTYPE
  5
28
330
5
100
AcDbSymbolTableRecord
100
AcDbLinetypeTableRecord
  2
DASHDOT
 70
     0
  3
__ . __ . __ . __ . __ . __ . __ . 
 72
    65
 73
     4
 40
1.0
 49
0.5
 74
     0
 49
-0.25
 74
     0
 49
0.0
 74
     0
 49
-0.25
 74
     0
  0
LTYPE
  5
29
330
5
100
AcDbSymbolTableRecord
100
AcDbLinetypeTableRecord
  2
DASHDOT2
 70
     0
  3
_._._._._._._._._._._._._._._._.
 72
    65
 73
     4
 40
0.5
 49
0.25
 74
     0
 49
-0.125
 74
     0
 49
0.0
 74
     0
 49
-0.125
 74
     0
  0
LTYPE
  5
2A
330
5
100
AcDbSymbolTableRecord
100
AcDbLinetypeTableRecord
  2
DASHDOTX2
 70
     0
  3
____  .  ____  .  ____  .  ____  .  
 72
    65
 73
     4
 40
2.0
 49
1.0
 74
     0
 49
-0.5
 74
     0
 49
0.0
 74
     0
 49
-0.5
 74
     0
  0
LTYPE
  5
2B
330
5
100
AcDbSymbolTableRecord
100
AcDbLinetypeTableRecord
  2
DASHED
 70
     0
  3
__ __ __ __ __ __ __ __ __ __ __ __ 
 72
    65
 73
     2
 40
0.75
 49
0.5
 74
     0
 49
-0.25
 74
     0
  0
LTYPE
  5
2C
330
5
100
AcDbSymbolTableRecord
100
AcDbLinetypeTableRecord
  2
DASHED2
 70
     0
  3
_ _ _ _ _ _ _ _ _ _ _ _ _ _ _ _ _ _ 
 72
    65
 73
     2
 40
0.375
 49
0.25
 74
     0
 49
-0.125
 74
     0
  0
LTYPE
  5
2D
330
5
100
AcDbSymbolTableRecord
100
AcDbLinetypeTableRecord
  2
DASHEDX2
 70
     0
  3
____  ____  ____  ____  ____  ____  
 72
    65
 73
     2
 40
1.5
 49
1.0
 74
     0
 49
-0.5
 74
     0
  0
LTYPE
  5
2E
330
5
100
AcDbSymbolTableRecord
100
AcDbLinetypeTableRecord
  2
DIVIDE
 70
     0
  3
____ . . ____ . . ____ . . ____ . . 
 72
    65
 73
     6
 40
1.25
 49
0.5
 74
     0
 49
-0.25
 74
     0
 49
0.0
 74
     0
 49
-0.25
 74
     0
 49
0.0
 74
     0
 49
-0.25
 74
     0
  0
LTYPE
  5
2F
330
5
100
AcDbSymbolTableRecord
100
AcDbLinetypeTableRecord
  2
DIVIDE2
 70
     0
  3
__..__..__..__..__..__..__..__..__..
 72
    65
 73
     6
 40
0.625
 49
0.25
 74
     0
 49
-0.125
 74
     0
 49
0.0
 74
     0
 49
-0.125
 74
     0
 49
0.0
 74
     0
 49
-0.125
 74
     0
  0
LTYPE
  5
30
330
5
100
AcDbSymbolTableRecord
100
AcDbLinetypeTableRecord
  2
DIVIDEX2
 70
     0
  3
________  .  .  ________  .  .  ________  .  . 
 72
    65
 73
     6
 40
2.5
 49
1.0
 74
     0
 49
-0.5
 74
     0
 49
0.0
 74
     0
 49
-0.5
 74
     0
 49
0.0
 74
     0
 49
-0.5
 74
     0
  0
LTYPE
  5
31
330
5
100
AcDbSymbolTableRecord
100
AcDbLinetypeTableRecord
  2
DOT
 70
     0
  3
. . . . . . . . . . . . . . . . . . 
 72
    65
 73
     2
 40
0.25
 49
0.0
 74
     0
 49
-0.25
 74
     0
  0
LTYPE
  5
32
330
5
100
AcDbSymbolTableRecord
100
AcDbLinetypeTableRecord
  2
DOT2
 70
     0
  3
....................................
 72
    65
 73
     2
 40
0.125
 49
0.0
 74
     0
 49
-0.125
 74
     0
  0
LTYPE
  5
33
330
5
100
AcDbSymbolTableRecord
100
AcDbLinetypeTableRecord
  2
DOTX2
 70
     0
  3
.  .  .  .  .  .  .  .  .  .  .  .  .  
 72
    65
 73
     2
 40
0.5
 49
0.0
 74
     0
 49
-0.5
 74
     0
  0
LTYPE
  5
34
330
5
100
AcDbSymbolTableRecord
100
AcDbLinetypeTableRecord
  2
HIDDEN
 70
     0
  3
__ __ __ __ __ __ __ __ __ __ __ __ 
 72
    65
 73
     2
 40
0.375
 49
0.25
 74
     0
 49
-0.125
 74
     0
  0
LTYPE
  5
35
330
5
100
AcDbSymbolTableRecord
100
AcDbLinetypeTableRecord
  2
HIDDEN2
 70
     0
  3
_ _ _ _ _ _ _ _ _ _ _ _ _ _ _ _ _ _ 
 72
    65
 73
     2
 40
0.1875
 49
0.125
 74
     0
 49
-0.0625
 74
     0
  0
LTYPE
  5
36
330
5
100
AcDbSymbolTableRecord
100
AcDbLinetypeTableRecord
  2
HIDDENX2
 70
     0
  3
____ ____ ____ ____ ____ ____ ____ 
 72
    65
 73
     2
 40
0.75
 49
0.5
 74
     0
 49
-0.25
 74
     0
  0
LTYPE
  5
37
330
5
100
AcDbSymbolTableRecord
100
AcDbLinetypeTableRecord
  2
PHANTOM
 70
     0
  3
______  __  __  ______  __  __  
 72
    65
 73
     6
 40
2.5
 49
1.25
 74
     0
 49
-0.25
 74
     0
 49
0.25
 74
     0
 49
-0.25
 74
     0
 49
0.25
 74
     0
 49
-0.25
 74
     0
  0
LTYPE
  5
38
330
5
100
AcDbSymbolTableRecord
100
AcDbLinetypeTableRecord
  2
PHANTOM2
 70
     0
  3
___ _ _ ___ _ _ ___ _ _ ___ _ _ 
 72
    65
 73
     6
 40
1.25
 49
0.625
 74
     0
 49
-0.125
 74
     0
 49
0.125
 74
     0
 49
-0.125
 74
     0
 49
0.125
 74
     0
 49
-0.125
 74
     0
  0
LTYPE
  5
39
330
5
100
AcDbSymbolTableRecord
100
AcDbLinetypeTableRecord
  2
PHANTOMX2
 70
     0
  3
___ _ _ ___ _ _ ___ _ _ ___ _ _ 
 72
    65
 73
     6
 40
5.0
 49
2.5
 74
     0
 49
-0.5
 74
     0
 49
0.5
 74
     0
 49
-0.5
 74
     0
 49
0.5
 74
     0
 49
-0.5
 74
     0
  0
ENDTAB
  0
TABLE
  2
LAYER
  5
2
330
0
100
AcDbSymbolTable
 70
   256
  0
LAYER
  5
10
330
2
100
AcDbSymbolTableRecord
100
AcDbLayerTableRecord
  2
0
 70
     0
 62
     7
  6
CONTINUOUS
  0
LAYER
  5
3A
330
2
100
AcDbSymbolTableRecord
100
AcDbLayerTableRecord
  2
1
 70
     0
 62
     1
  6
CONTINUOUS
  0
LAYER
  5
3B
330
2
100
AcDbSymbolTableRecord
100
AcDbLayerTableRecord
  2
2
 70
     0
 62
     2
  6
CONTINUOUS
  0
LAYER
  5
3C
330
2
100
AcDbSymbolTableRecord
100
AcDbLayerTableRecord
  2
3
 70
     0
 62
     3
  6
CONTINUOUS
  0
LAYER
  5
3D
330
2
100
AcDbSymbolTableRecord
100
AcDbLayerTableRecord
  2
4
 70
     0
 62
     4
  6
CONTINUOUS
  0
LAYER
  5
3E
330
2
100
AcDbSymbolTableRecord
100
AcDbLayerTableRecord
  2
5
 70
     0
 62
     5
  6
CONTINUOUS
  0
LAYER
  5
3F
330
2
100
AcDbSymbolTableRecord
100
AcDbLayerTableRecord
  2
6
 70
     0
 62
     6
  6
CONTINUOUS
  0
LAYER
  5
40
330
2
100
AcDbSymbolTableRecord
100
AcDbLayerTableRecord
  2
7
 70
     0
 62
     7
  6
CONTINUOUS
  0
LAYER
  5
41
330
2
100
AcDbSymbolTableRecord
100
AcDbLayerTableRecord
  2
8
 70
     0
 62
     8
  6
CONTINUOUS
  0
LAYER
  5
42
330
2
100
AcDbSymbolTableRecord
100
AcDbLayerTableRecord
  2
9
 70
     0
 62
     9
  6
CONTINUOUS
  0
LAYER
  5
43
330
2
100
AcDbSymbolTableRecord
100
AcDbLayerTableRecord
  2
10
 70
     0
 62
    10
  6
CONTINUOUS
  0
LAYER
  5
44
330
2
100
AcDbSymbolTableRecord
100
AcDbLayerTableRecord
  2
11
 70
     0
 62
    11
  6
CONTINUOUS
  0
LAYER
  5
45
330
2
100
AcDbSymbolTableRecord
100
AcDbLayerTableRecord
  2
12
 70
     0
 62
    12
  6
CONTINUOUS
  0
LAYER
  5
46
330
2
100
AcDbSymbolTableRecord
100
AcDbLayerTableRecord
  2
13
 70
     0
 62
    13
  6
CONTINUOUS
  0
LAYER
  5
47
330
2
100
AcDbSymbolTableRecord
100
AcDbLayerTableRecord
  2
14
 70
     0
 62
    14
  6
CONTINUOUS
  0
LAYER
  5
48
330
2
100
AcDbSymbolTableRecord
100
AcDbLayerTableRecord
  2
15
 70
     0
 62
    15
  6
CONTINUOUS
  0
LAYER
  5
49
330
2
100
AcDbSymbolTableRecord
100
AcDbLayerTableRecord
  2
16
 70
     0
 62
    16
  6
CONTINUOUS
  0
LAYER
  5
4A
330
2
100
AcDbSymbolTableRecord
100
AcDbLayerTableRecord
  2
17
 70
     0
 62
    17
  6
CONTINUOUS
  0
LAYER
  5
4B
330
2
100
AcDbSymbolTableRecord
100
AcDbLayerTableRecord
  2
18
 70
     0
 62
    18
  6
CONTINUOUS
  0
LAYER
  5
4C
330
2
100
AcDbSymbolTableRecord
100
AcDbLayerTableRecord
  2
19
 70
     0
 62
    19
  6
CONTINUOUS
  0
LAYER
  5
4D
330
2
100
AcDbSymbolTableRecord
100
AcDbLayerTableRecord
  2
20
 70
     0
 62
    20
  6
CONTINUOUS
  0
LAYER
  5
4E
330
2
100
AcDbSymbolTableRecord
100
AcDbLayerTableRecord
  2
21
 70
     0
 62
    21
  6
CONTINUOUS
  0
LAYER
  5
4F
330
2
100
AcDbSymbolTableRecord
100
AcDbLayerTableRecord
  2
22
 70
     0
 62
    22
  6
CONTINUOUS
  0
LAYER
  5
50
330
2
100
AcDbSymbolTableRecord
100
AcDbLayerTableRecord
  2
23
 70
     0
 62
    23
  6
CONTINUOUS
  0
LAYER
  5
51
330
2
100
AcDbSymbolTableRecord
100
AcDbLayerTableRecord
  2
24
 70
     0
 62
    24
  6
CONTINUOUS
  0
LAYER
  5
52
330
2
100
AcDbSymbolTableRecord
100
AcDbLayerTableRecord
  2
25
 70
     0
 62
    25
  6
CONTINUOUS
  0
LAYER
  5
53
330
2
100
AcDbSymbolTableRecord
100
AcDbLayerTableRecord
  2
26
 70
     0
 62
    26
  6
CONTINUOUS
  0
LAYER
  5
54
330
2
100
AcDbSymbolTableRecord
100
AcDbLayerTableRecord
  2
27
 70
     0
 62
    27
  6
CONTINUOUS
  0
LAYER
  5
55
330
2
100
AcDbSymbolTableRecord
100
AcDbLayerTableRecord
  2
28
 70
     0
 62
    28
  6
CONTINUOUS
  0
LAYER
  5
56
330
2
100
AcDbSymbolTableRecord
100
AcDbLayerTableRecord
  2
29
 70
     0
 62
    29
  6
CONTINUOUS
  0
LAYER
  5
57
330
2
100
AcDbSymbolTableRecord
100
AcDbLayerTableRecord
  2
30
 70
     0
 62
    30
  6
CONTINUOUS
  0
LAYER
  5
58
330
2
100
AcDbSymbolTableRecord
100
AcDbLayerTableRecord
  2
31
 70
     0
 62
    31
  6
CONTINUOUS
  0
LAYER
  5
59
330
2
100
AcDbSymbolTableRecord
100
AcDbLayerTableRecord
  2
32
 70
     0
 62
    32
  6
CONTINUOUS
  0
LAYER
  5
5A
330
2
100
AcDbSymbolTableRecord
100
AcDbLayerTableRecord
  2
33
 70
     0
 62
    33
  6
CONTINUOUS
  0
LAYER
  5
5B
330
2
100
AcDbSymbolTableRecord
100
AcDbLayerTableRecord
  2
34
 70
     0
 62
    34
  6
CONTINUOUS
  0
LAYER
  5
5C
330
2
100
AcDbSymbolTableRecord
100
AcDbLayerTableRecord
  2
35
 70
     0
 62
    35
  6
CONTINUOUS
  0
LAYER
  5
5D
330
2
100
AcDbSymbolTableRecord
100
AcDbLayerTableRecord
  2
36
 70
     0
 62
    36
  6
CONTINUOUS
  0
LAYER
  5
5E
330
2
100
AcDbSymbolTableRecord
100
AcDbLayerTableRecord
  2
37
 70
     0
 62
    37
  6
CONTINUOUS
  0
LAYER
  5
5F
330
2
100
AcDbSymbolTableRecord
100
AcDbLayerTableRecord
  2
38
 70
     0
 62
    38
  6
CONTINUOUS
  0
LAYER
  5
60
330
2
100
AcDbSymbolTableRecord
100
AcDbLayerTableRecord
  2
39
 70
     0
 62
    39
  6
CONTINUOUS
  0
LAYER
  5
61
330
2
100
AcDbSymbolTableRecord
100
AcDbLayerTableRecord
  2
40
 70
     0
 62
    40
  6
CONTINUOUS
  0
LAYER
  5
62
330
2
100
AcDbSymbolTableRecord
100
AcDbLayerTableRecord
  2
41
 70
     0
 62
    41
  6
CONTINUOUS
  0
LAYER
  5
63
330
2
100
AcDbSymbolTableRecord
100
AcDbLayerTableRecord
  2
42
 70
     0
 62
    42
  6
CONTINUOUS
  0
LAYER
  5
64
330
2
100
AcDbSymbolTableRecord
100
AcDbLayerTableRecord
  2
43
 70
     0
 62
    43
  6
CONTINUOUS
  0
LAYER
  5
65
330
2
100
AcDbSymbolTableRecord
100
AcDbLayerTableRecord
  2
44
 70
     0
 62
    44
  6
CONTINUOUS
  0
LAYER
  5
66
330
2
100
AcDbSymbolTableRecord
100
AcDbLayerTableRecord
  2
45
 70
     0
 62
    45
  6
CONTINUOUS
  0
LAYER
  5
67
330
2
100
AcDbSymbolTableRecord
100
AcDbLayerTableRecord
  2
46
 70
     0
 62
    46
  6
CONTINUOUS
  0
LAYER
  5
68
330
2
100
AcDbSymbolTableRecord
100
AcDbLayerTableRecord
  2
47
 70
     0
 62
    47
  6
CONTINUOUS
  0
LAYER
  5
69
330
2
100
AcDbSymbolTableRecord
100
AcDbLayerTableRecord
  2
48
 70
     0
 62
    48
  6
CONTINUOUS
  0
LAYER
  5
6A
330
2
100
AcDbSymbolTableRecord
100
AcDbLayerTableRecord
  2
49
 70
     0
 62
    49
  6
CONTINUOUS
  0
LAYER
  5
6B
330
2
100
AcDbSymbolTableRecord
100
AcDbLayerTableRecord
  2
50
 70
     0
 62
    50
  6
CONTINUOUS
  0
LAYER
  5
6C
330
2
100
AcDbSymbolTableRecord
100
AcDbLayerTableRecord
  2
51
 70
     0
 62
    51
  6
CONTINUOUS
  0
LAYER
  5
6D
330
2
100
AcDbSymbolTableRecord
100
AcDbLayerTableRecord
  2
52
 70
     0
 62
    52
  6
CONTINUOUS
  0
LAYER
  5
6E
330
2
100
AcDbSymbolTableRecord
100
AcDbLayerTableRecord
  2
53
 70
     0
 62
    53
  6
CONTINUOUS
  0
LAYER
  5
6F
330
2
100
AcDbSymbolTableRecord
100
AcDbLayerTableRecord
  2
54
 70
     0
 62
    54
  6
CONTINUOUS
  0
LAYER
  5
70
330
2
100
AcDbSymbolTableRecord
100
AcDbLayerTableRecord
  2
55
 70
     0
 62
    55
  6
CONTINUOUS
  0
LAYER
  5
71
330
2
100
AcDbSymbolTableRecord
100
AcDbLayerTableRecord
  2
56
 70
     0
 62
    56
  6
CONTINUOUS
  0
LAYER
  5
72
330
2
100
AcDbSymbolTableRecord
100
AcDbLayerTableRecord
  2
57
 70
     0
 62
    57
  6
CONTINUOUS
  0
LAYER
  5
73
330
2
100
AcDbSymbolTableRecord
100
AcDbLayerTableRecord
  2
58
 70
     0
 62
    58
  6
CONTINUOUS
  0
LAYER
  5
74
330
2
100
AcDbSymbolTableRecord
100
AcDbLayerTableRecord
  2
59
 70
     0
 62
    59
  6
CONTINUOUS
  0
LAYER
  5
75
330
2
100
AcDbSymbolTableRecord
100
AcDbLayerTableRecord
  2
60
 70
     0
 62
    60
  6
CONTINUOUS
  0
LAYER
  5
76
330
2
100
AcDbSymbolTableRecord
100
AcDbLayerTableRecord
  2
61
 70
     0
 62
    61
  6
CONTINUOUS
  0
LAYER
  5
77
330
2
100
AcDbSymbolTableRecord
100
AcDbLayerTableRecord
  2
62
 70
     0
 62
    62
  6
CONTINUOUS
  0
LAYER
  5
78
330
2
100
AcDbSymbolTableRecord
100
AcDbLayerTableRecord
  2
63
 70
     0
 62
    63
  6
CONTINUOUS
  0
LAYER
  5
79
330
2
100
AcDbSymbolTableRecord
100
AcDbLayerTableRecord
  2
64
 70
     0
 62
    64
  6
CONTINUOUS
  0
LAYER
  5
7A
330
2
100
AcDbSymbolTableRecord
100
AcDbLayerTableRecord
  2
65
 70
     0
 62
    65
  6
CONTINUOUS
  0
LAYER
  5
7B
330
2
100
AcDbSymbolTableRecord
100
AcDbLayerTableRecord
  2
66
 70
     0
 62
    66
  6
CONTINUOUS
  0
LAYER
  5
7C
330
2
100
AcDbSymbolTableRecord
100
AcDbLayerTableRecord
  2
67
 70
     0
 62
    67
  6
CONTINUOUS
  0
LAYER
  5
7D
330
2
100
AcDbSymbolTableRecord
100
AcDbLayerTableRecord
  2
68
 70
     0
 62
    68
  6
CONTINUOUS
  0
LAYER
  5
7E
330
2
100
AcDbSymbolTableRecord
100
AcDbLayerTableRecord
  2
69
 70
     0
 62
    69
  6
CONTINUOUS
  0
LAYER
  5
7F
330
2
100
AcDbSymbolTableRecord
100
AcDbLayerTableRecord
  2
70
 70
     0
 62
    70
  6
CONTINUOUS
  0
LAYER
  5
80
330
2
100
AcDbSymbolTableRecord
100
AcDbLayerTableRecord
  2
71
 70
     0
 62
    71
  6
CONTINUOUS
  0
LAYER
  5
81
330
2
100
AcDbSymbolTableRecord
100
AcDbLayerTableRecord
  2
72
 70
     0
 62
    72
  6
CONTINUOUS
  0
LAYER
  5
82
330
2
100
AcDbSymbolTableRecord
100
AcDbLayerTableRecord
  2
73
 70
     0
 62
    73
  6
CONTINUOUS
  0
LAYER
  5
83
330
2
100
AcDbSymbolTableRecord
100
AcDbLayerTableRecord
  2
74
 70
     0
 62
    74
  6
CONTINUOUS
  0
LAYER
  5
84
330
2
100
AcDbSymbolTableRecord
100
AcDbLayerTableRecord
  2
75
 70
     0
 62
    75
  6
CONTINUOUS
  0
LAYER
  5
85
330
2
100
AcDbSymbolTableRecord
100
AcDbLayerTableRecord
  2
76
 70
     0
 62
    76
  6
CONTINUOUS
  0
LAYER
  5
86
330
2
100
AcDbSymbolTableRecord
100
AcDbLayerTableRecord
  2
77
 70
     0
 62
    77
  6
CONTINUOUS
  0
LAYER
  5
87
330
2
100
AcDbSymbolTableRecord
100
AcDbLayerTableRecord
  2
78
 70
     0
 62
    78
  6
CONTINUOUS
  0
LAYER
  5
88
330
2
100
AcDbSymbolTableRecord
100
AcDbLayerTableRecord
  2
79
 70
     0
 62
    79
  6
CONTINUOUS
  0
LAYER
  5
89
330
2
100
AcDbSymbolTableRecord
100
AcDbLayerTableRecord
  2
80
 70
     0
 62
    80
  6
CONTINUOUS
  0
LAYER
  5
8A
330
2
100
AcDbSymbolTableRecord
100
AcDbLayerTableRecord
  2
81
 70
     0
 62
    81
  6
CONTINUOUS
  0
LAYER
  5
8B
330
2
100
AcDbSymbolTableRecord
100
AcDbLayerTableRecord
  2
82
 70
     0
 62
    82
  6
CONTINUOUS
  0
LAYER
  5
8C
330
2
100
AcDbSymbolTableRecord
100
AcDbLayerTableRecord
  2
83
 70
     0
 62
    83
  6
CONTINUOUS
  0
LAYER
  5
8D
330
2
100
AcDbSymbolTableRecord
100
AcDbLayerTableRecord
  2
84
 70
     0
 62
    84
  6
CONTINUOUS
  0
LAYER
  5
8E
330
2
100
AcDbSymbolTableRecord
100
AcDbLayerTableRecord
  2
85
 70
     0
 62
    85
  6
CONTINUOUS
  0
LAYER
  5
8F
330
2
100
AcDbSymbolTableRecord
100
AcDbLayerTableRecord
  2
86
 70
     0
 62
    86
  6
CONTINUOUS
  0
LAYER
  5
90
330
2
100
AcDbSymbolTableRecord
100
AcDbLayerTableRecord
  2
87
 70
     0
 62
    87
  6
CONTINUOUS
  0
LAYER
  5
91
330
2
100
AcDbSymbolTableRecord
100
AcDbLayerTableRecord
  2
88
 70
     0
 62
    88
  6
CONTINUOUS
  0
LAYER
  5
92
330
2
100
AcDbSymbolTableRecord
100
AcDbLayerTableRecord
  2
89
 70
     0
 62
    89
  6
CONTINUOUS
  0
LAYER
  5
93
330
2
100
AcDbSymbolTableRecord
100
AcDbLayerTableRecord
  2
90
 70
     0
 62
    90
  6
CONTINUOUS
  0
LAYER
  5
94
330
2
100
AcDbSymbolTableRecord
100
AcDbLayerTableRecord
  2
91
 70
     0
 62
    91
  6
CONTINUOUS
  0
LAYER
  5
95
330
2
100
AcDbSymbolTableRecord
100
AcDbLayerTableRecord
  2
92
 70
     0
 62
    92
  6
CONTINUOUS
  0
LAYER
  5
96
330
2
100
AcDbSymbolTableRecord
100
AcDbLayerTableRecord
  2
93
 70
     0
 62
    93
  6
CONTINUOUS
  0
LAYER
  5
97
330
2
100
AcDbSymbolTableRecord
100
AcDbLayerTableRecord
  2
94
 70
     0
 62
    94
  6
CONTINUOUS
  0
LAYER
  5
98
330
2
100
AcDbSymbolTableRecord
100
AcDbLayerTableRecord
  2
95
 70
     0
 62
    95
  6
CONTINUOUS
  0
LAYER
  5
99
330
2
100
AcDbSymbolTableRecord
100
AcDbLayerTableRecord
  2
96
 70
     0
 62
    96
  6
CONTINUOUS
  0
LAYER
  5
9A
330
2
100
AcDbSymbolTableRecord
100
AcDbLayerTableRecord
  2
97
 70
     0
 62
    97
  6
CONTINUOUS
  0
LAYER
  5
9B
330
2
100
AcDbSymbolTableRecord
100
AcDbLayerTableRecord
  2
98
 70
     0
 62
    98
  6
CONTINUOUS
  0
LAYER
  5
9C
330
2
100
AcDbSymbolTableRecord
100
AcDbLayerTableRecord
  2
99
 70
     0
 62
    99
  6
CONTINUOUS
  0
LAYER
  5
9D
330
2
100
AcDbSymbolTableRecord
100
AcDbLayerTableRecord
  2
100
 70
     0
 62
   100
  6
CONTINUOUS
  0
LAYER
  5
9E
330
2
100
AcDbSymbolTableRecord
100
AcDbLayerTableRecord
  2
101
 70
     0
 62
   101
  6
CONTINUOUS
  0
LAYER
  5
9F
330
2
100
AcDbSymbolTableRecord
100
AcDbLayerTableRecord
  2
102
 70
     0
 62
   102
  6
CONTINUOUS
  0
LAYER
  5
A0
330
2
100
AcDbSymbolTableRecord
100
AcDbLayerTableRecord
  2
103
 70
     0
 62
   103
  6
CONTINUOUS
  0
LAYER
  5
A1
330
2
100
AcDbSymbolTableRecord
100
AcDbLayerTableRecord
  2
104
 70
     0
 62
   104
  6
CONTINUOUS
  0
LAYER
  5
A2
330
2
100
AcDbSymbolTableRecord
100
AcDbLayerTableRecord
  2
105
 70
     0
 62
   105
  6
CONTINUOUS
  0
LAYER
  5
A3
330
2
100
AcDbSymbolTableRecord
100
AcDbLayerTableRecord
  2
106
 70
     0
 62
   106
  6
CONTINUOUS
  0
LAYER
  5
A4
330
2
100
AcDbSymbolTableRecord
100
AcDbLayerTableRecord
  2
107
 70
     0
 62
   107
  6
CONTINUOUS
  0
LAYER
  5
A5
330
2
100
AcDbSymbolTableRecord
100
AcDbLayerTableRecord
  2
108
 70
     0
 62
   108
  6
CONTINUOUS
  0
LAYER
  5
A6
330
2
100
AcDbSymbolTableRecord
100
AcDbLayerTableRecord
  2
109
 70
     0
 62
   109
  6
CONTINUOUS
  0
LAYER
  5
A7
330
2
100
AcDbSymbolTableRecord
100
AcDbLayerTableRecord
  2
110
 70
     0
 62
   110
  6
CONTINUOUS
  0
LAYER
  5
A8
330
2
100
AcDbSymbolTableRecord
100
AcDbLayerTableRecord
  2
111
 70
     0
 62
   111
  6
CONTINUOUS
  0
LAYER
  5
A9
330
2
100
AcDbSymbolTableRecord
100
AcDbLayerTableRecord
  2
112
 70
     0
 62
   112
  6
CONTINUOUS
  0
LAYER
  5
AA
330
2
100
AcDbSymbolTableRecord
100
AcDbLayerTableRecord
  2
113
 70
     0
 62
   113
  6
CONTINUOUS
  0
LAYER
  5
AB
330
2
100
AcDbSymbolTableRecord
100
AcDbLayerTableRecord
  2
114
 70
     0
 62
   114
  6
CONTINUOUS
  0
LAYER
  5
AC
330
2
100
AcDbSymbolTableRecord
100
AcDbLayerTableRecord
  2
115
 70
     0
 62
   115
  6
CONTINUOUS
  0
LAYER
  5
AD
330
2
100
AcDbSymbolTableRecord
100
AcDbLayerTableRecord
  2
116
 70
     0
 62
   116
  6
CONTINUOUS
  0
LAYER
  5
AE
330
2
100
AcDbSymbolTableRecord
100
AcDbLayerTableRecord
  2
117
 70
     0
 62
   117
  6
CONTINUOUS
  0
LAYER
  5
AF
330
2
100
AcDbSymbolTableRecord
100
AcDbLayerTableRecord
  2
118
 70
     0
 62
   118
  6
CONTINUOUS
  0
LAYER
  5
B0
330
2
100
AcDbSymbolTableRecord
100
AcDbLayerTableRecord
  2
119
 70
     0
 62
   119
  6
CONTINUOUS
  0
LAYER
  5
B1
330
2
100
AcDbSymbolTableRecord
100
AcDbLayerTableRecord
  2
120
 70
     0
 62
   120
  6
CONTINUOUS
  0
LAYER
  5
B2
330
2
100
AcDbSymbolTableRecord
100
AcDbLayerTableRecord
  2
121
 70
     0
 62
   121
  6
CONTINUOUS
  0
LAYER
  5
B3
330
2
100
AcDbSymbolTableRecord
100
AcDbLayerTableRecord
  2
122
 70
     0
 62
   122
  6
CONTINUOUS
  0
LAYER
  5
B4
330
2
100
AcDbSymbolTableRecord
100
AcDbLayerTableRecord
  2
123
 70
     0
 62
   123
  6
CONTINUOUS
  0
LAYER
  5
B5
330
2
100
AcDbSymbolTableRecord
100
AcDbLayerTableRecord
  2
124
 70
     0
 62
   124
  6
CONTINUOUS
  0
LAYER
  5
B6
330
2
100
AcDbSymbolTableRecord
100
AcDbLayerTableRecord
  2
125
 70
     0
 62
   125
  6
CONTINUOUS
  0
LAYER
  5
B7
330
2
100
AcDbSymbolTableRecord
100
AcDbLayerTableRecord
  2
126
 70
     0
 62
   126
  6
CONTINUOUS
  0
LAYER
  5
B8
330
2
100
AcDbSymbolTableRecord
100
AcDbLayerTableRecord
  2
127
 70
     0
 62
   127
  6
CONTINUOUS
  0
LAYER
  5
B9
330
2
100
AcDbSymbolTableRecord
100
AcDbLayerTableRecord
  2
128
 70
     0
 62
   128
  6
CONTINUOUS
  0
LAYER
  5
BA
330
2
100
AcDbSymbolTableRecord
100
AcDbLayerTableRecord
  2
129
 70
     0
 62
   129
  6
CONTINUOUS
  0
LAYER
  5
BB
330
2
100
AcDbSymbolTableRecord
100
AcDbLayerTableRecord
  2
130
 70
     0
 62
   130
  6
CONTINUOUS
  0
LAYER
  5
BC
330
2
100
AcDbSymbolTableRecord
100
AcDbLayerTableRecord
  2
131
 70
     0
 62
   131
  6
CONTINUOUS
  0
LAYER
  5
BD
330
2
100
AcDbSymbolTableRecord
100
AcDbLayerTableRecord
  2
132
 70
     0
 62
   132
  6
CONTINUOUS
  0
LAYER
  5
BE
330
2
100
AcDbSymbolTableRecord
100
AcDbLayerTableRecord
  2
133
 70
     0
 62
   133
  6
CONTINUOUS
  0
LAYER
  5
BF
330
2
100
AcDbSymbolTableRecord
100
AcDbLayerTableRecord
  2
134
 70
     0
 62
   134
  6
CONTINUOUS
  0
LAYER
  5
C0
330
2
100
AcDbSymbolTableRecord
100
AcDbLayerTableRecord
  2
135
 70
     0
 62
   135
  6
CONTINUOUS
  0
LAYER
  5
C1
330
2
100
AcDbSymbolTableRecord
100
AcDbLayerTableRecord
  2
136
 70
     0
 62
   136
  6
CONTINUOUS
  0
LAYER
  5
C2
330
2
100
AcDbSymbolTableRecord
100
AcDbLayerTableRecord
  2
137
 70
     0
 62
   137
  6
CONTINUOUS
  0
LAYER
  5
C3
330
2
100
AcDbSymbolTableRecord
100
AcDbLayerTableRecord
  2
138
 70
     0
 62
   138
  6
CONTINUOUS
  0
LAYER
  5
C4
330
2
100
AcDbSymbolTableRecord
100
AcDbLayerTableRecord
  2
139
 70
     0
 62
   139
  6
CONTINUOUS
  0
LAYER
  5
C5
330
2
100
AcDbSymbolTableRecord
100
AcDbLayerTableRecord
  2
140
 70
     0
 62
   140
  6
CONTINUOUS
  0
LAYER
  5
C6
330
2
100
AcDbSymbolTableRecord
100
AcDbLayerTableRecord
  2
141
 70
     0
 62
   141
  6
CONTINUOUS
  0
LAYER
  5
C7
330
2
100
AcDbSymbolTableRecord
100
AcDbLayerTableRecord
  2
142
 70
     0
 62
   142
  6
CONTINUOUS
  0
LAYER
  5
C8
330
2
100
AcDbSymbolTableRecord
100
AcDbLayerTableRecord
  2
143
 70
     0
 62
   143
  6
CONTINUOUS
  0
LAYER
  5
C9
330
2
100
AcDbSymbolTableRecord
100
AcDbLayerTableRecord
  2
144
 70
     0
 62
   144
  6
CONTINUOUS
  0
LAYER
  5
CA
330
2
100
AcDbSymbolTableRecord
100
AcDbLayerTableRecord
  2
145
 70
     0
 62
   145
  6
CONTINUOUS
  0
LAYER
  5
CB
330
2
100
AcDbSymbolTableRecord
100
AcDbLayerTableRecord
  2
146
 70
     0
 62
   146
  6
CONTINUOUS
  0
LAYER
  5
CC
330
2
100
AcDbSymbolTableRecord
100
AcDbLayerTableRecord
  2
147
 70
     0
 62
   147
  6
CONTINUOUS
  0
LAYER
  5
CD
330
2
100
AcDbSymbolTableRecord
100
AcDbLayerTableRecord
  2
148
 70
     0
 62
   148
  6
CONTINUOUS
  0
LAYER
  5
CE
330
2
100
AcDbSymbolTableRecord
100
AcDbLayerTableRecord
  2
149
 70
     0
 62
   149
  6
CONTINUOUS
  0
LAYER
  5
CF
330
2
100
AcDbSymbolTableRecord
100
AcDbLayerTableRecord
  2
150
 70
     0
 62
   150
  6
CONTINUOUS
  0
LAYER
  5
D0
330
2
100
AcDbSymbolTableRecord
100
AcDbLayerTableRecord
  2
151
 70
     0
 62
   151
  6
CONTINUOUS
  0
LAYER
  5
D1
330
2
100
AcDbSymbolTableRecord
100
AcDbLayerTableRecord
  2
152
 70
     0
 62
   152
  6
CONTINUOUS
  0
LAYER
  5
D2
330
2
100
AcDbSymbolTableRecord
100
AcDbLayerTableRecord
  2
153
 70
     0
 62
   153
  6
CONTINUOUS
  0
LAYER
  5
D3
330
2
100
AcDbSymbolTableRecord
100
AcDbLayerTableRecord
  2
154
 70
     0
 62
   154
  6
CONTINUOUS
  0
LAYER
  5
D4
330
2
100
AcDbSymbolTableRecord
100
AcDbLayerTableRecord
  2
155
 70
     0
 62
   155
  6
CONTINUOUS
  0
LAYER
  5
D5
330
2
100
AcDbSymbolTableRecord
100
AcDbLayerTableRecord
  2
156
 70
     0
 62
   156
  6
CONTINUOUS
  0
LAYER
  5
D6
330
2
100
AcDbSymbolTableRecord
100
AcDbLayerTableRecord
  2
157
 70
     0
 62
   157
  6
CONTINUOUS
  0
LAYER
  5
D7
330
2
100
AcDbSymbolTableRecord
100
AcDbLayerTableRecord
  2
158
 70
     0
 62
   158
  6
CONTINUOUS
  0
LAYER
  5
D8
330
2
100
AcDbSymbolTableRecord
100
AcDbLayerTableRecord
  2
159
 70
     0
 62
   159
  6
CONTINUOUS
  0
LAYER
  5
D9
330
2
100
AcDbSymbolTableRecord
100
AcDbLayerTableRecord
  2
160
 70
     0
 62
   160
  6
CONTINUOUS
  0
LAYER
  5
DA
330
2
100
AcDbSymbolTableRecord
100
AcDbLayerTableRecord
  2
161
 70
     0
 62
   161
  6
CONTINUOUS
  0
LAYER
  5
DB
330
2
100
AcDbSymbolTableRecord
100
AcDbLayerTableRecord
  2
162
 70
     0
 62
   162
  6
CONTINUOUS
  0
LAYER
  5
DC
330
2
100
AcDbSymbolTableRecord
100
AcDbLayerTableRecord
  2
163
 70
     0
 62
   163
  6
CONTINUOUS
  0
LAYER
  5
DD
330
2
100
AcDbSymbolTableRecord
100
AcDbLayerTableRecord
  2
164
 70
     0
 62
   164
  6
CONTINUOUS
  0
LAYER
  5
DE
330
2
100
AcDbSymbolTableRecord
100
AcDbLayerTableRecord
  2
165
 70
     0
 62
   165
  6
CONTINUOUS
  0
LAYER
  5
DF
330
2
100
AcDbSymbolTableRecord
100
AcDbLayerTableRecord
  2
166
 70
     0
 62
   166
  6
CONTINUOUS
  0
LAYER
  5
E0
330
2
100
AcDbSymbolTableRecord
100
AcDbLayerTableRecord
  2
167
 70
     0
 62
   167
  6
CONTINUOUS
  0
LAYER
  5
E1
330
2
100
AcDbSymbolTableRecord
100
AcDbLayerTableRecord
  2
168
 70
     0
 62
   168
  6
CONTINUOUS
  0
LAYER
  5
E2
330
2
100
AcDbSymbolTableRecord
100
AcDbLayerTableRecord
  2
169
 70
     0
 62
   169
  6
CONTINUOUS
  0
LAYER
  5
E3
330
2
100
AcDbSymbolTableRecord
100
AcDbLayerTableRecord
  2
170
 70
     0
 62
   170
  6
CONTINUOUS
  0
LAYER
  5
E4
330
2
100
AcDbSymbolTableRecord
100
AcDbLayerTableRecord
  2
171
 70
     0
 62
   171
  6
CONTINUOUS
  0
LAYER
  5
E5
330
2
100
AcDbSymbolTableRecord
100
AcDbLayerTableRecord
  2
172
 70
     0
 62
   172
  6
CONTINUOUS
  0
LAYER
  5
E6
330
2
100
AcDbSymbolTableRecord
100
AcDbLayerTableRecord
  2
173
 70
     0
 62
   173
  6
CONTINUOUS
  0
LAYER
  5
E7
330
2
100
AcDbSymbolTableRecord
100
AcDbLayerTableRecord
  2
174
 70
     0
 62
   174
  6
CONTINUOUS
  0
LAYER
  5
E8
330
2
100
AcDbSymbolTableRecord
100
AcDbLayerTableRecord
  2
175
 70
     0
 62
   175
  6
CONTINUOUS
  0
LAYER
  5
E9
330
2
100
AcDbSymbolTableRecord
100
AcDbLayerTableRecord
  2
176
 70
     0
 62
   176
  6
CONTINUOUS
  0
LAYER
  5
EA
330
2
100
AcDbSymbolTableRecord
100
AcDbLayerTableRecord
  2
177
 70
     0
 62
   177
  6
CONTINUOUS
  0
LAYER
  5
EB
330
2
100
AcDbSymbolTableRecord
100
AcDbLayerTableRecord
  2
178
 70
     0
 62
   178
  6
CONTINUOUS
  0
LAYER
  5
EC
330
2
100
AcDbSymbolTableRecord
100
AcDbLayerTableRecord
  2
179
 70
     0
 62
   179
  6
CONTINUOUS
  0
LAYER
  5
ED
330
2
100
AcDbSymbolTableRecord
100
AcDbLayerTableRecord
  2
180
 70
     0
 62
   180
  6
CONTINUOUS
  0
LAYER
  5
EE
330
2
100
AcDbSymbolTableRecord
100
AcDbLayerTableRecord
  2
181
 70
     0
 62
   181
  6
CONTINUOUS
  0
LAYER
  5
EF
330
2
100
AcDbSymbolTableRecord
100
AcDbLayerTableRecord
  2
182
 70
     0
 62
   182
  6
CONTINUOUS
  0
LAYER
  5
F0
330
2
100
AcDbSymbolTableRecord
100
AcDbLayerTableRecord
  2
183
 70
     0
 62
   183
  6
CONTINUOUS
  0
LAYER
  5
F1
330
2
100
AcDbSymbolTableRecord
100
AcDbLayerTableRecord
  2
184
 70
     0
 62
   184
  6
CONTINUOUS
  0
LAYER
  5
F2
330
2
100
AcDbSymbolTableRecord
100
AcDbLayerTableRecord
  2
185
 70
     0
 62
   185
  6
CONTINUOUS
  0
LAYER
  5
F3
330
2
100
AcDbSymbolTableRecord
100
AcDbLayerTableRecord
  2
186
 70
     0
 62
   186
  6
CONTINUOUS
  0
LAYER
  5
F4
330
2
100
AcDbSymbolTableRecord
100
AcDbLayerTableRecord
  2
187
 70
     0
 62
   187
  6
CONTINUOUS
  0
LAYER
  5
F5
330
2
100
AcDbSymbolTableRecord
100
AcDbLayerTableRecord
  2
188
 70
     0
 62
   188
  6
CONTINUOUS
  0
LAYER
  5
F6
330
2
100
AcDbSymbolTableRecord
100
AcDbLayerTableRecord
  2
189
 70
     0
 62
   189
  6
CONTINUOUS
  0
LAYER
  5
F7
330
2
100
AcDbSymbolTableRecord
100
AcDbLayerTableRecord
  2
190
 70
     0
 62
   190
  6
CONTINUOUS
  0
LAYER
  5
F8
330
2
100
AcDbSymbolTableRecord
100
AcDbLayerTableRecord
  2
191
 70
     0
 62
   191
  6
CONTINUOUS
  0
LAYER
  5
F9
330
2
100
AcDbSymbolTableRecord
100
AcDbLayerTableRecord
  2
192
 70
     0
 62
   192
  6
CONTINUOUS
  0
LAYER
  5
FA
330
2
100
AcDbSymbolTableRecord
100
AcDbLayerTableRecord
  2
193
 70
     0
 62
   193
  6
CONTINUOUS
  0
LAYER
  5
FB
330
2
100
AcDbSymbolTableRecord
100
AcDbLayerTableRecord
  2
194
 70
     0
 62
   194
  6
CONTINUOUS
  0
LAYER
  5
FC
330
2
100
AcDbSymbolTableRecord
100
AcDbLayerTableRecord
  2
195
 70
     0
 62
   195
  6
CONTINUOUS
  0
LAYER
  5
FD
330
2
100
AcDbSymbolTableRecord
100
AcDbLayerTableRecord
  2
196
 70
     0
 62
   196
  6
CONTINUOUS
  0
LAYER
  5
FE
330
2
100
AcDbSymbolTableRecord
100
AcDbLayerTableRecord
  2
197
 70
     0
 62
   197
  6
CONTINUOUS
  0
LAYER
  5
FF
330
2
100
AcDbSymbolTableRecord
100
AcDbLayerTableRecord
  2
198
 70
     0
 62
   198
  6
CONTINUOUS
  0
LAYER
  5
100
330
2
100
AcDbSymbolTableRecord
100
AcDbLayerTableRecord
  2
199
 70
     0
 62
   199
  6
CONTINUOUS
  0
LAYER
  5
101
330
2
100
AcDbSymbolTableRecord
100
AcDbLayerTableRecord
  2
200
 70
     0
 62
   200
  6
CONTINUOUS
  0
LAYER
  5
102
330
2
100
AcDbSymbolTableRecord
100
AcDbLayerTableRecord
  2
201
 70
     0
 62
   201
  6
CONTINUOUS
  0
LAYER
  5
103
330
2
100
AcDbSymbolTableRecord
100
AcDbLayerTableRecord
  2
202
 70
     0
 62
   202
  6
CONTINUOUS
  0
LAYER
  5
104
330
2
100
AcDbSymbolTableRecord
100
AcDbLayerTableRecord
  2
203
 70
     0
 62
   203
  6
CONTINUOUS
  0
LAYER
  5
105
330
2
100
AcDbSymbolTableRecord
100
AcDbLayerTableRecord
  2
204
 70
     0
 62
   204
  6
CONTINUOUS
  0
LAYER
  5
106
330
2
100
AcDbSymbolTableRecord
100
AcDbLayerTableRecord
  2
205
 70
     0
 62
   205
  6
CONTINUOUS
  0
LAYER
  5
107
330
2
100
AcDbSymbolTableRecord
100
AcDbLayerTableRecord
  2
206
 70
     0
 62
   206
  6
CONTINUOUS
  0
LAYER
  5
108
330
2
100
AcDbSymbolTableRecord
100
AcDbLayerTableRecord
  2
207
 70
     0
 62
   207
  6
CONTINUOUS
  0
LAYER
  5
109
330
2
100
AcDbSymbolTableRecord
100
AcDbLayerTableRecord
  2
208
 70
     0
 62
   208
  6
CONTINUOUS
  0
LAYER
  5
10A
330
2
100
AcDbSymbolTableRecord
100
AcDbLayerTableRecord
  2
209
 70
     0
 62
   209
  6
CONTINUOUS
  0
LAYER
  5
10B
330
2
100
AcDbSymbolTableRecord
100
AcDbLayerTableRecord
  2
210
 70
     0
 62
   210
  6
CONTINUOUS
  0
LAYER
  5
10C
330
2
100
AcDbSymbolTableRecord
100
AcDbLayerTableRecord
  2
211
 70
     0
 62
   211
  6
CONTINUOUS
  0
LAYER
  5
10D
330
2
100
AcDbSymbolTableRecord
100
AcDbLayerTableRecord
  2
212
 70
     0
 62
   212
  6
CONTINUOUS
  0
LAYER
  5
10E
330
2
100
AcDbSymbolTableRecord
100
AcDbLayerTableRecord
  2
213
 70
     0
 62
   213
  6
CONTINUOUS
  0
LAYER
  5
10F
330
2
100
AcDbSymbolTableRecord
100
AcDbLayerTableRecord
  2
214
 70
     0
 62
   214
  6
CONTINUOUS
  0
LAYER
  5
110
330
2
100
AcDbSymbolTableRecord
100
AcDbLayerTableRecord
  2
215
 70
     0
 62
   215
  6
CONTINUOUS
  0
LAYER
  5
111
330
2
100
AcDbSymbolTableRecord
100
AcDbLayerTableRecord
  2
216
 70
     0
 62
   216
  6
CONTINUOUS
  0
LAYER
  5
112
330
2
100
AcDbSymbolTableRecord
100
AcDbLayerTableRecord
  2
217
 70
     0
 62
   217
  6
CONTINUOUS
  0
LAYER
  5
113
330
2
100
AcDbSymbolTableRecord
100
AcDbLayerTableRecord
  2
218
 70
     0
 62
   218
  6
CONTINUOUS
  0
LAYER
  5
114
330
2
100
AcDbSymbolTableRecord
100
AcDbLayerTableRecord
  2
219
 70
     0
 62
   219
  6
CONTINUOUS
  0
LAYER
  5
115
330
2
100
AcDbSymbolTableRecord
100
AcDbLayerTableRecord
  2
220
 70
     0
 62
   220
  6
CONTINUOUS
  0
LAYER
  5
116
330
2
100
AcDbSymbolTableRecord
100
AcDbLayerTableRecord
  2
221
 70
     0
 62
   221
  6
CONTINUOUS
  0
LAYER
  5
117
330
2
100
AcDbSymbolTableRecord
100
AcDbLayerTableRecord
  2
222
 70
     0
 62
   222
  6
CONTINUOUS
  0
LAYER
  5
118
330
2
100
AcDbSymbolTableRecord
100
AcDbLayerTableRecord
  2
223
 70
     0
 62
   223
  6
CONTINUOUS
  0
LAYER
  5
119
330
2
100
AcDbSymbolTableRecord
100
AcDbLayerTableRecord
  2
224
 70
     0
 62
   224
  6
CONTINUOUS
  0
LAYER
  5
11A
330
2
100
AcDbSymbolTableRecord
100
AcDbLayerTableRecord
  2
225
 70
     0
 62
   225
  6
CONTINUOUS
  0
LAYER
  5
11B
330
2
100
AcDbSymbolTableRecord
100
AcDbLayerTableRecord
  2
226
 70
     0
 62
   226
  6
CONTINUOUS
  0
LAYER
  5
11C
330
2
100
AcDbSymbolTableRecord
100
AcDbLayerTableRecord
  2
227
 70
     0
 62
   227
  6
CONTINUOUS
  0
LAYER
  5
11D
330
2
100
AcDbSymbolTableRecord
100
AcDbLayerTableRecord
  2
228
 70
     0
 62
   228
  6
CONTINUOUS
  0
LAYER
  5
11E
330
2
100
AcDbSymbolTableRecord
100
AcDbLayerTableRecord
  2
229
 70
     0
 62
   229
  6
CONTINUOUS
  0
LAYER
  5
11F
330
2
100
AcDbSymbolTableRecord
100
AcDbLayerTableRecord
  2
230
 70
     0
 62
   230
  6
CONTINUOUS
  0
LAYER
  5
120
330
2
100
AcDbSymbolTableRecord
100
AcDbLayerTableRecord
  2
231
 70
     0
 62
   231
  6
CONTINUOUS
  0
LAYER
  5
121
330
2
100
AcDbSymbolTableRecord
100
AcDbLayerTableRecord
  2
232
 70
     0
 62
   232
  6
CONTINUOUS
  0
LAYER
  5
122
330
2
100
AcDbSymbolTableRecord
100
AcDbLayerTableRecord
  2
233
 70
     0
 62
   233
  6
CONTINUOUS
  0
LAYER
  5
123
330
2
100
AcDbSymbolTableRecord
100
AcDbLayerTableRecord
  2
234
 70
     0
 62
   234
  6
CONTINUOUS
  0
LAYER
  5
124
330
2
100
AcDbSymbolTableRecord
100
AcDbLayerTableRecord
  2
235
 70
     0
 62
   235
  6
CONTINUOUS
  0
LAYER
  5
125
330
2
100
AcDbSymbolTableRecord
100
AcDbLayerTableRecord
  2
236
 70
     0
 62
   236
  6
CONTINUOUS
  0
LAYER
  5
126
330
2
100
AcDbSymbolTableRecord
100
AcDbLayerTableRecord
  2
237
 70
     0
 62
   237
  6
CONTINUOUS
  0
LAYER
  5
127
330
2
100
AcDbSymbolTableRecord
100
AcDbLayerTableRecord
  2
238
 70
     0
 62
   238
  6
CONTINUOUS
  0
LAYER
  5
128
330
2
100
AcDbSymbolTableRecord
100
AcDbLayerTableRecord
  2
239
 70
     0
 62
   239
  6
CONTINUOUS
  0
LAYER
  5
129
330
2
100
AcDbSymbolTableRecord
100
AcDbLayerTableRecord
  2
240
 70
     0
 62
   240
  6
CONTINUOUS
  0
LAYER
  5
12A
330
2
100
AcDbSymbolTableRecord
100
AcDbLayerTableRecord
  2
241
 70
     0
 62
   241
  6
CONTINUOUS
  0
LAYER
  5
12B
330
2
100
AcDbSymbolTableRecord
100
AcDbLayerTableRecord
  2
242
 70
     0
 62
   242
  6
CONTINUOUS
  0
LAYER
  5
12C
330
2
100
AcDbSymbolTableRecord
100
AcDbLayerTableRecord
  2
243
 70
     0
 62
   243
  6
CONTINUOUS
  0
LAYER
  5
12D
330
2
100
AcDbSymbolTableRecord
100
AcDbLayerTableRecord
  2
244
 70
     0
 62
   244
  6
CONTINUOUS
  0
LAYER
  5
12E
330
2
100
AcDbSymbolTableRecord
100
AcDbLayerTableRecord
  2
245
 70
     0
 62
   245
  6
CONTINUOUS
  0
LAYER
  5
12F
330
2
100
AcDbSymbolTableRecord
100
AcDbLayerTableRecord
  2
246
 70
     0
 62
   246
  6
CONTINUOUS
  0
LAYER
  5
130
330
2
100
AcDbSymbolTableRecord
100
AcDbLayerTableRecord
  2
247
 70
     0
 62
   247
  6
CONTINUOUS
  0
LAYER
  5
131
330
2
100
AcDbSymbolTableRecord
100
AcDbLayerTableRecord
  2
248
 70
     0
 62
   248
  6
CONTINUOUS
  0
LAYER
  5
132
330
2
100
AcDbSymbolTableRecord
100
AcDbLayerTableRecord
  2
249
 70
     0
 62
   249
  6
CONTINUOUS
  0
LAYER
  5
133
330
2
100
AcDbSymbolTableRecord
100
AcDbLayerTableRecord
  2
250
 70
     0
 62
   250
  6
CONTINUOUS
  0
LAYER
  5
134
330
2
100
AcDbSymbolTableRecord
100
AcDbLayerTableRecord
  2
251
 70
     0
 62
   251
  6
CONTINUOUS
  0
LAYER
  5
135
330
2
100
AcDbSymbolTableRecord
100
AcDbLayerTableRecord
  2
252
 70
     0
 62
   252
  6
CONTINUOUS
  0
LAYER
  5
136
330
2
100
AcDbSymbolTableRecord
100
AcDbLayerTableRecord
  2
253
 70
     0
 62
   253
  6
CONTINUOUS
  0
LAYER
  5
137
330
2
100
AcDbSymbolTableRecord
100
AcDbLayerTableRecord
  2
254
 70
     0
 62
   254
  6
CONTINUOUS
  0
LAYER
  5
138
330
2
100
AcDbSymbolTableRecord
100
AcDbLayerTableRecord
  2
255
 70
     0
 62
   255
  6
CONTINUOUS
  0
ENDTAB
  0
TABLE
  2
STYLE
  5
3
330
0
100
AcDbSymbolTable
 70
     1
  0
STYLE
  5
11
330
3
100
AcDbSymbolTableRecord
100
AcDbTextStyleTableRecord
  2
STANDARD
 70
     0
 40
0.0
 41
1.0
 50
0.0
 71
     0
 42
0.2
  3
monotxt
  4

  0
ENDTAB
  0
TABLE
  2
VIEW
  5
6
330
0
100
AcDbSymbolTable
 70
     0
  0
ENDTAB
  0
TABLE
  2
UCS
  5
7
330
0
100
AcDbSymbolTable
 70
     0
  0
ENDTAB
  0
TABLE
  2
APPID
  5
9
330
0
100
AcDbSymbolTable
 70
     1
  0
APPID
  5
12
330
9
100
AcDbSymbolTableRecord
100
AcDbRegAppTableRecord
  2
ACAD
 70
     0
  0
ENDTAB
  0
TABLE
  2
DIMSTYLE
  5
A
330
0
100
AcDbSymbolTable
 70
     1
  0
DIMSTYLE
105
34AB
330
A
100
AcDbSymbolTableRecord
100
AcDbDimStyleTableRecord
  2
STANDARD
 70
     0
  3

  4

  5

  6

  7

 40
1.0
 41
0.18
 42
0.0625
 43
0.38
 44
0.18
 45
0.0
 46
0.0
 47
0.0
 48
0.0
140
0.18
141
0.09
142
0.0
143
25.4
144
1.0
145
0.0
146
1.0
147
0.09
 71
     0
 72
     0
 73
     1
 74
     1
 75
     0
 76
     0
 77
     0
 78
     0
170
     0
171
     2
172
     0
173
     0
174
     0
175
     0
176
     0
177
     0
178
     0
270
     2
271
     4
272
     4
273
     2
274
     2
340
11
275
     0
280
     0
281
     0
282
     0
283
     1
284
     0
285
     0
286
     0
287
     3
288
     0
  0
ENDTAB
  0
TABLE
  2
BLOCK_RECORD
  5
1
330
0
100
AcDbSymbolTable
 70
     0
  0
BLOCK_RECORD
  5
1E
102
{ACAD_XDICTIONARY
360
4AA4
102
}
330
1
100
AcDbSymbolTableRecord
100
AcDbBlockTableRecord
  2
*MODEL_SPACE
  0
BLOCK_RECORD
  5
1A
102
{ACAD_XDICTIONARY
360
4AA2
102
}
330
1
100
AcDbSymbolTableRecord
100
AcDbBlockTableRecord
  2
*PAPER_SPACE
  0
ENDTAB
  0
ENDSEC
  0
SECTION
  2
BLOCKS
  0
BLOCK
  5
13B
330
1E
100
AcDbEntity
  8
0
100
AcDbBlockBegin
  2
*MODEL_SPACE
 70
     0
 10
0.0
 20
0.0
 30
0.0
  3
*MODEL_SPACE
  1

  0
ENDBLK
  5
13C
330
1E
100
AcDbEntity
  8
0
100
AcDbBlockEnd
  0
BLOCK
  5
139
330
1A
100
AcDbEntity
 67
     1
  8
0
100
AcDbBlockBegin
  2
*PAPER_SPACE
 70
     0
 10
0.0
 20
0.0
 30
0.0
  3
*PAPER_SPACE
  1

  0
ENDBLK
  5
13A
330
1A
100
AcDbEntity
 67
     1
  8
0
100
AcDbBlockEnd
  0
ENDSEC
  0
SECTION
  2
ENTITIES
  0
LINE
  5
293D
330
1E
100
AcDbEntity
  8
7
100
AcDbLine
 10
1.954724409448818
 20
5.633858267716535
 30
0.0
 11
1.895669291338582
 21
5.633858267716535
 31
0.0
  0
LINE
  5
293E
330
1E
100
AcDbEntity
  8
7
100
AcDbLine
 10
1.64271653543307
 20
5.633858267716535
 30
0.0
 11
1.701771653543306
 21
5.633858267716535
 31
0.0
  0
LINE
  5
293F
330
1E
100
AcDbEntity
  8
7
100
AcDbLine
 10
1.742125984251968
 20
5.633858267716535
 30
0.0
 11
1.771653543307086
 21
5.633858267716535
 31
0.0
  0
LINE
  5
2940
330
1E
100
AcDbEntity
  8
7
100
AcDbLine
 10
2.023622047244094
 20
5.633858267716535
 30
0.0
 11
2.039370078740157
 21
5.633858267716535
 31
0.0
  0
LINE
  5
2941
330
1E
100
AcDbEntity
  8
7
100
AcDbLine
 10
1.994094488188976
 20
5.633858267716535
 30
0.0
 11
2.023622047244094
 21
5.633858267716535
 31
0.0
  0
LINE
  5
2942
330
1E
100
AcDbEntity
  8
7
100
AcDbLine
 10
2.222440944881889
 20
5.633858267716535
 30
0.0
 11
2.241141732283464
 21
5.633858267716535
 31
0.0
  0
LINE
  5
2943
330
1E
100
AcDbEntity
  8
7
100
AcDbLine
 10
1.727362204724409
 20
5.633858267716535
 30
0.0
 11
1.756889763779527
 21
5.633858267716535
 31
0.0
  0
LINE
  5
2944
330
1E
100
AcDbEntity
  8
7
100
AcDbLine
 10
2.20767716535433
 20
5.633858267716535
 30
0.0
 11
2.14763779527559
 21
5.633858267716535
 31
0.0
  0
LINE
  5
2945
330
1E
100
AcDbEntity
  8
7
100
AcDbLine
 10
2.241141732283464
 20
5.633858267716535
 30
0.0
 11
2.222440944881889
 21
5.633858267716535
 31
0.0
  0
LINE
  5
2946
330
1E
100
AcDbEntity
  8
7
100
AcDbLine
 10
2.093503937007874
 20
5.633858267716535
 30
0.0
 11
2.123031496062992
 21
5.633858267716535
 31
0.0
  0
LINE
  5
2947
330
1E
100
AcDbEntity
  8
7
100
AcDbLine
 10
2.241141732283464
 20
5.633858267716535
 30
0.0
 11
2.281496062992125
 21
5.633858267716535
 31
0.0
  0
LINE
  5
2948
330
1E
100
AcDbEntity
  8
7
100
AcDbLine
 10
1.811023622047244
 20
5.633858267716535
 30
0.0
 11
1.87007874015748
 21
5.633858267716535
 31
0.0
  0
LINE
  5
2949
330
1E
100
AcDbEntity
  8
7
100
AcDbLine
 10
2.301181102362204
 20
5.633858267716535
 30
0.0
 11
2.281496062992125
 21
5.633858267716535
 31
0.0
  0
LINE
  5
294A
330
1E
100
AcDbEntity
  8
7
100
AcDbLine
 10
2.222440944881889
 20
5.633858267716535
 30
0.0
 11
2.241141732283464
 21
5.633858267716535
 31
0.0
  0
LINE
  5
294B
330
1E
100
AcDbEntity
  8
7
100
AcDbLine
 10
2.023622047244094
 20
5.633858267716535
 30
0.0
 11
1.994094488188976
 21
5.633858267716535
 31
0.0
  0
LINE
  5
294C
330
1E
100
AcDbEntity
  8
7
100
AcDbLine
 10
2.281496062992125
 20
5.633858267716535
 30
0.0
 11
2.241141732283464
 21
5.633858267716535
 31
0.0
  0
LINE
  5
294D
330
1E
100
AcDbEntity
  8
7
100
AcDbLine
 10
2.281496062992125
 20
5.633858267716535
 30
0.0
 11
2.301181102362204
 21
5.633858267716535
 31
0.0
  0
LINE
  5
294E
330
1E
100
AcDbEntity
  8
7
100
AcDbLine
 10
1.979330708661417
 20
5.633858267716535
 30
0.0
 11
1.994094488188976
 21
5.633858267716535
 31
0.0
  0
LINE
  5
294F
330
1E
100
AcDbEntity
  8
7
100
AcDbLine
 10
2.241141732283464
 20
5.633858267716535
 30
0.0
 11
2.281496062992125
 21
5.633858267716535
 31
0.0
  0
LINE
  5
2950
330
1E
100
AcDbEntity
  8
7
100
AcDbLine
 10
2.038385826771653
 20
5.633858267716535
 30
0.0
 11
2.023622047244094
 21
5.633858267716535
 31
0.0
  0
LINE
  5
2951
330
1E
100
AcDbEntity
  8
7
100
AcDbLine
 10
2.078740157480314
 20
5.633858267716535
 30
0.0
 11
2.108267716535432
 21
5.633858267716535
 31
0.0
  0
LINE
  5
2952
330
1E
100
AcDbEntity
  8
7
100
AcDbLine
 10
2.063976377952756
 20
5.633858267716535
 30
0.0
 11
2.093503937007874
 21
5.633858267716535
 31
0.0
  0
LINE
  5
2953
330
1E
100
AcDbEntity
  8
7
100
AcDbLine
 10
1.994094488188976
 20
5.633858267716535
 30
0.0
 11
1.979330708661417
 21
5.633858267716535
 31
0.0
  0
LINE
  5
2954
330
1E
100
AcDbEntity
  8
7
100
AcDbLine
 10
1.756889763779527
 20
5.633858267716535
 30
0.0
 11
1.786417322834645
 21
5.633858267716535
 31
0.0
  0
LINE
  5
295F
330
1E
100
AcDbEntity
  8
7
100
AcDbLine
 10
2.071850393700787
 20
6.352362204724409
 30
0.0
 11
2.068897637795275
 21
6.414370078740157
 31
0.0
  0
LINE
  5
2965
330
1E
100
AcDbEntity
  8
7
100
AcDbLine
 10
2.074803149606299
 20
6.289370078740157
 30
0.0
 11
2.074803149606299
 21
6.290354330708661
 31
0.0
  0
LINE
  5
2966
330
1E
100
AcDbEntity
  8
7
100
AcDbLine
 10
2.074803149606299
 20
6.289370078740157
 30
0.0
 11
2.074803149606299
 21
6.287401574803149
 31
0.0
  0
LINE
  5
2967
330
1E
100
AcDbEntity
  8
7
100
AcDbLine
 10
2.088582677165354
 20
6.023622047244094
 30
0.0
 11
2.074803149606299
 21
6.287401574803149
 31
0.0
  0
LINE
  5
2972
330
1E
100
AcDbEntity
  8
7
100
AcDbLine
 10
1.65748031496063
 20
5.862204724409448
 30
0.0
 11
2.286417322834645
 21
5.862204724409448
 31
0.0
  0
LINE
  5
2973
330
1E
100
AcDbEntity
  8
7
100
AcDbLine
 10
1.65748031496063
 20
5.863188976377952
 30
0.0
 11
1.65255905511811
 21
5.758858267716535
 31
0.0
  0
LINE
  5
2974
330
1E
100
AcDbEntity
  8
7
100
AcDbLine
 10
2.292322834645669
 20
5.758858267716535
 30
0.0
 11
2.286417322834645
 21
5.863188976377952
 31
0.0
  0
LINE
  5
2975
330
1E
100
AcDbEntity
  8
7
100
AcDbLine
 10
2.086614173228346
 20
6.068897637795275
 30
0.0
 11
2.296259842519685
 21
6.068897637795275
 31
0.0
  0
LINE
  5
2984
330
1E
100
AcDbEntity
  8
7
100
AcDbLine
 10
1.880905511811023
 20
6.519685039370078
 30
0.0
 11
1.877952755905511
 21
6.455708661417322
 31
0.0
  0
LINE
  5
2985
330
1E
100
AcDbEntity
  8
7
100
AcDbLine
 10
1.880905511811023
 20
6.519685039370078
 30
0.0
 11
1.881889763779527
 21
6.526574803149605
 31
0.0
  0
LINE
  5
2986
330
1E
100
AcDbEntity
  8
7
100
AcDbLine
 10
2.074803149606299
 20
6.287401574803149
 30
0.0
 11
1.869094488188976
 21
6.287401574803149
 31
0.0
  0
LINE
  5
2987
330
1E
100
AcDbEntity
  8
7
100
AcDbLine
 10
2.504921259842519
 20
6.068897637795275
 30
0.0
 11
2.296259842519685
 21
6.068897637795275
 31
0.0
  0
LINE
  5
298D
330
1E
100
AcDbEntity
  8
7
100
AcDbLine
 10
2.736220472440944
 20
6.068897637795275
 30
0.0
 11
2.524606299212598
 21
6.068897637795275
 31
0.0
  0
LINE
  5
299C
330
1E
100
AcDbEntity
  8
7
100
AcDbLine
 10
1.419291338582677
 20
6.068897637795275
 30
0.0
 11
1.20767716535433
 21
6.068897637795275
 31
0.0
  0
LINE
  5
29A2
330
1E
100
AcDbEntity
  8
7
100
AcDbLine
 10
1.64763779527559
 20
6.068897637795275
 30
0.0
 11
1.438976377952756
 21
6.068897637795275
 31
0.0
  0
LINE
  5
29A3
330
1E
100
AcDbEntity
  8
7
100
AcDbLine
 10
1.64763779527559
 20
6.068897637795275
 30
0.0
 11
1.857283464566929
 21
6.068897637795275
 31
0.0
  0
LINE
  5
29A9
330
1E
100
AcDbEntity
  8
7
100
AcDbLine
 10
2.579724409448818
 20
5.791338582677164
 30
0.0
 11
2.574803149606299
 21
5.791338582677164
 31
0.0
  0
LINE
  5
29B5
330
1E
100
AcDbEntity
  8
7
100
AcDbLine
 10
2.804133858267716
 20
5.986220472440944
 30
0.0
 11
2.808070866141732
 21
5.986220472440944
 31
0.0
  0
LINE
  5
29B6
330
1E
100
AcDbEntity
  8
7
100
AcDbLine
 10
2.826771653543307
 20
5.982283464566928
 30
0.0
 11
2.808070866141732
 21
5.986220472440944
 31
0.0
  0
LINE
  5
29BC
330
1E
100
AcDbEntity
  8
7
100
AcDbLine
 10
2.574803149606299
 20
5.811023622047243
 30
0.0
 11
2.576771653543306
 21
5.948818897637794
 31
0.0
  0
LINE
  5
29BD
330
1E
100
AcDbEntity
  8
7
100
AcDbLine
 10
2.602362204724409
 20
5.948818897637794
 30
0.0
 11
2.599409448818897
 21
5.811023622047243
 31
0.0
  0
LINE
  5
29C3
330
1E
100
AcDbEntity
  8
7
100
AcDbLine
 10
2.808070866141732
 20
5.986220472440944
 30
0.0
 11
2.809055118110236
 21
5.948818897637794
 31
0.0
  0
LINE
  5
29C9
330
1E
100
AcDbEntity
  8
7
100
AcDbLine
 10
2.836614173228346
 20
5.980314960629921
 30
0.0
 11
2.83759842519685
 21
5.948818897637794
 31
0.0
  0
LINE
  5
29CA
330
1E
100
AcDbEntity
  8
7
100
AcDbLine
 10
2.574803149606299
 20
5.791338582677164
 30
0.0
 11
2.524606299212598
 21
5.791338582677164
 31
0.0
  0
LINE
  5
29CB
330
1E
100
AcDbEntity
  8
7
100
AcDbLine
 10
2.524606299212598
 20
5.811023622047243
 30
0.0
 11
2.574803149606299
 21
5.811023622047243
 31
0.0
  0
LINE
  5
29D3
330
1E
100
AcDbEntity
  8
7
100
AcDbLine
 10
2.809055118110236
 20
5.948818897637794
 30
0.0
 11
2.801181102362204
 21
5.948818897637794
 31
0.0
  0
LINE
  5
29DC
330
1E
100
AcDbEntity
  8
7
100
AcDbLine
 10
2.52755905511811
 20
5.948818897637794
 30
0.0
 11
2.738188976377952
 21
5.948818897637794
 31
0.0
  0
LINE
  5
29E3
330
1E
100
AcDbEntity
  8
7
100
AcDbLine
 10
2.52755905511811
 20
5.948818897637794
 30
0.0
 11
2.524606299212598
 21
5.791338582677164
 31
0.0
  0
LINE
  5
29E9
330
1E
100
AcDbEntity
  8
7
100
AcDbLine
 10
2.503937007874015
 20
5.758858267716535
 30
0.0
 11
2.506889763779527
 21
5.948818897637794
 31
0.0
  0
LINE
  5
29EA
330
1E
100
AcDbEntity
  8
7
100
AcDbLine
 10
2.796259842519685
 20
6.068897637795275
 30
0.0
 11
2.798228346456693
 21
5.948818897637794
 31
0.0
  0
LINE
  5
29EB
330
1E
100
AcDbEntity
  8
7
100
AcDbLine
 10
2.738188976377952
 20
5.948818897637794
 30
0.0
 11
2.736220472440944
 21
6.068897637795275
 31
0.0
  0
LINE
  5
29EC
330
1E
100
AcDbEntity
  8
7
100
AcDbLine
 10
2.524606299212598
 20
6.068897637795275
 30
0.0
 11
2.52755905511811
 21
5.948818897637794
 31
0.0
  0
LINE
  5
29ED
330
1E
100
AcDbEntity
  8
7
100
AcDbLine
 10
2.506889763779527
 20
5.948818897637794
 30
0.0
 11
2.504921259842519
 21
6.068897637795275
 31
0.0
  0
LINE
  5
29EE
330
1E
100
AcDbEntity
  8
7
100
AcDbLine
 10
2.296259842519685
 20
6.068897637795275
 30
0.0
 11
2.295275590551181
 21
6.023622047244094
 31
0.0
  0
LINE
  5
29EF
330
1E
100
AcDbEntity
  8
7
100
AcDbLine
 10
1.648622047244094
 20
6.023622047244094
 30
0.0
 11
2.295275590551181
 21
6.023622047244094
 31
0.0
  0
LINE
  5
29F0
330
1E
100
AcDbEntity
  8
7
100
AcDbLine
 10
1.437007874015748
 20
5.948818897637794
 30
0.0
 11
2.506889763779527
 21
5.948818897637794
 31
0.0
  0
LINE
  5
29F1
330
1E
100
AcDbEntity
  8
7
100
AcDbLine
 10
1.64763779527559
 20
6.068897637795275
 30
0.0
 11
1.648622047244094
 21
6.023622047244094
 31
0.0
  0
LINE
  5
29F7
330
1E
100
AcDbEntity
  8
7
100
AcDbLine
 10
1.65748031496063
 20
5.863188976377952
 30
0.0
 11
2.286417322834645
 21
5.863188976377952
 31
0.0
  0
LINE
  5
29F8
330
1E
100
AcDbEntity
  8
7
100
AcDbLine
 10
1.135826771653543
 20
5.986220472440944
 30
0.0
 11
1.139763779527559
 21
5.986220472440944
 31
0.0
  0
LINE
  5
29FE
330
1E
100
AcDbEntity
  8
7
100
AcDbLine
 10
1.135826771653543
 20
5.986220472440944
 30
0.0
 11
1.117125984251968
 21
5.982283464566928
 31
0.0
  0
LINE
  5
29FF
330
1E
100
AcDbEntity
  8
7
100
AcDbLine
 10
1.106299212598425
 20
5.948818897637794
 30
0.0
 11
1.107283464566929
 21
5.980314960629921
 31
0.0
  0
LINE
  5
2A17
330
1E
100
AcDbEntity
  8
7
100
AcDbLine
 10
1.344488188976378
 20
5.811023622047243
 30
0.0
 11
1.34251968503937
 21
5.948818897637794
 31
0.0
  0
LINE
  5
2A1E
330
1E
100
AcDbEntity
  8
7
100
AcDbLine
 10
1.367125984251968
 20
5.948818897637794
 30
0.0
 11
1.369094488188976
 21
5.811023622047243
 31
0.0
  0
LINE
  5
2A29
330
1E
100
AcDbEntity
  8
7
100
AcDbLine
 10
1.369094488188976
 20
5.791338582677164
 30
0.0
 11
1.364173228346456
 21
5.791338582677164
 31
0.0
  0
LINE
  5
2A2A
330
1E
100
AcDbEntity
  8
7
100
AcDbLine
 10
1.205708661417322
 20
5.948818897637794
 30
0.0
 11
1.417322834645669
 21
5.948818897637794
 31
0.0
  0
LINE
  5
2A2B
330
1E
100
AcDbEntity
  8
7
100
AcDbLine
 10
1.20767716535433
 20
6.068897637795275
 30
0.0
 11
1.205708661417322
 21
5.948818897637794
 31
0.0
  0
LINE
  5
2A2C
330
1E
100
AcDbEntity
  8
7
100
AcDbLine
 10
1.145669291338582
 20
5.948818897637794
 30
0.0
 11
1.14763779527559
 21
6.068897637795275
 31
0.0
  0
LINE
  5
2A34
330
1E
100
AcDbEntity
  8
7
100
AcDbLine
 10
1.369094488188976
 20
5.811023622047243
 30
0.0
 11
1.419291338582677
 21
5.811023622047243
 31
0.0
  0
LINE
  5
2A35
330
1E
100
AcDbEntity
  8
7
100
AcDbLine
 10
1.417322834645669
 20
5.948818897637794
 30
0.0
 11
1.419291338582677
 21
6.068897637795275
 31
0.0
  0
LINE
  5
2A36
330
1E
100
AcDbEntity
  8
7
100
AcDbLine
 10
1.420275590551181
 20
5.791338582677164
 30
0.0
 11
1.369094488188976
 21
5.791338582677164
 31
0.0
  0
LINE
  5
2A3C
330
1E
100
AcDbEntity
  8
7
100
AcDbLine
 10
1.420275590551181
 20
5.791338582677164
 30
0.0
 11
1.417322834645669
 21
5.948818897637794
 31
0.0
  0
LINE
  5
2A43
330
1E
100
AcDbEntity
  8
7
100
AcDbLine
 10
1.869094488188976
 20
6.289370078740157
 30
0.0
 11
2.074803149606299
 21
6.289370078740157
 31
0.0
  0
LINE
  5
2A44
330
1E
100
AcDbEntity
  8
7
100
AcDbLine
 10
1.881889763779527
 20
6.534448818897637
 30
0.0
 11
2.062992125984251
 21
6.534448818897637
 31
0.0
  0
LINE
  5
2A45
330
1E
100
AcDbEntity
  8
7
100
AcDbLine
 10
2.062992125984251
 20
6.519685039370078
 30
0.0
 11
1.880905511811023
 21
6.519685039370078
 31
0.0
  0
LINE
  5
2A46
330
1E
100
AcDbEntity
  8
7
100
AcDbLine
 10
1.877952755905511
 20
6.455708661417322
 30
0.0
 11
2.065944881889763
 21
6.455708661417322
 31
0.0
  0
LINE
  5
2A47
330
1E
100
AcDbEntity
  8
7
100
AcDbLine
 10
1.873031496062992
 20
6.352362204724409
 30
0.0
 11
2.071850393700787
 21
6.352362204724409
 31
0.0
  0
LINE
  5
2A48
330
1E
100
AcDbEntity
  8
7
100
AcDbLine
 10
2.068897637795275
 20
6.414370078740157
 30
0.0
 11
1.875984251968503
 21
6.414370078740157
 31
0.0
  0
LINE
  5
2A49
330
1E
100
AcDbEntity
  8
7
100
AcDbLine
 10
2.074803149606299
 20
6.290354330708661
 30
0.0
 11
1.869094488188976
 21
6.290354330708661
 31
0.0
  0
LINE
  5
2A54
330
1E
100
AcDbEntity
  8
7
100
AcDbLine
 10
2.503937007874015
 20
5.758858267716535
 30
0.0
 11
2.287401574803149
 21
5.758858267716535
 31
0.0
  0
LINE
  5
2A55
330
1E
100
AcDbEntity
  8
7
100
AcDbLine
 10
2.523622047244094
 20
5.758858267716535
 30
0.0
 11
2.51771653543307
 21
5.758858267716535
 31
0.0
  0
LINE
  5
2A56
330
1E
100
AcDbEntity
  8
7
100
AcDbLine
 10
2.51771653543307
 20
5.758858267716535
 30
0.0
 11
2.503937007874015
 21
5.758858267716535
 31
0.0
  0
LINE
  5
2A5C
330
1E
100
AcDbEntity
  8
7
100
AcDbLine
 10
1.441929133858267
 20
5.633858267716535
 30
0.0
 11
1.437007874015748
 21
5.633858267716535
 31
0.0
  0
LINE
  5
2A62
330
1E
100
AcDbEntity
  8
7
100
AcDbLine
 10
1.422244094488188
 20
5.648622047244094
 30
0.0
 11
1.428149606299212
 21
5.648622047244094
 31
0.0
  0
LINE
  5
2A68
330
1E
100
AcDbEntity
  8
7
100
AcDbLine
 10
2.501968503937007
 20
5.633858267716535
 30
0.0
 11
1.441929133858267
 21
5.633858267716535
 31
0.0
  0
LINE
  5
2A78
330
1E
100
AcDbEntity
  8
7
100
AcDbLine
 10
2.506889763779527
 20
5.633858267716535
 30
0.0
 11
2.501968503937007
 21
5.633858267716535
 31
0.0
  0
LINE
  5
2A79
330
1E
100
AcDbEntity
  8
7
100
AcDbLine
 10
1.422244094488188
 20
5.648622047244094
 30
0.0
 11
1.420275590551181
 21
5.758858267716535
 31
0.0
  0
LINE
  5
2A7A
330
1E
100
AcDbEntity
  8
7
100
AcDbLine
 10
1.420275590551181
 20
5.791338582677164
 30
0.0
 11
1.420275590551181
 21
5.758858267716535
 31
0.0
  0
LINE
  5
2A7B
330
1E
100
AcDbEntity
  8
7
100
AcDbLine
 10
2.523622047244094
 20
5.758858267716535
 30
0.0
 11
2.524606299212598
 21
5.791338582677164
 31
0.0
  0
LINE
  5
2A7C
330
1E
100
AcDbEntity
  8
7
100
AcDbLine
 10
2.523622047244094
 20
5.758858267716535
 30
0.0
 11
2.521653543307086
 21
5.648622047244094
 31
0.0
  0
LINE
  5
2A7D
330
1E
100
AcDbEntity
  8
7
100
AcDbLine
 10
2.501968503937007
 20
5.648622047244094
 30
0.0
 11
2.503937007874015
 21
5.758858267716535
 31
0.0
  0
LINE
  5
2A89
330
1E
100
AcDbEntity
  8
7
100
AcDbLine
 10
2.284448818897637
 20
5.848425196850393
 30
0.0
 11
2.287401574803149
 21
5.758858267716535
 31
0.0
  0
LINE
  5
2A8A
330
1E
100
AcDbEntity
  8
7
100
AcDbLine
 10
1.670275590551181
 20
5.858267716535432
 30
0.0
 11
2.273622047244094
 21
5.858267716535432
 31
0.0
  0
LINE
  5
2A95
330
1E
100
AcDbEntity
  8
7
100
AcDbLine
 10
1.65748031496063
 20
5.758858267716535
 30
0.0
 11
1.660433070866141
 21
5.848425196850393
 31
0.0
  0
LINE
  5
2A9B
330
1E
100
AcDbEntity
  8
7
100
AcDbLine
 10
2.043307086614173
 20
5.614173228346456
 30
0.0
 11
2.043307086614173
 21
5.633858267716535
 31
0.0
  0
LINE
  5
2A9C
330
1E
100
AcDbEntity
  8
7
100
AcDbLine
 10
2.043307086614173
 20
5.604330708661416
 30
0.0
 11
1.901574803149606
 21
5.604330708661416
 31
0.0
  0
LINE
  5
2A9D
330
1E
100
AcDbEntity
  8
7
100
AcDbLine
 10
2.053149606299212
 20
5.633858267716535
 30
0.0
 11
2.053149606299212
 21
5.614173228346456
 31
0.0
  0
LINE
  5
2A9E
330
1E
100
AcDbEntity
  8
7
100
AcDbLine
 10
1.891732283464566
 20
5.614173228346456
 30
0.0
 11
1.890748031496062
 21
5.633858267716535
 31
0.0
  0
LINE
  5
2ABD
330
1E
100
AcDbEntity
  8
7
100
AcDbLine
 10
1.954724409448818
 20
4.414370078740157
 30
0.0
 11
1.895669291338582
 21
4.314960629921259
 31
0.0
  0
LINE
  5
2ABE
330
1E
100
AcDbEntity
  8
7
100
AcDbLine
 10
1.64271653543307
 20
4.314960629921259
 30
0.0
 11
1.701771653543306
 21
4.314960629921259
 31
0.0
  0
LINE
  5
2ABF
330
1E
100
AcDbEntity
  8
7
100
AcDbLine
 10
1.742125984251968
 20
4.36515748031496
 30
0.0
 11
1.771653543307086
 21
4.36515748031496
 31
0.0
  0
LINE
  5
2AC0
330
1E
100
AcDbEntity
  8
7
100
AcDbLine
 10
1.811023622047244
 20
4.314960629921259
 30
0.0
 11
1.811023622047244
 21
4.414370078740157
 31
0.0
  0
LINE
  5
2AC1
330
1E
100
AcDbEntity
  8
7
100
AcDbLine
 10
2.222440944881889
 20
4.334645669291337
 30
0.0
 11
2.222440944881889
 21
4.394685039370078
 31
0.0
  0
LINE
  5
2AC2
330
1E
100
AcDbEntity
  8
7
100
AcDbLine
 10
2.023622047244094
 20
4.414370078740157
 30
0.0
 11
2.039370078740157
 21
4.394685039370078
 31
0.0
  0
LINE
  5
2AC3
330
1E
100
AcDbEntity
  8
7
100
AcDbLine
 10
1.994094488188976
 20
4.414370078740157
 30
0.0
 11
2.023622047244094
 21
4.414370078740157
 31
0.0
  0
LINE
  5
2AC4
330
1E
100
AcDbEntity
  8
7
100
AcDbLine
 10
2.222440944881889
 20
4.394685039370078
 30
0.0
 11
2.241141732283464
 21
4.414370078740157
 31
0.0
  0
LINE
  5
2AC5
330
1E
100
AcDbEntity
  8
7
100
AcDbLine
 10
1.64271653543307
 20
4.414370078740157
 30
0.0
 11
1.64271653543307
 21
4.314960629921259
 31
0.0
  0
LINE
  5
2AC6
330
1E
100
AcDbEntity
  8
7
100
AcDbLine
 10
1.87007874015748
 20
4.314960629921259
 30
0.0
 11
1.87007874015748
 21
4.414370078740157
 31
0.0
  0
LINE
  5
2AC7
330
1E
100
AcDbEntity
  8
7
100
AcDbLine
 10
1.727362204724409
 20
4.314960629921259
 30
0.0
 11
1.756889763779527
 21
4.414370078740157
 31
0.0
  0
LINE
  5
2AC8
330
1E
100
AcDbEntity
  8
7
100
AcDbLine
 10
2.20767716535433
 20
4.414370078740157
 30
0.0
 11
2.14763779527559
 21
4.414370078740157
 31
0.0
  0
LINE
  5
2AC9
330
1E
100
AcDbEntity
  8
7
100
AcDbLine
 10
2.241141732283464
 20
4.314960629921259
 30
0.0
 11
2.222440944881889
 21
4.334645669291337
 31
0.0
  0
LINE
  5
2ACA
330
1E
100
AcDbEntity
  8
7
100
AcDbLine
 10
2.093503937007874
 20
4.414370078740157
 30
0.0
 11
2.123031496062992
 21
4.314960629921259
 31
0.0
  0
LINE
  5
2ACB
330
1E
100
AcDbEntity
  8
7
100
AcDbLine
 10
2.301181102362204
 20
4.355314960629921
 30
0.0
 11
2.301181102362204
 21
4.334645669291337
 31
0.0
  0
LINE
  5
2ACC
330
1E
100
AcDbEntity
  8
7
100
AcDbLine
 10
2.241141732283464
 20
4.375
 30
0.0
 11
2.281496062992125
 21
4.375
 31
0.0
  0
LINE
  5
2ACD
330
1E
100
AcDbEntity
  8
7
100
AcDbLine
 10
1.979330708661417
 20
4.334645669291337
 30
0.0
 11
1.979330708661417
 21
4.394685039370078
 31
0.0
  0
LINE
  5
2ACE
330
1E
100
AcDbEntity
  8
7
100
AcDbLine
 10
1.811023622047244
 20
4.414370078740157
 30
0.0
 11
1.87007874015748
 21
4.314960629921259
 31
0.0
  0
LINE
  5
2ACF
330
1E
100
AcDbEntity
  8
7
100
AcDbLine
 10
2.301181102362204
 20
4.334645669291337
 30
0.0
 11
2.281496062992125
 21
4.314960629921259
 31
0.0
  0
LINE
  5
2AD0
330
1E
100
AcDbEntity
  8
7
100
AcDbLine
 10
2.222440944881889
 20
4.355314960629921
 30
0.0
 11
2.241141732283464
 21
4.375
 31
0.0
  0
LINE
  5
2AD1
330
1E
100
AcDbEntity
  8
7
100
AcDbLine
 10
2.023622047244094
 20
4.314960629921259
 30
0.0
 11
1.994094488188976
 21
4.314960629921259
 31
0.0
  0
LINE
  5
2AD2
330
1E
100
AcDbEntity
  8
7
100
AcDbLine
 10
2.281496062992125
 20
4.314960629921259
 30
0.0
 11
2.241141732283464
 21
4.314960629921259
 31
0.0
  0
LINE
  5
2AD3
330
1E
100
AcDbEntity
  8
7
100
AcDbLine
 10
2.281496062992125
 20
4.375
 30
0.0
 11
2.301181102362204
 21
4.355314960629921
 31
0.0
  0
LINE
  5
2AD4
330
1E
100
AcDbEntity
  8
7
100
AcDbLine
 10
1.979330708661417
 20
4.394685039370078
 30
0.0
 11
1.994094488188976
 21
4.414370078740157
 31
0.0
  0
LINE
  5
2AD5
330
1E
100
AcDbEntity
  8
7
100
AcDbLine
 10
2.241141732283464
 20
4.414370078740157
 30
0.0
 11
2.281496062992125
 21
4.414370078740157
 31
0.0
  0
LINE
  5
2AD6
330
1E
100
AcDbEntity
  8
7
100
AcDbLine
 10
2.178149606299212
 20
4.414370078740157
 30
0.0
 11
2.178149606299212
 21
4.314960629921259
 31
0.0
  0
LINE
  5
2AD7
330
1E
100
AcDbEntity
  8
7
100
AcDbLine
 10
2.038385826771653
 20
4.334645669291337
 30
0.0
 11
2.023622047244094
 21
4.314960629921259
 31
0.0
  0
LINE
  5
2AD8
330
1E
100
AcDbEntity
  8
7
100
AcDbLine
 10
2.078740157480314
 20
4.36515748031496
 30
0.0
 11
2.108267716535432
 21
4.36515748031496
 31
0.0
  0
LINE
  5
2AD9
330
1E
100
AcDbEntity
  8
7
100
AcDbLine
 10
2.063976377952756
 20
4.314960629921259
 30
0.0
 11
2.093503937007874
 21
4.414370078740157
 31
0.0
  0
LINE
  5
2ADA
330
1E
100
AcDbEntity
  8
7
100
AcDbLine
 10
1.994094488188976
 20
4.314960629921259
 30
0.0
 11
1.979330708661417
 21
4.334645669291337
 31
0.0
  0
LINE
  5
2ADB
330
1E
100
AcDbEntity
  8
7
100
AcDbLine
 10
1.756889763779527
 20
4.414370078740157
 30
0.0
 11
1.786417322834645
 21
4.314960629921259
 31
0.0
  0
LINE
  5
2ADC
330
1E
100
AcDbEntity
  8
7
100
AcDbLine
 10
2.524606299212598
 20
3.787401574803149
 30
0.0
 11
2.524606299212598
 21
3.884842519685039
 31
0.0
  0
LINE
  5
2ADD
330
1E
100
AcDbEntity
  8
7
100
AcDbLine
 10
2.524606299212598
 20
4.182086614173227
 30
0.0
 11
2.524606299212598
 21
4.278543307086613
 31
0.0
  0
LINE
  5
2ADE
330
1E
100
AcDbEntity
  8
7
100
AcDbLine
 10
1.420275590551181
 20
4.278543307086613
 30
0.0
 11
1.420275590551181
 21
4.182086614173227
 31
0.0
  0
LINE
  5
2ADF
330
1E
100
AcDbEntity
  8
7
100
AcDbLine
 10
1.420275590551181
 20
3.884842519685039
 30
0.0
 11
1.420275590551181
 21
3.787401574803149
 31
0.0
  0
LINE
  5
2AF0
330
1E
100
AcDbEntity
  8
7
100
AcDbLine
 10
1.65748031496063
 20
4.481299212598425
 30
0.0
 11
1.65748031496063
 21
4.479330708661416
 31
0.0
  0
LINE
  5
2AF1
330
1E
100
AcDbEntity
  8
7
100
AcDbLine
 10
1.65748031496063
 20
4.481299212598425
 30
0.0
 11
1.65255905511811
 21
4.479330708661416
 31
0.0
  0
LINE
  5
2AF2
330
1E
100
AcDbEntity
  8
7
100
AcDbLine
 10
2.286417322834645
 20
4.479330708661416
 30
0.0
 11
2.286417322834645
 21
4.481299212598425
 31
0.0
  0
LINE
  5
2AF3
330
1E
100
AcDbEntity
  8
7
100
AcDbLine
 10
2.292322834645669
 20
4.479330708661416
 30
0.0
 11
2.286417322834645
 21
4.481299212598425
 31
0.0
  0
LINE
  5
2AF4
330
1E
100
AcDbEntity
  8
7
100
AcDbLine
 10
1.628937007874015
 20
3.582677165354331
 30
0.0
 11
2.292322834645669
 21
3.582677165354331
 31
0.0
  0
LINE
  5
2AF5
330
1E
100
AcDbEntity
  8
7
100
AcDbLine
 10
1.628937007874015
 20
3.582677165354331
 30
0.0
 11
1.437007874015748
 21
3.582677165354331
 31
0.0
  0
LINE
  5
2AFB
330
1E
100
AcDbEntity
  8
7
100
AcDbLine
 10
1.439960629921259
 20
3.586614173228346
 30
0.0
 11
1.437007874015748
 21
3.582677165354331
 31
0.0
  0
LINE
  5
2AFC
330
1E
100
AcDbEntity
  8
7
100
AcDbLine
 10
2.506889763779527
 20
3.582677165354331
 30
0.0
 11
2.503937007874015
 21
3.586614173228346
 31
0.0
  0
LINE
  5
2B02
330
1E
100
AcDbEntity
  8
7
100
AcDbLine
 10
2.579724409448818
 20
4.320866141732283
 30
0.0
 11
2.574803149606299
 21
4.325787401574802
 31
0.0
  0
LINE
  5
2B0E
330
1E
100
AcDbEntity
  8
7
100
AcDbLine
 10
2.579724409448818
 20
3.74507874015748
 30
0.0
 11
2.579724409448818
 21
4.320866141732283
 31
0.0
  0
LINE
  5
2B14
330
1E
100
AcDbEntity
  8
7
100
AcDbLine
 10
2.599409448818897
 20
4.320866141732283
 30
0.0
 11
2.599409448818897
 21
3.74507874015748
 31
0.0
  0
LINE
  5
2B15
330
1E
100
AcDbEntity
  8
7
100
AcDbLine
 10
2.574803149606299
 20
3.74015748031496
 30
0.0
 11
2.579724409448818
 21
3.74507874015748
 31
0.0
  0
LINE
  5
2B21
330
1E
100
AcDbEntity
  8
7
100
AcDbLine
 10
2.601377952755905
 20
4.1751968503937
 30
0.0
 11
2.601377952755905
 21
3.890748031496063
 31
0.0
  0
LINE
  5
2B22
330
1E
100
AcDbEntity
  8
7
100
AcDbLine
 10
2.574803149606299
 20
4.345472440944881
 30
0.0
 11
2.576771653543306
 21
4.348425196850393
 31
0.0
  0
LINE
  5
2B23
330
1E
100
AcDbEntity
  8
7
100
AcDbLine
 10
2.602362204724409
 20
4.32283464566929
 30
0.0
 11
2.599409448818897
 21
4.320866141732283
 31
0.0
  0
LINE
  5
2B2A
330
1E
100
AcDbEntity
  8
7
100
AcDbLine
 10
2.809055118110236
 20
4.358267716535432
 30
0.0
 11
2.827755905511811
 21
4.358267716535432
 31
0.0
  0
LINE
  5
2B30
330
1E
100
AcDbEntity
  8
7
100
AcDbLine
 10
2.83759842519685
 20
4.348425196850393
 30
0.0
 11
2.83759842519685
 21
4.25
 31
0.0
  0
LINE
  5
2B36
330
1E
100
AcDbEntity
  8
7
100
AcDbLine
 10
2.827755905511811
 20
4.24015748031496
 30
0.0
 11
2.809055118110236
 21
4.24015748031496
 31
0.0
  0
LINE
  5
2B37
330
1E
100
AcDbEntity
  8
7
100
AcDbLine
 10
2.809055118110236
 20
3.825787401574803
 30
0.0
 11
2.827755905511811
 21
3.825787401574803
 31
0.0
  0
LINE
  5
2B3D
330
1E
100
AcDbEntity
  8
7
100
AcDbLine
 10
2.83759842519685
 20
3.815944881889763
 30
0.0
 11
2.83759842519685
 21
3.718503937007874
 31
0.0
  0
LINE
  5
2B43
330
1E
100
AcDbEntity
  8
7
100
AcDbLine
 10
2.827755905511811
 20
3.707677165354331
 30
0.0
 11
2.809055118110236
 21
3.707677165354331
 31
0.0
  0
LINE
  5
2B44
330
1E
100
AcDbEntity
  8
7
100
AcDbLine
 10
2.599409448818897
 20
3.74507874015748
 30
0.0
 11
2.602362204724409
 21
3.743110236220472
 31
0.0
  0
LINE
  5
2B45
330
1E
100
AcDbEntity
  8
7
100
AcDbLine
 10
2.576771653543306
 20
3.718503937007874
 30
0.0
 11
2.574803149606299
 21
3.720472440944881
 31
0.0
  0
LINE
  5
2B4B
330
1E
100
AcDbEntity
  8
7
100
AcDbLine
 10
2.589566929133858
 20
3.721456692913385
 30
0.0
 11
2.576771653543306
 21
3.718503937007874
 31
0.0
  0
LINE
  5
2B4C
330
1E
100
AcDbEntity
  8
7
100
AcDbLine
 10
2.602362204724409
 20
3.743110236220472
 30
0.0
 11
2.602362204724409
 21
3.889763779527558
 31
0.0
  0
LINE
  5
2B4D
330
1E
100
AcDbEntity
  8
7
100
AcDbLine
 10
2.601377952755905
 20
3.890748031496063
 30
0.0
 11
2.602362204724409
 21
3.889763779527558
 31
0.0
  0
LINE
  5
2B4E
330
1E
100
AcDbEntity
  8
7
100
AcDbLine
 10
2.602362204724409
 20
4.176181102362204
 30
0.0
 11
2.601377952755905
 21
4.1751968503937
 31
0.0
  0
LINE
  5
2B4F
330
1E
100
AcDbEntity
  8
7
100
AcDbLine
 10
2.602362204724409
 20
4.176181102362204
 30
0.0
 11
2.602362204724409
 21
4.32283464566929
 31
0.0
  0
LINE
  5
2B55
330
1E
100
AcDbEntity
  8
7
100
AcDbLine
 10
2.574803149606299
 20
4.325787401574802
 30
0.0
 11
2.524606299212598
 21
4.325787401574802
 31
0.0
  0
LINE
  5
2B56
330
1E
100
AcDbEntity
  8
7
100
AcDbLine
 10
2.524606299212598
 20
4.345472440944881
 30
0.0
 11
2.574803149606299
 21
4.345472440944881
 31
0.0
  0
LINE
  5
2B57
330
1E
100
AcDbEntity
  8
7
100
AcDbLine
 10
2.52755905511811
 20
4.348425196850393
 30
0.0
 11
2.524606299212598
 21
4.345472440944881
 31
0.0
  0
LINE
  5
2B58
330
1E
100
AcDbEntity
  8
7
100
AcDbLine
 10
2.576771653543306
 20
4.348425196850393
 30
0.0
 11
2.52755905511811
 21
4.348425196850393
 31
0.0
  0
LINE
  5
2B59
330
1E
100
AcDbEntity
  8
7
100
AcDbLine
 10
2.574803149606299
 20
3.720472440944881
 30
0.0
 11
2.524606299212598
 21
3.720472440944881
 31
0.0
  0
LINE
  5
2B5A
330
1E
100
AcDbEntity
  8
7
100
AcDbLine
 10
2.52755905511811
 20
3.718503937007874
 30
0.0
 11
2.524606299212598
 21
3.720472440944881
 31
0.0
  0
LINE
  5
2B5B
330
1E
100
AcDbEntity
  8
7
100
AcDbLine
 10
2.52755905511811
 20
3.718503937007874
 30
0.0
 11
2.576771653543306
 21
3.718503937007874
 31
0.0
  0
LINE
  5
2B5C
330
1E
100
AcDbEntity
  8
7
100
AcDbLine
 10
2.524606299212598
 20
3.74015748031496
 30
0.0
 11
2.524606299212598
 21
3.787401574803149
 31
0.0
  0
LINE
  5
2B5D
330
1E
100
AcDbEntity
  8
7
100
AcDbLine
 10
2.524606299212598
 20
3.74015748031496
 30
0.0
 11
2.574803149606299
 21
3.74015748031496
 31
0.0
  0
LINE
  5
2B5E
330
1E
100
AcDbEntity
  8
7
100
AcDbLine
 10
2.524606299212598
 20
4.278543307086613
 30
0.0
 11
2.524606299212598
 21
4.325787401574802
 31
0.0
  0
LINE
  5
2B5F
330
1E
100
AcDbEntity
  8
7
100
AcDbLine
 10
2.524606299212598
 20
3.884842519685039
 30
0.0
 11
2.524606299212598
 21
4.182086614173227
 31
0.0
  0
LINE
  5
2B79
330
1E
100
AcDbEntity
  8
7
100
AcDbLine
 10
2.602362204724409
 20
3.889763779527558
 30
0.0
 11
2.622047244094487
 21
3.889763779527558
 31
0.0
  0
LINE
  5
2B7A
330
1E
100
AcDbEntity
  8
7
100
AcDbLine
 10
2.622047244094487
 20
4.176181102362204
 30
0.0
 11
2.602362204724409
 21
4.176181102362204
 31
0.0
  0
LINE
  5
2B7B
330
1E
100
AcDbEntity
  8
7
100
AcDbLine
 10
2.52755905511811
 20
3.619094488188976
 30
0.0
 11
2.52755905511811
 21
3.718503937007874
 31
0.0
  0
LINE
  5
2B7C
330
1E
100
AcDbEntity
  8
7
100
AcDbLine
 10
2.738188976377952
 20
3.619094488188976
 30
0.0
 11
2.52755905511811
 21
3.619094488188976
 31
0.0
  0
LINE
  5
2B84
330
1E
100
AcDbEntity
  8
7
100
AcDbLine
 10
2.798228346456693
 20
3.697834645669291
 30
0.0
 11
2.798228346456693
 21
3.679133858267716
 31
0.0
  0
LINE
  5
2B85
330
1E
100
AcDbEntity
  8
7
100
AcDbLine
 10
2.798228346456693
 20
3.855314960629921
 30
0.0
 11
2.798228346456693
 21
3.835629921259842
 31
0.0
  0
LINE
  5
2B99
330
1E
100
AcDbEntity
  8
7
100
AcDbLine
 10
2.798228346456693
 20
4.230314960629921
 30
0.0
 11
2.798228346456693
 21
4.210629921259842
 31
0.0
  0
LINE
  5
2B9A
330
1E
100
AcDbEntity
  8
7
100
AcDbLine
 10
2.798228346456693
 20
4.386811023622047
 30
0.0
 11
2.798228346456693
 21
4.368110236220472
 31
0.0
  0
LINE
  5
2BA2
330
1E
100
AcDbEntity
  8
7
100
AcDbLine
 10
2.52755905511811
 20
4.446850393700787
 30
0.0
 11
2.738188976377952
 21
4.446850393700787
 31
0.0
  0
LINE
  5
2BA3
330
1E
100
AcDbEntity
  8
7
100
AcDbLine
 10
2.52755905511811
 20
4.348425196850393
 30
0.0
 11
2.52755905511811
 21
4.446850393700787
 31
0.0
  0
LINE
  5
2BA4
330
1E
100
AcDbEntity
  8
7
100
AcDbLine
 10
2.622047244094487
 20
3.889763779527558
 30
0.0
 11
2.622047244094487
 21
4.176181102362204
 31
0.0
  0
LINE
  5
2BAB
330
1E
100
AcDbEntity
  8
7
100
AcDbLine
 10
2.52755905511811
 20
4.46259842519685
 30
0.0
 11
2.524606299212598
 21
4.460629921259842
 31
0.0
  0
LINE
  5
2BAC
330
1E
100
AcDbEntity
  8
7
100
AcDbLine
 10
2.52755905511811
 20
4.46259842519685
 30
0.0
 11
2.521653543307086
 21
4.477362204724409
 31
0.0
  0
LINE
  5
2BAD
330
1E
100
AcDbEntity
  8
7
100
AcDbLine
 10
2.521653543307086
 20
4.477362204724409
 30
0.0
 11
2.506889763779527
 21
4.483267716535432
 31
0.0
  0
LINE
  5
2BAE
330
1E
100
AcDbEntity
  8
7
100
AcDbLine
 10
2.503937007874015
 20
4.479330708661416
 30
0.0
 11
2.506889763779527
 21
4.483267716535432
 31
0.0
  0
LINE
  5
2BAF
330
1E
100
AcDbEntity
  8
7
100
AcDbLine
 10
2.524606299212598
 20
4.460629921259842
 30
0.0
 11
2.524606299212598
 21
4.325787401574802
 31
0.0
  0
LINE
  5
2BB0
330
1E
100
AcDbEntity
  8
7
100
AcDbLine
 10
2.52755905511811
 20
4.46259842519685
 30
0.0
 11
2.52755905511811
 21
4.446850393700787
 31
0.0
  0
LINE
  5
2BB6
330
1E
100
AcDbEntity
  8
7
100
AcDbLine
 10
2.52755905511811
 20
3.619094488188976
 30
0.0
 11
2.52755905511811
 21
3.603346456692913
 31
0.0
  0
LINE
  5
2BC2
330
1E
100
AcDbEntity
  8
7
100
AcDbLine
 10
1.437007874015748
 20
4.483267716535432
 30
0.0
 11
2.506889763779527
 21
4.483267716535432
 31
0.0
  0
LINE
  5
2BC3
330
1E
100
AcDbEntity
  8
7
100
AcDbLine
 10
1.437007874015748
 20
4.483267716535432
 30
0.0
 11
1.439960629921259
 21
4.479330708661416
 31
0.0
  0
LINE
  5
2BC4
330
1E
100
AcDbEntity
  8
7
100
AcDbLine
 10
1.65748031496063
 20
4.481299212598425
 30
0.0
 11
2.286417322834645
 21
4.481299212598425
 31
0.0
  0
LINE
  5
2BC5
330
1E
100
AcDbEntity
  8
7
100
AcDbLine
 10
1.343503937007874
 20
3.890748031496063
 30
0.0
 11
1.343503937007874
 21
4.1751968503937
 31
0.0
  0
LINE
  5
2BCB
330
1E
100
AcDbEntity
  8
7
100
AcDbLine
 10
1.135826771653543
 20
3.707677165354331
 30
0.0
 11
1.116141732283464
 21
3.707677165354331
 31
0.0
  0
LINE
  5
2BD1
330
1E
100
AcDbEntity
  8
7
100
AcDbLine
 10
1.106299212598425
 20
3.718503937007874
 30
0.0
 11
1.106299212598425
 21
3.815944881889763
 31
0.0
  0
LINE
  5
2BD7
330
1E
100
AcDbEntity
  8
7
100
AcDbLine
 10
1.116141732283464
 20
3.825787401574803
 30
0.0
 11
1.135826771653543
 21
3.825787401574803
 31
0.0
  0
LINE
  5
2BE2
330
1E
100
AcDbEntity
  8
7
100
AcDbLine
 10
1.135826771653543
 20
4.24015748031496
 30
0.0
 11
1.116141732283464
 21
4.24015748031496
 31
0.0
  0
LINE
  5
2BE8
330
1E
100
AcDbEntity
  8
7
100
AcDbLine
 10
1.106299212598425
 20
4.25
 30
0.0
 11
1.106299212598425
 21
4.348425196850393
 31
0.0
  0
LINE
  5
2BEE
330
1E
100
AcDbEntity
  8
7
100
AcDbLine
 10
1.116141732283464
 20
4.358267716535432
 30
0.0
 11
1.135826771653543
 21
4.358267716535432
 31
0.0
  0
LINE
  5
2BF4
330
1E
100
AcDbEntity
  8
7
100
AcDbLine
 10
1.344488188976378
 20
4.320866141732283
 30
0.0
 11
1.34251968503937
 21
4.32283464566929
 31
0.0
  0
LINE
  5
2BFB
330
1E
100
AcDbEntity
  8
7
100
AcDbLine
 10
1.367125984251968
 20
4.348425196850393
 30
0.0
 11
1.369094488188976
 21
4.345472440944881
 31
0.0
  0
LINE
  5
2C02
330
1E
100
AcDbEntity
  8
7
100
AcDbLine
 10
1.343503937007874
 20
4.1751968503937
 30
0.0
 11
1.34251968503937
 21
4.176181102362204
 31
0.0
  0
LINE
  5
2C03
330
1E
100
AcDbEntity
  8
7
100
AcDbLine
 10
1.34251968503937
 20
4.176181102362204
 30
0.0
 11
1.321850393700787
 21
4.176181102362204
 31
0.0
  0
LINE
  5
2C0E
330
1E
100
AcDbEntity
  8
7
100
AcDbLine
 10
1.34251968503937
 20
4.32283464566929
 30
0.0
 11
1.34251968503937
 21
4.176181102362204
 31
0.0
  0
LINE
  5
2C0F
330
1E
100
AcDbEntity
  8
7
100
AcDbLine
 10
1.34251968503937
 20
3.889763779527558
 30
0.0
 11
1.34251968503937
 21
3.743110236220472
 31
0.0
  0
LINE
  5
2C10
330
1E
100
AcDbEntity
  8
7
100
AcDbLine
 10
1.369094488188976
 20
3.720472440944881
 30
0.0
 11
1.367125984251968
 21
3.718503937007874
 31
0.0
  0
LINE
  5
2C27
330
1E
100
AcDbEntity
  8
7
100
AcDbLine
 10
1.364173228346456
 20
4.320866141732283
 30
0.0
 11
1.364173228346456
 21
3.74507874015748
 31
0.0
  0
LINE
  5
2C2D
330
1E
100
AcDbEntity
  8
7
100
AcDbLine
 10
1.364173228346456
 20
3.74507874015748
 30
0.0
 11
1.369094488188976
 21
3.74015748031496
 31
0.0
  0
LINE
  5
2C33
330
1E
100
AcDbEntity
  8
7
100
AcDbLine
 10
1.369094488188976
 20
4.325787401574802
 30
0.0
 11
1.364173228346456
 21
4.320866141732283
 31
0.0
  0
LINE
  5
2C34
330
1E
100
AcDbEntity
  8
7
100
AcDbLine
 10
1.321850393700787
 20
4.176181102362204
 30
0.0
 11
1.321850393700787
 21
3.889763779527558
 31
0.0
  0
LINE
  5
2C35
330
1E
100
AcDbEntity
  8
7
100
AcDbLine
 10
1.205708661417322
 20
4.446850393700787
 30
0.0
 11
1.417322834645669
 21
4.446850393700787
 31
0.0
  0
LINE
  5
2C3D
330
1E
100
AcDbEntity
  8
7
100
AcDbLine
 10
1.145669291338582
 20
4.368110236220472
 30
0.0
 11
1.145669291338582
 21
4.386811023622047
 31
0.0
  0
LINE
  5
2C3E
330
1E
100
AcDbEntity
  8
7
100
AcDbLine
 10
1.145669291338582
 20
4.210629921259842
 30
0.0
 11
1.145669291338582
 21
4.230314960629921
 31
0.0
  0
LINE
  5
2C52
330
1E
100
AcDbEntity
  8
7
100
AcDbLine
 10
1.145669291338582
 20
3.835629921259842
 30
0.0
 11
1.145669291338582
 21
3.855314960629921
 31
0.0
  0
LINE
  5
2C53
330
1E
100
AcDbEntity
  8
7
100
AcDbLine
 10
1.145669291338582
 20
3.679133858267716
 30
0.0
 11
1.145669291338582
 21
3.697834645669291
 31
0.0
  0
LINE
  5
2C5B
330
1E
100
AcDbEntity
  8
7
100
AcDbLine
 10
1.417322834645669
 20
3.619094488188976
 30
0.0
 11
1.205708661417322
 21
3.619094488188976
 31
0.0
  0
LINE
  5
2C5C
330
1E
100
AcDbEntity
  8
7
100
AcDbLine
 10
1.417322834645669
 20
3.603346456692913
 30
0.0
 11
1.417322834645669
 21
3.619094488188976
 31
0.0
  0
LINE
  5
2C62
330
1E
100
AcDbEntity
  8
7
100
AcDbLine
 10
1.367125984251968
 20
3.718503937007874
 30
0.0
 11
1.417322834645669
 21
3.718503937007874
 31
0.0
  0
LINE
  5
2C68
330
1E
100
AcDbEntity
  8
7
100
AcDbLine
 10
1.369094488188976
 20
3.74015748031496
 30
0.0
 11
1.420275590551181
 21
3.74015748031496
 31
0.0
  0
LINE
  5
2C69
330
1E
100
AcDbEntity
  8
7
100
AcDbLine
 10
1.369094488188976
 20
4.345472440944881
 30
0.0
 11
1.419291338582677
 21
4.345472440944881
 31
0.0
  0
LINE
  5
2C6A
330
1E
100
AcDbEntity
  8
7
100
AcDbLine
 10
1.417322834645669
 20
4.348425196850393
 30
0.0
 11
1.419291338582677
 21
4.345472440944881
 31
0.0
  0
LINE
  5
2C6B
330
1E
100
AcDbEntity
  8
7
100
AcDbLine
 10
1.417322834645669
 20
4.348425196850393
 30
0.0
 11
1.367125984251968
 21
4.348425196850393
 31
0.0
  0
LINE
  5
2C6C
330
1E
100
AcDbEntity
  8
7
100
AcDbLine
 10
1.417322834645669
 20
3.718503937007874
 30
0.0
 11
1.417322834645669
 21
3.619094488188976
 31
0.0
  0
LINE
  5
2C6D
330
1E
100
AcDbEntity
  8
7
100
AcDbLine
 10
1.417322834645669
 20
4.446850393700787
 30
0.0
 11
1.417322834645669
 21
4.348425196850393
 31
0.0
  0
LINE
  5
2C6E
330
1E
100
AcDbEntity
  8
7
100
AcDbLine
 10
1.417322834645669
 20
4.446850393700787
 30
0.0
 11
1.417322834645669
 21
4.46259842519685
 31
0.0
  0
LINE
  5
2C6F
330
1E
100
AcDbEntity
  8
7
100
AcDbLine
 10
1.420275590551181
 20
3.787401574803149
 30
0.0
 11
1.420275590551181
 21
3.74015748031496
 31
0.0
  0
LINE
  5
2C70
330
1E
100
AcDbEntity
  8
7
100
AcDbLine
 10
1.420275590551181
 20
4.182086614173227
 30
0.0
 11
1.420275590551181
 21
3.884842519685039
 31
0.0
  0
LINE
  5
2C71
330
1E
100
AcDbEntity
  8
7
100
AcDbLine
 10
1.420275590551181
 20
4.325787401574802
 30
0.0
 11
1.420275590551181
 21
4.278543307086613
 31
0.0
  0
LINE
  5
2C72
330
1E
100
AcDbEntity
  8
7
100
AcDbLine
 10
1.420275590551181
 20
4.325787401574802
 30
0.0
 11
1.369094488188976
 21
4.325787401574802
 31
0.0
  0
LINE
  5
2C82
330
1E
100
AcDbEntity
  8
7
100
AcDbLine
 10
1.420275590551181
 20
3.74015748031496
 30
0.0
 11
1.420275590551181
 21
3.605314960629921
 31
0.0
  0
LINE
  5
2C83
330
1E
100
AcDbEntity
  8
7
100
AcDbLine
 10
1.417322834645669
 20
3.603346456692913
 30
0.0
 11
1.420275590551181
 21
3.605314960629921
 31
0.0
  0
LINE
  5
2C84
330
1E
100
AcDbEntity
  8
7
100
AcDbLine
 10
1.420275590551181
 20
4.460629921259842
 30
0.0
 11
1.420275590551181
 21
4.325787401574802
 31
0.0
  0
LINE
  5
2C85
330
1E
100
AcDbEntity
  8
7
100
AcDbLine
 10
1.420275590551181
 20
4.460629921259842
 30
0.0
 11
1.417322834645669
 21
4.46259842519685
 31
0.0
  0
LINE
  5
2C92
330
1E
100
AcDbEntity
  8
7
100
AcDbLine
 10
2.524606299212598
 20
3.787401574803149
 30
0.0
 11
2.523622047244094
 21
3.787401574803149
 31
0.0
  0
LINE
  5
2C93
330
1E
100
AcDbEntity
  8
7
100
AcDbLine
 10
2.524606299212598
 20
3.884842519685039
 30
0.0
 11
2.523622047244094
 21
3.883858267716535
 31
0.0
  0
LINE
  5
2C94
330
1E
100
AcDbEntity
  8
7
100
AcDbLine
 10
2.524606299212598
 20
4.182086614173227
 30
0.0
 11
2.523622047244094
 21
4.182086614173227
 31
0.0
  0
LINE
  5
2C95
330
1E
100
AcDbEntity
  8
7
100
AcDbLine
 10
2.524606299212598
 20
4.278543307086613
 30
0.0
 11
2.523622047244094
 21
4.278543307086613
 31
0.0
  0
LINE
  5
2C96
330
1E
100
AcDbEntity
  8
7
100
AcDbLine
 10
1.420275590551181
 20
3.884842519685039
 30
0.0
 11
1.420275590551181
 21
3.883858267716535
 31
0.0
  0
LINE
  5
2C97
330
1E
100
AcDbEntity
  8
7
100
AcDbLine
 10
2.523622047244094
 20
3.882874015748031
 30
0.0
 11
2.523622047244094
 21
4.183070866141731
 31
0.0
  0
LINE
  5
2C98
330
1E
100
AcDbEntity
  8
7
100
AcDbLine
 10
2.523622047244094
 20
3.606299212598425
 30
0.0
 11
2.523622047244094
 21
3.788385826771653
 31
0.0
  0
LINE
  5
2C9E
330
1E
100
AcDbEntity
  8
7
100
AcDbLine
 10
1.439960629921259
 20
3.586614173228346
 30
0.0
 11
2.503937007874015
 21
3.586614173228346
 31
0.0
  0
LINE
  5
2CA4
330
1E
100
AcDbEntity
  8
7
100
AcDbLine
 10
1.420275590551181
 20
3.788385826771653
 30
0.0
 11
1.420275590551181
 21
3.606299212598425
 31
0.0
  0
LINE
  5
2CA5
330
1E
100
AcDbEntity
  8
7
100
AcDbLine
 10
1.420275590551181
 20
4.183070866141731
 30
0.0
 11
1.420275590551181
 21
3.882874015748031
 31
0.0
  0
LINE
  5
2CA6
330
1E
100
AcDbEntity
  8
7
100
AcDbLine
 10
2.503937007874015
 20
4.479330708661416
 30
0.0
 11
2.287401574803149
 21
4.479330708661416
 31
0.0
  0
LINE
  5
2CAC
330
1E
100
AcDbEntity
  8
7
100
AcDbLine
 10
2.523622047244094
 20
4.27755905511811
 30
0.0
 11
2.523622047244094
 21
4.459645669291337
 31
0.0
  0
LINE
  5
2CAD
330
1E
100
AcDbEntity
  8
7
100
AcDbLine
 10
1.648622047244094
 20
4.23523622047244
 30
0.0
 11
2.295275590551181
 21
4.23523622047244
 31
0.0
  0
LINE
  5
2CAE
330
1E
100
AcDbEntity
  8
7
100
AcDbLine
 10
1.65255905511811
 20
4.186023622047243
 30
0.0
 11
1.648622047244094
 21
4.23523622047244
 31
0.0
  0
LINE
  5
2CAF
330
1E
100
AcDbEntity
  8
7
100
AcDbLine
 10
2.291338582677165
 20
4.186023622047243
 30
0.0
 11
1.65255905511811
 21
4.186023622047243
 31
0.0
  0
LINE
  5
2CB0
330
1E
100
AcDbEntity
  8
7
100
AcDbLine
 10
2.291338582677165
 20
4.186023622047243
 30
0.0
 11
2.295275590551181
 21
4.23523622047244
 31
0.0
  0
LINE
  5
2CC0
330
1E
100
AcDbEntity
  8
7
100
AcDbLine
 10
1.437007874015748
 20
3.608267716535432
 30
0.0
 11
1.441929133858267
 21
3.603346456692913
 31
0.0
  0
LINE
  5
2CC6
330
1E
100
AcDbEntity
  8
7
100
AcDbLine
 10
1.441929133858267
 20
4.46259842519685
 30
0.0
 11
1.437007874015748
 21
4.45767716535433
 31
0.0
  0
LINE
  5
2CD1
330
1E
100
AcDbEntity
  8
7
100
AcDbLine
 10
1.437007874015748
 20
4.45767716535433
 30
0.0
 11
1.437007874015748
 21
3.608267716535432
 31
0.0
  0
LINE
  5
2CD2
330
1E
100
AcDbEntity
  8
7
100
AcDbLine
 10
1.422244094488188
 20
3.608267716535432
 30
0.0
 11
1.422244094488188
 21
4.45767716535433
 31
0.0
  0
LINE
  5
2CD3
330
1E
100
AcDbEntity
  8
7
100
AcDbLine
 10
1.441929133858267
 20
4.477362204724409
 30
0.0
 11
2.501968503937007
 21
4.477362204724409
 31
0.0
  0
LINE
  5
2CD4
330
1E
100
AcDbEntity
  8
7
100
AcDbLine
 10
2.501968503937007
 20
4.46259842519685
 30
0.0
 11
1.441929133858267
 21
4.46259842519685
 31
0.0
  0
LINE
  5
2CE4
330
1E
100
AcDbEntity
  8
7
100
AcDbLine
 10
2.506889763779527
 20
4.45767716535433
 30
0.0
 11
2.501968503937007
 21
4.46259842519685
 31
0.0
  0
LINE
  5
2CE5
330
1E
100
AcDbEntity
  8
7
100
AcDbLine
 10
1.441929133858267
 20
3.603346456692913
 30
0.0
 11
2.501968503937007
 21
3.603346456692913
 31
0.0
  0
LINE
  5
2CE6
330
1E
100
AcDbEntity
  8
7
100
AcDbLine
 10
2.501968503937007
 20
3.588582677165354
 30
0.0
 11
1.441929133858267
 21
3.588582677165354
 31
0.0
  0
LINE
  5
2CF6
330
1E
100
AcDbEntity
  8
7
100
AcDbLine
 10
2.501968503937007
 20
3.603346456692913
 30
0.0
 11
2.506889763779527
 21
3.608267716535432
 31
0.0
  0
LINE
  5
2CF7
330
1E
100
AcDbEntity
  8
7
100
AcDbLine
 10
2.291338582677165
 20
4.186023622047243
 30
0.0
 11
2.291338582677165
 21
3.950787401574803
 31
0.0
  0
LINE
  5
2CF8
330
1E
100
AcDbEntity
  8
7
100
AcDbLine
 10
1.65255905511811
 20
4.186023622047243
 30
0.0
 11
1.65255905511811
 21
3.950787401574803
 31
0.0
  0
LINE
  5
2CF9
330
1E
100
AcDbEntity
  8
7
100
AcDbLine
 10
2.506889763779527
 20
3.608267716535432
 30
0.0
 11
2.506889763779527
 21
4.45767716535433
 31
0.0
  0
LINE
  5
2CFA
330
1E
100
AcDbEntity
  8
7
100
AcDbLine
 10
2.295275590551181
 20
4.23523622047244
 30
0.0
 11
2.295275590551181
 21
3.686023622047243
 31
0.0
  0
LINE
  5
2CFB
330
1E
100
AcDbEntity
  8
7
100
AcDbLine
 10
1.648622047244094
 20
3.686023622047243
 30
0.0
 11
1.901574803149606
 21
3.686023622047243
 31
0.0
  0
LINE
  5
2CFC
330
1E
100
AcDbEntity
  8
7
100
AcDbLine
 10
2.043307086614173
 20
3.686023622047243
 30
0.0
 11
2.295275590551181
 21
3.686023622047243
 31
0.0
  0
LINE
  5
2CFD
330
1E
100
AcDbEntity
  8
7
100
AcDbLine
 10
1.648622047244094
 20
4.23523622047244
 30
0.0
 11
1.648622047244094
 21
3.686023622047243
 31
0.0
  0
LINE
  5
2CFE
330
1E
100
AcDbEntity
  8
7
100
AcDbLine
 10
2.291338582677165
 20
3.950787401574803
 30
0.0
 11
2.291338582677165
 21
3.686023622047243
 31
0.0
  0
LINE
  5
2CFF
330
1E
100
AcDbEntity
  8
7
100
AcDbLine
 10
1.65255905511811
 20
3.950787401574803
 30
0.0
 11
1.65255905511811
 21
3.686023622047243
 31
0.0
  0
LINE
  5
2D00
330
1E
100
AcDbEntity
  8
7
100
AcDbLine
 10
2.521653543307086
 20
4.45767716535433
 30
0.0
 11
2.521653543307086
 21
3.608267716535432
 31
0.0
  0
LINE
  5
2D06
330
1E
100
AcDbEntity
  8
7
100
AcDbLine
 10
1.420275590551181
 20
4.276574803149605
 30
0.0
 11
1.420275590551181
 21
4.27755905511811
 31
0.0
  0
LINE
  5
2D07
330
1E
100
AcDbEntity
  8
7
100
AcDbLine
 10
1.420275590551181
 20
4.184055118110236
 30
0.0
 11
1.420275590551181
 21
4.183070866141731
 31
0.0
  0
LINE
  5
2D08
330
1E
100
AcDbEntity
  8
7
100
AcDbLine
 10
1.420275590551181
 20
3.881889763779527
 30
0.0
 11
1.420275590551181
 21
3.882874015748031
 31
0.0
  0
LINE
  5
2D09
330
1E
100
AcDbEntity
  8
7
100
AcDbLine
 10
1.420275590551181
 20
3.789370078740157
 30
0.0
 11
1.420275590551181
 21
3.788385826771653
 31
0.0
  0
LINE
  5
2D0A
330
1E
100
AcDbEntity
  8
7
100
AcDbLine
 10
1.420275590551181
 20
3.606299212598425
 30
0.0
 11
1.422244094488188
 21
3.608267716535432
 31
0.0
  0
LINE
  5
2D0B
330
1E
100
AcDbEntity
  8
7
100
AcDbLine
 10
2.521653543307086
 20
3.608267716535432
 30
0.0
 11
2.523622047244094
 21
3.606299212598425
 31
0.0
  0
LINE
  5
2D0C
330
1E
100
AcDbEntity
  8
7
100
AcDbLine
 10
2.523622047244094
 20
3.788385826771653
 30
0.0
 11
2.524606299212598
 21
3.789370078740157
 31
0.0
  0
LINE
  5
2D0D
330
1E
100
AcDbEntity
  8
7
100
AcDbLine
 10
2.523622047244094
 20
3.882874015748031
 30
0.0
 11
2.524606299212598
 21
3.881889763779527
 31
0.0
  0
LINE
  5
2D0E
330
1E
100
AcDbEntity
  8
7
100
AcDbLine
 10
2.523622047244094
 20
4.183070866141731
 30
0.0
 11
2.524606299212598
 21
4.184055118110236
 31
0.0
  0
LINE
  5
2D0F
330
1E
100
AcDbEntity
  8
7
100
AcDbLine
 10
2.523622047244094
 20
4.27755905511811
 30
0.0
 11
2.524606299212598
 21
4.276574803149605
 31
0.0
  0
LINE
  5
2D10
330
1E
100
AcDbEntity
  8
7
100
AcDbLine
 10
2.523622047244094
 20
4.459645669291337
 30
0.0
 11
2.521653543307086
 21
4.45767716535433
 31
0.0
  0
LINE
  5
2D11
330
1E
100
AcDbEntity
  8
7
100
AcDbLine
 10
2.503937007874015
 20
3.586614173228346
 30
0.0
 11
2.501968503937007
 21
3.588582677165354
 31
0.0
  0
LINE
  5
2D12
330
1E
100
AcDbEntity
  8
7
100
AcDbLine
 10
1.441929133858267
 20
3.588582677165354
 30
0.0
 11
1.439960629921259
 21
3.586614173228346
 31
0.0
  0
LINE
  5
2D13
330
1E
100
AcDbEntity
  8
7
100
AcDbLine
 10
2.501968503937007
 20
4.477362204724409
 30
0.0
 11
2.503937007874015
 21
4.479330708661416
 31
0.0
  0
LINE
  5
2D14
330
1E
100
AcDbEntity
  8
7
100
AcDbLine
 10
2.287401574803149
 20
4.479330708661416
 30
0.0
 11
1.65748031496063
 21
4.479330708661416
 31
0.0
  0
LINE
  5
2D1F
330
1E
100
AcDbEntity
  8
7
100
AcDbLine
 10
2.056102362204724
 20
3.695866141732283
 30
0.0
 11
2.056102362204724
 21
3.721456692913385
 31
0.0
  0
LINE
  5
2D26
330
1E
100
AcDbEntity
  8
7
100
AcDbLine
 10
2.046259842519685
 20
3.731299212598425
 30
0.0
 11
2.261811023622047
 21
3.731299212598425
 31
0.0
  0
LINE
  5
2D3B
330
1E
100
AcDbEntity
  8
7
100
AcDbLine
 10
2.261811023622047
 20
3.731299212598425
 30
0.0
 11
2.261811023622047
 21
3.686023622047243
 31
0.0
  0
LINE
  5
2D42
330
1E
100
AcDbEntity
  8
7
100
AcDbLine
 10
1.682086614173228
 20
3.731299212598425
 30
0.0
 11
1.898622047244094
 21
3.731299212598425
 31
0.0
  0
LINE
  5
2D43
330
1E
100
AcDbEntity
  8
7
100
AcDbLine
 10
1.888779527559055
 20
3.721456692913385
 30
0.0
 11
1.888779527559055
 21
3.695866141732283
 31
0.0
  0
LINE
  5
2D49
330
1E
100
AcDbEntity
  8
7
100
AcDbLine
 10
1.691929133858267
 20
3.695866141732283
 30
0.0
 11
1.888779527559055
 21
3.695866141732283
 31
0.0
  0
LINE
  5
2D4F
330
1E
100
AcDbEntity
  8
7
100
AcDbLine
 10
1.682086614173228
 20
3.686023622047243
 30
0.0
 11
1.682086614173228
 21
3.731299212598425
 31
0.0
  0
LINE
  5
2D70
330
1E
100
AcDbEntity
  8
7
100
AcDbLine
 10
2.053149606299212
 20
3.695866141732283
 30
0.0
 11
2.056102362204724
 21
3.695866141732283
 31
0.0
  0
LINE
  5
2DB3
330
1E
100
AcDbEntity
  8
7
100
AcDbLine
 10
2.291338582677165
 20
3.953740157480315
 30
0.0
 11
1.65255905511811
 21
3.953740157480315
 31
0.0
  0
LINE
  5
2DB4
330
1E
100
AcDbEntity
  8
7
100
AcDbLine
 10
5.373031496062992
 20
3.813976377952755
 30
0.0
 11
5.457677165354331
 21
3.764763779527558
 31
0.0
  0
LINE
  5
2DB5
330
1E
100
AcDbEntity
  8
7
100
AcDbLine
 10
4.118110236220472
 20
4.414370078740157
 30
0.0
 11
4.118110236220472
 21
4.314960629921259
 31
0.0
  0
LINE
  5
2DB6
330
1E
100
AcDbEntity
  8
7
100
AcDbLine
 10
4.118110236220472
 20
4.314960629921259
 30
0.0
 11
4.118110236220472
 21
4.414370078740157
 31
0.0
  0
LINE
  5
2DB7
330
1E
100
AcDbEntity
  8
7
100
AcDbLine
 10
4.118110236220472
 20
4.334645669291337
 30
0.0
 11
4.118110236220472
 21
4.394685039370078
 31
0.0
  0
LINE
  5
2DB8
330
1E
100
AcDbEntity
  8
7
100
AcDbLine
 10
4.118110236220472
 20
4.414370078740157
 30
0.0
 11
4.118110236220472
 21
4.394685039370078
 31
0.0
  0
LINE
  5
2DBF
330
1E
100
AcDbEntity
  8
7
100
AcDbLine
 10
4.118110236220472
 20
4.314960629921259
 30
0.0
 11
4.118110236220472
 21
4.414370078740157
 31
0.0
  0
LINE
  5
2DC0
330
1E
100
AcDbEntity
  8
7
100
AcDbLine
 10
4.118110236220472
 20
4.314960629921259
 30
0.0
 11
4.118110236220472
 21
4.334645669291337
 31
0.0
  0
LINE
  5
2DC1
330
1E
100
AcDbEntity
  8
7
100
AcDbLine
 10
4.118110236220472
 20
4.414370078740157
 30
0.0
 11
4.118110236220472
 21
4.314960629921259
 31
0.0
  0
LINE
  5
2DC2
330
1E
100
AcDbEntity
  8
7
100
AcDbLine
 10
4.118110236220472
 20
4.355314960629921
 30
0.0
 11
4.118110236220472
 21
4.334645669291337
 31
0.0
  0
LINE
  5
2DC3
330
1E
100
AcDbEntity
  8
7
100
AcDbLine
 10
4.118110236220472
 20
4.334645669291337
 30
0.0
 11
4.118110236220472
 21
4.394685039370078
 31
0.0
  0
LINE
  5
2DC4
330
1E
100
AcDbEntity
  8
7
100
AcDbLine
 10
4.118110236220472
 20
4.414370078740157
 30
0.0
 11
4.118110236220472
 21
4.314960629921259
 31
0.0
  0
LINE
  5
2DC5
330
1E
100
AcDbEntity
  8
7
100
AcDbLine
 10
4.118110236220472
 20
4.334645669291337
 30
0.0
 11
4.118110236220472
 21
4.314960629921259
 31
0.0
  0
LINE
  5
2DC6
330
1E
100
AcDbEntity
  8
7
100
AcDbLine
 10
4.118110236220472
 20
4.355314960629921
 30
0.0
 11
4.118110236220472
 21
4.375
 31
0.0
  0
LINE
  5
2DC7
330
1E
100
AcDbEntity
  8
7
100
AcDbLine
 10
4.118110236220472
 20
4.375
 30
0.0
 11
4.118110236220472
 21
4.355314960629921
 31
0.0
  0
LINE
  5
2DCD
330
1E
100
AcDbEntity
  8
7
100
AcDbLine
 10
4.118110236220472
 20
4.334645669291337
 30
0.0
 11
4.118110236220472
 21
4.314960629921259
 31
0.0
  0
LINE
  5
2DCE
330
1E
100
AcDbEntity
  8
7
100
AcDbLine
 10
4.118110236220472
 20
4.314960629921259
 30
0.0
 11
4.118110236220472
 21
4.414370078740157
 31
0.0
  0
LINE
  5
2DCF
330
1E
100
AcDbEntity
  8
7
100
AcDbLine
 10
4.118110236220472
 20
4.314960629921259
 30
0.0
 11
4.118110236220472
 21
4.334645669291337
 31
0.0
  0
LINE
  5
2DD0
330
1E
100
AcDbEntity
  8
7
100
AcDbLine
 10
4.118110236220472
 20
4.414370078740157
 30
0.0
 11
4.118110236220472
 21
4.314960629921259
 31
0.0
  0
LINE
  5
2DD9
330
1E
100
AcDbEntity
  8
7
100
AcDbLine
 10
4.857283464566929
 20
3.710629921259843
 30
0.0
 11
4.89763779527559
 21
3.669291338582677
 31
0.0
  0
LINE
  5
2DDA
330
1E
100
AcDbEntity
  8
7
100
AcDbLine
 10
4.553149606299212
 20
3.65748031496063
 30
0.0
 11
4.626968503937007
 21
3.659448818897637
 31
0.0
  0
LINE
  5
2DE0
330
1E
100
AcDbEntity
  8
7
100
AcDbLine
 10
4.242125984251968
 20
3.586614173228346
 30
0.0
 11
4.242125984251968
 21
3.592519685039369
 31
0.0
  0
LINE
  5
2DE1
330
1E
100
AcDbEntity
  8
7
100
AcDbLine
 10
4.242125984251968
 20
4.473425196850393
 30
0.0
 11
4.242125984251968
 21
4.479330708661416
 31
0.0
  0
LINE
  5
2DE7
330
1E
100
AcDbEntity
  8
7
100
AcDbLine
 10
4.553149606299212
 20
4.444881889763778
 30
0.0
 11
4.553149606299212
 21
4.460629921259842
 31
0.0
  0
LINE
  5
2DEF
330
1E
100
AcDbEntity
  8
7
100
AcDbLine
 10
4.553149606299212
 20
4.21259842519685
 30
0.0
 11
4.553149606299212
 21
4.384842519685038
 31
0.0
  0
LINE
  5
2E03
330
1E
100
AcDbEntity
  8
7
100
AcDbLine
 10
4.553149606299212
 20
3.682086614173228
 30
0.0
 11
4.553149606299212
 21
3.853346456692913
 31
0.0
  0
LINE
  5
2E0B
330
1E
100
AcDbEntity
  8
7
100
AcDbLine
 10
4.553149606299212
 20
3.605314960629921
 30
0.0
 11
4.553149606299212
 21
3.622047244094488
 31
0.0
  0
LINE
  5
2E18
330
1E
100
AcDbEntity
  8
7
100
AcDbLine
 10
4.275590551181101
 20
4.320866141732283
 30
0.0
 11
4.275590551181101
 21
4.325787401574802
 31
0.0
  0
LINE
  5
2E24
330
1E
100
AcDbEntity
  8
7
100
AcDbLine
 10
4.275590551181101
 20
3.74507874015748
 30
0.0
 11
4.275590551181101
 21
4.320866141732283
 31
0.0
  0
LINE
  5
2E2A
330
1E
100
AcDbEntity
  8
7
100
AcDbLine
 10
4.295275590551181
 20
4.320866141732283
 30
0.0
 11
4.295275590551181
 21
3.74507874015748
 31
0.0
  0
LINE
  5
2E2B
330
1E
100
AcDbEntity
  8
7
100
AcDbLine
 10
4.275590551181101
 20
3.74015748031496
 30
0.0
 11
4.275590551181101
 21
3.74507874015748
 31
0.0
  0
LINE
  5
2E3D
330
1E
100
AcDbEntity
  8
7
100
AcDbLine
 10
4.466535433070866
 20
3.825787401574803
 30
0.0
 11
4.469488188976377
 21
3.825787401574803
 31
0.0
  0
LINE
  5
2E43
330
1E
100
AcDbEntity
  8
7
100
AcDbLine
 10
4.464566929133857
 20
3.718503937007874
 30
0.0
 11
4.464566929133857
 21
3.815944881889763
 31
0.0
  0
LINE
  5
2E49
330
1E
100
AcDbEntity
  8
7
100
AcDbLine
 10
4.469488188976377
 20
3.708661417322834
 30
0.0
 11
4.466535433070866
 21
3.708661417322834
 31
0.0
  0
LINE
  5
2E50
330
1E
100
AcDbEntity
  8
7
100
AcDbLine
 10
4.466535433070866
 20
4.357283464566928
 30
0.0
 11
4.469488188976377
 21
4.357283464566928
 31
0.0
  0
LINE
  5
2E56
330
1E
100
AcDbEntity
  8
7
100
AcDbLine
 10
4.464566929133857
 20
4.250984251968503
 30
0.0
 11
4.464566929133857
 21
4.347440944881889
 31
0.0
  0
LINE
  5
2E5C
330
1E
100
AcDbEntity
  8
7
100
AcDbLine
 10
4.469488188976377
 20
4.241141732283463
 30
0.0
 11
4.466535433070866
 21
4.24015748031496
 31
0.0
  0
LINE
  5
2E5D
330
1E
100
AcDbEntity
  8
7
100
AcDbLine
 10
4.375984251968503
 20
4.1751968503937
 30
0.0
 11
4.375984251968503
 21
3.890748031496063
 31
0.0
  0
LINE
  5
2E5E
330
1E
100
AcDbEntity
  8
7
100
AcDbLine
 10
4.295275590551181
 20
4.345472440944881
 30
0.0
 11
4.433070866141731
 21
4.348425196850393
 31
0.0
  0
LINE
  5
2E5F
330
1E
100
AcDbEntity
  8
7
100
AcDbLine
 10
4.433070866141731
 20
4.32283464566929
 30
0.0
 11
4.295275590551181
 21
4.320866141732283
 31
0.0
  0
LINE
  5
2E60
330
1E
100
AcDbEntity
  8
7
100
AcDbLine
 10
4.433070866141731
 20
4.358267716535432
 30
0.0
 11
4.466535433070866
 21
4.357283464566928
 31
0.0
  0
LINE
  5
2E71
330
1E
100
AcDbEntity
  8
7
100
AcDbLine
 10
4.466535433070866
 20
4.24015748031496
 30
0.0
 11
4.433070866141731
 21
4.24015748031496
 31
0.0
  0
LINE
  5
2E72
330
1E
100
AcDbEntity
  8
7
100
AcDbLine
 10
4.433070866141731
 20
3.825787401574803
 30
0.0
 11
4.466535433070866
 21
3.825787401574803
 31
0.0
  0
LINE
  5
2E83
330
1E
100
AcDbEntity
  8
7
100
AcDbLine
 10
4.466535433070866
 20
3.708661417322834
 30
0.0
 11
4.433070866141731
 21
3.707677165354331
 31
0.0
  0
LINE
  5
2E84
330
1E
100
AcDbEntity
  8
7
100
AcDbLine
 10
4.295275590551181
 20
3.74507874015748
 30
0.0
 11
4.433070866141731
 21
3.743110236220472
 31
0.0
  0
LINE
  5
2E85
330
1E
100
AcDbEntity
  8
7
100
AcDbLine
 10
4.433070866141731
 20
3.718503937007874
 30
0.0
 11
4.295275590551181
 21
3.720472440944881
 31
0.0
  0
LINE
  5
2E86
330
1E
100
AcDbEntity
  8
7
100
AcDbLine
 10
4.375984251968503
 20
3.890748031496063
 30
0.0
 11
4.433070866141731
 21
3.889763779527558
 31
0.0
  0
LINE
  5
2E87
330
1E
100
AcDbEntity
  8
7
100
AcDbLine
 10
4.433070866141731
 20
4.176181102362204
 30
0.0
 11
4.375984251968503
 21
4.1751968503937
 31
0.0
  0
LINE
  5
2E8F
330
1E
100
AcDbEntity
  8
7
100
AcDbLine
 10
4.433070866141731
 20
3.835629921259842
 30
0.0
 11
4.478346456692912
 21
3.835629921259842
 31
0.0
  0
LINE
  5
2E9A
330
1E
100
AcDbEntity
  8
7
100
AcDbLine
 10
4.478346456692912
 20
3.698818897637795
 30
0.0
 11
4.433070866141731
 21
3.697834645669291
 31
0.0
  0
LINE
  5
2EA9
330
1E
100
AcDbEntity
  8
7
100
AcDbLine
 10
4.433070866141731
 20
4.368110236220472
 30
0.0
 11
4.478346456692912
 21
4.367125984251968
 31
0.0
  0
LINE
  5
2EB4
330
1E
100
AcDbEntity
  8
7
100
AcDbLine
 10
4.478346456692912
 20
4.231299212598425
 30
0.0
 11
4.433070866141731
 21
4.230314960629921
 31
0.0
  0
LINE
  5
2EC3
330
1E
100
AcDbEntity
  8
7
100
AcDbLine
 10
4.433070866141731
 20
3.697834645669291
 30
0.0
 11
4.433070866141731
 21
3.679133858267716
 31
0.0
  0
LINE
  5
2EC4
330
1E
100
AcDbEntity
  8
7
100
AcDbLine
 10
4.433070866141731
 20
3.855314960629921
 30
0.0
 11
4.433070866141731
 21
3.835629921259842
 31
0.0
  0
LINE
  5
2ED5
330
1E
100
AcDbEntity
  8
7
100
AcDbLine
 10
4.433070866141731
 20
4.230314960629921
 30
0.0
 11
4.433070866141731
 21
4.210629921259842
 31
0.0
  0
LINE
  5
2ED6
330
1E
100
AcDbEntity
  8
7
100
AcDbLine
 10
4.433070866141731
 20
4.386811023622047
 30
0.0
 11
4.433070866141731
 21
4.368110236220472
 31
0.0
  0
LINE
  5
2EE4
330
1E
100
AcDbEntity
  8
7
100
AcDbLine
 10
4.433070866141731
 20
4.46259842519685
 30
0.0
 11
4.275590551181101
 21
4.460629921259842
 31
0.0
  0
LINE
  5
2EEA
330
1E
100
AcDbEntity
  8
7
100
AcDbLine
 10
4.242125984251968
 20
4.479330708661416
 30
0.0
 11
4.433070866141731
 21
4.483267716535432
 31
0.0
  0
LINE
  5
2EEB
330
1E
100
AcDbEntity
  8
7
100
AcDbLine
 10
4.275590551181101
 20
4.460629921259842
 30
0.0
 11
4.275590551181101
 21
4.325787401574802
 31
0.0
  0
LINE
  5
2EEC
330
1E
100
AcDbEntity
  8
7
100
AcDbLine
 10
4.433070866141731
 20
4.46259842519685
 30
0.0
 11
4.433070866141731
 21
4.446850393700787
 31
0.0
  0
LINE
  5
2EF2
330
1E
100
AcDbEntity
  8
7
100
AcDbLine
 10
4.433070866141731
 20
3.619094488188976
 30
0.0
 11
4.433070866141731
 21
3.603346456692913
 31
0.0
  0
LINE
  5
2EFF
330
1E
100
AcDbEntity
  8
7
100
AcDbLine
 10
4.553149606299212
 20
3.622047244094488
 30
0.0
 11
4.433070866141731
 21
3.619094488188976
 31
0.0
  0
LINE
  5
2F00
330
1E
100
AcDbEntity
  8
7
100
AcDbLine
 10
4.433070866141731
 20
3.679133858267716
 30
0.0
 11
4.553149606299212
 21
3.682086614173228
 31
0.0
  0
LINE
  5
2F01
330
1E
100
AcDbEntity
  8
7
100
AcDbLine
 10
4.478346456692912
 20
3.835629921259842
 30
0.0
 11
4.478346456692912
 21
3.698818897637795
 31
0.0
  0
LINE
  5
2F02
330
1E
100
AcDbEntity
  8
7
100
AcDbLine
 10
4.553149606299212
 20
3.853346456692913
 30
0.0
 11
4.433070866141731
 21
3.855314960629921
 31
0.0
  0
LINE
  5
2F03
330
1E
100
AcDbEntity
  8
7
100
AcDbLine
 10
4.433070866141731
 20
3.885826771653542
 30
0.0
 11
4.553149606299212
 21
3.883858267716535
 31
0.0
  0
LINE
  5
2F04
330
1E
100
AcDbEntity
  8
7
100
AcDbLine
 10
4.433070866141731
 20
3.915354330708661
 30
0.0
 11
4.553149606299212
 21
3.913385826771653
 31
0.0
  0
LINE
  5
2F05
330
1E
100
AcDbEntity
  8
7
100
AcDbLine
 10
4.553149606299212
 20
4.15255905511811
 30
0.0
 11
4.433070866141731
 21
4.150590551181101
 31
0.0
  0
LINE
  5
2F06
330
1E
100
AcDbEntity
  8
7
100
AcDbLine
 10
4.553149606299212
 20
4.183070866141731
 30
0.0
 11
4.433070866141731
 21
4.18011811023622
 31
0.0
  0
LINE
  5
2F07
330
1E
100
AcDbEntity
  8
7
100
AcDbLine
 10
4.433070866141731
 20
4.210629921259842
 30
0.0
 11
4.553149606299212
 21
4.21259842519685
 31
0.0
  0
LINE
  5
2F08
330
1E
100
AcDbEntity
  8
7
100
AcDbLine
 10
4.478346456692912
 20
4.367125984251968
 30
0.0
 11
4.478346456692912
 21
4.231299212598425
 31
0.0
  0
LINE
  5
2F09
330
1E
100
AcDbEntity
  8
7
100
AcDbLine
 10
4.553149606299212
 20
4.384842519685038
 30
0.0
 11
4.433070866141731
 21
4.386811023622047
 31
0.0
  0
LINE
  5
2F0A
330
1E
100
AcDbEntity
  8
7
100
AcDbLine
 10
4.433070866141731
 20
4.446850393700787
 30
0.0
 11
4.553149606299212
 21
4.444881889763778
 31
0.0
  0
LINE
  5
2F0B
330
1E
100
AcDbEntity
  8
7
100
AcDbLine
 10
4.553149606299212
 20
4.460629921259842
 30
0.0
 11
4.433070866141731
 21
4.46259842519685
 31
0.0
  0
LINE
  5
2F0C
330
1E
100
AcDbEntity
  8
7
100
AcDbLine
 10
4.433070866141731
 20
4.483267716535432
 30
0.0
 11
4.553149606299212
 21
4.481299212598425
 31
0.0
  0
LINE
  5
2F0D
330
1E
100
AcDbEntity
  8
7
100
AcDbLine
 10
4.275590551181101
 20
3.787401574803149
 30
0.0
 11
4.242125984251968
 21
3.787401574803149
 31
0.0
  0
LINE
  5
2F0E
330
1E
100
AcDbEntity
  8
7
100
AcDbLine
 10
4.275590551181101
 20
3.884842519685039
 30
0.0
 11
4.242125984251968
 21
3.883858267716535
 31
0.0
  0
LINE
  5
2F0F
330
1E
100
AcDbEntity
  8
7
100
AcDbLine
 10
4.275590551181101
 20
4.182086614173227
 30
0.0
 11
4.242125984251968
 21
4.182086614173227
 31
0.0
  0
LINE
  5
2F10
330
1E
100
AcDbEntity
  8
7
100
AcDbLine
 10
4.275590551181101
 20
4.278543307086613
 30
0.0
 11
4.242125984251968
 21
4.278543307086613
 31
0.0
  0
LINE
  5
2F11
330
1E
100
AcDbEntity
  8
7
100
AcDbLine
 10
5.018700787401574
 20
3.616141732283464
 30
0.0
 11
5.018700787401574
 21
3.635826771653543
 31
0.0
  0
LINE
  5
2F1C
330
1E
100
AcDbEntity
  8
7
100
AcDbLine
 10
4.242125984251968
 20
3.882874015748031
 30
0.0
 11
4.242125984251968
 21
4.183070866141731
 31
0.0
  0
LINE
  5
2F1D
330
1E
100
AcDbEntity
  8
7
100
AcDbLine
 10
4.242125984251968
 20
3.606299212598425
 30
0.0
 11
4.242125984251968
 21
3.788385826771653
 31
0.0
  0
LINE
  5
2F28
330
1E
100
AcDbEntity
  8
7
100
AcDbLine
 10
4.242125984251968
 20
4.27755905511811
 30
0.0
 11
4.242125984251968
 21
4.459645669291337
 31
0.0
  0
LINE
  5
2F29
330
1E
100
AcDbEntity
  8
7
100
AcDbLine
 10
4.132874015748031
 20
4.477362204724409
 30
0.0
 11
4.122047244094488
 21
4.473425196850393
 31
0.0
  0
LINE
  5
2F2A
330
1E
100
AcDbEntity
  8
7
100
AcDbLine
 10
4.122047244094488
 20
4.473425196850393
 30
0.0
 11
4.118110236220472
 21
4.46259842519685
 31
0.0
  0
LINE
  5
2F35
330
1E
100
AcDbEntity
  8
7
100
AcDbLine
 10
4.118110236220472
 20
4.45767716535433
 30
0.0
 11
4.118110236220472
 21
4.46259842519685
 31
0.0
  0
LINE
  5
2F4F
330
1E
100
AcDbEntity
  8
7
100
AcDbLine
 10
4.242125984251968
 20
3.788385826771653
 30
0.0
 11
4.275590551181101
 21
3.789370078740157
 31
0.0
  0
LINE
  5
2F50
330
1E
100
AcDbEntity
  8
7
100
AcDbLine
 10
4.242125984251968
 20
3.882874015748031
 30
0.0
 11
4.275590551181101
 21
3.881889763779527
 31
0.0
  0
LINE
  5
2F51
330
1E
100
AcDbEntity
  8
7
100
AcDbLine
 10
4.242125984251968
 20
4.183070866141731
 30
0.0
 11
4.275590551181101
 21
4.184055118110236
 31
0.0
  0
LINE
  5
2F52
330
1E
100
AcDbEntity
  8
7
100
AcDbLine
 10
4.242125984251968
 20
4.27755905511811
 30
0.0
 11
4.275590551181101
 21
4.276574803149605
 31
0.0
  0
LINE
  5
2F53
330
1E
100
AcDbEntity
  8
7
100
AcDbLine
 10
4.242125984251968
 20
4.459645669291337
 30
0.0
 11
4.132874015748031
 21
4.45767716535433
 31
0.0
  0
LINE
  5
2F54
330
1E
100
AcDbEntity
  8
7
100
AcDbLine
 10
4.242125984251968
 20
3.586614173228346
 30
0.0
 11
4.132874015748031
 21
3.588582677165354
 31
0.0
  0
LINE
  5
2F55
330
1E
100
AcDbEntity
  8
7
100
AcDbLine
 10
4.132874015748031
 20
4.477362204724409
 30
0.0
 11
4.242125984251968
 21
4.479330708661416
 31
0.0
  0
LINE
  5
2F56
330
1E
100
AcDbEntity
  8
7
100
AcDbLine
 10
4.098425196850394
 20
3.731299212598425
 30
0.0
 11
4.118110236220472
 21
3.731299212598425
 31
0.0
  0
LINE
  5
2F57
330
1E
100
AcDbEntity
  8
7
100
AcDbLine
 10
4.118110236220472
 20
3.686023622047243
 30
0.0
 11
4.098425196850394
 21
3.686023622047243
 31
0.0
  0
LINE
  5
2F58
330
1E
100
AcDbEntity
  8
7
100
AcDbLine
 10
4.088582677165353
 20
3.695866141732283
 30
0.0
 11
4.088582677165353
 21
3.721456692913385
 31
0.0
  0
LINE
  5
2F8F
330
1E
100
AcDbEntity
  8
7
100
AcDbLine
 10
5.19783464566929
 20
4.366141732283463
 30
0.0
 11
5.356299212598425
 21
4.366141732283463
 31
0.0
  0
LINE
  5
2F90
330
1E
100
AcDbEntity
  8
7
100
AcDbLine
 10
5.187992125984251
 20
4.218503937007874
 30
0.0
 11
5.19783464566929
 21
4.218503937007874
 31
0.0
  0
LINE
  5
2F91
330
1E
100
AcDbEntity
  8
7
100
AcDbLine
 10
5.5501968503937
 20
4.375984251968503
 30
0.0
 11
5.519685039370077
 21
4.375984251968503
 31
0.0
  0
LINE
  5
2F97
330
1E
100
AcDbEntity
  8
7
100
AcDbLine
 10
5.187992125984251
 20
4.118110236220472
 30
0.0
 11
5.19783464566929
 21
4.118110236220472
 31
0.0
  0
LINE
  5
2F9D
330
1E
100
AcDbEntity
  8
7
100
AcDbLine
 10
5.179133858267716
 20
4.118110236220472
 30
0.0
 11
5.013779527559055
 21
4.116141732283463
 31
0.0
  0
LINE
  5
2F9E
330
1E
100
AcDbEntity
  8
7
100
AcDbLine
 10
5.519685039370077
 20
4.366141732283463
 30
0.0
 11
5.519685039370077
 21
4.375984251968503
 31
0.0
  0
LINE
  5
2F9F
330
1E
100
AcDbEntity
  8
7
100
AcDbLine
 10
5.559055118110237
 20
4.366141732283463
 30
0.0
 11
5.558070866141731
 21
4.375984251968503
 31
0.0
  0
LINE
  5
2FA0
330
1E
100
AcDbEntity
  8
7
100
AcDbLine
 10
4.946850393700787
 20
4.312992125984251
 30
0.0
 11
4.891732283464566
 21
4.312992125984251
 31
0.0
  0
LINE
  5
2FA7
330
1E
100
AcDbEntity
  8
7
100
AcDbLine
 10
5.013779527559055
 20
4.116141732283463
 30
0.0
 11
5.013779527559055
 21
3.80511811023622
 31
0.0
  0
LINE
  5
2FA8
330
1E
100
AcDbEntity
  8
7
100
AcDbLine
 10
4.922244094488188
 20
3.738188976377953
 30
0.0
 11
4.857283464566929
 21
3.737204724409448
 31
0.0
  0
LINE
  5
2FA9
330
1E
100
AcDbEntity
  8
7
100
AcDbLine
 10
4.922244094488188
 20
3.738188976377953
 30
0.0
 11
5.013779527559055
 21
3.80511811023622
 31
0.0
  0
LINE
  5
2FAA
330
1E
100
AcDbEntity
  8
7
100
AcDbLine
 10
5.179133858267716
 20
4.312992125984251
 30
0.0
 11
5.179133858267716
 21
4.118110236220472
 31
0.0
  0
LINE
  5
2FAB
330
1E
100
AcDbEntity
  8
7
100
AcDbLine
 10
5.013779527559055
 20
4.312992125984251
 30
0.0
 11
5.179133858267716
 21
4.312992125984251
 31
0.0
  0
LINE
  5
2FAC
330
1E
100
AcDbEntity
  8
7
100
AcDbLine
 10
5.013779527559055
 20
4.312992125984251
 30
0.0
 11
4.946850393700787
 21
4.312992125984251
 31
0.0
  0
LINE
  5
2FB3
330
1E
100
AcDbEntity
  8
7
100
AcDbLine
 10
5.187992125984251
 20
4.312992125984251
 30
0.0
 11
5.187992125984251
 21
4.366141732283463
 31
0.0
  0
LINE
  5
2FB4
330
1E
100
AcDbEntity
  8
7
100
AcDbLine
 10
5.187992125984251
 20
4.13779527559055
 30
0.0
 11
5.191929133858268
 21
4.13779527559055
 31
0.0
  0
LINE
  5
2FB5
330
1E
100
AcDbEntity
  8
7
100
AcDbLine
 10
5.187992125984251
 20
4.118110236220472
 30
0.0
 11
5.187992125984251
 21
4.312992125984251
 31
0.0
  0
LINE
  5
2FBB
330
1E
100
AcDbEntity
  8
7
100
AcDbLine
 10
5.5501968503937
 20
4.375984251968503
 30
0.0
 11
5.5501968503937
 21
4.366141732283463
 31
0.0
  0
LINE
  5
2FBC
330
1E
100
AcDbEntity
  8
7
100
AcDbLine
 10
5.178149606299212
 20
4.366141732283463
 30
0.0
 11
5.179133858267716
 21
4.312992125984251
 31
0.0
  0
LINE
  5
2FC2
330
1E
100
AcDbEntity
  8
7
100
AcDbLine
 10
4.946850393700787
 20
4.320866141732283
 30
0.0
 11
4.946850393700787
 21
4.312992125984251
 31
0.0
  0
LINE
  5
2FD7
330
1E
100
AcDbEntity
  8
7
100
AcDbLine
 10
4.917322834645668
 20
4.321850393700787
 30
0.0
 11
4.886811023622046
 21
4.321850393700787
 31
0.0
  0
LINE
  5
2FD8
330
1E
100
AcDbEntity
  8
7
100
AcDbLine
 10
4.917322834645668
 20
4.376968503937007
 30
0.0
 11
4.917322834645668
 21
4.321850393700787
 31
0.0
  0
LINE
  5
2FD9
330
1E
100
AcDbEntity
  8
7
100
AcDbLine
 10
4.792322834645668
 20
4.376968503937007
 30
0.0
 11
4.917322834645668
 21
4.376968503937007
 31
0.0
  0
LINE
  5
2FDA
330
1E
100
AcDbEntity
  8
7
100
AcDbLine
 10
4.792322834645668
 20
4.376968503937007
 30
0.0
 11
4.792322834645668
 21
3.726377952755905
 31
0.0
  0
LINE
  5
2FDB
330
1E
100
AcDbEntity
  8
7
100
AcDbLine
 10
4.792322834645668
 20
3.663385826771653
 30
0.0
 11
4.792322834645668
 21
3.726377952755905
 31
0.0
  0
LINE
  5
2FDC
330
1E
100
AcDbEntity
  8
7
100
AcDbLine
 10
4.792322834645668
 20
3.663385826771653
 30
0.0
 11
4.857283464566929
 21
3.710629921259843
 31
0.0
  0
LINE
  5
2FDD
330
1E
100
AcDbEntity
  8
7
100
AcDbLine
 10
4.857283464566929
 20
3.710629921259843
 30
0.0
 11
4.857283464566929
 21
4.287401574803149
 31
0.0
  0
LINE
  5
2FDE
330
1E
100
AcDbEntity
  8
7
100
AcDbLine
 10
4.792322834645668
 20
4.376968503937007
 30
0.0
 11
4.553149606299212
 21
4.376968503937007
 31
0.0
  0
LINE
  5
300C
330
1E
100
AcDbEntity
  8
7
100
AcDbLine
 10
4.886811023622046
 20
4.316929133858267
 30
0.0
 11
4.917322834645668
 21
4.316929133858267
 31
0.0
  0
LINE
  5
3014
330
1E
100
AcDbEntity
  8
7
100
AcDbLine
 10
4.940944881889762
 20
4.321850393700787
 30
0.0
 11
4.940944881889762
 21
4.376968503937007
 31
0.0
  0
LINE
  5
301A
330
1E
100
AcDbEntity
  8
7
100
AcDbLine
 10
5.103346456692912
 20
4.366141732283463
 30
0.0
 11
5.103346456692912
 21
4.376968503937007
 31
0.0
  0
LINE
  5
301B
330
1E
100
AcDbEntity
  8
7
100
AcDbLine
 10
4.979330708661416
 20
4.376968503937007
 30
0.0
 11
5.103346456692912
 21
4.376968503937007
 31
0.0
  0
LINE
  5
301C
330
1E
100
AcDbEntity
  8
7
100
AcDbLine
 10
5.127952755905511
 20
4.376968503937007
 30
0.0
 11
5.127952755905511
 21
4.366141732283463
 31
0.0
  0
LINE
  5
3036
330
1E
100
AcDbEntity
  8
7
100
AcDbLine
 10
5.19783464566929
 20
4.116141732283463
 30
0.0
 11
5.013779527559055
 21
4.116141732283463
 31
0.0
  0
LINE
  5
3037
330
1E
100
AcDbEntity
  8
7
100
AcDbLine
 10
5.469488188976377
 20
3.811023622047244
 30
0.0
 11
5.013779527559055
 21
3.826771653543307
 31
0.0
  0
LINE
  5
3038
330
1E
100
AcDbEntity
  8
7
100
AcDbLine
 10
5.635826771653542
 20
4.326771653543306
 30
0.0
 11
5.635826771653542
 21
4.351377952755905
 31
0.0
  0
LINE
  5
3039
330
1E
100
AcDbEntity
  8
7
100
AcDbLine
 10
5.469488188976377
 20
4.031496062992125
 30
0.0
 11
5.6751968503937
 21
4.033464566929133
 31
0.0
  0
LINE
  5
303A
330
1E
100
AcDbEntity
  8
7
100
AcDbLine
 10
5.676181102362203
 20
4.105314960629921
 30
0.0
 11
5.684055118110237
 21
4.102362204724409
 31
0.0
  0
LINE
  5
303B
330
1E
100
AcDbEntity
  8
7
100
AcDbLine
 10
5.625
 20
4.128937007874015
 30
0.0
 11
5.676181102362203
 21
4.105314960629921
 31
0.0
  0
LINE
  5
303C
330
1E
100
AcDbEntity
  8
7
100
AcDbLine
 10
5.695866141732283
 20
4.083661417322834
 30
0.0
 11
5.695866141732283
 21
4.053149606299212
 31
0.0
  0
LINE
  5
303D
330
1E
100
AcDbEntity
  8
7
100
AcDbLine
 10
5.19783464566929
 20
4.274606299212598
 30
0.0
 11
5.19783464566929
 21
4.116141732283463
 31
0.0
  0
LINE
  5
303E
330
1E
100
AcDbEntity
  8
7
100
AcDbLine
 10
5.469488188976377
 20
3.830708661417322
 30
0.0
 11
5.469488188976377
 21
4.031496062992125
 31
0.0
  0
LINE
  5
3047
330
1E
100
AcDbEntity
  8
7
100
AcDbLine
 10
5.635826771653542
 20
4.326771653543306
 30
0.0
 11
5.625
 21
4.325787401574802
 31
0.0
  0
LINE
  5
3048
330
1E
100
AcDbEntity
  8
7
100
AcDbLine
 10
5.635826771653542
 20
4.129921259842519
 30
0.0
 11
5.635826771653542
 21
4.125
 31
0.0
  0
LINE
  5
3049
330
1E
100
AcDbEntity
  8
7
100
AcDbLine
 10
5.013779527559055
 20
3.846456692913385
 30
0.0
 11
5.469488188976377
 21
3.830708661417322
 31
0.0
  0
LINE
  5
304A
330
1E
100
AcDbEntity
  8
7
100
AcDbLine
 10
5.469488188976377
 20
4.366141732283463
 30
0.0
 11
5.469488188976377
 21
4.031496062992125
 31
0.0
  0
LINE
  5
304B
330
1E
100
AcDbEntity
  8
7
100
AcDbLine
 10
5.356299212598425
 20
4.366141732283463
 30
0.0
 11
5.469488188976377
 21
4.366141732283463
 31
0.0
  0
LINE
  5
304C
330
1E
100
AcDbEntity
  8
7
100
AcDbLine
 10
5.356299212598425
 20
4.366141732283463
 30
0.0
 11
5.19783464566929
 21
4.274606299212598
 31
0.0
  0
LINE
  5
3052
330
1E
100
AcDbEntity
  8
7
100
AcDbLine
 10
5.625
 20
4.361220472440944
 30
0.0
 11
5.625
 21
4.128937007874015
 31
0.0
  0
LINE
  5
3053
330
1E
100
AcDbEntity
  8
7
100
AcDbLine
 10
5.625
 20
4.361220472440944
 30
0.0
 11
5.620078740157479
 21
4.366141732283463
 31
0.0
  0
LINE
  5
3054
330
1E
100
AcDbEntity
  8
7
100
AcDbLine
 10
5.469488188976377
 20
4.366141732283463
 30
0.0
 11
5.620078740157479
 21
4.366141732283463
 31
0.0
  0
LINE
  5
3055
330
1E
100
AcDbEntity
  8
7
100
AcDbLine
 10
5.635826771653542
 20
4.351377952755905
 30
0.0
 11
5.625
 21
4.361220472440944
 31
0.0
  0
LINE
  5
3056
330
1E
100
AcDbEntity
  8
7
100
AcDbLine
 10
5.625
 20
4.129921259842519
 30
0.0
 11
5.635826771653542
 21
4.129921259842519
 31
0.0
  0
LINE
  5
35DE
330
1E
100
AcDbEntity
  8
7
100
AcDbLine
 10
5.457677165354331
 20
3.811023622047244
 30
0.0
 11
5.457677165354331
 21
3.786417322834645
 31
0.0
  0
LINE
  5
35DF
330
1E
100
AcDbEntity
  8
7
100
AcDbLine
 10
5.457677165354331
 20
3.786417322834645
 30
0.0
 11
5.457677165354331
 21
3.770669291338582
 31
0.0
  0
LINE
  5
35E0
330
1E
100
AcDbEntity
  8
7
100
AcDbLine
 10
5.457677165354331
 20
3.770669291338582
 30
0.0
 11
5.457677165354331
 21
3.764763779527558
 31
0.0
  0
LINE
  5
35E1
330
1E
100
AcDbEntity
  8
7
100
AcDbLine
 10
5.695866141732283
 20
4.053149606299212
 30
0.0
 11
5.692913385826772
 21
4.043307086614173
 31
0.0
  0
LINE
  5
35E2
330
1E
100
AcDbEntity
  8
7
100
AcDbLine
 10
5.692913385826772
 20
4.043307086614173
 30
0.0
 11
5.686023622047244
 21
4.036417322834645
 31
0.0
  0
LINE
  5
35E3
330
1E
100
AcDbEntity
  8
7
100
AcDbLine
 10
5.686023622047244
 20
4.036417322834645
 30
0.0
 11
5.676181102362203
 21
4.033464566929133
 31
0.0
  0
LINE
  5
35E4
330
1E
100
AcDbEntity
  8
7
100
AcDbLine
 10
5.695866141732283
 20
4.083661417322834
 30
0.0
 11
5.691929133858268
 21
4.094488188976377
 31
0.0
  0
LINE
  5
35E5
330
1E
100
AcDbEntity
  8
7
100
AcDbLine
 10
5.691929133858268
 20
4.094488188976377
 30
0.0
 11
5.684055118110237
 21
4.102362204724409
 31
0.0
  0
LINE
  5
35E6
330
1E
100
AcDbEntity
  8
7
100
AcDbLine
 10
5.6751968503937
 20
4.033464566929133
 30
0.0
 11
5.676181102362203
 21
4.033464566929133
 31
0.0
  0
LINE
  5
35E7
330
1E
100
AcDbEntity
  8
7
100
AcDbLine
 10
5.676181102362203
 20
4.033464566929133
 30
0.0
 11
5.676181102362203
 21
4.105314960629921
 31
0.0
  0
LINE
  5
35E8
330
1E
100
AcDbEntity
  8
7
100
AcDbLine
 10
5.469488188976377
 20
3.830708661417322
 30
0.0
 11
5.469488188976377
 21
3.816929133858268
 31
0.0
  0
LINE
  5
35E9
330
1E
100
AcDbEntity
  8
7
100
AcDbLine
 10
5.469488188976377
 20
3.816929133858268
 30
0.0
 11
5.469488188976377
 21
3.811023622047244
 31
0.0
  0
LINE
  5
35EA
330
1E
100
AcDbEntity
  8
7
100
AcDbLine
 10
5.469488188976377
 20
3.811023622047244
 30
0.0
 11
5.469488188976377
 21
3.785433070866142
 31
0.0
  0
LINE
  5
35EB
330
1E
100
AcDbEntity
  8
7
100
AcDbLine
 10
5.469488188976377
 20
3.785433070866142
 30
0.0
 11
5.469488188976377
 21
3.770669291338582
 31
0.0
  0
LINE
  5
35EC
330
1E
100
AcDbEntity
  8
7
100
AcDbLine
 10
5.469488188976377
 20
3.770669291338582
 30
0.0
 11
5.469488188976377
 21
3.764763779527558
 31
0.0
  0
LINE
  5
35ED
330
1E
100
AcDbEntity
  8
7
100
AcDbLine
 10
4.936023622047244
 20
4.316929133858267
 30
0.0
 11
4.939960629921259
 21
4.317913385826771
 31
0.0
  0
LINE
  5
35EE
330
1E
100
AcDbEntity
  8
7
100
AcDbLine
 10
4.939960629921259
 20
4.317913385826771
 30
0.0
 11
4.940944881889762
 21
4.321850393700787
 31
0.0
  0
LINE
  5
35EF
330
1E
100
AcDbEntity
  8
7
100
AcDbLine
 10
4.917322834645668
 20
4.316929133858267
 30
0.0
 11
4.917322834645668
 21
4.317913385826771
 31
0.0
  0
LINE
  5
35F0
330
1E
100
AcDbEntity
  8
7
100
AcDbLine
 10
4.917322834645668
 20
4.317913385826771
 30
0.0
 11
4.917322834645668
 21
4.321850393700787
 31
0.0
  0
LINE
  5
35F1
330
1E
100
AcDbEntity
  8
7
100
AcDbLine
 10
4.940944881889762
 20
4.321850393700787
 30
0.0
 11
4.934055118110237
 21
4.321850393700787
 31
0.0
  0
LINE
  5
35F2
330
1E
100
AcDbEntity
  8
7
100
AcDbLine
 10
4.934055118110237
 20
4.321850393700787
 30
0.0
 11
4.917322834645668
 21
4.321850393700787
 31
0.0
  0
LINE
  5
35F3
330
1E
100
AcDbEntity
  8
7
100
AcDbLine
 10
4.940944881889762
 20
4.376968503937007
 30
0.0
 11
4.934055118110237
 21
4.376968503937007
 31
0.0
  0
LINE
  5
35F4
330
1E
100
AcDbEntity
  8
7
100
AcDbLine
 10
4.934055118110237
 20
4.376968503937007
 30
0.0
 11
4.917322834645668
 21
4.376968503937007
 31
0.0
  0
LINE
  5
35F5
330
1E
100
AcDbEntity
  8
7
100
AcDbLine
 10
5.103346456692912
 20
4.376968503937007
 30
0.0
 11
5.120078740157479
 21
4.376968503937007
 31
0.0
  0
LINE
  5
35F6
330
1E
100
AcDbEntity
  8
7
100
AcDbLine
 10
5.120078740157479
 20
4.376968503937007
 30
0.0
 11
5.127952755905511
 21
4.376968503937007
 31
0.0
  0
LINE
  5
35F7
330
1E
100
AcDbEntity
  8
7
100
AcDbLine
 10
4.946850393700787
 20
4.321850393700787
 30
0.0
 11
4.942913385826772
 21
4.321850393700787
 31
0.0
  0
LINE
  5
35F8
330
1E
100
AcDbEntity
  8
7
100
AcDbLine
 10
4.942913385826772
 20
4.321850393700787
 30
0.0
 11
4.940944881889762
 21
4.321850393700787
 31
0.0
  0
LINE
  5
35F9
330
1E
100
AcDbEntity
  8
7
100
AcDbLine
 10
4.979330708661416
 20
4.366141732283463
 30
0.0
 11
4.979330708661416
 21
4.376968503937007
 31
0.0
  0
LINE
  5
35FA
330
1E
100
AcDbEntity
  8
7
100
AcDbLine
 10
4.979330708661416
 20
4.376968503937007
 30
0.0
 11
4.960629921259842
 21
4.376968503937007
 31
0.0
  0
LINE
  5
35FB
330
1E
100
AcDbEntity
  8
7
100
AcDbLine
 10
4.960629921259842
 20
4.376968503937007
 30
0.0
 11
4.946850393700787
 21
4.376968503937007
 31
0.0
  0
LINE
  5
35FC
330
1E
100
AcDbEntity
  8
7
100
AcDbLine
 10
4.946850393700787
 20
4.376968503937007
 30
0.0
 11
4.940944881889762
 21
4.376968503937007
 31
0.0
  0
LINE
  5
35FD
330
1E
100
AcDbEntity
  8
7
100
AcDbLine
 10
4.917322834645668
 20
4.316929133858267
 30
0.0
 11
4.93011811023622
 21
4.316929133858267
 31
0.0
  0
LINE
  5
35FE
330
1E
100
AcDbEntity
  8
7
100
AcDbLine
 10
4.93011811023622
 20
4.316929133858267
 30
0.0
 11
4.936023622047244
 21
4.316929133858267
 31
0.0
  0
LINE
  5
35FF
330
1E
100
AcDbEntity
  8
7
100
AcDbLine
 10
4.936023622047244
 20
4.316929133858267
 30
0.0
 11
4.938976377952755
 21
4.316929133858267
 31
0.0
  0
LINE
  5
3600
330
1E
100
AcDbEntity
  8
7
100
AcDbLine
 10
4.938976377952755
 20
4.316929133858267
 30
0.0
 11
4.946850393700787
 21
4.316929133858267
 31
0.0
  0
LINE
  5
3601
330
1E
100
AcDbEntity
  8
7
100
AcDbLine
 10
4.792322834645668
 20
3.662401574803149
 30
0.0
 11
4.791338582677164
 21
3.661417322834645
 31
0.0
  0
LINE
  5
3602
330
1E
100
AcDbEntity
  8
7
100
AcDbLine
 10
4.791338582677164
 20
3.661417322834645
 30
0.0
 11
4.791338582677164
 21
3.660433070866142
 31
0.0
  0
LINE
  5
3603
330
1E
100
AcDbEntity
  8
7
100
AcDbLine
 10
4.791338582677164
 20
3.660433070866142
 30
0.0
 11
4.792322834645668
 21
3.659448818897637
 31
0.0
  0
LINE
  5
3604
330
1E
100
AcDbEntity
  8
7
100
AcDbLine
 10
4.792322834645668
 20
3.659448818897637
 30
0.0
 11
4.792322834645668
 21
3.658464566929133
 31
0.0
  0
LINE
  5
3605
330
1E
100
AcDbEntity
  8
7
100
AcDbLine
 10
4.792322834645668
 20
3.658464566929133
 30
0.0
 11
4.792322834645668
 21
3.65748031496063
 31
0.0
  0
LINE
  5
3606
330
1E
100
AcDbEntity
  8
7
100
AcDbLine
 10
4.792322834645668
 20
3.65748031496063
 30
0.0
 11
4.792322834645668
 21
3.656496062992126
 31
0.0
  0
LINE
  5
3607
330
1E
100
AcDbEntity
  8
7
100
AcDbLine
 10
4.857283464566929
 20
3.710629921259843
 30
0.0
 11
4.857283464566929
 21
3.704724409448818
 31
0.0
  0
LINE
  5
3608
330
1E
100
AcDbEntity
  8
7
100
AcDbLine
 10
4.857283464566929
 20
3.704724409448818
 30
0.0
 11
4.792322834645668
 21
3.656496062992126
 31
0.0
  0
LINE
  5
3609
330
1E
100
AcDbEntity
  8
7
100
AcDbLine
 10
4.792322834645668
 20
3.656496062992126
 30
0.0
 11
4.553149606299212
 21
3.661417322834645
 31
0.0
  0
LINE
  5
360A
330
1E
100
AcDbEntity
  8
7
100
AcDbLine
 10
4.886811023622046
 20
4.316929133858267
 30
0.0
 11
4.886811023622046
 21
4.317913385826771
 31
0.0
  0
LINE
  5
360B
330
1E
100
AcDbEntity
  8
7
100
AcDbLine
 10
4.886811023622046
 20
4.317913385826771
 30
0.0
 11
4.886811023622046
 21
4.319881889763778
 31
0.0
  0
LINE
  5
360C
330
1E
100
AcDbEntity
  8
7
100
AcDbLine
 10
4.886811023622046
 20
4.319881889763778
 30
0.0
 11
4.886811023622046
 21
4.321850393700787
 31
0.0
  0
LINE
  5
360D
330
1E
100
AcDbEntity
  8
7
100
AcDbLine
 10
4.886811023622046
 20
4.316929133858267
 30
0.0
 11
4.87992125984252
 21
4.315944881889762
 31
0.0
  0
LINE
  5
360E
330
1E
100
AcDbEntity
  8
7
100
AcDbLine
 10
4.87992125984252
 20
4.315944881889762
 30
0.0
 11
4.871062992125983
 21
4.312007874015747
 31
0.0
  0
LINE
  5
360F
330
1E
100
AcDbEntity
  8
7
100
AcDbLine
 10
4.871062992125983
 20
4.312007874015747
 30
0.0
 11
4.866141732283464
 21
4.308070866141731
 31
0.0
  0
LINE
  5
3610
330
1E
100
AcDbEntity
  8
7
100
AcDbLine
 10
4.866141732283464
 20
4.308070866141731
 30
0.0
 11
4.861220472440944
 21
4.303149606299212
 31
0.0
  0
LINE
  5
3611
330
1E
100
AcDbEntity
  8
7
100
AcDbLine
 10
4.861220472440944
 20
4.303149606299212
 30
0.0
 11
4.858267716535433
 21
4.29527559055118
 31
0.0
  0
LINE
  5
3612
330
1E
100
AcDbEntity
  8
7
100
AcDbLine
 10
4.858267716535433
 20
4.29527559055118
 30
0.0
 11
4.857283464566929
 21
4.287401574803149
 31
0.0
  0
LINE
  5
3613
330
1E
100
AcDbEntity
  8
7
100
AcDbLine
 10
4.553149606299212
 20
3.666338582677165
 30
0.0
 11
4.792322834645668
 21
3.662401574803149
 31
0.0
  0
LINE
  5
3614
330
1E
100
AcDbEntity
  8
7
100
AcDbLine
 10
4.792322834645668
 20
3.662401574803149
 30
0.0
 11
4.792322834645668
 21
3.663385826771653
 31
0.0
  0
LINE
  5
3615
330
1E
100
AcDbEntity
  8
7
100
AcDbLine
 10
4.886811023622046
 20
4.321850393700787
 30
0.0
 11
4.880905511811024
 21
4.320866141732283
 31
0.0
  0
LINE
  5
3616
330
1E
100
AcDbEntity
  8
7
100
AcDbLine
 10
4.880905511811024
 20
4.320866141732283
 30
0.0
 11
4.874015748031496
 21
4.318897637795275
 31
0.0
  0
LINE
  5
3617
330
1E
100
AcDbEntity
  8
7
100
AcDbLine
 10
4.874015748031496
 20
4.318897637795275
 30
0.0
 11
4.871062992125983
 21
4.316929133858267
 31
0.0
  0
LINE
  5
3618
330
1E
100
AcDbEntity
  8
7
100
AcDbLine
 10
4.857283464566929
 20
4.287401574803149
 30
0.0
 11
4.857283464566929
 21
4.293307086614173
 31
0.0
  0
LINE
  5
3619
330
1E
100
AcDbEntity
  8
7
100
AcDbLine
 10
4.857283464566929
 20
4.293307086614173
 30
0.0
 11
4.858267716535433
 21
4.299212598425196
 31
0.0
  0
LINE
  5
361A
330
1E
100
AcDbEntity
  8
7
100
AcDbLine
 10
4.858267716535433
 20
4.299212598425196
 30
0.0
 11
4.864173228346457
 21
4.310039370078739
 31
0.0
  0
LINE
  5
361B
330
1E
100
AcDbEntity
  8
7
100
AcDbLine
 10
4.864173228346457
 20
4.310039370078739
 30
0.0
 11
4.869094488188975
 21
4.315944881889762
 31
0.0
  0
LINE
  5
361C
330
1E
100
AcDbEntity
  8
7
100
AcDbLine
 10
4.869094488188975
 20
4.315944881889762
 30
0.0
 11
4.871062992125983
 21
4.316929133858267
 31
0.0
  0
LINE
  5
361D
330
1E
100
AcDbEntity
  8
7
100
AcDbLine
 10
5.187992125984251
 20
4.312992125984251
 30
0.0
 11
5.186023622047244
 21
4.312992125984251
 31
0.0
  0
LINE
  5
361E
330
1E
100
AcDbEntity
  8
7
100
AcDbLine
 10
5.186023622047244
 20
4.312992125984251
 30
0.0
 11
5.182086614173227
 21
4.312992125984251
 31
0.0
  0
LINE
  5
361F
330
1E
100
AcDbEntity
  8
7
100
AcDbLine
 10
5.182086614173227
 20
4.312992125984251
 30
0.0
 11
5.179133858267716
 21
4.312992125984251
 31
0.0
  0
LINE
  5
3620
330
1E
100
AcDbEntity
  8
7
100
AcDbLine
 10
4.946850393700787
 20
4.366141732283463
 30
0.0
 11
4.946850393700787
 21
4.339566929133858
 31
0.0
  0
LINE
  5
3621
330
1E
100
AcDbEntity
  8
7
100
AcDbLine
 10
4.946850393700787
 20
4.339566929133858
 30
0.0
 11
4.946850393700787
 21
4.320866141732283
 31
0.0
  0
LINE
  5
3622
330
1E
100
AcDbEntity
  8
7
100
AcDbLine
 10
5.19783464566929
 20
4.218503937007874
 30
0.0
 11
5.19783464566929
 21
4.312992125984251
 31
0.0
  0
LINE
  5
3623
330
1E
100
AcDbEntity
  8
7
100
AcDbLine
 10
5.19783464566929
 20
4.312992125984251
 30
0.0
 11
5.264763779527559
 21
4.312992125984251
 31
0.0
  0
LINE
  5
3624
330
1E
100
AcDbEntity
  8
7
100
AcDbLine
 10
5.187992125984251
 20
4.312992125984251
 30
0.0
 11
5.190944881889762
 21
4.312992125984251
 31
0.0
  0
LINE
  5
3625
330
1E
100
AcDbEntity
  8
7
100
AcDbLine
 10
5.190944881889762
 20
4.312992125984251
 30
0.0
 11
5.19783464566929
 21
4.312992125984251
 31
0.0
  0
LINE
  5
3626
330
1E
100
AcDbEntity
  8
7
100
AcDbLine
 10
5.19783464566929
 20
4.312992125984251
 30
0.0
 11
5.19783464566929
 21
4.366141732283463
 31
0.0
  0
LINE
  5
3627
330
1E
100
AcDbEntity
  8
7
100
AcDbLine
 10
4.891732283464566
 20
4.312992125984251
 30
0.0
 11
4.875
 21
4.309055118110236
 31
0.0
  0
LINE
  5
3628
330
1E
100
AcDbEntity
  8
7
100
AcDbLine
 10
4.875
 20
4.309055118110236
 30
0.0
 11
4.862204724409448
 21
4.296259842519684
 31
0.0
  0
LINE
  5
3629
330
1E
100
AcDbEntity
  8
7
100
AcDbLine
 10
4.862204724409448
 20
4.296259842519684
 30
0.0
 11
4.857283464566929
 21
4.278543307086613
 31
0.0
  0
LINE
  5
362A
330
1E
100
AcDbEntity
  8
7
100
AcDbLine
 10
5.179133858267716
 20
4.118110236220472
 30
0.0
 11
5.186023622047244
 21
4.118110236220472
 31
0.0
  0
LINE
  5
362B
330
1E
100
AcDbEntity
  8
7
100
AcDbLine
 10
5.186023622047244
 20
4.118110236220472
 30
0.0
 11
5.187992125984251
 21
4.118110236220472
 31
0.0
  0
LINE
  5
362C
330
1E
100
AcDbEntity
  8
7
100
AcDbLine
 10
5.558070866141731
 20
4.375984251968503
 30
0.0
 11
5.556102362204724
 21
4.375984251968503
 31
0.0
  0
LINE
  5
362D
330
1E
100
AcDbEntity
  8
7
100
AcDbLine
 10
5.556102362204724
 20
4.375984251968503
 30
0.0
 11
5.5501968503937
 21
4.375984251968503
 31
0.0
  0
LINE
  5
362E
330
1E
100
AcDbEntity
  8
7
100
AcDbLine
 10
5.19783464566929
 20
4.366141732283463
 30
0.0
 11
5.190944881889762
 21
4.366141732283463
 31
0.0
  0
LINE
  5
362F
330
1E
100
AcDbEntity
  8
7
100
AcDbLine
 10
5.190944881889762
 20
4.366141732283463
 30
0.0
 11
5.187992125984251
 21
4.366141732283463
 31
0.0
  0
LINE
  5
3630
330
1E
100
AcDbEntity
  8
7
100
AcDbLine
 10
5.187992125984251
 20
4.366141732283463
 30
0.0
 11
5.18503937007874
 21
4.366141732283463
 31
0.0
  0
LINE
  5
3631
330
1E
100
AcDbEntity
  8
7
100
AcDbLine
 10
5.18503937007874
 20
4.366141732283463
 30
0.0
 11
5.178149606299212
 21
4.366141732283463
 31
0.0
  0
LINE
  5
3632
330
1E
100
AcDbEntity
  8
7
100
AcDbLine
 10
4.946850393700787
 20
4.366141732283463
 30
0.0
 11
4.965551181102362
 21
4.366141732283463
 31
0.0
  0
LINE
  5
3633
330
1E
100
AcDbEntity
  8
7
100
AcDbLine
 10
4.965551181102362
 20
4.366141732283463
 30
0.0
 11
5.013779527559055
 21
4.366141732283463
 31
0.0
  0
LINE
  5
3634
330
1E
100
AcDbEntity
  8
7
100
AcDbLine
 10
5.013779527559055
 20
4.366141732283463
 30
0.0
 11
5.076771653543307
 21
4.366141732283463
 31
0.0
  0
LINE
  5
3635
330
1E
100
AcDbEntity
  8
7
100
AcDbLine
 10
5.076771653543307
 20
4.366141732283463
 30
0.0
 11
5.127952755905511
 21
4.366141732283463
 31
0.0
  0
LINE
  5
3636
330
1E
100
AcDbEntity
  8
7
100
AcDbLine
 10
5.127952755905511
 20
4.366141732283463
 30
0.0
 11
5.178149606299212
 21
4.366141732283463
 31
0.0
  0
LINE
  5
3637
330
1E
100
AcDbEntity
  8
7
100
AcDbLine
 10
4.088582677165353
 20
3.695866141732283
 30
0.0
 11
4.091535433070866
 21
3.688976377952756
 31
0.0
  0
LINE
  5
3638
330
1E
100
AcDbEntity
  8
7
100
AcDbLine
 10
4.091535433070866
 20
3.688976377952756
 30
0.0
 11
4.098425196850394
 21
3.686023622047243
 31
0.0
  0
LINE
  5
3639
330
1E
100
AcDbEntity
  8
7
100
AcDbLine
 10
4.098425196850394
 20
3.695866141732283
 30
0.0
 11
4.091535433070866
 21
3.695866141732283
 31
0.0
  0
LINE
  5
363A
330
1E
100
AcDbEntity
  8
7
100
AcDbLine
 10
4.091535433070866
 20
3.695866141732283
 30
0.0
 11
4.088582677165353
 21
3.695866141732283
 31
0.0
  0
LINE
  5
363B
330
1E
100
AcDbEntity
  8
7
100
AcDbLine
 10
4.098425196850394
 20
3.721456692913385
 30
0.0
 11
4.091535433070866
 21
3.721456692913385
 31
0.0
  0
LINE
  5
363C
330
1E
100
AcDbEntity
  8
7
100
AcDbLine
 10
4.091535433070866
 20
3.721456692913385
 30
0.0
 11
4.088582677165353
 21
3.721456692913385
 31
0.0
  0
LINE
  5
363D
330
1E
100
AcDbEntity
  8
7
100
AcDbLine
 10
4.098425196850394
 20
3.731299212598425
 30
0.0
 11
4.091535433070866
 21
3.728346456692913
 31
0.0
  0
LINE
  5
363E
330
1E
100
AcDbEntity
  8
7
100
AcDbLine
 10
4.091535433070866
 20
3.728346456692913
 30
0.0
 11
4.088582677165353
 21
3.721456692913385
 31
0.0
  0
LINE
  5
363F
330
1E
100
AcDbEntity
  8
7
100
AcDbLine
 10
4.098425196850394
 20
3.731299212598425
 30
0.0
 11
4.098425196850394
 21
3.728346456692913
 31
0.0
  0
LINE
  5
3640
330
1E
100
AcDbEntity
  8
7
100
AcDbLine
 10
4.098425196850394
 20
3.728346456692913
 30
0.0
 11
4.098425196850394
 21
3.721456692913385
 31
0.0
  0
LINE
  5
3641
330
1E
100
AcDbEntity
  8
7
100
AcDbLine
 10
4.098425196850394
 20
3.695866141732283
 30
0.0
 11
4.098425196850394
 21
3.688976377952756
 31
0.0
  0
LINE
  5
3642
330
1E
100
AcDbEntity
  8
7
100
AcDbLine
 10
4.098425196850394
 20
3.688976377952756
 30
0.0
 11
4.098425196850394
 21
3.686023622047243
 31
0.0
  0
LINE
  5
3643
330
1E
100
AcDbEntity
  8
7
100
AcDbLine
 10
4.118110236220472
 20
3.721456692913385
 30
0.0
 11
4.098425196850394
 21
3.721456692913385
 31
0.0
  0
LINE
  5
3644
330
1E
100
AcDbEntity
  8
7
100
AcDbLine
 10
4.098425196850394
 20
3.721456692913385
 30
0.0
 11
4.098425196850394
 21
3.695866141732283
 31
0.0
  0
LINE
  5
3645
330
1E
100
AcDbEntity
  8
7
100
AcDbLine
 10
4.098425196850394
 20
3.695866141732283
 30
0.0
 11
4.118110236220472
 21
3.695866141732283
 31
0.0
  0
LINE
  5
3646
330
1E
100
AcDbEntity
  8
7
100
AcDbLine
 10
4.132874015748031
 20
4.45767716535433
 30
0.0
 11
4.132874015748031
 21
3.608267716535432
 31
0.0
  0
LINE
  5
3647
330
1E
100
AcDbEntity
  8
7
100
AcDbLine
 10
4.132874015748031
 20
3.608267716535432
 30
0.0
 11
4.242125984251968
 21
3.606299212598425
 31
0.0
  0
LINE
  5
3648
330
1E
100
AcDbEntity
  8
7
100
AcDbLine
 10
4.118110236220472
 20
3.603346456692913
 30
0.0
 11
4.118110236220472
 21
3.608267716535432
 31
0.0
  0
LINE
  5
3649
330
1E
100
AcDbEntity
  8
7
100
AcDbLine
 10
4.118110236220472
 20
3.608267716535432
 30
0.0
 11
4.118110236220472
 21
4.45767716535433
 31
0.0
  0
LINE
  5
364A
330
1E
100
AcDbEntity
  8
7
100
AcDbLine
 10
4.118110236220472
 20
3.608267716535432
 30
0.0
 11
4.123031496062992
 21
3.608267716535432
 31
0.0
  0
LINE
  5
364B
330
1E
100
AcDbEntity
  8
7
100
AcDbLine
 10
4.123031496062992
 20
3.608267716535432
 30
0.0
 11
4.132874015748031
 21
3.608267716535432
 31
0.0
  0
LINE
  5
364C
330
1E
100
AcDbEntity
  8
7
100
AcDbLine
 10
4.132874015748031
 20
3.608267716535432
 30
0.0
 11
4.132874015748031
 21
3.594488188976378
 31
0.0
  0
LINE
  5
364D
330
1E
100
AcDbEntity
  8
7
100
AcDbLine
 10
4.132874015748031
 20
3.594488188976378
 30
0.0
 11
4.132874015748031
 21
3.588582677165354
 31
0.0
  0
LINE
  5
364E
330
1E
100
AcDbEntity
  8
7
100
AcDbLine
 10
4.118110236220472
 20
3.603346456692913
 30
0.0
 11
4.122047244094488
 21
3.592519685039369
 31
0.0
  0
LINE
  5
364F
330
1E
100
AcDbEntity
  8
7
100
AcDbLine
 10
4.122047244094488
 20
3.592519685039369
 30
0.0
 11
4.132874015748031
 21
3.588582677165354
 31
0.0
  0
LINE
  5
3650
330
1E
100
AcDbEntity
  8
7
100
AcDbLine
 10
4.132874015748031
 20
4.477362204724409
 30
0.0
 11
4.132874015748031
 21
4.471456692913385
 31
0.0
  0
LINE
  5
3651
330
1E
100
AcDbEntity
  8
7
100
AcDbLine
 10
4.132874015748031
 20
4.471456692913385
 30
0.0
 11
4.132874015748031
 21
4.45767716535433
 31
0.0
  0
LINE
  5
3652
330
1E
100
AcDbEntity
  8
7
100
AcDbLine
 10
4.118110236220472
 20
4.45767716535433
 30
0.0
 11
4.123031496062992
 21
4.45767716535433
 31
0.0
  0
LINE
  5
3653
330
1E
100
AcDbEntity
  8
7
100
AcDbLine
 10
4.123031496062992
 20
4.45767716535433
 30
0.0
 11
4.132874015748031
 21
4.45767716535433
 31
0.0
  0
LINE
  5
3654
330
1E
100
AcDbEntity
  8
7
100
AcDbLine
 10
4.242125984251968
 20
4.459645669291337
 30
0.0
 11
4.242125984251968
 21
4.473425196850393
 31
0.0
  0
LINE
  5
3655
330
1E
100
AcDbEntity
  8
7
100
AcDbLine
 10
4.242125984251968
 20
4.473425196850393
 30
0.0
 11
4.242125984251968
 21
4.479330708661416
 31
0.0
  0
LINE
  5
3656
330
1E
100
AcDbEntity
  8
7
100
AcDbLine
 10
4.242125984251968
 20
3.586614173228346
 30
0.0
 11
4.242125984251968
 21
3.592519685039369
 31
0.0
  0
LINE
  5
3657
330
1E
100
AcDbEntity
  8
7
100
AcDbLine
 10
4.242125984251968
 20
3.592519685039369
 30
0.0
 11
4.242125984251968
 21
3.606299212598425
 31
0.0
  0
LINE
  5
3658
330
1E
100
AcDbEntity
  8
7
100
AcDbLine
 10
5.010826771653542
 20
3.603346456692913
 30
0.0
 11
5.016732283464566
 21
3.608267716535432
 31
0.0
  0
LINE
  5
3659
330
1E
100
AcDbEntity
  8
7
100
AcDbLine
 10
5.016732283464566
 20
3.608267716535432
 30
0.0
 11
5.018700787401574
 21
3.616141732283464
 31
0.0
  0
LINE
  5
365A
330
1E
100
AcDbEntity
  8
7
100
AcDbLine
 10
5.018700787401574
 20
3.635826771653543
 30
0.0
 11
5.016732283464566
 21
3.643700787401574
 31
0.0
  0
LINE
  5
365B
330
1E
100
AcDbEntity
  8
7
100
AcDbLine
 10
5.016732283464566
 20
3.643700787401574
 30
0.0
 11
5.010826771653542
 21
3.648622047244094
 31
0.0
  0
LINE
  5
365C
330
1E
100
AcDbEntity
  8
7
100
AcDbLine
 10
4.433070866141731
 20
3.582677165354331
 30
0.0
 11
4.433070866141731
 21
3.588582677165354
 31
0.0
  0
LINE
  5
365D
330
1E
100
AcDbEntity
  8
7
100
AcDbLine
 10
4.433070866141731
 20
3.588582677165354
 30
0.0
 11
4.433070866141731
 21
3.603346456692913
 31
0.0
  0
LINE
  5
365E
330
1E
100
AcDbEntity
  8
7
100
AcDbLine
 10
4.433070866141731
 20
3.603346456692913
 30
0.0
 11
4.553149606299212
 21
3.605314960629921
 31
0.0
  0
LINE
  5
365F
330
1E
100
AcDbEntity
  8
7
100
AcDbLine
 10
4.242125984251968
 20
3.592519685039369
 30
0.0
 11
4.260826771653542
 21
3.596456692913385
 31
0.0
  0
LINE
  5
3660
330
1E
100
AcDbEntity
  8
7
100
AcDbLine
 10
4.260826771653542
 20
3.596456692913385
 30
0.0
 11
4.271653543307087
 21
3.601377952755905
 31
0.0
  0
LINE
  5
3661
330
1E
100
AcDbEntity
  8
7
100
AcDbLine
 10
4.271653543307087
 20
3.601377952755905
 30
0.0
 11
4.275590551181101
 21
3.605314960629921
 31
0.0
  0
LINE
  5
3662
330
1E
100
AcDbEntity
  8
7
100
AcDbLine
 10
4.275590551181101
 20
3.74015748031496
 30
0.0
 11
4.275590551181101
 21
3.605314960629921
 31
0.0
  0
LINE
  5
3663
330
1E
100
AcDbEntity
  8
7
100
AcDbLine
 10
4.275590551181101
 20
3.605314960629921
 30
0.0
 11
4.433070866141731
 21
3.603346456692913
 31
0.0
  0
LINE
  5
3664
330
1E
100
AcDbEntity
  8
7
100
AcDbLine
 10
4.433070866141731
 20
4.46259842519685
 30
0.0
 11
4.433070866141731
 21
4.477362204724409
 31
0.0
  0
LINE
  5
3665
330
1E
100
AcDbEntity
  8
7
100
AcDbLine
 10
4.433070866141731
 20
4.477362204724409
 30
0.0
 11
4.433070866141731
 21
4.483267716535432
 31
0.0
  0
LINE
  5
3666
330
1E
100
AcDbEntity
  8
7
100
AcDbLine
 10
4.275590551181101
 20
4.460629921259842
 30
0.0
 11
4.271653543307087
 21
4.465551181102362
 31
0.0
  0
LINE
  5
3667
330
1E
100
AcDbEntity
  8
7
100
AcDbLine
 10
4.271653543307087
 20
4.465551181102362
 30
0.0
 11
4.260826771653542
 21
4.469488188976377
 31
0.0
  0
LINE
  5
3668
330
1E
100
AcDbEntity
  8
7
100
AcDbLine
 10
4.260826771653542
 20
4.469488188976377
 30
0.0
 11
4.242125984251968
 21
4.473425196850393
 31
0.0
  0
LINE
  5
3669
330
1E
100
AcDbEntity
  8
7
100
AcDbLine
 10
4.433070866141731
 20
4.386811023622047
 30
0.0
 11
4.433070866141731
 21
4.409448818897637
 31
0.0
  0
LINE
  5
366A
330
1E
100
AcDbEntity
  8
7
100
AcDbLine
 10
4.433070866141731
 20
4.409448818897637
 30
0.0
 11
4.433070866141731
 21
4.429133858267715
 31
0.0
  0
LINE
  5
366B
330
1E
100
AcDbEntity
  8
7
100
AcDbLine
 10
4.433070866141731
 20
4.429133858267715
 30
0.0
 11
4.433070866141731
 21
4.441929133858267
 31
0.0
  0
LINE
  5
366C
330
1E
100
AcDbEntity
  8
7
100
AcDbLine
 10
4.433070866141731
 20
4.441929133858267
 30
0.0
 11
4.433070866141731
 21
4.446850393700787
 31
0.0
  0
LINE
  5
366D
330
1E
100
AcDbEntity
  8
7
100
AcDbLine
 10
4.433070866141731
 20
3.855314960629921
 30
0.0
 11
4.433070866141731
 21
3.87007874015748
 31
0.0
  0
LINE
  5
366E
330
1E
100
AcDbEntity
  8
7
100
AcDbLine
 10
4.433070866141731
 20
3.87007874015748
 30
0.0
 11
4.433070866141731
 21
3.881889763779527
 31
0.0
  0
LINE
  5
366F
330
1E
100
AcDbEntity
  8
7
100
AcDbLine
 10
4.433070866141731
 20
3.881889763779527
 30
0.0
 11
4.433070866141731
 21
3.885826771653542
 31
0.0
  0
LINE
  5
3670
330
1E
100
AcDbEntity
  8
7
100
AcDbLine
 10
4.433070866141731
 20
3.885826771653542
 30
0.0
 11
4.433070866141731
 21
3.889763779527558
 31
0.0
  0
LINE
  5
3671
330
1E
100
AcDbEntity
  8
7
100
AcDbLine
 10
4.433070866141731
 20
3.889763779527558
 30
0.0
 11
4.433070866141731
 21
3.900590551181102
 31
0.0
  0
LINE
  5
3672
330
1E
100
AcDbEntity
  8
7
100
AcDbLine
 10
4.433070866141731
 20
3.900590551181102
 30
0.0
 11
4.433070866141731
 21
3.915354330708661
 31
0.0
  0
LINE
  5
3673
330
1E
100
AcDbEntity
  8
7
100
AcDbLine
 10
4.433070866141731
 20
3.915354330708661
 30
0.0
 11
4.433070866141731
 21
4.150590551181101
 31
0.0
  0
LINE
  5
3674
330
1E
100
AcDbEntity
  8
7
100
AcDbLine
 10
4.433070866141731
 20
4.150590551181101
 30
0.0
 11
4.433070866141731
 21
4.165354330708661
 31
0.0
  0
LINE
  5
3675
330
1E
100
AcDbEntity
  8
7
100
AcDbLine
 10
4.433070866141731
 20
4.165354330708661
 30
0.0
 11
4.433070866141731
 21
4.176181102362204
 31
0.0
  0
LINE
  5
3676
330
1E
100
AcDbEntity
  8
7
100
AcDbLine
 10
4.433070866141731
 20
4.176181102362204
 30
0.0
 11
4.433070866141731
 21
4.18011811023622
 31
0.0
  0
LINE
  5
3677
330
1E
100
AcDbEntity
  8
7
100
AcDbLine
 10
4.433070866141731
 20
4.18011811023622
 30
0.0
 11
4.433070866141731
 21
4.185039370078739
 31
0.0
  0
LINE
  5
3678
330
1E
100
AcDbEntity
  8
7
100
AcDbLine
 10
4.433070866141731
 20
4.185039370078739
 30
0.0
 11
4.433070866141731
 21
4.195866141732283
 31
0.0
  0
LINE
  5
3679
330
1E
100
AcDbEntity
  8
7
100
AcDbLine
 10
4.433070866141731
 20
4.195866141732283
 30
0.0
 11
4.433070866141731
 21
4.210629921259842
 31
0.0
  0
LINE
  5
367A
330
1E
100
AcDbEntity
  8
7
100
AcDbLine
 10
4.433070866141731
 20
3.619094488188976
 30
0.0
 11
4.433070866141731
 21
3.624015748031495
 31
0.0
  0
LINE
  5
367B
330
1E
100
AcDbEntity
  8
7
100
AcDbLine
 10
4.433070866141731
 20
3.624015748031495
 30
0.0
 11
4.433070866141731
 21
3.636811023622047
 31
0.0
  0
LINE
  5
367C
330
1E
100
AcDbEntity
  8
7
100
AcDbLine
 10
4.433070866141731
 20
3.636811023622047
 30
0.0
 11
4.433070866141731
 21
3.656496062992126
 31
0.0
  0
LINE
  5
367D
330
1E
100
AcDbEntity
  8
7
100
AcDbLine
 10
4.433070866141731
 20
3.656496062992126
 30
0.0
 11
4.433070866141731
 21
3.679133858267716
 31
0.0
  0
LINE
  5
367E
330
1E
100
AcDbEntity
  8
7
100
AcDbLine
 10
4.478346456692912
 20
4.231299212598425
 30
0.0
 11
4.476377952755905
 21
4.233267716535432
 31
0.0
  0
LINE
  5
367F
330
1E
100
AcDbEntity
  8
7
100
AcDbLine
 10
4.476377952755905
 20
4.233267716535432
 30
0.0
 11
4.473425196850394
 21
4.236220472440944
 31
0.0
  0
LINE
  5
3680
330
1E
100
AcDbEntity
  8
7
100
AcDbLine
 10
4.473425196850394
 20
4.236220472440944
 30
0.0
 11
4.471456692913385
 21
4.239173228346456
 31
0.0
  0
LINE
  5
3681
330
1E
100
AcDbEntity
  8
7
100
AcDbLine
 10
4.471456692913385
 20
4.239173228346456
 30
0.0
 11
4.470472440944881
 21
4.24015748031496
 31
0.0
  0
LINE
  5
3682
330
1E
100
AcDbEntity
  8
7
100
AcDbLine
 10
4.433070866141731
 20
4.230314960629921
 30
0.0
 11
4.433070866141731
 21
4.237204724409448
 31
0.0
  0
LINE
  5
3683
330
1E
100
AcDbEntity
  8
7
100
AcDbLine
 10
4.433070866141731
 20
4.237204724409448
 30
0.0
 11
4.433070866141731
 21
4.24015748031496
 31
0.0
  0
LINE
  5
3684
330
1E
100
AcDbEntity
  8
7
100
AcDbLine
 10
4.433070866141731
 20
4.358267716535432
 30
0.0
 11
4.433070866141731
 21
4.361220472440944
 31
0.0
  0
LINE
  5
3685
330
1E
100
AcDbEntity
  8
7
100
AcDbLine
 10
4.433070866141731
 20
4.361220472440944
 30
0.0
 11
4.433070866141731
 21
4.368110236220472
 31
0.0
  0
LINE
  5
3686
330
1E
100
AcDbEntity
  8
7
100
AcDbLine
 10
4.470472440944881
 20
4.358267716535432
 30
0.0
 11
4.471456692913385
 21
4.359251968503937
 31
0.0
  0
LINE
  5
3687
330
1E
100
AcDbEntity
  8
7
100
AcDbLine
 10
4.471456692913385
 20
4.359251968503937
 30
0.0
 11
4.473425196850394
 21
4.361220472440944
 31
0.0
  0
LINE
  5
3688
330
1E
100
AcDbEntity
  8
7
100
AcDbLine
 10
4.473425196850394
 20
4.361220472440944
 30
0.0
 11
4.476377952755905
 21
4.36515748031496
 31
0.0
  0
LINE
  5
3689
330
1E
100
AcDbEntity
  8
7
100
AcDbLine
 10
4.476377952755905
 20
4.36515748031496
 30
0.0
 11
4.478346456692912
 21
4.367125984251968
 31
0.0
  0
LINE
  5
368A
330
1E
100
AcDbEntity
  8
7
100
AcDbLine
 10
4.478346456692912
 20
3.698818897637795
 30
0.0
 11
4.476377952755905
 21
3.700787401574803
 31
0.0
  0
LINE
  5
368B
330
1E
100
AcDbEntity
  8
7
100
AcDbLine
 10
4.476377952755905
 20
3.700787401574803
 30
0.0
 11
4.473425196850394
 21
3.704724409448818
 31
0.0
  0
LINE
  5
368C
330
1E
100
AcDbEntity
  8
7
100
AcDbLine
 10
4.473425196850394
 20
3.704724409448818
 30
0.0
 11
4.471456692913385
 21
3.706692913385827
 31
0.0
  0
LINE
  5
368D
330
1E
100
AcDbEntity
  8
7
100
AcDbLine
 10
4.471456692913385
 20
3.706692913385827
 30
0.0
 11
4.470472440944881
 21
3.707677165354331
 31
0.0
  0
LINE
  5
368E
330
1E
100
AcDbEntity
  8
7
100
AcDbLine
 10
4.433070866141731
 20
3.697834645669291
 30
0.0
 11
4.433070866141731
 21
3.704724409448818
 31
0.0
  0
LINE
  5
368F
330
1E
100
AcDbEntity
  8
7
100
AcDbLine
 10
4.433070866141731
 20
3.704724409448818
 30
0.0
 11
4.433070866141731
 21
3.707677165354331
 31
0.0
  0
LINE
  5
3690
330
1E
100
AcDbEntity
  8
7
100
AcDbLine
 10
4.433070866141731
 20
3.825787401574803
 30
0.0
 11
4.433070866141731
 21
3.828740157480315
 31
0.0
  0
LINE
  5
3691
330
1E
100
AcDbEntity
  8
7
100
AcDbLine
 10
4.433070866141731
 20
3.828740157480315
 30
0.0
 11
4.433070866141731
 21
3.835629921259842
 31
0.0
  0
LINE
  5
3692
330
1E
100
AcDbEntity
  8
7
100
AcDbLine
 10
4.470472440944881
 20
3.825787401574803
 30
0.0
 11
4.471456692913385
 21
3.827755905511811
 31
0.0
  0
LINE
  5
3693
330
1E
100
AcDbEntity
  8
7
100
AcDbLine
 10
4.471456692913385
 20
3.827755905511811
 30
0.0
 11
4.473425196850394
 21
3.829724409448818
 31
0.0
  0
LINE
  5
3694
330
1E
100
AcDbEntity
  8
7
100
AcDbLine
 10
4.473425196850394
 20
3.829724409448818
 30
0.0
 11
4.476377952755905
 21
3.832677165354331
 31
0.0
  0
LINE
  5
3695
330
1E
100
AcDbEntity
  8
7
100
AcDbLine
 10
4.476377952755905
 20
3.832677165354331
 30
0.0
 11
4.478346456692912
 21
3.835629921259842
 31
0.0
  0
LINE
  5
3696
330
1E
100
AcDbEntity
  8
7
100
AcDbLine
 10
4.433070866141731
 20
3.707677165354331
 30
0.0
 11
4.433070866141731
 21
3.710629921259843
 31
0.0
  0
LINE
  5
3697
330
1E
100
AcDbEntity
  8
7
100
AcDbLine
 10
4.433070866141731
 20
3.710629921259843
 30
0.0
 11
4.433070866141731
 21
3.718503937007874
 31
0.0
  0
LINE
  5
3698
330
1E
100
AcDbEntity
  8
7
100
AcDbLine
 10
4.464566929133857
 20
3.815944881889763
 30
0.0
 11
4.433070866141731
 21
3.815944881889763
 31
0.0
  0
LINE
  5
3699
330
1E
100
AcDbEntity
  8
7
100
AcDbLine
 10
4.433070866141731
 20
3.815944881889763
 30
0.0
 11
4.433070866141731
 21
3.718503937007874
 31
0.0
  0
LINE
  5
369A
330
1E
100
AcDbEntity
  8
7
100
AcDbLine
 10
4.433070866141731
 20
3.718503937007874
 30
0.0
 11
4.464566929133857
 21
3.718503937007874
 31
0.0
  0
LINE
  5
369B
330
1E
100
AcDbEntity
  8
7
100
AcDbLine
 10
4.433070866141731
 20
3.815944881889763
 30
0.0
 11
4.433070866141731
 21
3.822834645669291
 31
0.0
  0
LINE
  5
369C
330
1E
100
AcDbEntity
  8
7
100
AcDbLine
 10
4.433070866141731
 20
3.822834645669291
 30
0.0
 11
4.433070866141731
 21
3.825787401574803
 31
0.0
  0
LINE
  5
369D
330
1E
100
AcDbEntity
  8
7
100
AcDbLine
 10
4.433070866141731
 20
4.24015748031496
 30
0.0
 11
4.433070866141731
 21
4.243110236220472
 31
0.0
  0
LINE
  5
369E
330
1E
100
AcDbEntity
  8
7
100
AcDbLine
 10
4.433070866141731
 20
4.243110236220472
 30
0.0
 11
4.433070866141731
 21
4.25
 31
0.0
  0
LINE
  5
369F
330
1E
100
AcDbEntity
  8
7
100
AcDbLine
 10
4.464566929133857
 20
4.347440944881889
 30
0.0
 11
4.433070866141731
 21
4.348425196850393
 31
0.0
  0
LINE
  5
36A0
330
1E
100
AcDbEntity
  8
7
100
AcDbLine
 10
4.433070866141731
 20
4.348425196850393
 30
0.0
 11
4.433070866141731
 21
4.25
 31
0.0
  0
LINE
  5
36A1
330
1E
100
AcDbEntity
  8
7
100
AcDbLine
 10
4.433070866141731
 20
4.25
 30
0.0
 11
4.464566929133857
 21
4.250984251968503
 31
0.0
  0
LINE
  5
36A2
330
1E
100
AcDbEntity
  8
7
100
AcDbLine
 10
4.433070866141731
 20
4.348425196850393
 30
0.0
 11
4.433070866141731
 21
4.355314960629921
 31
0.0
  0
LINE
  5
36A3
330
1E
100
AcDbEntity
  8
7
100
AcDbLine
 10
4.433070866141731
 20
4.355314960629921
 30
0.0
 11
4.433070866141731
 21
4.358267716535432
 31
0.0
  0
LINE
  5
36A4
330
1E
100
AcDbEntity
  8
7
100
AcDbLine
 10
4.464566929133857
 20
4.250984251968503
 30
0.0
 11
4.465551181102362
 21
4.243110236220472
 31
0.0
  0
LINE
  5
36A5
330
1E
100
AcDbEntity
  8
7
100
AcDbLine
 10
4.465551181102362
 20
4.243110236220472
 30
0.0
 11
4.466535433070866
 21
4.24015748031496
 31
0.0
  0
LINE
  5
36A6
330
1E
100
AcDbEntity
  8
7
100
AcDbLine
 10
4.466535433070866
 20
4.357283464566928
 30
0.0
 11
4.465551181102362
 21
4.354330708661416
 31
0.0
  0
LINE
  5
36A7
330
1E
100
AcDbEntity
  8
7
100
AcDbLine
 10
4.465551181102362
 20
4.354330708661416
 30
0.0
 11
4.464566929133857
 21
4.347440944881889
 31
0.0
  0
LINE
  5
36A8
330
1E
100
AcDbEntity
  8
7
100
AcDbLine
 10
4.469488188976377
 20
4.241141732283463
 30
0.0
 11
4.470472440944881
 21
4.24015748031496
 31
0.0
  0
LINE
  5
36A9
330
1E
100
AcDbEntity
  8
7
100
AcDbLine
 10
4.470472440944881
 20
4.24015748031496
 30
0.0
 11
4.470472440944881
 21
4.358267716535432
 31
0.0
  0
LINE
  5
36AA
330
1E
100
AcDbEntity
  8
7
100
AcDbLine
 10
4.470472440944881
 20
4.358267716535432
 30
0.0
 11
4.469488188976377
 21
4.357283464566928
 31
0.0
  0
LINE
  5
36AB
330
1E
100
AcDbEntity
  8
7
100
AcDbLine
 10
4.464566929133857
 20
3.718503937007874
 30
0.0
 11
4.465551181102362
 21
3.711614173228346
 31
0.0
  0
LINE
  5
36AC
330
1E
100
AcDbEntity
  8
7
100
AcDbLine
 10
4.465551181102362
 20
3.711614173228346
 30
0.0
 11
4.466535433070866
 21
3.708661417322834
 31
0.0
  0
LINE
  5
36AD
330
1E
100
AcDbEntity
  8
7
100
AcDbLine
 10
4.466535433070866
 20
3.825787401574803
 30
0.0
 11
4.465551181102362
 21
3.822834645669291
 31
0.0
  0
LINE
  5
36AE
330
1E
100
AcDbEntity
  8
7
100
AcDbLine
 10
4.465551181102362
 20
3.822834645669291
 30
0.0
 11
4.464566929133857
 21
3.815944881889763
 31
0.0
  0
LINE
  5
36AF
330
1E
100
AcDbEntity
  8
7
100
AcDbLine
 10
4.469488188976377
 20
3.708661417322834
 30
0.0
 11
4.470472440944881
 21
3.707677165354331
 31
0.0
  0
LINE
  5
36B0
330
1E
100
AcDbEntity
  8
7
100
AcDbLine
 10
4.470472440944881
 20
3.707677165354331
 30
0.0
 11
4.470472440944881
 21
3.825787401574803
 31
0.0
  0
LINE
  5
36B1
330
1E
100
AcDbEntity
  8
7
100
AcDbLine
 10
4.470472440944881
 20
3.825787401574803
 30
0.0
 11
4.469488188976377
 21
3.825787401574803
 31
0.0
  0
LINE
  5
36B2
330
1E
100
AcDbEntity
  8
7
100
AcDbLine
 10
4.295275590551181
 20
3.74507874015748
 30
0.0
 11
4.295275590551181
 21
3.733267716535432
 31
0.0
  0
LINE
  5
36B3
330
1E
100
AcDbEntity
  8
7
100
AcDbLine
 10
4.295275590551181
 20
3.733267716535432
 30
0.0
 11
4.295275590551181
 21
3.723425196850393
 31
0.0
  0
LINE
  5
36B4
330
1E
100
AcDbEntity
  8
7
100
AcDbLine
 10
4.295275590551181
 20
3.723425196850393
 30
0.0
 11
4.295275590551181
 21
3.720472440944881
 31
0.0
  0
LINE
  5
36B5
330
1E
100
AcDbEntity
  8
7
100
AcDbLine
 10
4.276574803149605
 20
3.74015748031496
 30
0.0
 11
4.282480314960629
 21
3.726377952755905
 31
0.0
  0
LINE
  5
36B6
330
1E
100
AcDbEntity
  8
7
100
AcDbLine
 10
4.282480314960629
 20
3.726377952755905
 30
0.0
 11
4.296259842519685
 21
3.720472440944881
 31
0.0
  0
LINE
  5
36B7
330
1E
100
AcDbEntity
  8
7
100
AcDbLine
 10
4.295275590551181
 20
3.74507874015748
 30
0.0
 11
4.281496062992125
 21
3.74507874015748
 31
0.0
  0
LINE
  5
36B8
330
1E
100
AcDbEntity
  8
7
100
AcDbLine
 10
4.281496062992125
 20
3.74507874015748
 30
0.0
 11
4.275590551181101
 21
3.74507874015748
 31
0.0
  0
LINE
  5
36B9
330
1E
100
AcDbEntity
  8
7
100
AcDbLine
 10
4.295275590551181
 20
4.345472440944881
 30
0.0
 11
4.295275590551181
 21
4.342519685039369
 31
0.0
  0
LINE
  5
36BA
330
1E
100
AcDbEntity
  8
7
100
AcDbLine
 10
4.295275590551181
 20
4.342519685039369
 30
0.0
 11
4.295275590551181
 21
4.33267716535433
 31
0.0
  0
LINE
  5
36BB
330
1E
100
AcDbEntity
  8
7
100
AcDbLine
 10
4.295275590551181
 20
4.33267716535433
 30
0.0
 11
4.295275590551181
 21
4.320866141732283
 31
0.0
  0
LINE
  5
36BC
330
1E
100
AcDbEntity
  8
7
100
AcDbLine
 10
4.295275590551181
 20
4.320866141732283
 30
0.0
 11
4.281496062992125
 21
4.320866141732283
 31
0.0
  0
LINE
  5
36BD
330
1E
100
AcDbEntity
  8
7
100
AcDbLine
 10
4.281496062992125
 20
4.320866141732283
 30
0.0
 11
4.275590551181101
 21
4.320866141732283
 31
0.0
  0
LINE
  5
36BE
330
1E
100
AcDbEntity
  8
7
100
AcDbLine
 10
4.296259842519685
 20
4.345472440944881
 30
0.0
 11
4.282480314960629
 21
4.339566929133858
 31
0.0
  0
LINE
  5
36BF
330
1E
100
AcDbEntity
  8
7
100
AcDbLine
 10
4.282480314960629
 20
4.339566929133858
 30
0.0
 11
4.276574803149605
 21
4.325787401574802
 31
0.0
  0
LINE
  5
36C0
330
1E
100
AcDbEntity
  8
7
100
AcDbLine
 10
4.553149606299212
 20
3.605314960629921
 30
0.0
 11
4.553149606299212
 21
3.590551181102362
 31
0.0
  0
LINE
  5
36C1
330
1E
100
AcDbEntity
  8
7
100
AcDbLine
 10
4.553149606299212
 20
3.590551181102362
 30
0.0
 11
4.553149606299212
 21
3.584645669291338
 31
0.0
  0
LINE
  5
36C2
330
1E
100
AcDbEntity
  8
7
100
AcDbLine
 10
4.553149606299212
 20
3.584645669291338
 30
0.0
 11
4.433070866141731
 21
3.582677165354331
 31
0.0
  0
LINE
  5
36C3
330
1E
100
AcDbEntity
  8
7
100
AcDbLine
 10
4.433070866141731
 20
3.582677165354331
 30
0.0
 11
4.242125984251968
 21
3.586614173228346
 31
0.0
  0
LINE
  5
36C4
330
1E
100
AcDbEntity
  8
7
100
AcDbLine
 10
4.553149606299212
 20
3.682086614173228
 30
0.0
 11
4.553149606299212
 21
3.658464566929133
 31
0.0
  0
LINE
  5
36C5
330
1E
100
AcDbEntity
  8
7
100
AcDbLine
 10
4.553149606299212
 20
3.658464566929133
 30
0.0
 11
4.553149606299212
 21
3.638779527559055
 31
0.0
  0
LINE
  5
36C6
330
1E
100
AcDbEntity
  8
7
100
AcDbLine
 10
4.553149606299212
 20
3.638779527559055
 30
0.0
 11
4.553149606299212
 21
3.625984251968504
 31
0.0
  0
LINE
  5
36C7
330
1E
100
AcDbEntity
  8
7
100
AcDbLine
 10
4.553149606299212
 20
3.625984251968504
 30
0.0
 11
4.553149606299212
 21
3.622047244094488
 31
0.0
  0
LINE
  5
36C8
330
1E
100
AcDbEntity
  8
7
100
AcDbLine
 10
4.553149606299212
 20
4.15255905511811
 30
0.0
 11
4.553149606299212
 21
3.913385826771653
 31
0.0
  0
LINE
  5
36C9
330
1E
100
AcDbEntity
  8
7
100
AcDbLine
 10
4.553149606299212
 20
3.913385826771653
 30
0.0
 11
4.553149606299212
 21
3.898622047244094
 31
0.0
  0
LINE
  5
36CA
330
1E
100
AcDbEntity
  8
7
100
AcDbLine
 10
4.553149606299212
 20
3.898622047244094
 30
0.0
 11
4.553149606299212
 21
3.887795275590551
 31
0.0
  0
LINE
  5
36CB
330
1E
100
AcDbEntity
  8
7
100
AcDbLine
 10
4.553149606299212
 20
3.887795275590551
 30
0.0
 11
4.553149606299212
 21
3.883858267716535
 31
0.0
  0
LINE
  5
36CC
330
1E
100
AcDbEntity
  8
7
100
AcDbLine
 10
4.553149606299212
 20
3.883858267716535
 30
0.0
 11
4.553149606299212
 21
3.878937007874016
 31
0.0
  0
LINE
  5
36CD
330
1E
100
AcDbEntity
  8
7
100
AcDbLine
 10
4.553149606299212
 20
3.878937007874016
 30
0.0
 11
4.553149606299212
 21
3.868110236220472
 31
0.0
  0
LINE
  5
36CE
330
1E
100
AcDbEntity
  8
7
100
AcDbLine
 10
4.553149606299212
 20
3.868110236220472
 30
0.0
 11
4.553149606299212
 21
3.853346456692913
 31
0.0
  0
LINE
  5
36CF
330
1E
100
AcDbEntity
  8
7
100
AcDbLine
 10
4.553149606299212
 20
4.21259842519685
 30
0.0
 11
4.553149606299212
 21
4.19783464566929
 31
0.0
  0
LINE
  5
36D0
330
1E
100
AcDbEntity
  8
7
100
AcDbLine
 10
4.553149606299212
 20
4.19783464566929
 30
0.0
 11
4.553149606299212
 21
4.187007874015747
 31
0.0
  0
LINE
  5
36D1
330
1E
100
AcDbEntity
  8
7
100
AcDbLine
 10
4.553149606299212
 20
4.187007874015747
 30
0.0
 11
4.553149606299212
 21
4.183070866141731
 31
0.0
  0
LINE
  5
36D2
330
1E
100
AcDbEntity
  8
7
100
AcDbLine
 10
4.553149606299212
 20
4.183070866141731
 30
0.0
 11
4.553149606299212
 21
4.178149606299212
 31
0.0
  0
LINE
  5
36D3
330
1E
100
AcDbEntity
  8
7
100
AcDbLine
 10
4.553149606299212
 20
4.178149606299212
 30
0.0
 11
4.553149606299212
 21
4.167322834645668
 31
0.0
  0
LINE
  5
36D4
330
1E
100
AcDbEntity
  8
7
100
AcDbLine
 10
4.553149606299212
 20
4.167322834645668
 30
0.0
 11
4.553149606299212
 21
4.15255905511811
 31
0.0
  0
LINE
  5
36D5
330
1E
100
AcDbEntity
  8
7
100
AcDbLine
 10
4.553149606299212
 20
4.444881889763778
 30
0.0
 11
4.553149606299212
 21
4.439960629921259
 31
0.0
  0
LINE
  5
36D6
330
1E
100
AcDbEntity
  8
7
100
AcDbLine
 10
4.553149606299212
 20
4.439960629921259
 30
0.0
 11
4.553149606299212
 21
4.427165354330708
 31
0.0
  0
LINE
  5
36D7
330
1E
100
AcDbEntity
  8
7
100
AcDbLine
 10
4.553149606299212
 20
4.427165354330708
 30
0.0
 11
4.553149606299212
 21
4.407480314960629
 31
0.0
  0
LINE
  5
36D8
330
1E
100
AcDbEntity
  8
7
100
AcDbLine
 10
4.553149606299212
 20
4.407480314960629
 30
0.0
 11
4.553149606299212
 21
4.384842519685038
 31
0.0
  0
LINE
  5
36D9
330
1E
100
AcDbEntity
  8
7
100
AcDbLine
 10
4.553149606299212
 20
4.481299212598425
 30
0.0
 11
4.553149606299212
 21
4.4753937007874
 31
0.0
  0
LINE
  5
36DA
330
1E
100
AcDbEntity
  8
7
100
AcDbLine
 10
4.553149606299212
 20
4.4753937007874
 30
0.0
 11
4.553149606299212
 21
4.460629921259842
 31
0.0
  0
LINE
  5
36DB
330
1E
100
AcDbEntity
  8
7
100
AcDbLine
 10
4.553149606299212
 20
3.584645669291338
 30
0.0
 11
5.003937007874014
 21
3.600393700787401
 31
0.0
  0
LINE
  5
36DC
330
1E
100
AcDbEntity
  8
7
100
AcDbLine
 10
5.003937007874014
 20
3.600393700787401
 30
0.0
 11
5.010826771653542
 21
3.602362204724409
 31
0.0
  0
LINE
  5
36DD
330
1E
100
AcDbEntity
  8
7
100
AcDbLine
 10
5.010826771653542
 20
3.602362204724409
 30
0.0
 11
5.010826771653542
 21
3.649606299212598
 31
0.0
  0
LINE
  5
36DE
330
1E
100
AcDbEntity
  8
7
100
AcDbLine
 10
5.010826771653542
 20
3.649606299212598
 30
0.0
 11
5.003937007874014
 21
3.650590551181102
 31
0.0
  0
LINE
  5
36DF
330
1E
100
AcDbEntity
  8
7
100
AcDbLine
 10
5.003937007874014
 20
3.650590551181102
 30
0.0
 11
4.939960629921259
 21
3.65255905511811
 31
0.0
  0
LINE
  5
36E0
330
1E
100
AcDbEntity
  8
7
100
AcDbLine
 10
4.939960629921259
 20
3.65255905511811
 30
0.0
 11
4.917322834645668
 21
3.656496062992126
 31
0.0
  0
LINE
  5
36E1
330
1E
100
AcDbEntity
  8
7
100
AcDbLine
 10
4.917322834645668
 20
3.656496062992126
 30
0.0
 11
4.89763779527559
 21
3.669291338582677
 31
0.0
  0
LINE
  5
36E2
330
1E
100
AcDbEntity
  8
7
100
AcDbLine
 10
4.118110236220472
 20
4.394685039370078
 30
0.0
 11
4.118110236220472
 21
4.414370078740157
 31
0.0
  0
LINE
  5
36E3
330
1E
100
AcDbEntity
  8
7
100
AcDbLine
 10
4.118110236220472
 20
4.414370078740157
 30
0.0
 11
4.118110236220472
 21
4.314960629921259
 31
0.0
  0
LINE
  5
36E4
330
1E
100
AcDbEntity
  8
7
100
AcDbLine
 10
4.118110236220472
 20
4.394685039370078
 30
0.0
 11
4.118110236220472
 21
4.414370078740157
 31
0.0
  0
LINE
  5
36E5
330
1E
100
AcDbEntity
  8
7
100
AcDbLine
 10
4.118110236220472
 20
4.414370078740157
 30
0.0
 11
4.118110236220472
 21
4.314960629921259
 31
0.0
  0
LINE
  5
36E6
330
1E
100
AcDbEntity
  8
7
100
AcDbLine
 10
4.118110236220472
 20
4.314960629921259
 30
0.0
 11
4.118110236220472
 21
4.414370078740157
 31
0.0
  0
LINE
  5
36E7
330
1E
100
AcDbEntity
  8
7
100
AcDbLine
 10
2.043307086614173
 20
3.686023622047243
 30
0.0
 11
2.043307086614173
 21
3.688976377952756
 31
0.0
  0
LINE
  5
36E8
330
1E
100
AcDbEntity
  8
7
100
AcDbLine
 10
2.043307086614173
 20
3.688976377952756
 30
0.0
 11
2.043307086614173
 21
3.695866141732283
 31
0.0
  0
LINE
  5
36E9
330
1E
100
AcDbEntity
  8
7
100
AcDbLine
 10
1.901574803149606
 20
3.695866141732283
 30
0.0
 11
1.901574803149606
 21
3.688976377952756
 31
0.0
  0
LINE
  5
36EA
330
1E
100
AcDbEntity
  8
7
100
AcDbLine
 10
1.901574803149606
 20
3.688976377952756
 30
0.0
 11
1.901574803149606
 21
3.686023622047243
 31
0.0
  0
LINE
  5
36EB
330
1E
100
AcDbEntity
  8
7
100
AcDbLine
 10
2.053149606299212
 20
3.695866141732283
 30
0.0
 11
2.0501968503937
 21
3.695866141732283
 31
0.0
  0
LINE
  5
36EC
330
1E
100
AcDbEntity
  8
7
100
AcDbLine
 10
2.0501968503937
 20
3.695866141732283
 30
0.0
 11
2.043307086614173
 21
3.695866141732283
 31
0.0
  0
LINE
  5
36ED
330
1E
100
AcDbEntity
  8
7
100
AcDbLine
 10
1.901574803149606
 20
3.695866141732283
 30
0.0
 11
1.894685039370078
 21
3.695866141732283
 31
0.0
  0
LINE
  5
36EE
330
1E
100
AcDbEntity
  8
7
100
AcDbLine
 10
1.894685039370078
 20
3.695866141732283
 30
0.0
 11
1.891732283464566
 21
3.695866141732283
 31
0.0
  0
LINE
  5
36EF
330
1E
100
AcDbEntity
  8
7
100
AcDbLine
 10
2.053149606299212
 20
3.721456692913385
 30
0.0
 11
2.0501968503937
 21
3.721456692913385
 31
0.0
  0
LINE
  5
36F0
330
1E
100
AcDbEntity
  8
7
100
AcDbLine
 10
2.0501968503937
 20
3.721456692913385
 30
0.0
 11
2.043307086614173
 21
3.721456692913385
 31
0.0
  0
LINE
  5
36F1
330
1E
100
AcDbEntity
  8
7
100
AcDbLine
 10
1.901574803149606
 20
3.721456692913385
 30
0.0
 11
1.894685039370078
 21
3.721456692913385
 31
0.0
  0
LINE
  5
36F2
330
1E
100
AcDbEntity
  8
7
100
AcDbLine
 10
1.894685039370078
 20
3.721456692913385
 30
0.0
 11
1.891732283464566
 21
3.721456692913385
 31
0.0
  0
LINE
  5
36F3
330
1E
100
AcDbEntity
  8
7
100
AcDbLine
 10
1.901574803149606
 20
3.721456692913385
 30
0.0
 11
1.901574803149606
 21
3.728346456692913
 31
0.0
  0
LINE
  5
36F4
330
1E
100
AcDbEntity
  8
7
100
AcDbLine
 10
1.901574803149606
 20
3.728346456692913
 30
0.0
 11
1.901574803149606
 21
3.731299212598425
 31
0.0
  0
LINE
  5
36F5
330
1E
100
AcDbEntity
  8
7
100
AcDbLine
 10
2.043307086614173
 20
3.731299212598425
 30
0.0
 11
2.043307086614173
 21
3.728346456692913
 31
0.0
  0
LINE
  5
36F6
330
1E
100
AcDbEntity
  8
7
100
AcDbLine
 10
2.043307086614173
 20
3.728346456692913
 30
0.0
 11
2.043307086614173
 21
3.721456692913385
 31
0.0
  0
LINE
  5
36F7
330
1E
100
AcDbEntity
  8
7
100
AcDbLine
 10
1.901574803149606
 20
3.686023622047243
 30
0.0
 11
1.894685039370078
 21
3.688976377952756
 31
0.0
  0
LINE
  5
36F8
330
1E
100
AcDbEntity
  8
7
100
AcDbLine
 10
1.894685039370078
 20
3.688976377952756
 30
0.0
 11
1.891732283464566
 21
3.695866141732283
 31
0.0
  0
LINE
  5
36F9
330
1E
100
AcDbEntity
  8
7
100
AcDbLine
 10
1.891732283464566
 20
3.721456692913385
 30
0.0
 11
1.894685039370078
 21
3.728346456692913
 31
0.0
  0
LINE
  5
36FA
330
1E
100
AcDbEntity
  8
7
100
AcDbLine
 10
1.894685039370078
 20
3.728346456692913
 30
0.0
 11
1.901574803149606
 21
3.731299212598425
 31
0.0
  0
LINE
  5
36FB
330
1E
100
AcDbEntity
  8
7
100
AcDbLine
 10
2.043307086614173
 20
3.731299212598425
 30
0.0
 11
2.0501968503937
 21
3.728346456692913
 31
0.0
  0
LINE
  5
36FC
330
1E
100
AcDbEntity
  8
7
100
AcDbLine
 10
2.0501968503937
 20
3.728346456692913
 30
0.0
 11
2.053149606299212
 21
3.721456692913385
 31
0.0
  0
LINE
  5
36FD
330
1E
100
AcDbEntity
  8
7
100
AcDbLine
 10
2.053149606299212
 20
3.695866141732283
 30
0.0
 11
2.0501968503937
 21
3.688976377952756
 31
0.0
  0
LINE
  5
36FE
330
1E
100
AcDbEntity
  8
7
100
AcDbLine
 10
2.0501968503937
 20
3.688976377952756
 30
0.0
 11
2.043307086614173
 21
3.686023622047243
 31
0.0
  0
LINE
  5
36FF
330
1E
100
AcDbEntity
  8
7
100
AcDbLine
 10
1.888779527559055
 20
3.695866141732283
 30
0.0
 11
1.891732283464566
 21
3.695866141732283
 31
0.0
  0
LINE
  5
3700
330
1E
100
AcDbEntity
  8
7
100
AcDbLine
 10
1.891732283464566
 20
3.695866141732283
 30
0.0
 11
1.891732283464566
 21
3.721456692913385
 31
0.0
  0
LINE
  5
3701
330
1E
100
AcDbEntity
  8
7
100
AcDbLine
 10
1.891732283464566
 20
3.721456692913385
 30
0.0
 11
1.888779527559055
 21
3.721456692913385
 31
0.0
  0
LINE
  5
3702
330
1E
100
AcDbEntity
  8
7
100
AcDbLine
 10
2.056102362204724
 20
3.721456692913385
 30
0.0
 11
2.053149606299212
 21
3.721456692913385
 31
0.0
  0
LINE
  5
3703
330
1E
100
AcDbEntity
  8
7
100
AcDbLine
 10
2.053149606299212
 20
3.721456692913385
 30
0.0
 11
2.053149606299212
 21
3.695866141732283
 31
0.0
  0
LINE
  5
3704
330
1E
100
AcDbEntity
  8
7
100
AcDbLine
 10
1.901574803149606
 20
3.721456692913385
 30
0.0
 11
1.901574803149606
 21
3.695866141732283
 31
0.0
  0
LINE
  5
3705
330
1E
100
AcDbEntity
  8
7
100
AcDbLine
 10
1.901574803149606
 20
3.695866141732283
 30
0.0
 11
2.043307086614173
 21
3.695866141732283
 31
0.0
  0
LINE
  5
3706
330
1E
100
AcDbEntity
  8
7
100
AcDbLine
 10
2.043307086614173
 20
3.695866141732283
 30
0.0
 11
2.043307086614173
 21
3.721456692913385
 31
0.0
  0
LINE
  5
3707
330
1E
100
AcDbEntity
  8
7
100
AcDbLine
 10
2.043307086614173
 20
3.721456692913385
 30
0.0
 11
1.901574803149606
 21
3.721456692913385
 31
0.0
  0
LINE
  5
3708
330
1E
100
AcDbEntity
  8
7
100
AcDbLine
 10
1.682086614173228
 20
3.686023622047243
 30
0.0
 11
1.68503937007874
 21
3.688976377952756
 31
0.0
  0
LINE
  5
3709
330
1E
100
AcDbEntity
  8
7
100
AcDbLine
 10
1.68503937007874
 20
3.688976377952756
 30
0.0
 11
1.691929133858267
 21
3.695866141732283
 31
0.0
  0
LINE
  5
370A
330
1E
100
AcDbEntity
  8
7
100
AcDbLine
 10
1.898622047244094
 20
3.686023622047243
 30
0.0
 11
1.891732283464566
 21
3.688976377952756
 31
0.0
  0
LINE
  5
370B
330
1E
100
AcDbEntity
  8
7
100
AcDbLine
 10
1.891732283464566
 20
3.688976377952756
 30
0.0
 11
1.888779527559055
 21
3.695866141732283
 31
0.0
  0
LINE
  5
370C
330
1E
100
AcDbEntity
  8
7
100
AcDbLine
 10
1.691929133858267
 20
3.721456692913385
 30
0.0
 11
1.68503937007874
 21
3.728346456692913
 31
0.0
  0
LINE
  5
370D
330
1E
100
AcDbEntity
  8
7
100
AcDbLine
 10
1.68503937007874
 20
3.728346456692913
 30
0.0
 11
1.682086614173228
 21
3.731299212598425
 31
0.0
  0
LINE
  5
370E
330
1E
100
AcDbEntity
  8
7
100
AcDbLine
 10
1.888779527559055
 20
3.721456692913385
 30
0.0
 11
1.891732283464566
 21
3.728346456692913
 31
0.0
  0
LINE
  5
370F
330
1E
100
AcDbEntity
  8
7
100
AcDbLine
 10
1.891732283464566
 20
3.728346456692913
 30
0.0
 11
1.898622047244094
 21
3.731299212598425
 31
0.0
  0
LINE
  5
3710
330
1E
100
AcDbEntity
  8
7
100
AcDbLine
 10
2.043307086614173
 20
3.686023622047243
 30
0.0
 11
1.901574803149606
 21
3.686023622047243
 31
0.0
  0
LINE
  5
3711
330
1E
100
AcDbEntity
  8
7
100
AcDbLine
 10
1.901574803149606
 20
3.686023622047243
 30
0.0
 11
1.900590551181102
 21
3.686023622047243
 31
0.0
  0
LINE
  5
3712
330
1E
100
AcDbEntity
  8
7
100
AcDbLine
 10
1.888779527559055
 20
3.721456692913385
 30
0.0
 11
1.691929133858267
 21
3.721456692913385
 31
0.0
  0
LINE
  5
3713
330
1E
100
AcDbEntity
  8
7
100
AcDbLine
 10
1.691929133858267
 20
3.721456692913385
 30
0.0
 11
1.691929133858267
 21
3.695866141732283
 31
0.0
  0
LINE
  5
3714
330
1E
100
AcDbEntity
  8
7
100
AcDbLine
 10
1.898622047244094
 20
3.731299212598425
 30
0.0
 11
1.901574803149606
 21
3.731299212598425
 31
0.0
  0
LINE
  5
3715
330
1E
100
AcDbEntity
  8
7
100
AcDbLine
 10
1.901574803149606
 20
3.731299212598425
 30
0.0
 11
2.043307086614173
 21
3.731299212598425
 31
0.0
  0
LINE
  5
3716
330
1E
100
AcDbEntity
  8
7
100
AcDbLine
 10
2.043307086614173
 20
3.731299212598425
 30
0.0
 11
2.046259842519685
 21
3.731299212598425
 31
0.0
  0
LINE
  5
3717
330
1E
100
AcDbEntity
  8
7
100
AcDbLine
 10
2.261811023622047
 20
3.686023622047243
 30
0.0
 11
2.258858267716535
 21
3.688976377952756
 31
0.0
  0
LINE
  5
3718
330
1E
100
AcDbEntity
  8
7
100
AcDbLine
 10
2.258858267716535
 20
3.688976377952756
 30
0.0
 11
2.251968503937007
 21
3.695866141732283
 31
0.0
  0
LINE
  5
3719
330
1E
100
AcDbEntity
  8
7
100
AcDbLine
 10
2.056102362204724
 20
3.695866141732283
 30
0.0
 11
2.053149606299212
 21
3.688976377952756
 31
0.0
  0
LINE
  5
371A
330
1E
100
AcDbEntity
  8
7
100
AcDbLine
 10
2.053149606299212
 20
3.688976377952756
 30
0.0
 11
2.046259842519685
 21
3.686023622047243
 31
0.0
  0
LINE
  5
371B
330
1E
100
AcDbEntity
  8
7
100
AcDbLine
 10
2.251968503937007
 20
3.721456692913385
 30
0.0
 11
2.258858267716535
 21
3.728346456692913
 31
0.0
  0
LINE
  5
371C
330
1E
100
AcDbEntity
  8
7
100
AcDbLine
 10
2.258858267716535
 20
3.728346456692913
 30
0.0
 11
2.261811023622047
 21
3.731299212598425
 31
0.0
  0
LINE
  5
371D
330
1E
100
AcDbEntity
  8
7
100
AcDbLine
 10
2.046259842519685
 20
3.731299212598425
 30
0.0
 11
2.053149606299212
 21
3.728346456692913
 31
0.0
  0
LINE
  5
371E
330
1E
100
AcDbEntity
  8
7
100
AcDbLine
 10
2.053149606299212
 20
3.728346456692913
 30
0.0
 11
2.056102362204724
 21
3.721456692913385
 31
0.0
  0
LINE
  5
371F
330
1E
100
AcDbEntity
  8
7
100
AcDbLine
 10
2.056102362204724
 20
3.695866141732283
 30
0.0
 11
2.251968503937007
 21
3.695866141732283
 31
0.0
  0
LINE
  5
3720
330
1E
100
AcDbEntity
  8
7
100
AcDbLine
 10
2.251968503937007
 20
3.695866141732283
 30
0.0
 11
2.251968503937007
 21
3.721456692913385
 31
0.0
  0
LINE
  5
3721
330
1E
100
AcDbEntity
  8
7
100
AcDbLine
 10
2.251968503937007
 20
3.721456692913385
 30
0.0
 11
2.056102362204724
 21
3.721456692913385
 31
0.0
  0
LINE
  5
3722
330
1E
100
AcDbEntity
  8
7
100
AcDbLine
 10
1.439960629921259
 20
4.479330708661416
 30
0.0
 11
1.426181102362204
 21
4.473425196850393
 31
0.0
  0
LINE
  5
3723
330
1E
100
AcDbEntity
  8
7
100
AcDbLine
 10
1.426181102362204
 20
4.473425196850393
 30
0.0
 11
1.420275590551181
 21
4.459645669291337
 31
0.0
  0
LINE
  5
3724
330
1E
100
AcDbEntity
  8
7
100
AcDbLine
 10
1.65748031496063
 20
4.479330708661416
 30
0.0
 11
1.439960629921259
 21
4.479330708661416
 31
0.0
  0
LINE
  5
3725
330
1E
100
AcDbEntity
  8
7
100
AcDbLine
 10
1.439960629921259
 20
4.479330708661416
 30
0.0
 11
1.441929133858267
 21
4.477362204724409
 31
0.0
  0
LINE
  5
3726
330
1E
100
AcDbEntity
  8
7
100
AcDbLine
 10
1.422244094488188
 20
4.45767716535433
 30
0.0
 11
1.420275590551181
 21
4.459645669291337
 31
0.0
  0
LINE
  5
3727
330
1E
100
AcDbEntity
  8
7
100
AcDbLine
 10
1.420275590551181
 20
4.459645669291337
 30
0.0
 11
1.420275590551181
 21
4.27755905511811
 31
0.0
  0
LINE
  5
3728
330
1E
100
AcDbEntity
  8
7
100
AcDbLine
 10
2.506889763779527
 20
3.608267716535432
 30
0.0
 11
2.51771653543307
 21
3.608267716535432
 31
0.0
  0
LINE
  5
3729
330
1E
100
AcDbEntity
  8
7
100
AcDbLine
 10
2.51771653543307
 20
3.608267716535432
 30
0.0
 11
2.521653543307086
 21
3.608267716535432
 31
0.0
  0
LINE
  5
372A
330
1E
100
AcDbEntity
  8
7
100
AcDbLine
 10
2.521653543307086
 20
3.608267716535432
 30
0.0
 11
2.515748031496062
 21
3.594488188976378
 31
0.0
  0
LINE
  5
372B
330
1E
100
AcDbEntity
  8
7
100
AcDbLine
 10
2.515748031496062
 20
3.594488188976378
 30
0.0
 11
2.501968503937007
 21
3.588582677165354
 31
0.0
  0
LINE
  5
372C
330
1E
100
AcDbEntity
  8
7
100
AcDbLine
 10
2.501968503937007
 20
3.603346456692913
 30
0.0
 11
2.501968503937007
 21
3.592519685039369
 31
0.0
  0
LINE
  5
372D
330
1E
100
AcDbEntity
  8
7
100
AcDbLine
 10
2.501968503937007
 20
3.592519685039369
 30
0.0
 11
2.501968503937007
 21
3.588582677165354
 31
0.0
  0
LINE
  5
372E
330
1E
100
AcDbEntity
  8
7
100
AcDbLine
 10
2.501968503937007
 20
4.477362204724409
 30
0.0
 11
2.515748031496062
 21
4.471456692913385
 31
0.0
  0
LINE
  5
372F
330
1E
100
AcDbEntity
  8
7
100
AcDbLine
 10
2.515748031496062
 20
4.471456692913385
 30
0.0
 11
2.521653543307086
 21
4.45767716535433
 31
0.0
  0
LINE
  5
3730
330
1E
100
AcDbEntity
  8
7
100
AcDbLine
 10
2.506889763779527
 20
4.45767716535433
 30
0.0
 11
2.51771653543307
 21
4.45767716535433
 31
0.0
  0
LINE
  5
3731
330
1E
100
AcDbEntity
  8
7
100
AcDbLine
 10
2.51771653543307
 20
4.45767716535433
 30
0.0
 11
2.521653543307086
 21
4.45767716535433
 31
0.0
  0
LINE
  5
3732
330
1E
100
AcDbEntity
  8
7
100
AcDbLine
 10
2.501968503937007
 20
4.477362204724409
 30
0.0
 11
2.501968503937007
 21
4.473425196850393
 31
0.0
  0
LINE
  5
3733
330
1E
100
AcDbEntity
  8
7
100
AcDbLine
 10
2.501968503937007
 20
4.473425196850393
 30
0.0
 11
2.501968503937007
 21
4.46259842519685
 31
0.0
  0
LINE
  5
3734
330
1E
100
AcDbEntity
  8
7
100
AcDbLine
 10
1.422244094488188
 20
4.45767716535433
 30
0.0
 11
1.428149606299212
 21
4.471456692913385
 31
0.0
  0
LINE
  5
3735
330
1E
100
AcDbEntity
  8
7
100
AcDbLine
 10
1.428149606299212
 20
4.471456692913385
 30
0.0
 11
1.441929133858267
 21
4.477362204724409
 31
0.0
  0
LINE
  5
3736
330
1E
100
AcDbEntity
  8
7
100
AcDbLine
 10
1.441929133858267
 20
4.477362204724409
 30
0.0
 11
1.441929133858267
 21
4.473425196850393
 31
0.0
  0
LINE
  5
3737
330
1E
100
AcDbEntity
  8
7
100
AcDbLine
 10
1.441929133858267
 20
4.473425196850393
 30
0.0
 11
1.441929133858267
 21
4.46259842519685
 31
0.0
  0
LINE
  5
3738
330
1E
100
AcDbEntity
  8
7
100
AcDbLine
 10
1.422244094488188
 20
4.45767716535433
 30
0.0
 11
1.427165354330708
 21
4.45767716535433
 31
0.0
  0
LINE
  5
3739
330
1E
100
AcDbEntity
  8
7
100
AcDbLine
 10
1.427165354330708
 20
4.45767716535433
 30
0.0
 11
1.437007874015748
 21
4.45767716535433
 31
0.0
  0
LINE
  5
373A
330
1E
100
AcDbEntity
  8
7
100
AcDbLine
 10
1.441929133858267
 20
3.603346456692913
 30
0.0
 11
1.441929133858267
 21
3.592519685039369
 31
0.0
  0
LINE
  5
373B
330
1E
100
AcDbEntity
  8
7
100
AcDbLine
 10
1.441929133858267
 20
3.592519685039369
 30
0.0
 11
1.441929133858267
 21
3.588582677165354
 31
0.0
  0
LINE
  5
373C
330
1E
100
AcDbEntity
  8
7
100
AcDbLine
 10
1.441929133858267
 20
3.588582677165354
 30
0.0
 11
1.428149606299212
 21
3.594488188976378
 31
0.0
  0
LINE
  5
373D
330
1E
100
AcDbEntity
  8
7
100
AcDbLine
 10
1.428149606299212
 20
3.594488188976378
 30
0.0
 11
1.422244094488188
 21
3.608267716535432
 31
0.0
  0
LINE
  5
373E
330
1E
100
AcDbEntity
  8
7
100
AcDbLine
 10
1.422244094488188
 20
3.608267716535432
 30
0.0
 11
1.427165354330708
 21
3.608267716535432
 31
0.0
  0
LINE
  5
373F
330
1E
100
AcDbEntity
  8
7
100
AcDbLine
 10
1.427165354330708
 20
3.608267716535432
 30
0.0
 11
1.437007874015748
 21
3.608267716535432
 31
0.0
  0
LINE
  5
3740
330
1E
100
AcDbEntity
  8
7
100
AcDbLine
 10
2.523622047244094
 20
4.459645669291337
 30
0.0
 11
2.51771653543307
 21
4.473425196850393
 31
0.0
  0
LINE
  5
3741
330
1E
100
AcDbEntity
  8
7
100
AcDbLine
 10
2.51771653543307
 20
4.473425196850393
 30
0.0
 11
2.503937007874015
 21
4.479330708661416
 31
0.0
  0
LINE
  5
3742
330
1E
100
AcDbEntity
  8
7
100
AcDbLine
 10
1.420275590551181
 20
3.606299212598425
 30
0.0
 11
1.426181102362204
 21
3.592519685039369
 31
0.0
  0
LINE
  5
3743
330
1E
100
AcDbEntity
  8
7
100
AcDbLine
 10
1.426181102362204
 20
3.592519685039369
 30
0.0
 11
1.439960629921259
 21
3.586614173228346
 31
0.0
  0
LINE
  5
3744
330
1E
100
AcDbEntity
  8
7
100
AcDbLine
 10
2.503937007874015
 20
3.586614173228346
 30
0.0
 11
2.51771653543307
 21
3.592519685039369
 31
0.0
  0
LINE
  5
3745
330
1E
100
AcDbEntity
  8
7
100
AcDbLine
 10
2.51771653543307
 20
3.592519685039369
 30
0.0
 11
2.523622047244094
 21
3.606299212598425
 31
0.0
  0
LINE
  5
3746
330
1E
100
AcDbEntity
  8
7
100
AcDbLine
 10
1.426181102362204
 20
4.473425196850393
 30
0.0
 11
1.422244094488188
 21
4.469488188976377
 31
0.0
  0
LINE
  5
3747
330
1E
100
AcDbEntity
  8
7
100
AcDbLine
 10
1.422244094488188
 20
4.469488188976377
 30
0.0
 11
1.420275590551181
 21
4.465551181102362
 31
0.0
  0
LINE
  5
3748
330
1E
100
AcDbEntity
  8
7
100
AcDbLine
 10
1.420275590551181
 20
4.465551181102362
 30
0.0
 11
1.420275590551181
 21
4.460629921259842
 31
0.0
  0
LINE
  5
3749
330
1E
100
AcDbEntity
  8
7
100
AcDbLine
 10
1.420275590551181
 20
3.605314960629921
 30
0.0
 11
1.420275590551181
 21
3.601377952755905
 31
0.0
  0
LINE
  5
374A
330
1E
100
AcDbEntity
  8
7
100
AcDbLine
 10
1.420275590551181
 20
3.601377952755905
 30
0.0
 11
1.422244094488188
 21
3.596456692913385
 31
0.0
  0
LINE
  5
374B
330
1E
100
AcDbEntity
  8
7
100
AcDbLine
 10
1.422244094488188
 20
3.596456692913385
 30
0.0
 11
1.426181102362204
 21
3.592519685039369
 31
0.0
  0
LINE
  5
374C
330
1E
100
AcDbEntity
  8
7
100
AcDbLine
 10
1.417322834645669
 20
3.603346456692913
 30
0.0
 11
1.423228346456693
 21
3.588582677165354
 31
0.0
  0
LINE
  5
374D
330
1E
100
AcDbEntity
  8
7
100
AcDbLine
 10
1.423228346456693
 20
3.588582677165354
 30
0.0
 11
1.437007874015748
 21
3.582677165354331
 31
0.0
  0
LINE
  5
374E
330
1E
100
AcDbEntity
  8
7
100
AcDbLine
 10
1.437007874015748
 20
4.483267716535432
 30
0.0
 11
1.423228346456693
 21
4.477362204724409
 31
0.0
  0
LINE
  5
374F
330
1E
100
AcDbEntity
  8
7
100
AcDbLine
 10
1.423228346456693
 20
4.477362204724409
 30
0.0
 11
1.417322834645669
 21
4.46259842519685
 31
0.0
  0
LINE
  5
3750
330
1E
100
AcDbEntity
  8
7
100
AcDbLine
 10
1.419291338582677
 20
4.345472440944881
 30
0.0
 11
1.419291338582677
 21
4.339566929133858
 31
0.0
  0
LINE
  5
3751
330
1E
100
AcDbEntity
  8
7
100
AcDbLine
 10
1.419291338582677
 20
4.339566929133858
 30
0.0
 11
1.420275590551181
 21
4.325787401574802
 31
0.0
  0
LINE
  5
3752
330
1E
100
AcDbEntity
  8
7
100
AcDbLine
 10
1.419291338582677
 20
3.720472440944881
 30
0.0
 11
1.419291338582677
 21
3.726377952755905
 31
0.0
  0
LINE
  5
3753
330
1E
100
AcDbEntity
  8
7
100
AcDbLine
 10
1.419291338582677
 20
3.726377952755905
 30
0.0
 11
1.420275590551181
 21
3.74015748031496
 31
0.0
  0
LINE
  5
3754
330
1E
100
AcDbEntity
  8
7
100
AcDbLine
 10
1.417322834645669
 20
3.718503937007874
 30
0.0
 11
1.419291338582677
 21
3.720472440944881
 31
0.0
  0
LINE
  5
3755
330
1E
100
AcDbEntity
  8
7
100
AcDbLine
 10
1.419291338582677
 20
3.720472440944881
 30
0.0
 11
1.369094488188976
 21
3.720472440944881
 31
0.0
  0
LINE
  5
3756
330
1E
100
AcDbEntity
  8
7
100
AcDbLine
 10
1.145669291338582
 20
3.679133858267716
 30
0.0
 11
1.150590551181102
 21
3.656496062992126
 31
0.0
  0
LINE
  5
3757
330
1E
100
AcDbEntity
  8
7
100
AcDbLine
 10
1.150590551181102
 20
3.656496062992126
 30
0.0
 11
1.163385826771653
 21
3.636811023622047
 31
0.0
  0
LINE
  5
3758
330
1E
100
AcDbEntity
  8
7
100
AcDbLine
 10
1.163385826771653
 20
3.636811023622047
 30
0.0
 11
1.183070866141732
 21
3.624015748031495
 31
0.0
  0
LINE
  5
3759
330
1E
100
AcDbEntity
  8
7
100
AcDbLine
 10
1.183070866141732
 20
3.624015748031495
 30
0.0
 11
1.205708661417322
 21
3.619094488188976
 31
0.0
  0
LINE
  5
375A
330
1E
100
AcDbEntity
  8
7
100
AcDbLine
 10
1.190944881889763
 20
3.889763779527558
 30
0.0
 11
1.1751968503937
 21
3.885826771653542
 31
0.0
  0
LINE
  5
375B
330
1E
100
AcDbEntity
  8
7
100
AcDbLine
 10
1.1751968503937
 20
3.885826771653542
 30
0.0
 11
1.160433070866141
 21
3.881889763779527
 31
0.0
  0
LINE
  5
375C
330
1E
100
AcDbEntity
  8
7
100
AcDbLine
 10
1.160433070866141
 20
3.881889763779527
 30
0.0
 11
1.149606299212598
 21
3.87007874015748
 31
0.0
  0
LINE
  5
375D
330
1E
100
AcDbEntity
  8
7
100
AcDbLine
 10
1.149606299212598
 20
3.87007874015748
 30
0.0
 11
1.145669291338582
 21
3.855314960629921
 31
0.0
  0
LINE
  5
375E
330
1E
100
AcDbEntity
  8
7
100
AcDbLine
 10
1.145669291338582
 20
4.210629921259842
 30
0.0
 11
1.149606299212598
 21
4.195866141732283
 31
0.0
  0
LINE
  5
375F
330
1E
100
AcDbEntity
  8
7
100
AcDbLine
 10
1.149606299212598
 20
4.195866141732283
 30
0.0
 11
1.160433070866141
 21
4.185039370078739
 31
0.0
  0
LINE
  5
3760
330
1E
100
AcDbEntity
  8
7
100
AcDbLine
 10
1.160433070866141
 20
4.185039370078739
 30
0.0
 11
1.1751968503937
 21
4.18011811023622
 31
0.0
  0
LINE
  5
3761
330
1E
100
AcDbEntity
  8
7
100
AcDbLine
 10
1.1751968503937
 20
4.18011811023622
 30
0.0
 11
1.190944881889763
 21
4.176181102362204
 31
0.0
  0
LINE
  5
3762
330
1E
100
AcDbEntity
  8
7
100
AcDbLine
 10
1.190944881889763
 20
4.176181102362204
 30
0.0
 11
1.201771653543306
 21
4.165354330708661
 31
0.0
  0
LINE
  5
3763
330
1E
100
AcDbEntity
  8
7
100
AcDbLine
 10
1.201771653543306
 20
4.165354330708661
 30
0.0
 11
1.205708661417322
 21
4.150590551181101
 31
0.0
  0
LINE
  5
3764
330
1E
100
AcDbEntity
  8
7
100
AcDbLine
 10
1.205708661417322
 20
4.150590551181101
 30
0.0
 11
1.205708661417322
 21
3.915354330708661
 31
0.0
  0
LINE
  5
3765
330
1E
100
AcDbEntity
  8
7
100
AcDbLine
 10
1.205708661417322
 20
3.915354330708661
 30
0.0
 11
1.201771653543306
 21
3.900590551181102
 31
0.0
  0
LINE
  5
3766
330
1E
100
AcDbEntity
  8
7
100
AcDbLine
 10
1.201771653543306
 20
3.900590551181102
 30
0.0
 11
1.190944881889763
 21
3.889763779527558
 31
0.0
  0
LINE
  5
3767
330
1E
100
AcDbEntity
  8
7
100
AcDbLine
 10
1.205708661417322
 20
4.446850393700787
 30
0.0
 11
1.183070866141732
 21
4.441929133858267
 31
0.0
  0
LINE
  5
3768
330
1E
100
AcDbEntity
  8
7
100
AcDbLine
 10
1.183070866141732
 20
4.441929133858267
 30
0.0
 11
1.163385826771653
 21
4.429133858267715
 31
0.0
  0
LINE
  5
3769
330
1E
100
AcDbEntity
  8
7
100
AcDbLine
 10
1.163385826771653
 20
4.429133858267715
 30
0.0
 11
1.150590551181102
 21
4.409448818897637
 31
0.0
  0
LINE
  5
376A
330
1E
100
AcDbEntity
  8
7
100
AcDbLine
 10
1.150590551181102
 20
4.409448818897637
 30
0.0
 11
1.145669291338582
 21
4.386811023622047
 31
0.0
  0
LINE
  5
376B
330
1E
100
AcDbEntity
  8
7
100
AcDbLine
 10
1.369094488188976
 20
4.325787401574802
 30
0.0
 11
1.369094488188976
 21
4.339566929133858
 31
0.0
  0
LINE
  5
376C
330
1E
100
AcDbEntity
  8
7
100
AcDbLine
 10
1.369094488188976
 20
4.339566929133858
 30
0.0
 11
1.369094488188976
 21
4.345472440944881
 31
0.0
  0
LINE
  5
376D
330
1E
100
AcDbEntity
  8
7
100
AcDbLine
 10
1.369094488188976
 20
3.74015748031496
 30
0.0
 11
1.369094488188976
 21
3.726377952755905
 31
0.0
  0
LINE
  5
376E
330
1E
100
AcDbEntity
  8
7
100
AcDbLine
 10
1.369094488188976
 20
3.726377952755905
 30
0.0
 11
1.369094488188976
 21
3.720472440944881
 31
0.0
  0
LINE
  5
376F
330
1E
100
AcDbEntity
  8
7
100
AcDbLine
 10
1.364173228346456
 20
3.74507874015748
 30
0.0
 11
1.350393700787401
 21
3.74507874015748
 31
0.0
  0
LINE
  5
3770
330
1E
100
AcDbEntity
  8
7
100
AcDbLine
 10
1.350393700787401
 20
3.74507874015748
 30
0.0
 11
1.344488188976378
 21
3.74507874015748
 31
0.0
  0
LINE
  5
3771
330
1E
100
AcDbEntity
  8
7
100
AcDbLine
 10
1.364173228346456
 20
4.320866141732283
 30
0.0
 11
1.350393700787401
 21
4.320866141732283
 31
0.0
  0
LINE
  5
3772
330
1E
100
AcDbEntity
  8
7
100
AcDbLine
 10
1.350393700787401
 20
4.320866141732283
 30
0.0
 11
1.344488188976378
 21
4.320866141732283
 31
0.0
  0
LINE
  5
3773
330
1E
100
AcDbEntity
  8
7
100
AcDbLine
 10
1.367125984251968
 20
3.718503937007874
 30
0.0
 11
1.354330708661417
 21
3.721456692913385
 31
0.0
  0
LINE
  5
3774
330
1E
100
AcDbEntity
  8
7
100
AcDbLine
 10
1.354330708661417
 20
3.721456692913385
 30
0.0
 11
1.345472440944881
 21
3.730314960629921
 31
0.0
  0
LINE
  5
3775
330
1E
100
AcDbEntity
  8
7
100
AcDbLine
 10
1.345472440944881
 20
3.730314960629921
 30
0.0
 11
1.34251968503937
 21
3.743110236220472
 31
0.0
  0
LINE
  5
3776
330
1E
100
AcDbEntity
  8
7
100
AcDbLine
 10
1.369094488188976
 20
3.720472440944881
 30
0.0
 11
1.357283464566929
 21
3.723425196850393
 31
0.0
  0
LINE
  5
3777
330
1E
100
AcDbEntity
  8
7
100
AcDbLine
 10
1.357283464566929
 20
3.723425196850393
 30
0.0
 11
1.347440944881889
 21
3.733267716535432
 31
0.0
  0
LINE
  5
3778
330
1E
100
AcDbEntity
  8
7
100
AcDbLine
 10
1.347440944881889
 20
3.733267716535432
 30
0.0
 11
1.344488188976378
 21
3.74507874015748
 31
0.0
  0
LINE
  5
3779
330
1E
100
AcDbEntity
  8
7
100
AcDbLine
 10
1.34251968503937
 20
3.743110236220472
 30
0.0
 11
1.344488188976378
 21
3.74507874015748
 31
0.0
  0
LINE
  5
377A
330
1E
100
AcDbEntity
  8
7
100
AcDbLine
 10
1.344488188976378
 20
3.74507874015748
 30
0.0
 11
1.344488188976378
 21
4.320866141732283
 31
0.0
  0
LINE
  5
377B
330
1E
100
AcDbEntity
  8
7
100
AcDbLine
 10
1.321850393700787
 20
3.889763779527558
 30
0.0
 11
1.34251968503937
 21
3.889763779527558
 31
0.0
  0
LINE
  5
377C
330
1E
100
AcDbEntity
  8
7
100
AcDbLine
 10
1.34251968503937
 20
3.889763779527558
 30
0.0
 11
1.343503937007874
 21
3.890748031496063
 31
0.0
  0
LINE
  5
377D
330
1E
100
AcDbEntity
  8
7
100
AcDbLine
 10
1.34251968503937
 20
4.32283464566929
 30
0.0
 11
1.345472440944881
 21
4.335629921259842
 31
0.0
  0
LINE
  5
377E
330
1E
100
AcDbEntity
  8
7
100
AcDbLine
 10
1.345472440944881
 20
4.335629921259842
 30
0.0
 11
1.354330708661417
 21
4.344488188976377
 31
0.0
  0
LINE
  5
377F
330
1E
100
AcDbEntity
  8
7
100
AcDbLine
 10
1.354330708661417
 20
4.344488188976377
 30
0.0
 11
1.367125984251968
 21
4.348425196850393
 31
0.0
  0
LINE
  5
3780
330
1E
100
AcDbEntity
  8
7
100
AcDbLine
 10
1.344488188976378
 20
4.320866141732283
 30
0.0
 11
1.347440944881889
 21
4.33267716535433
 31
0.0
  0
LINE
  5
3781
330
1E
100
AcDbEntity
  8
7
100
AcDbLine
 10
1.347440944881889
 20
4.33267716535433
 30
0.0
 11
1.357283464566929
 21
4.342519685039369
 31
0.0
  0
LINE
  5
3782
330
1E
100
AcDbEntity
  8
7
100
AcDbLine
 10
1.357283464566929
 20
4.342519685039369
 30
0.0
 11
1.369094488188976
 21
4.345472440944881
 31
0.0
  0
LINE
  5
3783
330
1E
100
AcDbEntity
  8
7
100
AcDbLine
 10
1.145669291338582
 20
4.368110236220472
 30
0.0
 11
1.14271653543307
 21
4.361220472440944
 31
0.0
  0
LINE
  5
3784
330
1E
100
AcDbEntity
  8
7
100
AcDbLine
 10
1.14271653543307
 20
4.361220472440944
 30
0.0
 11
1.135826771653543
 21
4.358267716535432
 31
0.0
  0
LINE
  5
3785
330
1E
100
AcDbEntity
  8
7
100
AcDbLine
 10
1.116141732283464
 20
4.358267716535432
 30
0.0
 11
1.109251968503937
 21
4.355314960629921
 31
0.0
  0
LINE
  5
3786
330
1E
100
AcDbEntity
  8
7
100
AcDbLine
 10
1.109251968503937
 20
4.355314960629921
 30
0.0
 11
1.106299212598425
 21
4.348425196850393
 31
0.0
  0
LINE
  5
3787
330
1E
100
AcDbEntity
  8
7
100
AcDbLine
 10
1.106299212598425
 20
4.25
 30
0.0
 11
1.109251968503937
 21
4.243110236220472
 31
0.0
  0
LINE
  5
3788
330
1E
100
AcDbEntity
  8
7
100
AcDbLine
 10
1.109251968503937
 20
4.243110236220472
 30
0.0
 11
1.116141732283464
 21
4.24015748031496
 31
0.0
  0
LINE
  5
3789
330
1E
100
AcDbEntity
  8
7
100
AcDbLine
 10
1.135826771653543
 20
4.24015748031496
 30
0.0
 11
1.14271653543307
 21
4.237204724409448
 31
0.0
  0
LINE
  5
378A
330
1E
100
AcDbEntity
  8
7
100
AcDbLine
 10
1.14271653543307
 20
4.237204724409448
 30
0.0
 11
1.145669291338582
 21
4.230314960629921
 31
0.0
  0
LINE
  5
378B
330
1E
100
AcDbEntity
  8
7
100
AcDbLine
 10
1.145669291338582
 20
3.835629921259842
 30
0.0
 11
1.14271653543307
 21
3.828740157480315
 31
0.0
  0
LINE
  5
378C
330
1E
100
AcDbEntity
  8
7
100
AcDbLine
 10
1.14271653543307
 20
3.828740157480315
 30
0.0
 11
1.135826771653543
 21
3.825787401574803
 31
0.0
  0
LINE
  5
378D
330
1E
100
AcDbEntity
  8
7
100
AcDbLine
 10
1.116141732283464
 20
3.825787401574803
 30
0.0
 11
1.109251968503937
 21
3.822834645669291
 31
0.0
  0
LINE
  5
378E
330
1E
100
AcDbEntity
  8
7
100
AcDbLine
 10
1.109251968503937
 20
3.822834645669291
 30
0.0
 11
1.106299212598425
 21
3.815944881889763
 31
0.0
  0
LINE
  5
378F
330
1E
100
AcDbEntity
  8
7
100
AcDbLine
 10
1.106299212598425
 20
3.718503937007874
 30
0.0
 11
1.109251968503937
 21
3.710629921259843
 31
0.0
  0
LINE
  5
3790
330
1E
100
AcDbEntity
  8
7
100
AcDbLine
 10
1.109251968503937
 20
3.710629921259843
 30
0.0
 11
1.116141732283464
 21
3.707677165354331
 31
0.0
  0
LINE
  5
3791
330
1E
100
AcDbEntity
  8
7
100
AcDbLine
 10
1.135826771653543
 20
3.707677165354331
 30
0.0
 11
1.14271653543307
 21
3.704724409448818
 31
0.0
  0
LINE
  5
3792
330
1E
100
AcDbEntity
  8
7
100
AcDbLine
 10
1.14271653543307
 20
3.704724409448818
 30
0.0
 11
1.145669291338582
 21
3.697834645669291
 31
0.0
  0
LINE
  5
3793
330
1E
100
AcDbEntity
  8
7
100
AcDbLine
 10
2.506889763779527
 20
3.582677165354331
 30
0.0
 11
2.521653543307086
 21
3.588582677165354
 31
0.0
  0
LINE
  5
3794
330
1E
100
AcDbEntity
  8
7
100
AcDbLine
 10
2.521653543307086
 20
3.588582677165354
 30
0.0
 11
2.52755905511811
 21
3.603346456692913
 31
0.0
  0
LINE
  5
3795
330
1E
100
AcDbEntity
  8
7
100
AcDbLine
 10
2.518700787401574
 20
3.592519685039369
 30
0.0
 11
2.521653543307086
 21
3.596456692913385
 31
0.0
  0
LINE
  5
3796
330
1E
100
AcDbEntity
  8
7
100
AcDbLine
 10
2.521653543307086
 20
3.596456692913385
 30
0.0
 11
2.523622047244094
 21
3.601377952755905
 31
0.0
  0
LINE
  5
3797
330
1E
100
AcDbEntity
  8
7
100
AcDbLine
 10
2.523622047244094
 20
3.601377952755905
 30
0.0
 11
2.524606299212598
 21
3.605314960629921
 31
0.0
  0
LINE
  5
3798
330
1E
100
AcDbEntity
  8
7
100
AcDbLine
 10
2.524606299212598
 20
3.74015748031496
 30
0.0
 11
2.524606299212598
 21
3.605314960629921
 31
0.0
  0
LINE
  5
3799
330
1E
100
AcDbEntity
  8
7
100
AcDbLine
 10
2.524606299212598
 20
3.605314960629921
 30
0.0
 11
2.52755905511811
 21
3.603346456692913
 31
0.0
  0
LINE
  5
379A
330
1E
100
AcDbEntity
  8
7
100
AcDbLine
 10
2.524606299212598
 20
4.460629921259842
 30
0.0
 11
2.523622047244094
 21
4.465551181102362
 31
0.0
  0
LINE
  5
379B
330
1E
100
AcDbEntity
  8
7
100
AcDbLine
 10
2.523622047244094
 20
4.465551181102362
 30
0.0
 11
2.521653543307086
 21
4.469488188976377
 31
0.0
  0
LINE
  5
379C
330
1E
100
AcDbEntity
  8
7
100
AcDbLine
 10
2.521653543307086
 20
4.469488188976377
 30
0.0
 11
2.518700787401574
 21
4.473425196850393
 31
0.0
  0
LINE
  5
379D
330
1E
100
AcDbEntity
  8
7
100
AcDbLine
 10
2.798228346456693
 20
4.386811023622047
 30
0.0
 11
2.794291338582677
 21
4.409448818897637
 31
0.0
  0
LINE
  5
379E
330
1E
100
AcDbEntity
  8
7
100
AcDbLine
 10
2.794291338582677
 20
4.409448818897637
 30
0.0
 11
2.781496062992125
 21
4.429133858267715
 31
0.0
  0
LINE
  5
379F
330
1E
100
AcDbEntity
  8
7
100
AcDbLine
 10
2.781496062992125
 20
4.429133858267715
 30
0.0
 11
2.761811023622047
 21
4.441929133858267
 31
0.0
  0
LINE
  5
37A0
330
1E
100
AcDbEntity
  8
7
100
AcDbLine
 10
2.761811023622047
 20
4.441929133858267
 30
0.0
 11
2.738188976377952
 21
4.446850393700787
 31
0.0
  0
LINE
  5
37A1
330
1E
100
AcDbEntity
  8
7
100
AcDbLine
 10
2.783464566929133
 20
4.185039370078739
 30
0.0
 11
2.794291338582677
 21
4.195866141732283
 31
0.0
  0
LINE
  5
37A2
330
1E
100
AcDbEntity
  8
7
100
AcDbLine
 10
2.794291338582677
 20
4.195866141732283
 30
0.0
 11
2.798228346456693
 21
4.210629921259842
 31
0.0
  0
LINE
  5
37A3
330
1E
100
AcDbEntity
  8
7
100
AcDbLine
 10
2.798228346456693
 20
3.855314960629921
 30
0.0
 11
2.794291338582677
 21
3.87007874015748
 31
0.0
  0
LINE
  5
37A4
330
1E
100
AcDbEntity
  8
7
100
AcDbLine
 10
2.794291338582677
 20
3.87007874015748
 30
0.0
 11
2.783464566929133
 21
3.881889763779527
 31
0.0
  0
LINE
  5
37A5
330
1E
100
AcDbEntity
  8
7
100
AcDbLine
 10
2.783464566929133
 20
3.881889763779527
 30
0.0
 11
2.768700787401574
 21
3.885826771653542
 31
0.0
  0
LINE
  5
37A6
330
1E
100
AcDbEntity
  8
7
100
AcDbLine
 10
2.768700787401574
 20
3.885826771653542
 30
0.0
 11
2.753937007874015
 21
3.889763779527558
 31
0.0
  0
LINE
  5
37A7
330
1E
100
AcDbEntity
  8
7
100
AcDbLine
 10
2.753937007874015
 20
3.889763779527558
 30
0.0
 11
2.743110236220472
 21
3.900590551181102
 31
0.0
  0
LINE
  5
37A8
330
1E
100
AcDbEntity
  8
7
100
AcDbLine
 10
2.743110236220472
 20
3.900590551181102
 30
0.0
 11
2.738188976377952
 21
3.915354330708661
 31
0.0
  0
LINE
  5
37A9
330
1E
100
AcDbEntity
  8
7
100
AcDbLine
 10
2.738188976377952
 20
3.915354330708661
 30
0.0
 11
2.738188976377952
 21
4.150590551181101
 31
0.0
  0
LINE
  5
37AA
330
1E
100
AcDbEntity
  8
7
100
AcDbLine
 10
2.738188976377952
 20
4.150590551181101
 30
0.0
 11
2.743110236220472
 21
4.165354330708661
 31
0.0
  0
LINE
  5
37AB
330
1E
100
AcDbEntity
  8
7
100
AcDbLine
 10
2.743110236220472
 20
4.165354330708661
 30
0.0
 11
2.753937007874015
 21
4.176181102362204
 31
0.0
  0
LINE
  5
37AC
330
1E
100
AcDbEntity
  8
7
100
AcDbLine
 10
2.753937007874015
 20
4.176181102362204
 30
0.0
 11
2.768700787401574
 21
4.18011811023622
 31
0.0
  0
LINE
  5
37AD
330
1E
100
AcDbEntity
  8
7
100
AcDbLine
 10
2.768700787401574
 20
4.18011811023622
 30
0.0
 11
2.783464566929133
 21
4.185039370078739
 31
0.0
  0
LINE
  5
37AE
330
1E
100
AcDbEntity
  8
7
100
AcDbLine
 10
2.738188976377952
 20
3.619094488188976
 30
0.0
 11
2.761811023622047
 21
3.624015748031495
 31
0.0
  0
LINE
  5
37AF
330
1E
100
AcDbEntity
  8
7
100
AcDbLine
 10
2.761811023622047
 20
3.624015748031495
 30
0.0
 11
2.781496062992125
 21
3.636811023622047
 31
0.0
  0
LINE
  5
37B0
330
1E
100
AcDbEntity
  8
7
100
AcDbLine
 10
2.781496062992125
 20
3.636811023622047
 30
0.0
 11
2.794291338582677
 21
3.656496062992126
 31
0.0
  0
LINE
  5
37B1
330
1E
100
AcDbEntity
  8
7
100
AcDbLine
 10
2.794291338582677
 20
3.656496062992126
 30
0.0
 11
2.798228346456693
 21
3.679133858267716
 31
0.0
  0
LINE
  5
37B2
330
1E
100
AcDbEntity
  8
7
100
AcDbLine
 10
2.798228346456693
 20
4.230314960629921
 30
0.0
 11
2.801181102362204
 21
4.237204724409448
 31
0.0
  0
LINE
  5
37B3
330
1E
100
AcDbEntity
  8
7
100
AcDbLine
 10
2.801181102362204
 20
4.237204724409448
 30
0.0
 11
2.809055118110236
 21
4.24015748031496
 31
0.0
  0
LINE
  5
37B4
330
1E
100
AcDbEntity
  8
7
100
AcDbLine
 10
2.809055118110236
 20
4.358267716535432
 30
0.0
 11
2.801181102362204
 21
4.361220472440944
 31
0.0
  0
LINE
  5
37B5
330
1E
100
AcDbEntity
  8
7
100
AcDbLine
 10
2.801181102362204
 20
4.361220472440944
 30
0.0
 11
2.798228346456693
 21
4.368110236220472
 31
0.0
  0
LINE
  5
37B6
330
1E
100
AcDbEntity
  8
7
100
AcDbLine
 10
2.798228346456693
 20
3.697834645669291
 30
0.0
 11
2.801181102362204
 21
3.704724409448818
 31
0.0
  0
LINE
  5
37B7
330
1E
100
AcDbEntity
  8
7
100
AcDbLine
 10
2.801181102362204
 20
3.704724409448818
 30
0.0
 11
2.809055118110236
 21
3.707677165354331
 31
0.0
  0
LINE
  5
37B8
330
1E
100
AcDbEntity
  8
7
100
AcDbLine
 10
2.809055118110236
 20
3.825787401574803
 30
0.0
 11
2.801181102362204
 21
3.828740157480315
 31
0.0
  0
LINE
  5
37B9
330
1E
100
AcDbEntity
  8
7
100
AcDbLine
 10
2.801181102362204
 20
3.828740157480315
 30
0.0
 11
2.798228346456693
 21
3.835629921259842
 31
0.0
  0
LINE
  5
37BA
330
1E
100
AcDbEntity
  8
7
100
AcDbLine
 10
2.524606299212598
 20
3.720472440944881
 30
0.0
 11
2.524606299212598
 21
3.726377952755905
 31
0.0
  0
LINE
  5
37BB
330
1E
100
AcDbEntity
  8
7
100
AcDbLine
 10
2.524606299212598
 20
3.726377952755905
 30
0.0
 11
2.524606299212598
 21
3.74015748031496
 31
0.0
  0
LINE
  5
37BC
330
1E
100
AcDbEntity
  8
7
100
AcDbLine
 10
2.524606299212598
 20
4.325787401574802
 30
0.0
 11
2.524606299212598
 21
4.339566929133858
 31
0.0
  0
LINE
  5
37BD
330
1E
100
AcDbEntity
  8
7
100
AcDbLine
 10
2.524606299212598
 20
4.339566929133858
 30
0.0
 11
2.524606299212598
 21
4.345472440944881
 31
0.0
  0
LINE
  5
37BE
330
1E
100
AcDbEntity
  8
7
100
AcDbLine
 10
2.602362204724409
 20
3.743110236220472
 30
0.0
 11
2.598425196850393
 21
3.730314960629921
 31
0.0
  0
LINE
  5
37BF
330
1E
100
AcDbEntity
  8
7
100
AcDbLine
 10
2.598425196850393
 20
3.730314960629921
 30
0.0
 11
2.589566929133858
 21
3.721456692913385
 31
0.0
  0
LINE
  5
37C0
330
1E
100
AcDbEntity
  8
7
100
AcDbLine
 10
2.827755905511811
 20
3.707677165354331
 30
0.0
 11
2.834645669291338
 21
3.710629921259843
 31
0.0
  0
LINE
  5
37C1
330
1E
100
AcDbEntity
  8
7
100
AcDbLine
 10
2.834645669291338
 20
3.710629921259843
 30
0.0
 11
2.83759842519685
 21
3.718503937007874
 31
0.0
  0
LINE
  5
37C2
330
1E
100
AcDbEntity
  8
7
100
AcDbLine
 10
2.83759842519685
 20
3.815944881889763
 30
0.0
 11
2.834645669291338
 21
3.822834645669291
 31
0.0
  0
LINE
  5
37C3
330
1E
100
AcDbEntity
  8
7
100
AcDbLine
 10
2.834645669291338
 20
3.822834645669291
 30
0.0
 11
2.827755905511811
 21
3.825787401574803
 31
0.0
  0
LINE
  5
37C4
330
1E
100
AcDbEntity
  8
7
100
AcDbLine
 10
2.827755905511811
 20
4.24015748031496
 30
0.0
 11
2.834645669291338
 21
4.243110236220472
 31
0.0
  0
LINE
  5
37C5
330
1E
100
AcDbEntity
  8
7
100
AcDbLine
 10
2.834645669291338
 20
4.243110236220472
 30
0.0
 11
2.83759842519685
 21
4.25
 31
0.0
  0
LINE
  5
37C6
330
1E
100
AcDbEntity
  8
7
100
AcDbLine
 10
2.83759842519685
 20
4.348425196850393
 30
0.0
 11
2.834645669291338
 21
4.355314960629921
 31
0.0
  0
LINE
  5
37C7
330
1E
100
AcDbEntity
  8
7
100
AcDbLine
 10
2.834645669291338
 20
4.355314960629921
 30
0.0
 11
2.827755905511811
 21
4.358267716535432
 31
0.0
  0
LINE
  5
37C8
330
1E
100
AcDbEntity
  8
7
100
AcDbLine
 10
2.576771653543306
 20
4.348425196850393
 30
0.0
 11
2.589566929133858
 21
4.344488188976377
 31
0.0
  0
LINE
  5
37C9
330
1E
100
AcDbEntity
  8
7
100
AcDbLine
 10
2.589566929133858
 20
4.344488188976377
 30
0.0
 11
2.598425196850393
 21
4.335629921259842
 31
0.0
  0
LINE
  5
37CA
330
1E
100
AcDbEntity
  8
7
100
AcDbLine
 10
2.598425196850393
 20
4.335629921259842
 30
0.0
 11
2.602362204724409
 21
4.32283464566929
 31
0.0
  0
LINE
  5
37CB
330
1E
100
AcDbEntity
  8
7
100
AcDbLine
 10
2.599409448818897
 20
3.74507874015748
 30
0.0
 11
2.596456692913385
 21
3.733267716535432
 31
0.0
  0
LINE
  5
37CC
330
1E
100
AcDbEntity
  8
7
100
AcDbLine
 10
2.596456692913385
 20
3.733267716535432
 30
0.0
 11
2.58759842519685
 21
3.723425196850393
 31
0.0
  0
LINE
  5
37CD
330
1E
100
AcDbEntity
  8
7
100
AcDbLine
 10
2.58759842519685
 20
3.723425196850393
 30
0.0
 11
2.574803149606299
 21
3.720472440944881
 31
0.0
  0
LINE
  5
37CE
330
1E
100
AcDbEntity
  8
7
100
AcDbLine
 10
2.574803149606299
 20
3.720472440944881
 30
0.0
 11
2.574803149606299
 21
3.726377952755905
 31
0.0
  0
LINE
  5
37CF
330
1E
100
AcDbEntity
  8
7
100
AcDbLine
 10
2.574803149606299
 20
3.726377952755905
 30
0.0
 11
2.574803149606299
 21
3.74015748031496
 31
0.0
  0
LINE
  5
37D0
330
1E
100
AcDbEntity
  8
7
100
AcDbLine
 10
2.599409448818897
 20
3.74507874015748
 30
0.0
 11
2.593503937007874
 21
3.74507874015748
 31
0.0
  0
LINE
  5
37D1
330
1E
100
AcDbEntity
  8
7
100
AcDbLine
 10
2.593503937007874
 20
3.74507874015748
 30
0.0
 11
2.579724409448818
 21
3.74507874015748
 31
0.0
  0
LINE
  5
37D2
330
1E
100
AcDbEntity
  8
7
100
AcDbLine
 10
2.574803149606299
 20
4.345472440944881
 30
0.0
 11
2.58759842519685
 21
4.342519685039369
 31
0.0
  0
LINE
  5
37D3
330
1E
100
AcDbEntity
  8
7
100
AcDbLine
 10
2.58759842519685
 20
4.342519685039369
 30
0.0
 11
2.596456692913385
 21
4.33267716535433
 31
0.0
  0
LINE
  5
37D4
330
1E
100
AcDbEntity
  8
7
100
AcDbLine
 10
2.596456692913385
 20
4.33267716535433
 30
0.0
 11
2.599409448818897
 21
4.320866141732283
 31
0.0
  0
LINE
  5
37D5
330
1E
100
AcDbEntity
  8
7
100
AcDbLine
 10
2.599409448818897
 20
4.320866141732283
 30
0.0
 11
2.593503937007874
 21
4.320866141732283
 31
0.0
  0
LINE
  5
37D6
330
1E
100
AcDbEntity
  8
7
100
AcDbLine
 10
2.593503937007874
 20
4.320866141732283
 30
0.0
 11
2.579724409448818
 21
4.320866141732283
 31
0.0
  0
LINE
  5
37D7
330
1E
100
AcDbEntity
  8
7
100
AcDbLine
 10
2.574803149606299
 20
4.345472440944881
 30
0.0
 11
2.574803149606299
 21
4.339566929133858
 31
0.0
  0
LINE
  5
37D8
330
1E
100
AcDbEntity
  8
7
100
AcDbLine
 10
2.574803149606299
 20
4.339566929133858
 30
0.0
 11
2.574803149606299
 21
4.325787401574802
 31
0.0
  0
LINE
  5
37D9
330
1E
100
AcDbEntity
  8
7
100
AcDbLine
 10
2.506889763779527
 20
3.582677165354331
 30
0.0
 11
2.314960629921259
 21
3.582677165354331
 31
0.0
  0
LINE
  5
37DA
330
1E
100
AcDbEntity
  8
7
100
AcDbLine
 10
2.314960629921259
 20
3.582677165354331
 30
0.0
 11
2.292322834645669
 21
3.582677165354331
 31
0.0
  0
LINE
  5
37DB
330
1E
100
AcDbEntity
  8
7
100
AcDbLine
 10
1.65255905511811
 20
4.479330708661416
 30
0.0
 11
1.439960629921259
 21
4.479330708661416
 31
0.0
  0
LINE
  5
37DC
330
1E
100
AcDbEntity
  8
7
100
AcDbLine
 10
1.439960629921259
 20
4.479330708661416
 30
0.0
 11
1.426181102362204
 21
4.473425196850393
 31
0.0
  0
LINE
  5
37DD
330
1E
100
AcDbEntity
  8
7
100
AcDbLine
 10
2.518700787401574
 20
4.473425196850393
 30
0.0
 11
2.503937007874015
 21
4.479330708661416
 31
0.0
  0
LINE
  5
37DE
330
1E
100
AcDbEntity
  8
7
100
AcDbLine
 10
2.503937007874015
 20
4.479330708661416
 30
0.0
 11
2.292322834645669
 21
4.479330708661416
 31
0.0
  0
LINE
  5
37DF
330
1E
100
AcDbEntity
  8
7
100
AcDbLine
 10
1.426181102362204
 20
3.592519685039369
 30
0.0
 11
1.439960629921259
 21
3.586614173228346
 31
0.0
  0
LINE
  5
37E0
330
1E
100
AcDbEntity
  8
7
100
AcDbLine
 10
1.439960629921259
 20
3.586614173228346
 30
0.0
 11
2.503937007874015
 21
3.586614173228346
 31
0.0
  0
LINE
  5
37E1
330
1E
100
AcDbEntity
  8
7
100
AcDbLine
 10
2.503937007874015
 20
3.586614173228346
 30
0.0
 11
2.518700787401574
 21
3.592519685039369
 31
0.0
  0
LINE
  5
37E2
330
1E
100
AcDbEntity
  8
7
100
AcDbLine
 10
2.043307086614173
 20
5.604330708661416
 30
0.0
 11
2.0501968503937
 21
5.607283464566928
 31
0.0
  0
LINE
  5
37E3
330
1E
100
AcDbEntity
  8
7
100
AcDbLine
 10
2.0501968503937
 20
5.607283464566928
 30
0.0
 11
2.053149606299212
 21
5.614173228346456
 31
0.0
  0
LINE
  5
37E4
330
1E
100
AcDbEntity
  8
7
100
AcDbLine
 10
1.891732283464566
 20
5.614173228346456
 30
0.0
 11
1.894685039370078
 21
5.607283464566928
 31
0.0
  0
LINE
  5
37E5
330
1E
100
AcDbEntity
  8
7
100
AcDbLine
 10
1.894685039370078
 20
5.607283464566928
 30
0.0
 11
1.901574803149606
 21
5.604330708661416
 31
0.0
  0
LINE
  5
37E6
330
1E
100
AcDbEntity
  8
7
100
AcDbLine
 10
1.901574803149606
 20
5.604330708661416
 30
0.0
 11
1.901574803149606
 21
5.607283464566928
 31
0.0
  0
LINE
  5
37E7
330
1E
100
AcDbEntity
  8
7
100
AcDbLine
 10
1.901574803149606
 20
5.607283464566928
 30
0.0
 11
1.901574803149606
 21
5.614173228346456
 31
0.0
  0
LINE
  5
37E8
330
1E
100
AcDbEntity
  8
7
100
AcDbLine
 10
2.043307086614173
 20
5.614173228346456
 30
0.0
 11
2.043307086614173
 21
5.607283464566928
 31
0.0
  0
LINE
  5
37E9
330
1E
100
AcDbEntity
  8
7
100
AcDbLine
 10
2.043307086614173
 20
5.607283464566928
 30
0.0
 11
2.043307086614173
 21
5.604330708661416
 31
0.0
  0
LINE
  5
37EA
330
1E
100
AcDbEntity
  8
7
100
AcDbLine
 10
1.891732283464566
 20
5.614173228346456
 30
0.0
 11
1.894685039370078
 21
5.614173228346456
 31
0.0
  0
LINE
  5
37EB
330
1E
100
AcDbEntity
  8
7
100
AcDbLine
 10
1.894685039370078
 20
5.614173228346456
 30
0.0
 11
1.901574803149606
 21
5.614173228346456
 31
0.0
  0
LINE
  5
37EC
330
1E
100
AcDbEntity
  8
7
100
AcDbLine
 10
2.043307086614173
 20
5.614173228346456
 30
0.0
 11
2.0501968503937
 21
5.614173228346456
 31
0.0
  0
LINE
  5
37ED
330
1E
100
AcDbEntity
  8
7
100
AcDbLine
 10
2.0501968503937
 20
5.614173228346456
 30
0.0
 11
2.053149606299212
 21
5.614173228346456
 31
0.0
  0
LINE
  5
37EE
330
1E
100
AcDbEntity
  8
7
100
AcDbLine
 10
1.900590551181102
 20
5.633858267716535
 30
0.0
 11
1.901574803149606
 21
5.614173228346456
 31
0.0
  0
LINE
  5
37EF
330
1E
100
AcDbEntity
  8
7
100
AcDbLine
 10
1.901574803149606
 20
5.614173228346456
 30
0.0
 11
2.043307086614173
 21
5.614173228346456
 31
0.0
  0
LINE
  5
37F0
330
1E
100
AcDbEntity
  8
7
100
AcDbLine
 10
1.670275590551181
 20
5.858267716535432
 30
0.0
 11
1.663385826771653
 21
5.855314960629921
 31
0.0
  0
LINE
  5
37F1
330
1E
100
AcDbEntity
  8
7
100
AcDbLine
 10
1.663385826771653
 20
5.855314960629921
 30
0.0
 11
1.660433070866141
 21
5.848425196850393
 31
0.0
  0
LINE
  5
37F2
330
1E
100
AcDbEntity
  8
7
100
AcDbLine
 10
2.284448818897637
 20
5.848425196850393
 30
0.0
 11
2.280511811023622
 21
5.855314960629921
 31
0.0
  0
LINE
  5
37F3
330
1E
100
AcDbEntity
  8
7
100
AcDbLine
 10
2.280511811023622
 20
5.855314960629921
 30
0.0
 11
2.273622047244094
 21
5.858267716535432
 31
0.0
  0
LINE
  5
37F4
330
1E
100
AcDbEntity
  8
7
100
AcDbLine
 10
1.439960629921259
 20
5.758858267716535
 30
0.0
 11
1.426181102362204
 21
5.758858267716535
 31
0.0
  0
LINE
  5
37F5
330
1E
100
AcDbEntity
  8
7
100
AcDbLine
 10
1.426181102362204
 20
5.758858267716535
 30
0.0
 11
1.420275590551181
 21
5.758858267716535
 31
0.0
  0
LINE
  5
37F6
330
1E
100
AcDbEntity
  8
7
100
AcDbLine
 10
2.287401574803149
 20
5.758858267716535
 30
0.0
 11
1.65748031496063
 21
5.758858267716535
 31
0.0
  0
LINE
  5
37F7
330
1E
100
AcDbEntity
  8
7
100
AcDbLine
 10
1.65748031496063
 20
5.758858267716535
 30
0.0
 11
1.439960629921259
 21
5.758858267716535
 31
0.0
  0
LINE
  5
37F8
330
1E
100
AcDbEntity
  8
7
100
AcDbLine
 10
1.439960629921259
 20
5.758858267716535
 30
0.0
 11
1.441929133858267
 21
5.648622047244094
 31
0.0
  0
LINE
  5
37F9
330
1E
100
AcDbEntity
  8
7
100
AcDbLine
 10
2.501968503937007
 20
5.648622047244094
 30
0.0
 11
2.515748031496062
 21
5.648622047244094
 31
0.0
  0
LINE
  5
37FA
330
1E
100
AcDbEntity
  8
7
100
AcDbLine
 10
2.515748031496062
 20
5.648622047244094
 30
0.0
 11
2.521653543307086
 21
5.648622047244094
 31
0.0
  0
LINE
  5
37FB
330
1E
100
AcDbEntity
  8
7
100
AcDbLine
 10
2.506889763779527
 20
5.634842519685038
 30
0.0
 11
2.51771653543307
 21
5.638779527559054
 31
0.0
  0
LINE
  5
37FC
330
1E
100
AcDbEntity
  8
7
100
AcDbLine
 10
2.51771653543307
 20
5.638779527559054
 30
0.0
 11
2.521653543307086
 21
5.649606299212598
 31
0.0
  0
LINE
  5
37FD
330
1E
100
AcDbEntity
  8
7
100
AcDbLine
 10
2.501968503937007
 20
5.648622047244094
 30
0.0
 11
2.501968503937007
 21
5.638779527559054
 31
0.0
  0
LINE
  5
37FE
330
1E
100
AcDbEntity
  8
7
100
AcDbLine
 10
2.501968503937007
 20
5.638779527559054
 30
0.0
 11
2.501968503937007
 21
5.633858267716535
 31
0.0
  0
LINE
  5
37FF
330
1E
100
AcDbEntity
  8
7
100
AcDbLine
 10
1.428149606299212
 20
5.648622047244094
 30
0.0
 11
1.441929133858267
 21
5.648622047244094
 31
0.0
  0
LINE
  5
3800
330
1E
100
AcDbEntity
  8
7
100
AcDbLine
 10
1.441929133858267
 20
5.648622047244094
 30
0.0
 11
2.501968503937007
 21
5.648622047244094
 31
0.0
  0
LINE
  5
3801
330
1E
100
AcDbEntity
  8
7
100
AcDbLine
 10
1.441929133858267
 20
5.648622047244094
 30
0.0
 11
1.441929133858267
 21
5.638779527559054
 31
0.0
  0
LINE
  5
3802
330
1E
100
AcDbEntity
  8
7
100
AcDbLine
 10
1.441929133858267
 20
5.638779527559054
 30
0.0
 11
1.441929133858267
 21
5.633858267716535
 31
0.0
  0
LINE
  5
3803
330
1E
100
AcDbEntity
  8
7
100
AcDbLine
 10
1.422244094488188
 20
5.649606299212598
 30
0.0
 11
1.426181102362204
 21
5.638779527559054
 31
0.0
  0
LINE
  5
3804
330
1E
100
AcDbEntity
  8
7
100
AcDbLine
 10
1.426181102362204
 20
5.638779527559054
 30
0.0
 11
1.437007874015748
 21
5.634842519685038
 31
0.0
  0
LINE
  5
3805
330
1E
100
AcDbEntity
  8
7
100
AcDbLine
 10
1.881889763779527
 20
6.526574803149605
 30
0.0
 11
1.881889763779527
 21
6.532480314960629
 31
0.0
  0
LINE
  5
3806
330
1E
100
AcDbEntity
  8
7
100
AcDbLine
 10
1.881889763779527
 20
6.532480314960629
 30
0.0
 11
1.881889763779527
 21
6.534448818897637
 31
0.0
  0
LINE
  5
3807
330
1E
100
AcDbEntity
  8
7
100
AcDbLine
 10
2.062992125984251
 20
6.534448818897637
 30
0.0
 11
2.062992125984251
 21
6.532480314960629
 31
0.0
  0
LINE
  5
3808
330
1E
100
AcDbEntity
  8
7
100
AcDbLine
 10
2.062992125984251
 20
6.532480314960629
 30
0.0
 11
2.062992125984251
 21
6.526574803149605
 31
0.0
  0
LINE
  5
3809
330
1E
100
AcDbEntity
  8
7
100
AcDbLine
 10
1.426181102362204
 20
5.758858267716535
 30
0.0
 11
1.422244094488188
 21
5.776574803149605
 31
0.0
  0
LINE
  5
380A
330
1E
100
AcDbEntity
  8
7
100
AcDbLine
 10
1.422244094488188
 20
5.776574803149605
 30
0.0
 11
1.420275590551181
 21
5.787401574803149
 31
0.0
  0
LINE
  5
380B
330
1E
100
AcDbEntity
  8
7
100
AcDbLine
 10
1.420275590551181
 20
5.787401574803149
 30
0.0
 11
1.420275590551181
 21
5.791338582677164
 31
0.0
  0
LINE
  5
380C
330
1E
100
AcDbEntity
  8
7
100
AcDbLine
 10
1.437007874015748
 20
5.948818897637794
 30
0.0
 11
1.423228346456693
 21
5.948818897637794
 31
0.0
  0
LINE
  5
380D
330
1E
100
AcDbEntity
  8
7
100
AcDbLine
 10
1.423228346456693
 20
5.948818897637794
 30
0.0
 11
1.417322834645669
 21
5.948818897637794
 31
0.0
  0
LINE
  5
380E
330
1E
100
AcDbEntity
  8
7
100
AcDbLine
 10
1.205708661417322
 20
5.948818897637794
 30
0.0
 11
1.183070866141732
 21
5.948818897637794
 31
0.0
  0
LINE
  5
380F
330
1E
100
AcDbEntity
  8
7
100
AcDbLine
 10
1.183070866141732
 20
5.948818897637794
 30
0.0
 11
1.163385826771653
 21
5.948818897637794
 31
0.0
  0
LINE
  5
3810
330
1E
100
AcDbEntity
  8
7
100
AcDbLine
 10
1.163385826771653
 20
5.948818897637794
 30
0.0
 11
1.150590551181102
 21
5.948818897637794
 31
0.0
  0
LINE
  5
3811
330
1E
100
AcDbEntity
  8
7
100
AcDbLine
 10
1.150590551181102
 20
5.948818897637794
 30
0.0
 11
1.145669291338582
 21
5.948818897637794
 31
0.0
  0
LINE
  5
3812
330
1E
100
AcDbEntity
  8
7
100
AcDbLine
 10
1.369094488188976
 20
5.791338582677164
 30
0.0
 11
1.369094488188976
 21
5.797244094488188
 31
0.0
  0
LINE
  5
3813
330
1E
100
AcDbEntity
  8
7
100
AcDbLine
 10
1.369094488188976
 20
5.797244094488188
 30
0.0
 11
1.369094488188976
 21
5.811023622047243
 31
0.0
  0
LINE
  5
3814
330
1E
100
AcDbEntity
  8
7
100
AcDbLine
 10
1.344488188976378
 20
5.812007874015747
 30
0.0
 11
1.350393700787401
 21
5.798228346456692
 31
0.0
  0
LINE
  5
3815
330
1E
100
AcDbEntity
  8
7
100
AcDbLine
 10
1.350393700787401
 20
5.798228346456692
 30
0.0
 11
1.364173228346456
 21
5.792322834645668
 31
0.0
  0
LINE
  5
3816
330
1E
100
AcDbEntity
  8
7
100
AcDbLine
 10
1.344488188976378
 20
5.811023622047243
 30
0.0
 11
1.347440944881889
 21
5.811023622047243
 31
0.0
  0
LINE
  5
3817
330
1E
100
AcDbEntity
  8
7
100
AcDbLine
 10
1.347440944881889
 20
5.811023622047243
 30
0.0
 11
1.357283464566929
 21
5.811023622047243
 31
0.0
  0
LINE
  5
3818
330
1E
100
AcDbEntity
  8
7
100
AcDbLine
 10
1.357283464566929
 20
5.811023622047243
 30
0.0
 11
1.369094488188976
 21
5.811023622047243
 31
0.0
  0
LINE
  5
3819
330
1E
100
AcDbEntity
  8
7
100
AcDbLine
 10
1.146653543307086
 20
5.994094488188975
 30
0.0
 11
1.145669291338582
 21
5.992125984251968
 31
0.0
  0
LINE
  5
381A
330
1E
100
AcDbEntity
  8
7
100
AcDbLine
 10
1.145669291338582
 20
5.992125984251968
 30
0.0
 11
1.144685039370078
 21
5.989173228346456
 31
0.0
  0
LINE
  5
381B
330
1E
100
AcDbEntity
  8
7
100
AcDbLine
 10
1.144685039370078
 20
5.989173228346456
 30
0.0
 11
1.14271653543307
 21
5.987204724409448
 31
0.0
  0
LINE
  5
381C
330
1E
100
AcDbEntity
  8
7
100
AcDbLine
 10
1.14271653543307
 20
5.987204724409448
 30
0.0
 11
1.139763779527559
 21
5.986220472440944
 31
0.0
  0
LINE
  5
381D
330
1E
100
AcDbEntity
  8
7
100
AcDbLine
 10
1.145669291338582
 20
5.948818897637794
 30
0.0
 11
1.14271653543307
 21
5.948818897637794
 31
0.0
  0
LINE
  5
381E
330
1E
100
AcDbEntity
  8
7
100
AcDbLine
 10
1.14271653543307
 20
5.948818897637794
 30
0.0
 11
1.135826771653543
 21
5.948818897637794
 31
0.0
  0
LINE
  5
381F
330
1E
100
AcDbEntity
  8
7
100
AcDbLine
 10
1.117125984251968
 20
5.982283464566928
 30
0.0
 11
1.116141732283464
 21
5.948818897637794
 31
0.0
  0
LINE
  5
3820
330
1E
100
AcDbEntity
  8
7
100
AcDbLine
 10
1.116141732283464
 20
5.948818897637794
 30
0.0
 11
1.135826771653543
 21
5.948818897637794
 31
0.0
  0
LINE
  5
3821
330
1E
100
AcDbEntity
  8
7
100
AcDbLine
 10
1.135826771653543
 20
5.948818897637794
 30
0.0
 11
1.135826771653543
 21
5.986220472440944
 31
0.0
  0
LINE
  5
3822
330
1E
100
AcDbEntity
  8
7
100
AcDbLine
 10
1.116141732283464
 20
5.948818897637794
 30
0.0
 11
1.109251968503937
 21
5.948818897637794
 31
0.0
  0
LINE
  5
3823
330
1E
100
AcDbEntity
  8
7
100
AcDbLine
 10
1.109251968503937
 20
5.948818897637794
 30
0.0
 11
1.106299212598425
 21
5.948818897637794
 31
0.0
  0
LINE
  5
3824
330
1E
100
AcDbEntity
  8
7
100
AcDbLine
 10
1.107283464566929
 20
5.980314960629921
 30
0.0
 11
1.11023622047244
 21
5.981299212598425
 31
0.0
  0
LINE
  5
3825
330
1E
100
AcDbEntity
  8
7
100
AcDbLine
 10
1.11023622047244
 20
5.981299212598425
 30
0.0
 11
1.117125984251968
 21
5.982283464566928
 31
0.0
  0
LINE
  5
3826
330
1E
100
AcDbEntity
  8
7
100
AcDbLine
 10
1.438976377952756
 20
6.068897637795275
 30
0.0
 11
1.437007874015748
 21
5.948818897637794
 31
0.0
  0
LINE
  5
3827
330
1E
100
AcDbEntity
  8
7
100
AcDbLine
 10
1.437007874015748
 20
5.948818897637794
 30
0.0
 11
1.439960629921259
 21
5.758858267716535
 31
0.0
  0
LINE
  5
3828
330
1E
100
AcDbEntity
  8
7
100
AcDbLine
 10
2.52755905511811
 20
5.948818897637794
 30
0.0
 11
2.521653543307086
 21
5.948818897637794
 31
0.0
  0
LINE
  5
3829
330
1E
100
AcDbEntity
  8
7
100
AcDbLine
 10
2.521653543307086
 20
5.948818897637794
 30
0.0
 11
2.506889763779527
 21
5.948818897637794
 31
0.0
  0
LINE
  5
382A
330
1E
100
AcDbEntity
  8
7
100
AcDbLine
 10
2.524606299212598
 20
5.791338582677164
 30
0.0
 11
2.523622047244094
 21
5.787401574803149
 31
0.0
  0
LINE
  5
382B
330
1E
100
AcDbEntity
  8
7
100
AcDbLine
 10
2.523622047244094
 20
5.787401574803149
 30
0.0
 11
2.521653543307086
 21
5.776574803149605
 31
0.0
  0
LINE
  5
382C
330
1E
100
AcDbEntity
  8
7
100
AcDbLine
 10
2.521653543307086
 20
5.776574803149605
 30
0.0
 11
2.518700787401574
 21
5.758858267716535
 31
0.0
  0
LINE
  5
382D
330
1E
100
AcDbEntity
  8
7
100
AcDbLine
 10
2.801181102362204
 20
5.948818897637794
 30
0.0
 11
2.798228346456693
 21
5.948818897637794
 31
0.0
  0
LINE
  5
382E
330
1E
100
AcDbEntity
  8
7
100
AcDbLine
 10
2.798228346456693
 20
5.948818897637794
 30
0.0
 11
2.794291338582677
 21
5.948818897637794
 31
0.0
  0
LINE
  5
382F
330
1E
100
AcDbEntity
  8
7
100
AcDbLine
 10
2.794291338582677
 20
5.948818897637794
 30
0.0
 11
2.781496062992125
 21
5.948818897637794
 31
0.0
  0
LINE
  5
3830
330
1E
100
AcDbEntity
  8
7
100
AcDbLine
 10
2.781496062992125
 20
5.948818897637794
 30
0.0
 11
2.761811023622047
 21
5.948818897637794
 31
0.0
  0
LINE
  5
3831
330
1E
100
AcDbEntity
  8
7
100
AcDbLine
 10
2.761811023622047
 20
5.948818897637794
 30
0.0
 11
2.738188976377952
 21
5.948818897637794
 31
0.0
  0
LINE
  5
3832
330
1E
100
AcDbEntity
  8
7
100
AcDbLine
 10
2.804133858267716
 20
5.986220472440944
 30
0.0
 11
2.802165354330708
 21
5.987204724409448
 31
0.0
  0
LINE
  5
3833
330
1E
100
AcDbEntity
  8
7
100
AcDbLine
 10
2.802165354330708
 20
5.987204724409448
 30
0.0
 11
2.8001968503937
 21
5.989173228346456
 31
0.0
  0
LINE
  5
3834
330
1E
100
AcDbEntity
  8
7
100
AcDbLine
 10
2.8001968503937
 20
5.989173228346456
 30
0.0
 11
2.798228346456693
 21
5.992125984251968
 31
0.0
  0
LINE
  5
3835
330
1E
100
AcDbEntity
  8
7
100
AcDbLine
 10
2.798228346456693
 20
5.992125984251968
 30
0.0
 11
2.798228346456693
 21
5.994094488188975
 31
0.0
  0
LINE
  5
3836
330
1E
100
AcDbEntity
  8
7
100
AcDbLine
 10
2.83759842519685
 20
5.948818897637794
 30
0.0
 11
2.834645669291338
 21
5.948818897637794
 31
0.0
  0
LINE
  5
3837
330
1E
100
AcDbEntity
  8
7
100
AcDbLine
 10
2.834645669291338
 20
5.948818897637794
 30
0.0
 11
2.827755905511811
 21
5.948818897637794
 31
0.0
  0
LINE
  5
3838
330
1E
100
AcDbEntity
  8
7
100
AcDbLine
 10
2.809055118110236
 20
5.948818897637794
 30
0.0
 11
2.827755905511811
 21
5.948818897637794
 31
0.0
  0
LINE
  5
3839
330
1E
100
AcDbEntity
  8
7
100
AcDbLine
 10
2.827755905511811
 20
5.948818897637794
 30
0.0
 11
2.826771653543307
 21
5.982283464566928
 31
0.0
  0
LINE
  5
383A
330
1E
100
AcDbEntity
  8
7
100
AcDbLine
 10
2.826771653543307
 20
5.982283464566928
 30
0.0
 11
2.833661417322834
 21
5.981299212598425
 31
0.0
  0
LINE
  5
383B
330
1E
100
AcDbEntity
  8
7
100
AcDbLine
 10
2.833661417322834
 20
5.981299212598425
 30
0.0
 11
2.836614173228346
 21
5.980314960629921
 31
0.0
  0
LINE
  5
383C
330
1E
100
AcDbEntity
  8
7
100
AcDbLine
 10
2.574803149606299
 20
5.811023622047243
 30
0.0
 11
2.58759842519685
 21
5.811023622047243
 31
0.0
  0
LINE
  5
383D
330
1E
100
AcDbEntity
  8
7
100
AcDbLine
 10
2.58759842519685
 20
5.811023622047243
 30
0.0
 11
2.596456692913385
 21
5.811023622047243
 31
0.0
  0
LINE
  5
383E
330
1E
100
AcDbEntity
  8
7
100
AcDbLine
 10
2.596456692913385
 20
5.811023622047243
 30
0.0
 11
2.599409448818897
 21
5.811023622047243
 31
0.0
  0
LINE
  5
383F
330
1E
100
AcDbEntity
  8
7
100
AcDbLine
 10
2.579724409448818
 20
5.792322834645668
 30
0.0
 11
2.593503937007874
 21
5.798228346456692
 31
0.0
  0
LINE
  5
3840
330
1E
100
AcDbEntity
  8
7
100
AcDbLine
 10
2.593503937007874
 20
5.798228346456692
 30
0.0
 11
2.599409448818897
 21
5.812007874015747
 31
0.0
  0
LINE
  5
3841
330
1E
100
AcDbEntity
  8
7
100
AcDbLine
 10
2.574803149606299
 20
5.811023622047243
 30
0.0
 11
2.574803149606299
 21
5.797244094488188
 31
0.0
  0
LINE
  5
3842
330
1E
100
AcDbEntity
  8
7
100
AcDbLine
 10
2.574803149606299
 20
5.797244094488188
 30
0.0
 11
2.574803149606299
 21
5.791338582677164
 31
0.0
  0
LINE
  5
3843
330
1E
100
AcDbEntity
  8
7
100
AcDbLine
 10
1.419291338582677
 20
6.068897637795275
 30
0.0
 11
1.4251968503937
 21
6.068897637795275
 31
0.0
  0
LINE
  5
3844
330
1E
100
AcDbEntity
  8
7
100
AcDbLine
 10
1.4251968503937
 20
6.068897637795275
 30
0.0
 11
1.438976377952756
 21
6.068897637795275
 31
0.0
  0
LINE
  5
3845
330
1E
100
AcDbEntity
  8
7
100
AcDbLine
 10
1.14763779527559
 20
6.068897637795275
 30
0.0
 11
1.15255905511811
 21
6.068897637795275
 31
0.0
  0
LINE
  5
3846
330
1E
100
AcDbEntity
  8
7
100
AcDbLine
 10
1.15255905511811
 20
6.068897637795275
 30
0.0
 11
1.165354330708661
 21
6.068897637795275
 31
0.0
  0
LINE
  5
3847
330
1E
100
AcDbEntity
  8
7
100
AcDbLine
 10
1.165354330708661
 20
6.068897637795275
 30
0.0
 11
1.18503937007874
 21
6.068897637795275
 31
0.0
  0
LINE
  5
3848
330
1E
100
AcDbEntity
  8
7
100
AcDbLine
 10
1.18503937007874
 20
6.068897637795275
 30
0.0
 11
1.20767716535433
 21
6.068897637795275
 31
0.0
  0
LINE
  5
3849
330
1E
100
AcDbEntity
  8
7
100
AcDbLine
 10
2.736220472440944
 20
6.068897637795275
 30
0.0
 11
2.759842519685039
 21
6.068897637795275
 31
0.0
  0
LINE
  5
384A
330
1E
100
AcDbEntity
  8
7
100
AcDbLine
 10
2.759842519685039
 20
6.068897637795275
 30
0.0
 11
2.778543307086614
 21
6.068897637795275
 31
0.0
  0
LINE
  5
384B
330
1E
100
AcDbEntity
  8
7
100
AcDbLine
 10
2.778543307086614
 20
6.068897637795275
 30
0.0
 11
2.792322834645669
 21
6.068897637795275
 31
0.0
  0
LINE
  5
384C
330
1E
100
AcDbEntity
  8
7
100
AcDbLine
 10
2.792322834645669
 20
6.068897637795275
 30
0.0
 11
2.796259842519685
 21
6.068897637795275
 31
0.0
  0
LINE
  5
384D
330
1E
100
AcDbEntity
  8
7
100
AcDbLine
 10
2.504921259842519
 20
6.068897637795275
 30
0.0
 11
2.518700787401574
 21
6.068897637795275
 31
0.0
  0
LINE
  5
384E
330
1E
100
AcDbEntity
  8
7
100
AcDbLine
 10
2.518700787401574
 20
6.068897637795275
 30
0.0
 11
2.524606299212598
 21
6.068897637795275
 31
0.0
  0
LINE
  5
384F
330
1E
100
AcDbEntity
  8
7
100
AcDbLine
 10
1.869094488188976
 20
6.289370078740157
 30
0.0
 11
1.869094488188976
 21
6.290354330708661
 31
0.0
  0
LINE
  5
3850
330
1E
100
AcDbEntity
  8
7
100
AcDbLine
 10
1.869094488188976
 20
6.290354330708661
 30
0.0
 11
1.871062992125984
 21
6.323818897637794
 31
0.0
  0
LINE
  5
3851
330
1E
100
AcDbEntity
  8
7
100
AcDbLine
 10
1.871062992125984
 20
6.323818897637794
 30
0.0
 11
1.873031496062992
 21
6.352362204724409
 31
0.0
  0
LINE
  5
3852
330
1E
100
AcDbEntity
  8
7
100
AcDbLine
 10
1.873031496062992
 20
6.352362204724409
 30
0.0
 11
1.875984251968503
 21
6.414370078740157
 31
0.0
  0
LINE
  5
3853
330
1E
100
AcDbEntity
  8
7
100
AcDbLine
 10
1.875984251968503
 20
6.414370078740157
 30
0.0
 11
1.876968503937007
 21
6.433070866141731
 31
0.0
  0
LINE
  5
3854
330
1E
100
AcDbEntity
  8
7
100
AcDbLine
 10
1.876968503937007
 20
6.433070866141731
 30
0.0
 11
1.877952755905511
 21
6.455708661417322
 31
0.0
  0
LINE
  5
3855
330
1E
100
AcDbEntity
  8
7
100
AcDbLine
 10
1.855314960629921
 20
6.023622047244094
 30
0.0
 11
1.869094488188976
 21
6.287401574803149
 31
0.0
  0
LINE
  5
3856
330
1E
100
AcDbEntity
  8
7
100
AcDbLine
 10
1.869094488188976
 20
6.287401574803149
 30
0.0
 11
1.869094488188976
 21
6.290354330708661
 31
0.0
  0
LINE
  5
3857
330
1E
100
AcDbEntity
  8
7
100
AcDbLine
 10
1.65255905511811
 20
5.758858267716535
 30
0.0
 11
1.439960629921259
 21
5.758858267716535
 31
0.0
  0
LINE
  5
3858
330
1E
100
AcDbEntity
  8
7
100
AcDbLine
 10
1.439960629921259
 20
5.758858267716535
 30
0.0
 11
1.426181102362204
 21
5.758858267716535
 31
0.0
  0
LINE
  5
3859
330
1E
100
AcDbEntity
  8
7
100
AcDbLine
 10
2.518700787401574
 20
5.758858267716535
 30
0.0
 11
2.503937007874015
 21
5.758858267716535
 31
0.0
  0
LINE
  5
385A
330
1E
100
AcDbEntity
  8
7
100
AcDbLine
 10
2.503937007874015
 20
5.758858267716535
 30
0.0
 11
2.292322834645669
 21
5.758858267716535
 31
0.0
  0
LINE
  5
385B
330
1E
100
AcDbEntity
  8
7
100
AcDbLine
 10
2.071850393700787
 20
6.352362204724409
 30
0.0
 11
2.072834645669291
 21
6.323818897637794
 31
0.0
  0
LINE
  5
385C
330
1E
100
AcDbEntity
  8
7
100
AcDbLine
 10
2.072834645669291
 20
6.323818897637794
 30
0.0
 11
2.074803149606299
 21
6.290354330708661
 31
0.0
  0
LINE
  5
385D
330
1E
100
AcDbEntity
  8
7
100
AcDbLine
 10
2.065944881889763
 20
6.455708661417322
 30
0.0
 11
2.067913385826771
 21
6.433070866141731
 31
0.0
  0
LINE
  5
385E
330
1E
100
AcDbEntity
  8
7
100
AcDbLine
 10
2.067913385826771
 20
6.433070866141731
 30
0.0
 11
2.068897637795275
 21
6.414370078740157
 31
0.0
  0
LINE
  5
385F
330
1E
100
AcDbEntity
  8
7
100
AcDbLine
 10
2.062992125984251
 20
6.526574803149605
 30
0.0
 11
2.062992125984251
 21
6.519685039370078
 31
0.0
  0
LINE
  5
3860
330
1E
100
AcDbEntity
  8
7
100
AcDbLine
 10
2.062992125984251
 20
6.519685039370078
 30
0.0
 11
2.065944881889763
 21
6.455708661417322
 31
0.0
  0
ENDSEC
  0
SECTION
  2
OBJECTS
  0
DICTIONARY
  5
C
330
0
100
AcDbDictionary
  3
ACAD_GROUP
350
D
  3
ACAD_MLINESTYLE
350
16
  3
ACAD_PLOTSETTINGS
350
18
  3
ACAD_LAYOUT
350
19
1001
ACAD
1000
TREAT_AS_HARD
1070
     0
  0
DICTIONARY
  5
4AA4
330
1E
100
AcDbDictionary
  3
ACAD_LAYOUTSELFREF
350
4AA5
  0
DICTIONARY
  5
4AA2
330
1A
100
AcDbDictionary
  3
ACAD_LAYOUTSELFREF
350
4AA3
  0
DICTIONARY
  5
D
102
{ACAD_REACTORS
330
C
102
}
330
C
100
AcDbDictionary
1001
ACAD
1000
TREAT_AS_HARD
1070
     0
  0
DICTIONARY
  5
16
102
{ACAD_REACTORS
330
C
102
}
330
C
100
AcDbDictionary
  3
STANDARD
350
17
1001
ACAD
1000
TREAT_AS_HARD
1070
     0
  0
DICTIONARY
  5
18
102
{ACAD_REACTORS
330
C
102
}
330
C
100
AcDbDictionary
1001
ACAD
1000
TREAT_AS_HARD
1070
     0
  0
DICTIONARY
  5
19
102
{ACAD_REACTORS
330
C
102
}
330
C
100
AcDbDictionary
1001
ACAD
1000
TREAT_AS_HARD
1070
     0
  0
XRECORD
  5
4AA5
102
{ACAD_REACTORS
330
4AA4
102
}
330
4AA4
100
AcDbXrecord
340
1E
  0
XRECORD
  5
4AA3
102
{ACAD_REACTORS
330
4AA2
102
}
330
4AA2
100
AcDbXrecord
340
1A
  0
MLINESTYLE
  5
17
102
{ACAD_REACTORS
330
16
102
}
330
16
100
AcDbMlineStyle
  2
STANDARD
 70
     0
  3

 62
   256
 51
90.0
 52
90.0
 71
     2
 49
0.5
 62
   256
  6
BYLAYER
 49
-0.5
 62
   256
  6
BYLAYER
  0
ENDSEC
  0
EOF
