  0
SECTION
  2
HEADER
  9
$ACADVER
  1
AC1012
  9
$DWGCODEPAGE
  3
ANSI_1252
  9
$INSBASE
 10
0.0
 20
0.0
 30
0.0
  9
$EXTMIN
 10
-0.9867101188436535
 20
3.05804445810854
 30
-0.0000000349181948
  9
$EXTMAX
 10
5.987902110693482
 20
7.558319111073295
 30
0.0000000814935746
  9
$LIMMIN
 10
0.0
 20
0.0
  9
$LIMMAX
 10
12.0
 20
9.0
  9
$ORTHOMODE
 70
     0
  9
$REGENMODE
 70
     1
  9
$FILLMODE
 70
     1
  9
$QTEXTMODE
 70
     0
  9
$MIRRTEXT
 70
     1
  9
$DRAGMODE
 70
     2
  9
$LTSCALE
 40
1.0
  9
$OSMODE
 70
   547
  9
$ATTMODE
 70
     1
  9
$TEXTSIZE
 40
0.2
  9
$TRACEWID
 40
0.05
  9
$TEXTSTYLE
  7
STANDARD
  9
$CLAYER
  8
0
  9
$CELTYPE
  6
BYLAYER
  9
$CECOLOR
 62
   256
  9
$CELTSCALE
 40
1.0
  9
$DELOBJ
 70
     1
  9
$DISPSILH
 70
     0
  9
$DIMSCALE
 40
1.0
  9
$DIMASZ
 40
0.18
  9
$DIMEXO
 40
0.0625
  9
$DIMDLI
 40
0.38
  9
$DIMRND
 40
0.0
  9
$DIMDLE
 40
0.0
  9
$DIMEXE
 40
0.18
  9
$DIMTP
 40
0.0
  9
$DIMTM
 40
0.0
  9
$DIMTXT
 40
0.18
  9
$DIMCEN
 40
0.09
  9
$DIMTSZ
 40
0.0
  9
$DIMTOL
 70
     0
  9
$DIMLIM
 70
     0
  9
$DIMTIH
 70
     1
  9
$DIMTOH
 70
     1
  9
$DIMSE1
 70
     0
  9
$DIMSE2
 70
     0
  9
$DIMTAD
 70
     0
  9
$DIMZIN
 70
     0
  9
$DIMBLK
  1

  9
$DIMASO
 70
     1
  9
$DIMSHO
 70
     1
  9
$DIMPOST
  1

  9
$DIMAPOST
  1

  9
$DIMALT
 70
     0
  9
$DIMALTD
 70
     2
  9
$DIMALTF
 40
25.4
  9
$DIMLFAC
 40
1.0
  9
$DIMTOFL
 70
     0
  9
$DIMTVP
 40
0.0
  9
$DIMTIX
 70
     0
  9
$DIMSOXD
 70
     0
  9
$DIMSAH
 70
     0
  9
$DIMBLK1
  1

  9
$DIMBLK2
  1

  9
$DIMSTYLE
  2
STANDARD
  9
$DIMCLRD
 70
     0
  9
$DIMCLRE
 70
     0
  9
$DIMCLRT
 70
     0
  9
$DIMTFAC
 40
1.0
  9
$DIMGAP
 40
0.09
  9
$DIMJUST
 70
     0
  9
$DIMSD1
 70
     0
  9
$DIMSD2
 70
     0
  9
$DIMTOLJ
 70
     1
  9
$DIMTZIN
 70
     0
  9
$DIMALTZ
 70
     0
  9
$DIMALTTZ
 70
     0
  9
$DIMFIT
 70
     5
  9
$DIMUPT
 70
     0
  9
$DIMUNIT
 70
     2
  9
$DIMDEC
 70
     4
  9
$DIMTDEC
 70
     4
  9
$DIMALTU
 70
     2
  9
$DIMALTTD
 70
     2
  9
$DIMTXSTY
  7
STANDARD
  9
$DIMAUNIT
 70
     0
  9
$LUNITS
 70
     2
  9
$LUPREC
 70
     4
  9
$SKETCHINC
 40
0.1
  9
$FILLETRAD
 40
0.0
  9
$AUNITS
 70
     0
  9
$AUPREC
 70
     0
  9
$MENU
  1
acad
  9
$ELEVATION
 40
0.0
  9
$PELEVATION
 40
0.0
  9
$THICKNESS
 40
0.0
  9
$LIMCHECK
 70
     0
  9
$BLIPMODE
 70
     0
  9
$CHAMFERA
 40
0.0
  9
$CHAMFERB
 40
0.0
  9
$CHAMFERC
 40
0.0
  9
$CHAMFERD
 40
0.0
  9
$SKPOLY
 70
     0
  9
$TDCREATE
 40
2452031.318483796
  9
$TDUPDATE
 40
2453944.468841111
  9
$TDINDWG
 40
0.0022795833
  9
$TDUSRTIMER
 40
0.0022795833
  9
$USRTIMER
 70
     1
  9
$ANGBASE
 50
0.0
  9
$ANGDIR
 70
     0
  9
$PDMODE
 70
     0
  9
$PDSIZE
 40
0.0
  9
$PLINEWID
 40
0.0
  9
$COORDS
 70
     1
  9
$SPLFRAME
 70
     0
  9
$SPLINETYPE
 70
     6
  9
$SPLINESEGS
 70
     8
  9
$ATTDIA
 70
     0
  9
$ATTREQ
 70
     1
  9
$HANDLING
 70
  4097
  9
$HANDSEED
  5
3599
  9
$SURFTAB1
 70
     6
  9
$SURFTAB2
 70
     6
  9
$SURFTYPE
 70
     6
  9
$SURFU
 70
     6
  9
$SURFV
 70
     6
  9
$UCSNAME
  2

  9
$UCSORG
 10
0.0
 20
0.0
 30
0.0
  9
$UCSXDIR
 10
1.0
 20
0.0
 30
0.0
  9
$UCSYDIR
 10
0.0
 20
1.0
 30
0.0
  9
$PUCSNAME
  2

  9
$PUCSORG
 10
0.0
 20
0.0
 30
0.0
  9
$PUCSXDIR
 10
1.0
 20
0.0
 30
0.0
  9
$PUCSYDIR
 10
0.0
 20
1.0
 30
0.0
  9
$USERI1
 70
     0
  9
$USERI2
 70
     0
  9
$USERI3
 70
     0
  9
$USERI4
 70
     0
  9
$USERI5
 70
     0
  9
$USERR1
 40
0.0
  9
$USERR2
 40
0.0
  9
$USERR3
 40
0.0
  9
$USERR4
 40
0.0
  9
$USERR5
 40
0.0
  9
$WORLDVIEW
 70
     1
  9
$SHADEDGE
 70
     3
  9
$SHADEDIF
 70
    70
  9
$TILEMODE
 70
     1
  9
$MAXACTVP
 70
    16
  9
$PINSBASE
 10
0.0
 20
0.0
 30
0.0
  9
$PLIMCHECK
 70
     0
  9
$PEXTMIN
 10
1.000000000000000E+20
 20
1.000000000000000E+20
 30
1.000000000000000E+20
  9
$PEXTMAX
 10
-1.000000000000000E+20
 20
-1.000000000000000E+20
 30
-1.000000000000000E+20
  9
$PLIMMIN
 10
0.0
 20
0.0
  9
$PLIMMAX
 10
12.0
 20
9.0
  9
$UNITMODE
 70
     0
  9
$VISRETAIN
 70
     0
  9
$PLINEGEN
 70
     0
  9
$PSLTSCALE
 70
     1
  9
$TREEDEPTH
 70
  3020
  9
$PICKSTYLE
 70
     1
  9
$CMLSTYLE
  2
STANDARD
  9
$CMLJUST
 70
     0
  9
$CMLSCALE
 40
1.0
  9
$SAVEIMAGES
 70
     1
  0
ENDSEC
  0
SECTION
  2
CLASSES
  0
CLASS
  1
ACDBDICTIONARYWDFLT
  2
AcDbDictionaryWithDefault
  3
AutoCAD 2000
 90
    32768
280
     0
281
     0
  0
CLASS
  1
ACDBPLACEHOLDER
  2
AcDbPlaceHolder
  3
AutoCAD 2000
 90
    32768
280
     0
281
     0
  0
CLASS
  1
LAYOUT
  2
AcDbLayout
  3
AutoCAD 2000
 90
    32768
280
     0
281
     0
  0
CLASS
  1
LONG_TRANSACTION
  2
AcDbLongTransaction
  3
AutoCAD 2000
 90
    32768
280
     0
281
     0
  0
CLASS
  1
LWPOLYLINE
  2
AcDbPolyline
  3
AutoCAD 2000
 90
    32768
280
     0
281
     1
  0
CLASS
  1
HATCH
  2
AcDbHatch
  3
AutoCAD 2000
 90
    32768
280
     0
281
     1
  0
CLASS
  1
XRECORD
  2
AcDbXrecord
  3
AutoCAD 2000
 90
    32768
280
     0
281
     0
  0
CLASS
  1
LONG_TRANSACTION
  2
AcDbLongTransaction
  3
AutoCAD 2000
 90
    32768
280
     0
281
     0
  0
CLASS
  1
LWPOLYLINE
  2
AcDbPolyline
  3
AutoCAD 2000
 90
    32768
280
     0
281
     1
  0
CLASS
  1
HATCH
  2
AcDbHatch
  3
AutoCAD 2000
 90
    32768
280
     0
281
     1
  0
CLASS
  1
XRECORD
  2
AcDbXrecord
  3
AutoCAD 2000
 90
    32768
280
     0
281
     0
  0
CLASS
  1
LONG_TRANSACTION
  2
AcDbLongTransaction
  3
AutoCAD 2000
 90
    32768
280
     0
281
     0
  0
CLASS
  1
LWPOLYLINE
  2
AcDbPolyline
  3
AutoCAD 2000
 90
    32768
280
     0
281
     1
  0
CLASS
  1
HATCH
  2
AcDbHatch
  3
AutoCAD 2000
 90
    32768
280
     0
281
     1
  0
CLASS
  1
XRECORD
  2
AcDbXrecord
  3
AutoCAD 2000
 90
    32768
280
     0
281
     0
  0
ENDSEC
  0
SECTION
  2
TABLES
  0
TABLE
  2
VPORT
  5
8
330
0
100
AcDbSymbolTable
 70
     3
  0
VPORT
  5
3596
330
8
100
AcDbSymbolTableRecord
100
AcDbViewportTableRecord
  2
*ACTIVE
 70
     0
 10
0.0
 20
0.0
 11
1.0
 21
1.0
 12
2.500595995924915
 22
5.308181784590917
 13
0.0
 23
0.0
 14
1.0
 24
1.0
 15
0.0
 25
0.0
 16
0.0
 26
0.0
 36
1.0
 17
0.0
 27
0.0
 37
0.0
 40
4.547071269806677
 41
1.647569444444444
 42
50.0
 43
0.0
 44
0.0
 50
0.0
 51
0.0
 71
     0
 72
   100
 73
     1
 74
     1
 75
     0
 76
     0
 77
     0
 78
     0
  0
ENDTAB
  0
TABLE
  2
LTYPE
  5
5
330
0
100
AcDbSymbolTable
 70
    25
  0
LTYPE
  5
13
330
5
100
AcDbSymbolTableRecord
100
AcDbLinetypeTableRecord
  2
BYBLOCK
 70
     0
  3

 72
    65
 73
     0
 40
0.0
  0
LTYPE
  5
14
330
5
100
AcDbSymbolTableRecord
100
AcDbLinetypeTableRecord
  2
BYLAYER
 70
     0
  3

 72
    65
 73
     0
 40
0.0
  0
LTYPE
  5
15
330
5
100
AcDbSymbolTableRecord
100
AcDbLinetypeTableRecord
  2
CONTINUOUS
 70
     0
  3
Solid line
 72
    65
 73
     0
 40
0.0
  0
LTYPE
  5
22
330
5
100
AcDbSymbolTableRecord
100
AcDbLinetypeTableRecord
  2
BORDER
 70
     0
  3
__ __ . __ __ . __ __ . __ __ . __ __ . __ __ .
 72
    65
 73
     6
 40
1.75
 49
0.5
 74
     0
 49
-0.25
 74
     0
 49
0.5
 74
     0
 49
-0.25
 74
     0
 49
0.5
 74
     0
 49
-0.25
 74
     0
  0
LTYPE
  5
23
330
5
100
AcDbSymbolTableRecord
100
AcDbLinetypeTableRecord
  2
BORDER2
 70
     0
  3
__.__.__.__.__.__.__.__.__.__.__.__.__.__.__.__
 72
    65
 73
     6
 40
0.875
 49
0.25
 74
     0
 49
-0.125
 74
     0
 49
0.25
 74
     0
 49
-0.125
 74
     0
 49
0.25
 74
     0
 49
-0.125
 74
     0
  0
LTYPE
  5
24
330
5
100
AcDbSymbolTableRecord
100
AcDbLinetypeTableRecord
  2
BORDERX2
 70
     0
  3
____  ____  .  ____  ____  .  
 72
    65
 73
     6
 40
3.5
 49
1.0
 74
     0
 49
-0.5
 74
     0
 49
1.0
 74
     0
 49
-0.5
 74
     0
 49
1.0
 74
     0
 49
-0.5
 74
     0
  0
LTYPE
  5
25
330
5
100
AcDbSymbolTableRecord
100
AcDbLinetypeTableRecord
  2
CENTER
 70
     0
  3
____ _ ____ _ ____ _ ____ _ ____ _ ____ _ ____
 72
    65
 73
     4
 40
2.0
 49
1.25
 74
     0
 49
-0.25
 74
     0
 49
0.25
 74
     0
 49
-0.25
 74
     0
  0
LTYPE
  5
26
330
5
100
AcDbSymbolTableRecord
100
AcDbLinetypeTableRecord
  2
CENTER2
 70
     0
  3
____ _ ____ _ ____ _ ____ _ ____ _ ____ _ ____
 72
    65
 73
     4
 40
1.125
 49
0.75
 74
     0
 49
-0.125
 74
     0
 49
0.125
 74
     0
 49
-0.125
 74
     0
  0
LTYPE
  5
27
330
5
100
AcDbSymbolTableRecord
100
AcDbLinetypeTableRecord
  2
CENTERX2
 70
     0
  3
________  __  ________  __  ________  __  
 72
    65
 73
     4
 40
4.0
 49
2.5
 74
     0
 49
-0.5
 74
     0
 49
0.5
 74
     0
 49
-0.5
 74
     0
  0
LTYPE
  5
28
330
5
100
AcDbSymbolTableRecord
100
AcDbLinetypeTableRecord
  2
DASHDOT
 70
     0
  3
__ . __ . __ . __ . __ . __ . __ . 
 72
    65
 73
     4
 40
1.0
 49
0.5
 74
     0
 49
-0.25
 74
     0
 49
0.0
 74
     0
 49
-0.25
 74
     0
  0
LTYPE
  5
29
330
5
100
AcDbSymbolTableRecord
100
AcDbLinetypeTableRecord
  2
DASHDOT2
 70
     0
  3
_._._._._._._._._._._._._._._._.
 72
    65
 73
     4
 40
0.5
 49
0.25
 74
     0
 49
-0.125
 74
     0
 49
0.0
 74
     0
 49
-0.125
 74
     0
  0
LTYPE
  5
2A
330
5
100
AcDbSymbolTableRecord
100
AcDbLinetypeTableRecord
  2
DASHDOTX2
 70
     0
  3
____  .  ____  .  ____  .  ____  .  
 72
    65
 73
     4
 40
2.0
 49
1.0
 74
     0
 49
-0.5
 74
     0
 49
0.0
 74
     0
 49
-0.5
 74
     0
  0
LTYPE
  5
2B
330
5
100
AcDbSymbolTableRecord
100
AcDbLinetypeTableRecord
  2
DASHED
 70
     0
  3
__ __ __ __ __ __ __ __ __ __ __ __ 
 72
    65
 73
     2
 40
0.75
 49
0.5
 74
     0
 49
-0.25
 74
     0
  0
LTYPE
  5
2C
330
5
100
AcDbSymbolTableRecord
100
AcDbLinetypeTableRecord
  2
DASHED2
 70
     0
  3
_ _ _ _ _ _ _ _ _ _ _ _ _ _ _ _ _ _ 
 72
    65
 73
     2
 40
0.375
 49
0.25
 74
     0
 49
-0.125
 74
     0
  0
LTYPE
  5
2D
330
5
100
AcDbSymbolTableRecord
100
AcDbLinetypeTableRecord
  2
DASHEDX2
 70
     0
  3
____  ____  ____  ____  ____  ____  
 72
    65
 73
     2
 40
1.5
 49
1.0
 74
     0
 49
-0.5
 74
     0
  0
LTYPE
  5
2E
330
5
100
AcDbSymbolTableRecord
100
AcDbLinetypeTableRecord
  2
DIVIDE
 70
     0
  3
____ . . ____ . . ____ . . ____ . . 
 72
    65
 73
     6
 40
1.25
 49
0.5
 74
     0
 49
-0.25
 74
     0
 49
0.0
 74
     0
 49
-0.25
 74
     0
 49
0.0
 74
     0
 49
-0.25
 74
     0
  0
LTYPE
  5
2F
330
5
100
AcDbSymbolTableRecord
100
AcDbLinetypeTableRecord
  2
DIVIDE2
 70
     0
  3
__..__..__..__..__..__..__..__..__..
 72
    65
 73
     6
 40
0.625
 49
0.25
 74
     0
 49
-0.125
 74
     0
 49
0.0
 74
     0
 49
-0.125
 74
     0
 49
0.0
 74
     0
 49
-0.125
 74
     0
  0
LTYPE
  5
30
330
5
100
AcDbSymbolTableRecord
100
AcDbLinetypeTableRecord
  2
DIVIDEX2
 70
     0
  3
________  .  .  ________  .  .  ________  .  . 
 72
    65
 73
     6
 40
2.5
 49
1.0
 74
     0
 49
-0.5
 74
     0
 49
0.0
 74
     0
 49
-0.5
 74
     0
 49
0.0
 74
     0
 49
-0.5
 74
     0
  0
LTYPE
  5
31
330
5
100
AcDbSymbolTableRecord
100
AcDbLinetypeTableRecord
  2
DOT
 70
     0
  3
. . . . . . . . . . . . . . . . . . 
 72
    65
 73
     2
 40
0.25
 49
0.0
 74
     0
 49
-0.25
 74
     0
  0
LTYPE
  5
32
330
5
100
AcDbSymbolTableRecord
100
AcDbLinetypeTableRecord
  2
DOT2
 70
     0
  3
....................................
 72
    65
 73
     2
 40
0.125
 49
0.0
 74
     0
 49
-0.125
 74
     0
  0
LTYPE
  5
33
330
5
100
AcDbSymbolTableRecord
100
AcDbLinetypeTableRecord
  2
DOTX2
 70
     0
  3
.  .  .  .  .  .  .  .  .  .  .  .  .  
 72
    65
 73
     2
 40
0.5
 49
0.0
 74
     0
 49
-0.5
 74
     0
  0
LTYPE
  5
34
330
5
100
AcDbSymbolTableRecord
100
AcDbLinetypeTableRecord
  2
HIDDEN
 70
     0
  3
__ __ __ __ __ __ __ __ __ __ __ __ 
 72
    65
 73
     2
 40
0.375
 49
0.25
 74
     0
 49
-0.125
 74
     0
  0
LTYPE
  5
35
330
5
100
AcDbSymbolTableRecord
100
AcDbLinetypeTableRecord
  2
HIDDEN2
 70
     0
  3
_ _ _ _ _ _ _ _ _ _ _ _ _ _ _ _ _ _ 
 72
    65
 73
     2
 40
0.1875
 49
0.125
 74
     0
 49
-0.0625
 74
     0
  0
LTYPE
  5
36
330
5
100
AcDbSymbolTableRecord
100
AcDbLinetypeTableRecord
  2
HIDDENX2
 70
     0
  3
____ ____ ____ ____ ____ ____ ____ 
 72
    65
 73
     2
 40
0.75
 49
0.5
 74
     0
 49
-0.25
 74
     0
  0
LTYPE
  5
37
330
5
100
AcDbSymbolTableRecord
100
AcDbLinetypeTableRecord
  2
PHANTOM
 70
     0
  3
______  __  __  ______  __  __  
 72
    65
 73
     6
 40
2.5
 49
1.25
 74
     0
 49
-0.25
 74
     0
 49
0.25
 74
     0
 49
-0.25
 74
     0
 49
0.25
 74
     0
 49
-0.25
 74
     0
  0
LTYPE
  5
38
330
5
100
AcDbSymbolTableRecord
100
AcDbLinetypeTableRecord
  2
PHANTOM2
 70
     0
  3
___ _ _ ___ _ _ ___ _ _ ___ _ _ 
 72
    65
 73
     6
 40
1.25
 49
0.625
 74
     0
 49
-0.125
 74
     0
 49
0.125
 74
     0
 49
-0.125
 74
     0
 49
0.125
 74
     0
 49
-0.125
 74
     0
  0
LTYPE
  5
39
330
5
100
AcDbSymbolTableRecord
100
AcDbLinetypeTableRecord
  2
PHANTOMX2
 70
     0
  3
___ _ _ ___ _ _ ___ _ _ ___ _ _ 
 72
    65
 73
     6
 40
5.0
 49
2.5
 74
     0
 49
-0.5
 74
     0
 49
0.5
 74
     0
 49
-0.5
 74
     0
 49
0.5
 74
     0
 49
-0.5
 74
     0
  0
ENDTAB
  0
TABLE
  2
LAYER
  5
2
330
0
100
AcDbSymbolTable
 70
   256
  0
LAYER
  5
10
330
2
100
AcDbSymbolTableRecord
100
AcDbLayerTableRecord
  2
0
 70
     0
 62
     7
  6
CONTINUOUS
  0
LAYER
  5
3A
330
2
100
AcDbSymbolTableRecord
100
AcDbLayerTableRecord
  2
1
 70
     0
 62
     1
  6
CONTINUOUS
  0
LAYER
  5
3B
330
2
100
AcDbSymbolTableRecord
100
AcDbLayerTableRecord
  2
2
 70
     0
 62
     2
  6
CONTINUOUS
  0
LAYER
  5
3C
330
2
100
AcDbSymbolTableRecord
100
AcDbLayerTableRecord
  2
3
 70
     0
 62
     3
  6
CONTINUOUS
  0
LAYER
  5
3D
330
2
100
AcDbSymbolTableRecord
100
AcDbLayerTableRecord
  2
4
 70
     0
 62
     4
  6
CONTINUOUS
  0
LAYER
  5
3E
330
2
100
AcDbSymbolTableRecord
100
AcDbLayerTableRecord
  2
5
 70
     0
 62
     5
  6
CONTINUOUS
  0
LAYER
  5
3F
330
2
100
AcDbSymbolTableRecord
100
AcDbLayerTableRecord
  2
6
 70
     0
 62
     6
  6
CONTINUOUS
  0
LAYER
  5
40
330
2
100
AcDbSymbolTableRecord
100
AcDbLayerTableRecord
  2
7
 70
     0
 62
     7
  6
CONTINUOUS
  0
LAYER
  5
41
330
2
100
AcDbSymbolTableRecord
100
AcDbLayerTableRecord
  2
8
 70
     0
 62
     8
  6
CONTINUOUS
  0
LAYER
  5
42
330
2
100
AcDbSymbolTableRecord
100
AcDbLayerTableRecord
  2
9
 70
     0
 62
     9
  6
CONTINUOUS
  0
LAYER
  5
43
330
2
100
AcDbSymbolTableRecord
100
AcDbLayerTableRecord
  2
10
 70
     0
 62
    10
  6
CONTINUOUS
  0
LAYER
  5
44
330
2
100
AcDbSymbolTableRecord
100
AcDbLayerTableRecord
  2
11
 70
     0
 62
    11
  6
CONTINUOUS
  0
LAYER
  5
45
330
2
100
AcDbSymbolTableRecord
100
AcDbLayerTableRecord
  2
12
 70
     0
 62
    12
  6
CONTINUOUS
  0
LAYER
  5
46
330
2
100
AcDbSymbolTableRecord
100
AcDbLayerTableRecord
  2
13
 70
     0
 62
    13
  6
CONTINUOUS
  0
LAYER
  5
47
330
2
100
AcDbSymbolTableRecord
100
AcDbLayerTableRecord
  2
14
 70
     0
 62
    14
  6
CONTINUOUS
  0
LAYER
  5
48
330
2
100
AcDbSymbolTableRecord
100
AcDbLayerTableRecord
  2
15
 70
     0
 62
    15
  6
CONTINUOUS
  0
LAYER
  5
49
330
2
100
AcDbSymbolTableRecord
100
AcDbLayerTableRecord
  2
16
 70
     0
 62
    16
  6
CONTINUOUS
  0
LAYER
  5
4A
330
2
100
AcDbSymbolTableRecord
100
AcDbLayerTableRecord
  2
17
 70
     0
 62
    17
  6
CONTINUOUS
  0
LAYER
  5
4B
330
2
100
AcDbSymbolTableRecord
100
AcDbLayerTableRecord
  2
18
 70
     0
 62
    18
  6
CONTINUOUS
  0
LAYER
  5
4C
330
2
100
AcDbSymbolTableRecord
100
AcDbLayerTableRecord
  2
19
 70
     0
 62
    19
  6
CONTINUOUS
  0
LAYER
  5
4D
330
2
100
AcDbSymbolTableRecord
100
AcDbLayerTableRecord
  2
20
 70
     0
 62
    20
  6
CONTINUOUS
  0
LAYER
  5
4E
330
2
100
AcDbSymbolTableRecord
100
AcDbLayerTableRecord
  2
21
 70
     0
 62
    21
  6
CONTINUOUS
  0
LAYER
  5
4F
330
2
100
AcDbSymbolTableRecord
100
AcDbLayerTableRecord
  2
22
 70
     0
 62
    22
  6
CONTINUOUS
  0
LAYER
  5
50
330
2
100
AcDbSymbolTableRecord
100
AcDbLayerTableRecord
  2
23
 70
     0
 62
    23
  6
CONTINUOUS
  0
LAYER
  5
51
330
2
100
AcDbSymbolTableRecord
100
AcDbLayerTableRecord
  2
24
 70
     0
 62
    24
  6
CONTINUOUS
  0
LAYER
  5
52
330
2
100
AcDbSymbolTableRecord
100
AcDbLayerTableRecord
  2
25
 70
     0
 62
    25
  6
CONTINUOUS
  0
LAYER
  5
53
330
2
100
AcDbSymbolTableRecord
100
AcDbLayerTableRecord
  2
26
 70
     0
 62
    26
  6
CONTINUOUS
  0
LAYER
  5
54
330
2
100
AcDbSymbolTableRecord
100
AcDbLayerTableRecord
  2
27
 70
     0
 62
    27
  6
CONTINUOUS
  0
LAYER
  5
55
330
2
100
AcDbSymbolTableRecord
100
AcDbLayerTableRecord
  2
28
 70
     0
 62
    28
  6
CONTINUOUS
  0
LAYER
  5
56
330
2
100
AcDbSymbolTableRecord
100
AcDbLayerTableRecord
  2
29
 70
     0
 62
    29
  6
CONTINUOUS
  0
LAYER
  5
57
330
2
100
AcDbSymbolTableRecord
100
AcDbLayerTableRecord
  2
30
 70
     0
 62
    30
  6
CONTINUOUS
  0
LAYER
  5
58
330
2
100
AcDbSymbolTableRecord
100
AcDbLayerTableRecord
  2
31
 70
     0
 62
    31
  6
CONTINUOUS
  0
LAYER
  5
59
330
2
100
AcDbSymbolTableRecord
100
AcDbLayerTableRecord
  2
32
 70
     0
 62
    32
  6
CONTINUOUS
  0
LAYER
  5
5A
330
2
100
AcDbSymbolTableRecord
100
AcDbLayerTableRecord
  2
33
 70
     0
 62
    33
  6
CONTINUOUS
  0
LAYER
  5
5B
330
2
100
AcDbSymbolTableRecord
100
AcDbLayerTableRecord
  2
34
 70
     0
 62
    34
  6
CONTINUOUS
  0
LAYER
  5
5C
330
2
100
AcDbSymbolTableRecord
100
AcDbLayerTableRecord
  2
35
 70
     0
 62
    35
  6
CONTINUOUS
  0
LAYER
  5
5D
330
2
100
AcDbSymbolTableRecord
100
AcDbLayerTableRecord
  2
36
 70
     0
 62
    36
  6
CONTINUOUS
  0
LAYER
  5
5E
330
2
100
AcDbSymbolTableRecord
100
AcDbLayerTableRecord
  2
37
 70
     0
 62
    37
  6
CONTINUOUS
  0
LAYER
  5
5F
330
2
100
AcDbSymbolTableRecord
100
AcDbLayerTableRecord
  2
38
 70
     0
 62
    38
  6
CONTINUOUS
  0
LAYER
  5
60
330
2
100
AcDbSymbolTableRecord
100
AcDbLayerTableRecord
  2
39
 70
     0
 62
    39
  6
CONTINUOUS
  0
LAYER
  5
61
330
2
100
AcDbSymbolTableRecord
100
AcDbLayerTableRecord
  2
40
 70
     0
 62
    40
  6
CONTINUOUS
  0
LAYER
  5
62
330
2
100
AcDbSymbolTableRecord
100
AcDbLayerTableRecord
  2
41
 70
     0
 62
    41
  6
CONTINUOUS
  0
LAYER
  5
63
330
2
100
AcDbSymbolTableRecord
100
AcDbLayerTableRecord
  2
42
 70
     0
 62
    42
  6
CONTINUOUS
  0
LAYER
  5
64
330
2
100
AcDbSymbolTableRecord
100
AcDbLayerTableRecord
  2
43
 70
     0
 62
    43
  6
CONTINUOUS
  0
LAYER
  5
65
330
2
100
AcDbSymbolTableRecord
100
AcDbLayerTableRecord
  2
44
 70
     0
 62
    44
  6
CONTINUOUS
  0
LAYER
  5
66
330
2
100
AcDbSymbolTableRecord
100
AcDbLayerTableRecord
  2
45
 70
     0
 62
    45
  6
CONTINUOUS
  0
LAYER
  5
67
330
2
100
AcDbSymbolTableRecord
100
AcDbLayerTableRecord
  2
46
 70
     0
 62
    46
  6
CONTINUOUS
  0
LAYER
  5
68
330
2
100
AcDbSymbolTableRecord
100
AcDbLayerTableRecord
  2
47
 70
     0
 62
    47
  6
CONTINUOUS
  0
LAYER
  5
69
330
2
100
AcDbSymbolTableRecord
100
AcDbLayerTableRecord
  2
48
 70
     0
 62
    48
  6
CONTINUOUS
  0
LAYER
  5
6A
330
2
100
AcDbSymbolTableRecord
100
AcDbLayerTableRecord
  2
49
 70
     0
 62
    49
  6
CONTINUOUS
  0
LAYER
  5
6B
330
2
100
AcDbSymbolTableRecord
100
AcDbLayerTableRecord
  2
50
 70
     0
 62
    50
  6
CONTINUOUS
  0
LAYER
  5
6C
330
2
100
AcDbSymbolTableRecord
100
AcDbLayerTableRecord
  2
51
 70
     0
 62
    51
  6
CONTINUOUS
  0
LAYER
  5
6D
330
2
100
AcDbSymbolTableRecord
100
AcDbLayerTableRecord
  2
52
 70
     0
 62
    52
  6
CONTINUOUS
  0
LAYER
  5
6E
330
2
100
AcDbSymbolTableRecord
100
AcDbLayerTableRecord
  2
53
 70
     0
 62
    53
  6
CONTINUOUS
  0
LAYER
  5
6F
330
2
100
AcDbSymbolTableRecord
100
AcDbLayerTableRecord
  2
54
 70
     0
 62
    54
  6
CONTINUOUS
  0
LAYER
  5
70
330
2
100
AcDbSymbolTableRecord
100
AcDbLayerTableRecord
  2
55
 70
     0
 62
    55
  6
CONTINUOUS
  0
LAYER
  5
71
330
2
100
AcDbSymbolTableRecord
100
AcDbLayerTableRecord
  2
56
 70
     0
 62
    56
  6
CONTINUOUS
  0
LAYER
  5
72
330
2
100
AcDbSymbolTableRecord
100
AcDbLayerTableRecord
  2
57
 70
     0
 62
    57
  6
CONTINUOUS
  0
LAYER
  5
73
330
2
100
AcDbSymbolTableRecord
100
AcDbLayerTableRecord
  2
58
 70
     0
 62
    58
  6
CONTINUOUS
  0
LAYER
  5
74
330
2
100
AcDbSymbolTableRecord
100
AcDbLayerTableRecord
  2
59
 70
     0
 62
    59
  6
CONTINUOUS
  0
LAYER
  5
75
330
2
100
AcDbSymbolTableRecord
100
AcDbLayerTableRecord
  2
60
 70
     0
 62
    60
  6
CONTINUOUS
  0
LAYER
  5
76
330
2
100
AcDbSymbolTableRecord
100
AcDbLayerTableRecord
  2
61
 70
     0
 62
    61
  6
CONTINUOUS
  0
LAYER
  5
77
330
2
100
AcDbSymbolTableRecord
100
AcDbLayerTableRecord
  2
62
 70
     0
 62
    62
  6
CONTINUOUS
  0
LAYER
  5
78
330
2
100
AcDbSymbolTableRecord
100
AcDbLayerTableRecord
  2
63
 70
     0
 62
    63
  6
CONTINUOUS
  0
LAYER
  5
79
330
2
100
AcDbSymbolTableRecord
100
AcDbLayerTableRecord
  2
64
 70
     0
 62
    64
  6
CONTINUOUS
  0
LAYER
  5
7A
330
2
100
AcDbSymbolTableRecord
100
AcDbLayerTableRecord
  2
65
 70
     0
 62
    65
  6
CONTINUOUS
  0
LAYER
  5
7B
330
2
100
AcDbSymbolTableRecord
100
AcDbLayerTableRecord
  2
66
 70
     0
 62
    66
  6
CONTINUOUS
  0
LAYER
  5
7C
330
2
100
AcDbSymbolTableRecord
100
AcDbLayerTableRecord
  2
67
 70
     0
 62
    67
  6
CONTINUOUS
  0
LAYER
  5
7D
330
2
100
AcDbSymbolTableRecord
100
AcDbLayerTableRecord
  2
68
 70
     0
 62
    68
  6
CONTINUOUS
  0
LAYER
  5
7E
330
2
100
AcDbSymbolTableRecord
100
AcDbLayerTableRecord
  2
69
 70
     0
 62
    69
  6
CONTINUOUS
  0
LAYER
  5
7F
330
2
100
AcDbSymbolTableRecord
100
AcDbLayerTableRecord
  2
70
 70
     0
 62
    70
  6
CONTINUOUS
  0
LAYER
  5
80
330
2
100
AcDbSymbolTableRecord
100
AcDbLayerTableRecord
  2
71
 70
     0
 62
    71
  6
CONTINUOUS
  0
LAYER
  5
81
330
2
100
AcDbSymbolTableRecord
100
AcDbLayerTableRecord
  2
72
 70
     0
 62
    72
  6
CONTINUOUS
  0
LAYER
  5
82
330
2
100
AcDbSymbolTableRecord
100
AcDbLayerTableRecord
  2
73
 70
     0
 62
    73
  6
CONTINUOUS
  0
LAYER
  5
83
330
2
100
AcDbSymbolTableRecord
100
AcDbLayerTableRecord
  2
74
 70
     0
 62
    74
  6
CONTINUOUS
  0
LAYER
  5
84
330
2
100
AcDbSymbolTableRecord
100
AcDbLayerTableRecord
  2
75
 70
     0
 62
    75
  6
CONTINUOUS
  0
LAYER
  5
85
330
2
100
AcDbSymbolTableRecord
100
AcDbLayerTableRecord
  2
76
 70
     0
 62
    76
  6
CONTINUOUS
  0
LAYER
  5
86
330
2
100
AcDbSymbolTableRecord
100
AcDbLayerTableRecord
  2
77
 70
     0
 62
    77
  6
CONTINUOUS
  0
LAYER
  5
87
330
2
100
AcDbSymbolTableRecord
100
AcDbLayerTableRecord
  2
78
 70
     0
 62
    78
  6
CONTINUOUS
  0
LAYER
  5
88
330
2
100
AcDbSymbolTableRecord
100
AcDbLayerTableRecord
  2
79
 70
     0
 62
    79
  6
CONTINUOUS
  0
LAYER
  5
89
330
2
100
AcDbSymbolTableRecord
100
AcDbLayerTableRecord
  2
80
 70
     0
 62
    80
  6
CONTINUOUS
  0
LAYER
  5
8A
330
2
100
AcDbSymbolTableRecord
100
AcDbLayerTableRecord
  2
81
 70
     0
 62
    81
  6
CONTINUOUS
  0
LAYER
  5
8B
330
2
100
AcDbSymbolTableRecord
100
AcDbLayerTableRecord
  2
82
 70
     0
 62
    82
  6
CONTINUOUS
  0
LAYER
  5
8C
330
2
100
AcDbSymbolTableRecord
100
AcDbLayerTableRecord
  2
83
 70
     0
 62
    83
  6
CONTINUOUS
  0
LAYER
  5
8D
330
2
100
AcDbSymbolTableRecord
100
AcDbLayerTableRecord
  2
84
 70
     0
 62
    84
  6
CONTINUOUS
  0
LAYER
  5
8E
330
2
100
AcDbSymbolTableRecord
100
AcDbLayerTableRecord
  2
85
 70
     0
 62
    85
  6
CONTINUOUS
  0
LAYER
  5
8F
330
2
100
AcDbSymbolTableRecord
100
AcDbLayerTableRecord
  2
86
 70
     0
 62
    86
  6
CONTINUOUS
  0
LAYER
  5
90
330
2
100
AcDbSymbolTableRecord
100
AcDbLayerTableRecord
  2
87
 70
     0
 62
    87
  6
CONTINUOUS
  0
LAYER
  5
91
330
2
100
AcDbSymbolTableRecord
100
AcDbLayerTableRecord
  2
88
 70
     0
 62
    88
  6
CONTINUOUS
  0
LAYER
  5
92
330
2
100
AcDbSymbolTableRecord
100
AcDbLayerTableRecord
  2
89
 70
     0
 62
    89
  6
CONTINUOUS
  0
LAYER
  5
93
330
2
100
AcDbSymbolTableRecord
100
AcDbLayerTableRecord
  2
90
 70
     0
 62
    90
  6
CONTINUOUS
  0
LAYER
  5
94
330
2
100
AcDbSymbolTableRecord
100
AcDbLayerTableRecord
  2
91
 70
     0
 62
    91
  6
CONTINUOUS
  0
LAYER
  5
95
330
2
100
AcDbSymbolTableRecord
100
AcDbLayerTableRecord
  2
92
 70
     0
 62
    92
  6
CONTINUOUS
  0
LAYER
  5
96
330
2
100
AcDbSymbolTableRecord
100
AcDbLayerTableRecord
  2
93
 70
     0
 62
    93
  6
CONTINUOUS
  0
LAYER
  5
97
330
2
100
AcDbSymbolTableRecord
100
AcDbLayerTableRecord
  2
94
 70
     0
 62
    94
  6
CONTINUOUS
  0
LAYER
  5
98
330
2
100
AcDbSymbolTableRecord
100
AcDbLayerTableRecord
  2
95
 70
     0
 62
    95
  6
CONTINUOUS
  0
LAYER
  5
99
330
2
100
AcDbSymbolTableRecord
100
AcDbLayerTableRecord
  2
96
 70
     0
 62
    96
  6
CONTINUOUS
  0
LAYER
  5
9A
330
2
100
AcDbSymbolTableRecord
100
AcDbLayerTableRecord
  2
97
 70
     0
 62
    97
  6
CONTINUOUS
  0
LAYER
  5
9B
330
2
100
AcDbSymbolTableRecord
100
AcDbLayerTableRecord
  2
98
 70
     0
 62
    98
  6
CONTINUOUS
  0
LAYER
  5
9C
330
2
100
AcDbSymbolTableRecord
100
AcDbLayerTableRecord
  2
99
 70
     0
 62
    99
  6
CONTINUOUS
  0
LAYER
  5
9D
330
2
100
AcDbSymbolTableRecord
100
AcDbLayerTableRecord
  2
100
 70
     0
 62
   100
  6
CONTINUOUS
  0
LAYER
  5
9E
330
2
100
AcDbSymbolTableRecord
100
AcDbLayerTableRecord
  2
101
 70
     0
 62
   101
  6
CONTINUOUS
  0
LAYER
  5
9F
330
2
100
AcDbSymbolTableRecord
100
AcDbLayerTableRecord
  2
102
 70
     0
 62
   102
  6
CONTINUOUS
  0
LAYER
  5
A0
330
2
100
AcDbSymbolTableRecord
100
AcDbLayerTableRecord
  2
103
 70
     0
 62
   103
  6
CONTINUOUS
  0
LAYER
  5
A1
330
2
100
AcDbSymbolTableRecord
100
AcDbLayerTableRecord
  2
104
 70
     0
 62
   104
  6
CONTINUOUS
  0
LAYER
  5
A2
330
2
100
AcDbSymbolTableRecord
100
AcDbLayerTableRecord
  2
105
 70
     0
 62
   105
  6
CONTINUOUS
  0
LAYER
  5
A3
330
2
100
AcDbSymbolTableRecord
100
AcDbLayerTableRecord
  2
106
 70
     0
 62
   106
  6
CONTINUOUS
  0
LAYER
  5
A4
330
2
100
AcDbSymbolTableRecord
100
AcDbLayerTableRecord
  2
107
 70
     0
 62
   107
  6
CONTINUOUS
  0
LAYER
  5
A5
330
2
100
AcDbSymbolTableRecord
100
AcDbLayerTableRecord
  2
108
 70
     0
 62
   108
  6
CONTINUOUS
  0
LAYER
  5
A6
330
2
100
AcDbSymbolTableRecord
100
AcDbLayerTableRecord
  2
109
 70
     0
 62
   109
  6
CONTINUOUS
  0
LAYER
  5
A7
330
2
100
AcDbSymbolTableRecord
100
AcDbLayerTableRecord
  2
110
 70
     0
 62
   110
  6
CONTINUOUS
  0
LAYER
  5
A8
330
2
100
AcDbSymbolTableRecord
100
AcDbLayerTableRecord
  2
111
 70
     0
 62
   111
  6
CONTINUOUS
  0
LAYER
  5
A9
330
2
100
AcDbSymbolTableRecord
100
AcDbLayerTableRecord
  2
112
 70
     0
 62
   112
  6
CONTINUOUS
  0
LAYER
  5
AA
330
2
100
AcDbSymbolTableRecord
100
AcDbLayerTableRecord
  2
113
 70
     0
 62
   113
  6
CONTINUOUS
  0
LAYER
  5
AB
330
2
100
AcDbSymbolTableRecord
100
AcDbLayerTableRecord
  2
114
 70
     0
 62
   114
  6
CONTINUOUS
  0
LAYER
  5
AC
330
2
100
AcDbSymbolTableRecord
100
AcDbLayerTableRecord
  2
115
 70
     0
 62
   115
  6
CONTINUOUS
  0
LAYER
  5
AD
330
2
100
AcDbSymbolTableRecord
100
AcDbLayerTableRecord
  2
116
 70
     0
 62
   116
  6
CONTINUOUS
  0
LAYER
  5
AE
330
2
100
AcDbSymbolTableRecord
100
AcDbLayerTableRecord
  2
117
 70
     0
 62
   117
  6
CONTINUOUS
  0
LAYER
  5
AF
330
2
100
AcDbSymbolTableRecord
100
AcDbLayerTableRecord
  2
118
 70
     0
 62
   118
  6
CONTINUOUS
  0
LAYER
  5
B0
330
2
100
AcDbSymbolTableRecord
100
AcDbLayerTableRecord
  2
119
 70
     0
 62
   119
  6
CONTINUOUS
  0
LAYER
  5
B1
330
2
100
AcDbSymbolTableRecord
100
AcDbLayerTableRecord
  2
120
 70
     0
 62
   120
  6
CONTINUOUS
  0
LAYER
  5
B2
330
2
100
AcDbSymbolTableRecord
100
AcDbLayerTableRecord
  2
121
 70
     0
 62
   121
  6
CONTINUOUS
  0
LAYER
  5
B3
330
2
100
AcDbSymbolTableRecord
100
AcDbLayerTableRecord
  2
122
 70
     0
 62
   122
  6
CONTINUOUS
  0
LAYER
  5
B4
330
2
100
AcDbSymbolTableRecord
100
AcDbLayerTableRecord
  2
123
 70
     0
 62
   123
  6
CONTINUOUS
  0
LAYER
  5
B5
330
2
100
AcDbSymbolTableRecord
100
AcDbLayerTableRecord
  2
124
 70
     0
 62
   124
  6
CONTINUOUS
  0
LAYER
  5
B6
330
2
100
AcDbSymbolTableRecord
100
AcDbLayerTableRecord
  2
125
 70
     0
 62
   125
  6
CONTINUOUS
  0
LAYER
  5
B7
330
2
100
AcDbSymbolTableRecord
100
AcDbLayerTableRecord
  2
126
 70
     0
 62
   126
  6
CONTINUOUS
  0
LAYER
  5
B8
330
2
100
AcDbSymbolTableRecord
100
AcDbLayerTableRecord
  2
127
 70
     0
 62
   127
  6
CONTINUOUS
  0
LAYER
  5
B9
330
2
100
AcDbSymbolTableRecord
100
AcDbLayerTableRecord
  2
128
 70
     0
 62
   128
  6
CONTINUOUS
  0
LAYER
  5
BA
330
2
100
AcDbSymbolTableRecord
100
AcDbLayerTableRecord
  2
129
 70
     0
 62
   129
  6
CONTINUOUS
  0
LAYER
  5
BB
330
2
100
AcDbSymbolTableRecord
100
AcDbLayerTableRecord
  2
130
 70
     0
 62
   130
  6
CONTINUOUS
  0
LAYER
  5
BC
330
2
100
AcDbSymbolTableRecord
100
AcDbLayerTableRecord
  2
131
 70
     0
 62
   131
  6
CONTINUOUS
  0
LAYER
  5
BD
330
2
100
AcDbSymbolTableRecord
100
AcDbLayerTableRecord
  2
132
 70
     0
 62
   132
  6
CONTINUOUS
  0
LAYER
  5
BE
330
2
100
AcDbSymbolTableRecord
100
AcDbLayerTableRecord
  2
133
 70
     0
 62
   133
  6
CONTINUOUS
  0
LAYER
  5
BF
330
2
100
AcDbSymbolTableRecord
100
AcDbLayerTableRecord
  2
134
 70
     0
 62
   134
  6
CONTINUOUS
  0
LAYER
  5
C0
330
2
100
AcDbSymbolTableRecord
100
AcDbLayerTableRecord
  2
135
 70
     0
 62
   135
  6
CONTINUOUS
  0
LAYER
  5
C1
330
2
100
AcDbSymbolTableRecord
100
AcDbLayerTableRecord
  2
136
 70
     0
 62
   136
  6
CONTINUOUS
  0
LAYER
  5
C2
330
2
100
AcDbSymbolTableRecord
100
AcDbLayerTableRecord
  2
137
 70
     0
 62
   137
  6
CONTINUOUS
  0
LAYER
  5
C3
330
2
100
AcDbSymbolTableRecord
100
AcDbLayerTableRecord
  2
138
 70
     0
 62
   138
  6
CONTINUOUS
  0
LAYER
  5
C4
330
2
100
AcDbSymbolTableRecord
100
AcDbLayerTableRecord
  2
139
 70
     0
 62
   139
  6
CONTINUOUS
  0
LAYER
  5
C5
330
2
100
AcDbSymbolTableRecord
100
AcDbLayerTableRecord
  2
140
 70
     0
 62
   140
  6
CONTINUOUS
  0
LAYER
  5
C6
330
2
100
AcDbSymbolTableRecord
100
AcDbLayerTableRecord
  2
141
 70
     0
 62
   141
  6
CONTINUOUS
  0
LAYER
  5
C7
330
2
100
AcDbSymbolTableRecord
100
AcDbLayerTableRecord
  2
142
 70
     0
 62
   142
  6
CONTINUOUS
  0
LAYER
  5
C8
330
2
100
AcDbSymbolTableRecord
100
AcDbLayerTableRecord
  2
143
 70
     0
 62
   143
  6
CONTINUOUS
  0
LAYER
  5
C9
330
2
100
AcDbSymbolTableRecord
100
AcDbLayerTableRecord
  2
144
 70
     0
 62
   144
  6
CONTINUOUS
  0
LAYER
  5
CA
330
2
100
AcDbSymbolTableRecord
100
AcDbLayerTableRecord
  2
145
 70
     0
 62
   145
  6
CONTINUOUS
  0
LAYER
  5
CB
330
2
100
AcDbSymbolTableRecord
100
AcDbLayerTableRecord
  2
146
 70
     0
 62
   146
  6
CONTINUOUS
  0
LAYER
  5
CC
330
2
100
AcDbSymbolTableRecord
100
AcDbLayerTableRecord
  2
147
 70
     0
 62
   147
  6
CONTINUOUS
  0
LAYER
  5
CD
330
2
100
AcDbSymbolTableRecord
100
AcDbLayerTableRecord
  2
148
 70
     0
 62
   148
  6
CONTINUOUS
  0
LAYER
  5
CE
330
2
100
AcDbSymbolTableRecord
100
AcDbLayerTableRecord
  2
149
 70
     0
 62
   149
  6
CONTINUOUS
  0
LAYER
  5
CF
330
2
100
AcDbSymbolTableRecord
100
AcDbLayerTableRecord
  2
150
 70
     0
 62
   150
  6
CONTINUOUS
  0
LAYER
  5
D0
330
2
100
AcDbSymbolTableRecord
100
AcDbLayerTableRecord
  2
151
 70
     0
 62
   151
  6
CONTINUOUS
  0
LAYER
  5
D1
330
2
100
AcDbSymbolTableRecord
100
AcDbLayerTableRecord
  2
152
 70
     0
 62
   152
  6
CONTINUOUS
  0
LAYER
  5
D2
330
2
100
AcDbSymbolTableRecord
100
AcDbLayerTableRecord
  2
153
 70
     0
 62
   153
  6
CONTINUOUS
  0
LAYER
  5
D3
330
2
100
AcDbSymbolTableRecord
100
AcDbLayerTableRecord
  2
154
 70
     0
 62
   154
  6
CONTINUOUS
  0
LAYER
  5
D4
330
2
100
AcDbSymbolTableRecord
100
AcDbLayerTableRecord
  2
155
 70
     0
 62
   155
  6
CONTINUOUS
  0
LAYER
  5
D5
330
2
100
AcDbSymbolTableRecord
100
AcDbLayerTableRecord
  2
156
 70
     0
 62
   156
  6
CONTINUOUS
  0
LAYER
  5
D6
330
2
100
AcDbSymbolTableRecord
100
AcDbLayerTableRecord
  2
157
 70
     0
 62
   157
  6
CONTINUOUS
  0
LAYER
  5
D7
330
2
100
AcDbSymbolTableRecord
100
AcDbLayerTableRecord
  2
158
 70
     0
 62
   158
  6
CONTINUOUS
  0
LAYER
  5
D8
330
2
100
AcDbSymbolTableRecord
100
AcDbLayerTableRecord
  2
159
 70
     0
 62
   159
  6
CONTINUOUS
  0
LAYER
  5
D9
330
2
100
AcDbSymbolTableRecord
100
AcDbLayerTableRecord
  2
160
 70
     0
 62
   160
  6
CONTINUOUS
  0
LAYER
  5
DA
330
2
100
AcDbSymbolTableRecord
100
AcDbLayerTableRecord
  2
161
 70
     0
 62
   161
  6
CONTINUOUS
  0
LAYER
  5
DB
330
2
100
AcDbSymbolTableRecord
100
AcDbLayerTableRecord
  2
162
 70
     0
 62
   162
  6
CONTINUOUS
  0
LAYER
  5
DC
330
2
100
AcDbSymbolTableRecord
100
AcDbLayerTableRecord
  2
163
 70
     0
 62
   163
  6
CONTINUOUS
  0
LAYER
  5
DD
330
2
100
AcDbSymbolTableRecord
100
AcDbLayerTableRecord
  2
164
 70
     0
 62
   164
  6
CONTINUOUS
  0
LAYER
  5
DE
330
2
100
AcDbSymbolTableRecord
100
AcDbLayerTableRecord
  2
165
 70
     0
 62
   165
  6
CONTINUOUS
  0
LAYER
  5
DF
330
2
100
AcDbSymbolTableRecord
100
AcDbLayerTableRecord
  2
166
 70
     0
 62
   166
  6
CONTINUOUS
  0
LAYER
  5
E0
330
2
100
AcDbSymbolTableRecord
100
AcDbLayerTableRecord
  2
167
 70
     0
 62
   167
  6
CONTINUOUS
  0
LAYER
  5
E1
330
2
100
AcDbSymbolTableRecord
100
AcDbLayerTableRecord
  2
168
 70
     0
 62
   168
  6
CONTINUOUS
  0
LAYER
  5
E2
330
2
100
AcDbSymbolTableRecord
100
AcDbLayerTableRecord
  2
169
 70
     0
 62
   169
  6
CONTINUOUS
  0
LAYER
  5
E3
330
2
100
AcDbSymbolTableRecord
100
AcDbLayerTableRecord
  2
170
 70
     0
 62
   170
  6
CONTINUOUS
  0
LAYER
  5
E4
330
2
100
AcDbSymbolTableRecord
100
AcDbLayerTableRecord
  2
171
 70
     0
 62
   171
  6
CONTINUOUS
  0
LAYER
  5
E5
330
2
100
AcDbSymbolTableRecord
100
AcDbLayerTableRecord
  2
172
 70
     0
 62
   172
  6
CONTINUOUS
  0
LAYER
  5
E6
330
2
100
AcDbSymbolTableRecord
100
AcDbLayerTableRecord
  2
173
 70
     0
 62
   173
  6
CONTINUOUS
  0
LAYER
  5
E7
330
2
100
AcDbSymbolTableRecord
100
AcDbLayerTableRecord
  2
174
 70
     0
 62
   174
  6
CONTINUOUS
  0
LAYER
  5
E8
330
2
100
AcDbSymbolTableRecord
100
AcDbLayerTableRecord
  2
175
 70
     0
 62
   175
  6
CONTINUOUS
  0
LAYER
  5
E9
330
2
100
AcDbSymbolTableRecord
100
AcDbLayerTableRecord
  2
176
 70
     0
 62
   176
  6
CONTINUOUS
  0
LAYER
  5
EA
330
2
100
AcDbSymbolTableRecord
100
AcDbLayerTableRecord
  2
177
 70
     0
 62
   177
  6
CONTINUOUS
  0
LAYER
  5
EB
330
2
100
AcDbSymbolTableRecord
100
AcDbLayerTableRecord
  2
178
 70
     0
 62
   178
  6
CONTINUOUS
  0
LAYER
  5
EC
330
2
100
AcDbSymbolTableRecord
100
AcDbLayerTableRecord
  2
179
 70
     0
 62
   179
  6
CONTINUOUS
  0
LAYER
  5
ED
330
2
100
AcDbSymbolTableRecord
100
AcDbLayerTableRecord
  2
180
 70
     0
 62
   180
  6
CONTINUOUS
  0
LAYER
  5
EE
330
2
100
AcDbSymbolTableRecord
100
AcDbLayerTableRecord
  2
181
 70
     0
 62
   181
  6
CONTINUOUS
  0
LAYER
  5
EF
330
2
100
AcDbSymbolTableRecord
100
AcDbLayerTableRecord
  2
182
 70
     0
 62
   182
  6
CONTINUOUS
  0
LAYER
  5
F0
330
2
100
AcDbSymbolTableRecord
100
AcDbLayerTableRecord
  2
183
 70
     0
 62
   183
  6
CONTINUOUS
  0
LAYER
  5
F1
330
2
100
AcDbSymbolTableRecord
100
AcDbLayerTableRecord
  2
184
 70
     0
 62
   184
  6
CONTINUOUS
  0
LAYER
  5
F2
330
2
100
AcDbSymbolTableRecord
100
AcDbLayerTableRecord
  2
185
 70
     0
 62
   185
  6
CONTINUOUS
  0
LAYER
  5
F3
330
2
100
AcDbSymbolTableRecord
100
AcDbLayerTableRecord
  2
186
 70
     0
 62
   186
  6
CONTINUOUS
  0
LAYER
  5
F4
330
2
100
AcDbSymbolTableRecord
100
AcDbLayerTableRecord
  2
187
 70
     0
 62
   187
  6
CONTINUOUS
  0
LAYER
  5
F5
330
2
100
AcDbSymbolTableRecord
100
AcDbLayerTableRecord
  2
188
 70
     0
 62
   188
  6
CONTINUOUS
  0
LAYER
  5
F6
330
2
100
AcDbSymbolTableRecord
100
AcDbLayerTableRecord
  2
189
 70
     0
 62
   189
  6
CONTINUOUS
  0
LAYER
  5
F7
330
2
100
AcDbSymbolTableRecord
100
AcDbLayerTableRecord
  2
190
 70
     0
 62
   190
  6
CONTINUOUS
  0
LAYER
  5
F8
330
2
100
AcDbSymbolTableRecord
100
AcDbLayerTableRecord
  2
191
 70
     0
 62
   191
  6
CONTINUOUS
  0
LAYER
  5
F9
330
2
100
AcDbSymbolTableRecord
100
AcDbLayerTableRecord
  2
192
 70
     0
 62
   192
  6
CONTINUOUS
  0
LAYER
  5
FA
330
2
100
AcDbSymbolTableRecord
100
AcDbLayerTableRecord
  2
193
 70
     0
 62
   193
  6
CONTINUOUS
  0
LAYER
  5
FB
330
2
100
AcDbSymbolTableRecord
100
AcDbLayerTableRecord
  2
194
 70
     0
 62
   194
  6
CONTINUOUS
  0
LAYER
  5
FC
330
2
100
AcDbSymbolTableRecord
100
AcDbLayerTableRecord
  2
195
 70
     0
 62
   195
  6
CONTINUOUS
  0
LAYER
  5
FD
330
2
100
AcDbSymbolTableRecord
100
AcDbLayerTableRecord
  2
196
 70
     0
 62
   196
  6
CONTINUOUS
  0
LAYER
  5
FE
330
2
100
AcDbSymbolTableRecord
100
AcDbLayerTableRecord
  2
197
 70
     0
 62
   197
  6
CONTINUOUS
  0
LAYER
  5
FF
330
2
100
AcDbSymbolTableRecord
100
AcDbLayerTableRecord
  2
198
 70
     0
 62
   198
  6
CONTINUOUS
  0
LAYER
  5
100
330
2
100
AcDbSymbolTableRecord
100
AcDbLayerTableRecord
  2
199
 70
     0
 62
   199
  6
CONTINUOUS
  0
LAYER
  5
101
330
2
100
AcDbSymbolTableRecord
100
AcDbLayerTableRecord
  2
200
 70
     0
 62
   200
  6
CONTINUOUS
  0
LAYER
  5
102
330
2
100
AcDbSymbolTableRecord
100
AcDbLayerTableRecord
  2
201
 70
     0
 62
   201
  6
CONTINUOUS
  0
LAYER
  5
103
330
2
100
AcDbSymbolTableRecord
100
AcDbLayerTableRecord
  2
202
 70
     0
 62
   202
  6
CONTINUOUS
  0
LAYER
  5
104
330
2
100
AcDbSymbolTableRecord
100
AcDbLayerTableRecord
  2
203
 70
     0
 62
   203
  6
CONTINUOUS
  0
LAYER
  5
105
330
2
100
AcDbSymbolTableRecord
100
AcDbLayerTableRecord
  2
204
 70
     0
 62
   204
  6
CONTINUOUS
  0
LAYER
  5
106
330
2
100
AcDbSymbolTableRecord
100
AcDbLayerTableRecord
  2
205
 70
     0
 62
   205
  6
CONTINUOUS
  0
LAYER
  5
107
330
2
100
AcDbSymbolTableRecord
100
AcDbLayerTableRecord
  2
206
 70
     0
 62
   206
  6
CONTINUOUS
  0
LAYER
  5
108
330
2
100
AcDbSymbolTableRecord
100
AcDbLayerTableRecord
  2
207
 70
     0
 62
   207
  6
CONTINUOUS
  0
LAYER
  5
109
330
2
100
AcDbSymbolTableRecord
100
AcDbLayerTableRecord
  2
208
 70
     0
 62
   208
  6
CONTINUOUS
  0
LAYER
  5
10A
330
2
100
AcDbSymbolTableRecord
100
AcDbLayerTableRecord
  2
209
 70
     0
 62
   209
  6
CONTINUOUS
  0
LAYER
  5
10B
330
2
100
AcDbSymbolTableRecord
100
AcDbLayerTableRecord
  2
210
 70
     0
 62
   210
  6
CONTINUOUS
  0
LAYER
  5
10C
330
2
100
AcDbSymbolTableRecord
100
AcDbLayerTableRecord
  2
211
 70
     0
 62
   211
  6
CONTINUOUS
  0
LAYER
  5
10D
330
2
100
AcDbSymbolTableRecord
100
AcDbLayerTableRecord
  2
212
 70
     0
 62
   212
  6
CONTINUOUS
  0
LAYER
  5
10E
330
2
100
AcDbSymbolTableRecord
100
AcDbLayerTableRecord
  2
213
 70
     0
 62
   213
  6
CONTINUOUS
  0
LAYER
  5
10F
330
2
100
AcDbSymbolTableRecord
100
AcDbLayerTableRecord
  2
214
 70
     0
 62
   214
  6
CONTINUOUS
  0
LAYER
  5
110
330
2
100
AcDbSymbolTableRecord
100
AcDbLayerTableRecord
  2
215
 70
     0
 62
   215
  6
CONTINUOUS
  0
LAYER
  5
111
330
2
100
AcDbSymbolTableRecord
100
AcDbLayerTableRecord
  2
216
 70
     0
 62
   216
  6
CONTINUOUS
  0
LAYER
  5
112
330
2
100
AcDbSymbolTableRecord
100
AcDbLayerTableRecord
  2
217
 70
     0
 62
   217
  6
CONTINUOUS
  0
LAYER
  5
113
330
2
100
AcDbSymbolTableRecord
100
AcDbLayerTableRecord
  2
218
 70
     0
 62
   218
  6
CONTINUOUS
  0
LAYER
  5
114
330
2
100
AcDbSymbolTableRecord
100
AcDbLayerTableRecord
  2
219
 70
     0
 62
   219
  6
CONTINUOUS
  0
LAYER
  5
115
330
2
100
AcDbSymbolTableRecord
100
AcDbLayerTableRecord
  2
220
 70
     0
 62
   220
  6
CONTINUOUS
  0
LAYER
  5
116
330
2
100
AcDbSymbolTableRecord
100
AcDbLayerTableRecord
  2
221
 70
     0
 62
   221
  6
CONTINUOUS
  0
LAYER
  5
117
330
2
100
AcDbSymbolTableRecord
100
AcDbLayerTableRecord
  2
222
 70
     0
 62
   222
  6
CONTINUOUS
  0
LAYER
  5
118
330
2
100
AcDbSymbolTableRecord
100
AcDbLayerTableRecord
  2
223
 70
     0
 62
   223
  6
CONTINUOUS
  0
LAYER
  5
119
330
2
100
AcDbSymbolTableRecord
100
AcDbLayerTableRecord
  2
224
 70
     0
 62
   224
  6
CONTINUOUS
  0
LAYER
  5
11A
330
2
100
AcDbSymbolTableRecord
100
AcDbLayerTableRecord
  2
225
 70
     0
 62
   225
  6
CONTINUOUS
  0
LAYER
  5
11B
330
2
100
AcDbSymbolTableRecord
100
AcDbLayerTableRecord
  2
226
 70
     0
 62
   226
  6
CONTINUOUS
  0
LAYER
  5
11C
330
2
100
AcDbSymbolTableRecord
100
AcDbLayerTableRecord
  2
227
 70
     0
 62
   227
  6
CONTINUOUS
  0
LAYER
  5
11D
330
2
100
AcDbSymbolTableRecord
100
AcDbLayerTableRecord
  2
228
 70
     0
 62
   228
  6
CONTINUOUS
  0
LAYER
  5
11E
330
2
100
AcDbSymbolTableRecord
100
AcDbLayerTableRecord
  2
229
 70
     0
 62
   229
  6
CONTINUOUS
  0
LAYER
  5
11F
330
2
100
AcDbSymbolTableRecord
100
AcDbLayerTableRecord
  2
230
 70
     0
 62
   230
  6
CONTINUOUS
  0
LAYER
  5
120
330
2
100
AcDbSymbolTableRecord
100
AcDbLayerTableRecord
  2
231
 70
     0
 62
   231
  6
CONTINUOUS
  0
LAYER
  5
121
330
2
100
AcDbSymbolTableRecord
100
AcDbLayerTableRecord
  2
232
 70
     0
 62
   232
  6
CONTINUOUS
  0
LAYER
  5
122
330
2
100
AcDbSymbolTableRecord
100
AcDbLayerTableRecord
  2
233
 70
     0
 62
   233
  6
CONTINUOUS
  0
LAYER
  5
123
330
2
100
AcDbSymbolTableRecord
100
AcDbLayerTableRecord
  2
234
 70
     0
 62
   234
  6
CONTINUOUS
  0
LAYER
  5
124
330
2
100
AcDbSymbolTableRecord
100
AcDbLayerTableRecord
  2
235
 70
     0
 62
   235
  6
CONTINUOUS
  0
LAYER
  5
125
330
2
100
AcDbSymbolTableRecord
100
AcDbLayerTableRecord
  2
236
 70
     0
 62
   236
  6
CONTINUOUS
  0
LAYER
  5
126
330
2
100
AcDbSymbolTableRecord
100
AcDbLayerTableRecord
  2
237
 70
     0
 62
   237
  6
CONTINUOUS
  0
LAYER
  5
127
330
2
100
AcDbSymbolTableRecord
100
AcDbLayerTableRecord
  2
238
 70
     0
 62
   238
  6
CONTINUOUS
  0
LAYER
  5
128
330
2
100
AcDbSymbolTableRecord
100
AcDbLayerTableRecord
  2
239
 70
     0
 62
   239
  6
CONTINUOUS
  0
LAYER
  5
129
330
2
100
AcDbSymbolTableRecord
100
AcDbLayerTableRecord
  2
240
 70
     0
 62
   240
  6
CONTINUOUS
  0
LAYER
  5
12A
330
2
100
AcDbSymbolTableRecord
100
AcDbLayerTableRecord
  2
241
 70
     0
 62
   241
  6
CONTINUOUS
  0
LAYER
  5
12B
330
2
100
AcDbSymbolTableRecord
100
AcDbLayerTableRecord
  2
242
 70
     0
 62
   242
  6
CONTINUOUS
  0
LAYER
  5
12C
330
2
100
AcDbSymbolTableRecord
100
AcDbLayerTableRecord
  2
243
 70
     0
 62
   243
  6
CONTINUOUS
  0
LAYER
  5
12D
330
2
100
AcDbSymbolTableRecord
100
AcDbLayerTableRecord
  2
244
 70
     0
 62
   244
  6
CONTINUOUS
  0
LAYER
  5
12E
330
2
100
AcDbSymbolTableRecord
100
AcDbLayerTableRecord
  2
245
 70
     0
 62
   245
  6
CONTINUOUS
  0
LAYER
  5
12F
330
2
100
AcDbSymbolTableRecord
100
AcDbLayerTableRecord
  2
246
 70
     0
 62
   246
  6
CONTINUOUS
  0
LAYER
  5
130
330
2
100
AcDbSymbolTableRecord
100
AcDbLayerTableRecord
  2
247
 70
     0
 62
   247
  6
CONTINUOUS
  0
LAYER
  5
131
330
2
100
AcDbSymbolTableRecord
100
AcDbLayerTableRecord
  2
248
 70
     0
 62
   248
  6
CONTINUOUS
  0
LAYER
  5
132
330
2
100
AcDbSymbolTableRecord
100
AcDbLayerTableRecord
  2
249
 70
     0
 62
   249
  6
CONTINUOUS
  0
LAYER
  5
133
330
2
100
AcDbSymbolTableRecord
100
AcDbLayerTableRecord
  2
250
 70
     0
 62
   250
  6
CONTINUOUS
  0
LAYER
  5
134
330
2
100
AcDbSymbolTableRecord
100
AcDbLayerTableRecord
  2
251
 70
     0
 62
   251
  6
CONTINUOUS
  0
LAYER
  5
135
330
2
100
AcDbSymbolTableRecord
100
AcDbLayerTableRecord
  2
252
 70
     0
 62
   252
  6
CONTINUOUS
  0
LAYER
  5
136
330
2
100
AcDbSymbolTableRecord
100
AcDbLayerTableRecord
  2
253
 70
     0
 62
   253
  6
CONTINUOUS
  0
LAYER
  5
137
330
2
100
AcDbSymbolTableRecord
100
AcDbLayerTableRecord
  2
254
 70
     0
 62
   254
  6
CONTINUOUS
  0
LAYER
  5
138
330
2
100
AcDbSymbolTableRecord
100
AcDbLayerTableRecord
  2
255
 70
     0
 62
   255
  6
CONTINUOUS
  0
ENDTAB
  0
TABLE
  2
STYLE
  5
3
330
0
100
AcDbSymbolTable
 70
     1
  0
STYLE
  5
11
330
3
100
AcDbSymbolTableRecord
100
AcDbTextStyleTableRecord
  2
STANDARD
 70
     0
 40
0.0
 41
1.0
 50
0.0
 71
     0
 42
0.2
  3
monotxt
  4

  0
ENDTAB
  0
TABLE
  2
VIEW
  5
6
330
0
100
AcDbSymbolTable
 70
     0
  0
ENDTAB
  0
TABLE
  2
UCS
  5
7
330
0
100
AcDbSymbolTable
 70
     0
  0
ENDTAB
  0
TABLE
  2
APPID
  5
9
330
0
100
AcDbSymbolTable
 70
     1
  0
APPID
  5
12
330
9
100
AcDbSymbolTableRecord
100
AcDbRegAppTableRecord
  2
ACAD
 70
     0
  0
ENDTAB
  0
TABLE
  2
DIMSTYLE
  5
A
330
0
100
AcDbSymbolTable
 70
     1
  0
DIMSTYLE
105
2F93
330
A
100
AcDbSymbolTableRecord
100
AcDbDimStyleTableRecord
  2
STANDARD
 70
     0
  3

  4

  5

  6

  7

 40
1.0
 41
0.18
 42
0.0625
 43
0.38
 44
0.18
 45
0.0
 46
0.0
 47
0.0
 48
0.0
140
0.18
141
0.09
142
0.0
143
25.4
144
1.0
145
0.0
146
1.0
147
0.09
 71
     0
 72
     0
 73
     1
 74
     1
 75
     0
 76
     0
 77
     0
 78
     0
170
     0
171
     2
172
     0
173
     0
174
     0
175
     0
176
     0
177
     0
178
     0
270
     2
271
     4
272
     4
273
     2
274
     2
340
11
275
     0
280
     0
281
     0
282
     0
283
     1
284
     0
285
     0
286
     0
287
     3
288
     0
  0
ENDTAB
  0
TABLE
  2
BLOCK_RECORD
  5
1
330
0
100
AcDbSymbolTable
 70
     0
  0
BLOCK_RECORD
  5
1E
102
{ACAD_XDICTIONARY
360
2F9B
102
}
330
1
100
AcDbSymbolTableRecord
100
AcDbBlockTableRecord
  2
*MODEL_SPACE
  0
BLOCK_RECORD
  5
1A
102
{ACAD_XDICTIONARY
360
2F9D
102
}
330
1
100
AcDbSymbolTableRecord
100
AcDbBlockTableRecord
  2
*PAPER_SPACE
  0
ENDTAB
  0
ENDSEC
  0
SECTION
  2
BLOCKS
  0
BLOCK
  5
13B
330
1E
100
AcDbEntity
  8
0
100
AcDbBlockBegin
  2
*MODEL_SPACE
 70
     0
 10
0.0
 20
0.0
 30
0.0
  3
*MODEL_SPACE
  1

  0
ENDBLK
  5
13C
330
1E
100
AcDbEntity
  8
0
100
AcDbBlockEnd
  0
BLOCK
  5
139
330
1A
100
AcDbEntity
 67
     1
  8
0
100
AcDbBlockBegin
  2
*PAPER_SPACE
 70
     0
 10
0.0
 20
0.0
 30
0.0
  3
*PAPER_SPACE
  1

  0
ENDBLK
  5
13A
330
1A
100
AcDbEntity
 67
     1
  8
0
100
AcDbBlockEnd
  0
ENDSEC
  0
SECTION
  2
ENTITIES
  0
LINE
  5
28AE
330
1E
100
AcDbEntity
  8
7
100
AcDbLine
 10
1.759366192171955
 20
3.121154214861476
 30
0.0
 11
1.763303200045971
 21
3.11721720698746
 31
0.0
  0
LINE
  5
28AF
330
1E
100
AcDbEntity
  8
7
100
AcDbLine
 10
1.702279577998726
 20
3.058162088877224
 30
0.0
 11
1.700311074061719
 21
3.060130592814232
 31
0.0
  0
LINE
  5
28B6
330
1E
100
AcDbEntity
  8
7
100
AcDbLine
 10
1.261334696108963
 20
3.461705395963837
 30
0.0
 11
1.263303200045971
 21
3.461705395963837
 31
0.0
  0
LINE
  5
28BC
330
1E
100
AcDbEntity
  8
7
100
AcDbLine
 10
1.324326822093215
 20
3.493201458955963
 30
0.0
 11
1.326295326030223
 21
3.491232955018956
 31
0.0
  0
LINE
  5
28BD
330
1E
100
AcDbEntity
  8
7
100
AcDbLine
 10
1.292830759101089
 20
3.461705395963837
 30
0.0
 11
1.314484302408176
 21
3.471547915648878
 31
0.0
  0
LINE
  5
28BE
330
1E
100
AcDbEntity
  8
7
100
AcDbLine
 10
1.314484302408176
 20
3.471547915648878
 30
0.0
 11
1.324326822093215
 21
3.493201458955963
 31
0.0
  0
LINE
  5
28BF
330
1E
100
AcDbEntity
  8
7
100
AcDbLine
 10
1.294799263038097
 20
3.461705395963837
 30
0.0
 11
1.292830759101089
 21
3.461705395963837
 31
0.0
  0
LINE
  5
28C0
330
1E
100
AcDbEntity
  8
7
100
AcDbLine
 10
1.326295326030223
 20
3.841626655806358
 30
0.0
 11
1.326295326030223
 21
3.491232955018956
 31
0.0
  0
LINE
  5
28C1
330
1E
100
AcDbEntity
  8
7
100
AcDbLine
 10
1.326295326030223
 20
3.841626655806358
 30
0.0
 11
1.324326822093215
 21
3.841626655806358
 31
0.0
  0
LINE
  5
28C2
330
1E
100
AcDbEntity
  8
7
100
AcDbLine
 10
1.324326822093215
 20
3.493201458955963
 30
0.0
 11
1.324326822093215
 21
3.841626655806358
 31
0.0
  0
LINE
  5
28C3
330
1E
100
AcDbEntity
  8
7
100
AcDbLine
 10
1.326295326030223
 20
6.772729018011082
 30
0.0
 11
1.326295326030223
 21
7.123122718798484
 31
0.0
  0
LINE
  5
28C4
330
1E
100
AcDbEntity
  8
7
100
AcDbLine
 10
1.324326822093215
 20
7.123122718798484
 30
0.0
 11
1.326295326030223
 21
7.123122718798484
 31
0.0
  0
LINE
  5
28C5
330
1E
100
AcDbEntity
  8
7
100
AcDbLine
 10
1.324326822093215
 20
7.123122718798484
 30
0.0
 11
1.324326822093215
 21
6.772729018011082
 31
0.0
  0
LINE
  5
28C6
330
1E
100
AcDbEntity
  8
7
100
AcDbLine
 10
1.326295326030223
 20
6.772729018011082
 30
0.0
 11
1.324326822093215
 21
6.772729018011082
 31
0.0
  0
LINE
  5
28D0
330
1E
100
AcDbEntity
  8
7
100
AcDbLine
 10
1.534956743353058
 20
3.28454004163313
 30
0.0
 11
1.534956743353058
 21
7.32981563218431
 31
0.0
  0
LINE
  5
28D1
330
1E
100
AcDbEntity
  8
7
100
AcDbLine
 10
1.261334696108963
 20
3.871154214861476
 30
0.0
 11
1.261334696108963
 21
3.461705395963837
 31
0.0
  0
LINE
  5
28D8
330
1E
100
AcDbEntity
  8
7
100
AcDbLine
 10
1.700311074061719
 20
7.554225081003208
 30
0.0
 11
1.702279577998726
 21
7.558162088877224
 31
0.0
  0
LINE
  5
28DF
330
1E
100
AcDbEntity
  8
7
100
AcDbLine
 10
1.261334696108963
 20
6.743201458955963
 30
0.0
 11
1.263303200045971
 21
6.743201458955963
 31
0.0
  0
LINE
  5
28F3
330
1E
100
AcDbEntity
  8
7
100
AcDbLine
 10
1.263303200045971
 20
7.152650277853602
 30
0.0
 11
1.292830759101089
 21
7.152650277853602
 31
0.0
  0
LINE
  5
28F4
330
1E
100
AcDbEntity
  8
7
100
AcDbLine
 10
1.292830759101089
 20
6.743201458955963
 30
0.0
 11
1.263303200045971
 21
6.743201458955963
 31
0.0
  0
LINE
  5
28F5
330
1E
100
AcDbEntity
  8
7
100
AcDbLine
 10
1.261334696108963
 20
7.152650277853602
 30
0.0
 11
1.263303200045971
 21
7.152650277853602
 31
0.0
  0
LINE
  5
28F6
330
1E
100
AcDbEntity
  8
7
100
AcDbLine
 10
1.534956743353058
 20
7.32981563218431
 30
0.0
 11
1.576295326030223
 21
7.384933742420532
 31
0.0
  0
LINE
  5
28FF
330
1E
100
AcDbEntity
  8
7
100
AcDbLine
 10
1.261334696108963
 20
6.743201458955963
 30
0.0
 11
1.261334696108963
 21
7.152650277853602
 31
0.0
  0
LINE
  5
2905
330
1E
100
AcDbEntity
  8
7
100
AcDbLine
 10
1.292830759101089
 20
3.873122718798484
 30
0.0
 11
1.294799263038097
 21
3.873122718798484
 31
0.0
  0
LINE
  5
290B
330
1E
100
AcDbEntity
  8
7
100
AcDbLine
 10
1.263303200045971
 20
3.461705395963837
 30
0.0
 11
1.292830759101089
 21
3.461705395963837
 31
0.0
  0
LINE
  5
290C
330
1E
100
AcDbEntity
  8
7
100
AcDbLine
 10
1.292830759101089
 20
3.873122718798484
 30
0.0
 11
1.263303200045971
 21
3.873122718798484
 31
0.0
  0
LINE
  5
290D
330
1E
100
AcDbEntity
  8
7
100
AcDbLine
 10
1.261334696108963
 20
3.871154214861476
 30
0.0
 11
1.263303200045971
 21
3.873122718798484
 31
0.0
  0
LINE
  5
2913
330
1E
100
AcDbEntity
  8
7
100
AcDbLine
 10
-0.4866967999540286
 20
3.873122718798484
 30
0.0
 11
-0.5162243590091471
 21
3.873122718798484
 31
0.0
  0
LINE
  5
2914
330
1E
100
AcDbEntity
  8
7
100
AcDbLine
 10
-0.4847282960170212
 20
3.871154214861476
 30
0.0
 11
-0.4866967999540286
 21
3.873122718798484
 31
0.0
  0
LINE
  5
2915
330
1E
100
AcDbEntity
  8
7
100
AcDbLine
 10
-0.4847282960170212
 20
3.871154214861476
 30
0.0
 11
1.261334696108963
 21
3.871154214861476
 31
0.0
  0
LINE
  5
2916
330
1E
100
AcDbEntity
  8
7
100
AcDbLine
 10
-0.4847282960170212
 20
3.871154214861476
 30
0.0
 11
-0.4847282960170212
 21
3.461705395963837
 31
0.0
  0
LINE
  5
2917
330
1E
100
AcDbEntity
  8
7
100
AcDbLine
 10
1.261334696108963
 20
3.461705395963837
 30
0.0
 11
-0.4847282960170212
 21
3.461705395963837
 31
0.0
  0
LINE
  5
2918
330
1E
100
AcDbEntity
  8
7
100
AcDbLine
 10
0.4483425701247113
 20
3.818004608562263
 30
0.0
 11
0.3282638299672316
 21
3.818004608562263
 31
0.0
  0
LINE
  5
2925
330
1E
100
AcDbEntity
  8
7
100
AcDbLine
 10
0.3282638299672316
 20
3.51485500226305
 30
0.0
 11
0.4483425701247113
 21
3.51485500226305
 31
0.0
  0
LINE
  5
2932
330
1E
100
AcDbEntity
  8
7
100
AcDbLine
 10
-0.4847282960170212
 20
6.743201458955963
 30
0.0
 11
1.261334696108963
 21
6.743201458955963
 31
0.0
  0
LINE
  5
2938
330
1E
100
AcDbEntity
  8
7
100
AcDbLine
 10
-0.5181928629461546
 20
6.741232955018956
 30
0.0
 11
-0.5162243590091471
 21
6.743201458955963
 31
0.0
  0
LINE
  5
2939
330
1E
100
AcDbEntity
  8
7
100
AcDbLine
 10
-0.5181928629461546
 20
6.741232955018956
 30
0.0
 11
1.294799263038097
 21
6.741232955018956
 31
0.0
  0
LINE
  5
293A
330
1E
100
AcDbEntity
  8
7
100
AcDbLine
 10
1.294799263038097
 20
7.15461878179061
 30
0.0
 11
-0.5181928629461546
 21
7.15461878179061
 31
0.0
  0
LINE
  5
293B
330
1E
100
AcDbEntity
  8
7
100
AcDbLine
 10
-0.5162243590091471
 20
7.152650277853602
 30
0.0
 11
-0.5181928629461546
 21
7.15461878179061
 31
0.0
  0
LINE
  5
293C
330
1E
100
AcDbEntity
  8
7
100
AcDbLine
 10
-0.5162243590091471
 20
7.152650277853602
 30
0.0
 11
-0.4866967999540286
 21
7.152650277853602
 31
0.0
  0
LINE
  5
293D
330
1E
100
AcDbEntity
  8
7
100
AcDbLine
 10
-0.4847282960170212
 20
7.152650277853602
 30
0.0
 11
-0.4866967999540286
 21
7.152650277853602
 31
0.0
  0
LINE
  5
293E
330
1E
100
AcDbEntity
  8
7
100
AcDbLine
 10
1.261334696108963
 20
7.152650277853602
 30
0.0
 11
-0.4847282960170212
 21
7.152650277853602
 31
0.0
  0
LINE
  5
293F
330
1E
100
AcDbEntity
  8
7
100
AcDbLine
 10
-0.4847282960170212
 20
6.743201458955963
 30
0.0
 11
-0.4847282960170212
 21
7.152650277853602
 31
0.0
  0
LINE
  5
2940
330
1E
100
AcDbEntity
  8
7
100
AcDbLine
 10
0.4483425701247113
 20
6.796351065255176
 30
0.0
 11
0.3282638299672316
 21
6.796351065255176
 31
0.0
  0
LINE
  5
2941
330
1E
100
AcDbEntity
  8
7
100
AcDbLine
 10
0.3282638299672316
 20
7.099500671554389
 30
0.0
 11
0.2770827276050269
 21
7.08965815186935
 31
0.0
  0
LINE
  5
294D
330
1E
100
AcDbEntity
  8
7
100
AcDbLine
 10
0.3282638299672316
 20
7.099500671554389
 30
0.0
 11
0.4483425701247113
 21
7.099500671554389
 31
0.0
  0
LINE
  5
294E
330
1E
100
AcDbEntity
  8
7
100
AcDbLine
 10
0.4483425701247113
 20
6.796351065255176
 30
0.0
 11
0.4995236724869168
 21
6.806193584940215
 31
0.0
  0
LINE
  5
295A
330
1E
100
AcDbEntity
  8
7
100
AcDbLine
 10
-0.9237046739697767
 20
7.554225081003208
 30
0.0
 11
1.700311074061719
 21
7.554225081003208
 31
0.0
  0
LINE
  5
295B
330
1E
100
AcDbEntity
  8
7
100
AcDbLine
 10
-0.9237046739697767
 20
7.554225081003208
 30
0.0
 11
-0.9158306582217452
 21
7.544382561318169
 31
0.0
  0
LINE
  5
2964
330
1E
100
AcDbEntity
  8
7
100
AcDbLine
 10
1.534956743353058
 20
7.32981563218431
 30
0.0
 11
-0.7583503432611157
 21
7.32981563218431
 31
0.0
  0
LINE
  5
2978
330
1E
100
AcDbEntity
  8
7
100
AcDbLine
 10
-0.5496889259382805
 20
7.123122718798484
 30
0.0
 11
-0.5496889259382805
 21
6.772729018011082
 31
0.0
  0
LINE
  5
2983
330
1E
100
AcDbEntity
  8
7
100
AcDbLine
 10
-0.2426023117650526
 20
6.676272325097697
 30
0.0
 11
-0.2426023117650526
 21
6.01485500226305
 31
0.0
  0
LINE
  5
2984
330
1E
100
AcDbEntity
  8
7
100
AcDbLine
 10
1.019208711856995
 20
6.676272325097697
 30
0.0
 11
-0.2426023117650526
 21
6.676272325097697
 31
0.0
  0
LINE
  5
2985
330
1E
100
AcDbEntity
  8
7
100
AcDbLine
 10
1.019208711856995
 20
6.676272325097697
 30
0.0
 11
1.019208711856995
 21
6.01485500226305
 31
0.0
  0
LINE
  5
2986
330
1E
100
AcDbEntity
  8
7
100
AcDbLine
 10
0.9522795779987269
 20
6.01485500226305
 30
0.0
 11
1.019208711856995
 21
6.01485500226305
 31
0.0
  0
LINE
  5
2987
330
1E
100
AcDbEntity
  8
7
100
AcDbLine
 10
0.9522795779987269
 20
5.949894372341791
 30
0.0
 11
0.9522795779987269
 21
6.01485500226305
 31
0.0
  0
LINE
  5
298D
330
1E
100
AcDbEntity
  8
7
100
AcDbLine
 10
0.3164528063451844
 20
6.01485500226305
 30
0.0
 11
0.4601535937467585
 21
6.01485500226305
 31
0.0
  0
LINE
  5
298E
330
1E
100
AcDbEntity
  8
7
100
AcDbLine
 10
0.3164528063451844
 20
5.949894372341791
 30
0.0
 11
0.3164528063451844
 21
6.01485500226305
 31
0.0
  0
LINE
  5
2995
330
1E
100
AcDbEntity
  8
7
100
AcDbLine
 10
-0.2426023117650526
 20
4.693988860530767
 30
0.0
 11
-0.2426023117650526
 21
4.030603033759113
 31
0.0
  0
LINE
  5
2996
330
1E
100
AcDbEntity
  8
7
100
AcDbLine
 10
1.019208711856995
 20
4.693988860530767
 30
0.0
 11
-0.2426023117650526
 21
4.693988860530767
 31
0.0
  0
LINE
  5
2997
330
1E
100
AcDbEntity
  8
7
100
AcDbLine
 10
1.019208711856995
 20
4.693988860530767
 30
0.0
 11
1.019208711856995
 21
4.030603033759113
 31
0.0
  0
LINE
  5
2998
330
1E
100
AcDbEntity
  8
7
100
AcDbLine
 10
0.9522795779987269
 20
4.030603033759113
 30
0.0
 11
1.019208711856995
 21
4.030603033759113
 31
0.0
  0
LINE
  5
2999
330
1E
100
AcDbEntity
  8
7
100
AcDbLine
 10
0.9522795779987269
 20
3.965642403837854
 30
0.0
 11
0.9522795779987269
 21
4.030603033759113
 31
0.0
  0
LINE
  5
299F
330
1E
100
AcDbEntity
  8
7
100
AcDbLine
 10
0.3164528063451844
 20
4.030603033759113
 30
0.0
 11
0.4601535937467585
 21
4.030603033759113
 31
0.0
  0
LINE
  5
29A0
330
1E
100
AcDbEntity
  8
7
100
AcDbLine
 10
0.3164528063451844
 20
3.965642403837854
 30
0.0
 11
0.3164528063451844
 21
4.030603033759113
 31
0.0
  0
LINE
  5
29AC
330
1E
100
AcDbEntity
  8
7
100
AcDbLine
 10
0.3164528063451844
 20
5.022729018011082
 30
0.0
 11
0.4601535937467585
 21
5.022729018011082
 31
0.0
  0
LINE
  5
29AD
330
1E
100
AcDbEntity
  8
7
100
AcDbLine
 10
0.3164528063451844
 20
4.957768388089823
 30
0.0
 11
0.3164528063451844
 21
5.022729018011082
 31
0.0
  0
LINE
  5
29B4
330
1E
100
AcDbEntity
  8
7
100
AcDbLine
 10
-0.2426023117650526
 20
5.684146340845728
 30
0.0
 11
-0.2426023117650526
 21
5.022729018011082
 31
0.0
  0
LINE
  5
29B5
330
1E
100
AcDbEntity
  8
7
100
AcDbLine
 10
1.019208711856995
 20
5.684146340845728
 30
0.0
 11
-0.2426023117650526
 21
5.684146340845728
 31
0.0
  0
LINE
  5
29B6
330
1E
100
AcDbEntity
  8
7
100
AcDbLine
 10
1.019208711856995
 20
5.684146340845728
 30
0.0
 11
1.019208711856995
 21
5.022729018011082
 31
0.0
  0
LINE
  5
29B7
330
1E
100
AcDbEntity
  8
7
100
AcDbLine
 10
0.9522795779987269
 20
5.022729018011082
 30
0.0
 11
1.019208711856995
 21
5.022729018011082
 31
0.0
  0
LINE
  5
29B8
330
1E
100
AcDbEntity
  8
7
100
AcDbLine
 10
0.9522795779987269
 20
4.957768388089823
 30
0.0
 11
0.9522795779987269
 21
5.022729018011082
 31
0.0
  0
LINE
  5
29B9
330
1E
100
AcDbEntity
  8
7
100
AcDbLine
 10
-0.4847282960170212
 20
3.461705395963837
 30
0.0
 11
-0.4866967999540286
 21
3.461705395963837
 31
0.0
  0
LINE
  5
29BA
330
1E
100
AcDbEntity
  8
7
100
AcDbLine
 10
-0.5162243590091471
 20
3.461705395963837
 30
0.0
 11
-0.4866967999540286
 21
3.461705395963837
 31
0.0
  0
LINE
  5
29BB
330
1E
100
AcDbEntity
  8
7
100
AcDbLine
 10
-0.5162243590091471
 20
3.461705395963837
 30
0.0
 11
-0.5181928629461546
 21
3.461705395963837
 31
0.0
  0
LINE
  5
29BC
330
1E
100
AcDbEntity
  8
7
100
AcDbLine
 10
-0.9276416818437933
 20
3.058162088877224
 30
0.0
 11
1.702279577998726
 21
3.058162088877224
 31
0.0
  0
LINE
  5
29C3
330
1E
100
AcDbEntity
  8
7
100
AcDbLine
 10
-0.9866967999540285
 20
7.49713846682998
 30
0.0
 11
-0.9866967999540285
 21
3.11721720698746
 31
0.0
  0
LINE
  5
29DB
330
1E
100
AcDbEntity
  8
7
100
AcDbLine
 10
0.2810197354790427
 20
6.888870750294547
 30
0.0
 11
0.4936181606758927
 21
6.888870750294547
 31
0.0
  0
LINE
  5
29DC
330
1E
100
AcDbEntity
  8
7
100
AcDbLine
 10
0.2810197354790427
 20
7.008949490452026
 30
0.0
 11
0.4936181606758927
 21
7.008949490452026
 31
0.0
  0
LINE
  5
29DD
330
1E
100
AcDbEntity
  8
7
100
AcDbLine
 10
0.4837756409908538
 20
6.880996734546515
 30
0.0
 11
0.2928307591010899
 21
6.880996734546515
 31
0.0
  0
LINE
  5
29DE
330
1E
100
AcDbEntity
  8
7
100
AcDbLine
 10
0.4936181606758927
 20
6.888870750294547
 30
0.0
 11
0.4837756409908538
 21
6.880996734546515
 31
0.0
  0
LINE
  5
29DF
330
1E
100
AcDbEntity
  8
7
100
AcDbLine
 10
0.2928307591010899
 20
6.880996734546515
 30
0.0
 11
0.2810197354790427
 21
6.888870750294547
 31
0.0
  0
LINE
  5
29E0
330
1E
100
AcDbEntity
  8
7
100
AcDbLine
 10
0.4837756409908538
 20
7.01485500226305
 30
0.0
 11
0.2928307591010899
 21
7.01485500226305
 31
0.0
  0
LINE
  5
29E6
330
1E
100
AcDbEntity
  8
7
100
AcDbLine
 10
0.4483425701247113
 20
7.024697521948089
 30
0.0
 11
0.3282638299672316
 21
7.024697521948089
 31
0.0
  0
LINE
  5
29EC
330
1E
100
AcDbEntity
  8
7
100
AcDbLine
 10
0.4837756409908538
 20
7.01485500226305
 30
0.0
 11
0.4936181606758927
 21
7.008949490452026
 31
0.0
  0
LINE
  5
29ED
330
1E
100
AcDbEntity
  8
7
100
AcDbLine
 10
0.2810197354790427
 20
7.008949490452026
 30
0.0
 11
0.2928307591010899
 21
7.01485500226305
 31
0.0
  0
LINE
  5
29F3
330
1E
100
AcDbEntity
  8
7
100
AcDbLine
 10
0.4483425701247113
 20
6.871154214861476
 30
0.0
 11
0.3282638299672316
 21
6.871154214861476
 31
0.0
  0
LINE
  5
2A0E
330
1E
100
AcDbEntity
  8
7
100
AcDbLine
 10
0.4483425701247113
 20
7.024697521948089
 30
0.0
 11
0.3282638299672316
 21
7.024697521948089
 31
0.0
  0
LINE
  5
2A18
330
1E
100
AcDbEntity
  8
7
100
AcDbLine
 10
0.4483425701247113
 20
6.871154214861476
 30
0.0
 11
0.3282638299672316
 21
6.871154214861476
 31
0.0
  0
LINE
  5
2A19
330
1E
100
AcDbEntity
  8
7
100
AcDbLine
 10
0.3282638299672316
 20
6.798319569192184
 30
0.0
 11
0.4483425701247113
 21
6.798319569192184
 31
0.0
  0
LINE
  5
2A26
330
1E
100
AcDbEntity
  8
7
100
AcDbLine
 10
0.4483425701247113
 20
7.097532167617382
 30
0.0
 11
0.3282638299672316
 21
7.097532167617382
 31
0.0
  0
LINE
  5
2A33
330
1E
100
AcDbEntity
  8
7
100
AcDbLine
 10
0.4483425701247113
 20
7.099500671554389
 30
0.0
 11
0.4483425701247113
 21
7.097532167617382
 31
0.0
  0
LINE
  5
2A34
330
1E
100
AcDbEntity
  8
7
100
AcDbLine
 10
0.4483425701247113
 20
6.798319569192184
 30
0.0
 11
0.4483425701247113
 21
6.796351065255176
 31
0.0
  0
LINE
  5
2A35
330
1E
100
AcDbEntity
  8
7
100
AcDbLine
 10
0.3282638299672316
 20
7.097532167617382
 30
0.0
 11
0.3282638299672316
 21
7.099500671554389
 31
0.0
  0
LINE
  5
2A36
330
1E
100
AcDbEntity
  8
7
100
AcDbLine
 10
0.3282638299672316
 20
6.796351065255176
 30
0.0
 11
0.3282638299672316
 21
6.798319569192184
 31
0.0
  0
LINE
  5
2A4E
330
1E
100
AcDbEntity
  8
7
100
AcDbLine
 10
-0.9866967999540285
 20
3.11721720698746
 30
0.0
 11
-0.9827597920800137
 21
3.121154214861476
 31
0.0
  0
LINE
  5
2A58
330
1E
100
AcDbEntity
  8
7
100
AcDbLine
 10
-0.5477204220012731
 20
6.772729018011082
 30
0.0
 11
-0.5496889259382805
 21
6.772729018011082
 31
0.0
  0
LINE
  5
2A59
330
1E
100
AcDbEntity
  8
7
100
AcDbLine
 10
-0.5477204220012731
 20
6.772729018011082
 30
0.0
 11
-0.5477204220012731
 21
7.123122718798484
 31
0.0
  0
LINE
  5
2A5A
330
1E
100
AcDbEntity
  8
7
100
AcDbLine
 10
-0.5496889259382805
 20
7.123122718798484
 30
0.0
 11
-0.5477204220012731
 21
7.123122718798484
 31
0.0
  0
LINE
  5
2A5B
330
1E
100
AcDbEntity
  8
7
100
AcDbLine
 10
-0.5496889259382805
 20
3.491232955018956
 30
0.0
 11
-0.5477204220012731
 21
3.493201458955963
 31
0.0
  0
LINE
  5
2A5C
330
1E
100
AcDbEntity
  8
7
100
AcDbLine
 10
-0.5477204220012731
 20
3.841626655806358
 30
0.0
 11
-0.5477204220012731
 21
3.493201458955963
 31
0.0
  0
LINE
  5
2A5D
330
1E
100
AcDbEntity
  8
7
100
AcDbLine
 10
-0.5477204220012731
 20
3.841626655806358
 30
0.0
 11
-0.5496889259382805
 21
3.841626655806358
 31
0.0
  0
LINE
  5
2A63
330
1E
100
AcDbEntity
  8
7
100
AcDbLine
 10
-0.9237046739697767
 20
7.554225081003208
 30
0.0
 11
-0.9532322330248952
 21
7.546351065255176
 31
0.0
  0
LINE
  5
2A78
330
1E
100
AcDbEntity
  8
7
100
AcDbLine
 10
0.4837756409908538
 20
3.599500671554389
 30
0.0
 11
0.2928307591010899
 21
3.599500671554389
 31
0.0
  0
LINE
  5
2A7E
330
1E
100
AcDbEntity
  8
7
100
AcDbLine
 10
0.4483425701247113
 20
3.58965815186935
 30
0.0
 11
0.3282638299672316
 21
3.58965815186935
 31
0.0
  0
LINE
  5
2A89
330
1E
100
AcDbEntity
  8
7
100
AcDbLine
 10
0.4837756409908538
 20
3.733358939270924
 30
0.0
 11
0.2928307591010899
 21
3.733358939270924
 31
0.0
  0
LINE
  5
2A8F
330
1E
100
AcDbEntity
  8
7
100
AcDbLine
 10
0.4483425701247113
 20
3.743201458955963
 30
0.0
 11
0.3282638299672316
 21
3.743201458955963
 31
0.0
  0
LINE
  5
2A90
330
1E
100
AcDbEntity
  8
7
100
AcDbLine
 10
0.2810197354790427
 20
3.607374687302421
 30
0.0
 11
0.4936181606758927
 21
3.607374687302421
 31
0.0
  0
LINE
  5
2A91
330
1E
100
AcDbEntity
  8
7
100
AcDbLine
 10
0.2810197354790427
 20
3.607374687302421
 30
0.0
 11
0.2928307591010899
 21
3.599500671554389
 31
0.0
  0
LINE
  5
2A92
330
1E
100
AcDbEntity
  8
7
100
AcDbLine
 10
0.4837756409908538
 20
3.599500671554389
 30
0.0
 11
0.4936181606758927
 21
3.607374687302421
 31
0.0
  0
LINE
  5
2A99
330
1E
100
AcDbEntity
  8
7
100
AcDbLine
 10
0.4483425701247113
 20
3.58965815186935
 30
0.0
 11
0.3282638299672316
 21
3.58965815186935
 31
0.0
  0
LINE
  5
2A9A
330
1E
100
AcDbEntity
  8
7
100
AcDbLine
 10
0.4483425701247113
 20
3.743201458955963
 30
0.0
 11
0.3282638299672316
 21
3.743201458955963
 31
0.0
  0
LINE
  5
2AB0
330
1E
100
AcDbEntity
  8
7
100
AcDbLine
 10
0.3282638299672316
 20
3.741232955018956
 30
0.0
 11
0.2908622551640816
 21
3.731390435333917
 31
0.0
  0
LINE
  5
2AB9
330
1E
100
AcDbEntity
  8
7
100
AcDbLine
 10
0.3282638299672316
 20
3.816036104625256
 30
0.0
 11
0.4483425701247113
 21
3.816036104625256
 31
0.0
  0
LINE
  5
2AC9
330
1E
100
AcDbEntity
  8
7
100
AcDbLine
 10
0.4483425701247113
 20
3.516823506200058
 30
0.0
 11
0.3282638299672316
 21
3.516823506200058
 31
0.0
  0
LINE
  5
2AD9
330
1E
100
AcDbEntity
  8
7
100
AcDbLine
 10
0.3282638299672316
 20
3.818004608562263
 30
0.0
 11
0.3282638299672316
 21
3.816036104625256
 31
0.0
  0
LINE
  5
2ADA
330
1E
100
AcDbEntity
  8
7
100
AcDbLine
 10
0.3282638299672316
 20
3.516823506200058
 30
0.0
 11
0.3282638299672316
 21
3.51485500226305
 31
0.0
  0
LINE
  5
2ADB
330
1E
100
AcDbEntity
  8
7
100
AcDbLine
 10
0.4483425701247113
 20
3.51485500226305
 30
0.0
 11
0.4483425701247113
 21
3.516823506200058
 31
0.0
  0
LINE
  5
2ADC
330
1E
100
AcDbEntity
  8
7
100
AcDbLine
 10
0.4483425701247113
 20
3.816036104625256
 30
0.0
 11
0.4483425701247113
 21
3.818004608562263
 31
0.0
  0
LINE
  5
2ADD
330
1E
100
AcDbEntity
  8
7
100
AcDbLine
 10
0.5782638299672316
 20
3.967610907774862
 30
0.0
 11
0.6018858772113261
 21
3.97942193139691
 31
0.0
  0
LINE
  5
2AE3
330
1E
100
AcDbEntity
  8
7
100
AcDbLine
 10
0.6038543811483335
 20
4.005012482578012
 30
0.0
 11
0.6038543811483335
 21
3.995169962892973
 31
0.0
  0
LINE
  5
2AE4
330
1E
100
AcDbEntity
  8
7
100
AcDbLine
 10
0.6018858772113261
 20
4.040445553444152
 30
0.0
 11
0.6038543811483335
 21
4.005012482578012
 31
0.0
  0
LINE
  5
2AE5
330
1E
100
AcDbEntity
  8
7
100
AcDbLine
 10
0.6018858772113261
 20
4.046351065255176
 30
0.0
 11
0.6018858772113261
 21
4.040445553444152
 31
0.0
  0
LINE
  5
2AE6
330
1E
100
AcDbEntity
  8
7
100
AcDbLine
 10
0.6018858772113261
 20
4.066036104625256
 30
0.0
 11
0.6018858772113261
 21
4.046351065255176
 31
0.0
  0
LINE
  5
2AE7
330
1E
100
AcDbEntity
  8
7
100
AcDbLine
 10
0.5782638299672316
 20
4.95973689202683
 30
0.0
 11
0.6018858772113261
 21
4.971547915648878
 31
0.0
  0
LINE
  5
2AED
330
1E
100
AcDbEntity
  8
7
100
AcDbLine
 10
0.6038543811483335
 20
4.99713846682998
 30
0.0
 11
0.6038543811483335
 21
4.985327443207932
 31
0.0
  0
LINE
  5
2AEE
330
1E
100
AcDbEntity
  8
7
100
AcDbLine
 10
0.6018858772113261
 20
5.032571537696121
 30
0.0
 11
0.6038543811483335
 21
4.99713846682998
 31
0.0
  0
LINE
  5
2AEF
330
1E
100
AcDbEntity
  8
7
100
AcDbLine
 10
0.6018858772113261
 20
5.038477049507145
 30
0.0
 11
0.6018858772113261
 21
5.032571537696121
 31
0.0
  0
LINE
  5
2AF0
330
1E
100
AcDbEntity
  8
7
100
AcDbLine
 10
0.6018858772113261
 20
5.058162088877224
 30
0.0
 11
0.6018858772113261
 21
5.038477049507145
 31
0.0
  0
LINE
  5
2AF1
330
1E
100
AcDbEntity
  8
7
100
AcDbLine
 10
0.5782638299672316
 20
5.949894372341791
 30
0.0
 11
0.6018858772113261
 21
5.963673899900847
 31
0.0
  0
LINE
  5
2AF7
330
1E
100
AcDbEntity
  8
7
100
AcDbLine
 10
0.6038543811483335
 20
5.989264451081949
 30
0.0
 11
0.6038543811483335
 21
5.9774534274599
 31
0.0
  0
LINE
  5
2AF8
330
1E
100
AcDbEntity
  8
7
100
AcDbLine
 10
0.6018858772113261
 20
6.024697521948089
 30
0.0
 11
0.6038543811483335
 21
5.989264451081949
 31
0.0
  0
LINE
  5
2AF9
330
1E
100
AcDbEntity
  8
7
100
AcDbLine
 10
0.6018858772113261
 20
6.030603033759113
 30
0.0
 11
0.6018858772113261
 21
6.024697521948089
 31
0.0
  0
LINE
  5
2AFA
330
1E
100
AcDbEntity
  8
7
100
AcDbLine
 10
0.6018858772113261
 20
6.050288073129193
 30
0.0
 11
0.6018858772113261
 21
6.030603033759113
 31
0.0
  0
LINE
  5
2AFB
330
1E
100
AcDbEntity
  8
7
100
AcDbLine
 10
0.8085787905971528
 20
4.066036104625256
 30
0.0
 11
0.8085787905971528
 21
4.046351065255176
 31
0.0
  0
LINE
  5
2AFC
330
1E
100
AcDbEntity
  8
7
100
AcDbLine
 10
0.8085787905971528
 20
4.040445553444152
 30
0.0
 11
0.8085787905971528
 21
4.046351065255176
 31
0.0
  0
LINE
  5
2AFD
330
1E
100
AcDbEntity
  8
7
100
AcDbLine
 10
0.8085787905971528
 20
4.005012482578012
 30
0.0
 11
0.8085787905971528
 21
4.040445553444152
 31
0.0
  0
LINE
  5
2AFE
330
1E
100
AcDbEntity
  8
7
100
AcDbLine
 10
0.8085787905971528
 20
4.005012482578012
 30
0.0
 11
0.8085787905971528
 21
3.995169962892973
 31
0.0
  0
LINE
  5
2B04
330
1E
100
AcDbEntity
  8
7
100
AcDbLine
 10
0.8322008378412473
 20
3.967610907774862
 30
0.0
 11
0.8085787905971528
 21
3.97942193139691
 31
0.0
  0
LINE
  5
2B05
330
1E
100
AcDbEntity
  8
7
100
AcDbLine
 10
1.017240207919987
 20
6.016823506200058
 30
0.0
 11
1.019208711856995
 21
6.01485500226305
 31
0.0
  0
LINE
  5
2B06
330
1E
100
AcDbEntity
  8
7
100
AcDbLine
 10
0.9503110740617195
 20
6.016823506200058
 30
0.0
 11
1.017240207919987
 21
6.016823506200058
 31
0.0
  0
LINE
  5
2B07
330
1E
100
AcDbEntity
  8
7
100
AcDbLine
 10
0.9522795779987269
 20
6.01485500226305
 30
0.0
 11
0.9503110740617195
 21
6.016823506200058
 31
0.0
  0
LINE
  5
2B08
330
1E
100
AcDbEntity
  8
7
100
AcDbLine
 10
1.017240207919987
 20
5.024697521948089
 30
0.0
 11
1.019208711856995
 21
5.022729018011082
 31
0.0
  0
LINE
  5
2B09
330
1E
100
AcDbEntity
  8
7
100
AcDbLine
 10
0.9503110740617195
 20
5.024697521948089
 30
0.0
 11
1.017240207919987
 21
5.024697521948089
 31
0.0
  0
LINE
  5
2B0A
330
1E
100
AcDbEntity
  8
7
100
AcDbLine
 10
0.9522795779987269
 20
5.022729018011082
 30
0.0
 11
0.9503110740617195
 21
5.024697521948089
 31
0.0
  0
LINE
  5
2B0B
330
1E
100
AcDbEntity
  8
7
100
AcDbLine
 10
1.017240207919987
 20
4.032571537696121
 30
0.0
 11
1.017240207919987
 21
4.69202035659376
 31
0.0
  0
LINE
  5
2B0C
330
1E
100
AcDbEntity
  8
7
100
AcDbLine
 10
1.017240207919987
 20
5.024697521948089
 30
0.0
 11
1.017240207919987
 21
5.684146340845728
 31
0.0
  0
LINE
  5
2B0D
330
1E
100
AcDbEntity
  8
7
100
AcDbLine
 10
1.017240207919987
 20
6.016823506200058
 30
0.0
 11
1.017240207919987
 21
6.676272325097697
 31
0.0
  0
LINE
  5
2B0E
330
1E
100
AcDbEntity
  8
7
100
AcDbLine
 10
0.9503110740617195
 20
4.032571537696121
 30
0.0
 11
1.017240207919987
 21
4.032571537696121
 31
0.0
  0
LINE
  5
2B0F
330
1E
100
AcDbEntity
  8
7
100
AcDbLine
 10
0.9503110740617195
 20
4.032571537696121
 30
0.0
 11
0.9503110740617195
 21
3.967610907774862
 31
0.0
  0
LINE
  5
2B10
330
1E
100
AcDbEntity
  8
7
100
AcDbLine
 10
0.9503110740617195
 20
5.024697521948089
 30
0.0
 11
0.9503110740617195
 21
4.95973689202683
 31
0.0
  0
LINE
  5
2B11
330
1E
100
AcDbEntity
  8
7
100
AcDbLine
 10
0.9503110740617195
 20
6.016823506200058
 30
0.0
 11
0.9503110740617195
 21
5.949894372341791
 31
0.0
  0
LINE
  5
2B12
330
1E
100
AcDbEntity
  8
7
100
AcDbLine
 10
1.017240207919987
 20
4.032571537696121
 30
0.0
 11
1.019208711856995
 21
4.030603033759113
 31
0.0
  0
LINE
  5
2B13
330
1E
100
AcDbEntity
  8
7
100
AcDbLine
 10
1.019208711856995
 20
4.693988860530767
 30
0.0
 11
1.017240207919987
 21
4.69202035659376
 31
0.0
  0
LINE
  5
2B14
330
1E
100
AcDbEntity
  8
7
100
AcDbLine
 10
0.9522795779987269
 20
4.957768388089823
 30
0.0
 11
0.9503110740617195
 21
4.95973689202683
 31
0.0
  0
LINE
  5
2B15
330
1E
100
AcDbEntity
  8
7
100
AcDbLine
 10
1.019208711856995
 20
5.684146340845728
 30
0.0
 11
1.017240207919987
 21
5.684146340845728
 31
0.0
  0
LINE
  5
2B16
330
1E
100
AcDbEntity
  8
7
100
AcDbLine
 10
0.9522795779987269
 20
5.949894372341791
 30
0.0
 11
0.9503110740617195
 21
5.949894372341791
 31
0.0
  0
LINE
  5
2B17
330
1E
100
AcDbEntity
  8
7
100
AcDbLine
 10
1.019208711856995
 20
6.676272325097697
 30
0.0
 11
1.017240207919987
 21
6.676272325097697
 31
0.0
  0
LINE
  5
2B18
330
1E
100
AcDbEntity
  8
7
100
AcDbLine
 10
0.9522795779987269
 20
3.965642403837854
 30
0.0
 11
0.9503110740617195
 21
3.967610907774862
 31
0.0
  0
LINE
  5
2B19
330
1E
100
AcDbEntity
  8
7
100
AcDbLine
 10
0.9522795779987269
 20
4.030603033759113
 30
0.0
 11
0.9503110740617195
 21
4.032571537696121
 31
0.0
  0
LINE
  5
2B2D
330
1E
100
AcDbEntity
  8
7
100
AcDbLine
 10
0.9503110740617195
 20
5.949894372341791
 30
0.0
 11
0.8322008378412473
 21
5.949894372341791
 31
0.0
  0
LINE
  5
2B2E
330
1E
100
AcDbEntity
  8
7
100
AcDbLine
 10
0.8085787905971528
 20
5.963673899900847
 30
0.0
 11
0.8322008378412473
 21
5.949894372341791
 31
0.0
  0
LINE
  5
2B2F
330
1E
100
AcDbEntity
  8
7
100
AcDbLine
 10
0.6018858772113261
 20
5.963673899900847
 30
0.0
 11
0.8085787905971528
 21
5.963673899900847
 31
0.0
  0
LINE
  5
2B30
330
1E
100
AcDbEntity
  8
7
100
AcDbLine
 10
0.5782638299672316
 20
5.949894372341791
 30
0.0
 11
0.4601535937467585
 21
5.949894372341791
 31
0.0
  0
LINE
  5
2B3A
330
1E
100
AcDbEntity
  8
7
100
AcDbLine
 10
0.9503110740617195
 20
4.95973689202683
 30
0.0
 11
0.8322008378412473
 21
4.95973689202683
 31
0.0
  0
LINE
  5
2B3B
330
1E
100
AcDbEntity
  8
7
100
AcDbLine
 10
0.8322008378412473
 20
4.95973689202683
 30
0.0
 11
0.8085787905971528
 21
4.971547915648878
 31
0.0
  0
LINE
  5
2B3C
330
1E
100
AcDbEntity
  8
7
100
AcDbLine
 10
0.6018858772113261
 20
4.971547915648878
 30
0.0
 11
0.8085787905971528
 21
4.971547915648878
 31
0.0
  0
LINE
  5
2B3D
330
1E
100
AcDbEntity
  8
7
100
AcDbLine
 10
0.5782638299672316
 20
4.95973689202683
 30
0.0
 11
0.4601535937467585
 21
4.95973689202683
 31
0.0
  0
LINE
  5
2B3E
330
1E
100
AcDbEntity
  8
7
100
AcDbLine
 10
0.4601535937467585
 20
4.957768388089823
 30
0.0
 11
0.4601535937467585
 21
4.95973689202683
 31
0.0
  0
LINE
  5
2B3F
330
1E
100
AcDbEntity
  8
7
100
AcDbLine
 10
0.9503110740617195
 20
3.967610907774862
 30
0.0
 11
0.8322008378412473
 21
3.967610907774862
 31
0.0
  0
LINE
  5
2B40
330
1E
100
AcDbEntity
  8
7
100
AcDbLine
 10
0.6018858772113261
 20
3.97942193139691
 30
0.0
 11
0.8085787905971528
 21
3.97942193139691
 31
0.0
  0
LINE
  5
2B41
330
1E
100
AcDbEntity
  8
7
100
AcDbLine
 10
0.5782638299672316
 20
3.967610907774862
 30
0.0
 11
0.4601535937467585
 21
3.967610907774862
 31
0.0
  0
LINE
  5
2B42
330
1E
100
AcDbEntity
  8
7
100
AcDbLine
 10
0.4601535937467585
 20
3.965642403837854
 30
0.0
 11
0.4601535937467585
 21
3.967610907774862
 31
0.0
  0
LINE
  5
2B43
330
1E
100
AcDbEntity
  8
7
100
AcDbLine
 10
0.8085787905971528
 20
3.995169962892973
 30
0.0
 11
0.6038543811483335
 21
3.995169962892973
 31
0.0
  0
LINE
  5
2B44
330
1E
100
AcDbEntity
  8
7
100
AcDbLine
 10
0.8085787905971528
 20
4.005012482578012
 30
0.0
 11
0.6038543811483335
 21
4.005012482578012
 31
0.0
  0
LINE
  5
2B45
330
1E
100
AcDbEntity
  8
7
100
AcDbLine
 10
0.6018858772113261
 20
4.040445553444152
 30
0.0
 11
0.8085787905971528
 21
4.040445553444152
 31
0.0
  0
LINE
  5
2B46
330
1E
100
AcDbEntity
  8
7
100
AcDbLine
 10
0.8085787905971528
 20
4.046351065255176
 30
0.0
 11
0.6018858772113261
 21
4.046351065255176
 31
0.0
  0
LINE
  5
2B47
330
1E
100
AcDbEntity
  8
7
100
AcDbLine
 10
0.8085787905971528
 20
4.066036104625256
 30
0.0
 11
0.6018858772113261
 21
4.066036104625256
 31
0.0
  0
LINE
  5
2B48
330
1E
100
AcDbEntity
  8
7
100
AcDbLine
 10
0.8085787905971528
 20
5.058162088877224
 30
0.0
 11
0.8085787905971528
 21
5.038477049507145
 31
0.0
  0
LINE
  5
2B49
330
1E
100
AcDbEntity
  8
7
100
AcDbLine
 10
0.8085787905971528
 20
5.032571537696121
 30
0.0
 11
0.8085787905971528
 21
5.038477049507145
 31
0.0
  0
LINE
  5
2B4A
330
1E
100
AcDbEntity
  8
7
100
AcDbLine
 10
0.8085787905971528
 20
4.99713846682998
 30
0.0
 11
0.8085787905971528
 21
5.032571537696121
 31
0.0
  0
LINE
  5
2B4B
330
1E
100
AcDbEntity
  8
7
100
AcDbLine
 10
0.8085787905971528
 20
4.99713846682998
 30
0.0
 11
0.8085787905971528
 21
4.985327443207932
 31
0.0
  0
LINE
  5
2B51
330
1E
100
AcDbEntity
  8
7
100
AcDbLine
 10
0.617633908707389
 20
4.652650277853602
 30
0.0
 11
0.7928307591010899
 21
4.652650277853602
 31
0.0
  0
LINE
  5
2B52
330
1E
100
AcDbEntity
  8
7
100
AcDbLine
 10
0.8085787905971528
 20
4.985327443207932
 30
0.0
 11
0.6038543811483335
 21
4.985327443207932
 31
0.0
  0
LINE
  5
2B53
330
1E
100
AcDbEntity
  8
7
100
AcDbLine
 10
0.8085787905971528
 20
4.99713846682998
 30
0.0
 11
0.6038543811483335
 21
4.99713846682998
 31
0.0
  0
LINE
  5
2B54
330
1E
100
AcDbEntity
  8
7
100
AcDbLine
 10
0.6018858772113261
 20
5.032571537696121
 30
0.0
 11
0.8085787905971528
 21
5.032571537696121
 31
0.0
  0
LINE
  5
2B55
330
1E
100
AcDbEntity
  8
7
100
AcDbLine
 10
0.8085787905971528
 20
5.038477049507145
 30
0.0
 11
0.6018858772113261
 21
5.038477049507145
 31
0.0
  0
LINE
  5
2B56
330
1E
100
AcDbEntity
  8
7
100
AcDbLine
 10
0.8085787905971528
 20
5.058162088877224
 30
0.0
 11
0.6018858772113261
 21
5.058162088877224
 31
0.0
  0
LINE
  5
2B57
330
1E
100
AcDbEntity
  8
7
100
AcDbLine
 10
0.617633908707389
 20
4.69202035659376
 30
0.0
 11
0.617633908707389
 21
4.652650277853602
 31
0.0
  0
LINE
  5
2B58
330
1E
100
AcDbEntity
  8
7
100
AcDbLine
 10
0.7928307591010899
 20
4.69202035659376
 30
0.0
 11
0.7928307591010899
 21
4.652650277853602
 31
0.0
  0
LINE
  5
2B59
330
1E
100
AcDbEntity
  8
7
100
AcDbLine
 10
0.617633908707389
 20
5.644776262105571
 30
0.0
 11
0.7928307591010899
 21
5.644776262105571
 31
0.0
  0
LINE
  5
2B5A
330
1E
100
AcDbEntity
  8
7
100
AcDbLine
 10
0.8085787905971528
 20
5.9774534274599
 30
0.0
 11
0.6038543811483335
 21
5.9774534274599
 31
0.0
  0
LINE
  5
2B5B
330
1E
100
AcDbEntity
  8
7
100
AcDbLine
 10
0.8085787905971528
 20
5.989264451081949
 30
0.0
 11
0.8085787905971528
 21
5.9774534274599
 31
0.0
  0
LINE
  5
2B5C
330
1E
100
AcDbEntity
  8
7
100
AcDbLine
 10
0.8085787905971528
 20
5.989264451081949
 30
0.0
 11
0.6038543811483335
 21
5.989264451081949
 31
0.0
  0
LINE
  5
2B5D
330
1E
100
AcDbEntity
  8
7
100
AcDbLine
 10
0.8085787905971528
 20
5.989264451081949
 30
0.0
 11
0.8085787905971528
 21
6.024697521948089
 31
0.0
  0
LINE
  5
2B64
330
1E
100
AcDbEntity
  8
7
100
AcDbLine
 10
0.8085787905971528
 20
6.050288073129193
 30
0.0
 11
0.6018858772113261
 21
6.050288073129193
 31
0.0
  0
LINE
  5
2B65
330
1E
100
AcDbEntity
  8
7
100
AcDbLine
 10
0.8085787905971528
 20
6.050288073129193
 30
0.0
 11
0.8085787905971528
 21
6.030603033759113
 31
0.0
  0
LINE
  5
2B66
330
1E
100
AcDbEntity
  8
7
100
AcDbLine
 10
0.617633908707389
 20
5.684146340845728
 30
0.0
 11
0.617633908707389
 21
5.644776262105571
 31
0.0
  0
LINE
  5
2B67
330
1E
100
AcDbEntity
  8
7
100
AcDbLine
 10
0.7928307591010899
 20
5.684146340845728
 30
0.0
 11
0.7928307591010899
 21
5.644776262105571
 31
0.0
  0
LINE
  5
2B6D
330
1E
100
AcDbEntity
  8
7
100
AcDbLine
 10
0.1747205228806168
 20
3.97942193139691
 30
0.0
 11
0.1983425701247112
 21
3.967610907774862
 31
0.0
  0
LINE
  5
2B6E
330
1E
100
AcDbEntity
  8
7
100
AcDbLine
 10
-0.0319723905052101
 20
3.97942193139691
 30
0.0
 11
0.1747205228806168
 21
3.97942193139691
 31
0.0
  0
LINE
  5
2B6F
330
1E
100
AcDbEntity
  8
7
100
AcDbLine
 10
-0.0555944377493045
 20
3.967610907774862
 30
0.0
 11
-0.0319723905052101
 21
3.97942193139691
 31
0.0
  0
LINE
  5
2B70
330
1E
100
AcDbEntity
  8
7
100
AcDbLine
 10
-0.0555944377493045
 20
3.967610907774862
 30
0.0
 11
-0.1737046739697767
 21
3.967610907774862
 31
0.0
  0
LINE
  5
2B71
330
1E
100
AcDbEntity
  8
7
100
AcDbLine
 10
-0.175673177906785
 20
3.965642403837854
 30
0.0
 11
-0.1737046739697767
 21
3.967610907774862
 31
0.0
  0
LINE
  5
2B7C
330
1E
100
AcDbEntity
  8
7
100
AcDbLine
 10
-0.0319723905052101
 20
4.005012482578012
 30
0.0
 11
-0.0319723905052101
 21
3.995169962892973
 31
0.0
  0
LINE
  5
2B7D
330
1E
100
AcDbEntity
  8
7
100
AcDbLine
 10
-0.0319723905052101
 20
4.040445553444152
 30
0.0
 11
-0.0319723905052101
 21
4.005012482578012
 31
0.0
  0
LINE
  5
2B7E
330
1E
100
AcDbEntity
  8
7
100
AcDbLine
 10
-0.0319723905052101
 20
4.046351065255176
 30
0.0
 11
-0.0319723905052101
 21
4.040445553444152
 31
0.0
  0
LINE
  5
2B7F
330
1E
100
AcDbEntity
  8
7
100
AcDbLine
 10
-0.0319723905052101
 20
4.066036104625256
 30
0.0
 11
-0.0319723905052101
 21
4.046351065255176
 31
0.0
  0
LINE
  5
2B80
330
1E
100
AcDbEntity
  8
7
100
AcDbLine
 10
0.1727520189436094
 20
4.066036104625256
 30
0.0
 11
0.1727520189436094
 21
4.046351065255176
 31
0.0
  0
LINE
  5
2B81
330
1E
100
AcDbEntity
  8
7
100
AcDbLine
 10
0.1727520189436094
 20
4.040445553444152
 30
0.0
 11
0.1727520189436094
 21
4.046351065255176
 31
0.0
  0
LINE
  5
2B82
330
1E
100
AcDbEntity
  8
7
100
AcDbLine
 10
0.1727520189436094
 20
4.005012482578012
 30
0.0
 11
0.1727520189436094
 21
4.040445553444152
 31
0.0
  0
LINE
  5
2B83
330
1E
100
AcDbEntity
  8
7
100
AcDbLine
 10
0.1727520189436094
 20
4.005012482578012
 30
0.0
 11
0.1727520189436094
 21
3.995169962892973
 31
0.0
  0
LINE
  5
2B89
330
1E
100
AcDbEntity
  8
7
100
AcDbLine
 10
-0.0162243590091471
 20
4.69202035659376
 30
0.0
 11
-0.0162243590091471
 21
4.652650277853602
 31
0.0
  0
LINE
  5
2B8A
330
1E
100
AcDbEntity
  8
7
100
AcDbLine
 10
0.1589724913845538
 20
4.69202035659376
 30
0.0
 11
0.1589724913845538
 21
4.652650277853602
 31
0.0
  0
LINE
  5
2B8B
330
1E
100
AcDbEntity
  8
7
100
AcDbLine
 10
-0.0162243590091471
 20
4.652650277853602
 30
0.0
 11
0.1589724913845538
 21
4.652650277853602
 31
0.0
  0
LINE
  5
2B8C
330
1E
100
AcDbEntity
  8
7
100
AcDbLine
 10
0.1747205228806168
 20
4.971547915648878
 30
0.0
 11
0.1983425701247112
 21
4.95973689202683
 31
0.0
  0
LINE
  5
2B8D
330
1E
100
AcDbEntity
  8
7
100
AcDbLine
 10
-0.0319723905052101
 20
4.971547915648878
 30
0.0
 11
0.1747205228806168
 21
4.971547915648878
 31
0.0
  0
LINE
  5
2B8E
330
1E
100
AcDbEntity
  8
7
100
AcDbLine
 10
-0.0555944377493045
 20
4.95973689202683
 30
0.0
 11
-0.0319723905052101
 21
4.971547915648878
 31
0.0
  0
LINE
  5
2B8F
330
1E
100
AcDbEntity
  8
7
100
AcDbLine
 10
-0.0555944377493045
 20
4.95973689202683
 30
0.0
 11
-0.1737046739697767
 21
4.95973689202683
 31
0.0
  0
LINE
  5
2B90
330
1E
100
AcDbEntity
  8
7
100
AcDbLine
 10
-0.175673177906785
 20
4.957768388089823
 30
0.0
 11
-0.1737046739697767
 21
4.95973689202683
 31
0.0
  0
LINE
  5
2B9B
330
1E
100
AcDbEntity
  8
7
100
AcDbLine
 10
-0.0319723905052101
 20
4.99713846682998
 30
0.0
 11
-0.0319723905052101
 21
4.985327443207932
 31
0.0
  0
LINE
  5
2B9C
330
1E
100
AcDbEntity
  8
7
100
AcDbLine
 10
-0.0319723905052101
 20
5.032571537696121
 30
0.0
 11
-0.0319723905052101
 21
4.99713846682998
 31
0.0
  0
LINE
  5
2B9D
330
1E
100
AcDbEntity
  8
7
100
AcDbLine
 10
-0.0319723905052101
 20
5.038477049507145
 30
0.0
 11
-0.0319723905052101
 21
5.032571537696121
 31
0.0
  0
LINE
  5
2B9E
330
1E
100
AcDbEntity
  8
7
100
AcDbLine
 10
-0.0319723905052101
 20
5.058162088877224
 30
0.0
 11
-0.0319723905052101
 21
5.038477049507145
 31
0.0
  0
LINE
  5
2B9F
330
1E
100
AcDbEntity
  8
7
100
AcDbLine
 10
0.1727520189436094
 20
5.058162088877224
 30
0.0
 11
0.1727520189436094
 21
5.038477049507145
 31
0.0
  0
LINE
  5
2BA0
330
1E
100
AcDbEntity
  8
7
100
AcDbLine
 10
0.1727520189436094
 20
5.032571537696121
 30
0.0
 11
0.1727520189436094
 21
5.038477049507145
 31
0.0
  0
LINE
  5
2BA1
330
1E
100
AcDbEntity
  8
7
100
AcDbLine
 10
0.1727520189436094
 20
4.99713846682998
 30
0.0
 11
0.1727520189436094
 21
5.032571537696121
 31
0.0
  0
LINE
  5
2BA2
330
1E
100
AcDbEntity
  8
7
100
AcDbLine
 10
0.1727520189436094
 20
4.99713846682998
 30
0.0
 11
0.1727520189436094
 21
4.985327443207932
 31
0.0
  0
LINE
  5
2BA8
330
1E
100
AcDbEntity
  8
7
100
AcDbLine
 10
-0.0162243590091471
 20
5.684146340845728
 30
0.0
 11
-0.0162243590091471
 21
5.644776262105571
 31
0.0
  0
LINE
  5
2BA9
330
1E
100
AcDbEntity
  8
7
100
AcDbLine
 10
0.1589724913845538
 20
5.684146340845728
 30
0.0
 11
0.1589724913845538
 21
5.644776262105571
 31
0.0
  0
LINE
  5
2BAA
330
1E
100
AcDbEntity
  8
7
100
AcDbLine
 10
-0.0162243590091471
 20
5.644776262105571
 30
0.0
 11
0.1589724913845538
 21
5.644776262105571
 31
0.0
  0
LINE
  5
2BAB
330
1E
100
AcDbEntity
  8
7
100
AcDbLine
 10
0.1747205228806168
 20
5.963673899900847
 30
0.0
 11
0.1983425701247112
 21
5.949894372341791
 31
0.0
  0
LINE
  5
2BAC
330
1E
100
AcDbEntity
  8
7
100
AcDbLine
 10
-0.0319723905052101
 20
5.963673899900847
 30
0.0
 11
0.1747205228806168
 21
5.963673899900847
 31
0.0
  0
LINE
  5
2BAD
330
1E
100
AcDbEntity
  8
7
100
AcDbLine
 10
-0.0555944377493045
 20
5.949894372341791
 30
0.0
 11
-0.0319723905052101
 21
5.963673899900847
 31
0.0
  0
LINE
  5
2BAE
330
1E
100
AcDbEntity
  8
7
100
AcDbLine
 10
-0.0555944377493045
 20
5.949894372341791
 30
0.0
 11
-0.1737046739697767
 21
5.949894372341791
 31
0.0
  0
LINE
  5
2BAF
330
1E
100
AcDbEntity
  8
7
100
AcDbLine
 10
-0.175673177906785
 20
5.949894372341791
 30
0.0
 11
-0.1737046739697767
 21
5.949894372341791
 31
0.0
  0
LINE
  5
2BB0
330
1E
100
AcDbEntity
  8
7
100
AcDbLine
 10
0.3164528063451844
 20
5.949894372341791
 30
0.0
 11
0.1983425701247112
 21
5.949894372341791
 31
0.0
  0
LINE
  5
2BB6
330
1E
100
AcDbEntity
  8
7
100
AcDbLine
 10
-0.0319723905052101
 20
5.989264451081949
 30
0.0
 11
-0.0319723905052101
 21
5.9774534274599
 31
0.0
  0
LINE
  5
2BB7
330
1E
100
AcDbEntity
  8
7
100
AcDbLine
 10
-0.0319723905052101
 20
6.024697521948089
 30
0.0
 11
-0.0319723905052101
 21
5.989264451081949
 31
0.0
  0
LINE
  5
2BB8
330
1E
100
AcDbEntity
  8
7
100
AcDbLine
 10
-0.0319723905052101
 20
6.030603033759113
 30
0.0
 11
-0.0319723905052101
 21
6.024697521948089
 31
0.0
  0
LINE
  5
2BB9
330
1E
100
AcDbEntity
  8
7
100
AcDbLine
 10
-0.0319723905052101
 20
6.050288073129193
 30
0.0
 11
-0.0319723905052101
 21
6.030603033759113
 31
0.0
  0
LINE
  5
2BBA
330
1E
100
AcDbEntity
  8
7
100
AcDbLine
 10
0.1727520189436094
 20
6.050288073129193
 30
0.0
 11
0.1727520189436094
 21
6.030603033759113
 31
0.0
  0
LINE
  5
2BBB
330
1E
100
AcDbEntity
  8
7
100
AcDbLine
 10
0.1727520189436094
 20
6.024697521948089
 30
0.0
 11
0.1727520189436094
 21
6.030603033759113
 31
0.0
  0
LINE
  5
2BBC
330
1E
100
AcDbEntity
  8
7
100
AcDbLine
 10
0.1727520189436094
 20
5.989264451081949
 30
0.0
 11
0.1727520189436094
 21
6.024697521948089
 31
0.0
  0
LINE
  5
2BBD
330
1E
100
AcDbEntity
  8
7
100
AcDbLine
 10
0.1727520189436094
 20
5.989264451081949
 30
0.0
 11
0.1727520189436094
 21
5.9774534274599
 31
0.0
  0
LINE
  5
2BC3
330
1E
100
AcDbEntity
  8
7
100
AcDbLine
 10
-0.0162243590091471
 20
6.676272325097697
 30
0.0
 11
-0.0162243590091471
 21
6.636902246357539
 31
0.0
  0
LINE
  5
2BC4
330
1E
100
AcDbEntity
  8
7
100
AcDbLine
 10
0.1589724913845538
 20
6.676272325097697
 30
0.0
 11
0.1589724913845538
 21
6.636902246357539
 31
0.0
  0
LINE
  5
2BC5
330
1E
100
AcDbEntity
  8
7
100
AcDbLine
 10
-0.0162243590091471
 20
6.636902246357539
 30
0.0
 11
0.1589724913845538
 21
6.636902246357539
 31
0.0
  0
LINE
  5
2BC6
330
1E
100
AcDbEntity
  8
7
100
AcDbLine
 10
0.4601535937467585
 20
4.030603033759113
 30
0.0
 11
0.4601535937467585
 21
4.032571537696121
 31
0.0
  0
LINE
  5
2BC7
330
1E
100
AcDbEntity
  8
7
100
AcDbLine
 10
0.3164528063451844
 20
4.032571537696121
 30
0.0
 11
0.4601535937467585
 21
4.032571537696121
 31
0.0
  0
LINE
  5
2BC8
330
1E
100
AcDbEntity
  8
7
100
AcDbLine
 10
0.3164528063451844
 20
4.030603033759113
 30
0.0
 11
0.3164528063451844
 21
4.032571537696121
 31
0.0
  0
LINE
  5
2BC9
330
1E
100
AcDbEntity
  8
7
100
AcDbLine
 10
0.4601535937467585
 20
5.022729018011082
 30
0.0
 11
0.4601535937467585
 21
5.024697521948089
 31
0.0
  0
LINE
  5
2BCA
330
1E
100
AcDbEntity
  8
7
100
AcDbLine
 10
0.3164528063451844
 20
5.024697521948089
 30
0.0
 11
0.4601535937467585
 21
5.024697521948089
 31
0.0
  0
LINE
  5
2BCB
330
1E
100
AcDbEntity
  8
7
100
AcDbLine
 10
0.3164528063451844
 20
5.022729018011082
 30
0.0
 11
0.3164528063451844
 21
5.024697521948089
 31
0.0
  0
LINE
  5
2BCC
330
1E
100
AcDbEntity
  8
7
100
AcDbLine
 10
0.4601535937467585
 20
6.01485500226305
 30
0.0
 11
0.4601535937467585
 21
6.016823506200058
 31
0.0
  0
LINE
  5
2BCD
330
1E
100
AcDbEntity
  8
7
100
AcDbLine
 10
0.3164528063451844
 20
6.016823506200058
 30
0.0
 11
0.4601535937467585
 21
6.016823506200058
 31
0.0
  0
LINE
  5
2BCE
330
1E
100
AcDbEntity
  8
7
100
AcDbLine
 10
0.3164528063451844
 20
6.01485500226305
 30
0.0
 11
0.3164528063451844
 21
6.016823506200058
 31
0.0
  0
LINE
  5
2BCF
330
1E
100
AcDbEntity
  8
7
100
AcDbLine
 10
-0.2426023117650526
 20
4.032571537696121
 30
0.0
 11
-0.2426023117650526
 21
4.030603033759113
 31
0.0
  0
LINE
  5
2BD0
330
1E
100
AcDbEntity
  8
7
100
AcDbLine
 10
-0.175673177906785
 20
4.030603033759113
 30
0.0
 11
-0.1737046739697767
 21
4.032571537696121
 31
0.0
  0
LINE
  5
2BD1
330
1E
100
AcDbEntity
  8
7
100
AcDbLine
 10
-0.2426023117650526
 20
4.032571537696121
 30
0.0
 11
-0.1737046739697767
 21
4.032571537696121
 31
0.0
  0
LINE
  5
2BD2
330
1E
100
AcDbEntity
  8
7
100
AcDbLine
 10
0.3164528063451844
 20
4.032571537696121
 30
0.0
 11
0.3164528063451844
 21
3.967610907774862
 31
0.0
  0
LINE
  5
2BD3
330
1E
100
AcDbEntity
  8
7
100
AcDbLine
 10
-0.1737046739697767
 20
3.967610907774862
 30
0.0
 11
-0.1737046739697767
 21
4.032571537696121
 31
0.0
  0
LINE
  5
2BD4
330
1E
100
AcDbEntity
  8
7
100
AcDbLine
 10
-0.2426023117650526
 20
4.69202035659376
 30
0.0
 11
-0.2426023117650526
 21
4.032571537696121
 31
0.0
  0
LINE
  5
2BD5
330
1E
100
AcDbEntity
  8
7
100
AcDbLine
 10
-0.2426023117650526
 20
5.024697521948089
 30
0.0
 11
-0.2426023117650526
 21
5.022729018011082
 31
0.0
  0
LINE
  5
2BD6
330
1E
100
AcDbEntity
  8
7
100
AcDbLine
 10
-0.175673177906785
 20
5.022729018011082
 30
0.0
 11
-0.1737046739697767
 21
5.024697521948089
 31
0.0
  0
LINE
  5
2BD7
330
1E
100
AcDbEntity
  8
7
100
AcDbLine
 10
-0.2426023117650526
 20
5.024697521948089
 30
0.0
 11
-0.1737046739697767
 21
5.024697521948089
 31
0.0
  0
LINE
  5
2BD8
330
1E
100
AcDbEntity
  8
7
100
AcDbLine
 10
0.3164528063451844
 20
5.024697521948089
 30
0.0
 11
0.3164528063451844
 21
4.95973689202683
 31
0.0
  0
LINE
  5
2BD9
330
1E
100
AcDbEntity
  8
7
100
AcDbLine
 10
-0.1737046739697767
 20
4.95973689202683
 30
0.0
 11
-0.1737046739697767
 21
5.024697521948089
 31
0.0
  0
LINE
  5
2BDA
330
1E
100
AcDbEntity
  8
7
100
AcDbLine
 10
-0.2426023117650526
 20
5.684146340845728
 30
0.0
 11
-0.2426023117650526
 21
5.024697521948089
 31
0.0
  0
LINE
  5
2BDB
330
1E
100
AcDbEntity
  8
7
100
AcDbLine
 10
-0.2426023117650526
 20
6.016823506200058
 30
0.0
 11
-0.2426023117650526
 21
6.01485500226305
 31
0.0
  0
LINE
  5
2BDC
330
1E
100
AcDbEntity
  8
7
100
AcDbLine
 10
-0.175673177906785
 20
6.01485500226305
 30
0.0
 11
-0.1737046739697767
 21
6.016823506200058
 31
0.0
  0
LINE
  5
2BDD
330
1E
100
AcDbEntity
  8
7
100
AcDbLine
 10
-0.2426023117650526
 20
6.016823506200058
 30
0.0
 11
-0.1737046739697767
 21
6.016823506200058
 31
0.0
  0
LINE
  5
2BDE
330
1E
100
AcDbEntity
  8
7
100
AcDbLine
 10
0.3164528063451844
 20
6.016823506200058
 30
0.0
 11
0.3164528063451844
 21
5.949894372341791
 31
0.0
  0
LINE
  5
2BDF
330
1E
100
AcDbEntity
  8
7
100
AcDbLine
 10
-0.1737046739697767
 20
5.949894372341791
 30
0.0
 11
-0.1737046739697767
 21
6.016823506200058
 31
0.0
  0
LINE
  5
2BE0
330
1E
100
AcDbEntity
  8
7
100
AcDbLine
 10
-0.2426023117650526
 20
6.676272325097697
 30
0.0
 11
-0.2426023117650526
 21
6.016823506200058
 31
0.0
  0
LINE
  5
2BE1
330
1E
100
AcDbEntity
  8
7
100
AcDbLine
 10
0.4601535937467585
 20
3.967610907774862
 30
0.0
 11
0.4601535937467585
 21
4.032571537696121
 31
0.0
  0
LINE
  5
2BE2
330
1E
100
AcDbEntity
  8
7
100
AcDbLine
 10
0.4601535937467585
 20
4.95973689202683
 30
0.0
 11
0.4601535937467585
 21
5.024697521948089
 31
0.0
  0
LINE
  5
2BE3
330
1E
100
AcDbEntity
  8
7
100
AcDbLine
 10
0.4601535937467585
 20
5.949894372341791
 30
0.0
 11
0.4601535937467585
 21
6.016823506200058
 31
0.0
  0
LINE
  5
2BE4
330
1E
100
AcDbEntity
  8
7
100
AcDbLine
 10
0.617633908707389
 20
6.636902246357539
 30
0.0
 11
0.7928307591010899
 21
6.636902246357539
 31
0.0
  0
LINE
  5
2BE5
330
1E
100
AcDbEntity
  8
7
100
AcDbLine
 10
0.7928307591010899
 20
6.676272325097697
 30
0.0
 11
0.7928307591010899
 21
6.636902246357539
 31
0.0
  0
LINE
  5
2BE6
330
1E
100
AcDbEntity
  8
7
100
AcDbLine
 10
0.617633908707389
 20
6.676272325097697
 30
0.0
 11
0.617633908707389
 21
6.636902246357539
 31
0.0
  0
LINE
  5
2BE7
330
1E
100
AcDbEntity
  8
7
100
AcDbLine
 10
0.1727520189436094
 20
6.050288073129193
 30
0.0
 11
-0.0319723905052101
 21
6.050288073129193
 31
0.0
  0
LINE
  5
2BE8
330
1E
100
AcDbEntity
  8
7
100
AcDbLine
 10
0.1727520189436094
 20
6.030603033759113
 30
0.0
 11
-0.0319723905052101
 21
6.030603033759113
 31
0.0
  0
LINE
  5
2BE9
330
1E
100
AcDbEntity
  8
7
100
AcDbLine
 10
-0.0319723905052101
 20
6.024697521948089
 30
0.0
 11
0.1727520189436094
 21
6.024697521948089
 31
0.0
  0
LINE
  5
2BEA
330
1E
100
AcDbEntity
  8
7
100
AcDbLine
 10
0.1727520189436094
 20
5.989264451081949
 30
0.0
 11
-0.0319723905052101
 21
5.989264451081949
 31
0.0
  0
LINE
  5
2BEB
330
1E
100
AcDbEntity
  8
7
100
AcDbLine
 10
0.1727520189436094
 20
5.9774534274599
 30
0.0
 11
-0.0319723905052101
 21
5.9774534274599
 31
0.0
  0
LINE
  5
2BEC
330
1E
100
AcDbEntity
  8
7
100
AcDbLine
 10
0.1727520189436094
 20
4.066036104625256
 30
0.0
 11
-0.0319723905052101
 21
4.066036104625256
 31
0.0
  0
LINE
  5
2BED
330
1E
100
AcDbEntity
  8
7
100
AcDbLine
 10
0.1727520189436094
 20
4.046351065255176
 30
0.0
 11
-0.0319723905052101
 21
4.046351065255176
 31
0.0
  0
LINE
  5
2BEE
330
1E
100
AcDbEntity
  8
7
100
AcDbLine
 10
-0.0319723905052101
 20
4.040445553444152
 30
0.0
 11
0.1727520189436094
 21
4.040445553444152
 31
0.0
  0
LINE
  5
2BEF
330
1E
100
AcDbEntity
  8
7
100
AcDbLine
 10
0.1727520189436094
 20
4.005012482578012
 30
0.0
 11
-0.0319723905052101
 21
4.005012482578012
 31
0.0
  0
LINE
  5
2BF0
330
1E
100
AcDbEntity
  8
7
100
AcDbLine
 10
0.1727520189436094
 20
3.995169962892973
 30
0.0
 11
-0.0319723905052101
 21
3.995169962892973
 31
0.0
  0
LINE
  5
2BF1
330
1E
100
AcDbEntity
  8
7
100
AcDbLine
 10
0.1727520189436094
 20
5.058162088877224
 30
0.0
 11
-0.0319723905052101
 21
5.058162088877224
 31
0.0
  0
LINE
  5
2BF2
330
1E
100
AcDbEntity
  8
7
100
AcDbLine
 10
0.1727520189436094
 20
5.038477049507145
 30
0.0
 11
-0.0319723905052101
 21
5.038477049507145
 31
0.0
  0
LINE
  5
2BF3
330
1E
100
AcDbEntity
  8
7
100
AcDbLine
 10
-0.0319723905052101
 20
5.032571537696121
 30
0.0
 11
0.1727520189436094
 21
5.032571537696121
 31
0.0
  0
LINE
  5
2BF4
330
1E
100
AcDbEntity
  8
7
100
AcDbLine
 10
0.1727520189436094
 20
4.99713846682998
 30
0.0
 11
-0.0319723905052101
 21
4.99713846682998
 31
0.0
  0
LINE
  5
2BF5
330
1E
100
AcDbEntity
  8
7
100
AcDbLine
 10
0.1727520189436094
 20
4.985327443207932
 30
0.0
 11
-0.0319723905052101
 21
4.985327443207932
 31
0.0
  0
LINE
  5
2C10
330
1E
100
AcDbEntity
  8
7
100
AcDbLine
 10
5.538893751227073
 20
3.091626655806358
 30
0.0
 11
5.540862255164082
 21
3.121154214861476
 31
0.0
  0
LINE
  5
2C17
330
1E
100
AcDbEntity
  8
7
100
AcDbLine
 10
5.540862255164082
 20
3.121154214861476
 30
0.0
 11
5.601885877211325
 21
3.11721720698746
 31
0.0
  0
LINE
  5
2C18
330
1E
100
AcDbEntity
  8
7
100
AcDbLine
 10
5.601885877211325
 20
3.058162088877224
 30
0.0
 11
5.540862255164082
 21
3.060130592814232
 31
0.0
  0
LINE
  5
2C1E
330
1E
100
AcDbEntity
  8
7
100
AcDbLine
 10
5.540862255164082
 20
7.495169962892973
 30
0.0
 11
5.540862255164082
 21
3.121154214861476
 31
0.0
  0
LINE
  5
2C28
330
1E
100
AcDbEntity
  8
7
100
AcDbLine
 10
5.32826382996723
 20
3.28454004163313
 30
0.0
 11
5.32826382996723
 21
7.32981563218431
 31
0.0
  0
LINE
  5
2C2F
330
1E
100
AcDbEntity
  8
7
100
AcDbLine
 10
5.540862255164082
 20
7.554225081003208
 30
0.0
 11
5.601885877211325
 21
7.558162088877224
 31
0.0
  0
LINE
  5
2C54
330
1E
100
AcDbEntity
  8
7
100
AcDbLine
 10
5.950311074061719
 20
3.910524293601634
 30
0.0
 11
5.601885877211325
 21
3.884933742420532
 31
0.0
  0
LINE
  5
2C5E
330
1E
100
AcDbEntity
  8
7
100
AcDbLine
 10
5.838106349652271
 20
4.066036104625256
 30
0.0
 11
5.875507924455419
 21
4.062099096751239
 31
0.0
  0
LINE
  5
2C5F
330
1E
100
AcDbEntity
  8
7
100
AcDbLine
 10
5.838106349652271
 20
4.066036104625256
 30
0.0
 11
5.838106349652271
 21
4.046351065255176
 31
0.0
  0
LINE
  5
2C60
330
1E
100
AcDbEntity
  8
7
100
AcDbLine
 10
5.840074853589278
 20
4.040445553444152
 30
0.0
 11
5.838106349652271
 21
4.046351065255176
 31
0.0
  0
LINE
  5
2C61
330
1E
100
AcDbEntity
  8
7
100
AcDbLine
 10
5.851885877211325
 20
4.005012482578012
 30
0.0
 11
5.840074853589278
 21
4.040445553444152
 31
0.0
  0
LINE
  5
2C62
330
1E
100
AcDbEntity
  8
7
100
AcDbLine
 10
5.851885877211325
 20
4.005012482578012
 30
0.0
 11
5.851885877211325
 21
3.995169962892973
 31
0.0
  0
LINE
  5
2C68
330
1E
100
AcDbEntity
  8
7
100
AcDbLine
 10
5.601885877211325
 20
3.973516419585886
 30
0.0
 11
5.836137845715262
 21
3.97942193139691
 31
0.0
  0
LINE
  5
2C69
330
1E
100
AcDbEntity
  8
7
100
AcDbLine
 10
5.836137845715262
 20
5.963673899900847
 30
0.0
 11
5.601885877211325
 21
5.955799884152815
 31
0.0
  0
LINE
  5
2C6A
330
1E
100
AcDbEntity
  8
7
100
AcDbLine
 10
5.601885877211325
 20
4.965642403837854
 30
0.0
 11
5.836137845715262
 21
4.971547915648878
 31
0.0
  0
LINE
  5
2C74
330
1E
100
AcDbEntity
  8
7
100
AcDbLine
 10
5.907003987447545
 20
5.040445553444152
 30
0.0
 11
5.875507924455419
 21
5.054225081003208
 31
0.0
  0
LINE
  5
2C75
330
1E
100
AcDbEntity
  8
7
100
AcDbLine
 10
5.838106349652271
 20
5.058162088877224
 30
0.0
 11
5.875507924455419
 21
5.054225081003208
 31
0.0
  0
LINE
  5
2C76
330
1E
100
AcDbEntity
  8
7
100
AcDbLine
 10
5.838106349652271
 20
5.058162088877224
 30
0.0
 11
5.838106349652271
 21
5.038477049507145
 31
0.0
  0
LINE
  5
2C77
330
1E
100
AcDbEntity
  8
7
100
AcDbLine
 10
5.840074853589278
 20
5.032571537696121
 30
0.0
 11
5.838106349652271
 21
5.038477049507145
 31
0.0
  0
LINE
  5
2C78
330
1E
100
AcDbEntity
  8
7
100
AcDbLine
 10
5.851885877211325
 20
4.99713846682998
 30
0.0
 11
5.840074853589278
 21
5.032571537696121
 31
0.0
  0
LINE
  5
2C79
330
1E
100
AcDbEntity
  8
7
100
AcDbLine
 10
5.851885877211325
 20
4.99713846682998
 30
0.0
 11
5.851885877211325
 21
4.985327443207932
 31
0.0
  0
LINE
  5
2C7F
330
1E
100
AcDbEntity
  8
7
100
AcDbLine
 10
5.851885877211325
 20
5.989264451081949
 30
0.0
 11
5.851885877211325
 21
5.9774534274599
 31
0.0
  0
LINE
  5
2C85
330
1E
100
AcDbEntity
  8
7
100
AcDbLine
 10
5.838106349652271
 20
6.050288073129193
 30
0.0
 11
5.838106349652271
 21
6.030603033759113
 31
0.0
  0
LINE
  5
2C86
330
1E
100
AcDbEntity
  8
7
100
AcDbLine
 10
5.838106349652271
 20
6.050288073129193
 30
0.0
 11
5.875507924455419
 21
6.046351065255176
 31
0.0
  0
LINE
  5
2C87
330
1E
100
AcDbEntity
  8
7
100
AcDbLine
 10
5.907003987447545
 20
6.032571537696121
 30
0.0
 11
5.875507924455419
 21
6.046351065255176
 31
0.0
  0
LINE
  5
2C88
330
1E
100
AcDbEntity
  8
7
100
AcDbLine
 10
5.975901625242821
 20
5.961705395963837
 30
0.0
 11
5.907003987447545
 21
6.032571537696121
 31
0.0
  0
LINE
  5
2C95
330
1E
100
AcDbEntity
  8
7
100
AcDbLine
 10
5.950311074061719
 20
5.892807758168563
 30
0.0
 11
5.601885877211325
 21
5.869185710924469
 31
0.0
  0
LINE
  5
30C0
330
1E
100
AcDbEntity
  8
7
100
AcDbLine
 10
5.950311074061719
 20
5.892807758168563
 30
0.0
 11
5.971964617368806
 21
5.900681773916595
 31
0.0
  0
LINE
  5
30C1
330
1E
100
AcDbEntity
  8
7
100
AcDbLine
 10
5.971964617368806
 20
5.900681773916595
 30
0.0
 11
5.98574414492786
 21
5.920366813286673
 31
0.0
  0
LINE
  5
30C2
330
1E
100
AcDbEntity
  8
7
100
AcDbLine
 10
5.98574414492786
 20
5.920366813286673
 30
0.0
 11
5.987712648864869
 21
5.94202035659376
 31
0.0
  0
LINE
  5
30C3
330
1E
100
AcDbEntity
  8
7
100
AcDbLine
 10
5.987712648864869
 20
5.94202035659376
 30
0.0
 11
5.975901625242821
 21
5.961705395963837
 31
0.0
  0
LINE
  5
30C4
330
1E
100
AcDbEntity
  8
7
100
AcDbLine
 10
5.836137845715262
 20
5.963673899900847
 30
0.0
 11
5.84794886933731
 21
5.967610907774862
 31
0.0
  0
LINE
  5
30C5
330
1E
100
AcDbEntity
  8
7
100
AcDbLine
 10
5.84794886933731
 20
5.967610907774862
 30
0.0
 11
5.851885877211325
 21
5.9774534274599
 31
0.0
  0
LINE
  5
30C6
330
1E
100
AcDbEntity
  8
7
100
AcDbLine
 10
5.851885877211325
 20
5.989264451081949
 30
0.0
 11
5.840074853589278
 21
6.024697521948089
 31
0.0
  0
LINE
  5
30C7
330
1E
100
AcDbEntity
  8
7
100
AcDbLine
 10
5.840074853589278
 20
6.024697521948089
 30
0.0
 11
5.838106349652271
 21
6.030603033759113
 31
0.0
  0
LINE
  5
30C8
330
1E
100
AcDbEntity
  8
7
100
AcDbLine
 10
5.836137845715262
 20
4.971547915648878
 30
0.0
 11
5.84794886933731
 21
4.975484923522893
 31
0.0
  0
LINE
  5
30C9
330
1E
100
AcDbEntity
  8
7
100
AcDbLine
 10
5.84794886933731
 20
4.975484923522893
 30
0.0
 11
5.851885877211325
 21
4.985327443207932
 31
0.0
  0
LINE
  5
30CA
330
1E
100
AcDbEntity
  8
7
100
AcDbLine
 10
5.601885877211325
 20
4.8770597266725
 30
0.0
 11
5.950311074061719
 21
4.902650277853602
 31
0.0
  0
LINE
  5
30CB
330
1E
100
AcDbEntity
  8
7
100
AcDbLine
 10
5.950311074061719
 20
4.902650277853602
 30
0.0
 11
5.971964617368806
 21
4.910524293601634
 31
0.0
  0
LINE
  5
30CC
330
1E
100
AcDbEntity
  8
7
100
AcDbLine
 10
5.971964617368806
 20
4.910524293601634
 30
0.0
 11
5.98574414492786
 21
4.928240829034704
 31
0.0
  0
LINE
  5
30CD
330
1E
100
AcDbEntity
  8
7
100
AcDbLine
 10
5.98574414492786
 20
4.928240829034704
 30
0.0
 11
5.987712648864869
 21
4.949894372341791
 31
0.0
  0
LINE
  5
30CE
330
1E
100
AcDbEntity
  8
7
100
AcDbLine
 10
5.987712648864869
 20
4.949894372341791
 30
0.0
 11
5.975901625242821
 21
4.969579411711869
 31
0.0
  0
LINE
  5
30CF
330
1E
100
AcDbEntity
  8
7
100
AcDbLine
 10
5.975901625242821
 20
4.969579411711869
 30
0.0
 11
5.907003987447545
 21
5.040445553444152
 31
0.0
  0
LINE
  5
30D0
330
1E
100
AcDbEntity
  8
7
100
AcDbLine
 10
5.836137845715262
 20
3.97942193139691
 30
0.0
 11
5.84794886933731
 21
3.983358939270924
 31
0.0
  0
LINE
  5
30D1
330
1E
100
AcDbEntity
  8
7
100
AcDbLine
 10
5.84794886933731
 20
3.983358939270924
 30
0.0
 11
5.851885877211325
 21
3.995169962892973
 31
0.0
  0
LINE
  5
30D2
330
1E
100
AcDbEntity
  8
7
100
AcDbLine
 10
5.950311074061719
 20
3.910524293601634
 30
0.0
 11
5.971964617368806
 21
3.918398309349665
 31
0.0
  0
LINE
  5
30D3
330
1E
100
AcDbEntity
  8
7
100
AcDbLine
 10
5.971964617368806
 20
3.918398309349665
 30
0.0
 11
5.98574414492786
 21
3.936114844782736
 31
0.0
  0
LINE
  5
30D4
330
1E
100
AcDbEntity
  8
7
100
AcDbLine
 10
5.98574414492786
 20
3.936114844782736
 30
0.0
 11
5.987712648864869
 21
3.957768388089823
 31
0.0
  0
LINE
  5
30D5
330
1E
100
AcDbEntity
  8
7
100
AcDbLine
 10
5.987712648864869
 20
3.957768388089823
 30
0.0
 11
5.975901625242821
 21
3.9774534274599
 31
0.0
  0
LINE
  5
30D6
330
1E
100
AcDbEntity
  8
7
100
AcDbLine
 10
5.975901625242821
 20
3.9774534274599
 30
0.0
 11
5.907003987447545
 21
4.048319569192184
 31
0.0
  0
LINE
  5
30D7
330
1E
100
AcDbEntity
  8
7
100
AcDbLine
 10
5.907003987447545
 20
4.048319569192184
 30
0.0
 11
5.875507924455419
 21
4.062099096751239
 31
0.0
  0
LINE
  5
30D8
330
1E
100
AcDbEntity
  8
7
100
AcDbLine
 10
5.389287452014475
 20
3.130996734546515
 30
0.0
 11
5.432594538628649
 21
3.095563663680374
 31
0.0
  0
LINE
  5
30D9
330
1E
100
AcDbEntity
  8
7
100
AcDbLine
 10
5.432594538628649
 20
3.095563663680374
 30
0.0
 11
5.48574414492786
 21
3.069973112499271
 31
0.0
  0
LINE
  5
30DA
330
1E
100
AcDbEntity
  8
7
100
AcDbLine
 10
5.48574414492786
 20
3.069973112499271
 30
0.0
 11
5.540862255164082
 21
3.060130592814232
 31
0.0
  0
LINE
  5
30DB
330
1E
100
AcDbEntity
  8
7
100
AcDbLine
 10
5.32826382996723
 20
3.28454004163313
 30
0.0
 11
5.334169341778254
 21
3.22942193139691
 31
0.0
  0
LINE
  5
30DC
330
1E
100
AcDbEntity
  8
7
100
AcDbLine
 10
5.334169341778254
 20
3.22942193139691
 30
0.0
 11
5.355822885085341
 21
3.176272325097697
 31
0.0
  0
LINE
  5
30DD
330
1E
100
AcDbEntity
  8
7
100
AcDbLine
 10
5.355822885085341
 20
3.176272325097697
 30
0.0
 11
5.389287452014475
 21
3.130996734546515
 31
0.0
  0
LINE
  5
30DE
330
1E
100
AcDbEntity
  8
7
100
AcDbLine
 10
5.389287452014475
 20
7.485327443207932
 30
0.0
 11
5.432594538628649
 21
7.520760514074074
 31
0.0
  0
LINE
  5
30DF
330
1E
100
AcDbEntity
  8
7
100
AcDbLine
 10
5.432594538628649
 20
7.520760514074074
 30
0.0
 11
5.48574414492786
 21
7.544382561318169
 31
0.0
  0
LINE
  5
30E0
330
1E
100
AcDbEntity
  8
7
100
AcDbLine
 10
5.48574414492786
 20
7.544382561318169
 30
0.0
 11
5.540862255164082
 21
7.554225081003208
 31
0.0
  0
LINE
  5
30E1
330
1E
100
AcDbEntity
  8
7
100
AcDbLine
 10
5.540862255164082
 20
7.554225081003208
 30
0.0
 11
5.48574414492786
 21
7.544382561318169
 31
0.0
  0
LINE
  5
30E2
330
1E
100
AcDbEntity
  8
7
100
AcDbLine
 10
5.48574414492786
 20
7.544382561318169
 30
0.0
 11
5.432594538628649
 21
7.520760514074074
 31
0.0
  0
LINE
  5
30E3
330
1E
100
AcDbEntity
  8
7
100
AcDbLine
 10
5.432594538628649
 20
7.520760514074074
 30
0.0
 11
5.389287452014475
 21
7.485327443207932
 31
0.0
  0
LINE
  5
30E4
330
1E
100
AcDbEntity
  8
7
100
AcDbLine
 10
5.389287452014475
 20
7.485327443207932
 30
0.0
 11
5.355822885085341
 21
7.438083348719743
 31
0.0
  0
LINE
  5
30E5
330
1E
100
AcDbEntity
  8
7
100
AcDbLine
 10
5.355822885085341
 20
7.438083348719743
 30
0.0
 11
5.334169341778254
 21
7.384933742420532
 31
0.0
  0
LINE
  5
30E6
330
1E
100
AcDbEntity
  8
7
100
AcDbLine
 10
5.334169341778254
 20
7.384933742420532
 30
0.0
 11
5.32826382996723
 21
7.32981563218431
 31
0.0
  0
LINE
  5
30E7
330
1E
100
AcDbEntity
  8
7
100
AcDbLine
 10
5.32826382996723
 20
7.32981563218431
 30
0.0
 11
5.334169341778254
 21
7.384933742420532
 31
0.0
  0
LINE
  5
30E8
330
1E
100
AcDbEntity
  8
7
100
AcDbLine
 10
5.334169341778254
 20
7.384933742420532
 30
0.0
 11
5.355822885085341
 21
7.438083348719743
 31
0.0
  0
LINE
  5
30E9
330
1E
100
AcDbEntity
  8
7
100
AcDbLine
 10
5.355822885085341
 20
7.438083348719743
 30
0.0
 11
5.389287452014475
 21
7.485327443207932
 31
0.0
  0
LINE
  5
30EA
330
1E
100
AcDbEntity
  8
7
100
AcDbLine
 10
5.540862255164082
 20
7.495169962892973
 30
0.0
 11
5.538893751227073
 21
7.524697521948089
 31
0.0
  0
LINE
  5
30EB
330
1E
100
AcDbEntity
  8
7
100
AcDbLine
 10
5.538893751227073
 20
7.524697521948089
 30
0.0
 11
5.538893751227073
 21
7.546351065255176
 31
0.0
  0
LINE
  5
30EC
330
1E
100
AcDbEntity
  8
7
100
AcDbLine
 10
5.538893751227073
 20
7.546351065255176
 30
0.0
 11
5.540862255164082
 21
7.554225081003208
 31
0.0
  0
LINE
  5
30ED
330
1E
100
AcDbEntity
  8
7
100
AcDbLine
 10
5.601885877211325
 20
7.558162088877224
 30
0.0
 11
5.601885877211325
 21
7.550288073129193
 31
0.0
  0
LINE
  5
30EE
330
1E
100
AcDbEntity
  8
7
100
AcDbLine
 10
5.601885877211325
 20
7.550288073129193
 30
0.0
 11
5.601885877211325
 21
7.526666025885099
 31
0.0
  0
LINE
  5
30EF
330
1E
100
AcDbEntity
  8
7
100
AcDbLine
 10
5.601885877211325
 20
7.526666025885099
 30
0.0
 11
5.601885877211325
 21
7.49713846682998
 31
0.0
  0
LINE
  5
30F0
330
1E
100
AcDbEntity
  8
7
100
AcDbLine
 10
5.540862255164082
 20
7.495169962892973
 30
0.0
 11
5.48574414492786
 21
7.487295947144941
 31
0.0
  0
LINE
  5
30F1
330
1E
100
AcDbEntity
  8
7
100
AcDbLine
 10
5.48574414492786
 20
7.487295947144941
 30
0.0
 11
5.432594538628649
 21
7.469579411711869
 31
0.0
  0
LINE
  5
30F2
330
1E
100
AcDbEntity
  8
7
100
AcDbLine
 10
5.432594538628649
 20
7.469579411711869
 30
0.0
 11
5.389287452014475
 21
7.443988860530767
 31
0.0
  0
LINE
  5
30F3
330
1E
100
AcDbEntity
  8
7
100
AcDbLine
 10
5.389287452014475
 20
7.443988860530767
 30
0.0
 11
5.355822885085341
 21
7.408555789664626
 31
0.0
  0
LINE
  5
30F4
330
1E
100
AcDbEntity
  8
7
100
AcDbLine
 10
5.355822885085341
 20
7.408555789664626
 30
0.0
 11
5.334169341778254
 21
7.371154214861476
 31
0.0
  0
LINE
  5
30F5
330
1E
100
AcDbEntity
  8
7
100
AcDbLine
 10
5.334169341778254
 20
7.371154214861476
 30
0.0
 11
5.32826382996723
 21
7.32981563218431
 31
0.0
  0
LINE
  5
30F6
330
1E
100
AcDbEntity
  8
7
100
AcDbLine
 10
5.601885877211325
 20
3.11721720698746
 30
0.0
 11
5.601885877211325
 21
7.49713846682998
 31
0.0
  0
LINE
  5
30F7
330
1E
100
AcDbEntity
  8
7
100
AcDbLine
 10
5.601885877211325
 20
7.49713846682998
 30
0.0
 11
5.540862255164082
 21
7.495169962892973
 31
0.0
  0
LINE
  5
30F8
330
1E
100
AcDbEntity
  8
7
100
AcDbLine
 10
5.601885877211325
 20
3.11721720698746
 30
0.0
 11
5.601885877211325
 21
3.087689647932341
 31
0.0
  0
LINE
  5
30F9
330
1E
100
AcDbEntity
  8
7
100
AcDbLine
 10
5.601885877211325
 20
3.087689647932341
 30
0.0
 11
5.601885877211325
 21
3.066036104625256
 31
0.0
  0
LINE
  5
30FA
330
1E
100
AcDbEntity
  8
7
100
AcDbLine
 10
5.601885877211325
 20
3.066036104625256
 30
0.0
 11
5.601885877211325
 21
3.058162088877224
 31
0.0
  0
LINE
  5
30FB
330
1E
100
AcDbEntity
  8
7
100
AcDbLine
 10
5.540862255164082
 20
3.060130592814232
 30
0.0
 11
5.538893751227073
 21
3.068004608562263
 31
0.0
  0
LINE
  5
30FC
330
1E
100
AcDbEntity
  8
7
100
AcDbLine
 10
5.538893751227073
 20
3.068004608562263
 30
0.0
 11
5.538893751227073
 21
3.091626655806358
 31
0.0
  0
LINE
  5
30FD
330
1E
100
AcDbEntity
  8
7
100
AcDbLine
 10
5.540862255164082
 20
3.060130592814232
 30
0.0
 11
5.48574414492786
 21
3.069973112499271
 31
0.0
  0
LINE
  5
30FE
330
1E
100
AcDbEntity
  8
7
100
AcDbLine
 10
5.48574414492786
 20
3.069973112499271
 30
0.0
 11
5.432594538628649
 21
3.095563663680374
 31
0.0
  0
LINE
  5
30FF
330
1E
100
AcDbEntity
  8
7
100
AcDbLine
 10
5.432594538628649
 20
3.095563663680374
 30
0.0
 11
5.389287452014475
 21
3.130996734546515
 31
0.0
  0
LINE
  5
3100
330
1E
100
AcDbEntity
  8
7
100
AcDbLine
 10
5.389287452014475
 20
3.130996734546515
 30
0.0
 11
5.355822885085341
 21
3.176272325097697
 31
0.0
  0
LINE
  5
3101
330
1E
100
AcDbEntity
  8
7
100
AcDbLine
 10
5.355822885085341
 20
3.176272325097697
 30
0.0
 11
5.334169341778254
 21
3.22942193139691
 31
0.0
  0
LINE
  5
3102
330
1E
100
AcDbEntity
  8
7
100
AcDbLine
 10
5.334169341778254
 20
3.22942193139691
 30
0.0
 11
5.32826382996723
 21
3.28454004163313
 31
0.0
  0
LINE
  5
3103
330
1E
100
AcDbEntity
  8
7
100
AcDbLine
 10
5.389287452014475
 20
3.17233531722368
 30
0.0
 11
5.432594538628649
 21
3.144776262105571
 31
0.0
  0
LINE
  5
3104
330
1E
100
AcDbEntity
  8
7
100
AcDbLine
 10
5.432594538628649
 20
3.144776262105571
 30
0.0
 11
5.48574414492786
 21
3.1270597266725
 31
0.0
  0
LINE
  5
3105
330
1E
100
AcDbEntity
  8
7
100
AcDbLine
 10
5.48574414492786
 20
3.1270597266725
 30
0.0
 11
5.540862255164082
 21
3.121154214861476
 31
0.0
  0
LINE
  5
3106
330
1E
100
AcDbEntity
  8
7
100
AcDbLine
 10
5.32826382996723
 20
3.28454004163313
 30
0.0
 11
5.334169341778254
 21
3.243201458955963
 31
0.0
  0
LINE
  5
3107
330
1E
100
AcDbEntity
  8
7
100
AcDbLine
 10
5.334169341778254
 20
3.243201458955963
 30
0.0
 11
5.355822885085341
 21
3.205799884152815
 31
0.0
  0
LINE
  5
3108
330
1E
100
AcDbEntity
  8
7
100
AcDbLine
 10
5.355822885085341
 20
3.205799884152815
 30
0.0
 11
5.389287452014475
 21
3.17233531722368
 31
0.0
  0
LINE
  5
3109
330
1E
100
AcDbEntity
  8
7
100
AcDbLine
 10
0.1747205228806168
 20
5.963673899900847
 30
0.0
 11
0.1727520189436094
 21
5.967610907774862
 31
0.0
  0
LINE
  5
310A
330
1E
100
AcDbEntity
  8
7
100
AcDbLine
 10
0.1727520189436094
 20
5.967610907774862
 30
0.0
 11
0.1727520189436094
 21
5.9774534274599
 31
0.0
  0
LINE
  5
310B
330
1E
100
AcDbEntity
  8
7
100
AcDbLine
 10
-0.0319723905052101
 20
5.9774534274599
 30
0.0
 11
-0.0319723905052101
 21
5.967610907774862
 31
0.0
  0
LINE
  5
310C
330
1E
100
AcDbEntity
  8
7
100
AcDbLine
 10
-0.0319723905052101
 20
5.967610907774862
 30
0.0
 11
-0.0319723905052101
 21
5.963673899900847
 31
0.0
  0
LINE
  5
310D
330
1E
100
AcDbEntity
  8
7
100
AcDbLine
 10
0.1747205228806168
 20
4.971547915648878
 30
0.0
 11
0.1727520189436094
 21
4.975484923522893
 31
0.0
  0
LINE
  5
310E
330
1E
100
AcDbEntity
  8
7
100
AcDbLine
 10
0.1727520189436094
 20
4.975484923522893
 30
0.0
 11
0.1727520189436094
 21
4.985327443207932
 31
0.0
  0
LINE
  5
310F
330
1E
100
AcDbEntity
  8
7
100
AcDbLine
 10
-0.0319723905052101
 20
4.985327443207932
 30
0.0
 11
-0.0319723905052101
 21
4.975484923522893
 31
0.0
  0
LINE
  5
3110
330
1E
100
AcDbEntity
  8
7
100
AcDbLine
 10
-0.0319723905052101
 20
4.975484923522893
 30
0.0
 11
-0.0319723905052101
 21
4.971547915648878
 31
0.0
  0
LINE
  5
3111
330
1E
100
AcDbEntity
  8
7
100
AcDbLine
 10
0.3164528063451844
 20
4.957768388089823
 30
0.0
 11
0.3164528063451844
 21
4.95973689202683
 31
0.0
  0
LINE
  5
3112
330
1E
100
AcDbEntity
  8
7
100
AcDbLine
 10
0.3164528063451844
 20
4.95973689202683
 30
0.0
 11
0.1983425701247112
 21
4.95973689202683
 31
0.0
  0
LINE
  5
3113
330
1E
100
AcDbEntity
  8
7
100
AcDbLine
 10
0.1747205228806168
 20
3.97942193139691
 30
0.0
 11
0.1727520189436094
 21
3.983358939270924
 31
0.0
  0
LINE
  5
3114
330
1E
100
AcDbEntity
  8
7
100
AcDbLine
 10
0.1727520189436094
 20
3.983358939270924
 30
0.0
 11
0.1727520189436094
 21
3.995169962892973
 31
0.0
  0
LINE
  5
3115
330
1E
100
AcDbEntity
  8
7
100
AcDbLine
 10
-0.0319723905052101
 20
3.995169962892973
 30
0.0
 11
-0.0319723905052101
 21
3.983358939270924
 31
0.0
  0
LINE
  5
3116
330
1E
100
AcDbEntity
  8
7
100
AcDbLine
 10
-0.0319723905052101
 20
3.983358939270924
 30
0.0
 11
-0.0319723905052101
 21
3.97942193139691
 31
0.0
  0
LINE
  5
3117
330
1E
100
AcDbEntity
  8
7
100
AcDbLine
 10
0.3164528063451844
 20
3.965642403837854
 30
0.0
 11
0.3164528063451844
 21
3.967610907774862
 31
0.0
  0
LINE
  5
3118
330
1E
100
AcDbEntity
  8
7
100
AcDbLine
 10
0.3164528063451844
 20
3.967610907774862
 30
0.0
 11
0.1983425701247112
 21
3.967610907774862
 31
0.0
  0
LINE
  5
3119
330
1E
100
AcDbEntity
  8
7
100
AcDbLine
 10
0.8085787905971528
 20
5.963673899900847
 30
0.0
 11
0.8085787905971528
 21
5.967610907774862
 31
0.0
  0
LINE
  5
311A
330
1E
100
AcDbEntity
  8
7
100
AcDbLine
 10
0.8085787905971528
 20
5.967610907774862
 30
0.0
 11
0.8085787905971528
 21
5.9774534274599
 31
0.0
  0
LINE
  5
311B
330
1E
100
AcDbEntity
  8
7
100
AcDbLine
 10
0.6018858772113261
 20
6.024697521948089
 30
0.0
 11
0.8085787905971528
 21
6.024697521948089
 31
0.0
  0
LINE
  5
311C
330
1E
100
AcDbEntity
  8
7
100
AcDbLine
 10
0.8085787905971528
 20
6.024697521948089
 30
0.0
 11
0.8085787905971528
 21
6.030603033759113
 31
0.0
  0
LINE
  5
311D
330
1E
100
AcDbEntity
  8
7
100
AcDbLine
 10
0.8085787905971528
 20
6.030603033759113
 30
0.0
 11
0.6018858772113261
 21
6.030603033759113
 31
0.0
  0
LINE
  5
311E
330
1E
100
AcDbEntity
  8
7
100
AcDbLine
 10
0.8085787905971528
 20
4.971547915648878
 30
0.0
 11
0.8085787905971528
 21
4.975484923522893
 31
0.0
  0
LINE
  5
311F
330
1E
100
AcDbEntity
  8
7
100
AcDbLine
 10
0.8085787905971528
 20
4.975484923522893
 30
0.0
 11
0.8085787905971528
 21
4.985327443207932
 31
0.0
  0
LINE
  5
3120
330
1E
100
AcDbEntity
  8
7
100
AcDbLine
 10
-0.2426023117650526
 20
4.693988860530767
 30
0.0
 11
-0.2426023117650526
 21
4.69202035659376
 31
0.0
  0
LINE
  5
3121
330
1E
100
AcDbEntity
  8
7
100
AcDbLine
 10
-0.2426023117650526
 20
4.69202035659376
 30
0.0
 11
-0.0162243590091471
 21
4.69202035659376
 31
0.0
  0
LINE
  5
3122
330
1E
100
AcDbEntity
  8
7
100
AcDbLine
 10
-0.0162243590091471
 20
4.69202035659376
 30
0.0
 11
0.1589724913845538
 21
4.69202035659376
 31
0.0
  0
LINE
  5
3123
330
1E
100
AcDbEntity
  8
7
100
AcDbLine
 10
0.1589724913845538
 20
4.69202035659376
 30
0.0
 11
0.617633908707389
 21
4.69202035659376
 31
0.0
  0
LINE
  5
3124
330
1E
100
AcDbEntity
  8
7
100
AcDbLine
 10
0.617633908707389
 20
4.69202035659376
 30
0.0
 11
0.7928307591010899
 21
4.69202035659376
 31
0.0
  0
LINE
  5
3125
330
1E
100
AcDbEntity
  8
7
100
AcDbLine
 10
0.7928307591010899
 20
4.69202035659376
 30
0.0
 11
1.017240207919987
 21
4.69202035659376
 31
0.0
  0
LINE
  5
3126
330
1E
100
AcDbEntity
  8
7
100
AcDbLine
 10
-0.2426023117650526
 20
5.684146340845728
 30
0.0
 11
-0.0162243590091471
 21
5.684146340845728
 31
0.0
  0
LINE
  5
3127
330
1E
100
AcDbEntity
  8
7
100
AcDbLine
 10
-0.0162243590091471
 20
5.684146340845728
 30
0.0
 11
0.1589724913845538
 21
5.684146340845728
 31
0.0
  0
LINE
  5
3128
330
1E
100
AcDbEntity
  8
7
100
AcDbLine
 10
0.1589724913845538
 20
5.684146340845728
 30
0.0
 11
0.617633908707389
 21
5.684146340845728
 31
0.0
  0
LINE
  5
3129
330
1E
100
AcDbEntity
  8
7
100
AcDbLine
 10
0.617633908707389
 20
5.684146340845728
 30
0.0
 11
0.7928307591010899
 21
5.684146340845728
 31
0.0
  0
LINE
  5
312A
330
1E
100
AcDbEntity
  8
7
100
AcDbLine
 10
0.7928307591010899
 20
5.684146340845728
 30
0.0
 11
1.017240207919987
 21
5.684146340845728
 31
0.0
  0
LINE
  5
312B
330
1E
100
AcDbEntity
  8
7
100
AcDbLine
 10
0.617633908707389
 20
6.676272325097697
 30
0.0
 11
0.7928307591010899
 21
6.676272325097697
 31
0.0
  0
LINE
  5
312C
330
1E
100
AcDbEntity
  8
7
100
AcDbLine
 10
0.7928307591010899
 20
6.676272325097697
 30
0.0
 11
1.017240207919987
 21
6.676272325097697
 31
0.0
  0
LINE
  5
312D
330
1E
100
AcDbEntity
  8
7
100
AcDbLine
 10
-0.2426023117650526
 20
6.676272325097697
 30
0.0
 11
-0.0162243590091471
 21
6.676272325097697
 31
0.0
  0
LINE
  5
312E
330
1E
100
AcDbEntity
  8
7
100
AcDbLine
 10
-0.0162243590091471
 20
6.676272325097697
 30
0.0
 11
0.1589724913845538
 21
6.676272325097697
 31
0.0
  0
LINE
  5
312F
330
1E
100
AcDbEntity
  8
7
100
AcDbLine
 10
0.1589724913845538
 20
6.676272325097697
 30
0.0
 11
0.617633908707389
 21
6.676272325097697
 31
0.0
  0
LINE
  5
3130
330
1E
100
AcDbEntity
  8
7
100
AcDbLine
 10
0.8085787905971528
 20
3.97942193139691
 30
0.0
 11
0.8085787905971528
 21
3.983358939270924
 31
0.0
  0
LINE
  5
3131
330
1E
100
AcDbEntity
  8
7
100
AcDbLine
 10
0.8085787905971528
 20
3.983358939270924
 30
0.0
 11
0.8085787905971528
 21
3.995169962892973
 31
0.0
  0
LINE
  5
3132
330
1E
100
AcDbEntity
  8
7
100
AcDbLine
 10
0.6038543811483335
 20
5.9774534274599
 30
0.0
 11
0.6038543811483335
 21
5.967610907774862
 31
0.0
  0
LINE
  5
3133
330
1E
100
AcDbEntity
  8
7
100
AcDbLine
 10
0.6038543811483335
 20
5.967610907774862
 30
0.0
 11
0.6018858772113261
 21
5.963673899900847
 31
0.0
  0
LINE
  5
3134
330
1E
100
AcDbEntity
  8
7
100
AcDbLine
 10
0.6038543811483335
 20
4.985327443207932
 30
0.0
 11
0.6038543811483335
 21
4.975484923522893
 31
0.0
  0
LINE
  5
3135
330
1E
100
AcDbEntity
  8
7
100
AcDbLine
 10
0.6038543811483335
 20
4.975484923522893
 30
0.0
 11
0.6018858772113261
 21
4.971547915648878
 31
0.0
  0
LINE
  5
3136
330
1E
100
AcDbEntity
  8
7
100
AcDbLine
 10
0.6038543811483335
 20
3.995169962892973
 30
0.0
 11
0.6038543811483335
 21
3.983358939270924
 31
0.0
  0
LINE
  5
3137
330
1E
100
AcDbEntity
  8
7
100
AcDbLine
 10
0.6038543811483335
 20
3.983358939270924
 30
0.0
 11
0.6018858772113261
 21
3.97942193139691
 31
0.0
  0
LINE
  5
3138
330
1E
100
AcDbEntity
  8
7
100
AcDbLine
 10
0.5782638299672316
 20
3.591626655806358
 30
0.0
 11
0.595980365400302
 21
3.640839254231554
 31
0.0
  0
LINE
  5
3139
330
1E
100
AcDbEntity
  8
7
100
AcDbLine
 10
0.595980365400302
 20
3.640839254231554
 30
0.0
 11
0.595980365400302
 21
3.69202035659376
 31
0.0
  0
LINE
  5
313A
330
1E
100
AcDbEntity
  8
7
100
AcDbLine
 10
0.595980365400302
 20
3.69202035659376
 30
0.0
 11
0.5782638299672316
 21
3.741232955018956
 31
0.0
  0
LINE
  5
313B
330
1E
100
AcDbEntity
  8
7
100
AcDbLine
 10
0.5782638299672316
 20
3.741232955018956
 30
0.0
 11
0.5447992630380974
 21
3.780603033759113
 31
0.0
  0
LINE
  5
313C
330
1E
100
AcDbEntity
  8
7
100
AcDbLine
 10
0.5447992630380974
 20
3.780603033759113
 30
0.0
 11
0.4995236724869168
 21
3.806193584940215
 31
0.0
  0
LINE
  5
313D
330
1E
100
AcDbEntity
  8
7
100
AcDbLine
 10
0.4995236724869168
 20
3.806193584940215
 30
0.0
 11
0.4483425701247113
 21
3.816036104625256
 31
0.0
  0
LINE
  5
313E
330
1E
100
AcDbEntity
  8
7
100
AcDbLine
 10
0.4483425701247113
 20
3.516823506200058
 30
0.0
 11
0.4995236724869168
 21
3.526666025885099
 31
0.0
  0
LINE
  5
313F
330
1E
100
AcDbEntity
  8
7
100
AcDbLine
 10
0.4995236724869168
 20
3.526666025885099
 30
0.0
 11
0.5447992630380974
 21
3.5522565770662
 31
0.0
  0
LINE
  5
3140
330
1E
100
AcDbEntity
  8
7
100
AcDbLine
 10
0.5447992630380974
 20
3.5522565770662
 30
0.0
 11
0.5782638299672316
 21
3.591626655806358
 31
0.0
  0
LINE
  5
3141
330
1E
100
AcDbEntity
  8
7
100
AcDbLine
 10
0.1983425701247112
 20
3.741232955018956
 30
0.0
 11
0.1806260346916408
 21
3.69202035659376
 31
0.0
  0
LINE
  5
3142
330
1E
100
AcDbEntity
  8
7
100
AcDbLine
 10
0.1806260346916408
 20
3.69202035659376
 30
0.0
 11
0.1806260346916408
 21
3.640839254231554
 31
0.0
  0
LINE
  5
3143
330
1E
100
AcDbEntity
  8
7
100
AcDbLine
 10
0.1806260346916408
 20
3.640839254231554
 30
0.0
 11
0.1983425701247112
 21
3.591626655806358
 31
0.0
  0
LINE
  5
3144
330
1E
100
AcDbEntity
  8
7
100
AcDbLine
 10
0.1983425701247112
 20
3.591626655806358
 30
0.0
 11
0.2318071370538455
 21
3.5522565770662
 31
0.0
  0
LINE
  5
3145
330
1E
100
AcDbEntity
  8
7
100
AcDbLine
 10
0.2318071370538455
 20
3.5522565770662
 30
0.0
 11
0.2770827276050269
 21
3.526666025885099
 31
0.0
  0
LINE
  5
3146
330
1E
100
AcDbEntity
  8
7
100
AcDbLine
 10
0.2770827276050269
 20
3.526666025885099
 30
0.0
 11
0.3282638299672316
 21
3.516823506200058
 31
0.0
  0
LINE
  5
3147
330
1E
100
AcDbEntity
  8
7
100
AcDbLine
 10
0.3282638299672316
 20
3.816036104625256
 30
0.0
 11
0.2770827276050269
 21
3.806193584940215
 31
0.0
  0
LINE
  5
3148
330
1E
100
AcDbEntity
  8
7
100
AcDbLine
 10
0.2770827276050269
 20
3.806193584940215
 30
0.0
 11
0.2318071370538455
 21
3.780603033759113
 31
0.0
  0
LINE
  5
3149
330
1E
100
AcDbEntity
  8
7
100
AcDbLine
 10
0.2318071370538455
 20
3.780603033759113
 30
0.0
 11
0.1983425701247112
 21
3.741232955018956
 31
0.0
  0
LINE
  5
314A
330
1E
100
AcDbEntity
  8
7
100
AcDbLine
 10
0.2908622551640816
 20
3.731390435333917
 30
0.0
 11
0.2633032000459714
 21
3.703831380215806
 31
0.0
  0
LINE
  5
314B
330
1E
100
AcDbEntity
  8
7
100
AcDbLine
 10
0.2633032000459714
 20
3.703831380215806
 30
0.0
 11
0.2534606803609325
 21
3.666429805412658
 31
0.0
  0
LINE
  5
314C
330
1E
100
AcDbEntity
  8
7
100
AcDbLine
 10
0.2534606803609325
 20
3.666429805412658
 30
0.0
 11
0.2633032000459714
 21
3.629028230609508
 31
0.0
  0
LINE
  5
314D
330
1E
100
AcDbEntity
  8
7
100
AcDbLine
 10
0.2633032000459714
 20
3.629028230609508
 30
0.0
 11
0.2908622551640816
 21
3.601469175491397
 31
0.0
  0
LINE
  5
314E
330
1E
100
AcDbEntity
  8
7
100
AcDbLine
 10
0.2908622551640816
 20
3.601469175491397
 30
0.0
 11
0.3282638299672316
 21
3.591626655806358
 31
0.0
  0
LINE
  5
314F
330
1E
100
AcDbEntity
  8
7
100
AcDbLine
 10
0.2829882394160501
 20
3.725484923522893
 30
0.0
 11
0.2573976882349482
 21
3.688083348719743
 31
0.0
  0
LINE
  5
3150
330
1E
100
AcDbEntity
  8
7
100
AcDbLine
 10
0.2573976882349482
 20
3.688083348719743
 30
0.0
 11
0.2573976882349482
 21
3.644776262105571
 31
0.0
  0
LINE
  5
3151
330
1E
100
AcDbEntity
  8
7
100
AcDbLine
 10
0.2573976882349482
 20
3.644776262105571
 30
0.0
 11
0.2829882394160501
 21
3.607374687302421
 31
0.0
  0
LINE
  5
3152
330
1E
100
AcDbEntity
  8
7
100
AcDbLine
 10
0.4936181606758927
 20
3.607374687302421
 30
0.0
 11
0.5192087118569955
 21
3.644776262105571
 31
0.0
  0
LINE
  5
3153
330
1E
100
AcDbEntity
  8
7
100
AcDbLine
 10
0.5192087118569955
 20
3.644776262105571
 30
0.0
 11
0.5192087118569955
 21
3.688083348719743
 31
0.0
  0
LINE
  5
3154
330
1E
100
AcDbEntity
  8
7
100
AcDbLine
 10
0.5192087118569955
 20
3.688083348719743
 30
0.0
 11
0.4936181606758927
 21
3.725484923522893
 31
0.0
  0
LINE
  5
3155
330
1E
100
AcDbEntity
  8
7
100
AcDbLine
 10
0.4483425701247113
 20
3.591626655806358
 30
0.0
 11
0.4857441449278613
 21
3.601469175491397
 31
0.0
  0
LINE
  5
3156
330
1E
100
AcDbEntity
  8
7
100
AcDbLine
 10
0.4857441449278613
 20
3.601469175491397
 30
0.0
 11
0.5133032000459714
 21
3.629028230609508
 31
0.0
  0
LINE
  5
3157
330
1E
100
AcDbEntity
  8
7
100
AcDbLine
 10
0.5133032000459714
 20
3.629028230609508
 30
0.0
 11
0.5231457197310112
 21
3.666429805412658
 31
0.0
  0
LINE
  5
3158
330
1E
100
AcDbEntity
  8
7
100
AcDbLine
 10
0.5231457197310112
 20
3.666429805412658
 30
0.0
 11
0.5133032000459714
 21
3.703831380215806
 31
0.0
  0
LINE
  5
3159
330
1E
100
AcDbEntity
  8
7
100
AcDbLine
 10
0.5133032000459714
 20
3.703831380215806
 30
0.0
 11
0.4857441449278613
 21
3.731390435333917
 31
0.0
  0
LINE
  5
315A
330
1E
100
AcDbEntity
  8
7
100
AcDbLine
 10
0.4857441449278613
 20
3.731390435333917
 30
0.0
 11
0.4483425701247113
 21
3.741232955018956
 31
0.0
  0
LINE
  5
315B
330
1E
100
AcDbEntity
  8
7
100
AcDbLine
 10
0.2928307591010899
 20
3.733358939270924
 30
0.0
 11
0.2810197354790427
 21
3.7274534274599
 31
0.0
  0
LINE
  5
315C
330
1E
100
AcDbEntity
  8
7
100
AcDbLine
 10
0.2810197354790427
 20
3.7274534274599
 30
0.0
 11
0.4936181606758927
 21
3.7274534274599
 31
0.0
  0
LINE
  5
315D
330
1E
100
AcDbEntity
  8
7
100
AcDbLine
 10
0.4936181606758927
 20
3.7274534274599
 30
0.0
 11
0.4837756409908538
 21
3.733358939270924
 31
0.0
  0
LINE
  5
315E
330
1E
100
AcDbEntity
  8
7
100
AcDbLine
 10
0.4837756409908538
 20
3.731390435333917
 30
0.0
 11
0.4660591055577826
 21
3.739264451081949
 31
0.0
  0
LINE
  5
315F
330
1E
100
AcDbEntity
  8
7
100
AcDbLine
 10
0.4660591055577826
 20
3.739264451081949
 30
0.0
 11
0.4483425701247113
 21
3.741232955018956
 31
0.0
  0
LINE
  5
3160
330
1E
100
AcDbEntity
  8
7
100
AcDbLine
 10
0.3282638299672316
 20
3.741232955018956
 30
0.0
 11
0.3105472945341603
 21
3.739264451081949
 31
0.0
  0
LINE
  5
3161
330
1E
100
AcDbEntity
  8
7
100
AcDbLine
 10
0.3105472945341603
 20
3.739264451081949
 30
0.0
 11
0.2928307591010899
 21
3.731390435333917
 31
0.0
  0
LINE
  5
3162
330
1E
100
AcDbEntity
  8
7
100
AcDbLine
 10
0.4483425701247113
 20
3.591626655806358
 30
0.0
 11
0.4660591055577826
 21
3.593595159743365
 31
0.0
  0
LINE
  5
3163
330
1E
100
AcDbEntity
  8
7
100
AcDbLine
 10
0.4660591055577826
 20
3.593595159743365
 30
0.0
 11
0.4837756409908538
 21
3.601469175491397
 31
0.0
  0
LINE
  5
3164
330
1E
100
AcDbEntity
  8
7
100
AcDbLine
 10
0.2928307591010899
 20
3.601469175491397
 30
0.0
 11
0.3105472945341603
 21
3.593595159743365
 31
0.0
  0
LINE
  5
3165
330
1E
100
AcDbEntity
  8
7
100
AcDbLine
 10
0.3105472945341603
 20
3.593595159743365
 30
0.0
 11
0.3282638299672316
 21
3.591626655806358
 31
0.0
  0
LINE
  5
3166
330
1E
100
AcDbEntity
  8
7
100
AcDbLine
 10
-0.5162243590091471
 20
3.873122718798484
 30
0.0
 11
-0.5378779023162342
 21
3.863280199113445
 31
0.0
  0
LINE
  5
3167
330
1E
100
AcDbEntity
  8
7
100
AcDbLine
 10
-0.5378779023162342
 20
3.863280199113445
 30
0.0
 11
-0.5477204220012731
 21
3.841626655806358
 31
0.0
  0
LINE
  5
3168
330
1E
100
AcDbEntity
  8
7
100
AcDbLine
 10
-0.5477204220012731
 20
7.123122718798484
 30
0.0
 11
-0.5378779023162342
 21
7.144776262105571
 31
0.0
  0
LINE
  5
3169
330
1E
100
AcDbEntity
  8
7
100
AcDbLine
 10
-0.5378779023162342
 20
7.144776262105571
 30
0.0
 11
-0.5162243590091471
 21
7.152650277853602
 31
0.0
  0
LINE
  5
316A
330
1E
100
AcDbEntity
  8
7
100
AcDbLine
 10
-0.5162243590091471
 20
6.743201458955963
 30
0.0
 11
-0.5378779023162342
 21
6.751075474703995
 31
0.0
  0
LINE
  5
316B
330
1E
100
AcDbEntity
  8
7
100
AcDbLine
 10
-0.5378779023162342
 20
6.751075474703995
 30
0.0
 11
-0.5477204220012731
 21
6.772729018011082
 31
0.0
  0
LINE
  5
316C
330
1E
100
AcDbEntity
  8
7
100
AcDbLine
 10
-0.9532322330248952
 20
7.546351065255176
 30
0.0
 11
-0.9748857763319822
 21
7.524697521948089
 31
0.0
  0
LINE
  5
316D
330
1E
100
AcDbEntity
  8
7
100
AcDbLine
 10
-0.9748857763319822
 20
7.524697521948089
 30
0.0
 11
-0.9827597920800137
 21
7.495169962892973
 31
0.0
  0
LINE
  5
316E
330
1E
100
AcDbEntity
  8
7
100
AcDbLine
 10
-0.5477204220012731
 20
3.493201458955963
 30
0.0
 11
-0.5378779023162342
 21
3.471547915648878
 31
0.0
  0
LINE
  5
316F
330
1E
100
AcDbEntity
  8
7
100
AcDbLine
 10
-0.5378779023162342
 20
3.471547915648878
 30
0.0
 11
-0.5162243590091471
 21
3.461705395963837
 31
0.0
  0
LINE
  5
3170
330
1E
100
AcDbEntity
  8
7
100
AcDbLine
 10
-0.7583503432611157
 20
7.32981563218431
 30
0.0
 11
-0.8154369574343434
 21
7.371154214861476
 31
0.0
  0
LINE
  5
3171
330
1E
100
AcDbEntity
  8
7
100
AcDbLine
 10
-0.8154369574343434
 20
7.371154214861476
 30
0.0
 11
-0.8685865637335563
 21
7.408555789664626
 31
0.0
  0
LINE
  5
3172
330
1E
100
AcDbEntity
  8
7
100
AcDbLine
 10
-0.8685865637335563
 20
7.408555789664626
 30
0.0
 11
-0.9138621542847378
 21
7.443988860530767
 31
0.0
  0
LINE
  5
3173
330
1E
100
AcDbEntity
  8
7
100
AcDbLine
 10
-0.9138621542847378
 20
7.443988860530767
 30
0.0
 11
-0.9492952251508794
 21
7.469579411711869
 31
0.0
  0
LINE
  5
3174
330
1E
100
AcDbEntity
  8
7
100
AcDbLine
 10
-0.9492952251508794
 20
7.469579411711869
 30
0.0
 11
-0.9729172723949739
 21
7.487295947144941
 31
0.0
  0
LINE
  5
3175
330
1E
100
AcDbEntity
  8
7
100
AcDbLine
 10
-0.9729172723949739
 20
7.487295947144941
 30
0.0
 11
-0.9827597920800137
 21
7.495169962892973
 31
0.0
  0
LINE
  5
3176
330
1E
100
AcDbEntity
  8
7
100
AcDbLine
 10
-0.9827597920800137
 20
3.121154214861476
 30
0.0
 11
-0.9827597920800137
 21
7.495169962892973
 31
0.0
  0
LINE
  5
3177
330
1E
100
AcDbEntity
  8
7
100
AcDbLine
 10
-0.9827597920800137
 20
7.495169962892973
 30
0.0
 11
-0.9866967999540285
 21
7.49713846682998
 31
0.0
  0
LINE
  5
3178
330
1E
100
AcDbEntity
  8
7
100
AcDbLine
 10
-0.9827597920800137
 20
3.121154214861476
 30
0.0
 11
-0.9748857763319822
 21
3.091626655806358
 31
0.0
  0
LINE
  5
3179
330
1E
100
AcDbEntity
  8
7
100
AcDbLine
 10
-0.9748857763319822
 20
3.091626655806358
 30
0.0
 11
-0.9532322330248952
 21
3.068004608562263
 31
0.0
  0
LINE
  5
317A
330
1E
100
AcDbEntity
  8
7
100
AcDbLine
 10
-0.9532322330248952
 20
3.068004608562263
 30
0.0
 11
-0.9237046739697767
 21
3.060130592814232
 31
0.0
  0
LINE
  5
317B
330
1E
100
AcDbEntity
  8
7
100
AcDbLine
 10
-0.9138621542847378
 20
3.17233531722368
 30
0.0
 11
-0.8685865637335563
 21
3.205799884152815
 31
0.0
  0
LINE
  5
317C
330
1E
100
AcDbEntity
  8
7
100
AcDbLine
 10
-0.8685865637335563
 20
3.205799884152815
 30
0.0
 11
-0.8154369574343434
 21
3.243201458955963
 31
0.0
  0
LINE
  5
317D
330
1E
100
AcDbEntity
  8
7
100
AcDbLine
 10
-0.8154369574343434
 20
3.243201458955963
 30
0.0
 11
-0.7583503432611157
 21
3.28454004163313
 31
0.0
  0
LINE
  5
317E
330
1E
100
AcDbEntity
  8
7
100
AcDbLine
 10
-0.9827597920800137
 20
3.121154214861476
 30
0.0
 11
-0.9729172723949739
 21
3.1270597266725
 31
0.0
  0
LINE
  5
317F
330
1E
100
AcDbEntity
  8
7
100
AcDbLine
 10
-0.9729172723949739
 20
3.1270597266725
 30
0.0
 11
-0.9492952251508794
 21
3.144776262105571
 31
0.0
  0
LINE
  5
3180
330
1E
100
AcDbEntity
  8
7
100
AcDbLine
 10
-0.9492952251508794
 20
3.144776262105571
 30
0.0
 11
-0.9138621542847378
 21
3.17233531722368
 31
0.0
  0
LINE
  5
3181
330
1E
100
AcDbEntity
  8
7
100
AcDbLine
 10
0.3282638299672316
 20
7.097532167617382
 30
0.0
 11
0.2770827276050269
 21
7.087689647932341
 31
0.0
  0
LINE
  5
3182
330
1E
100
AcDbEntity
  8
7
100
AcDbLine
 10
0.2770827276050269
 20
7.087689647932341
 30
0.0
 11
0.2318071370538455
 21
7.062099096751239
 31
0.0
  0
LINE
  5
3183
330
1E
100
AcDbEntity
  8
7
100
AcDbLine
 10
0.2318071370538455
 20
7.062099096751239
 30
0.0
 11
0.1983425701247112
 21
7.022729018011082
 31
0.0
  0
LINE
  5
3184
330
1E
100
AcDbEntity
  8
7
100
AcDbLine
 10
0.1983425701247112
 20
7.022729018011082
 30
0.0
 11
0.1806260346916408
 21
6.973516419585886
 31
0.0
  0
LINE
  5
3185
330
1E
100
AcDbEntity
  8
7
100
AcDbLine
 10
0.1806260346916408
 20
6.973516419585886
 30
0.0
 11
0.1806260346916408
 21
6.92233531722368
 31
0.0
  0
LINE
  5
3186
330
1E
100
AcDbEntity
  8
7
100
AcDbLine
 10
0.1806260346916408
 20
6.92233531722368
 30
0.0
 11
0.1983425701247112
 21
6.873122718798484
 31
0.0
  0
LINE
  5
3187
330
1E
100
AcDbEntity
  8
7
100
AcDbLine
 10
0.1983425701247112
 20
6.873122718798484
 30
0.0
 11
0.2318071370538455
 21
6.833752640058326
 31
0.0
  0
LINE
  5
3188
330
1E
100
AcDbEntity
  8
7
100
AcDbLine
 10
0.2318071370538455
 20
6.833752640058326
 30
0.0
 11
0.2770827276050269
 21
6.808162088877224
 31
0.0
  0
LINE
  5
3189
330
1E
100
AcDbEntity
  8
7
100
AcDbLine
 10
0.2770827276050269
 20
6.808162088877224
 30
0.0
 11
0.3282638299672316
 21
6.798319569192184
 31
0.0
  0
LINE
  5
318A
330
1E
100
AcDbEntity
  8
7
100
AcDbLine
 10
0.4483425701247113
 20
6.798319569192184
 30
0.0
 11
0.4995236724869168
 21
6.808162088877224
 31
0.0
  0
LINE
  5
318B
330
1E
100
AcDbEntity
  8
7
100
AcDbLine
 10
0.4995236724869168
 20
6.808162088877224
 30
0.0
 11
0.5447992630380974
 21
6.833752640058326
 31
0.0
  0
LINE
  5
318C
330
1E
100
AcDbEntity
  8
7
100
AcDbLine
 10
0.5447992630380974
 20
6.833752640058326
 30
0.0
 11
0.5782638299672316
 21
6.873122718798484
 31
0.0
  0
LINE
  5
318D
330
1E
100
AcDbEntity
  8
7
100
AcDbLine
 10
0.5782638299672316
 20
6.873122718798484
 30
0.0
 11
0.595980365400302
 21
6.92233531722368
 31
0.0
  0
LINE
  5
318E
330
1E
100
AcDbEntity
  8
7
100
AcDbLine
 10
0.595980365400302
 20
6.92233531722368
 30
0.0
 11
0.595980365400302
 21
6.973516419585886
 31
0.0
  0
LINE
  5
318F
330
1E
100
AcDbEntity
  8
7
100
AcDbLine
 10
0.595980365400302
 20
6.973516419585886
 30
0.0
 11
0.5782638299672316
 21
7.022729018011082
 31
0.0
  0
LINE
  5
3190
330
1E
100
AcDbEntity
  8
7
100
AcDbLine
 10
0.5782638299672316
 20
7.022729018011082
 30
0.0
 11
0.5447992630380974
 21
7.062099096751239
 31
0.0
  0
LINE
  5
3191
330
1E
100
AcDbEntity
  8
7
100
AcDbLine
 10
0.5447992630380974
 20
7.062099096751239
 30
0.0
 11
0.4995236724869168
 21
7.087689647932341
 31
0.0
  0
LINE
  5
3192
330
1E
100
AcDbEntity
  8
7
100
AcDbLine
 10
0.4995236724869168
 20
7.087689647932341
 30
0.0
 11
0.4483425701247113
 21
7.097532167617382
 31
0.0
  0
LINE
  5
3193
330
1E
100
AcDbEntity
  8
7
100
AcDbLine
 10
0.3282638299672316
 20
7.022729018011082
 30
0.0
 11
0.2908622551640816
 21
7.012886498326043
 31
0.0
  0
LINE
  5
3194
330
1E
100
AcDbEntity
  8
7
100
AcDbLine
 10
0.2908622551640816
 20
7.012886498326043
 30
0.0
 11
0.2633032000459714
 21
6.985327443207932
 31
0.0
  0
LINE
  5
3195
330
1E
100
AcDbEntity
  8
7
100
AcDbLine
 10
0.2633032000459714
 20
6.985327443207932
 30
0.0
 11
0.2534606803609325
 21
6.947925868404784
 31
0.0
  0
LINE
  5
3196
330
1E
100
AcDbEntity
  8
7
100
AcDbLine
 10
0.2534606803609325
 20
6.947925868404784
 30
0.0
 11
0.2633032000459714
 21
6.910524293601634
 31
0.0
  0
LINE
  5
3197
330
1E
100
AcDbEntity
  8
7
100
AcDbLine
 10
0.2633032000459714
 20
6.910524293601634
 30
0.0
 11
0.2908622551640816
 21
6.882965238483523
 31
0.0
  0
LINE
  5
3198
330
1E
100
AcDbEntity
  8
7
100
AcDbLine
 10
0.2908622551640816
 20
6.882965238483523
 30
0.0
 11
0.3282638299672316
 21
6.873122718798484
 31
0.0
  0
LINE
  5
3199
330
1E
100
AcDbEntity
  8
7
100
AcDbLine
 10
0.4483425701247113
 20
6.873122718798484
 30
0.0
 11
0.4857441449278613
 21
6.882965238483523
 31
0.0
  0
LINE
  5
319A
330
1E
100
AcDbEntity
  8
7
100
AcDbLine
 10
0.4857441449278613
 20
6.882965238483523
 30
0.0
 11
0.5133032000459714
 21
6.910524293601634
 31
0.0
  0
LINE
  5
319B
330
1E
100
AcDbEntity
  8
7
100
AcDbLine
 10
0.5133032000459714
 20
6.910524293601634
 30
0.0
 11
0.5231457197310112
 21
6.947925868404784
 31
0.0
  0
LINE
  5
319C
330
1E
100
AcDbEntity
  8
7
100
AcDbLine
 10
0.5231457197310112
 20
6.947925868404784
 30
0.0
 11
0.5133032000459714
 21
6.985327443207932
 31
0.0
  0
LINE
  5
319D
330
1E
100
AcDbEntity
  8
7
100
AcDbLine
 10
0.5133032000459714
 20
6.985327443207932
 30
0.0
 11
0.4857441449278613
 21
7.012886498326043
 31
0.0
  0
LINE
  5
319E
330
1E
100
AcDbEntity
  8
7
100
AcDbLine
 10
0.4857441449278613
 20
7.012886498326043
 30
0.0
 11
0.4483425701247113
 21
7.022729018011082
 31
0.0
  0
LINE
  5
319F
330
1E
100
AcDbEntity
  8
7
100
AcDbLine
 10
0.2829882394160501
 20
7.006980986515019
 30
0.0
 11
0.2573976882349482
 21
6.969579411711869
 31
0.0
  0
LINE
  5
31A0
330
1E
100
AcDbEntity
  8
7
100
AcDbLine
 10
0.2573976882349482
 20
6.969579411711869
 30
0.0
 11
0.2573976882349482
 21
6.926272325097697
 31
0.0
  0
LINE
  5
31A1
330
1E
100
AcDbEntity
  8
7
100
AcDbLine
 10
0.2573976882349482
 20
6.926272325097697
 30
0.0
 11
0.2829882394160501
 21
6.888870750294547
 31
0.0
  0
LINE
  5
31A2
330
1E
100
AcDbEntity
  8
7
100
AcDbLine
 10
0.4936181606758927
 20
6.888870750294547
 30
0.0
 11
0.5192087118569955
 21
6.926272325097697
 31
0.0
  0
LINE
  5
31A3
330
1E
100
AcDbEntity
  8
7
100
AcDbLine
 10
0.5192087118569955
 20
6.926272325097697
 30
0.0
 11
0.5192087118569955
 21
6.969579411711869
 31
0.0
  0
LINE
  5
31A4
330
1E
100
AcDbEntity
  8
7
100
AcDbLine
 10
0.5192087118569955
 20
6.969579411711869
 30
0.0
 11
0.4936181606758927
 21
7.006980986515019
 31
0.0
  0
LINE
  5
31A5
330
1E
100
AcDbEntity
  8
7
100
AcDbLine
 10
0.4483425701247113
 20
6.873122718798484
 30
0.0
 11
0.4660591055577826
 21
6.875091222735491
 31
0.0
  0
LINE
  5
31A6
330
1E
100
AcDbEntity
  8
7
100
AcDbLine
 10
0.4660591055577826
 20
6.875091222735491
 30
0.0
 11
0.4837756409908538
 21
6.882965238483523
 31
0.0
  0
LINE
  5
31A7
330
1E
100
AcDbEntity
  8
7
100
AcDbLine
 10
0.2928307591010899
 20
6.882965238483523
 30
0.0
 11
0.3105472945341603
 21
6.875091222735491
 31
0.0
  0
LINE
  5
31A8
330
1E
100
AcDbEntity
  8
7
100
AcDbLine
 10
0.3105472945341603
 20
6.875091222735491
 30
0.0
 11
0.3282638299672316
 21
6.873122718798484
 31
0.0
  0
LINE
  5
31A9
330
1E
100
AcDbEntity
  8
7
100
AcDbLine
 10
0.3282638299672316
 20
7.022729018011082
 30
0.0
 11
0.3105472945341603
 21
7.020760514074074
 31
0.0
  0
LINE
  5
31AA
330
1E
100
AcDbEntity
  8
7
100
AcDbLine
 10
0.3105472945341603
 20
7.020760514074074
 30
0.0
 11
0.2928307591010899
 21
7.012886498326043
 31
0.0
  0
LINE
  5
31AB
330
1E
100
AcDbEntity
  8
7
100
AcDbLine
 10
0.4837756409908538
 20
7.012886498326043
 30
0.0
 11
0.4660591055577826
 21
7.020760514074074
 31
0.0
  0
LINE
  5
31AC
330
1E
100
AcDbEntity
  8
7
100
AcDbLine
 10
0.4660591055577826
 20
7.020760514074074
 30
0.0
 11
0.4483425701247113
 21
7.022729018011082
 31
0.0
  0
LINE
  5
31AD
330
1E
100
AcDbEntity
  8
7
100
AcDbLine
 10
-0.8390590046784378
 20
3.176272325097697
 30
0.0
 11
-0.8725235716075721
 21
3.130996734546515
 31
0.0
  0
LINE
  5
31AE
330
1E
100
AcDbEntity
  8
7
100
AcDbLine
 10
-0.8725235716075721
 20
3.130996734546515
 30
0.0
 11
-0.8981141227886748
 21
3.095563663680374
 31
0.0
  0
LINE
  5
31AF
330
1E
100
AcDbEntity
  8
7
100
AcDbLine
 10
-0.8981141227886748
 20
3.095563663680374
 30
0.0
 11
-0.9158306582217452
 21
3.069973112499271
 31
0.0
  0
LINE
  5
31B0
330
1E
100
AcDbEntity
  8
7
100
AcDbLine
 10
-0.9158306582217452
 20
3.069973112499271
 30
0.0
 11
-0.9237046739697767
 21
3.060130592814232
 31
0.0
  0
LINE
  5
31B1
330
1E
100
AcDbEntity
  8
7
100
AcDbLine
 10
-0.7583503432611157
 20
3.28454004163313
 30
0.0
 11
-0.7996889259382805
 21
3.22942193139691
 31
0.0
  0
LINE
  5
31B2
330
1E
100
AcDbEntity
  8
7
100
AcDbLine
 10
-0.7996889259382805
 20
3.22942193139691
 30
0.0
 11
-0.8390590046784378
 21
3.176272325097697
 31
0.0
  0
LINE
  5
31B3
330
1E
100
AcDbEntity
  8
7
100
AcDbLine
 10
1.700311074061719
 20
3.060130592814232
 30
0.0
 11
-0.9237046739697767
 21
3.060130592814232
 31
0.0
  0
LINE
  5
31B4
330
1E
100
AcDbEntity
  8
7
100
AcDbLine
 10
-0.9237046739697767
 20
3.060130592814232
 30
0.0
 11
-0.9276416818437933
 21
3.058162088877224
 31
0.0
  0
LINE
  5
31B5
330
1E
100
AcDbEntity
  8
7
100
AcDbLine
 10
-0.9866967999540285
 20
7.49713846682998
 30
0.0
 11
-0.9788227842059971
 21
7.526666025885099
 31
0.0
  0
LINE
  5
31B6
330
1E
100
AcDbEntity
  8
7
100
AcDbLine
 10
-0.9788227842059971
 20
7.526666025885099
 30
0.0
 11
-0.9571692408989109
 21
7.550288073129193
 31
0.0
  0
LINE
  5
31B7
330
1E
100
AcDbEntity
  8
7
100
AcDbLine
 10
-0.9571692408989109
 20
7.550288073129193
 30
0.0
 11
-0.9276416818437933
 21
7.558162088877224
 31
0.0
  0
LINE
  5
31B8
330
1E
100
AcDbEntity
  8
7
100
AcDbLine
 10
-0.9276416818437933
 20
3.058162088877224
 30
0.0
 11
-0.9571692408989109
 21
3.066036104625256
 31
0.0
  0
LINE
  5
31B9
330
1E
100
AcDbEntity
  8
7
100
AcDbLine
 10
-0.9571692408989109
 20
3.066036104625256
 30
0.0
 11
-0.9788227842059971
 21
3.087689647932341
 31
0.0
  0
LINE
  5
31BA
330
1E
100
AcDbEntity
  8
7
100
AcDbLine
 10
-0.9788227842059971
 20
3.087689647932341
 30
0.0
 11
-0.9866967999540285
 21
3.11721720698746
 31
0.0
  0
LINE
  5
31BB
330
1E
100
AcDbEntity
  8
7
100
AcDbLine
 10
0.3164528063451844
 20
4.957768388089823
 30
0.0
 11
-0.175673177906785
 21
4.957768388089823
 31
0.0
  0
LINE
  5
31BC
330
1E
100
AcDbEntity
  8
7
100
AcDbLine
 10
-0.175673177906785
 20
4.957768388089823
 30
0.0
 11
-0.175673177906785
 21
5.022729018011082
 31
0.0
  0
LINE
  5
31BD
330
1E
100
AcDbEntity
  8
7
100
AcDbLine
 10
-0.175673177906785
 20
5.022729018011082
 30
0.0
 11
-0.2426023117650526
 21
5.022729018011082
 31
0.0
  0
LINE
  5
31BE
330
1E
100
AcDbEntity
  8
7
100
AcDbLine
 10
0.9522795779987269
 20
4.957768388089823
 30
0.0
 11
0.4601535937467585
 21
4.957768388089823
 31
0.0
  0
LINE
  5
31BF
330
1E
100
AcDbEntity
  8
7
100
AcDbLine
 10
0.4601535937467585
 20
4.957768388089823
 30
0.0
 11
0.4601535937467585
 21
5.022729018011082
 31
0.0
  0
LINE
  5
31C0
330
1E
100
AcDbEntity
  8
7
100
AcDbLine
 10
0.3164528063451844
 20
3.965642403837854
 30
0.0
 11
-0.175673177906785
 21
3.965642403837854
 31
0.0
  0
LINE
  5
31C1
330
1E
100
AcDbEntity
  8
7
100
AcDbLine
 10
-0.175673177906785
 20
3.965642403837854
 30
0.0
 11
-0.175673177906785
 21
4.030603033759113
 31
0.0
  0
LINE
  5
31C2
330
1E
100
AcDbEntity
  8
7
100
AcDbLine
 10
-0.175673177906785
 20
4.030603033759113
 30
0.0
 11
-0.2426023117650526
 21
4.030603033759113
 31
0.0
  0
LINE
  5
31C3
330
1E
100
AcDbEntity
  8
7
100
AcDbLine
 10
0.9522795779987269
 20
3.965642403837854
 30
0.0
 11
0.4601535937467585
 21
3.965642403837854
 31
0.0
  0
LINE
  5
31C4
330
1E
100
AcDbEntity
  8
7
100
AcDbLine
 10
0.4601535937467585
 20
3.965642403837854
 30
0.0
 11
0.4601535937467585
 21
4.030603033759113
 31
0.0
  0
LINE
  5
31C5
330
1E
100
AcDbEntity
  8
7
100
AcDbLine
 10
0.3164528063451844
 20
5.949894372341791
 30
0.0
 11
-0.175673177906785
 21
5.949894372341791
 31
0.0
  0
LINE
  5
31C6
330
1E
100
AcDbEntity
  8
7
100
AcDbLine
 10
-0.175673177906785
 20
5.949894372341791
 30
0.0
 11
-0.175673177906785
 21
6.01485500226305
 31
0.0
  0
LINE
  5
31C7
330
1E
100
AcDbEntity
  8
7
100
AcDbLine
 10
-0.175673177906785
 20
6.01485500226305
 30
0.0
 11
-0.2426023117650526
 21
6.01485500226305
 31
0.0
  0
LINE
  5
31C8
330
1E
100
AcDbEntity
  8
7
100
AcDbLine
 10
0.9522795779987269
 20
5.949894372341791
 30
0.0
 11
0.4601535937467585
 21
5.949894372341791
 31
0.0
  0
LINE
  5
31C9
330
1E
100
AcDbEntity
  8
7
100
AcDbLine
 10
0.4601535937467585
 20
5.949894372341791
 30
0.0
 11
0.4601535937467585
 21
6.01485500226305
 31
0.0
  0
LINE
  5
31CA
330
1E
100
AcDbEntity
  8
7
100
AcDbLine
 10
-0.7583503432611157
 20
7.32981563218431
 30
0.0
 11
-0.7583503432611157
 21
3.28454004163313
 31
0.0
  0
LINE
  5
31CB
330
1E
100
AcDbEntity
  8
7
100
AcDbLine
 10
-0.7583503432611157
 20
3.28454004163313
 30
0.0
 11
1.534956743353058
 21
3.28454004163313
 31
0.0
  0
LINE
  5
31CC
330
1E
100
AcDbEntity
  8
7
100
AcDbLine
 10
-0.5181928629461546
 20
7.15461878179061
 30
0.0
 11
-0.5398464062532416
 21
7.144776262105571
 31
0.0
  0
LINE
  5
31CD
330
1E
100
AcDbEntity
  8
7
100
AcDbLine
 10
-0.5398464062532416
 20
7.144776262105571
 30
0.0
 11
-0.5496889259382805
 21
7.123122718798484
 31
0.0
  0
LINE
  5
31CE
330
1E
100
AcDbEntity
  8
7
100
AcDbLine
 10
-0.5496889259382805
 20
6.772729018011082
 30
0.0
 11
-0.5398464062532416
 21
6.751075474703995
 31
0.0
  0
LINE
  5
31CF
330
1E
100
AcDbEntity
  8
7
100
AcDbLine
 10
-0.5398464062532416
 20
6.751075474703995
 30
0.0
 11
-0.5181928629461546
 21
6.741232955018956
 31
0.0
  0
LINE
  5
31D0
330
1E
100
AcDbEntity
  8
7
100
AcDbLine
 10
1.294799263038097
 20
3.461705395963837
 30
0.0
 11
-0.5181928629461546
 21
3.461705395963837
 31
0.0
  0
LINE
  5
31D1
330
1E
100
AcDbEntity
  8
7
100
AcDbLine
 10
-0.5181928629461546
 20
3.461705395963837
 30
0.0
 11
-0.5398464062532416
 21
3.469579411711869
 31
0.0
  0
LINE
  5
31D2
330
1E
100
AcDbEntity
  8
7
100
AcDbLine
 10
-0.5398464062532416
 20
3.469579411711869
 30
0.0
 11
-0.5496889259382805
 21
3.491232955018956
 31
0.0
  0
LINE
  5
31D3
330
1E
100
AcDbEntity
  8
7
100
AcDbLine
 10
-0.5496889259382805
 20
3.491232955018956
 30
0.0
 11
-0.5496889259382805
 21
3.841626655806358
 31
0.0
  0
LINE
  5
31D4
330
1E
100
AcDbEntity
  8
7
100
AcDbLine
 10
-0.5496889259382805
 20
3.841626655806358
 30
0.0
 11
-0.5398464062532416
 21
3.863280199113445
 31
0.0
  0
LINE
  5
31D5
330
1E
100
AcDbEntity
  8
7
100
AcDbLine
 10
-0.5398464062532416
 20
3.863280199113445
 30
0.0
 11
-0.5181928629461546
 21
3.873122718798484
 31
0.0
  0
LINE
  5
31D6
330
1E
100
AcDbEntity
  8
7
100
AcDbLine
 10
1.702279577998726
 20
7.558162088877224
 30
0.0
 11
-0.9276416818437933
 21
7.558162088877224
 31
0.0
  0
LINE
  5
31D7
330
1E
100
AcDbEntity
  8
7
100
AcDbLine
 10
-0.9276416818437933
 20
7.558162088877224
 30
0.0
 11
-0.9237046739697767
 21
7.554225081003208
 31
0.0
  0
LINE
  5
31D8
330
1E
100
AcDbEntity
  8
7
100
AcDbLine
 10
-0.9158306582217452
 20
7.544382561318169
 30
0.0
 11
-0.8981141227886748
 21
7.520760514074074
 31
0.0
  0
LINE
  5
31D9
330
1E
100
AcDbEntity
  8
7
100
AcDbLine
 10
-0.8981141227886748
 20
7.520760514074074
 30
0.0
 11
-0.8725235716075721
 21
7.485327443207932
 31
0.0
  0
LINE
  5
31DA
330
1E
100
AcDbEntity
  8
7
100
AcDbLine
 10
-0.8725235716075721
 20
7.485327443207932
 30
0.0
 11
-0.8390590046784378
 21
7.438083348719743
 31
0.0
  0
LINE
  5
31DB
330
1E
100
AcDbEntity
  8
7
100
AcDbLine
 10
-0.8390590046784378
 20
7.438083348719743
 30
0.0
 11
-0.7996889259382805
 21
7.384933742420532
 31
0.0
  0
LINE
  5
31DC
330
1E
100
AcDbEntity
  8
7
100
AcDbLine
 10
-0.7996889259382805
 20
7.384933742420532
 30
0.0
 11
-0.7583503432611157
 21
7.32981563218431
 31
0.0
  0
LINE
  5
31DD
330
1E
100
AcDbEntity
  8
7
100
AcDbLine
 10
0.4995236724869168
 20
6.806193584940215
 30
0.0
 11
0.5447992630380974
 21
6.831784136121319
 31
0.0
  0
LINE
  5
31DE
330
1E
100
AcDbEntity
  8
7
100
AcDbLine
 10
0.5447992630380974
 20
6.831784136121319
 30
0.0
 11
0.580232333904239
 21
6.871154214861476
 31
0.0
  0
LINE
  5
31DF
330
1E
100
AcDbEntity
  8
7
100
AcDbLine
 10
0.580232333904239
 20
6.871154214861476
 30
0.0
 11
0.5979488693373103
 21
6.92233531722368
 31
0.0
  0
LINE
  5
31E0
330
1E
100
AcDbEntity
  8
7
100
AcDbLine
 10
0.5979488693373103
 20
6.92233531722368
 30
0.0
 11
0.5979488693373103
 21
6.973516419585886
 31
0.0
  0
LINE
  5
31E1
330
1E
100
AcDbEntity
  8
7
100
AcDbLine
 10
0.5979488693373103
 20
6.973516419585886
 30
0.0
 11
0.580232333904239
 21
7.022729018011082
 31
0.0
  0
LINE
  5
31E2
330
1E
100
AcDbEntity
  8
7
100
AcDbLine
 10
0.580232333904239
 20
7.022729018011082
 30
0.0
 11
0.5447992630380974
 21
7.064067600688247
 31
0.0
  0
LINE
  5
31E3
330
1E
100
AcDbEntity
  8
7
100
AcDbLine
 10
0.5447992630380974
 20
7.064067600688247
 30
0.0
 11
0.4995236724869168
 21
7.08965815186935
 31
0.0
  0
LINE
  5
31E4
330
1E
100
AcDbEntity
  8
7
100
AcDbLine
 10
0.4995236724869168
 20
7.08965815186935
 30
0.0
 11
0.4483425701247113
 21
7.099500671554389
 31
0.0
  0
LINE
  5
31E5
330
1E
100
AcDbEntity
  8
7
100
AcDbLine
 10
0.2770827276050269
 20
7.08965815186935
 30
0.0
 11
0.2318071370538455
 21
7.064067600688247
 31
0.0
  0
LINE
  5
31E6
330
1E
100
AcDbEntity
  8
7
100
AcDbLine
 10
0.2318071370538455
 20
7.064067600688247
 30
0.0
 11
0.1963740661877038
 21
7.024697521948089
 31
0.0
  0
LINE
  5
31E7
330
1E
100
AcDbEntity
  8
7
100
AcDbLine
 10
0.1963740661877038
 20
7.024697521948089
 30
0.0
 11
0.1786575307546325
 21
6.973516419585886
 31
0.0
  0
LINE
  5
31E8
330
1E
100
AcDbEntity
  8
7
100
AcDbLine
 10
0.1786575307546325
 20
6.973516419585886
 30
0.0
 11
0.1786575307546325
 21
6.92233531722368
 31
0.0
  0
LINE
  5
31E9
330
1E
100
AcDbEntity
  8
7
100
AcDbLine
 10
0.1786575307546325
 20
6.92233531722368
 30
0.0
 11
0.1963740661877038
 21
6.873122718798484
 31
0.0
  0
LINE
  5
31EA
330
1E
100
AcDbEntity
  8
7
100
AcDbLine
 10
0.1963740661877038
 20
6.873122718798484
 30
0.0
 11
0.2318071370538455
 21
6.831784136121319
 31
0.0
  0
LINE
  5
31EB
330
1E
100
AcDbEntity
  8
7
100
AcDbLine
 10
0.2318071370538455
 20
6.831784136121319
 30
0.0
 11
0.2770827276050269
 21
6.806193584940215
 31
0.0
  0
LINE
  5
31EC
330
1E
100
AcDbEntity
  8
7
100
AcDbLine
 10
0.2770827276050269
 20
6.806193584940215
 30
0.0
 11
0.3282638299672316
 21
6.796351065255176
 31
0.0
  0
LINE
  5
31ED
330
1E
100
AcDbEntity
  8
7
100
AcDbLine
 10
-0.4847282960170212
 20
6.743201458955963
 30
0.0
 11
-0.4866967999540286
 21
6.743201458955963
 31
0.0
  0
LINE
  5
31EE
330
1E
100
AcDbEntity
  8
7
100
AcDbLine
 10
-0.4866967999540286
 20
6.743201458955963
 30
0.0
 11
-0.5162243590091471
 21
6.743201458955963
 31
0.0
  0
LINE
  5
31EF
330
1E
100
AcDbEntity
  8
7
100
AcDbLine
 10
0.3282638299672316
 20
3.818004608562263
 30
0.0
 11
0.2770827276050269
 21
3.808162088877224
 31
0.0
  0
LINE
  5
31F0
330
1E
100
AcDbEntity
  8
7
100
AcDbLine
 10
0.2770827276050269
 20
3.808162088877224
 30
0.0
 11
0.2318071370538455
 21
3.782571537696121
 31
0.0
  0
LINE
  5
31F1
330
1E
100
AcDbEntity
  8
7
100
AcDbLine
 10
0.2318071370538455
 20
3.782571537696121
 30
0.0
 11
0.1963740661877038
 21
3.743201458955963
 31
0.0
  0
LINE
  5
31F2
330
1E
100
AcDbEntity
  8
7
100
AcDbLine
 10
0.1963740661877038
 20
3.743201458955963
 30
0.0
 11
0.1786575307546325
 21
3.69202035659376
 31
0.0
  0
LINE
  5
31F3
330
1E
100
AcDbEntity
  8
7
100
AcDbLine
 10
0.1786575307546325
 20
3.69202035659376
 30
0.0
 11
0.1786575307546325
 21
3.640839254231554
 31
0.0
  0
LINE
  5
31F4
330
1E
100
AcDbEntity
  8
7
100
AcDbLine
 10
0.1786575307546325
 20
3.640839254231554
 30
0.0
 11
0.1963740661877038
 21
3.591626655806358
 31
0.0
  0
LINE
  5
31F5
330
1E
100
AcDbEntity
  8
7
100
AcDbLine
 10
0.1963740661877038
 20
3.591626655806358
 30
0.0
 11
0.2318071370538455
 21
3.550288073129193
 31
0.0
  0
LINE
  5
31F6
330
1E
100
AcDbEntity
  8
7
100
AcDbLine
 10
0.2318071370538455
 20
3.550288073129193
 30
0.0
 11
0.2770827276050269
 21
3.524697521948089
 31
0.0
  0
LINE
  5
31F7
330
1E
100
AcDbEntity
  8
7
100
AcDbLine
 10
0.2770827276050269
 20
3.524697521948089
 30
0.0
 11
0.3282638299672316
 21
3.51485500226305
 31
0.0
  0
LINE
  5
31F8
330
1E
100
AcDbEntity
  8
7
100
AcDbLine
 10
0.4483425701247113
 20
3.51485500226305
 30
0.0
 11
0.4995236724869168
 21
3.524697521948089
 31
0.0
  0
LINE
  5
31F9
330
1E
100
AcDbEntity
  8
7
100
AcDbLine
 10
0.4995236724869168
 20
3.524697521948089
 30
0.0
 11
0.5447992630380974
 21
3.550288073129193
 31
0.0
  0
LINE
  5
31FA
330
1E
100
AcDbEntity
  8
7
100
AcDbLine
 10
0.5447992630380974
 20
3.550288073129193
 30
0.0
 11
0.580232333904239
 21
3.58965815186935
 31
0.0
  0
LINE
  5
31FB
330
1E
100
AcDbEntity
  8
7
100
AcDbLine
 10
0.580232333904239
 20
3.58965815186935
 30
0.0
 11
0.5979488693373103
 21
3.640839254231554
 31
0.0
  0
LINE
  5
31FC
330
1E
100
AcDbEntity
  8
7
100
AcDbLine
 10
0.5979488693373103
 20
3.640839254231554
 30
0.0
 11
0.5979488693373103
 21
3.69202035659376
 31
0.0
  0
LINE
  5
31FD
330
1E
100
AcDbEntity
  8
7
100
AcDbLine
 10
0.5979488693373103
 20
3.69202035659376
 30
0.0
 11
0.580232333904239
 21
3.741232955018956
 31
0.0
  0
LINE
  5
31FE
330
1E
100
AcDbEntity
  8
7
100
AcDbLine
 10
0.580232333904239
 20
3.741232955018956
 30
0.0
 11
0.5447992630380974
 21
3.782571537696121
 31
0.0
  0
LINE
  5
31FF
330
1E
100
AcDbEntity
  8
7
100
AcDbLine
 10
0.5447992630380974
 20
3.782571537696121
 30
0.0
 11
0.4995236724869168
 21
3.808162088877224
 31
0.0
  0
LINE
  5
3200
330
1E
100
AcDbEntity
  8
7
100
AcDbLine
 10
0.4995236724869168
 20
3.808162088877224
 30
0.0
 11
0.4483425701247113
 21
3.818004608562263
 31
0.0
  0
LINE
  5
3201
330
1E
100
AcDbEntity
  8
7
100
AcDbLine
 10
1.294799263038097
 20
3.873122718798484
 30
0.0
 11
-0.5181928629461546
 21
3.873122718798484
 31
0.0
  0
LINE
  5
3202
330
1E
100
AcDbEntity
  8
7
100
AcDbLine
 10
-0.5181928629461546
 20
3.873122718798484
 30
0.0
 11
-0.5162243590091471
 21
3.873122718798484
 31
0.0
  0
LINE
  5
3203
330
1E
100
AcDbEntity
  8
7
100
AcDbLine
 10
1.324326822093215
 20
3.841626655806358
 30
0.0
 11
1.314484302408176
 21
3.863280199113445
 31
0.0
  0
LINE
  5
3204
330
1E
100
AcDbEntity
  8
7
100
AcDbLine
 10
1.314484302408176
 20
3.863280199113445
 30
0.0
 11
1.292830759101089
 21
3.873122718798484
 31
0.0
  0
LINE
  5
3205
330
1E
100
AcDbEntity
  8
7
100
AcDbLine
 10
1.294799263038097
 20
3.873122718798484
 30
0.0
 11
1.316452806345184
 21
3.863280199113445
 31
0.0
  0
LINE
  5
3206
330
1E
100
AcDbEntity
  8
7
100
AcDbLine
 10
1.316452806345184
 20
3.863280199113445
 30
0.0
 11
1.326295326030223
 21
3.841626655806358
 31
0.0
  0
LINE
  5
3207
330
1E
100
AcDbEntity
  8
7
100
AcDbLine
 10
1.576295326030223
 20
7.384933742420532
 30
0.0
 11
1.61566540477038
 21
7.438083348719743
 31
0.0
  0
LINE
  5
3208
330
1E
100
AcDbEntity
  8
7
100
AcDbLine
 10
1.61566540477038
 20
7.438083348719743
 30
0.0
 11
1.649129971699514
 21
7.485327443207932
 31
0.0
  0
LINE
  5
3209
330
1E
100
AcDbEntity
  8
7
100
AcDbLine
 10
1.649129971699514
 20
7.485327443207932
 30
0.0
 11
1.674720522880616
 21
7.520760514074074
 31
0.0
  0
LINE
  5
320A
330
1E
100
AcDbEntity
  8
7
100
AcDbLine
 10
1.674720522880616
 20
7.520760514074074
 30
0.0
 11
1.692437058313688
 21
7.544382561318169
 31
0.0
  0
LINE
  5
320B
330
1E
100
AcDbEntity
  8
7
100
AcDbLine
 10
1.692437058313688
 20
7.544382561318169
 30
0.0
 11
1.700311074061719
 21
7.554225081003208
 31
0.0
  0
LINE
  5
320C
330
1E
100
AcDbEntity
  8
7
100
AcDbLine
 10
1.326295326030223
 20
7.123122718798484
 30
0.0
 11
1.316452806345184
 21
7.144776262105571
 31
0.0
  0
LINE
  5
320D
330
1E
100
AcDbEntity
  8
7
100
AcDbLine
 10
1.316452806345184
 20
7.144776262105571
 30
0.0
 11
1.294799263038097
 21
7.15461878179061
 31
0.0
  0
LINE
  5
320E
330
1E
100
AcDbEntity
  8
7
100
AcDbLine
 10
1.294799263038097
 20
7.15461878179061
 30
0.0
 11
1.292830759101089
 21
7.152650277853602
 31
0.0
  0
LINE
  5
320F
330
1E
100
AcDbEntity
  8
7
100
AcDbLine
 10
1.292830759101089
 20
7.152650277853602
 30
0.0
 11
1.314484302408176
 21
7.144776262105571
 31
0.0
  0
LINE
  5
3210
330
1E
100
AcDbEntity
  8
7
100
AcDbLine
 10
1.314484302408176
 20
7.144776262105571
 30
0.0
 11
1.324326822093215
 21
7.123122718798484
 31
0.0
  0
LINE
  5
3211
330
1E
100
AcDbEntity
  8
7
100
AcDbLine
 10
1.324326822093215
 20
6.772729018011082
 30
0.0
 11
1.314484302408176
 21
6.751075474703995
 31
0.0
  0
LINE
  5
3212
330
1E
100
AcDbEntity
  8
7
100
AcDbLine
 10
1.314484302408176
 20
6.751075474703995
 30
0.0
 11
1.292830759101089
 21
6.743201458955963
 31
0.0
  0
LINE
  5
3213
330
1E
100
AcDbEntity
  8
7
100
AcDbLine
 10
1.292830759101089
 20
6.743201458955963
 30
0.0
 11
1.294799263038097
 21
6.741232955018956
 31
0.0
  0
LINE
  5
3214
330
1E
100
AcDbEntity
  8
7
100
AcDbLine
 10
1.294799263038097
 20
6.741232955018956
 30
0.0
 11
1.316452806345184
 21
6.751075474703995
 31
0.0
  0
LINE
  5
3215
330
1E
100
AcDbEntity
  8
7
100
AcDbLine
 10
1.316452806345184
 20
6.751075474703995
 30
0.0
 11
1.326295326030223
 21
6.772729018011082
 31
0.0
  0
LINE
  5
3216
330
1E
100
AcDbEntity
  8
7
100
AcDbLine
 10
1.759366192171955
 20
7.495169962892973
 30
0.0
 11
1.751492176423924
 21
7.524697521948089
 31
0.0
  0
LINE
  5
3217
330
1E
100
AcDbEntity
  8
7
100
AcDbLine
 10
1.751492176423924
 20
7.524697521948089
 30
0.0
 11
1.729838633116837
 21
7.546351065255176
 31
0.0
  0
LINE
  5
3218
330
1E
100
AcDbEntity
  8
7
100
AcDbLine
 10
1.729838633116837
 20
7.546351065255176
 30
0.0
 11
1.700311074061719
 21
7.554225081003208
 31
0.0
  0
LINE
  5
3219
330
1E
100
AcDbEntity
  8
7
100
AcDbLine
 10
1.702279577998726
 20
7.558162088877224
 30
0.0
 11
1.733775640990852
 21
7.550288073129193
 31
0.0
  0
LINE
  5
321A
330
1E
100
AcDbEntity
  8
7
100
AcDbLine
 10
1.733775640990852
 20
7.550288073129193
 30
0.0
 11
1.755429184297939
 21
7.526666025885099
 31
0.0
  0
LINE
  5
321B
330
1E
100
AcDbEntity
  8
7
100
AcDbLine
 10
1.755429184297939
 20
7.526666025885099
 30
0.0
 11
1.763303200045971
 21
7.49713846682998
 31
0.0
  0
LINE
  5
321C
330
1E
100
AcDbEntity
  8
7
100
AcDbLine
 10
1.759366192171955
 20
7.495169962892973
 30
0.0
 11
1.749523672486916
 21
7.487295947144941
 31
0.0
  0
LINE
  5
321D
330
1E
100
AcDbEntity
  8
7
100
AcDbLine
 10
1.749523672486916
 20
7.487295947144941
 30
0.0
 11
1.725901625242821
 21
7.469579411711869
 31
0.0
  0
LINE
  5
321E
330
1E
100
AcDbEntity
  8
7
100
AcDbLine
 10
1.725901625242821
 20
7.469579411711869
 30
0.0
 11
1.690468554376679
 21
7.443988860530767
 31
0.0
  0
LINE
  5
321F
330
1E
100
AcDbEntity
  8
7
100
AcDbLine
 10
1.690468554376679
 20
7.443988860530767
 30
0.0
 11
1.645192963825499
 21
7.408555789664626
 31
0.0
  0
LINE
  5
3220
330
1E
100
AcDbEntity
  8
7
100
AcDbLine
 10
1.645192963825499
 20
7.408555789664626
 30
0.0
 11
1.592043357526286
 21
7.371154214861476
 31
0.0
  0
LINE
  5
3221
330
1E
100
AcDbEntity
  8
7
100
AcDbLine
 10
1.592043357526286
 20
7.371154214861476
 30
0.0
 11
1.534956743353058
 21
7.32981563218431
 31
0.0
  0
LINE
  5
3222
330
1E
100
AcDbEntity
  8
7
100
AcDbLine
 10
1.326295326030223
 20
3.491232955018956
 30
0.0
 11
1.316452806345184
 21
3.469579411711869
 31
0.0
  0
LINE
  5
3223
330
1E
100
AcDbEntity
  8
7
100
AcDbLine
 10
1.316452806345184
 20
3.469579411711869
 30
0.0
 11
1.294799263038097
 21
3.461705395963837
 31
0.0
  0
LINE
  5
3224
330
1E
100
AcDbEntity
  8
7
100
AcDbLine
 10
1.763303200045971
 20
3.11721720698746
 30
0.0
 11
1.763303200045971
 21
7.49713846682998
 31
0.0
  0
LINE
  5
3225
330
1E
100
AcDbEntity
  8
7
100
AcDbLine
 10
1.763303200045971
 20
7.49713846682998
 30
0.0
 11
1.759366192171955
 21
7.495169962892973
 31
0.0
  0
LINE
  5
3226
330
1E
100
AcDbEntity
  8
7
100
AcDbLine
 10
1.759366192171955
 20
7.495169962892973
 30
0.0
 11
1.759366192171955
 21
3.121154214861476
 31
0.0
  0
LINE
  5
3227
330
1E
100
AcDbEntity
  8
7
100
AcDbLine
 10
1.763303200045971
 20
3.11721720698746
 30
0.0
 11
1.755429184297939
 21
3.087689647932341
 31
0.0
  0
LINE
  5
3228
330
1E
100
AcDbEntity
  8
7
100
AcDbLine
 10
1.755429184297939
 20
3.087689647932341
 30
0.0
 11
1.733775640990852
 21
3.066036104625256
 31
0.0
  0
LINE
  5
3229
330
1E
100
AcDbEntity
  8
7
100
AcDbLine
 10
1.733775640990852
 20
3.066036104625256
 30
0.0
 11
1.702279577998726
 21
3.058162088877224
 31
0.0
  0
LINE
  5
322A
330
1E
100
AcDbEntity
  8
7
100
AcDbLine
 10
1.700311074061719
 20
3.060130592814232
 30
0.0
 11
1.729838633116837
 21
3.068004608562263
 31
0.0
  0
LINE
  5
322B
330
1E
100
AcDbEntity
  8
7
100
AcDbLine
 10
1.729838633116837
 20
3.068004608562263
 30
0.0
 11
1.751492176423924
 21
3.091626655806358
 31
0.0
  0
LINE
  5
322C
330
1E
100
AcDbEntity
  8
7
100
AcDbLine
 10
1.751492176423924
 20
3.091626655806358
 30
0.0
 11
1.759366192171955
 21
3.121154214861476
 31
0.0
  0
LINE
  5
322D
330
1E
100
AcDbEntity
  8
7
100
AcDbLine
 10
1.700311074061719
 20
3.060130592814232
 30
0.0
 11
1.692437058313688
 21
3.069973112499271
 31
0.0
  0
LINE
  5
322E
330
1E
100
AcDbEntity
  8
7
100
AcDbLine
 10
1.692437058313688
 20
3.069973112499271
 30
0.0
 11
1.674720522880616
 21
3.095563663680374
 31
0.0
  0
LINE
  5
322F
330
1E
100
AcDbEntity
  8
7
100
AcDbLine
 10
1.674720522880616
 20
3.095563663680374
 30
0.0
 11
1.649129971699514
 21
3.130996734546515
 31
0.0
  0
LINE
  5
3230
330
1E
100
AcDbEntity
  8
7
100
AcDbLine
 10
1.649129971699514
 20
3.130996734546515
 30
0.0
 11
1.61566540477038
 21
3.176272325097697
 31
0.0
  0
LINE
  5
3231
330
1E
100
AcDbEntity
  8
7
100
AcDbLine
 10
1.61566540477038
 20
3.176272325097697
 30
0.0
 11
1.576295326030223
 21
3.22942193139691
 31
0.0
  0
LINE
  5
3232
330
1E
100
AcDbEntity
  8
7
100
AcDbLine
 10
1.576295326030223
 20
3.22942193139691
 30
0.0
 11
1.534956743353058
 21
3.28454004163313
 31
0.0
  0
LINE
  5
3233
330
1E
100
AcDbEntity
  8
7
100
AcDbLine
 10
1.534956743353058
 20
3.28454004163313
 30
0.0
 11
1.592043357526286
 21
3.243201458955963
 31
0.0
  0
LINE
  5
3234
330
1E
100
AcDbEntity
  8
7
100
AcDbLine
 10
1.592043357526286
 20
3.243201458955963
 30
0.0
 11
1.645192963825499
 21
3.205799884152815
 31
0.0
  0
LINE
  5
3235
330
1E
100
AcDbEntity
  8
7
100
AcDbLine
 10
1.645192963825499
 20
3.205799884152815
 30
0.0
 11
1.690468554376679
 21
3.17233531722368
 31
0.0
  0
LINE
  5
3236
330
1E
100
AcDbEntity
  8
7
100
AcDbLine
 10
1.690468554376679
 20
3.17233531722368
 30
0.0
 11
1.725901625242821
 21
3.144776262105571
 31
0.0
  0
LINE
  5
3237
330
1E
100
AcDbEntity
  8
7
100
AcDbLine
 10
1.725901625242821
 20
3.144776262105571
 30
0.0
 11
1.749523672486916
 21
3.1270597266725
 31
0.0
  0
LINE
  5
3238
330
1E
100
AcDbEntity
  8
7
100
AcDbLine
 10
1.749523672486916
 20
3.1270597266725
 30
0.0
 11
1.759366192171955
 21
3.121154214861476
 31
0.0
  0
ENDSEC
  0
SECTION
  2
OBJECTS
  0
DICTIONARY
  5
C
330
0
100
AcDbDictionary
  3
ACAD_GROUP
350
D
  3
ACAD_LAYOUT
350
19
  3
ACAD_MLINESTYLE
350
16
  3
ACAD_PLOTSETTINGS
350
18
1001
ACAD
1000
TREAT_AS_HARD
1070
     0
  0
DICTIONARY
  5
2F9B
330
1E
100
AcDbDictionary
  3
ACAD_LAYOUTSELFREF
350
3598
1001
ACAD
1000
TREAT_AS_HARD
1070
     1
  0
DICTIONARY
  5
2F9D
330
1A
100
AcDbDictionary
  3
ACAD_LAYOUTSELFREF
350
3597
1001
ACAD
1000
TREAT_AS_HARD
1070
     1
  0
DICTIONARY
  5
D
102
{ACAD_REACTORS
330
C
102
}
330
C
100
AcDbDictionary
1001
ACAD
1000
TREAT_AS_HARD
1070
     0
  0
DICTIONARY
  5
19
102
{ACAD_REACTORS
330
C
102
}
330
C
100
AcDbDictionary
1001
ACAD
1000
TREAT_AS_HARD
1070
     0
  0
DICTIONARY
  5
16
102
{ACAD_REACTORS
330
C
102
}
330
C
100
AcDbDictionary
  3
STANDARD
350
17
1001
ACAD
1000
TREAT_AS_HARD
1070
     0
  0
DICTIONARY
  5
18
102
{ACAD_REACTORS
330
C
102
}
330
C
100
AcDbDictionary
1001
ACAD
1000
TREAT_AS_HARD
1070
     0
  0
XRECORD
  5
3598
102
{ACAD_REACTORS
330
2F9B
102
}
330
2F9B
100
AcDbXrecord
340
1E
  0
XRECORD
  5
3597
102
{ACAD_REACTORS
330
2F9D
102
}
330
2F9D
100
AcDbXrecord
340
1A
  0
MLINESTYLE
  5
17
102
{ACAD_REACTORS
330
16
102
}
330
16
100
AcDbMlineStyle
  2
STANDARD
 70
     0
  3

 62
   256
 51
90.0
 52
90.0
 71
     2
 49
0.5
 62
   256
  6
BYLAYER
 49
-0.5
 62
   256
  6
BYLAYER
  0
ENDSEC
  0
EOF
