  0
SECTION
  2
HEADER
  9
$ACADVER
  1
AC1015
  9
$ACADMAINTVER
 70
     6
  9
$DWGCODEPAGE
  3
ANSI_1252
  9
$INSBASE
 10
0.0
 20
0.0
 30
0.0
  9
$EXTMIN
 10
-0.5
 20
-0.5
 30
-0.5
  9
$EXTMAX
 10
5.0
 20
5.0
 30
5.0
  9
$LIMMIN
 10
-0.5
 20
-0.5
  9
$LIMMAX
 10
5.0
 20
5.0
  9
$ORTHOMODE
 70
     0
  9
$REGENMODE
 70
     1
  9
$FILLMODE
 70
     1
  9
$QTEXTMODE
 70
     0
  9
$MIRRTEXT
 70
     1
  9
$LTSCALE
 40
1.0
  9
$ATTMODE
 70
     1
  9
$TEXTSIZE
 40
0.2
  9
$TRACEWID
 40
0.05
  9
$TEXTSTYLE
  7
Standard
  9
$CLAYER
  8
0
  9
$CELTYPE
  6
Continuous
  9
$CECOLOR
 62
   256
  9
$CELTSCALE
 40
1.0
  9
$DISPSILH
 70
     0
  9
$DIMSCALE
 40
1.0
  9
$DIMASZ
 40
0.18
  9
$DIMEXO
 40
0.0625
  9
$DIMDLI
 40
0.38
  9
$DIMRND
 40
0.0
  9
$DIMDLE
 40
0.0
  9
$DIMEXE
 40
0.18
  9
$DIMTP
 40
0.0
  9
$DIMTM
 40
0.0
  9
$DIMTXT
 40
0.18
  9
$DIMCEN
 40
0.09
  9
$DIMTSZ
 40
0.0
  9
$DIMTOL
 70
     0
  9
$DIMLIM
 70
     0
  9
$DIMTIH
 70
     1
  9
$DIMTOH
 70
     1
  9
$DIMSE1
 70
     0
  9
$DIMSE2
 70
     0
  9
$DIMTAD
 70
     0
  9
$DIMZIN
 70
     0
  9
$DIMBLK
  1

  9
$DIMASO
 70
     1
  9
$DIMSHO
 70
     1
  9
$DIMPOST
  1

  9
$DIMAPOST
  1

  9
$DIMALT
 70
     0
  9
$DIMALTD
 70
     2
  9
$DIMALTF
 40
25.4
  9
$DIMLFAC
 40
1.0
  9
$DIMTOFL
 70
     0
  9
$DIMTVP
 40
0.0
  9
$DIMTIX
 70
     0
  9
$DIMSOXD
 70
     0
  9
$DIMSAH
 70
     0
  9
$DIMBLK1
  1

  9
$DIMBLK2
  1

  9
$DIMSTYLE
  2
Standard
  9
$DIMCLRD
 70
     0
  9
$DIMCLRE
 70
     0
  9
$DIMCLRT
 70
     0
  9
$DIMTFAC
 40
1.0
  9
$DIMGAP
 40
0.09
  9
$DIMJUST
 70
     0
  9
$DIMSD1
 70
     0
  9
$DIMSD2
 70
     0
  9
$DIMTOLJ
 70
     1
  9
$DIMTZIN
 70
     0
  9
$DIMALTZ
 70
     0
  9
$DIMALTTZ
 70
     0
  9
$DIMUPT
 70
     0
  9
$DIMDEC
 70
     4
  9
$DIMTDEC
 70
     4
  9
$DIMALTU
 70
     2
  9
$DIMALTTD
 70
     2
  9
$DIMTXSTY
  7
Standard
  9
$DIMAUNIT
 70
     0
  9
$DIMADEC
 70
     0
  9
$DIMALTRND
 40
0.0
  9
$DIMAZIN
 70
     0
  9
$DIMDSEP
 70
     0
  9
$DIMATFIT
 70
     3
  9
$DIMFRAC
 70
     0
  9
$DIMLDRBLK
  1

  9
$DIMLUNIT
 70
     2
  9
$DIMLWD
 70
     0
  9
$DIMLWE
 70
     0
  9
$DIMTMOVE
 70
     0
  9
$LUNITS
 70
     2
  9
$LUPREC
 70
     4
  9
$SKETCHINC
 40
0.1
  9
$FILLETRAD
 40
0.0
  9
$AUNITS
 70
     0
  9
$AUPREC
 70
     0
  9
$MENU
  1
acad
  9
$ELEVATION
 40
0.0
  9
$PELEVATION
 40
0.0
  9
$THICKNESS
 40
0.0
  9
$LIMCHECK
 70
     0
  9
$CHAMFERA
 40
0.0
  9
$CHAMFERB
 40
0.0
  9
$CHAMFERC
 40
0.0
  9
$CHAMFERD
 40
0.0
  9
$SKPOLY
 70
     0
  9
$TDCREATE
 40
0.000000000
  9
$TDUCREATE
 40
0.000000000
  9
$TDUPDATE
 40
0.000000000
  9
$TDUUPDATE
 40
0.000000000
  9
$TDINDWG
 40
0.0000000000
  9
$TDUSRTIMER
 40
0.0000000000
  9
$USRTIMER
 70
     1
  9
$ANGBASE
 50
0.0
  9
$ANGDIR
 70
     0
  9
$PDMODE
 70
     0
  9
$PDSIZE
 40
0.0
  9
$PLINEWID
 40
0.0
  9
$SPLFRAME
 70
     0
  9
$SPLINETYPE
 70
     6
  9
$SPLINESEGS
 70
     8
  9
$HANDSEED
  5
581
  9
$SURFTAB1
 70
     6
  9
$SURFTAB2
 70
     6
  9
$SURFTYPE
 70
     6
  9
$SURFU
 70
     6
  9
$SURFV
 70
     6
  9
$UCSBASE
  2

  9
$UCSNAME
  2

  9
$UCSORG
 10
0.0
 20
0.0
 30
0.0
  9
$UCSXDIR
 10
1.0
 20
0.0
 30
0.0
  9
$UCSYDIR
 10
0.0
 20
1.0
 30
0.0
  9
$UCSORTHOREF
  2

  9
$UCSORTHOVIEW
 70
     0
  9
$UCSORGTOP
 10
0.0
 20
0.0
 30
0.0
  9
$UCSORGBOTTOM
 10
0.0
 20
0.0
 30
0.0
  9
$UCSORGLEFT
 10
0.0
 20
0.0
 30
0.0
  9
$UCSORGRIGHT
 10
0.0
 20
0.0
 30
0.0
  9
$UCSORGFRONT
 10
0.0
 20
0.0
 30
0.0
  9
$UCSORGBACK
 10
0.0
 20
0.0
 30
0.0
  9
$PUCSBASE
  2

  9
$PUCSNAME
  2

  9
$PUCSORG
 10
0.0
 20
0.0
 30
0.0
  9
$PUCSXDIR
 10
1.0
 20
0.0
 30
0.0
  9
$PUCSYDIR
 10
0.0
 20
1.0
 30
0.0
  9
$PUCSORTHOREF
  2

  9
$PUCSORTHOVIEW
 70
     0
  9
$PUCSORGTOP
 10
0.0
 20
0.0
 30
0.0
  9
$PUCSORGBOTTOM
 10
0.0
 20
0.0
 30
0.0
  9
$PUCSORGLEFT
 10
0.0
 20
0.0
 30
0.0
  9
$PUCSORGRIGHT
 10
0.0
 20
0.0
 30
0.0
  9
$PUCSORGFRONT
 10
0.0
 20
0.0
 30
0.0
  9
$PUCSORGBACK
 10
0.0
 20
0.0
 30
0.0
  9
$USERI1
 70
     0
  9
$USERI2
 70
     0
  9
$USERI3
 70
     0
  9
$USERI4
 70
     0
  9
$USERI5
 70
     0
  9
$USERR1
 40
0.0
  9
$USERR2
 40
0.0
  9
$USERR3
 40
0.0
  9
$USERR4
 40
0.0
  9
$USERR5
 40
0.0
  9
$WORLDVIEW
 70
     1
  9
$SHADEDGE
 70
     3
  9
$SHADEDIF
 70
    70
  9
$TILEMODE
 70
     0
  9
$MAXACTVP
 70
    64
  9
$PINSBASE
 10
0.0
 20
0.0
 30
0.0
  9
$PLIMCHECK
 70
     0
  9
$PEXTMIN
 10
-0.5
 20
-0.5
 30
-0.5
  9
$PEXTMAX
 10
11.0
 20
8.5
 30
5.0
  9
$PLIMMIN
 10
-0.5
 20
-0.5
  9
$PLIMMAX
 10
11.0
 20
8.5
  9
$UNITMODE
 70
     0
  9
$VISRETAIN
 70
     0
  9
$PLINEGEN
 70
     1
  9
$PSLTSCALE
 70
     0
  9
$TREEDEPTH
 70
  3020
  9
$CMLSTYLE
  2
Standard
  9
$CMLJUST
 70
     0
  9
$CMLSCALE
 40
1.0
  9
$PROXYGRAPHICS
 70
     0
  9
$MEASUREMENT
 70
     0
  9
$CELWEIGHT
370
     0
  9
$ENDCAPS
280
     0
  9
$JOINSTYLE
280
     0
  9
$LWDISPLAY
290
     0
  9
$INSUNITS
 70
     0
  9
$HYPERLINKBASE
  1

  9
$STYLESHEET
  1

  9
$XEDIT
290
     1
  9
$CEPSNTYPE
380
     0
  9
$PSTYLEMODE
290
     1
  9
$FINGERPRINTGUID
  2

  9
$VERSIONGUID
  2

  9
$EXTNAMES
290
     1
  9
$PSVPSCALE
 40
0.0
  0
ENDSEC
  0
SECTION
  2
CLASSES
  0
CLASS
  1
LWPOLYLINE
  2
AcDbPolyline
  3
AutoCAD 2000
 90
        0
280
     0
281
     1
  0
CLASS
  1
IMAGE
  2
AcDbRasterImage
  3
ISM
 90
      127
280
     0
281
     1
  0
CLASS
  1
OLE2FRAME
  2
AcDbOle2Frame
  3
AutoCAD 2000
 90
        0
280
     0
281
     1
  0
CLASS
  1
HATCH
  2
AcDbHatch
  3
AutoCAD 2000
 90
        0
280
     0
281
     1
  0
CLASS
  1
DICTIONARYVAR
  2
AcDbDictionaryVar
  3
AutoCAD 2000
 90
        0
280
     0
281
     0
  0
CLASS
  1
RASTERVARIABLES
  2
AcDbRasterVariables
  3
ISM
 90
        0
280
     0
281
     0
  0
CLASS
  1
IMAGEDEF
  2
AcDbRasterImageDef
  3
ISM
 90
        0
280
     0
281
     0
  0
CLASS
  1
IMAGEDEF_REACTOR
  2
AcDbRasterImageDefReactor
  3
ISM
 90
        1
280
     0
281
     0
  0
CLASS
  1
IDBUFFER
  2
AcDbIdBuffer
  3
AutoCAD 2000
 90
        0
280
     0
281
     0
  0
CLASS
  1
SPATIAL_FILTER
  2
AcDbSpatialFilter
  3
AutoCAD 2000
 90
        0
280
     0
281
     0
  0
CLASS
  1
XRECORD
  2
AcDbXrecord
  3
AutoCAD 2000
 90
        0
280
     0
281
     0
  0
CLASS
  1
SORTENTSTABLE
  2
AcDbSortentsTable
  3
AutoCAD 2000
 90
        0
280
     0
281
     0
  0
CLASS
  1
LAYER_INDEX
  2
AcDbLayerIndex
  3
AutoCAD 2000
 90
        0
280
     0
281
     0
  0
CLASS
  1
SPATIAL_INDEX
  2
AcDbSpatialIndex
  3
AutoCAD 2000
 90
        0
280
     0
281
     0
  0
CLASS
  1
OBJECT_PTR
  2
CAseDLPNTableRecord
  3
"ASE-LPNTableRecord"
 90
        1
280
     0
281
     0
  0
CLASS
  1
LAYOUT
  2
AcDbLayout
  3
AutoCAD 2000
 90
        0
280
     0
281
     0
  0
CLASS
  1
PLOTSETTINGS
  2
AcDbPlotSettings
  3
AutoCAD 2000
 90
        0
280
     0
281
     0
  0
CLASS
  1
ACDBDICTIONARYWDFLT
  2
AcDbDictionaryWithDefault
  3
AutoCAD 2000
 90
        0
280
     0
281
     0
  0
CLASS
  1
ACDBPLACEHOLDER
  2
AcDbPlaceHolder
  3
AutoCAD 2000
 90
        0
280
     0
281
     0
  0
CLASS
  1
VBA_PROJECT
  2
AcDbVbaProject
  3
acadvba
 90
        0
280
     0
281
     0
  0
CLASS
  1
WIPEOUT
  2
AcDbWipeout
  3
WipeOut|AutoCAD Express Tool|expresstools@autodesk.com
 90
      127
280
     0
281
     1
  0
CLASS
  1
WIPEOUTVARIABLES
  2
AcDbWipeoutVariables
  3
WipeOut|AutoCAD Express Tool|expresstools@autodesk.com
 90
        0
280
     0
281
     0
  0
CLASS
  1
RTEXT
  2
RText
  3
RText|AutoCAD Express Tool|expresstools@autodesk.com
 90
        0
280
     0
281
     1
  0
CLASS
  1
ARCALIGNEDTEXT
  2
AcDbArcAlignedText
  3
ATEXT|AutoCAD Express Tool|expresstools@autodesk.com
 90
        0
280
     0
281
     1
  0
ENDSEC
  0
SECTION
  2
TABLES
  0
TABLE
  2
VPORT
  5
7
100
AcDbSymbolTable
 70
    16
  0
VPORT
  5
2B3
100
AcDbSymbolTableRecord
100
AcDbViewportTableRecord
  2
*ACTIVE
 70
     0
 10
0.0
 20
0.0
 11
1.0
 21
1.0
 12
0.0
 22
0.0
 13
0.0
 23
0.0
 14
1.0
 24
1.0
 15
0.0
 25
0.0
 16
0.718873
 26
-0.585049
 36
0.375419
 17
0.0
 27
0.0
 37
0.0
 40
63.182916
 41
0.688564
 42
50.0
 43
31.28612
 44
-31.28612
 50
0.0
 51
0.0
 71
    16
 72
   100
 73
     1
 74
     1
 75
     0
 76
     0
 77
     0
 78
     0
281
     0
 65
     0
110
0.0
120
0.0
130
0.0
111
1.0
121
0.0
131
0.0
112
0.0
122
1.0
132
0.0
345
0
346
0
 79
     0
146
0.0
  0
VPORT
  5
2B4
100
AcDbSymbolTableRecord
100
AcDbViewportTableRecord
  2
L1
 70
     0
 10
0.0
 20
0.0
 11
1.0
 21
1.0
 12
0.0
 22
0.0
 13
0.0
 23
0.0
 14
1.0
 24
1.0
 15
0.0
 25
0.0
 16
0.718873
 26
-0.585049
 36
0.375419
 17
0.0
 27
0.0
 37
0.0
 40
63.182916
 41
0.688564
 42
50.0
 43
31.28612
 44
-31.28612
 50
0.0
 51
0.0
 71
    16
 72
   100
 73
     1
 74
     1
 75
     0
 76
     0
 77
     0
 78
     0
281
     0
 65
     0
110
0.0
120
0.0
130
0.0
111
1.0
121
0.0
131
0.0
112
0.0
122
1.0
132
0.0
345
0
346
0
 79
     0
146
0.0
  0
VPORT
  5
2B5
100
AcDbSymbolTableRecord
100
AcDbViewportTableRecord
  2
L2
 70
     0
 10
0.0
 20
0.0
 11
0.5
 21
1.0
 12
0.0
 22
0.0
 13
0.0
 23
0.0
 14
1.0
 24
1.0
 15
0.0
 25
0.0
 16
0.0
 26
-1.0
 36
0.0
 17
0.0
 27
0.0
 37
0.0
 40
61.046088
 41
0.688564
 42
50.0
 43
31.360698
 44
-31.360698
 50
0.0
 51
0.0
 71
    16
 72
   100
 73
     1
 74
     1
 75
     0
 76
     0
 77
     0
 78
     0
281
     0
 65
     0
110
0.0
120
0.0
130
0.0
111
1.0
121
0.0
131
0.0
112
0.0
122
1.0
132
0.0
345
0
346
0
 79
     0
146
0.0
  0
VPORT
  5
2B6
100
AcDbSymbolTableRecord
100
AcDbViewportTableRecord
  2
L2
 70
     0
 10
0.5
 20
0.0
 11
1.0
 21
1.0
 12
0.0
 22
0.0
 13
0.0
 23
0.0
 14
1.0
 24
1.0
 15
0.0
 25
0.0
 16
1.0
 26
0.0
 36
0.0
 17
0.0
 27
0.0
 37
0.0
 40
61.046088
 41
0.688564
 42
50.0
 43
30.943437
 44
-30.943437
 50
0.0
 51
0.0
 71
    16
 72
   100
 73
     1
 74
     1
 75
     0
 76
     0
 77
     0
 78
     0
281
     0
 65
     0
110
0.0
120
0.0
130
0.0
111
1.0
121
0.0
131
0.0
112
0.0
122
1.0
132
0.0
345
0
346
0
 79
     0
146
0.0
  0
VPORT
  5
2B7
100
AcDbSymbolTableRecord
100
AcDbViewportTableRecord
  2
L3
 70
     0
 10
0.0
 20
0.5
 11
1.0
 21
1.0
 12
0.0
 22
0.0
 13
0.0
 23
0.0
 14
1.0
 24
1.0
 15
0.0
 25
0.0
 16
0.0
 26
0.0
 36
1.0
 17
0.0
 27
0.0
 37
0.0
 40
10.166631
 41
0.688564
 42
50.0
 43
30.523044
 44
-30.523044
 50
0.0
 51
0.0
 71
    16
 72
   100
 73
     1
 74
     1
 75
     0
 76
     0
 77
     0
 78
     0
281
     0
 65
     0
110
0.0
120
0.0
130
0.0
111
1.0
121
0.0
131
0.0
112
0.0
122
1.0
132
0.0
345
0
346
0
 79
     0
146
0.0
  0
VPORT
  5
2B8
100
AcDbSymbolTableRecord
100
AcDbViewportTableRecord
  2
L3
 70
     0
 10
0.0
 20
0.0
 11
1.0
 21
0.5
 12
0.0
 22
0.0
 13
0.0
 23
0.0
 14
1.0
 24
1.0
 15
0.0
 25
0.0
 16
0.0
 26
-1.0
 36
0.0
 17
0.0
 27
0.0
 37
0.0
 40
61.046088
 41
0.688564
 42
50.0
 43
31.360698
 44
-31.360698
 50
0.0
 51
0.0
 71
    16
 72
   100
 73
     1
 74
     1
 75
     0
 76
     0
 77
     0
 78
     0
281
     0
 65
     0
110
0.0
120
0.0
130
0.0
111
1.0
121
0.0
131
0.0
112
0.0
122
1.0
132
0.0
345
0
346
0
 79
     0
146
0.0
  0
VPORT
  5
2B9
100
AcDbSymbolTableRecord
100
AcDbViewportTableRecord
  2
L4
 70
     0
 10
0.0
 20
0.5
 11
0.5
 21
1.0
 12
0.0
 22
0.0
 13
0.0
 23
0.0
 14
1.0
 24
1.0
 15
0.0
 25
0.0
 16
0.0
 26
0.0
 36
1.0
 17
0.0
 27
0.0
 37
0.0
 40
10.166631
 41
0.688564
 42
50.0
 43
30.523044
 44
-30.523044
 50
0.0
 51
0.0
 71
    16
 72
   100
 73
     1
 74
     1
 75
     0
 76
     0
 77
     0
 78
     0
281
     0
 65
     0
110
0.0
120
0.0
130
0.0
111
1.0
121
0.0
131
0.0
112
0.0
122
1.0
132
0.0
345
0
346
0
 79
     0
146
0.0
  0
VPORT
  5
2BA
100
AcDbSymbolTableRecord
100
AcDbViewportTableRecord
  2
L4
 70
     0
 10
0.0
 20
0.0
 11
0.5
 21
0.5
 12
0.0
 22
0.0
 13
0.0
 23
0.0
 14
1.0
 24
1.0
 15
0.0
 25
0.0
 16
0.0
 26
-1.0
 36
0.0
 17
0.0
 27
0.0
 37
0.0
 40
61.046088
 41
0.688564
 42
50.0
 43
31.360698
 44
-31.360698
 50
0.0
 51
0.0
 71
    16
 72
   100
 73
     1
 74
     1
 75
     0
 76
     0
 77
     0
 78
     0
281
     0
 65
     0
110
0.0
120
0.0
130
0.0
111
1.0
121
0.0
131
0.0
112
0.0
122
1.0
132
0.0
345
0
346
0
 79
     0
146
0.0
  0
VPORT
  5
2BB
100
AcDbSymbolTableRecord
100
AcDbViewportTableRecord
  2
L4
 70
     0
 10
0.5
 20
0.0
 11
1.0
 21
0.5
 12
0.0
 22
0.0
 13
0.0
 23
0.0
 14
1.0
 24
1.0
 15
0.0
 25
0.0
 16
1.0
 26
0.0
 36
0.0
 17
0.0
 27
0.0
 37
0.0
 40
61.046088
 41
0.688564
 42
50.0
 43
30.943437
 44
-30.943437
 50
0.0
 51
0.0
 71
    16
 72
   100
 73
     1
 74
     1
 75
     0
 76
     0
 77
     0
 78
     0
281
     0
 65
     0
110
0.0
120
0.0
130
0.0
111
1.0
121
0.0
131
0.0
112
0.0
122
1.0
132
0.0
345
0
346
0
 79
     0
146
0.0
  0
VPORT
  5
2BC
100
AcDbSymbolTableRecord
100
AcDbViewportTableRecord
  2
L4
 70
     0
 10
0.5
 20
0.5
 11
1.0
 21
1.0
 12
0.0
 22
0.0
 13
0.0
 23
0.0
 14
1.0
 24
1.0
 15
0.0
 25
0.0
 16
0.57735
 26
-0.57735
 36
0.57735
 17
0.0
 27
0.0
 37
0.0
 40
59.873046
 41
0.688564
 42
50.0
 43
31.171027
 44
-31.171027
 50
0.0
 51
0.0
 71
    16
 72
   100
 73
     1
 74
     1
 75
     0
 76
     0
 77
     0
 78
     0
281
     0
 65
     0
110
0.0
120
0.0
130
0.0
111
1.0
121
0.0
131
0.0
112
0.0
122
1.0
132
0.0
345
0
346
0
 79
     0
146
0.0
  0
VPORT
  5
2BD
100
AcDbSymbolTableRecord
100
AcDbViewportTableRecord
  2
L6
 70
     0
 10
0.0
 20
0.5
 11
0.333333
 21
1.0
 12
0.0
 22
0.0
 13
0.0
 23
0.0
 14
1.0
 24
1.0
 15
0.0
 25
0.0
 16
0.718873
 26
-0.585049
 36
0.375419
 17
0.0
 27
0.0
 37
0.0
 40
63.182916
 41
0.688564
 42
50.0
 43
31.28612
 44
-31.28612
 50
0.0
 51
0.0
 71
    16
 72
   100
 73
     1
 74
     1
 75
     0
 76
     0
 77
     0
 78
     0
281
     0
 65
     0
110
0.0
120
0.0
130
0.0
111
1.0
121
0.0
131
0.0
112
0.0
122
1.0
132
0.0
345
0
346
0
 79
     0
146
0.0
  0
VPORT
  5
2BE
100
AcDbSymbolTableRecord
100
AcDbViewportTableRecord
  2
L6
 70
     0
 10
0.0
 20
0.0
 11
0.333333
 21
0.5
 12
0.0
 22
0.0
 13
0.0
 23
0.0
 14
1.0
 24
1.0
 15
0.0
 25
0.0
 16
-1.0
 26
0.0
 36
0.0
 17
0.0
 27
0.0
 37
0.0
 40
61.046088
 41
0.688564
 42
50.0
 43
30.943437
 44
-30.943437
 50
0.0
 51
0.0
 71
    16
 72
   100
 73
     1
 74
     1
 75
     0
 76
     0
 77
     0
 78
     0
281
     0
 65
     0
110
0.0
120
0.0
130
0.0
111
1.0
121
0.0
131
0.0
112
0.0
122
1.0
132
0.0
345
0
346
0
 79
     0
146
0.0
  0
VPORT
  5
2BF
100
AcDbSymbolTableRecord
100
AcDbViewportTableRecord
  2
L6
 70
     0
 10
0.333333
 20
0.5
 11
0.666667
 21
1.0
 12
0.0
 22
0.0
 13
0.0
 23
0.0
 14
1.0
 24
1.0
 15
0.0
 25
0.0
 16
0.0
 26
0.0
 36
1.0
 17
0.0
 27
0.0
 37
0.0
 40
10.166631
 41
0.688564
 42
50.0
 43
30.523044
 44
-30.523044
 50
0.0
 51
0.0
 71
    16
 72
   100
 73
     1
 74
     1
 75
     0
 76
     0
 77
     0
 78
     0
281
     0
 65
     0
110
0.0
120
0.0
130
0.0
111
1.0
121
0.0
131
0.0
112
0.0
122
1.0
132
0.0
345
0
346
0
 79
     0
146
0.0
  0
VPORT
  5
2C0
100
AcDbSymbolTableRecord
100
AcDbViewportTableRecord
  2
L6
 70
     0
 10
0.333333
 20
0.0
 11
0.666667
 21
0.5
 12
0.0
 22
0.0
 13
0.0
 23
0.0
 14
1.0
 24
1.0
 15
0.0
 25
0.0
 16
0.0
 26
-1.0
 36
0.0
 17
0.0
 27
0.0
 37
0.0
 40
61.046088
 41
0.688564
 42
50.0
 43
31.360698
 44
-31.360698
 50
0.0
 51
0.0
 71
    16
 72
   100
 73
     1
 74
     1
 75
     0
 76
     0
 77
     0
 78
     0
281
     0
 65
     0
110
0.0
120
0.0
130
0.0
111
1.0
121
0.0
131
0.0
112
0.0
122
1.0
132
0.0
345
0
346
0
 79
     0
146
0.0
  0
VPORT
  5
2C1
100
AcDbSymbolTableRecord
100
AcDbViewportTableRecord
  2
L6
 70
     0
 10
0.666667
 20
0.5
 11
1.0
 21
1.0
 12
0.0
 22
0.0
 13
0.0
 23
0.0
 14
1.0
 24
1.0
 15
0.0
 25
0.0
 16
0.57735
 26
-0.57735
 36
0.57735
 17
0.0
 27
0.0
 37
0.0
 40
59.873046
 41
0.688564
 42
50.0
 43
31.171027
 44
-31.171027
 50
0.0
 51
0.0
 71
    16
 72
   100
 73
     1
 74
     1
 75
     0
 76
     0
 77
     0
 78
     0
281
     0
 65
     0
110
0.0
120
0.0
130
0.0
111
1.0
121
0.0
131
0.0
112
0.0
122
1.0
132
0.0
345
0
346
0
 79
     0
146
0.0
  0
VPORT
  5
2C2
100
AcDbSymbolTableRecord
100
AcDbViewportTableRecord
  2
L6
 70
     0
 10
0.666667
 20
0.0
 11
1.0
 21
0.5
 12
0.0
 22
0.0
 13
0.0
 23
0.0
 14
1.0
 24
1.0
 15
0.0
 25
0.0
 16
1.0
 26
0.0
 36
0.0
 17
0.0
 27
0.0
 37
0.0
 40
61.046088
 41
0.688564
 42
50.0
 43
30.943437
 44
-30.943437
 50
0.0
 51
0.0
 71
    16
 72
   100
 73
     1
 74
     1
 75
     0
 76
     0
 77
     0
 78
     0
281
     0
 65
     0
110
0.0
120
0.0
130
0.0
111
1.0
121
0.0
131
0.0
112
0.0
122
1.0
132
0.0
345
0
346
0
 79
     0
146
0.0
  0
ENDTAB
  0
TABLE
  2
LTYPE
  5
4
100
AcDbSymbolTable
 70
     9
  0
LTYPE
  5
11
100
AcDbSymbolTableRecord
100
AcDbLinetypeTableRecord
  2
ByBlock
 70
    64
  3

 72
    65
 73
     0
 40
0.0
  0
LTYPE
  5
12
100
AcDbSymbolTableRecord
100
AcDbLinetypeTableRecord
  2
ByLayer
 70
    64
  3

 72
    65
 73
     0
 40
0.0
  0
LTYPE
  5
13
100
AcDbSymbolTableRecord
100
AcDbLinetypeTableRecord
  2
Continuous
 70
    64
  3
Solid line
 72
    65
 73
     0
 40
0.0
  0
LTYPE
  5
24
100
AcDbSymbolTableRecord
100
AcDbLinetypeTableRecord
  2
DASHED
 70
    64
  3
__ __ __ __ __ __ __ __ __
 72
    65
 73
     2
 40
25.72
 49
12.86
 74
     0
 49
-12.86
 74
     0
  0
LTYPE
  5
25
100
AcDbSymbolTableRecord
100
AcDbLinetypeTableRecord
  2
HIDDEN
 70
    64
  3
_ _ _ _ _ _ _ _ _ _ _ _ _ _ _
 72
    65
 73
     2
 40
0.5
 49
0.25
 74
     0
 49
-0.25
 74
     0
  0
LTYPE
  5
26
100
AcDbSymbolTableRecord
100
AcDbLinetypeTableRecord
  2
PHANTOM
 70
    64
  3
____ _ _ ____ _ _ _____ _ _ ____
 72
    65
 73
     6
 40
50.5
 49
18.0
 74
     0
 49
-6.5
 74
     0
 49
6.5
 74
     0
 49
-6.5
 74
     0
 49
6.5
 74
     0
 49
-6.5
 74
     0
  0
LTYPE
  5
27
100
AcDbSymbolTableRecord
100
AcDbLinetypeTableRecord
  2
CENTER
 70
    64
  3
____ _ ____ _ ____ _ ____
 72
    65
 73
     4
 40
47.5
 49
22.0
 74
     0
 49
-8.5
 74
     0
 49
8.5
 74
     0
 49
-8.5
 74
     0
  0
LTYPE
  5
28
100
AcDbSymbolTableRecord
100
AcDbLinetypeTableRecord
  2
DOT
 70
    64
  3
.........................
 72
    65
 73
     2
 40
10.0
 49
0.0
 74
     0
 49
-10.0
 74
     0
  0
LTYPE
  5
29
100
AcDbSymbolTableRecord
100
AcDbLinetypeTableRecord
  2
DASHDOT
 70
    64
  3
_._._._._._._._._._._._._._._._.
 72
    65
 73
     4
 40
70.0
 49
31.0
 74
     0
 49
-13.0
 74
     0
 49
13.0
 74
     0
 49
-13.0
 74
     0
  0
ENDTAB
  0
TABLE
  2
LAYER
  5
2
100
AcDbSymbolTable
 70
     3
  0
LAYER
  5
14
100
AcDbSymbolTableRecord
100
AcDbLayerTableRecord
  2
0
 70
     0
 62
     7
  6
Continuous
290
     1
370
    -3
390
1D
  0
LAYER
  5
2A
100
AcDbSymbolTableRecord
100
AcDbLayerTableRecord
  2
1
 70
     0
 62
     7
  6
Continuous
290
     1
370
    -3
390
1D
  0
LAYER
  5
2C
100
AcDbSymbolTableRecord
100
AcDbLayerTableRecord
  2
TFR-TRI$2
 70
     0
 62
     7
  6
Continuous
290
     1
370
    -3
390
1D
  0
ENDTAB
  0
TABLE
  2
STYLE
  5
3
100
AcDbSymbolTable
 70
     2
  0
STYLE
  5
17
100
AcDbSymbolTableRecord
100
AcDbTextStyleTableRecord
  2
Standard
 70
     0
 40
0.0
 41
1.0
 50
0.0
 71
     0
 42
0.0
  3
txt
  4

  0
STYLE
  5
97
100
AcDbSymbolTableRecord
100
AcDbTextStyleTableRecord
  2
blockfont
 70
     0
 40
0.0
 41
1.0
 50
0.0
 71
     0
 42
0.2
  3
simplex.shx
  4

  0
ENDTAB
  0
TABLE
  2
VIEW
  5
5
100
AcDbSymbolTable
 70
     8
  0
VIEW
  5
3D
100
AcDbSymbolTableRecord
100
AcDbViewTableRecord
  2
TOP
 70
     0
 40
10.166631
 10
0.0
 20
0.0
 41
14.399606
 11
0.0
 21
0.0
 31
1.0
 12
0.0
 22
0.0
 32
0.0
 42
50.0
 43
30.523044
 44
-30.523044
 50
0.0
 71
    16
281
     0
 72
     0
110
0.0
120
0.0
130
0.0
111
1.0
121
0.0
131
0.0
112
0.0
122
1.0
132
0.0
  0
VIEW
  5
3E
100
AcDbSymbolTableRecord
100
AcDbViewTableRecord
  2
FRONT
 70
     0
 40
61.046088
 10
0.0
 20
0.0
 41
14.399606
 11
0.0
 21
-1.0
 31
0.0
 12
0.0
 22
0.0
 32
0.0
 42
50.0
 43
31.360698
 44
-31.360698
 50
0.0
 71
    16
281
     0
 72
     0
110
0.0
120
0.0
130
0.0
111
1.0
121
0.0
131
0.0
112
0.0
122
1.0
132
0.0
  0
VIEW
  5
3F
100
AcDbSymbolTableRecord
100
AcDbViewTableRecord
  2
RIGHT
 70
     0
 40
61.046088
 10
0.0
 20
0.0
 41
10.166631
 11
1.0
 21
0.0
 31
0.0
 12
0.0
 22
0.0
 32
0.0
 42
50.0
 43
30.943437
 44
-30.943437
 50
0.0
 71
    16
281
     0
 72
     0
110
0.0
120
0.0
130
0.0
111
1.0
121
0.0
131
0.0
112
0.0
122
1.0
132
0.0
  0
VIEW
  5
40
100
AcDbSymbolTableRecord
100
AcDbViewTableRecord
  2
BACK
 70
     0
 40
61.046088
 10
0.0
 20
0.0
 41
14.399606
 11
0.0
 21
1.0
 31
0.0
 12
0.0
 22
0.0
 32
0.0
 42
50.0
 43
31.360698
 44
-31.360698
 50
0.0
 71
    16
281
     0
 72
     0
110
0.0
120
0.0
130
0.0
111
1.0
121
0.0
131
0.0
112
0.0
122
1.0
132
0.0
  0
VIEW
  5
41
100
AcDbSymbolTableRecord
100
AcDbViewTableRecord
  2
BOTTOM
 70
     0
 40
10.166631
 10
0.0
 20
0.0
 41
14.399606
 11
0.0
 21
0.0
 31
-1.0
 12
0.0
 22
0.0
 32
0.0
 42
50.0
 43
30.523044
 44
-30.523044
 50
180.0
 71
    16
281
     0
 72
     0
110
0.0
120
0.0
130
0.0
111
1.0
121
0.0
131
0.0
112
0.0
122
1.0
132
0.0
  0
VIEW
  5
42
100
AcDbSymbolTableRecord
100
AcDbViewTableRecord
  2
LEFT
 70
     0
 40
61.046088
 10
0.0
 20
0.0
 41
10.166631
 11
-1.0
 21
0.0
 31
0.0
 12
0.0
 22
0.0
 32
0.0
 42
50.0
 43
30.943437
 44
-30.943437
 50
0.0
 71
    16
281
     0
 72
     0
110
0.0
120
0.0
130
0.0
111
1.0
121
0.0
131
0.0
112
0.0
122
1.0
132
0.0
  0
VIEW
  5
43
100
AcDbSymbolTableRecord
100
AcDbViewTableRecord
  2
TFR-ISO
 70
     0
 40
59.873046
 10
0.0
 20
0.0
 41
17.370953
 11
0.57735
 21
-0.57735
 31
0.57735
 12
0.0
 22
0.0
 32
0.0
 42
50.0
 43
31.171027
 44
-31.171027
 50
0.0
 71
    16
281
     0
 72
     0
110
0.0
120
0.0
130
0.0
111
1.0
121
0.0
131
0.0
112
0.0
122
1.0
132
0.0
  0
VIEW
  5
44
100
AcDbSymbolTableRecord
100
AcDbViewTableRecord
  2
TFR-TRI
 70
     0
 40
63.182916
 10
0.0
 20
0.0
 41
16.974592
 11
0.718873
 21
-0.585049
 31
0.375419
 12
0.0
 22
0.0
 32
0.0
 42
50.0
 43
32.711686
 44
-32.711686
 50
0.0
 71
    16
281
     0
 72
     0
110
0.0
120
0.0
130
0.0
111
1.0
121
0.0
131
0.0
112
0.0
122
1.0
132
0.0
  0
ENDTAB
  0
TABLE
  2
UCS
  5
6
100
AcDbSymbolTable
 70
     0
  0
ENDTAB
  0
TABLE
  2
APPID
  5
8
100
AcDbSymbolTable
 70
     1
  0
APPID
  5
16
100
AcDbSymbolTableRecord
100
AcDbRegAppTableRecord
  2
ACAD
 70
     0
  0
ENDTAB
  0
TABLE
  2
DIMSTYLE
  5
9
100
AcDbSymbolTable
 70
     1
100
AcDbDimStyleTable
 71
     0
  0
DIMSTYLE
105
18
100
AcDbSymbolTableRecord
100
AcDbDimStyleTableRecord
  2
Standard
 70
     0
  3

  4

 40
1.0
 41
0.18
 42
0.0625
 43
0.38
 44
0.18
 45
0.0
 46
0.0
 47
0.0
 48
0.0
 71
     0
 72
     0
 73
     1
 74
     1
 75
     0
 76
     0
 77
     0
 78
     0
 79
     0
140
0.18
141
0.09
142
0.0
143
25.4
144
1.0
145
0.0
146
1.0
147
0.09
148
0.0
170
     0
171
     2
172
     0
173
     0
174
     0
175
     0
176
     0
177
     0
178
     0
179
     0
271
     4
272
     4
273
     2
274
     2
275
     0
276
     0
277
     2
278
    46
279
     0
280
     0
281
     0
282
     0
283
     1
284
     0
285
     0
286
     0
288
     0
289
     3
340
17
341
0
342
0
343
0
344
0
371
    -2
372
    -2
  0
ENDTAB
  0
TABLE
  2
BLOCK_RECORD
  5
1
100
AcDbSymbolTable
 70
    61
  0
BLOCK_RECORD
  5
A
100
AcDbSymbolTableRecord
100
AcDbBlockTableRecord
  2
*MODEL_SPACE
340
20
  0
BLOCK_RECORD
  5
B
100
AcDbSymbolTableRecord
100
AcDbBlockTableRecord
  2
*PAPER_SPACE
340
21
  0
BLOCK_RECORD
  5
94
100
AcDbSymbolTableRecord
100
AcDbBlockTableRecord
  2
ASSORTED_DRAFT61
340
0
102
{BLKREFS
331
99
102
}
  0
BLOCK_RECORD
  5
9A
100
AcDbSymbolTableRecord
100
AcDbBlockTableRecord
  2
ASSORTED_DRAFT62
340
0
102
{BLKREFS
331
9E
102
}
  0
BLOCK_RECORD
  5
9F
100
AcDbSymbolTableRecord
100
AcDbBlockTableRecord
  2
ASSORTED_DRAFT63
340
0
102
{BLKREFS
331
A3
102
}
  0
BLOCK_RECORD
  5
A4
100
AcDbSymbolTableRecord
100
AcDbBlockTableRecord
  2
ASSORTED_DRAFT64
340
0
102
{BLKREFS
331
A8
102
}
  0
BLOCK_RECORD
  5
A9
100
AcDbSymbolTableRecord
100
AcDbBlockTableRecord
  2
ASSORTED_DRAFT65
340
0
102
{BLKREFS
331
AD
102
}
  0
BLOCK_RECORD
  5
AE
100
AcDbSymbolTableRecord
100
AcDbBlockTableRecord
  2
ASSORTED_DRAFT66
340
0
102
{BLKREFS
331
B2
102
}
  0
BLOCK_RECORD
  5
B3
100
AcDbSymbolTableRecord
100
AcDbBlockTableRecord
  2
ASSORTED_DRAFT67
340
0
102
{BLKREFS
331
B7
102
}
  0
BLOCK_RECORD
  5
B8
100
AcDbSymbolTableRecord
100
AcDbBlockTableRecord
  2
ASSORTED_DRAFT68
340
0
102
{BLKREFS
331
BC
102
}
  0
BLOCK_RECORD
  5
BD
100
AcDbSymbolTableRecord
100
AcDbBlockTableRecord
  2
ASSORTED_DRAFT69
340
0
102
{BLKREFS
331
C1
102
}
  0
BLOCK_RECORD
  5
C2
100
AcDbSymbolTableRecord
100
AcDbBlockTableRecord
  2
ASSORTED_DRAFT70
340
0
102
{BLKREFS
331
C6
102
}
  0
BLOCK_RECORD
  5
C7
100
AcDbSymbolTableRecord
100
AcDbBlockTableRecord
  2
ASSORTED_DRAFT71
340
0
102
{BLKREFS
331
CB
102
}
  0
BLOCK_RECORD
  5
CC
100
AcDbSymbolTableRecord
100
AcDbBlockTableRecord
  2
ASSORTED_DRAFT72
340
0
102
{BLKREFS
331
D0
102
}
  0
BLOCK_RECORD
  5
D1
100
AcDbSymbolTableRecord
100
AcDbBlockTableRecord
  2
ASSORTED_DRAFT73
340
0
102
{BLKREFS
331
D5
102
}
  0
BLOCK_RECORD
  5
D6
100
AcDbSymbolTableRecord
100
AcDbBlockTableRecord
  2
ASSORTED_DRAFT74
340
0
102
{BLKREFS
331
DA
102
}
  0
BLOCK_RECORD
  5
DB
100
AcDbSymbolTableRecord
100
AcDbBlockTableRecord
  2
ASSORTED_DRAFT75
340
0
102
{BLKREFS
331
DF
102
}
  0
BLOCK_RECORD
  5
E0
100
AcDbSymbolTableRecord
100
AcDbBlockTableRecord
  2
ASSORTED_DRAFT76
340
0
102
{BLKREFS
331
E4
102
}
  0
BLOCK_RECORD
  5
E5
100
AcDbSymbolTableRecord
100
AcDbBlockTableRecord
  2
ASSORTED_DRAFT77
340
0
102
{BLKREFS
331
E9
102
}
  0
BLOCK_RECORD
  5
EA
100
AcDbSymbolTableRecord
100
AcDbBlockTableRecord
  2
ASSORTED_DRAFT78
340
0
102
{BLKREFS
331
EE
102
}
  0
BLOCK_RECORD
  5
EF
100
AcDbSymbolTableRecord
100
AcDbBlockTableRecord
  2
ASSORTED_DRAFT79
340
0
102
{BLKREFS
331
F3
102
}
  0
BLOCK_RECORD
  5
F4
100
AcDbSymbolTableRecord
100
AcDbBlockTableRecord
  2
ASSORTED_DRAFT80
340
0
102
{BLKREFS
331
F8
102
}
  0
BLOCK_RECORD
  5
F9
100
AcDbSymbolTableRecord
100
AcDbBlockTableRecord
  2
ASSORTED_DRAFT81
340
0
102
{BLKREFS
331
FD
102
}
  0
BLOCK_RECORD
  5
FE
100
AcDbSymbolTableRecord
100
AcDbBlockTableRecord
  2
ASSORTED_DRAFT82
340
0
102
{BLKREFS
331
102
102
}
  0
BLOCK_RECORD
  5
103
100
AcDbSymbolTableRecord
100
AcDbBlockTableRecord
  2
ASSORTED_DRAFT83
340
0
102
{BLKREFS
331
107
102
}
  0
BLOCK_RECORD
  5
108
100
AcDbSymbolTableRecord
100
AcDbBlockTableRecord
  2
ASSORTED_DRAFT84
340
0
102
{BLKREFS
331
10C
102
}
  0
BLOCK_RECORD
  5
10D
100
AcDbSymbolTableRecord
100
AcDbBlockTableRecord
  2
ASSORTED_DRAFT85
340
0
102
{BLKREFS
331
111
102
}
  0
BLOCK_RECORD
  5
112
100
AcDbSymbolTableRecord
100
AcDbBlockTableRecord
  2
ASSORTED_DRAFT86
340
0
102
{BLKREFS
331
116
102
}
  0
BLOCK_RECORD
  5
117
100
AcDbSymbolTableRecord
100
AcDbBlockTableRecord
  2
ASSORTED_DRAFT87
340
0
102
{BLKREFS
331
11B
102
}
  0
BLOCK_RECORD
  5
126
100
AcDbSymbolTableRecord
100
AcDbBlockTableRecord
  2
ASSORTED_DRAFT88
340
0
102
{BLKREFS
331
15A
102
}
  0
BLOCK_RECORD
  5
15B
100
AcDbSymbolTableRecord
100
AcDbBlockTableRecord
  2
ASSORTED_DRAFT89
340
0
102
{BLKREFS
331
1A1
102
}
  0
BLOCK_RECORD
  5
1A2
100
AcDbSymbolTableRecord
100
AcDbBlockTableRecord
  2
ASSORTED_DRAFT90
340
0
102
{BLKREFS
331
1D5
102
}
  0
BLOCK_RECORD
  5
1D6
100
AcDbSymbolTableRecord
100
AcDbBlockTableRecord
  2
ASSORTED_DRAFT91
340
0
102
{BLKREFS
331
20A
102
}
  0
BLOCK_RECORD
  5
20D
100
AcDbSymbolTableRecord
100
AcDbBlockTableRecord
  2
ASSORTED_DRAFT92
340
0
102
{BLKREFS
331
211
102
}
  0
BLOCK_RECORD
  5
220
100
AcDbSymbolTableRecord
100
AcDbBlockTableRecord
  2
ASSORTED_DRAFT93
340
0
102
{BLKREFS
331
224
102
}
  0
BLOCK_RECORD
  5
225
100
AcDbSymbolTableRecord
100
AcDbBlockTableRecord
  2
ASSORTED_DRAFT94
340
0
102
{BLKREFS
331
229
102
}
  0
BLOCK_RECORD
  5
22A
100
AcDbSymbolTableRecord
100
AcDbBlockTableRecord
  2
ASSORTED_DRAFT95
340
0
102
{BLKREFS
331
22E
102
}
  0
BLOCK_RECORD
  5
22F
100
AcDbSymbolTableRecord
100
AcDbBlockTableRecord
  2
ASSORTED_DRAFT96
340
0
102
{BLKREFS
331
233
102
}
  0
BLOCK_RECORD
  5
234
100
AcDbSymbolTableRecord
100
AcDbBlockTableRecord
  2
ASSORTED_DRAFT97
340
0
102
{BLKREFS
331
238
102
}
  0
BLOCK_RECORD
  5
239
100
AcDbSymbolTableRecord
100
AcDbBlockTableRecord
  2
ASSORTED_DRAFT98
340
0
102
{BLKREFS
331
23D
102
}
  0
BLOCK_RECORD
  5
23E
100
AcDbSymbolTableRecord
100
AcDbBlockTableRecord
  2
ASSORTED_DRAFT99
340
0
102
{BLKREFS
331
242
102
}
  0
BLOCK_RECORD
  5
243
100
AcDbSymbolTableRecord
100
AcDbBlockTableRecord
  2
ASSORTED_DRAFT100
340
0
102
{BLKREFS
331
247
102
}
  0
BLOCK_RECORD
  5
248
100
AcDbSymbolTableRecord
100
AcDbBlockTableRecord
  2
ASSORTED_DRAFT101
340
0
102
{BLKREFS
331
24C
102
}
  0
BLOCK_RECORD
  5
24D
100
AcDbSymbolTableRecord
100
AcDbBlockTableRecord
  2
ASSORTED_DRAFT102
340
0
102
{BLKREFS
331
251
102
}
  0
BLOCK_RECORD
  5
252
100
AcDbSymbolTableRecord
100
AcDbBlockTableRecord
  2
ASSORTED_DRAFT103
340
0
102
{BLKREFS
331
256
102
}
  0
BLOCK_RECORD
  5
257
100
AcDbSymbolTableRecord
100
AcDbBlockTableRecord
  2
ASSORTED_DRAFT104
340
0
102
{BLKREFS
331
25B
102
}
  0
BLOCK_RECORD
  5
25C
100
AcDbSymbolTableRecord
100
AcDbBlockTableRecord
  2
ASSORTED_DRAFT105
340
0
102
{BLKREFS
331
260
102
}
  0
BLOCK_RECORD
  5
261
100
AcDbSymbolTableRecord
100
AcDbBlockTableRecord
  2
ASSORTED_DRAFT106
340
0
102
{BLKREFS
331
265
102
}
  0
BLOCK_RECORD
  5
266
100
AcDbSymbolTableRecord
100
AcDbBlockTableRecord
  2
ASSORTED_DRAFT107
340
0
102
{BLKREFS
331
26A
102
}
  0
BLOCK_RECORD
  5
26B
100
AcDbSymbolTableRecord
100
AcDbBlockTableRecord
  2
ASSORTED_DRAFT108
340
0
102
{BLKREFS
331
26F
102
}
  0
BLOCK_RECORD
  5
270
100
AcDbSymbolTableRecord
100
AcDbBlockTableRecord
  2
ASSORTED_DRAFT109
340
0
102
{BLKREFS
331
274
102
}
  0
BLOCK_RECORD
  5
275
100
AcDbSymbolTableRecord
100
AcDbBlockTableRecord
  2
ASSORTED_DRAFT110
340
0
102
{BLKREFS
331
279
102
}
  0
BLOCK_RECORD
  5
27A
100
AcDbSymbolTableRecord
100
AcDbBlockTableRecord
  2
ASSORTED_DRAFT111
340
0
102
{BLKREFS
331
27E
102
}
  0
BLOCK_RECORD
  5
27F
100
AcDbSymbolTableRecord
100
AcDbBlockTableRecord
  2
ASSORTED_DRAFT112
340
0
102
{BLKREFS
331
283
102
}
  0
BLOCK_RECORD
  5
284
100
AcDbSymbolTableRecord
100
AcDbBlockTableRecord
  2
ASSORTED_DRAFT113
340
0
102
{BLKREFS
331
288
102
}
  0
BLOCK_RECORD
  5
289
100
AcDbSymbolTableRecord
100
AcDbBlockTableRecord
  2
ASSORTED_DRAFT114
340
0
102
{BLKREFS
331
28D
102
}
  0
BLOCK_RECORD
  5
28E
100
AcDbSymbolTableRecord
100
AcDbBlockTableRecord
  2
ASSORTED_DRAFT115
340
0
102
{BLKREFS
331
292
102
}
  0
BLOCK_RECORD
  5
293
100
AcDbSymbolTableRecord
100
AcDbBlockTableRecord
  2
ASSORTED_DRAFT116
340
0
102
{BLKREFS
331
297
102
}
  0
BLOCK_RECORD
  5
298
100
AcDbSymbolTableRecord
100
AcDbBlockTableRecord
  2
ASSORTED_DRAFT117
340
0
102
{BLKREFS
331
29C
102
}
  0
BLOCK_RECORD
  5
29D
100
AcDbSymbolTableRecord
100
AcDbBlockTableRecord
  2
ASSORTED_DRAFT118
340
0
102
{BLKREFS
331
2A1
102
}
  0
BLOCK_RECORD
  5
2A2
100
AcDbSymbolTableRecord
100
AcDbBlockTableRecord
  2
ASSORTED_DRAFT119
340
0
102
{BLKREFS
331
2A6
102
}
  0
BLOCK_RECORD
  5
2A7
100
AcDbSymbolTableRecord
100
AcDbBlockTableRecord
  2
ASSORTED_DRAFT120
340
0
102
{BLKREFS
331
2AB
102
}
  0
BLOCK_RECORD
  5
2C3
100
AcDbSymbolTableRecord
100
AcDbBlockTableRecord
  2
V10290EG_SMGMTPOST_02_MODEL
340
0
102
{BLKREFS
331
580
102
}
  0
ENDTAB
  0
ENDSEC
  0
SECTION
  2
BLOCKS
  0
BLOCK
  5
D
100
AcDbEntity
  8
0
390
0
100
AcDbBlockBegin
  2
*MODEL_SPACE
 70
     0
 10
0.0
 20
0.0
 30
0.0
  3
*MODEL_SPACE
  1

  0
ENDBLK
  5
E
100
AcDbEntity
  8
0
390
0
100
AcDbBlockEnd
  0
BLOCK
  5
F
100
AcDbEntity
 67
     1
  8
0
390
0
100
AcDbBlockBegin
  2
*PAPER_SPACE
 70
     0
 10
0.0
 20
0.0
 30
0.0
  3
*PAPER_SPACE
  1

  0
ENDBLK
  5
10
100
AcDbEntity
 67
     1
  8
0
390
0
100
AcDbBlockEnd
  0
BLOCK
  5
95
100
AcDbEntity
  8
0
390
0
100
AcDbBlockBegin
  2
ASSORTED_DRAFT61
 70
     0
 10
0.0
 20
0.0
 30
0.0
  3
ASSORTED_DRAFT61
  1

  0
MTEXT
  5
96
100
AcDbEntity
  8
1
390
0
  6
Continuous
 62
     7
100
AcDbMText
 10
0.395758
 20
0.314102
 30
0.0
 40
0.059805
 41
0.0
 71
     7
 72
     5
  1
\W01.000;\Fsimplex.shx;REV
  7
blockfont
210
0.0
220
0.0
230
1.0
 73
     2
 44
0.903614
  0
ENDBLK
  5
98
100
AcDbEntity
  8
0
390
0
100
AcDbBlockEnd
  0
BLOCK
  5
9B
100
AcDbEntity
  8
0
390
0
100
AcDbBlockBegin
  2
ASSORTED_DRAFT62
 70
     0
 10
0.0
 20
0.0
 30
0.0
  3
ASSORTED_DRAFT62
  1

  0
MTEXT
  5
9C
100
AcDbEntity
  8
1
390
0
  6
Continuous
 62
     7
100
AcDbMText
 10
0.737996
 20
0.314102
 30
0.0
 40
0.059805
 41
0.0
 71
     7
 72
     5
  1
\W01.000;\Fsimplex.shx;DATE
  7
blockfont
210
0.0
220
0.0
230
1.0
 73
     2
 44
0.903614
  0
ENDBLK
  5
9D
100
AcDbEntity
  8
0
390
0
100
AcDbBlockEnd
  0
BLOCK
  5
A0
100
AcDbEntity
  8
0
390
0
100
AcDbBlockBegin
  2
ASSORTED_DRAFT63
 70
     0
 10
0.0
 20
0.0
 30
0.0
  3
ASSORTED_DRAFT63
  1

  0
MTEXT
  5
A1
100
AcDbEntity
  8
1
390
0
  6
Continuous
 62
     7
100
AcDbMText
 10
1.181665
 20
0.314102
 30
0.0
 40
0.059805
 41
0.0
 71
     7
 72
     5
  1
\W01.000;\Fsimplex.shx;BY
  7
blockfont
210
0.0
220
0.0
230
1.0
 73
     2
 44
0.903614
  0
ENDBLK
  5
A2
100
AcDbEntity
  8
0
390
0
100
AcDbBlockEnd
  0
BLOCK
  5
A5
100
AcDbEntity
  8
0
390
0
100
AcDbBlockBegin
  2
ASSORTED_DRAFT64
 70
     0
 10
0.0
 20
0.0
 30
0.0
  3
ASSORTED_DRAFT64
  1

  0
MTEXT
  5
A6
100
AcDbEntity
  8
1
390
0
  6
Continuous
 62
     7
100
AcDbMText
 10
1.490291
 20
0.314102
 30
0.0
 40
0.059805
 41
0.0
 71
     7
 72
     5
  1
\W01.000;\Fsimplex.shx;CHK
  7
blockfont
210
0.0
220
0.0
230
1.0
 73
     2
 44
0.903614
  0
ENDBLK
  5
A7
100
AcDbEntity
  8
0
390
0
100
AcDbBlockEnd
  0
BLOCK
  5
AA
100
AcDbEntity
  8
0
390
0
100
AcDbBlockBegin
  2
ASSORTED_DRAFT65
 70
     0
 10
0.0
 20
0.0
 30
0.0
  3
ASSORTED_DRAFT65
  1

  0
MTEXT
  5
AB
100
AcDbEntity
  8
1
390
0
  6
Continuous
 62
     7
100
AcDbMText
 10
2.764402
 20
0.314102
 30
0.0
 40
0.059805
 41
0.0
 71
     7
 72
     5
  1
\W01.000;\Fsimplex.shx;DESCRIPTION
  7
blockfont
210
0.0
220
0.0
230
1.0
 73
     2
 44
0.903614
  0
ENDBLK
  5
AC
100
AcDbEntity
  8
0
390
0
100
AcDbBlockEnd
  0
BLOCK
  5
AF
100
AcDbEntity
  8
0
390
0
100
AcDbBlockBegin
  2
ASSORTED_DRAFT66
 70
     0
 10
0.0
 20
0.0
 30
0.0
  3
ASSORTED_DRAFT66
  1

  0
MTEXT
  5
B0
100
AcDbEntity
  8
1
390
0
  6
Continuous
 62
     7
100
AcDbMText
 10
4.725963
 20
0.314102
 30
0.0
 40
0.059805
 41
0.0
 71
     7
 72
     5
  1
\W01.000;\Fsimplex.shx;ECN
  7
blockfont
210
0.0
220
0.0
230
1.0
 73
     2
 44
0.903614
  0
ENDBLK
  5
B1
100
AcDbEntity
  8
0
390
0
100
AcDbBlockEnd
  0
BLOCK
  5
B4
100
AcDbEntity
  8
0
390
0
100
AcDbBlockBegin
  2
ASSORTED_DRAFT67
 70
     0
 10
0.0
 20
0.0
 30
0.0
  3
ASSORTED_DRAFT67
  1

  0
MTEXT
  5
B5
100
AcDbEntity
  8
1
390
0
  6
Continuous
 62
     7
100
AcDbMText
 10
5.233606
 20
0.314102
 30
0.0
 40
0.059805
 41
0.0
 71
     7
 72
     5
  1
\W01.000;\Fsimplex.shx;R
  7
blockfont
210
0.0
220
0.0
230
1.0
 73
     2
 44
0.903614
  0
ENDBLK
  5
B6
100
AcDbEntity
  8
0
390
0
100
AcDbBlockEnd
  0
BLOCK
  5
B9
100
AcDbEntity
  8
0
390
0
100
AcDbBlockBegin
  2
ASSORTED_DRAFT68
 70
     0
 10
0.0
 20
0.0
 30
0.0
  3
ASSORTED_DRAFT68
  1

  0
MTEXT
  5
BA
100
AcDbEntity
  8
1
390
0
  6
Continuous
 62
     7
100
AcDbMText
 10
5.049683
 20
0.314102
 30
0.0
 40
0.059805
 41
0.0
 71
     7
 72
     5
  1
\W01.000;\Fsimplex.shx;-
  7
blockfont
210
0.0
220
0.0
230
1.0
 73
     2
 44
0.903614
  0
ENDBLK
  5
BB
100
AcDbEntity
  8
0
390
0
100
AcDbBlockEnd
  0
BLOCK
  5
BE
100
AcDbEntity
  8
0
390
0
100
AcDbBlockBegin
  2
ASSORTED_DRAFT69
 70
     0
 10
0.0
 20
0.0
 30
0.0
  3
ASSORTED_DRAFT69
  1

  0
MTEXT
  5
BF
100
AcDbEntity
  8
1
390
0
  6
Continuous
 62
     7
100
AcDbMText
 10
5.484391
 20
0.314102
 30
0.0
 40
0.059805
 41
0.0
 71
     7
 72
     5
  1
\W01.000;\Fsimplex.shx;CUST
  7
blockfont
210
0.0
220
0.0
230
1.0
 73
     2
 44
0.903614
  0
ENDBLK
  5
C0
100
AcDbEntity
  8
0
390
0
100
AcDbBlockEnd
  0
BLOCK
  5
C3
100
AcDbEntity
  8
0
390
0
100
AcDbBlockBegin
  2
ASSORTED_DRAFT70
 70
     0
 10
0.0
 20
0.0
 30
0.0
  3
ASSORTED_DRAFT70
  1

  0
MTEXT
  5
C4
100
AcDbEntity
  8
1
390
0
  6
Continuous
 62
     7
100
AcDbMText
 10
5.901821
 20
0.314102
 30
0.0
 40
0.059805
 41
0.0
 71
     7
 72
     5
  1
\W01.000;\Fsimplex.shx;SUP
  7
blockfont
210
0.0
220
0.0
230
1.0
 73
     2
 44
0.903614
  0
ENDBLK
  5
C5
100
AcDbEntity
  8
0
390
0
100
AcDbBlockEnd
  0
BLOCK
  5
C8
100
AcDbEntity
  8
0
390
0
100
AcDbBlockBegin
  2
ASSORTED_DRAFT71
 70
     0
 10
0.0
 20
0.0
 30
0.0
  3
ASSORTED_DRAFT71
  1

  0
MTEXT
  5
C9
100
AcDbEntity
  8
1
390
0
  6
Continuous
 62
     7
100
AcDbMText
 10
10.497983
 20
0.386425
 30
0.0
 40
0.149512
 41
0.0
 71
     7
 72
     5
  1
\W01.000;\Fsimplex.shx;A
  7
blockfont
210
0.0
220
0.0
230
1.0
 73
     2
 44
0.903614
  0
ENDBLK
  5
CA
100
AcDbEntity
  8
0
390
0
100
AcDbBlockEnd
  0
BLOCK
  5
CD
100
AcDbEntity
  8
0
390
0
100
AcDbBlockBegin
  2
ASSORTED_DRAFT72
 70
     0
 10
0.0
 20
0.0
 30
0.0
  3
ASSORTED_DRAFT72
  1

  0
MTEXT
  5
CE
100
AcDbEntity
  8
1
390
0
  6
Continuous
 62
     7
100
AcDbMText
 10
10.484706
 20
0.649206
 30
0.0
 40
0.037378
 41
0.0
 71
     7
 72
     5
  1
\W01.000;\Fsimplex.shx;DWG
  7
blockfont
210
0.0
220
0.0
230
1.0
 73
     2
 44
0.903614
  0
ENDBLK
  5
CF
100
AcDbEntity
  8
0
390
0
100
AcDbBlockEnd
  0
BLOCK
  5
D2
100
AcDbEntity
  8
0
390
0
100
AcDbBlockBegin
  2
ASSORTED_DRAFT73
 70
     0
 10
0.0
 20
0.0
 30
0.0
  3
ASSORTED_DRAFT73
  1

  0
MTEXT
  5
D3
100
AcDbEntity
  8
1
390
0
  6
Continuous
 62
     7
100
AcDbMText
 10
10.464343
 20
0.308016
 30
0.0
 40
0.037378
 41
0.0
 71
     7
 72
     5
  1
\W01.000;\Fsimplex.shx;SIZE
  7
blockfont
210
0.0
220
0.0
230
1.0
 73
     2
 44
0.903614
  0
ENDBLK
  5
D4
100
AcDbEntity
  8
0
390
0
100
AcDbBlockEnd
  0
BLOCK
  5
D7
100
AcDbEntity
  8
0
390
0
100
AcDbBlockBegin
  2
ASSORTED_DRAFT74
 70
     0
 10
0.0
 20
0.0
 30
0.0
  3
ASSORTED_DRAFT74
  1

  0
MTEXT
  5
D8
100
AcDbEntity
  8
1
390
0
  6
Continuous
 62
     7
100
AcDbMText
 10
9.223454
 20
0.927089
 30
0.0
 40
0.037378
 41
0.0
 71
     7
 72
     5
  1
\W01.000;\Fsimplex.shx;SCALE
  7
blockfont
210
0.0
220
0.0
230
1.0
 73
     2
 44
0.903614
  0
ENDBLK
  5
D9
100
AcDbEntity
  8
0
390
0
100
AcDbBlockEnd
  0
BLOCK
  5
DC
100
AcDbEntity
  8
0
390
0
100
AcDbBlockBegin
  2
ASSORTED_DRAFT75
 70
     0
 10
0.0
 20
0.0
 30
0.0
  3
ASSORTED_DRAFT75
  1

  0
MTEXT
  5
DD
100
AcDbEntity
  8
1
390
0
  6
Continuous
 62
     7
100
AcDbMText
 10
9.22389
 20
0.683192
 30
0.0
 40
0.037378
 41
0.0
 71
     7
 72
     5
  1
\W01.000;\Fsimplex.shx;DRAWING NO.
  7
blockfont
210
0.0
220
0.0
230
1.0
 73
     2
 44
0.903614
  0
ENDBLK
  5
DE
100
AcDbEntity
  8
0
390
0
100
AcDbBlockEnd
  0
BLOCK
  5
E1
100
AcDbEntity
  8
0
390
0
100
AcDbBlockBegin
  2
ASSORTED_DRAFT76
 70
     0
 10
0.0
 20
0.0
 30
0.0
  3
ASSORTED_DRAFT76
  1

  0
MTEXT
  5
E2
100
AcDbEntity
  8
1
390
0
  6
Continuous
 62
     7
100
AcDbMText
 10
6.636288
 20
0.931754
 30
0.0
 40
0.037378
 41
0.0
 71
     7
 72
     5
  1
\W01.000;\Fsimplex.shx;DRAWN BY
  7
blockfont
210
0.0
220
0.0
230
1.0
 73
     2
 44
0.903614
  0
ENDBLK
  5
E3
100
AcDbEntity
  8
0
390
0
100
AcDbBlockEnd
  0
BLOCK
  5
E6
100
AcDbEntity
  8
0
390
0
100
AcDbBlockBegin
  2
ASSORTED_DRAFT77
 70
     0
 10
0.0
 20
0.0
 30
0.0
  3
ASSORTED_DRAFT77
  1

  0
MTEXT
  5
E7
100
AcDbEntity
  8
1
390
0
  6
Continuous
 62
     7
100
AcDbMText
 10
6.63844
 20
0.683858
 30
0.0
 40
0.037378
 41
0.0
 71
     7
 72
     5
  1
\W01.000;\Fsimplex.shx;DATE
  7
blockfont
210
0.0
220
0.0
230
1.0
 73
     2
 44
0.903614
  0
ENDBLK
  5
E8
100
AcDbEntity
  8
0
390
0
100
AcDbBlockEnd
  0
BLOCK
  5
EB
100
AcDbEntity
  8
0
390
0
100
AcDbBlockBegin
  2
ASSORTED_DRAFT78
 70
     0
 10
0.0
 20
0.0
 30
0.0
  3
ASSORTED_DRAFT78
  1

  0
MTEXT
  5
EC
100
AcDbEntity
  8
1
390
0
  6
Continuous
 62
     7
100
AcDbMText
 10
6.637402
 20
0.440627
 30
0.0
 40
0.037378
 41
0.0
 71
     7
 72
     5
  1
\W01.000;\Fsimplex.shx;CHK'D
  7
blockfont
210
0.0
220
0.0
230
1.0
 73
     2
 44
0.903614
  0
ENDBLK
  5
ED
100
AcDbEntity
  8
0
390
0
100
AcDbBlockEnd
  0
BLOCK
  5
F0
100
AcDbEntity
  8
0
390
0
100
AcDbBlockBegin
  2
ASSORTED_DRAFT79
 70
     0
 10
0.0
 20
0.0
 30
0.0
  3
ASSORTED_DRAFT79
  1

  0
MTEXT
  5
F1
100
AcDbEntity
  8
1
390
0
  6
Continuous
 62
     7
100
AcDbMText
 10
9.223092
 20
1.409566
 30
0.0
 40
0.037378
 41
0.0
 71
     7
 72
     5
  1
\W01.000;\Fsimplex.shx;UNLESS OTHERWISE SPECIFIED,
  7
blockfont
210
0.0
220
0.0
230
1.0
 73
     2
 44
0.903614
  0
ENDBLK
  5
F2
100
AcDbEntity
  8
0
390
0
100
AcDbBlockEnd
  0
BLOCK
  5
F5
100
AcDbEntity
  8
0
390
0
100
AcDbBlockBegin
  2
ASSORTED_DRAFT80
 70
     0
 10
0.0
 20
0.0
 30
0.0
  3
ASSORTED_DRAFT80
  1

  0
MTEXT
  5
F6
100
AcDbEntity
  8
1
390
0
  6
Continuous
 62
     7
100
AcDbMText
 10
9.219542
 20
1.254298
 30
0.0
 40
0.037378
 41
0.0
 71
     7
 72
     5
  1
\W01.000;\Fsimplex.shx;ALL DIMENSIONS ARE GIVEN
  7
blockfont
210
0.0
220
0.0
230
1.0
 73
     2
 44
0.903614
  0
ENDBLK
  5
F7
100
AcDbEntity
  8
0
390
0
100
AcDbBlockEnd
  0
BLOCK
  5
FA
100
AcDbEntity
  8
0
390
0
100
AcDbBlockBegin
  2
ASSORTED_DRAFT81
 70
     0
 10
0.0
 20
0.0
 30
0.0
  3
ASSORTED_DRAFT81
  1

  0
MTEXT
  5
FB
100
AcDbEntity
  8
1
390
0
  6
Continuous
 62
     7
100
AcDbMText
 10
9.204498
 20
1.095031
 30
0.0
 40
0.037378
 41
0.0
 71
     7
 72
     5
  1
\W01.000;\Fsimplex.shx;IN INCHES, THIRD ANGLE PROJECTION.
  7
blockfont
210
0.0
220
0.0
230
1.0
 73
     2
 44
0.903614
  0
ENDBLK
  5
FC
100
AcDbEntity
  8
0
390
0
100
AcDbBlockEnd
  0
BLOCK
  5
FF
100
AcDbEntity
  8
0
390
0
100
AcDbBlockBegin
  2
ASSORTED_DRAFT82
 70
     0
 10
0.0
 20
0.0
 30
0.0
  3
ASSORTED_DRAFT82
  1

  0
MTEXT
  5
100
100
AcDbEntity
  8
1
390
0
  6
Continuous
 62
     7
100
AcDbMText
 10
6.758117
 20
2.025067
 30
0.0
 40
0.336401
 41
0.0
 71
     7
 72
     5
  1
\W01.000;\Fsimplex.shx;P
  7
blockfont
210
0.0
220
0.0
230
1.0
 73
     2
 44
0.903614
  0
ENDBLK
  5
101
100
AcDbEntity
  8
0
390
0
100
AcDbBlockEnd
  0
BLOCK
  5
104
100
AcDbEntity
  8
0
390
0
100
AcDbBlockBegin
  2
ASSORTED_DRAFT83
 70
     0
 10
0.0
 20
0.0
 30
0.0
  3
ASSORTED_DRAFT83
  1

  0
MTEXT
  5
105
100
AcDbEntity
  8
1
390
0
  6
Continuous
 62
     7
100
AcDbMText
 10
6.991983
 20
2.049207
 30
0.0
 40
0.261645
 41
0.0
 71
     7
 72
     5
  1
\W01.000;\Fsimplex.shx;ANDUIT
  7
blockfont
210
0.0
220
0.0
230
1.0
 73
     2
 44
0.903614
  0
ENDBLK
  5
106
100
AcDbEntity
  8
0
390
0
100
AcDbBlockEnd
  0
BLOCK
  5
109
100
AcDbEntity
  8
0
390
0
100
AcDbBlockBegin
  2
ASSORTED_DRAFT84
 70
     0
 10
0.0
 20
0.0
 30
0.0
  3
ASSORTED_DRAFT84
  1

  0
MTEXT
  5
10A
100
AcDbEntity
  8
1
390
0
  6
Continuous
 62
     7
100
AcDbMText
 10
8.663751
 20
2.106225
 30
0.0
 40
0.074756
 41
0.0
 71
     7
 72
     5
  1
\W01.000;\Fsimplex.shx;CORP.
  7
blockfont
210
0.0
220
0.0
230
1.0
 73
     2
 44
0.903614
  0
ENDBLK
  5
10B
100
AcDbEntity
  8
0
390
0
100
AcDbBlockEnd
  0
BLOCK
  5
10E
100
AcDbEntity
  8
0
390
0
100
AcDbBlockBegin
  2
ASSORTED_DRAFT85
 70
     0
 10
0.0
 20
0.0
 30
0.0
  3
ASSORTED_DRAFT85
  1

  0
MTEXT
  5
10F
100
AcDbEntity
  8
1
390
0
  6
Continuous
 62
     7
100
AcDbMText
 10
9.187264
 20
2.11226
 30
0.0
 40
0.056067
 41
0.0
 71
     7
 72
     5
  1
\W01.000;\Fsimplex.shx;TINLEY PARK, ILLINOIS
  7
blockfont
210
0.0
220
0.0
230
1.0
 73
     2
 44
0.903614
  0
ENDBLK
  5
110
100
AcDbEntity
  8
0
390
0
100
AcDbBlockEnd
  0
BLOCK
  5
113
100
AcDbEntity
  8
0
390
0
100
AcDbBlockBegin
  2
ASSORTED_DRAFT86
 70
     0
 10
0.0
 20
0.0
 30
0.0
  3
ASSORTED_DRAFT86
  1

  0
MTEXT
  5
114
100
AcDbEntity
  8
1
390
0
  6
Continuous
 62
     7
100
AcDbMText
 10
7.422528
 20
0.885736
 30
0.0
 40
0.056067
 41
0.0
 71
     7
 72
     5
  1
\W01.000;\Fsimplex.shx;MAT'L:
  7
blockfont
210
0.0
220
0.0
230
1.0
 73
     2
 44
0.903614
  0
ENDBLK
  5
115
100
AcDbEntity
  8
0
390
0
100
AcDbBlockEnd
  0
BLOCK
  5
118
100
AcDbEntity
  8
0
390
0
100
AcDbBlockBegin
  2
ASSORTED_DRAFT87
 70
     0
 10
0.0
 20
0.0
 30
0.0
  3
ASSORTED_DRAFT87
  1

  0
MTEXT
  5
119
100
AcDbEntity
  8
1
390
0
  6
Continuous
 62
     7
100
AcDbMText
 10
0.689637
 20
8.015177
 30
0.0
 40
0.070866
 41
0.0
 71
     7
 72
     5
  1
\W01.000;\Fsimplex.shx;THIS COPY IS PROVIDED ON A RESTRICTED BASIS AND IS NOT TO BE USED IN ANY WAY DETRIMENTAL TO THE INTERESTS OF PANDUIT CORP.
  7
blockfont
210
0.0
220
0.0
230
1.0
 73
     2
 44
0.903614
  0
ENDBLK
  5
11A
100
AcDbEntity
  8
0
390
0
100
AcDbBlockEnd
  0
BLOCK
  5
127
100
AcDbEntity
  8
0
390
0
100
AcDbBlockBegin
  2
ASSORTED_DRAFT88
 70
     0
 10
0.0
 20
0.0
 30
0.0
  3
ASSORTED_DRAFT88
  1

  0
LINE
  5
128
100
AcDbEntity
  8
0
390
0
  6
Continuous
 62
     3
100
AcDbLine
 10
5.494578
 20
8.20386
 30
0.0
 11
5.557078
 21
8.20386
 31
0.0
  0
LINE
  5
129
100
AcDbEntity
  8
0
390
0
  6
Continuous
 62
     3
100
AcDbLine
 10
5.494578
 20
8.20886
 30
0.0
 11
5.557078
 21
8.20886
 31
0.0
  0
LINE
  5
12A
100
AcDbEntity
  8
0
390
0
  6
Continuous
 62
     3
100
AcDbLine
 10
5.494578
 20
8.21386
 30
0.0
 11
5.557078
 21
8.21386
 31
0.0
  0
LINE
  5
12B
100
AcDbEntity
  8
0
390
0
  6
Continuous
 62
     3
100
AcDbLine
 10
5.494578
 20
8.21886
 30
0.0
 11
5.557078
 21
8.21886
 31
0.0
  0
LINE
  5
12C
100
AcDbEntity
  8
0
390
0
  6
Continuous
 62
     3
100
AcDbLine
 10
5.494578
 20
8.22386
 30
0.0
 11
5.557078
 21
8.22386
 31
0.0
  0
LINE
  5
12D
100
AcDbEntity
  8
0
390
0
  6
Continuous
 62
     3
100
AcDbLine
 10
5.494578
 20
8.22886
 30
0.0
 11
5.557078
 21
8.22886
 31
0.0
  0
LINE
  5
12E
100
AcDbEntity
  8
0
390
0
  6
Continuous
 62
     3
100
AcDbLine
 10
5.494578
 20
8.23386
 30
0.0
 11
5.557078
 21
8.23386
 31
0.0
  0
LINE
  5
12F
100
AcDbEntity
  8
0
390
0
  6
Continuous
 62
     3
100
AcDbLine
 10
5.494578
 20
8.23886
 30
0.0
 11
5.557078
 21
8.23886
 31
0.0
  0
LINE
  5
130
100
AcDbEntity
  8
0
390
0
  6
Continuous
 62
     3
100
AcDbLine
 10
5.494578
 20
8.24386
 30
0.0
 11
5.557078
 21
8.24386
 31
0.0
  0
LINE
  5
131
100
AcDbEntity
  8
0
390
0
  6
Continuous
 62
     3
100
AcDbLine
 10
5.494578
 20
8.24886
 30
0.0
 11
5.557078
 21
8.24886
 31
0.0
  0
LINE
  5
132
100
AcDbEntity
  8
0
390
0
  6
Continuous
 62
     3
100
AcDbLine
 10
5.494578
 20
8.25386
 30
0.0
 11
5.557078
 21
8.25386
 31
0.0
  0
LINE
  5
133
100
AcDbEntity
  8
0
390
0
  6
Continuous
 62
     3
100
AcDbLine
 10
5.494578
 20
8.25886
 30
0.0
 11
5.557078
 21
8.25886
 31
0.0
  0
LINE
  5
134
100
AcDbEntity
  8
0
390
0
  6
Continuous
 62
     3
100
AcDbLine
 10
5.494578
 20
8.26386
 30
0.0
 11
5.557078
 21
8.26386
 31
0.0
  0
LINE
  5
135
100
AcDbEntity
  8
0
390
0
  6
Continuous
 62
     3
100
AcDbLine
 10
5.494578
 20
8.26886
 30
0.0
 11
5.557078
 21
8.26886
 31
0.0
  0
LINE
  5
136
100
AcDbEntity
  8
0
390
0
  6
Continuous
 62
     3
100
AcDbLine
 10
5.494578
 20
8.27386
 30
0.0
 11
5.557078
 21
8.27386
 31
0.0
  0
LINE
  5
137
100
AcDbEntity
  8
0
390
0
  6
Continuous
 62
     3
100
AcDbLine
 10
5.494578
 20
8.27886
 30
0.0
 11
5.557078
 21
8.27886
 31
0.0
  0
LINE
  5
138
100
AcDbEntity
  8
0
390
0
  6
Continuous
 62
     3
100
AcDbLine
 10
5.494578
 20
8.28386
 30
0.0
 11
5.557078
 21
8.28386
 31
0.0
  0
LINE
  5
139
100
AcDbEntity
  8
0
390
0
  6
Continuous
 62
     3
100
AcDbLine
 10
5.494578
 20
8.28886
 30
0.0
 11
5.557078
 21
8.28886
 31
0.0
  0
LINE
  5
13A
100
AcDbEntity
  8
0
390
0
  6
Continuous
 62
     3
100
AcDbLine
 10
5.404827
 20
8.29386
 30
0.0
 11
5.646828
 21
8.29386
 31
0.0
  0
LINE
  5
13B
100
AcDbEntity
  8
0
390
0
  6
Continuous
 62
     3
100
AcDbLine
 10
5.408827
 20
8.29886
 30
0.0
 11
5.642828
 21
8.29886
 31
0.0
  0
LINE
  5
13C
100
AcDbEntity
  8
0
390
0
  6
Continuous
 62
     3
100
AcDbLine
 10
5.412827
 20
8.30386
 30
0.0
 11
5.638828
 21
8.30386
 31
0.0
  0
LINE
  5
13D
100
AcDbEntity
  8
0
390
0
  6
Continuous
 62
     3
100
AcDbLine
 10
5.416827
 20
8.30886
 30
0.0
 11
5.634828
 21
8.30886
 31
0.0
  0
LINE
  5
13E
100
AcDbEntity
  8
0
390
0
  6
Continuous
 62
     3
100
AcDbLine
 10
5.420827
 20
8.31386
 30
0.0
 11
5.630828
 21
8.31386
 31
0.0
  0
LINE
  5
13F
100
AcDbEntity
  8
0
390
0
  6
Continuous
 62
     3
100
AcDbLine
 10
5.424827
 20
8.31886
 30
0.0
 11
5.626828
 21
8.31886
 31
0.0
  0
LINE
  5
140
100
AcDbEntity
  8
0
390
0
  6
Continuous
 62
     3
100
AcDbLine
 10
5.428827
 20
8.32386
 30
0.0
 11
5.622828
 21
8.32386
 31
0.0
  0
LINE
  5
141
100
AcDbEntity
  8
0
390
0
  6
Continuous
 62
     3
100
AcDbLine
 10
5.432827
 20
8.32886
 30
0.0
 11
5.618828
 21
8.32886
 31
0.0
  0
LINE
  5
142
100
AcDbEntity
  8
0
390
0
  6
Continuous
 62
     3
100
AcDbLine
 10
5.436827
 20
8.33386
 30
0.0
 11
5.614828
 21
8.33386
 31
0.0
  0
LINE
  5
143
100
AcDbEntity
  8
0
390
0
  6
Continuous
 62
     3
100
AcDbLine
 10
5.440827
 20
8.33886
 30
0.0
 11
5.610828
 21
8.33886
 31
0.0
  0
LINE
  5
144
100
AcDbEntity
  8
0
390
0
  6
Continuous
 62
     3
100
AcDbLine
 10
5.444827
 20
8.34386
 30
0.0
 11
5.606828
 21
8.34386
 31
0.0
  0
LINE
  5
145
100
AcDbEntity
  8
0
390
0
  6
Continuous
 62
     3
100
AcDbLine
 10
5.448827
 20
8.34886
 30
0.0
 11
5.602828
 21
8.34886
 31
0.0
  0
LINE
  5
146
100
AcDbEntity
  8
0
390
0
  6
Continuous
 62
     3
100
AcDbLine
 10
5.452827
 20
8.35386
 30
0.0
 11
5.598828
 21
8.35386
 31
0.0
  0
LINE
  5
147
100
AcDbEntity
  8
0
390
0
  6
Continuous
 62
     3
100
AcDbLine
 10
5.456827
 20
8.35886
 30
0.0
 11
5.594828
 21
8.35886
 31
0.0
  0
LINE
  5
148
100
AcDbEntity
  8
0
390
0
  6
Continuous
 62
     3
100
AcDbLine
 10
5.460827
 20
8.36386
 30
0.0
 11
5.590828
 21
8.36386
 31
0.0
  0
LINE
  5
149
100
AcDbEntity
  8
0
390
0
  6
Continuous
 62
     3
100
AcDbLine
 10
5.464827
 20
8.36886
 30
0.0
 11
5.586828
 21
8.36886
 31
0.0
  0
LINE
  5
14A
100
AcDbEntity
  8
0
390
0
  6
Continuous
 62
     3
100
AcDbLine
 10
5.468827
 20
8.37386
 30
0.0
 11
5.582828
 21
8.37386
 31
0.0
  0
LINE
  5
14B
100
AcDbEntity
  8
0
390
0
  6
Continuous
 62
     3
100
AcDbLine
 10
5.472827
 20
8.37886
 30
0.0
 11
5.578828
 21
8.37886
 31
0.0
  0
LINE
  5
14C
100
AcDbEntity
  8
0
390
0
  6
Continuous
 62
     3
100
AcDbLine
 10
5.476827
 20
8.38386
 30
0.0
 11
5.574828
 21
8.38386
 31
0.0
  0
LINE
  5
14D
100
AcDbEntity
  8
0
390
0
  6
Continuous
 62
     3
100
AcDbLine
 10
5.480827
 20
8.38886
 30
0.0
 11
5.570828
 21
8.38886
 31
0.0
  0
LINE
  5
14E
100
AcDbEntity
  8
0
390
0
  6
Continuous
 62
     3
100
AcDbLine
 10
5.484827
 20
8.39386
 30
0.0
 11
5.566828
 21
8.39386
 31
0.0
  0
LINE
  5
14F
100
AcDbEntity
  8
0
390
0
  6
Continuous
 62
     3
100
AcDbLine
 10
5.488827
 20
8.39886
 30
0.0
 11
5.562828
 21
8.39886
 31
0.0
  0
LINE
  5
150
100
AcDbEntity
  8
0
390
0
  6
Continuous
 62
     3
100
AcDbLine
 10
5.492827
 20
8.40386
 30
0.0
 11
5.558828
 21
8.40386
 31
0.0
  0
LINE
  5
151
100
AcDbEntity
  8
0
390
0
  6
Continuous
 62
     3
100
AcDbLine
 10
5.496827
 20
8.40886
 30
0.0
 11
5.554828
 21
8.40886
 31
0.0
  0
LINE
  5
152
100
AcDbEntity
  8
0
390
0
  6
Continuous
 62
     3
100
AcDbLine
 10
5.500827
 20
8.41386
 30
0.0
 11
5.550828
 21
8.41386
 31
0.0
  0
LINE
  5
153
100
AcDbEntity
  8
0
390
0
  6
Continuous
 62
     3
100
AcDbLine
 10
5.504827
 20
8.41886
 30
0.0
 11
5.546828
 21
8.41886
 31
0.0
  0
LINE
  5
154
100
AcDbEntity
  8
0
390
0
  6
Continuous
 62
     3
100
AcDbLine
 10
5.508827
 20
8.42386
 30
0.0
 11
5.542828
 21
8.42386
 31
0.0
  0
LINE
  5
155
100
AcDbEntity
  8
0
390
0
  6
Continuous
 62
     3
100
AcDbLine
 10
5.512827
 20
8.42886
 30
0.0
 11
5.538828
 21
8.42886
 31
0.0
  0
LINE
  5
156
100
AcDbEntity
  8
0
390
0
  6
Continuous
 62
     3
100
AcDbLine
 10
5.516827
 20
8.43386
 30
0.0
 11
5.534828
 21
8.43386
 31
0.0
  0
LINE
  5
157
100
AcDbEntity
  8
0
390
0
  6
Continuous
 62
     3
100
AcDbLine
 10
5.520827
 20
8.43886
 30
0.0
 11
5.530828
 21
8.43886
 31
0.0
  0
LINE
  5
158
100
AcDbEntity
  8
0
390
0
  6
Continuous
 62
     3
100
AcDbLine
 10
5.524827
 20
8.44386
 30
0.0
 11
5.526828
 21
8.44386
 31
0.0
  0
ENDBLK
  5
159
100
AcDbEntity
  8
0
390
0
100
AcDbBlockEnd
  0
BLOCK
  5
15C
100
AcDbEntity
  8
0
390
0
100
AcDbBlockBegin
  2
ASSORTED_DRAFT89
 70
     0
 10
0.0
 20
0.0
 30
0.0
  3
ASSORTED_DRAFT89
  1

  0
LINE
  5
15D
100
AcDbEntity
  8
0
390
0
  6
Continuous
 62
     3
100
AcDbLine
 10
0.210405
 20
4.10693
 30
0.0
 11
0.216655
 21
4.10693
 31
0.0
  0
LINE
  5
15E
100
AcDbEntity
  8
0
390
0
  6
Continuous
 62
     3
100
AcDbLine
 10
0.204155
 20
4.11193
 30
0.0
 11
0.216655
 21
4.11193
 31
0.0
  0
LINE
  5
15F
100
AcDbEntity
  8
0
390
0
  6
Continuous
 62
     3
100
AcDbLine
 10
0.197905
 20
4.11693
 30
0.0
 11
0.216655
 21
4.11693
 31
0.0
  0
LINE
  5
160
100
AcDbEntity
  8
0
390
0
  6
Continuous
 62
     3
100
AcDbLine
 10
0.191655
 20
4.12193
 30
0.0
 11
0.216655
 21
4.12193
 31
0.0
  0
LINE
  5
161
100
AcDbEntity
  8
0
390
0
  6
Continuous
 62
     3
100
AcDbLine
 10
0.185405
 20
4.12693
 30
0.0
 11
0.216655
 21
4.12693
 31
0.0
  0
LINE
  5
162
100
AcDbEntity
  8
0
390
0
  6
Continuous
 62
     3
100
AcDbLine
 10
0.179155
 20
4.13193
 30
0.0
 11
0.216655
 21
4.13193
 31
0.0
  0
LINE
  5
163
100
AcDbEntity
  8
0
390
0
  6
Continuous
 62
     3
100
AcDbLine
 10
0.172905
 20
4.13693
 30
0.0
 11
0.216655
 21
4.13693
 31
0.0
  0
LINE
  5
164
100
AcDbEntity
  8
0
390
0
  6
Continuous
 62
     3
100
AcDbLine
 10
0.166655
 20
4.14193
 30
0.0
 11
0.216655
 21
4.14193
 31
0.0
  0
LINE
  5
165
100
AcDbEntity
  8
0
390
0
  6
Continuous
 62
     3
100
AcDbLine
 10
0.160405
 20
4.14693
 30
0.0
 11
0.216655
 21
4.14693
 31
0.0
  0
LINE
  5
166
100
AcDbEntity
  8
0
390
0
  6
Continuous
 62
     3
100
AcDbLine
 10
0.154155
 20
4.15193
 30
0.0
 11
0.216655
 21
4.15193
 31
0.0
  0
LINE
  5
167
100
AcDbEntity
  8
0
390
0
  6
Continuous
 62
     3
100
AcDbLine
 10
0.147905
 20
4.15693
 30
0.0
 11
0.216655
 21
4.15693
 31
0.0
  0
LINE
  5
168
100
AcDbEntity
  8
0
390
0
  6
Continuous
 62
     3
100
AcDbLine
 10
0.141655
 20
4.16193
 30
0.0
 11
0.216655
 21
4.16193
 31
0.0
  0
LINE
  5
169
100
AcDbEntity
  8
0
390
0
  6
Continuous
 62
     3
100
AcDbLine
 10
0.135405
 20
4.16693
 30
0.0
 11
0.216655
 21
4.16693
 31
0.0
  0
LINE
  5
16A
100
AcDbEntity
  8
0
390
0
  6
Continuous
 62
     3
100
AcDbLine
 10
0.129155
 20
4.17193
 30
0.0
 11
0.216655
 21
4.17193
 31
0.0
  0
LINE
  5
16B
100
AcDbEntity
  8
0
390
0
  6
Continuous
 62
     3
100
AcDbLine
 10
0.122905
 20
4.17693
 30
0.0
 11
0.216655
 21
4.17693
 31
0.0
  0
LINE
  5
16C
100
AcDbEntity
  8
0
390
0
  6
Continuous
 62
     3
100
AcDbLine
 10
0.116655
 20
4.18193
 30
0.0
 11
0.216655
 21
4.18193
 31
0.0
  0
LINE
  5
16D
100
AcDbEntity
  8
0
390
0
  6
Continuous
 62
     3
100
AcDbLine
 10
0.110405
 20
4.18693
 30
0.0
 11
0.216655
 21
4.18693
 31
0.0
  0
LINE
  5
16E
100
AcDbEntity
  8
0
390
0
  6
Continuous
 62
     3
100
AcDbLine
 10
0.104155
 20
4.19193
 30
0.0
 11
0.216655
 21
4.19193
 31
0.0
  0
LINE
  5
16F
100
AcDbEntity
  8
0
390
0
  6
Continuous
 62
     3
100
AcDbLine
 10
0.097905
 20
4.19693
 30
0.0
 11
0.301655
 21
4.19693
 31
0.0
  0
LINE
  5
170
100
AcDbEntity
  8
0
390
0
  6
Continuous
 62
     3
100
AcDbLine
 10
0.091655
 20
4.20193
 30
0.0
 11
0.301655
 21
4.20193
 31
0.0
  0
LINE
  5
171
100
AcDbEntity
  8
0
390
0
  6
Continuous
 62
     3
100
AcDbLine
 10
0.085405
 20
4.20693
 30
0.0
 11
0.301655
 21
4.20693
 31
0.0
  0
LINE
  5
172
100
AcDbEntity
  8
0
390
0
  6
Continuous
 62
     3
100
AcDbLine
 10
0.079155
 20
4.21193
 30
0.0
 11
0.301655
 21
4.21193
 31
0.0
  0
LINE
  5
173
100
AcDbEntity
  8
0
390
0
  6
Continuous
 62
     3
100
AcDbLine
 10
0.072905
 20
4.21693
 30
0.0
 11
0.301655
 21
4.21693
 31
0.0
  0
LINE
  5
174
100
AcDbEntity
  8
0
390
0
  6
Continuous
 62
     3
100
AcDbLine
 10
0.066655
 20
4.22193
 30
0.0
 11
0.301655
 21
4.22193
 31
0.0
  0
LINE
  5
175
100
AcDbEntity
  8
0
390
0
  6
Continuous
 62
     3
100
AcDbLine
 10
0.060405
 20
4.22693
 30
0.0
 11
0.301655
 21
4.22693
 31
0.0
  0
LINE
  5
176
100
AcDbEntity
  8
0
390
0
  6
Continuous
 62
     3
100
AcDbLine
 10
0.066655
 20
4.23193
 30
0.0
 11
0.301655
 21
4.23193
 31
0.0
  0
LINE
  5
177
100
AcDbEntity
  8
0
390
0
  6
Continuous
 62
     3
100
AcDbLine
 10
0.072905
 20
4.23693
 30
0.0
 11
0.301655
 21
4.23693
 31
0.0
  0
LINE
  5
178
100
AcDbEntity
  8
0
390
0
  6
Continuous
 62
     3
100
AcDbLine
 10
0.079155
 20
4.24193
 30
0.0
 11
0.301655
 21
4.24193
 31
0.0
  0
LINE
  5
179
100
AcDbEntity
  8
0
390
0
  6
Continuous
 62
     3
100
AcDbLine
 10
0.085405
 20
4.24693
 30
0.0
 11
0.301655
 21
4.24693
 31
0.0
  0
LINE
  5
17A
100
AcDbEntity
  8
0
390
0
  6
Continuous
 62
     3
100
AcDbLine
 10
0.091655
 20
4.25193
 30
0.0
 11
0.301655
 21
4.25193
 31
0.0
  0
LINE
  5
17B
100
AcDbEntity
  8
0
390
0
  6
Continuous
 62
     3
100
AcDbLine
 10
0.097905
 20
4.25693
 30
0.0
 11
0.301655
 21
4.25693
 31
0.0
  0
LINE
  5
17C
100
AcDbEntity
  8
0
390
0
  6
Continuous
 62
     3
100
AcDbLine
 10
0.104155
 20
4.26193
 30
0.0
 11
0.216655
 21
4.26193
 31
0.0
  0
LINE
  5
17D
100
AcDbEntity
  8
0
390
0
  6
Continuous
 62
     3
100
AcDbLine
 10
0.216655
 20
4.26193
 30
0.0
 11
0.216655
 21
4.26193
 31
0.0
  0
LINE
  5
17E
100
AcDbEntity
  8
0
390
0
  6
Continuous
 62
     3
100
AcDbLine
 10
0.110405
 20
4.26693
 30
0.0
 11
0.216655
 21
4.26693
 31
0.0
  0
LINE
  5
17F
100
AcDbEntity
  8
0
390
0
  6
Continuous
 62
     3
100
AcDbLine
 10
0.216655
 20
4.26693
 30
0.0
 11
0.216655
 21
4.26693
 31
0.0
  0
LINE
  5
180
100
AcDbEntity
  8
0
390
0
  6
Continuous
 62
     3
100
AcDbLine
 10
0.116655
 20
4.27193
 30
0.0
 11
0.216655
 21
4.27193
 31
0.0
  0
LINE
  5
181
100
AcDbEntity
  8
0
390
0
  6
Continuous
 62
     3
100
AcDbLine
 10
0.216655
 20
4.27193
 30
0.0
 11
0.216655
 21
4.27193
 31
0.0
  0
LINE
  5
182
100
AcDbEntity
  8
0
390
0
  6
Continuous
 62
     3
100
AcDbLine
 10
0.122905
 20
4.27693
 30
0.0
 11
0.216655
 21
4.27693
 31
0.0
  0
LINE
  5
183
100
AcDbEntity
  8
0
390
0
  6
Continuous
 62
     3
100
AcDbLine
 10
0.216655
 20
4.27693
 30
0.0
 11
0.216655
 21
4.27693
 31
0.0
  0
LINE
  5
184
100
AcDbEntity
  8
0
390
0
  6
Continuous
 62
     3
100
AcDbLine
 10
0.129155
 20
4.28193
 30
0.0
 11
0.216655
 21
4.28193
 31
0.0
  0
LINE
  5
185
100
AcDbEntity
  8
0
390
0
  6
Continuous
 62
     3
100
AcDbLine
 10
0.216655
 20
4.28193
 30
0.0
 11
0.216655
 21
4.28193
 31
0.0
  0
LINE
  5
186
100
AcDbEntity
  8
0
390
0
  6
Continuous
 62
     3
100
AcDbLine
 10
0.135405
 20
4.28693
 30
0.0
 11
0.216655
 21
4.28693
 31
0.0
  0
LINE
  5
187
100
AcDbEntity
  8
0
390
0
  6
Continuous
 62
     3
100
AcDbLine
 10
0.216655
 20
4.28693
 30
0.0
 11
0.216655
 21
4.28693
 31
0.0
  0
LINE
  5
188
100
AcDbEntity
  8
0
390
0
  6
Continuous
 62
     3
100
AcDbLine
 10
0.141655
 20
4.29193
 30
0.0
 11
0.216655
 21
4.29193
 31
0.0
  0
LINE
  5
189
100
AcDbEntity
  8
0
390
0
  6
Continuous
 62
     3
100
AcDbLine
 10
0.216655
 20
4.29193
 30
0.0
 11
0.216655
 21
4.29193
 31
0.0
  0
LINE
  5
18A
100
AcDbEntity
  8
0
390
0
  6
Continuous
 62
     3
100
AcDbLine
 10
0.147905
 20
4.29693
 30
0.0
 11
0.216655
 21
4.29693
 31
0.0
  0
LINE
  5
18B
100
AcDbEntity
  8
0
390
0
  6
Continuous
 62
     3
100
AcDbLine
 10
0.216655
 20
4.29693
 30
0.0
 11
0.216655
 21
4.29693
 31
0.0
  0
LINE
  5
18C
100
AcDbEntity
  8
0
390
0
  6
Continuous
 62
     3
100
AcDbLine
 10
0.154155
 20
4.30193
 30
0.0
 11
0.216655
 21
4.30193
 31
0.0
  0
LINE
  5
18D
100
AcDbEntity
  8
0
390
0
  6
Continuous
 62
     3
100
AcDbLine
 10
0.216655
 20
4.30193
 30
0.0
 11
0.216655
 21
4.30193
 31
0.0
  0
LINE
  5
18E
100
AcDbEntity
  8
0
390
0
  6
Continuous
 62
     3
100
AcDbLine
 10
0.160405
 20
4.30693
 30
0.0
 11
0.216655
 21
4.30693
 31
0.0
  0
LINE
  5
18F
100
AcDbEntity
  8
0
390
0
  6
Continuous
 62
     3
100
AcDbLine
 10
0.216655
 20
4.30693
 30
0.0
 11
0.216655
 21
4.30693
 31
0.0
  0
LINE
  5
190
100
AcDbEntity
  8
0
390
0
  6
Continuous
 62
     3
100
AcDbLine
 10
0.166655
 20
4.31193
 30
0.0
 11
0.216655
 21
4.31193
 31
0.0
  0
LINE
  5
191
100
AcDbEntity
  8
0
390
0
  6
Continuous
 62
     3
100
AcDbLine
 10
0.216655
 20
4.31193
 30
0.0
 11
0.216655
 21
4.31193
 31
0.0
  0
LINE
  5
192
100
AcDbEntity
  8
0
390
0
  6
Continuous
 62
     3
100
AcDbLine
 10
0.172905
 20
4.31693
 30
0.0
 11
0.216655
 21
4.31693
 31
0.0
  0
LINE
  5
193
100
AcDbEntity
  8
0
390
0
  6
Continuous
 62
     3
100
AcDbLine
 10
0.216655
 20
4.31693
 30
0.0
 11
0.216655
 21
4.31693
 31
0.0
  0
LINE
  5
194
100
AcDbEntity
  8
0
390
0
  6
Continuous
 62
     3
100
AcDbLine
 10
0.179155
 20
4.32193
 30
0.0
 11
0.216655
 21
4.32193
 31
0.0
  0
LINE
  5
195
100
AcDbEntity
  8
0
390
0
  6
Continuous
 62
     3
100
AcDbLine
 10
0.216655
 20
4.32193
 30
0.0
 11
0.216655
 21
4.32193
 31
0.0
  0
LINE
  5
196
100
AcDbEntity
  8
0
390
0
  6
Continuous
 62
     3
100
AcDbLine
 10
0.185405
 20
4.32693
 30
0.0
 11
0.216655
 21
4.32693
 31
0.0
  0
LINE
  5
197
100
AcDbEntity
  8
0
390
0
  6
Continuous
 62
     3
100
AcDbLine
 10
0.216655
 20
4.32693
 30
0.0
 11
0.216655
 21
4.32693
 31
0.0
  0
LINE
  5
198
100
AcDbEntity
  8
0
390
0
  6
Continuous
 62
     3
100
AcDbLine
 10
0.191655
 20
4.33193
 30
0.0
 11
0.216655
 21
4.33193
 31
0.0
  0
LINE
  5
199
100
AcDbEntity
  8
0
390
0
  6
Continuous
 62
     3
100
AcDbLine
 10
0.216655
 20
4.33193
 30
0.0
 11
0.216655
 21
4.33193
 31
0.0
  0
LINE
  5
19A
100
AcDbEntity
  8
0
390
0
  6
Continuous
 62
     3
100
AcDbLine
 10
0.197905
 20
4.33693
 30
0.0
 11
0.216655
 21
4.33693
 31
0.0
  0
LINE
  5
19B
100
AcDbEntity
  8
0
390
0
  6
Continuous
 62
     3
100
AcDbLine
 10
0.216655
 20
4.33693
 30
0.0
 11
0.216655
 21
4.33693
 31
0.0
  0
LINE
  5
19C
100
AcDbEntity
  8
0
390
0
  6
Continuous
 62
     3
100
AcDbLine
 10
0.204155
 20
4.34193
 30
0.0
 11
0.216655
 21
4.34193
 31
0.0
  0
LINE
  5
19D
100
AcDbEntity
  8
0
390
0
  6
Continuous
 62
     3
100
AcDbLine
 10
0.216655
 20
4.34193
 30
0.0
 11
0.216655
 21
4.34193
 31
0.0
  0
LINE
  5
19E
100
AcDbEntity
  8
0
390
0
  6
Continuous
 62
     3
100
AcDbLine
 10
0.210405
 20
4.34693
 30
0.0
 11
0.216655
 21
4.34693
 31
0.0
  0
LINE
  5
19F
100
AcDbEntity
  8
0
390
0
  6
Continuous
 62
     3
100
AcDbLine
 10
0.216655
 20
4.34693
 30
0.0
 11
0.216655
 21
4.34693
 31
0.0
  0
ENDBLK
  5
1A0
100
AcDbEntity
  8
0
390
0
100
AcDbBlockEnd
  0
BLOCK
  5
1A3
100
AcDbEntity
  8
0
390
0
100
AcDbBlockBegin
  2
ASSORTED_DRAFT90
 70
     0
 10
0.0
 20
0.0
 30
0.0
  3
ASSORTED_DRAFT90
  1

  0
LINE
  5
1A4
100
AcDbEntity
  8
0
390
0
  6
Continuous
 62
     3
100
AcDbLine
 10
5.521827
 20
0.01375
 30
0.0
 11
5.529827
 21
0.01375
 31
0.0
  0
LINE
  5
1A5
100
AcDbEntity
  8
0
390
0
  6
Continuous
 62
     3
100
AcDbLine
 10
5.517827
 20
0.01875
 30
0.0
 11
5.533827
 21
0.01875
 31
0.0
  0
LINE
  5
1A6
100
AcDbEntity
  8
0
390
0
  6
Continuous
 62
     3
100
AcDbLine
 10
5.513827
 20
0.02375
 30
0.0
 11
5.537827
 21
0.02375
 31
0.0
  0
LINE
  5
1A7
100
AcDbEntity
  8
0
390
0
  6
Continuous
 62
     3
100
AcDbLine
 10
5.509827
 20
0.02875
 30
0.0
 11
5.541827
 21
0.02875
 31
0.0
  0
LINE
  5
1A8
100
AcDbEntity
  8
0
390
0
  6
Continuous
 62
     3
100
AcDbLine
 10
5.505827
 20
0.03375
 30
0.0
 11
5.545827
 21
0.03375
 31
0.0
  0
LINE
  5
1A9
100
AcDbEntity
  8
0
390
0
  6
Continuous
 62
     3
100
AcDbLine
 10
5.501827
 20
0.03875
 30
0.0
 11
5.549827
 21
0.03875
 31
0.0
  0
LINE
  5
1AA
100
AcDbEntity
  8
0
390
0
  6
Continuous
 62
     3
100
AcDbLine
 10
5.497827
 20
0.04375
 30
0.0
 11
5.553827
 21
0.04375
 31
0.0
  0
LINE
  5
1AB
100
AcDbEntity
  8
0
390
0
  6
Continuous
 62
     3
100
AcDbLine
 10
5.493827
 20
0.04875
 30
0.0
 11
5.557827
 21
0.04875
 31
0.0
  0
LINE
  5
1AC
100
AcDbEntity
  8
0
390
0
  6
Continuous
 62
     3
100
AcDbLine
 10
5.489827
 20
0.05375
 30
0.0
 11
5.561827
 21
0.05375
 31
0.0
  0
LINE
  5
1AD
100
AcDbEntity
  8
0
390
0
  6
Continuous
 62
     3
100
AcDbLine
 10
5.485827
 20
0.05875
 30
0.0
 11
5.565827
 21
0.05875
 31
0.0
  0
LINE
  5
1AE
100
AcDbEntity
  8
0
390
0
  6
Continuous
 62
     3
100
AcDbLine
 10
5.481827
 20
0.06375
 30
0.0
 11
5.569827
 21
0.06375
 31
0.0
  0
LINE
  5
1AF
100
AcDbEntity
  8
0
390
0
  6
Continuous
 62
     3
100
AcDbLine
 10
5.477827
 20
0.06875
 30
0.0
 11
5.573827
 21
0.06875
 31
0.0
  0
LINE
  5
1B0
100
AcDbEntity
  8
0
390
0
  6
Continuous
 62
     3
100
AcDbLine
 10
5.473827
 20
0.07375
 30
0.0
 11
5.577827
 21
0.07375
 31
0.0
  0
LINE
  5
1B1
100
AcDbEntity
  8
0
390
0
  6
Continuous
 62
     3
100
AcDbLine
 10
5.469827
 20
0.07875
 30
0.0
 11
5.581827
 21
0.07875
 31
0.0
  0
LINE
  5
1B2
100
AcDbEntity
  8
0
390
0
  6
Continuous
 62
     3
100
AcDbLine
 10
5.465827
 20
0.08375
 30
0.0
 11
5.585827
 21
0.08375
 31
0.0
  0
LINE
  5
1B3
100
AcDbEntity
  8
0
390
0
  6
Continuous
 62
     3
100
AcDbLine
 10
5.461827
 20
0.08875
 30
0.0
 11
5.589827
 21
0.08875
 31
0.0
  0
LINE
  5
1B4
100
AcDbEntity
  8
0
390
0
  6
Continuous
 62
     3
100
AcDbLine
 10
5.457827
 20
0.09375
 30
0.0
 11
5.593827
 21
0.09375
 31
0.0
  0
LINE
  5
1B5
100
AcDbEntity
  8
0
390
0
  6
Continuous
 62
     3
100
AcDbLine
 10
5.453827
 20
0.09875
 30
0.0
 11
5.597827
 21
0.09875
 31
0.0
  0
LINE
  5
1B6
100
AcDbEntity
  8
0
390
0
  6
Continuous
 62
     3
100
AcDbLine
 10
5.449827
 20
0.10375
 30
0.0
 11
5.601827
 21
0.10375
 31
0.0
  0
LINE
  5
1B7
100
AcDbEntity
  8
0
390
0
  6
Continuous
 62
     3
100
AcDbLine
 10
5.445827
 20
0.10875
 30
0.0
 11
5.605827
 21
0.10875
 31
0.0
  0
LINE
  5
1B8
100
AcDbEntity
  8
0
390
0
  6
Continuous
 62
     3
100
AcDbLine
 10
5.441827
 20
0.11375
 30
0.0
 11
5.609827
 21
0.11375
 31
0.0
  0
LINE
  5
1B9
100
AcDbEntity
  8
0
390
0
  6
Continuous
 62
     3
100
AcDbLine
 10
5.437827
 20
0.11875
 30
0.0
 11
5.613827
 21
0.11875
 31
0.0
  0
LINE
  5
1BA
100
AcDbEntity
  8
0
390
0
  6
Continuous
 62
     3
100
AcDbLine
 10
5.433827
 20
0.12375
 30
0.0
 11
5.617827
 21
0.12375
 31
0.0
  0
LINE
  5
1BB
100
AcDbEntity
  8
0
390
0
  6
Continuous
 62
     3
100
AcDbLine
 10
5.429828
 20
0.12875
 30
0.0
 11
5.621827
 21
0.12875
 31
0.0
  0
LINE
  5
1BC
100
AcDbEntity
  8
0
390
0
  6
Continuous
 62
     3
100
AcDbLine
 10
5.425827
 20
0.13375
 30
0.0
 11
5.625827
 21
0.13375
 31
0.0
  0
LINE
  5
1BD
100
AcDbEntity
  8
0
390
0
  6
Continuous
 62
     3
100
AcDbLine
 10
5.421828
 20
0.13875
 30
0.0
 11
5.629828
 21
0.13875
 31
0.0
  0
LINE
  5
1BE
100
AcDbEntity
  8
0
390
0
  6
Continuous
 62
     3
100
AcDbLine
 10
5.417827
 20
0.14375
 30
0.0
 11
5.633827
 21
0.14375
 31
0.0
  0
LINE
  5
1BF
100
AcDbEntity
  8
0
390
0
  6
Continuous
 62
     3
100
AcDbLine
 10
5.413828
 20
0.14875
 30
0.0
 11
5.637828
 21
0.14875
 31
0.0
  0
LINE
  5
1C0
100
AcDbEntity
  8
0
390
0
  6
Continuous
 62
     3
100
AcDbLine
 10
5.409827
 20
0.15375
 30
0.0
 11
5.641827
 21
0.15375
 31
0.0
  0
LINE
  5
1C1
100
AcDbEntity
  8
0
390
0
  6
Continuous
 62
     3
100
AcDbLine
 10
5.405828
 20
0.15875
 30
0.0
 11
5.645828
 21
0.15875
 31
0.0
  0
LINE
  5
1C2
100
AcDbEntity
  8
0
390
0
  6
Continuous
 62
     3
100
AcDbLine
 10
5.401828
 20
0.16375
 30
0.0
 11
5.649827
 21
0.16375
 31
0.0
  0
LINE
  5
1C3
100
AcDbEntity
  8
0
390
0
  6
Continuous
 62
     3
100
AcDbLine
 10
5.494578
 20
0.16875
 30
0.0
 11
5.557078
 21
0.16875
 31
0.0
  0
LINE
  5
1C4
100
AcDbEntity
  8
0
390
0
  6
Continuous
 62
     3
100
AcDbLine
 10
5.494578
 20
0.17375
 30
0.0
 11
5.557078
 21
0.17375
 31
0.0
  0
LINE
  5
1C5
100
AcDbEntity
  8
0
390
0
  6
Continuous
 62
     3
100
AcDbLine
 10
5.494578
 20
0.17875
 30
0.0
 11
5.557078
 21
0.17875
 31
0.0
  0
LINE
  5
1C6
100
AcDbEntity
  8
0
390
0
  6
Continuous
 62
     3
100
AcDbLine
 10
5.494578
 20
0.18375
 30
0.0
 11
5.557078
 21
0.18375
 31
0.0
  0
LINE
  5
1C7
100
AcDbEntity
  8
0
390
0
  6
Continuous
 62
     3
100
AcDbLine
 10
5.494578
 20
0.18875
 30
0.0
 11
5.557078
 21
0.18875
 31
0.0
  0
LINE
  5
1C8
100
AcDbEntity
  8
0
390
0
  6
Continuous
 62
     3
100
AcDbLine
 10
5.494578
 20
0.19375
 30
0.0
 11
5.557078
 21
0.19375
 31
0.0
  0
LINE
  5
1C9
100
AcDbEntity
  8
0
390
0
  6
Continuous
 62
     3
100
AcDbLine
 10
5.494578
 20
0.19875
 30
0.0
 11
5.557078
 21
0.19875
 31
0.0
  0
LINE
  5
1CA
100
AcDbEntity
  8
0
390
0
  6
Continuous
 62
     3
100
AcDbLine
 10
5.494578
 20
0.20375
 30
0.0
 11
5.557078
 21
0.20375
 31
0.0
  0
LINE
  5
1CB
100
AcDbEntity
  8
0
390
0
  6
Continuous
 62
     3
100
AcDbLine
 10
5.494578
 20
0.20875
 30
0.0
 11
5.557078
 21
0.20875
 31
0.0
  0
LINE
  5
1CC
100
AcDbEntity
  8
0
390
0
  6
Continuous
 62
     3
100
AcDbLine
 10
5.494578
 20
0.21375
 30
0.0
 11
5.557078
 21
0.21375
 31
0.0
  0
LINE
  5
1CD
100
AcDbEntity
  8
0
390
0
  6
Continuous
 62
     3
100
AcDbLine
 10
5.494578
 20
0.21875
 30
0.0
 11
5.557078
 21
0.21875
 31
0.0
  0
LINE
  5
1CE
100
AcDbEntity
  8
0
390
0
  6
Continuous
 62
     3
100
AcDbLine
 10
5.494578
 20
0.22375
 30
0.0
 11
5.557078
 21
0.22375
 31
0.0
  0
LINE
  5
1CF
100
AcDbEntity
  8
0
390
0
  6
Continuous
 62
     3
100
AcDbLine
 10
5.494578
 20
0.22875
 30
0.0
 11
5.557078
 21
0.22875
 31
0.0
  0
LINE
  5
1D0
100
AcDbEntity
  8
0
390
0
  6
Continuous
 62
     3
100
AcDbLine
 10
5.494578
 20
0.23375
 30
0.0
 11
5.557078
 21
0.23375
 31
0.0
  0
LINE
  5
1D1
100
AcDbEntity
  8
0
390
0
  6
Continuous
 62
     3
100
AcDbLine
 10
5.494578
 20
0.23875
 30
0.0
 11
5.557078
 21
0.23875
 31
0.0
  0
LINE
  5
1D2
100
AcDbEntity
  8
0
390
0
  6
Continuous
 62
     3
100
AcDbLine
 10
5.494578
 20
0.24375
 30
0.0
 11
5.557078
 21
0.24375
 31
0.0
  0
LINE
  5
1D3
100
AcDbEntity
  8
0
390
0
  6
Continuous
 62
     3
100
AcDbLine
 10
5.494578
 20
0.24875
 30
0.0
 11
5.557078
 21
0.24875
 31
0.0
  0
ENDBLK
  5
1D4
100
AcDbEntity
  8
0
390
0
100
AcDbBlockEnd
  0
BLOCK
  5
1D7
100
AcDbEntity
  8
0
390
0
100
AcDbBlockBegin
  2
ASSORTED_DRAFT91
 70
     0
 10
0.0
 20
0.0
 30
0.0
  3
ASSORTED_DRAFT91
  1

  0
LINE
  5
1D8
100
AcDbEntity
  8
0
390
0
  6
Continuous
 62
     3
100
AcDbLine
 10
10.835
 20
4.10693
 30
0.0
 11
10.84125
 21
4.10693
 31
0.0
  0
LINE
  5
1D9
100
AcDbEntity
  8
0
390
0
  6
Continuous
 62
     3
100
AcDbLine
 10
10.835
 20
4.11193
 30
0.0
 11
10.8475
 21
4.11193
 31
0.0
  0
LINE
  5
1DA
100
AcDbEntity
  8
0
390
0
  6
Continuous
 62
     3
100
AcDbLine
 10
10.835
 20
4.11693
 30
0.0
 11
10.85375
 21
4.11693
 31
0.0
  0
LINE
  5
1DB
100
AcDbEntity
  8
0
390
0
  6
Continuous
 62
     3
100
AcDbLine
 10
10.835
 20
4.12193
 30
0.0
 11
10.86
 21
4.12193
 31
0.0
  0
LINE
  5
1DC
100
AcDbEntity
  8
0
390
0
  6
Continuous
 62
     3
100
AcDbLine
 10
10.835
 20
4.12693
 30
0.0
 11
10.86625
 21
4.12693
 31
0.0
  0
LINE
  5
1DD
100
AcDbEntity
  8
0
390
0
  6
Continuous
 62
     3
100
AcDbLine
 10
10.835
 20
4.13193
 30
0.0
 11
10.8725
 21
4.13193
 31
0.0
  0
LINE
  5
1DE
100
AcDbEntity
  8
0
390
0
  6
Continuous
 62
     3
100
AcDbLine
 10
10.835
 20
4.13693
 30
0.0
 11
10.87875
 21
4.13693
 31
0.0
  0
LINE
  5
1DF
100
AcDbEntity
  8
0
390
0
  6
Continuous
 62
     3
100
AcDbLine
 10
10.835
 20
4.14193
 30
0.0
 11
10.885
 21
4.14193
 31
0.0
  0
LINE
  5
1E0
100
AcDbEntity
  8
0
390
0
  6
Continuous
 62
     3
100
AcDbLine
 10
10.835
 20
4.14693
 30
0.0
 11
10.89125
 21
4.14693
 31
0.0
  0
LINE
  5
1E1
100
AcDbEntity
  8
0
390
0
  6
Continuous
 62
     3
100
AcDbLine
 10
10.835
 20
4.15193
 30
0.0
 11
10.8975
 21
4.15193
 31
0.0
  0
LINE
  5
1E2
100
AcDbEntity
  8
0
390
0
  6
Continuous
 62
     3
100
AcDbLine
 10
10.835
 20
4.15693
 30
0.0
 11
10.90375
 21
4.15693
 31
0.0
  0
LINE
  5
1E3
100
AcDbEntity
  8
0
390
0
  6
Continuous
 62
     3
100
AcDbLine
 10
10.835
 20
4.16193
 30
0.0
 11
10.91
 21
4.16193
 31
0.0
  0
LINE
  5
1E4
100
AcDbEntity
  8
0
390
0
  6
Continuous
 62
     3
100
AcDbLine
 10
10.835
 20
4.16693
 30
0.0
 11
10.91625
 21
4.16693
 31
0.0
  0
LINE
  5
1E5
100
AcDbEntity
  8
0
390
0
  6
Continuous
 62
     3
100
AcDbLine
 10
10.835
 20
4.17193
 30
0.0
 11
10.9225
 21
4.17193
 31
0.0
  0
LINE
  5
1E6
100
AcDbEntity
  8
0
390
0
  6
Continuous
 62
     3
100
AcDbLine
 10
10.835
 20
4.17693
 30
0.0
 11
10.92875
 21
4.17693
 31
0.0
  0
LINE
  5
1E7
100
AcDbEntity
  8
0
390
0
  6
Continuous
 62
     3
100
AcDbLine
 10
10.835
 20
4.18193
 30
0.0
 11
10.935
 21
4.18193
 31
0.0
  0
LINE
  5
1E8
100
AcDbEntity
  8
0
390
0
  6
Continuous
 62
     3
100
AcDbLine
 10
10.835
 20
4.18693
 30
0.0
 11
10.94125
 21
4.18693
 31
0.0
  0
LINE
  5
1E9
100
AcDbEntity
  8
0
390
0
  6
Continuous
 62
     3
100
AcDbLine
 10
10.835
 20
4.19193
 30
0.0
 11
10.9475
 21
4.19193
 31
0.0
  0
LINE
  5
1EA
100
AcDbEntity
  8
0
390
0
  6
Continuous
 62
     3
100
AcDbLine
 10
10.75
 20
4.19693
 30
0.0
 11
10.95375
 21
4.19693
 31
0.0
  0
LINE
  5
1EB
100
AcDbEntity
  8
0
390
0
  6
Continuous
 62
     3
100
AcDbLine
 10
10.75
 20
4.20193
 30
0.0
 11
10.96
 21
4.20193
 31
0.0
  0
LINE
  5
1EC
100
AcDbEntity
  8
0
390
0
  6
Continuous
 62
     3
100
AcDbLine
 10
10.75
 20
4.20693
 30
0.0
 11
10.96625
 21
4.20693
 31
0.0
  0
LINE
  5
1ED
100
AcDbEntity
  8
0
390
0
  6
Continuous
 62
     3
100
AcDbLine
 10
10.75
 20
4.21193
 30
0.0
 11
10.9725
 21
4.21193
 31
0.0
  0
LINE
  5
1EE
100
AcDbEntity
  8
0
390
0
  6
Continuous
 62
     3
100
AcDbLine
 10
10.75
 20
4.21693
 30
0.0
 11
10.97875
 21
4.21693
 31
0.0
  0
LINE
  5
1EF
100
AcDbEntity
  8
0
390
0
  6
Continuous
 62
     3
100
AcDbLine
 10
10.75
 20
4.22193
 30
0.0
 11
10.985
 21
4.22193
 31
0.0
  0
LINE
  5
1F0
100
AcDbEntity
  8
0
390
0
  6
Continuous
 62
     3
100
AcDbLine
 10
10.75
 20
4.22693
 30
0.0
 11
10.99125
 21
4.22693
 31
0.0
  0
LINE
  5
1F1
100
AcDbEntity
  8
0
390
0
  6
Continuous
 62
     3
100
AcDbLine
 10
10.75
 20
4.23193
 30
0.0
 11
10.985
 21
4.23193
 31
0.0
  0
LINE
  5
1F2
100
AcDbEntity
  8
0
390
0
  6
Continuous
 62
     3
100
AcDbLine
 10
10.75
 20
4.23693
 30
0.0
 11
10.97875
 21
4.23693
 31
0.0
  0
LINE
  5
1F3
100
AcDbEntity
  8
0
390
0
  6
Continuous
 62
     3
100
AcDbLine
 10
10.75
 20
4.24193
 30
0.0
 11
10.9725
 21
4.24193
 31
0.0
  0
LINE
  5
1F4
100
AcDbEntity
  8
0
390
0
  6
Continuous
 62
     3
100
AcDbLine
 10
10.75
 20
4.24693
 30
0.0
 11
10.96625
 21
4.24693
 31
0.0
  0
LINE
  5
1F5
100
AcDbEntity
  8
0
390
0
  6
Continuous
 62
     3
100
AcDbLine
 10
10.75
 20
4.25193
 30
0.0
 11
10.96
 21
4.25193
 31
0.0
  0
LINE
  5
1F6
100
AcDbEntity
  8
0
390
0
  6
Continuous
 62
     3
100
AcDbLine
 10
10.75
 20
4.25693
 30
0.0
 11
10.95375
 21
4.25693
 31
0.0
  0
LINE
  5
1F7
100
AcDbEntity
  8
0
390
0
  6
Continuous
 62
     3
100
AcDbLine
 10
10.835
 20
4.26193
 30
0.0
 11
10.9475
 21
4.26193
 31
0.0
  0
LINE
  5
1F8
100
AcDbEntity
  8
0
390
0
  6
Continuous
 62
     3
100
AcDbLine
 10
10.835
 20
4.26693
 30
0.0
 11
10.94125
 21
4.26693
 31
0.0
  0
LINE
  5
1F9
100
AcDbEntity
  8
0
390
0
  6
Continuous
 62
     3
100
AcDbLine
 10
10.835
 20
4.27193
 30
0.0
 11
10.935
 21
4.27193
 31
0.0
  0
LINE
  5
1FA
100
AcDbEntity
  8
0
390
0
  6
Continuous
 62
     3
100
AcDbLine
 10
10.835
 20
4.27693
 30
0.0
 11
10.92875
 21
4.27693
 31
0.0
  0
LINE
  5
1FB
100
AcDbEntity
  8
0
390
0
  6
Continuous
 62
     3
100
AcDbLine
 10
10.835
 20
4.28193
 30
0.0
 11
10.9225
 21
4.28193
 31
0.0
  0
LINE
  5
1FC
100
AcDbEntity
  8
0
390
0
  6
Continuous
 62
     3
100
AcDbLine
 10
10.835
 20
4.28693
 30
0.0
 11
10.91625
 21
4.28693
 31
0.0
  0
LINE
  5
1FD
100
AcDbEntity
  8
0
390
0
  6
Continuous
 62
     3
100
AcDbLine
 10
10.835
 20
4.29193
 30
0.0
 11
10.91
 21
4.29193
 31
0.0
  0
LINE
  5
1FE
100
AcDbEntity
  8
0
390
0
  6
Continuous
 62
     3
100
AcDbLine
 10
10.835
 20
4.29693
 30
0.0
 11
10.90375
 21
4.29693
 31
0.0
  0
LINE
  5
1FF
100
AcDbEntity
  8
0
390
0
  6
Continuous
 62
     3
100
AcDbLine
 10
10.835
 20
4.30193
 30
0.0
 11
10.8975
 21
4.30193
 31
0.0
  0
LINE
  5
200
100
AcDbEntity
  8
0
390
0
  6
Continuous
 62
     3
100
AcDbLine
 10
10.835
 20
4.30693
 30
0.0
 11
10.89125
 21
4.30693
 31
0.0
  0
LINE
  5
201
100
AcDbEntity
  8
0
390
0
  6
Continuous
 62
     3
100
AcDbLine
 10
10.835
 20
4.31193
 30
0.0
 11
10.885
 21
4.31193
 31
0.0
  0
LINE
  5
202
100
AcDbEntity
  8
0
390
0
  6
Continuous
 62
     3
100
AcDbLine
 10
10.835
 20
4.31693
 30
0.0
 11
10.87875
 21
4.31693
 31
0.0
  0
LINE
  5
203
100
AcDbEntity
  8
0
390
0
  6
Continuous
 62
     3
100
AcDbLine
 10
10.835
 20
4.32193
 30
0.0
 11
10.8725
 21
4.32193
 31
0.0
  0
LINE
  5
204
100
AcDbEntity
  8
0
390
0
  6
Continuous
 62
     3
100
AcDbLine
 10
10.835
 20
4.32693
 30
0.0
 11
10.86625
 21
4.32693
 31
0.0
  0
LINE
  5
205
100
AcDbEntity
  8
0
390
0
  6
Continuous
 62
     3
100
AcDbLine
 10
10.835
 20
4.33193
 30
0.0
 11
10.86
 21
4.33193
 31
0.0
  0
LINE
  5
206
100
AcDbEntity
  8
0
390
0
  6
Continuous
 62
     3
100
AcDbLine
 10
10.835
 20
4.33693
 30
0.0
 11
10.85375
 21
4.33693
 31
0.0
  0
LINE
  5
207
100
AcDbEntity
  8
0
390
0
  6
Continuous
 62
     3
100
AcDbLine
 10
10.835
 20
4.34193
 30
0.0
 11
10.8475
 21
4.34193
 31
0.0
  0
LINE
  5
208
100
AcDbEntity
  8
0
390
0
  6
Continuous
 62
     3
100
AcDbLine
 10
10.835
 20
4.34693
 30
0.0
 11
10.84125
 21
4.34693
 31
0.0
  0
ENDBLK
  5
209
100
AcDbEntity
  8
0
390
0
100
AcDbBlockEnd
  0
BLOCK
  5
20E
100
AcDbEntity
  8
0
390
0
100
AcDbBlockBegin
  2
ASSORTED_DRAFT92
 70
     0
 10
0.0
 20
0.0
 30
0.0
  3
ASSORTED_DRAFT92
  1

  0
MTEXT
  5
20F
100
AcDbEntity
  8
1
390
0
  6
Continuous
 62
     7
100
AcDbMText
 10
6.375401
 20
0.314102
 30
0.0
 40
0.059805
 41
0.0
 71
     8
 72
     5
  1
\W01.000;\Fsimplex.shx;OTH
  7
blockfont
210
0.0
220
0.0
230
1.0
 73
     2
 44
0.903614
  0
ENDBLK
  5
210
100
AcDbEntity
  8
0
390
0
100
AcDbBlockEnd
  0
BLOCK
  5
221
100
AcDbEntity
  8
0
390
0
100
AcDbBlockBegin
  2
ASSORTED_DRAFT93
 70
     0
 10
0.0
 20
0.0
 30
0.0
  3
ASSORTED_DRAFT93
  1

  0
MTEXT
  5
222
100
AcDbEntity
  8
1
390
0
  6
Continuous
 62
     7
100
AcDbMText
 10
0.395758
 20
0.314102
 30
0.0
 40
0.059805
 41
0.0
 71
     7
 72
     5
  1
\W01.000;\Fsimplex.shx;REV
  7
blockfont
210
0.0
220
0.0
230
1.0
 73
     2
 44
0.903614
  0
ENDBLK
  5
223
100
AcDbEntity
  8
0
390
0
100
AcDbBlockEnd
  0
BLOCK
  5
226
100
AcDbEntity
  8
0
390
0
100
AcDbBlockBegin
  2
ASSORTED_DRAFT94
 70
     0
 10
0.0
 20
0.0
 30
0.0
  3
ASSORTED_DRAFT94
  1

  0
MTEXT
  5
227
100
AcDbEntity
  8
1
390
0
  6
Continuous
 62
     7
100
AcDbMText
 10
0.737996
 20
0.314102
 30
0.0
 40
0.059805
 41
0.0
 71
     7
 72
     5
  1
\W01.000;\Fsimplex.shx;DATE
  7
blockfont
210
0.0
220
0.0
230
1.0
 73
     2
 44
0.903614
  0
ENDBLK
  5
228
100
AcDbEntity
  8
0
390
0
100
AcDbBlockEnd
  0
BLOCK
  5
22B
100
AcDbEntity
  8
0
390
0
100
AcDbBlockBegin
  2
ASSORTED_DRAFT95
 70
     0
 10
0.0
 20
0.0
 30
0.0
  3
ASSORTED_DRAFT95
  1

  0
MTEXT
  5
22C
100
AcDbEntity
  8
1
390
0
  6
Continuous
 62
     7
100
AcDbMText
 10
1.181665
 20
0.314102
 30
0.0
 40
0.059805
 41
0.0
 71
     7
 72
     5
  1
\W01.000;\Fsimplex.shx;BY
  7
blockfont
210
0.0
220
0.0
230
1.0
 73
     2
 44
0.903614
  0
ENDBLK
  5
22D
100
AcDbEntity
  8
0
390
0
100
AcDbBlockEnd
  0
BLOCK
  5
230
100
AcDbEntity
  8
0
390
0
100
AcDbBlockBegin
  2
ASSORTED_DRAFT96
 70
     0
 10
0.0
 20
0.0
 30
0.0
  3
ASSORTED_DRAFT96
  1

  0
MTEXT
  5
231
100
AcDbEntity
  8
1
390
0
  6
Continuous
 62
     7
100
AcDbMText
 10
1.490291
 20
0.314102
 30
0.0
 40
0.059805
 41
0.0
 71
     7
 72
     5
  1
\W01.000;\Fsimplex.shx;CHK
  7
blockfont
210
0.0
220
0.0
230
1.0
 73
     2
 44
0.903614
  0
ENDBLK
  5
232
100
AcDbEntity
  8
0
390
0
100
AcDbBlockEnd
  0
BLOCK
  5
235
100
AcDbEntity
  8
0
390
0
100
AcDbBlockBegin
  2
ASSORTED_DRAFT97
 70
     0
 10
0.0
 20
0.0
 30
0.0
  3
ASSORTED_DRAFT97
  1

  0
MTEXT
  5
236
100
AcDbEntity
  8
1
390
0
  6
Continuous
 62
     7
100
AcDbMText
 10
2.764402
 20
0.314102
 30
0.0
 40
0.059805
 41
0.0
 71
     7
 72
     5
  1
\W01.000;\Fsimplex.shx;DESCRIPTION
  7
blockfont
210
0.0
220
0.0
230
1.0
 73
     2
 44
0.903614
  0
ENDBLK
  5
237
100
AcDbEntity
  8
0
390
0
100
AcDbBlockEnd
  0
BLOCK
  5
23A
100
AcDbEntity
  8
0
390
0
100
AcDbBlockBegin
  2
ASSORTED_DRAFT98
 70
     0
 10
0.0
 20
0.0
 30
0.0
  3
ASSORTED_DRAFT98
  1

  0
MTEXT
  5
23B
100
AcDbEntity
  8
1
390
0
  6
Continuous
 62
     7
100
AcDbMText
 10
4.725963
 20
0.314102
 30
0.0
 40
0.059805
 41
0.0
 71
     7
 72
     5
  1
\W01.000;\Fsimplex.shx;ECN
  7
blockfont
210
0.0
220
0.0
230
1.0
 73
     2
 44
0.903614
  0
ENDBLK
  5
23C
100
AcDbEntity
  8
0
390
0
100
AcDbBlockEnd
  0
BLOCK
  5
23F
100
AcDbEntity
  8
0
390
0
100
AcDbBlockBegin
  2
ASSORTED_DRAFT99
 70
     0
 10
0.0
 20
0.0
 30
0.0
  3
ASSORTED_DRAFT99
  1

  0
MTEXT
  5
240
100
AcDbEntity
  8
1
390
0
  6
Continuous
 62
     7
100
AcDbMText
 10
5.233606
 20
0.314102
 30
0.0
 40
0.059805
 41
0.0
 71
     7
 72
     5
  1
\W01.000;\Fsimplex.shx;R
  7
blockfont
210
0.0
220
0.0
230
1.0
 73
     2
 44
0.903614
  0
ENDBLK
  5
241
100
AcDbEntity
  8
0
390
0
100
AcDbBlockEnd
  0
BLOCK
  5
244
100
AcDbEntity
  8
0
390
0
100
AcDbBlockBegin
  2
ASSORTED_DRAFT100
 70
     0
 10
0.0
 20
0.0
 30
0.0
  3
ASSORTED_DRAFT100
  1

  0
MTEXT
  5
245
100
AcDbEntity
  8
1
390
0
  6
Continuous
 62
     7
100
AcDbMText
 10
5.049683
 20
0.314102
 30
0.0
 40
0.059805
 41
0.0
 71
     7
 72
     5
  1
\W01.000;\Fsimplex.shx;-
  7
blockfont
210
0.0
220
0.0
230
1.0
 73
     2
 44
0.903614
  0
ENDBLK
  5
246
100
AcDbEntity
  8
0
390
0
100
AcDbBlockEnd
  0
BLOCK
  5
249
100
AcDbEntity
  8
0
390
0
100
AcDbBlockBegin
  2
ASSORTED_DRAFT101
 70
     0
 10
0.0
 20
0.0
 30
0.0
  3
ASSORTED_DRAFT101
  1

  0
MTEXT
  5
24A
100
AcDbEntity
  8
1
390
0
  6
Continuous
 62
     7
100
AcDbMText
 10
5.484391
 20
0.314102
 30
0.0
 40
0.059805
 41
0.0
 71
     7
 72
     5
  1
\W01.000;\Fsimplex.shx;CUST
  7
blockfont
210
0.0
220
0.0
230
1.0
 73
     2
 44
0.903614
  0
ENDBLK
  5
24B
100
AcDbEntity
  8
0
390
0
100
AcDbBlockEnd
  0
BLOCK
  5
24E
100
AcDbEntity
  8
0
390
0
100
AcDbBlockBegin
  2
ASSORTED_DRAFT102
 70
     0
 10
0.0
 20
0.0
 30
0.0
  3
ASSORTED_DRAFT102
  1

  0
MTEXT
  5
24F
100
AcDbEntity
  8
1
390
0
  6
Continuous
 62
     7
100
AcDbMText
 10
5.901821
 20
0.314102
 30
0.0
 40
0.059805
 41
0.0
 71
     7
 72
     5
  1
\W01.000;\Fsimplex.shx;SUP
  7
blockfont
210
0.0
220
0.0
230
1.0
 73
     2
 44
0.903614
  0
ENDBLK
  5
250
100
AcDbEntity
  8
0
390
0
100
AcDbBlockEnd
  0
BLOCK
  5
253
100
AcDbEntity
  8
0
390
0
100
AcDbBlockBegin
  2
ASSORTED_DRAFT103
 70
     0
 10
0.0
 20
0.0
 30
0.0
  3
ASSORTED_DRAFT103
  1

  0
MTEXT
  5
254
100
AcDbEntity
  8
1
390
0
  6
Continuous
 62
     7
100
AcDbMText
 10
10.497983
 20
0.386425
 30
0.0
 40
0.149512
 41
0.0
 71
     7
 72
     5
  1
\W01.000;\Fsimplex.shx;A
  7
blockfont
210
0.0
220
0.0
230
1.0
 73
     2
 44
0.903614
  0
ENDBLK
  5
255
100
AcDbEntity
  8
0
390
0
100
AcDbBlockEnd
  0
BLOCK
  5
258
100
AcDbEntity
  8
0
390
0
100
AcDbBlockBegin
  2
ASSORTED_DRAFT104
 70
     0
 10
0.0
 20
0.0
 30
0.0
  3
ASSORTED_DRAFT104
  1

  0
MTEXT
  5
259
100
AcDbEntity
  8
1
390
0
  6
Continuous
 62
     7
100
AcDbMText
 10
10.484706
 20
0.649206
 30
0.0
 40
0.037378
 41
0.0
 71
     7
 72
     5
  1
\W01.000;\Fsimplex.shx;DWG
  7
blockfont
210
0.0
220
0.0
230
1.0
 73
     2
 44
0.903614
  0
ENDBLK
  5
25A
100
AcDbEntity
  8
0
390
0
100
AcDbBlockEnd
  0
BLOCK
  5
25D
100
AcDbEntity
  8
0
390
0
100
AcDbBlockBegin
  2
ASSORTED_DRAFT105
 70
     0
 10
0.0
 20
0.0
 30
0.0
  3
ASSORTED_DRAFT105
  1

  0
MTEXT
  5
25E
100
AcDbEntity
  8
1
390
0
  6
Continuous
 62
     7
100
AcDbMText
 10
10.464343
 20
0.308016
 30
0.0
 40
0.037378
 41
0.0
 71
     7
 72
     5
  1
\W01.000;\Fsimplex.shx;SIZE
  7
blockfont
210
0.0
220
0.0
230
1.0
 73
     2
 44
0.903614
  0
ENDBLK
  5
25F
100
AcDbEntity
  8
0
390
0
100
AcDbBlockEnd
  0
BLOCK
  5
262
100
AcDbEntity
  8
0
390
0
100
AcDbBlockBegin
  2
ASSORTED_DRAFT106
 70
     0
 10
0.0
 20
0.0
 30
0.0
  3
ASSORTED_DRAFT106
  1

  0
MTEXT
  5
263
100
AcDbEntity
  8
1
390
0
  6
Continuous
 62
     7
100
AcDbMText
 10
9.223454
 20
0.927089
 30
0.0
 40
0.037378
 41
0.0
 71
     7
 72
     5
  1
\W01.000;\Fsimplex.shx;SCALE
  7
blockfont
210
0.0
220
0.0
230
1.0
 73
     2
 44
0.903614
  0
ENDBLK
  5
264
100
AcDbEntity
  8
0
390
0
100
AcDbBlockEnd
  0
BLOCK
  5
267
100
AcDbEntity
  8
0
390
0
100
AcDbBlockBegin
  2
ASSORTED_DRAFT107
 70
     0
 10
0.0
 20
0.0
 30
0.0
  3
ASSORTED_DRAFT107
  1

  0
MTEXT
  5
268
100
AcDbEntity
  8
1
390
0
  6
Continuous
 62
     7
100
AcDbMText
 10
9.22389
 20
0.683192
 30
0.0
 40
0.037378
 41
0.0
 71
     7
 72
     5
  1
\W01.000;\Fsimplex.shx;DRAWING NO.
  7
blockfont
210
0.0
220
0.0
230
1.0
 73
     2
 44
0.903614
  0
ENDBLK
  5
269
100
AcDbEntity
  8
0
390
0
100
AcDbBlockEnd
  0
BLOCK
  5
26C
100
AcDbEntity
  8
0
390
0
100
AcDbBlockBegin
  2
ASSORTED_DRAFT108
 70
     0
 10
0.0
 20
0.0
 30
0.0
  3
ASSORTED_DRAFT108
  1

  0
MTEXT
  5
26D
100
AcDbEntity
  8
1
390
0
  6
Continuous
 62
     7
100
AcDbMText
 10
6.636288
 20
0.931754
 30
0.0
 40
0.037378
 41
0.0
 71
     7
 72
     5
  1
\W01.000;\Fsimplex.shx;DRAWN BY
  7
blockfont
210
0.0
220
0.0
230
1.0
 73
     2
 44
0.903614
  0
ENDBLK
  5
26E
100
AcDbEntity
  8
0
390
0
100
AcDbBlockEnd
  0
BLOCK
  5
271
100
AcDbEntity
  8
0
390
0
100
AcDbBlockBegin
  2
ASSORTED_DRAFT109
 70
     0
 10
0.0
 20
0.0
 30
0.0
  3
ASSORTED_DRAFT109
  1

  0
MTEXT
  5
272
100
AcDbEntity
  8
1
390
0
  6
Continuous
 62
     7
100
AcDbMText
 10
6.63844
 20
0.683858
 30
0.0
 40
0.037378
 41
0.0
 71
     7
 72
     5
  1
\W01.000;\Fsimplex.shx;DATE
  7
blockfont
210
0.0
220
0.0
230
1.0
 73
     2
 44
0.903614
  0
ENDBLK
  5
273
100
AcDbEntity
  8
0
390
0
100
AcDbBlockEnd
  0
BLOCK
  5
276
100
AcDbEntity
  8
0
390
0
100
AcDbBlockBegin
  2
ASSORTED_DRAFT110
 70
     0
 10
0.0
 20
0.0
 30
0.0
  3
ASSORTED_DRAFT110
  1

  0
MTEXT
  5
277
100
AcDbEntity
  8
1
390
0
  6
Continuous
 62
     7
100
AcDbMText
 10
6.637402
 20
0.440627
 30
0.0
 40
0.037378
 41
0.0
 71
     7
 72
     5
  1
\W01.000;\Fsimplex.shx;CHK'D
  7
blockfont
210
0.0
220
0.0
230
1.0
 73
     2
 44
0.903614
  0
ENDBLK
  5
278
100
AcDbEntity
  8
0
390
0
100
AcDbBlockEnd
  0
BLOCK
  5
27B
100
AcDbEntity
  8
0
390
0
100
AcDbBlockBegin
  2
ASSORTED_DRAFT111
 70
     0
 10
0.0
 20
0.0
 30
0.0
  3
ASSORTED_DRAFT111
  1

  0
MTEXT
  5
27C
100
AcDbEntity
  8
1
390
0
  6
Continuous
 62
     7
100
AcDbMText
 10
9.223092
 20
1.409566
 30
0.0
 40
0.037378
 41
0.0
 71
     7
 72
     5
  1
\W01.000;\Fsimplex.shx;UNLESS OTHERWISE SPECIFIED,
  7
blockfont
210
0.0
220
0.0
230
1.0
 73
     2
 44
0.903614
  0
ENDBLK
  5
27D
100
AcDbEntity
  8
0
390
0
100
AcDbBlockEnd
  0
BLOCK
  5
280
100
AcDbEntity
  8
0
390
0
100
AcDbBlockBegin
  2
ASSORTED_DRAFT112
 70
     0
 10
0.0
 20
0.0
 30
0.0
  3
ASSORTED_DRAFT112
  1

  0
MTEXT
  5
281
100
AcDbEntity
  8
1
390
0
  6
Continuous
 62
     7
100
AcDbMText
 10
9.219542
 20
1.254298
 30
0.0
 40
0.037378
 41
0.0
 71
     7
 72
     5
  1
\W01.000;\Fsimplex.shx;ALL DIMENSIONS ARE GIVEN
  7
blockfont
210
0.0
220
0.0
230
1.0
 73
     2
 44
0.903614
  0
ENDBLK
  5
282
100
AcDbEntity
  8
0
390
0
100
AcDbBlockEnd
  0
BLOCK
  5
285
100
AcDbEntity
  8
0
390
0
100
AcDbBlockBegin
  2
ASSORTED_DRAFT113
 70
     0
 10
0.0
 20
0.0
 30
0.0
  3
ASSORTED_DRAFT113
  1

  0
MTEXT
  5
286
100
AcDbEntity
  8
1
390
0
  6
Continuous
 62
     7
100
AcDbMText
 10
9.204498
 20
1.095031
 30
0.0
 40
0.037378
 41
0.0
 71
     7
 72
     5
  1
\W01.000;\Fsimplex.shx;IN INCHES, THIRD ANGLE PROJECTION.
  7
blockfont
210
0.0
220
0.0
230
1.0
 73
     2
 44
0.903614
  0
ENDBLK
  5
287
100
AcDbEntity
  8
0
390
0
100
AcDbBlockEnd
  0
BLOCK
  5
28A
100
AcDbEntity
  8
0
390
0
100
AcDbBlockBegin
  2
ASSORTED_DRAFT114
 70
     0
 10
0.0
 20
0.0
 30
0.0
  3
ASSORTED_DRAFT114
  1

  0
MTEXT
  5
28B
100
AcDbEntity
  8
1
390
0
  6
Continuous
 62
     7
100
AcDbMText
 10
6.758117
 20
2.025067
 30
0.0
 40
0.336401
 41
0.0
 71
     7
 72
     5
  1
\W01.000;\Fsimplex.shx;P
  7
blockfont
210
0.0
220
0.0
230
1.0
 73
     2
 44
0.903614
  0
ENDBLK
  5
28C
100
AcDbEntity
  8
0
390
0
100
AcDbBlockEnd
  0
BLOCK
  5
28F
100
AcDbEntity
  8
0
390
0
100
AcDbBlockBegin
  2
ASSORTED_DRAFT115
 70
     0
 10
0.0
 20
0.0
 30
0.0
  3
ASSORTED_DRAFT115
  1

  0
MTEXT
  5
290
100
AcDbEntity
  8
1
390
0
  6
Continuous
 62
     7
100
AcDbMText
 10
6.991983
 20
2.049207
 30
0.0
 40
0.261645
 41
0.0
 71
     7
 72
     5
  1
\W01.000;\Fsimplex.shx;ANDUIT
  7
blockfont
210
0.0
220
0.0
230
1.0
 73
     2
 44
0.903614
  0
ENDBLK
  5
291
100
AcDbEntity
  8
0
390
0
100
AcDbBlockEnd
  0
BLOCK
  5
294
100
AcDbEntity
  8
0
390
0
100
AcDbBlockBegin
  2
ASSORTED_DRAFT116
 70
     0
 10
0.0
 20
0.0
 30
0.0
  3
ASSORTED_DRAFT116
  1

  0
MTEXT
  5
295
100
AcDbEntity
  8
1
390
0
  6
Continuous
 62
     7
100
AcDbMText
 10
8.663751
 20
2.106225
 30
0.0
 40
0.074756
 41
0.0
 71
     7
 72
     5
  1
\W01.000;\Fsimplex.shx;CORP.
  7
blockfont
210
0.0
220
0.0
230
1.0
 73
     2
 44
0.903614
  0
ENDBLK
  5
296
100
AcDbEntity
  8
0
390
0
100
AcDbBlockEnd
  0
BLOCK
  5
299
100
AcDbEntity
  8
0
390
0
100
AcDbBlockBegin
  2
ASSORTED_DRAFT117
 70
     0
 10
0.0
 20
0.0
 30
0.0
  3
ASSORTED_DRAFT117
  1

  0
MTEXT
  5
29A
100
AcDbEntity
  8
1
390
0
  6
Continuous
 62
     7
100
AcDbMText
 10
9.187264
 20
2.11226
 30
0.0
 40
0.056067
 41
0.0
 71
     7
 72
     5
  1
\W01.000;\Fsimplex.shx;TINLEY PARK, ILLINOIS
  7
blockfont
210
0.0
220
0.0
230
1.0
 73
     2
 44
0.903614
  0
ENDBLK
  5
29B
100
AcDbEntity
  8
0
390
0
100
AcDbBlockEnd
  0
BLOCK
  5
29E
100
AcDbEntity
  8
0
390
0
100
AcDbBlockBegin
  2
ASSORTED_DRAFT118
 70
     0
 10
0.0
 20
0.0
 30
0.0
  3
ASSORTED_DRAFT118
  1

  0
MTEXT
  5
29F
100
AcDbEntity
  8
1
390
0
  6
Continuous
 62
     7
100
AcDbMText
 10
7.422528
 20
0.885736
 30
0.0
 40
0.056067
 41
0.0
 71
     7
 72
     5
  1
\W01.000;\Fsimplex.shx;MAT'L:
  7
blockfont
210
0.0
220
0.0
230
1.0
 73
     2
 44
0.903614
  0
ENDBLK
  5
2A0
100
AcDbEntity
  8
0
390
0
100
AcDbBlockEnd
  0
BLOCK
  5
2A3
100
AcDbEntity
  8
0
390
0
100
AcDbBlockBegin
  2
ASSORTED_DRAFT119
 70
     0
 10
0.0
 20
0.0
 30
0.0
  3
ASSORTED_DRAFT119
  1

  0
MTEXT
  5
2A4
100
AcDbEntity
  8
1
390
0
  6
Continuous
 62
     7
100
AcDbMText
 10
0.689637
 20
8.015177
 30
0.0
 40
0.070866
 41
0.0
 71
     7
 72
     5
  1
\W01.000;\Fsimplex.shx;THIS COPY IS PROVIDED ON A RESTRICTED BASIS AND IS NOT TO BE USED IN ANY WAY DETRIMENTAL TO THE INTERESTS OF PANDUIT CORP.
  7
blockfont
210
0.0
220
0.0
230
1.0
 73
     2
 44
0.903614
  0
ENDBLK
  5
2A5
100
AcDbEntity
  8
0
390
0
100
AcDbBlockEnd
  0
BLOCK
  5
2A8
100
AcDbEntity
  8
0
390
0
100
AcDbBlockBegin
  2
ASSORTED_DRAFT120
 70
     0
 10
0.0
 20
0.0
 30
0.0
  3
ASSORTED_DRAFT120
  1

  0
MTEXT
  5
2A9
100
AcDbEntity
  8
1
390
0
  6
Continuous
 62
     7
100
AcDbMText
 10
6.375401
 20
0.314102
 30
0.0
 40
0.059805
 41
0.0
 71
     8
 72
     5
  1
\W01.000;\Fsimplex.shx;OTH
  7
blockfont
210
0.0
220
0.0
230
1.0
 73
     2
 44
0.903614
  0
ENDBLK
  5
2AA
100
AcDbEntity
  8
0
390
0
100
AcDbBlockEnd
  0
BLOCK
  5
2C4
100
AcDbEntity
  8
0
390
0
100
AcDbBlockBegin
  2
V10290EG_SMGMTPOST_02_MODEL
 70
     0
 10
0.0
 20
0.0
 30
0.0
  3

  1

  0
SPLINE
  5
2C5
100
AcDbEntity
  8
1
390
0
  6
Continuous
 62
     3
100
AcDbSpline
210
0.0
220
0.0
230
1.0
 70
     0
 71
     3
 72
     8
 73
     4
 74
     0
 42
0.000001
 43
0.000001
 40
0.0
 40
0.0
 40
0.0
 40
0.0
 40
1.0
 40
1.0
 40
1.0
 40
1.0
 10
-0.0428794598059906
 20
0.8259851301115241
 30
4.0749999999999966
 10
-0.0428969722591912
 20
0.8325826489531671
 30
4.0749999999999966
 10
-0.0426034490831402
 20
0.8371815893177943
 30
4.0749999999999966
 10
-0.041164250276603
 20
0.8415577019537637
 30
4.0749999999999948
  0
LINE
  5
2C6
100
AcDbEntity
  8
1
390
0
  6
Continuous
 62
     3
100
AcDbLine
 10
0.1
 20
-0.053687
 30
1.75
 11
0.1
 21
-0.053687
 31
1.735
  0
SPLINE
  5
2C7
100
AcDbEntity
  8
1
390
0
  6
Continuous
 62
     3
100
AcDbSpline
210
0.0
220
0.0
230
1.0
 70
     0
 71
     2
 72
     6
 73
     3
 74
     0
 42
0.000001
 43
0.000001
 40
0.0
 40
0.0
 40
0.0
 40
1.0
 40
1.0
 40
1.0
 10
0.0316654980508449
 20
0.9428269072823351
 30
4.0752914489699048
 10
0.0318640123875846
 20
0.9424785371365185
 30
4.0707084954995754
 10
0.0321112804878049
 20
0.9420446096654274
 30
4.0649999999999995
  0
LINE
  5
2C8
100
AcDbEntity
  8
1
390
0
  6
Continuous
 62
     3
100
AcDbLine
 10
-0.013976
 20
-0.65461
 30
4.075
 11
-0.013976
 21
-0.63585
 31
4.075
  0
LINE
  5
2C9
100
AcDbEntity
  8
1
390
0
  6
Continuous
 62
     3
100
AcDbLine
 10
-0.059125
 20
-1.106625
 30
4.075
 11
-0.059125
 21
-1.024162
 31
4.075
  0
LINE
  5
2CA
100
AcDbEntity
  8
1
390
0
  6
Continuous
 62
     3
100
AcDbLine
 10
0.004247
 20
1.060652
 30
4.075
 11
0.004247
 21
1.060652
 31
4.065
  0
SPLINE
  5
2CB
100
AcDbEntity
  8
1
390
0
  6
Continuous
 62
     3
100
AcDbSpline
210
0.0
220
0.0
230
1.0
 70
     0
 71
     3
 72
     8
 73
     4
 74
     0
 42
0.000001
 43
0.000001
 40
0.0
 40
0.0
 40
0.0
 40
0.0
 40
1.0
 40
1.0
 40
1.0
 40
1.0
 10
-0.0420045731707314
 20
0.7631970260223044
 30
4.0649999999999968
 10
-0.038315548780426
 20
0.7599999999958647
 30
4.0649999999999968
 10
-0.0339557926735352
 20
0.7566171003881826
 30
4.0649999999999968
 10
-0.0289672256097561
 20
0.7530855018587358
 30
4.0649999999999977
  0
LINE
  5
2CC
100
AcDbEntity
  8
1
390
0
  6
Continuous
 62
     3
100
AcDbLine
 10
-0.015446
 20
-0.782425
 30
4.075
 11
0.043601
 21
-0.782425
 31
4.075
  0
SPLINE
  5
2CD
100
AcDbEntity
  8
1
390
0
  6
Continuous
 62
     3
100
AcDbSpline
210
0.0
220
0.0
230
1.0
 70
     0
 71
     3
 72
     8
 73
     4
 74
     0
 42
0.000001
 43
0.000001
 40
0.0
 40
0.0
 40
0.0
 40
0.0
 40
1.0
 40
1.0
 40
1.0
 40
1.0
 10
-0.0384304052275588
 20
0.9454892589258181
 30
4.0749999999999993
 10
-0.0349066312436235
 20
0.9490046976897482
 30
4.0749999999999993
 10
-0.0303764736506588
 20
0.9507633630192479
 30
4.0749999999999993
 10
-0.0249847560975609
 20
0.9507633624716902
 30
4.0749999999999993
  0
LINE
  5
2CE
100
AcDbEntity
  8
1
390
0
  6
Continuous
 62
     3
100
AcDbLine
 10
-0.013101
 20
-0.636725
 30
4.065
 11
-0.013976
 21
-0.63585
 31
4.075
  0
ARC
  5
2CF
100
AcDbEntity
  8
1
390
0
  6
Continuous
 62
     3
100
AcDbCircle
 10
-0.018729
 20
-1.024239
 30
4.075
 40
0.040397
100
AcDbArc
 50
107.662819
 51
179.890024
  0
LINE
  5
2D0
100
AcDbEntity
  8
1
390
0
  6
Continuous
 62
     3
100
AcDbLine
 10
0.055
 20
0.703086
 30
4.065
 11
0.055
 21
0.780223
 31
4.065
  0
LINE
  5
2D1
100
AcDbEntity
  8
1
390
0
  6
Continuous
 62
     3
100
AcDbLine
 10
0.054125
 20
0.70396
 30
4.075
 11
0.054125
 21
0.779348
 31
4.075
  0
SPLINE
  5
2D2
100
AcDbEntity
  8
1
390
0
  6
Continuous
 62
     3
100
AcDbSpline
210
0.0
220
0.0
230
1.0
 70
     0
 71
     1
 72
     4
 73
     2
 74
     0
 42
0.000001
 43
0.000001
 40
0.0
 40
0.0
 40
1.0
 40
1.0
 10
0.0327425623240499
 20
0.8527212903113949
 30
4.0749999999999993
 10
0.039200132179749
 20
0.8475275355938989
 30
4.0749999999999993
  0
LINE
  5
2D3
100
AcDbEntity
  8
1
390
0
  6
Continuous
 62
     3
100
AcDbLine
 10
-0.03186
 20
-0.655484
 30
4.065
 11
-0.03186
 21
-0.58748
 31
4.065
  0
LINE
  5
2D4
100
AcDbEntity
  8
1
390
0
  6
Continuous
 62
     3
100
AcDbLine
 10
-0.03186
 20
-0.721143
 30
4.065
 11
-0.03186
 21
-0.701962
 31
4.065
  0
LINE
  5
2D5
100
AcDbEntity
  8
1
390
0
  6
Continuous
 62
     3
100
AcDbLine
 10
0.075875
 20
0.599125
 30
4.075
 11
0.075875
 21
1.100875
 31
4.075
  0
LINE
  5
2D6
100
AcDbEntity
  8
1
390
0
  6
Continuous
 62
     3
100
AcDbLine
 10
0.060015
 20
-1.053566
 30
4.065
 11
0.060015
 21
-1.1075
 31
4.065
  0
LINE
  5
2D7
100
AcDbEntity
  8
1
390
0
  6
Continuous
 62
     3
100
AcDbLine
 10
0.001421
 20
-0.887073
 30
4.065
 11
-0.03186
 21
-0.887073
 31
4.065
  0
LINE
  5
2D8
100
AcDbEntity
  8
1
390
0
  6
Continuous
 62
     3
100
AcDbLine
 10
-0.000176
 20
1.036207
 30
4.075
 11
-0.000176
 21
1.036207
 31
4.065
  0
LINE
  5
2D9
100
AcDbEntity
  8
1
390
0
  6
Continuous
 62
     3
100
AcDbLine
 10
-0.0775
 20
-1.125
 30
4.065
 11
0.0775
 21
-1.125
 31
4.065
  0
SPLINE
  5
2DA
100
AcDbEntity
  8
1
390
0
  6
Continuous
 62
     3
100
AcDbSpline
210
0.0
220
0.0
230
1.0
 70
     0
 71
     1
 72
     4
 73
     2
 74
     0
 42
0.000001
 43
0.000001
 40
0.0
 40
0.0
 40
1.0
 40
1.0
 10
-0.0077020698876283
 20
0.9400384983483101
 30
4.0749999999999327
 10
-0.0055809060476734
 20
0.9258736059479552
 30
4.0749999999999327
  0
LINE
  5
2DB
100
AcDbEntity
  8
1
390
0
  6
Continuous
 62
     3
100
AcDbLine
 10
-0.002548
 20
-1.035979
 30
4.065
 11
-0.002548
 21
-1.035104
 31
4.075
  0
LINE
  5
2DC
100
AcDbEntity
  8
1
390
0
  6
Continuous
 62
     3
100
AcDbLine
 10
0.060015
 20
-0.891294
 30
4.065
 11
0.05914
 21
-0.890719
 31
4.075
  0
LINE
  5
2DD
100
AcDbEntity
  8
1
390
0
  6
Continuous
 62
     3
100
AcDbLine
 10
0.043601
 20
-0.78155
 30
4.065
 11
0.043601
 21
-0.782425
 31
4.075
  0
LINE
  5
2DE
100
AcDbEntity
  8
1
390
0
  6
Continuous
 62
     3
100
AcDbLine
 10
-0.012679
 20
-0.812996
 30
4.065
 11
-0.013553
 21
-0.812996
 31
4.075
  0
LINE
  5
2DF
100
AcDbEntity
  8
1
390
0
  6
Continuous
 62
     3
100
AcDbLine
 10
0.198775
 20
0.224696
 30
4.003922
 11
0.296677
 21
0.299429
 31
4.005227
  0
LINE
  5
2E0
100
AcDbEntity
  8
1
390
0
  6
Continuous
 62
     3
100
AcDbLine
 10
-0.03186
 20
-0.737136
 30
4.065
 11
-0.030986
 21
-0.738011
 31
4.075
  0
ELLIPSE
  5
2E1
100
AcDbEntity
  8
1
390
0
  6
Continuous
 62
     3
100
AcDbEllipse
 10
0.0
 20
0.0
 30
5.661584
 11
-0.1821185994620046
 21
-0.2383963416875307
 31
8.5908759848746801
210
-0.6066921924396408
220
-0.7941703902580946
230
-0.034899496702501
 40
0.034899
 41
1.7595068575784651
 42
1.764970263531805
  0
LINE
  5
2E2
100
AcDbEntity
  8
1
390
0
  6
Continuous
 62
     3
100
AcDbLine
 10
-0.054125
 20
0.830186
 30
4.075
 11
-0.054125
 21
0.794481
 31
4.075
  0
LINE
  5
2E3
100
AcDbEntity
  8
1
390
0
  6
Continuous
 62
     3
100
AcDbLine
 10
-0.298254
 20
-0.298666
 30
4.05
 11
-0.296677
 21
-0.299429
 31
4.005227
  0
SPLINE
  5
2E4
100
AcDbEntity
  8
1
390
0
  6
Continuous
 62
     3
100
AcDbSpline
210
0.0
220
0.0
230
1.0
 70
     0
 71
     3
 72
     8
 73
     4
 74
     0
 42
0.000001
 43
0.000001
 40
0.0
 40
0.0
 40
0.0
 40
0.0
 40
1.0
 40
1.0
 40
1.0
 40
1.0
 10
0.036717477545983
 20
1.0311296106440062
 30
4.0649999999999995
 10
0.0334417178512209
 20
1.0274853279835834
 30
4.0649999999999995
 10
0.0280367143548635
 20
1.0249056672239583
 30
4.0649999999999995
 10
0.0205434140530952
 20
1.0233906283651308
 30
4.0649999999999995
  0
SPLINE
  5
2E5
100
AcDbEntity
  8
1
390
0
  6
Continuous
 62
     3
100
AcDbSpline
210
0.0
220
0.0
230
1.0
 70
     0
 71
     3
 72
     8
 73
     4
 74
     0
 42
0.000001
 43
0.000001
 40
0.0
 40
0.0
 40
0.0
 40
0.0
 40
1.0
 40
1.0
 40
1.0
 40
1.0
 10
0.0230983231707318
 20
0.8672490706319732
 30
4.0649999999999658
 10
0.0167263718670535
 20
0.8672490705267985
 30
4.0649999999999658
 10
0.0111509147462088
 20
0.8656505576272263
 30
4.0649999999999658
 10
0.0064557926829252
 20
0.8624907063197049
 30
4.0649999999999658
  0
LINE
  5
2E6
100
AcDbEntity
  8
1
390
0
  6
Continuous
 62
     3
100
AcDbLine
 10
-0.03186
 20
-0.933973
 30
4.065
 11
-0.030986
 21
-0.933098
 31
4.075
  0
LINE
  5
2E7
100
AcDbEntity
  8
1
390
0
  6
Continuous
 62
     3
100
AcDbLine
 10
-0.055
 20
0.656803
 30
4.065
 11
-0.055
 21
0.62
 31
4.065
  0
SPLINE
  5
2E8
100
AcDbEntity
  8
1
390
0
  6
Continuous
 62
     3
100
AcDbSpline
210
0.0
220
0.0
230
1.0
 70
     0
 71
     2
 72
     6
 73
     3
 74
     0
 42
0.000001
 43
0.000001
 40
0.0
 40
0.0
 40
0.0
 40
1.0
 40
1.0
 40
1.0
 10
0.0044751280378076
 20
0.9330075344882958
 30
4.0749999999999966
 10
0.0026773180014902
 20
0.9448239078092406
 30
4.0749999999999966
 10
-0.0058021391395574
 20
0.9557979321940159
 30
4.0749999999999966
  0
LINE
  5
2E9
100
AcDbEntity
  8
1
390
0
  6
Continuous
 62
     3
100
AcDbLine
 10
0.006162
 20
0.898104
 30
4.065
 11
0.006162
 21
0.913086
 31
4.065
  0
SPLINE
  5
2EA
100
AcDbEntity
  8
1
390
0
  6
Continuous
 62
     3
100
AcDbSpline
210
0.0
220
0.0
230
1.0
 70
     0
 71
     3
 72
     8
 73
     4
 74
     0
 42
0.000001
 43
0.000001
 40
0.0
 40
0.0
 40
0.0
 40
0.0
 40
1.0
 40
1.0
 40
1.0
 40
1.0
 10
-0.0227210365853658
 20
0.6811524163568773
 30
4.0650000000000022
 10
-0.0163910058422049
 20
0.6811524164634575
 30
4.0650000000000022
 10
-0.0114443600960949
 20
0.6794052042348973
 30
4.0650000000000022
 10
-0.00796493902439
 20
0.6758736059479554
 30
4.0650000000000022
  0
SPLINE
  5
2EB
100
AcDbEntity
  8
1
390
0
  6
Continuous
 62
     3
100
AcDbSpline
210
0.0
220
0.0
230
1.0
 70
     0
 71
     3
 72
     8
 73
     4
 74
     0
 42
0.000001
 43
0.000001
 40
0.0
 40
0.0
 40
0.0
 40
0.0
 40
1.0
 40
1.0
 40
1.0
 40
1.0
 10
0.0550000000000001
 20
0.8307806691449815
 30
4.0649999999999995
 10
0.054999999875116
 20
0.8369888474990457
 30
4.0649999999999995
 10
0.0544054779448541
 20
0.8421766447670543
 30
4.0649999999999995
 10
0.0531391750610748
 20
0.8466005450429086
 30
4.0649999999999995
  0
LINE
  5
2EC
100
AcDbEntity
  8
1
390
0
  6
Continuous
 62
     3
100
AcDbLine
 10
-0.075875
 20
0.599125
 30
4.075
 11
-0.075
 21
0.6
 31
4.065
  0
ARC
  5
2ED
100
AcDbEntity
  8
1
390
0
  6
Continuous
 62
     3
100
AcDbCircle
 10
-0.033604
 20
-1.124498
 30
4.075
 40
0.249127
100
AcDbArc
 50
181.013589
 51
268.288289
  0
LINE
  5
2EE
100
AcDbEntity
  8
1
390
0
  6
Continuous
 62
     3
100
AcDbLine
 10
-0.042005
 20
0.806506
 30
4.065
 11
-0.042005
 21
0.825985
 31
4.065
  0
SPLINE
  5
2EF
100
AcDbEntity
  8
1
390
0
  6
Continuous
 62
     3
100
AcDbSpline
210
0.0
220
0.0
230
1.0
 70
     0
 71
     1
 72
     4
 73
     2
 74
     0
 42
0.000001
 43
0.000001
 40
0.0
 40
0.0
 40
1.0
 40
1.0
 10
-0.0033094470991595
 20
0.8467134528275617
 30
4.0749999999999993
 10
-0.0035213414634144
 20
0.8488847583643124
 30
4.0649999999999995
  0
SPLINE
  5
2F0
100
AcDbEntity
  8
1
390
0
  6
Continuous
 62
     3
100
AcDbSpline
210
0.0
220
0.0
230
1.0
 70
     0
 71
     1
 72
     4
 73
     2
 74
     0
 42
0.000001
 43
0.000001
 40
0.0
 40
0.0
 40
1.0
 40
1.0
 10
-0.0085099085365883
 20
0.939702602230482
 30
4.0649999999999622
 10
-0.0064557926829301
 20
0.9258736059479554
 30
4.0649999999999622
  0
SPLINE
  5
2F1
100
AcDbEntity
  8
1
390
0
  6
Continuous
 62
     3
100
AcDbSpline
210
0.0
220
0.0
230
1.0
 70
     0
 71
     1
 72
     4
 73
     2
 74
     0
 42
0.000001
 43
0.000001
 40
0.0
 40
0.0
 40
1.0
 40
1.0
 10
0.0060365853658531
 20
0.8433457249070629
 30
4.0650000000000057
 10
0.0124085365853656
 20
0.8510780669144985
 30
4.0650000000000057
  0
CIRCLE
  5
2F2
100
AcDbEntity
  8
1
390
0
  6
Continuous
 62
     3
100
AcDbCircle
 10
0.0
 20
0.0
 30
1.75
 40
0.21013
210
0.0
220
0.0
230
1.0
  0
CIRCLE
  5
2F3
100
AcDbEntity
  8
1
390
0
  6
Continuous
 62
     3
100
AcDbCircle
 10
0.0
 20
0.0
 30
1.0
 40
0.230891
  0
LINE
  5
2F4
100
AcDbEntity
  8
1
390
0
  6
Continuous
 62
     3
100
AcDbLine
 10
-0.053448
 20
1.060038
 30
4.075
 11
-0.053448
 21
1.060038
 31
4.065
  0
LINE
  5
2F5
100
AcDbEntity
  8
1
390
0
  6
Continuous
 62
     3
100
AcDbLine
 10
-0.219544
 20
0.239636
 30
4.075
 11
-0.297374
 21
0.299092
 31
4.075
  0
LINE
  5
2F6
100
AcDbEntity
  8
1
390
0
  6
Continuous
 62
     3
100
AcDbLine
 10
0.1
 20
0.053687
 30
1.735
 11
0.1
 21
-0.053687
 31
1.735
  0
LINE
  5
2F7
100
AcDbEntity
  8
1
390
0
  6
Continuous
 62
     3
100
AcDbLine
 10
0.023098
 20
0.854741
 30
4.075
 11
0.023098
 21
0.853866
 31
4.065
  0
LINE
  5
2F8
100
AcDbEntity
  8
1
390
0
  6
Continuous
 62
     3
100
AcDbLine
 10
0.05914
 20
-0.864498
 30
4.075
 11
0.05914
 21
-0.890719
 31
4.075
  0
SPLINE
  5
2F9
100
AcDbEntity
  8
1
390
0
  6
Continuous
 62
     3
100
AcDbSpline
210
0.0
220
0.0
230
1.0
 70
     0
 71
     1
 72
     4
 73
     2
 74
     0
 42
0.000001
 43
0.000001
 40
0.0
 40
0.0
 40
1.0
 40
1.0
 10
0.0061623475609756
 20
0.9130855018587359
 30
4.0649999999999995
 10
0.0066653963414606
 20
0.920297397769504
 30
4.0649999999999995
  0
ARC
  5
2FA
100
AcDbEntity
  8
1
390
0
  6
Continuous
 62
     3
100
AcDbCircle
 10
0.0
 20
0.0
 30
-4.05
 40
0.3
210
0.0
220
0.0
230
-1.0
100
AcDbArc
 50
131.810315
 51
228.189685
  0
SPLINE
  5
2FB
100
AcDbEntity
  8
1
390
0
  6
Continuous
 62
     3
100
AcDbSpline
210
0.0
220
0.0
230
1.0
 70
     0
 71
     3
 72
     8
 73
     4
 74
     0
 42
0.000001
 43
0.000001
 40
0.0
 40
0.0
 40
0.0
 40
0.0
 40
1.0
 40
1.0
 40
1.0
 40
1.0
 10
-0.0378125000000003
 20
0.9448698884758366
 30
4.0650000000000048
 10
-0.0345667751901624
 20
0.9483731892922679
 30
4.0650000000000048
 10
-0.0301994759328849
 20
0.9500129403645503
 30
4.0650000000000048
 10
-0.0249847560975609
 20
0.9498884758364314
 30
4.0650000000000048
  0
LINE
  5
2FC
100
AcDbEntity
  8
1
390
0
  6
Continuous
 62
     3
100
AcDbLine
 10
0.054125
 20
0.955455
 30
4.075
 11
0.055
 21
0.954944
 31
4.065
  0
LINE
  5
2FD
100
AcDbEntity
  8
1
390
0
  6
Continuous
 62
     3
100
AcDbLine
 10
-0.028461
 20
0.753799
 30
4.075
 11
0.04178
 21
0.70396
 31
4.075
  0
LINE
  5
2FE
100
AcDbEntity
  8
1
390
0
  6
Continuous
 62
     3
100
AcDbLine
 10
-0.075875
 20
0.599125
 30
4.075
 11
0.075875
 21
0.599125
 31
4.075
  0
LINE
  5
2FF
100
AcDbEntity
  8
1
390
0
  6
Continuous
 62
     3
100
AcDbLine
 10
-0.041072
 20
-1.374386
 30
4.05
 11
-0.041045
 21
-1.373478
 31
4.023974
  0
SPLINE
  5
300
100
AcDbEntity
  8
1
390
0
  6
Continuous
 62
     3
100
AcDbSpline
210
0.0
220
0.0
230
1.0
 70
     0
 71
     3
 72
     8
 73
     4
 74
     0
 42
0.000001
 43
0.000001
 40
0.0
 40
0.0
 40
0.0
 40
0.0
 40
1.0
 40
1.0
 40
1.0
 40
1.0
 10
0.0223041348890298
 20
1.0102056955937135
 30
4.0749999999999993
 10
0.031271527053441
 20
1.0110655825135886
 30
4.0749999999999993
 10
0.0385600923742867
 20
1.0146279711816424
 30
4.0749999999999993
 10
0.0441698308515667
 20
1.0208519146016903
 30
4.0749999999999993
  0
LINE
  5
301
100
AcDbEntity
  8
1
390
0
  6
Continuous
 62
     3
100
AcDbLine
 10
0.282507
 20
1.128902
 30
4.019705
 11
0.283565
 21
1.12892
 31
4.05
  0
LINE
  5
302
100
AcDbEntity
  8
1
390
0
  6
Continuous
 62
     3
100
AcDbLine
 10
-0.013101
 20
-0.58748
 30
4.065
 11
-0.013976
 21
-0.588355
 31
4.075
  0
LINE
  5
303
100
AcDbEntity
  8
1
390
0
  6
Continuous
 62
     3
100
AcDbLine
 10
0.060015
 20
-0.608585
 30
4.065
 11
-0.013101
 21
-0.608585
 31
4.065
  0
LINE
  5
304
100
AcDbEntity
  8
1
390
0
  6
Continuous
 62
     3
100
AcDbLine
 10
0.05914
 20
-0.909053
 30
4.075
 11
0.016667
 21
-0.909053
 31
4.075
  0
LINE
  5
305
100
AcDbEntity
  8
1
390
0
  6
Continuous
 62
     3
100
AcDbLine
 10
-0.03186
 20
-0.737136
 30
4.065
 11
0.034221
 21
-0.737136
 31
4.065
  0
LINE
  5
306
100
AcDbEntity
  8
1
390
0
  6
Continuous
 62
     3
100
AcDbLine
 10
0.060015
 20
-0.996255
 30
4.065
 11
0.046766
 21
-0.99065
 31
4.065
  0
LINE
  5
307
100
AcDbEntity
  8
1
390
0
  6
Continuous
 62
     3
100
AcDbLine
 10
-0.001808
 20
0.632025
 30
4.075
 11
-0.042879
 21
0.632025
 31
4.075
  0
LINE
  5
308
100
AcDbEntity
  8
1
390
0
  6
Continuous
 62
     3
100
AcDbLine
 10
-0.03186
 20
-0.985113
 30
4.065
 11
-0.03186
 21
-0.960822
 31
4.065
  0
LINE
  5
309
100
AcDbEntity
  8
1
390
0
  6
Continuous
 62
     3
100
AcDbLine
 10
0.022543
 20
-1.053566
 30
4.065
 11
0.021668
 21
-1.054441
 31
4.075
  0
LINE
  5
30A
100
AcDbEntity
  8
1
390
0
  6
Continuous
 62
     3
100
AcDbLine
 10
-0.03843
 20
0.945489
 30
4.075
 11
-0.037812
 21
0.94487
 31
4.065
  0
LINE
  5
30B
100
AcDbEntity
  8
1
390
0
  6
Continuous
 62
     3
100
AcDbLine
 10
0.026881
 20
-0.984858
 30
4.065
 11
0.027756
 21
-0.986204
 31
4.075
  0
SPLINE
  5
30C
100
AcDbEntity
  8
1
390
0
  6
Continuous
 62
     3
100
AcDbSpline
210
0.0
220
0.0
230
1.0
 70
     0
 71
     1
 72
     4
 73
     2
 74
     0
 42
0.000001
 43
0.000001
 40
0.0
 40
0.0
 40
1.0
 40
1.0
 10
-0.0416141261550152
 20
1.056803377251704
 30
4.0649999999999995
 10
-0.0295757092767646
 20
1.0617170167938472
 30
4.0649999999999995
  0
LINE
  5
30D
100
AcDbEntity
  8
1
390
0
  6
Continuous
 62
     3
100
AcDbLine
 10
-0.03186
 20
-0.960822
 30
4.065
 11
-0.030986
 21
-0.961389
 31
4.075
  0
LINE
  5
30E
100
AcDbEntity
  8
1
390
0
  6
Continuous
 62
     3
100
AcDbLine
 10
0.038911
 20
-0.822376
 30
4.065
 11
-0.012679
 21
-0.822376
 31
4.065
  0
LINE
  5
30F
100
AcDbEntity
  8
1
390
0
  6
Continuous
 62
     3
100
AcDbLine
 10
-0.054125
 20
0.620875
 30
4.075
 11
-0.055
 21
0.62
 31
4.065
  0
LINE
  5
310
100
AcDbEntity
  8
1
390
0
  6
Continuous
 62
     3
100
AcDbLine
 10
0.034221
 20
-0.737136
 30
4.065
 11
0.034221
 21
-0.738011
 31
4.075
  0
LINE
  5
311
100
AcDbEntity
  8
1
390
0
  6
Continuous
 62
     3
100
AcDbLine
 10
0.05914
 20
-0.663394
 30
4.075
 11
-0.030986
 21
-0.663394
 31
4.075
  0
ARC
  5
312
100
AcDbEntity
  8
1
390
0
  6
Continuous
 62
     3
100
AcDbCircle
 10
0.0
 20
0.0
 30
-4.05
 40
0.3
210
0.0
220
0.0
230
-1.0
100
AcDbArc
 50
228.189685
 51
311.810315
  0
LINE
  5
313
100
AcDbEntity
  8
1
390
0
  6
Continuous
 62
     3
100
AcDbLine
 10
-0.013101
 20
-0.655484
 30
4.065
 11
-0.013976
 21
-0.65461
 31
4.075
  0
LINE
  5
314
100
AcDbEntity
  8
1
390
0
  6
Continuous
 62
     3
100
AcDbLine
 10
0.075875
 20
0.599125
 30
4.075
 11
0.075
 21
0.6
 31
4.065
  0
LINE
  5
315
100
AcDbEntity
  8
1
390
0
  6
Continuous
 62
     3
100
AcDbLine
 10
-0.002548
 20
-1.035104
 30
4.075
 11
-0.033033
 21
-1.035104
 31
4.075
  0
SPLINE
  5
316
100
AcDbEntity
  8
1
390
0
  6
Continuous
 62
     3
100
AcDbSpline
210
0.0
220
0.0
230
1.0
 70
     0
 71
     3
 72
     8
 73
     4
 74
     0
 42
0.000001
 43
0.000001
 40
0.0
 40
0.0
 40
0.0
 40
0.0
 40
1.0
 40
1.0
 40
1.0
 40
1.0
 10
-0.0075052783333051
 20
1.0604886069083115
 30
4.0649999999999995
 10
-0.009757363123454
 20
1.06536129945427
 30
4.0649999999999995
 10
-0.012703462943732
 20
1.069106575729635
 30
4.0649999999999995
 10
-0.0166151456970368
 20
1.0715565698034171
 30
4.0649999999999995
  0
LINE
  5
317
100
AcDbEntity
  8
1
390
0
  6
Continuous
 62
     3
100
AcDbLine
 10
-0.000009
 20
0.685865
 30
4.075
 11
0.000545
 21
0.686543
 31
4.065
  0
SPLINE
  5
318
100
AcDbEntity
  8
1
390
0
  6
Continuous
 62
     3
100
AcDbSpline
210
0.0
220
0.0
230
1.0
 70
     0
 71
     3
 72
     8
 73
     4
 74
     0
 42
0.000001
 43
0.000001
 40
0.0
 40
0.0
 40
0.0
 40
0.0
 40
1.0
 40
1.0
 40
1.0
 40
1.0
 10
-0.0413757621951211
 20
0.8586988847583621
 30
4.0650000000000244
 10
-0.0460289633683718
 20
0.856133829287391
 30
4.0649999999999142
 10
-0.0494245428820508
 20
0.8526394050663487
 30
4.0650000000000244
 10
-0.0516463414634125
 20
0.8481040892193302
 30
4.0650000000000244
  0
LINE
  5
319
100
AcDbEntity
  8
1
390
0
  6
Continuous
 62
     3
100
AcDbLine
 10
0.019233
 20
1.066549
 30
4.075
 11
0.019233
 21
1.066549
 31
4.065
  0
LINE
  5
31A
100
AcDbEntity
  8
1
390
0
  6
Continuous
 62
     3
100
AcDbLine
 10
0.055
 20
0.780223
 30
4.065
 11
0.042005
 21
0.780223
 31
4.065
  0
LINE
  5
31B
100
AcDbEntity
  8
1
390
0
  6
Continuous
 62
     3
100
AcDbLine
 10
-0.055
 20
0.885204
 30
4.065
 11
0.055
 21
0.885204
 31
4.065
  0
SPLINE
  5
31C
100
AcDbEntity
  8
1
390
0
  6
Continuous
 62
     3
100
AcDbSpline
210
0.0
220
0.0
230
1.0
 70
     0
 71
     3
 72
     8
 73
     4
 74
     0
 42
0.000001
 43
0.000001
 40
0.0
 40
0.0
 40
0.0
 40
0.0
 40
1.0
 40
1.0
 40
1.0
 40
1.0
 10
-0.0052400914634146
 20
0.9564684014869888
 30
4.0650000000000004
 10
-0.0106059451472245
 20
0.9609665426850522
 30
4.0650000000000004
 10
-0.0171874999810184
 20
0.9631970260925186
 30
4.0650000000000004
 10
-0.0249847560975609
 20
0.9631970260223046
 30
4.0650000000000004
  0
LINE
  5
31D
100
AcDbEntity
  8
1
390
0
  6
Continuous
 62
     3
100
AcDbLine
 10
-0.001808
 20
0.658141
 30
4.075
 11
-0.002683
 21
0.658141
 31
4.065
  0
SPLINE
  5
31E
100
AcDbEntity
  8
1
390
0
  6
Continuous
 62
     3
100
AcDbSpline
210
0.0
220
0.0
230
1.0
 70
     0
 71
     2
 72
     6
 73
     3
 74
     0
 42
0.000001
 43
0.000001
 40
0.0
 40
0.0
 40
0.0
 40
1.0
 40
1.0
 40
1.0
 10
-0.0530683439075003
 20
0.6714625435883159
 30
4.0752913582006096
 10
-0.0534618458072023
 20
0.6715396482383313
 30
4.0707084068219146
 10
-0.0539519817070809
 20
0.6716356877336265
 30
4.0650000000000031
  0
LINE
  5
31F
100
AcDbEntity
  8
1
390
0
  6
Continuous
 62
     3
100
AcDbLine
 10
0.042359
 20
0.839726
 30
4.075
 11
0.041502
 21
0.839554
 31
4.065
  0
LINE
  5
320
100
AcDbEntity
  8
1
390
0
  6
Continuous
 62
     3
100
AcDbLine
 10
-0.008761
 20
0.827584
 30
4.065
 11
-0.008761
 21
0.806506
 31
4.065
  0
LINE
  5
321
100
AcDbEntity
  8
1
390
0
  6
Continuous
 62
     3
100
AcDbLine
 10
0.005287
 20
0.897229
 30
4.075
 11
0.006162
 21
0.898104
 31
4.065
  0
LINE
  5
322
100
AcDbEntity
  8
1
390
0
  6
Continuous
 62
     3
100
AcDbLine
 10
-0.030986
 20
-0.738011
 30
4.075
 11
0.034221
 21
-0.738011
 31
4.075
  0
LINE
  5
323
100
AcDbEntity
  8
1
390
0
  6
Continuous
 62
     3
100
AcDbLine
 10
-0.005802
 20
0.955798
 30
4.075
 11
-0.00524
 21
0.956468
 31
4.065
  0
SPLINE
  5
324
100
AcDbEntity
  8
1
390
0
  6
Continuous
 62
     3
100
AcDbSpline
210
0.0
220
0.0
230
1.0
 70
     0
 71
     2
 72
     6
 73
     3
 74
     0
 42
0.000001
 43
0.000001
 40
0.0
 40
0.0
 40
0.0
 40
1.0
 40
1.0
 40
1.0
 10
-0.0411564983030191
 20
0.9583533137428747
 30
4.0752912532155809
 10
-0.0413474839144249
 20
0.9587058632125103
 30
4.0707082994105228
 10
-0.0415853658536585
 20
0.9591449814126393
 30
4.0649999999999995
  0
LINE
  5
325
100
AcDbEntity
  8
1
390
0
  6
Continuous
 62
     3
100
AcDbLine
 10
-0.0116
 20
1.03981
 30
4.075
 11
-0.0116
 21
1.03981
 31
4.065
  0
LINE
  5
326
100
AcDbEntity
  8
1
390
0
  6
Continuous
 62
     3
100
AcDbLine
 10
-0.024985
 20
0.950763
 30
4.075
 11
-0.024985
 21
0.949888
 31
4.065
  0
ELLIPSE
  5
327
100
AcDbEntity
  8
1
390
0
  6
Continuous
 62
     3
100
AcDbEllipse
 10
-0.033604
 20
1.12465
 30
4.019631
 11
0.0
 21
0.2489394853607915
 31
0.0043452548801697
210
-0.0
220
0.0174524064372835
230
-0.9998476951563916
 40
0.999848
 41
4.7294699901759039
 42
6.2532920968088757
  0
LINE
  5
328
100
AcDbEntity
  8
1
390
0
  6
Continuous
 62
     3
100
AcDbLine
 10
-0.06
 20
-1.1075
 30
4.065
 11
-0.059125
 21
-1.106625
 31
4.075
  0
LINE
  5
329
100
AcDbEntity
  8
1
390
0
  6
Continuous
 62
     3
100
AcDbLine
 10
-0.1
 20
0.053687
 30
1.735
 11
-0.1
 21
-0.053687
 31
1.735
  0
SPLINE
  5
32A
100
AcDbEntity
  8
1
390
0
  6
Continuous
 62
     3
100
AcDbSpline
210
0.0
220
0.0
230
1.0
 70
     0
 71
     1
 72
     4
 73
     2
 74
     0
 42
0.000001
 43
0.000001
 40
0.0
 40
0.0
 40
1.0
 40
1.0
 10
-0.0249847560975609
 20
0.9507633624716902
 30
4.0749999999999993
 10
-0.0147008033602025
 20
0.9480467336561561
 30
4.0749999999999993
  0
ELLIPSE
  5
32B
100
AcDbEntity
  8
1
390
0
  6
Continuous
 62
     3
100
AcDbEllipse
 10
0.033604
 20
-1.12465
 30
4.019631
 11
0.0
 21
-0.2489394853607915
 31
0.0043452548801697
210
-0.0
220
-0.0174524064372835
230
-0.9998476951563916
 40
0.999848
 41
4.7294699901759039
 42
6.253292096808873
  0
LINE
  5
32C
100
AcDbEntity
  8
1
390
0
  6
Continuous
 62
     3
100
AcDbLine
 10
-0.054125
 20
0.928476
 30
4.075
 11
-0.054125
 21
0.886079
 31
4.075
  0
LINE
  5
32D
100
AcDbEntity
  8
1
390
0
  6
Continuous
 62
     3
100
AcDbLine
 10
-0.033033
 20
-1.035979
 30
4.065
 11
-0.033033
 21
-1.035104
 31
4.075
  0
LINE
  5
32E
100
AcDbEntity
  8
1
390
0
  6
Continuous
 62
     3
100
AcDbLine
 10
-0.03186
 20
-0.687141
 30
4.065
 11
-0.030986
 21
-0.686267
 31
4.075
  0
SPLINE
  5
32F
100
AcDbEntity
  8
1
390
0
  6
Continuous
 62
     3
100
AcDbSpline
210
0.0
220
0.0
230
1.0
 70
     0
 71
     3
 72
     8
 73
     4
 74
     0
 42
0.000001
 43
0.000001
 40
0.0
 40
0.0
 40
0.0
 40
0.0
 40
1.0
 40
1.0
 40
1.0
 40
1.0
 10
-0.0411686357103936
 20
0.9583757187614135
 30
4.0749999999999975
 10
-0.0460200820806531
 20
0.9557362510649266
 30
4.0749999999999975
 10
-0.0493369894256872
 20
0.9522785504786548
 30
4.0749999999999975
 10
-0.0512211920966876
 20
0.9479413610935795
 30
4.0749999999999975
  0
SPLINE
  5
330
100
AcDbEntity
  8
1
390
0
  6
Continuous
 62
     3
100
AcDbSpline
210
0.0
220
0.0
230
1.0
 70
     0
 71
     1
 72
     4
 73
     2
 74
     0
 42
0.000001
 43
0.000001
 40
0.0
 40
0.0
 40
1.0
 40
1.0
 10
-0.041319533763482
 20
0.8411115942855234
 30
4.0749999999999362
 10
-0.0352178255622274
 20
0.8482376102248064
 30
4.0749999999999362
  0
LINE
  5
331
100
AcDbEntity
  8
1
390
0
  6
Continuous
 62
     3
100
AcDbLine
 10
-0.054125
 20
0.656803
 30
4.075
 11
-0.054125
 21
0.620875
 31
4.075
  0
SPLINE
  5
332
100
AcDbEntity
  8
1
390
0
  6
Continuous
 62
     3
100
AcDbSpline
210
0.0
220
0.0
230
1.0
 70
     0
 71
     3
 72
     8
 73
     4
 74
     0
 42
0.000001
 43
0.000001
 40
0.0
 40
0.0
 40
0.0
 40
0.0
 40
1.0
 40
1.0
 40
1.0
 40
1.0
 10
-0.0249847560975609
 20
0.9623221393870355
 30
4.0750000000001139
 10
-0.0308907804784287
 20
0.9623221394064154
 30
4.0749999999996112
 10
-0.0362706524125927
 20
0.9610176986497225
 30
4.0750000000001139
 10
-0.0411686357103888
 20
0.9583757187614044
 30
4.0750000000001139
  0
SPLINE
  5
333
100
AcDbEntity
  8
1
390
0
  6
Continuous
 62
     3
100
AcDbSpline
210
0.0
220
0.0
230
1.0
 70
     0
 71
     3
 72
     8
 73
     4
 74
     0
 42
0.000001
 43
0.000001
 40
0.0
 40
0.0
 40
0.0
 40
0.0
 40
1.0
 40
1.0
 40
1.0
 40
1.0
 10
-0.0058021391269053
 20
0.9557979322121373
 30
4.0749999999999993
 10
-0.0109997333345494
 20
0.9601550229821638
 30
4.0749999999999993
 10
-0.0173567951680877
 20
0.9623221392840798
 30
4.0749999999999993
 10
-0.0249847560975609
 20
0.9623221393870456
 30
4.0749999999999993
  0
LINE
  5
334
100
AcDbEntity
  8
1
390
0
  6
Continuous
 62
     3
100
AcDbLine
 10
0.005222
 20
-0.886198
 30
4.075
 11
-0.030986
 21
-0.886198
 31
4.075
  0
LINE
  5
335
100
AcDbEntity
  8
1
390
0
  6
Continuous
 62
     3
100
AcDbLine
 10
0.004189
 20
-1.054441
 30
4.075
 11
0.004189
 21
-1.041841
 31
4.075
  0
LINE
  5
336
100
AcDbEntity
  8
1
390
0
  6
Continuous
 62
     3
100
AcDbLine
 10
-0.283565
 20
-1.12892
 30
4.05
 11
-0.282692
 21
-1.128905
 31
4.075
  0
ARC
  5
337
100
AcDbEntity
  8
1
390
0
  6
Continuous
 62
     3
100
AcDbCircle
 10
0.043601
 20
-0.751065
 30
4.065
 40
0.016415
210
0.0
220
0.0
230
1.0
100
AcDbArc
 50
270.0
 51
360.0
  0
LINE
  5
338
100
AcDbEntity
  8
1
390
0
  6
Continuous
 62
     3
100
AcDbLine
 10
0.016667
 20
-0.909053
 30
4.075
 11
0.05914
 21
-0.890719
 31
4.075
  0
LINE
  5
339
100
AcDbEntity
  8
1
390
0
  6
Continuous
 62
     3
100
AcDbLine
 10
0.060015
 20
-0.797965
 30
4.065
 11
0.060015
 21
-0.849554
 31
4.065
  0
LINE
  5
33A
100
AcDbEntity
  8
1
390
0
  6
Continuous
 62
     3
100
AcDbLine
 10
-0.054125
 20
0.886079
 30
4.075
 11
0.054125
 21
0.886079
 31
4.075
  0
LINE
  5
33B
100
AcDbEntity
  8
1
390
0
  6
Continuous
 62
     3
100
AcDbLine
 10
0.020901
 20
-0.908178
 30
4.065
 11
0.060015
 21
-0.891294
 31
4.065
  0
LINE
  5
33C
100
AcDbEntity
  8
1
390
0
  6
Continuous
 62
     3
100
AcDbLine
 10
0.060015
 20
-0.662519
 30
4.065
 11
-0.03186
 21
-0.662519
 31
4.065
  0
SPLINE
  5
33D
100
AcDbEntity
  8
1
390
0
  6
Continuous
 62
     3
100
AcDbSpline
210
0.0
220
0.0
230
1.0
 70
     4
 71
     2
 72
     6
 73
     3
 74
     0
 42
0.000001
 43
0.000001
 40
0.0
 40
0.0
 40
0.0
 40
1.0
 40
1.0
 40
1.0
 10
0.0410720112143823
 20
-1.3743864412510791
 30
4.0499999999999998
 41
0.5001115810312649
 10
0.0000000000000012
 20
-1.3756138326561187
 30
4.0499999999999998
 41
0.4998884189687352
 10
-0.0410720112143819
 20
-1.3743864412510791
 30
4.0499999999999998
 41
0.5001115810312649
  0
ARC
  5
33E
100
AcDbEntity
  8
1
390
0
  6
Continuous
 62
     3
100
AcDbCircle
 10
-0.002548
 20
-1.041841
 30
4.065
 40
0.005862
210
0.0
220
0.0
230
1.0
100
AcDbArc
 50
0.0
 51
90.0
  0
SPLINE
  5
33F
100
AcDbEntity
  8
1
390
0
  6
Continuous
 62
     3
100
AcDbSpline
210
0.0
220
0.0
230
1.0
 70
     0
 71
     1
 72
     4
 73
     2
 74
     0
 42
0.000001
 43
0.000001
 40
0.0
 40
0.0
 40
1.0
 40
1.0
 10
0.0119520603671637
 20
0.8518244336469869
 30
4.0749999999999993
 10
0.0124085365853659
 20
0.8510780669144981
 30
4.0649999999999995
  0
LINE
  5
340
100
AcDbEntity
  8
1
390
0
  6
Continuous
 62
     3
100
AcDbLine
 10
0.000899
 20
-0.973321
 30
4.065
 11
-0.001247
 21
-0.973326
 31
4.075
  0
SPLINE
  5
341
100
AcDbEntity
  8
1
390
0
  6
Continuous
 62
     3
100
AcDbSpline
210
0.0
220
0.0
230
1.0
 70
     0
 71
     3
 72
     8
 73
     4
 74
     0
 42
0.000001
 43
0.000001
 40
0.0
 40
0.0
 40
0.0
 40
0.0
 40
1.0
 40
1.0
 40
1.0
 40
1.0
 10
0.0042465095716539
 20
1.0606523948930495
 30
4.0749999999999993
 10
0.0081774212053684
 20
1.064583306526764
 30
4.0749999999999993
 10
0.0131729547398805
 20
1.0665487623436212
 30
4.0749999999999993
 10
0.0192331101751904
 20
1.0665487623436212
 30
4.0749999999999993
  0
LINE
  5
342
100
AcDbEntity
  8
1
390
0
  6
Continuous
 62
     3
100
AcDbLine
 10
-0.03186
 20
-0.887073
 30
4.065
 11
-0.030986
 21
-0.886198
 31
4.075
  0
LINE
  5
343
100
AcDbEntity
  8
1
390
0
  6
Continuous
 62
     3
100
AcDbLine
 10
-0.030986
 20
-0.933098
 30
4.075
 11
-0.030986
 21
-0.903801
 31
4.075
  0
LINE
  5
344
100
AcDbEntity
  8
1
390
0
  6
Continuous
 62
     3
100
AcDbLine
 10
-0.03186
 20
-0.863624
 30
4.065
 11
-0.030986
 21
-0.864498
 31
4.075
  0
LINE
  5
345
100
AcDbEntity
  8
1
390
0
  6
Continuous
 62
     3
100
AcDbLine
 10
-0.298254
 20
-0.298666
 30
4.05
 11
-0.283565
 21
-1.12892
 31
4.05
  0
CIRCLE
  5
346
100
AcDbEntity
  8
1
390
0
  6
Continuous
 62
     3
100
AcDbCircle
 10
0.0
 20
0.0
 30
1.0
 40
0.3
  0
CIRCLE
  5
347
100
AcDbEntity
  8
1
390
0
  6
Continuous
 62
     3
100
AcDbCircle
 10
0.0
 20
0.0
 30
-1.764869
 40
0.22513
210
-0.0
220
0.0
230
-1.0
  0
LINE
  5
348
100
AcDbEntity
  8
1
390
0
  6
Continuous
 62
     3
100
AcDbLine
 10
0.283565
 20
1.12892
 30
4.05
 11
0.282692
 21
1.128905
 31
4.075
  0
SPLINE
  5
349
100
AcDbEntity
  8
1
390
0
  6
Continuous
 62
     3
100
AcDbSpline
210
0.0
220
0.0
230
1.0
 70
     0
 71
     3
 72
     8
 73
     4
 74
     0
 42
0.000001
 43
0.000001
 40
0.0
 40
0.0
 40
0.0
 40
0.0
 40
1.0
 40
1.0
 40
1.0
 40
1.0
 10
-0.0115999779517577
 20
1.0398103738351259
 30
4.0649999999999995
 10
-0.0115999779517577
 20
1.0392780628847269
 30
4.0649999999999995
 10
-0.0116818719441267
 20
1.0385819639495901
 30
4.0649999999999995
 10
-0.0117637659364958
 20
1.0376811300335305
 30
4.0649999999999995
  0
LINE
  5
34A
100
AcDbEntity
  8
1
390
0
  6
Continuous
 62
     3
100
AcDbLine
 10
0.283565
 20
-1.12892
 30
4.05
 11
0.282507
 21
-1.128902
 31
4.019705
  0
SPLINE
  5
34B
100
AcDbEntity
  8
1
390
0
  6
Continuous
 62
     3
100
AcDbSpline
210
0.0
220
0.0
230
1.0
 70
     0
 71
     3
 72
     8
 73
     4
 74
     0
 42
0.000001
 43
0.000001
 40
0.0
 40
0.0
 40
0.0
 40
0.0
 40
1.0
 40
1.0
 40
1.0
 40
1.0
 10
-0.0572149317013196
 20
1.0438641264573938
 30
4.0649999999999995
 10
-0.0572149317013196
 20
1.0353471512510124
 30
4.0649999999999995
 10
-0.054758111930248
 20
1.028222373914905
 30
4.0649999999999995
 10
-0.049926366380474
 20
1.0225307414452558
 30
4.0649999999999995
  0
LINE
  5
34C
100
AcDbEntity
  8
1
390
0
  6
Continuous
 62
     3
100
AcDbLine
 10
0.054125
 20
0.620875
 30
4.075
 11
0.054125
 21
0.632025
 31
4.075
  0
SPLINE
  5
34D
100
AcDbEntity
  8
1
390
0
  6
Continuous
 62
     3
100
AcDbSpline
210
0.0
220
0.0
230
1.0
 70
     0
 71
     3
 72
     8
 73
     4
 74
     0
 42
0.000001
 43
0.000001
 40
0.0
 40
0.0
 40
0.0
 40
0.0
 40
1.0
 40
1.0
 40
1.0
 40
1.0
 10
-0.0231821646341463
 20
0.6944609665427513
 30
4.0649999999999942
 10
-0.0286318598108318
 20
0.694460966399017
 30
4.0649999999999942
 10
-0.0336623474880987
 20
0.693457249105584
 30
4.0649999999999942
 10
-0.0381897865853659
 20
0.6914869888475841
 30
4.0649999999999942
  0
LINE
  5
34E
100
AcDbEntity
  8
1
390
0
  6
Continuous
 62
     3
100
AcDbLine
 10
0.05914
 20
-0.63585
 30
4.075
 11
-0.013976
 21
-0.63585
 31
4.075
  0
LINE
  5
34F
100
AcDbEntity
  8
1
390
0
  6
Continuous
 62
     3
100
AcDbLine
 10
-0.055
 20
0.778625
 30
4.065
 11
-0.055
 21
0.708773
 31
4.065
  0
ARC
  5
350
100
AcDbEntity
  8
1
390
0
  6
Continuous
 62
     3
100
AcDbCircle
 10
-0.033604
 20
1.124498
 30
4.075
 40
0.249127
100
AcDbArc
 50
91.711711
 51
178.986411
  0
LINE
  5
351
100
AcDbEntity
  8
1
390
0
  6
Continuous
 62
     3
100
AcDbLine
 10
0.075
 20
0.6
 30
4.065
 11
0.075
 21
1.1
 31
4.065
  0
LINE
  5
352
100
AcDbEntity
  8
1
390
0
  6
Continuous
 62
     3
100
AcDbLine
 10
-0.011764
 20
1.037681
 30
4.065
 11
-0.000176
 21
1.036207
 31
4.065
  0
LINE
  5
353
100
AcDbEntity
  8
1
390
0
  6
Continuous
 62
     3
100
AcDbLine
 10
0.03377
 20
0.723163
 30
4.075
 11
0.034291
 21
0.723866
 31
4.065
  0
SPLINE
  5
354
100
AcDbEntity
  8
1
390
0
  6
Continuous
 62
     3
100
AcDbSpline
210
0.0
220
0.0
230
1.0
 70
     0
 71
     1
 72
     4
 73
     2
 74
     0
 42
0.000001
 43
0.000001
 40
0.0
 40
0.0
 40
1.0
 40
1.0
 10
0.0415015243902438
 20
0.8395539033457247
 30
4.0649999999999968
 10
0.0420045731707316
 20
0.8307806691449812
 30
4.0649999999999968
  0
LINE
  5
355
100
AcDbEntity
  8
1
390
0
  6
Continuous
 62
     3
100
AcDbLine
 10
-0.03977
 20
-1.054441
 30
4.075
 11
-0.03977
 21
-1.041841
 31
4.075
  0
SPLINE
  5
356
100
AcDbEntity
  8
1
390
0
  6
Continuous
 62
     3
100
AcDbSpline
210
0.0
220
0.0
230
1.0
 70
     0
 71
     1
 72
     4
 73
     2
 74
     0
 42
0.000001
 43
0.000001
 40
0.0
 40
0.0
 40
1.0
 40
1.0
 10
0.0327425623240506
 20
0.852721290311396
 30
4.0749999999999993
 10
0.0323628048780489
 20
0.8519330855018585
 30
4.0649999999999995
  0
LINE
  5
357
100
AcDbEntity
  8
1
390
0
  6
Continuous
 62
     3
100
AcDbLine
 10
-0.030986
 20
-0.886198
 30
4.075
 11
-0.030986
 21
-0.864498
 31
4.075
  0
LINE
  5
358
100
AcDbEntity
  8
1
390
0
  6
Continuous
 62
     3
100
AcDbLine
 10
0.006944
 20
0.861765
 30
4.075
 11
0.006456
 21
0.862491
 31
4.065
  0
LINE
  5
359
100
AcDbEntity
  8
1
390
0
  6
Continuous
 62
     3
100
AcDbLine
 10
-0.005581
 20
0.897229
 30
4.075
 11
-0.006456
 21
0.898104
 31
4.065
  0
ARC
  5
35A
100
AcDbEntity
  8
1
390
0
  6
Continuous
 62
     3
100
AcDbCircle
 10
0.043601
 20
-0.718376
 30
4.075
 40
0.01554
100
AcDbArc
 50
0.0
 51
90.0
  0
LINE
  5
35B
100
AcDbEntity
  8
1
390
0
  6
Continuous
 62
     3
100
AcDbLine
 10
-0.043718
 20
0.897229
 30
4.075
 11
-0.042843
 21
0.898104
 31
4.065
  0
ARC
  5
35C
100
AcDbEntity
  8
1
390
0
  6
Continuous
 62
     3
100
AcDbCircle
 10
0.0
 20
0.0
 30
-1.75
 40
0.1135
210
-0.0
220
0.0
230
-1.0
100
AcDbArc
 50
208.229835
 51
331.770165
  0
LINE
  5
35D
100
AcDbEntity
  8
1
390
0
  6
Continuous
 62
     3
100
AcDbLine
 10
-0.007505
 20
1.060489
 30
4.075
 11
-0.007505
 21
1.060489
 31
4.065
  0
LINE
  5
35E
100
AcDbEntity
  8
1
390
0
  6
Continuous
 62
     3
100
AcDbLine
 10
0.022543
 20
-1.02416
 30
4.065
 11
0.021668
 21
-1.02416
 31
4.075
  0
LINE
  5
35F
100
AcDbEntity
  8
1
390
0
  6
Continuous
 62
     3
100
AcDbLine
 10
-0.1
 20
-0.053687
 30
1.735
 11
-0.1
 21
-0.053687
 31
1.75
  0
LINE
  5
360
100
AcDbEntity
  8
1
390
0
  6
Continuous
 62
     3
100
AcDbLine
 10
-0.046364
 20
1.044151
 30
4.075
 11
-0.046364
 21
1.044151
 31
4.065
  0
LINE
  5
361
100
AcDbEntity
  8
1
390
0
  6
Continuous
 62
     3
100
AcDbLine
 10
0.054125
 20
0.969687
 30
4.075
 11
0.025502
 21
0.953441
 31
4.075
  0
SPLINE
  5
362
100
AcDbEntity
  8
1
390
0
  6
Continuous
 62
     3
100
AcDbSpline
210
0.0
220
0.0
230
1.0
 70
     0
 71
     3
 72
     8
 73
     4
 74
     0
 42
0.000001
 43
0.000001
 40
0.0
 40
0.0
 40
0.0
 40
0.0
 40
1.0
 40
1.0
 40
1.0
 40
1.0
 10
0.037125340459059
 20
0.8635484006660734
 30
4.0749999999999762
 10
0.0328415084699327
 20
0.8654297320506037
 30
4.0750000000000757
 10
0.0281452489526766
 20
0.8663741839276943
 30
4.0749999999999762
 10
0.0230983231707318
 20
0.866374183996713
 30
4.0749999999999762
  0
SPLINE
  5
363
100
AcDbEntity
  8
1
390
0
  6
Continuous
 62
     3
100
AcDbSpline
210
0.0
220
0.0
230
1.0
 70
     0
 71
     3
 72
     8
 73
     4
 74
     0
 42
0.000001
 43
0.000001
 40
0.0
 40
0.0
 40
0.0
 40
0.0
 40
1.0
 40
1.0
 40
1.0
 40
1.0
 10
0.0526049120655791
 20
1.0443554904116081
 30
4.0649999999999995
 10
0.0526049120655791
 20
1.0547969744386623
 30
4.0649999999999995
 10
0.049329152370817
 20
1.0634777376297819
 30
4.0649999999999995
 10
0.0428185799774774
 20
1.0703158859925976
 30
4.0649999999999995
  0
ARC
  5
364
100
AcDbEntity
  8
1
390
0
  6
Continuous
 62
     3
100
AcDbCircle
 10
0.0
 20
0.0
 30
4.075
 40
1.374127
100
AcDbArc
 50
88.288289
 51
91.711711
  0
LINE
  5
365
100
AcDbEntity
  8
1
390
0
  6
Continuous
 62
     3
100
AcDbLine
 10
0.054125
 20
0.620875
 30
4.075
 11
0.055
 21
0.62
 31
4.065
  0
LINE
  5
366
100
AcDbEntity
  8
1
390
0
  6
Continuous
 62
     3
100
AcDbLine
 10
0.078375
 20
-0.569125
 30
4.075
 11
-0.078375
 21
-0.569125
 31
4.075
  0
SPLINE
  5
367
100
AcDbEntity
  8
1
390
0
  6
Continuous
 62
     3
100
AcDbSpline
210
0.0
220
0.0
230
1.0
 70
     0
 71
     3
 72
     8
 73
     4
 74
     0
 42
0.000001
 43
0.000001
 40
0.0
 40
0.0
 40
0.0
 40
0.0
 40
1.0
 40
1.0
 40
1.0
 40
1.0
 10
0.0016259018158442
 20
1.0753114195271098
 30
4.0749999999999993
 10
-0.0030011087530072
 20
1.0717899778552407
 30
4.0749999999999993
 10
-0.0060311864706621
 20
1.0668353913169129
 30
4.0749999999999993
 10
-0.0075052783333051
 20
1.0604886069083115
 30
4.0749999999999993
  0
SPLINE
  5
368
100
AcDbEntity
  8
1
390
0
  6
Continuous
 62
     3
100
AcDbSpline
210
0.0
220
0.0
230
1.0
 70
     0
 71
     3
 72
     8
 73
     4
 74
     0
 42
0.000001
 43
0.000001
 40
0.0
 40
0.0
 40
0.0
 40
0.0
 40
1.0
 40
1.0
 40
1.0
 40
1.0
 10
-0.0463639777124202
 20
1.0441507554306855
 30
4.0749999999999993
 10
-0.0465105869005939
 20
1.0492669565637547
 30
4.0749999999999993
 10
-0.0448906882869113
 20
1.0536289908838574
 30
4.0749999999999993
 10
-0.0415639959028884
 20
1.0568554606305371
 30
4.0749999999999993
  0
SPLINE
  5
369
100
AcDbEntity
  8
1
390
0
  6
Continuous
 62
     3
100
AcDbSpline
210
0.0
220
0.0
230
1.0
 70
     0
 71
     3
 72
     8
 73
     4
 74
     0
 42
0.000001
 43
0.000001
 40
0.0
 40
0.0
 40
0.0
 40
0.0
 40
1.0
 40
1.0
 40
1.0
 40
1.0
 10
-0.0269960485171394
 20
1.0247009322430358
 30
4.0749999999999993
 10
-0.0334656739142946
 20
1.0256836601514643
 30
4.0749999999999993
 10
-0.0382974194640686
 20
1.0278947979454287
 30
4.0749999999999993
 10
-0.0415322321626462
 20
1.0312933986287445
 30
4.0749999999999993
  0
LINE
  5
36A
100
AcDbEntity
  8
1
390
0
  6
Continuous
 62
     3
100
AcDbLine
 10
-0.041046
 20
-1.373514
 30
4.075
 11
-0.041072
 21
-1.374386
 31
4.05
  0
LINE
  5
36B
100
AcDbEntity
  8
1
390
0
  6
Continuous
 62
     3
100
AcDbLine
 10
-0.043718
 20
0.928996
 30
4.075
 11
-0.042843
 21
0.928996
 31
4.065
  0
LINE
  5
36C
100
AcDbEntity
  8
1
390
0
  6
Continuous
 62
     3
100
AcDbLine
 10
-0.078375
 20
-0.569125
 30
4.075
 11
-0.078375
 21
-1.125875
 31
4.075
  0
LINE
  5
36D
100
AcDbEntity
  8
1
390
0
  6
Continuous
 62
     3
100
AcDbLine
 10
-0.03186
 20
-0.655484
 30
4.065
 11
-0.013101
 21
-0.655484
 31
4.065
  0
LINE
  5
36E
100
AcDbEntity
  8
1
390
0
  6
Continuous
 62
     3
100
AcDbLine
 10
0.034221
 20
-0.721143
 30
4.065
 11
-0.03186
 21
-0.721143
 31
4.065
  0
LINE
  5
36F
100
AcDbEntity
  8
1
390
0
  6
Continuous
 62
     3
100
AcDbLine
 10
0.022543
 20
-1.053566
 30
4.065
 11
0.060015
 21
-1.053566
 31
4.065
  0
LINE
  5
370
100
AcDbEntity
  8
1
390
0
  6
Continuous
 62
     3
100
AcDbLine
 10
0.001421
 20
-0.887073
 30
4.065
 11
-0.03186
 21
-0.903253
 31
4.065
  0
LINE
  5
371
100
AcDbEntity
  8
1
390
0
  6
Continuous
 62
     3
100
AcDbLine
 10
0.060015
 20
-1.053566
 30
4.065
 11
0.05914
 21
-1.054441
 31
4.075
  0
LINE
  5
372
100
AcDbEntity
  8
1
390
0
  6
Continuous
 62
     3
100
AcDbLine
 10
0.041502
 20
0.703086
 30
4.065
 11
0.055
 21
0.703086
 31
4.065
  0
LINE
  5
373
100
AcDbEntity
  8
1
390
0
  6
Continuous
 62
     3
100
AcDbLine
 10
0.003314
 20
-1.041841
 30
4.065
 11
0.004189
 21
-1.041841
 31
4.075
  0
SPLINE
  5
374
100
AcDbEntity
  8
1
390
0
  6
Continuous
 62
     3
100
AcDbSpline
210
0.0
220
0.0
230
1.0
 70
     0
 71
     2
 72
     6
 73
     3
 74
     0
 42
0.000001
 43
0.000001
 40
0.0
 40
0.0
 40
0.0
 40
1.0
 40
1.0
 40
1.0
 10
0.0041920731707319
 20
0.82907063197026
 30
4.0649999999999968
 10
0.0041920732956133
 20
0.8352788102670061
 30
4.0649999999999968
 10
0.0048208838283758
 20
0.8400371749101461
 30
4.0649999999999968
  0
LINE
  5
375
100
AcDbEntity
  8
1
390
0
  6
Continuous
 62
     3
100
AcDbLine
 10
0.020901
 20
-0.908178
 30
4.065
 11
0.016667
 21
-0.909053
 31
4.075
  0
ARC
  5
376
100
AcDbEntity
  8
1
390
0
  6
Continuous
 62
     3
100
AcDbCircle
 10
-0.007989
 20
-0.812996
 30
4.065
 40
0.00469
210
0.0
220
0.0
230
1.0
100
AcDbArc
 50
90.0
 51
180.0
  0
LINE
  5
377
100
AcDbEntity
  8
1
390
0
  6
Continuous
 62
     3
100
AcDbLine
 10
0.009396
 20
0.632025
 30
4.075
 11
0.009396
 21
0.657918
 31
4.075
  0
LINE
  5
378
100
AcDbEntity
  8
1
390
0
  6
Continuous
 62
     3
100
AcDbLine
 10
0.060015
 20
-0.608585
 30
4.065
 11
0.05914
 21
-0.60946
 31
4.075
  0
ELLIPSE
  5
379
100
AcDbEntity
  8
1
390
0
  6
Continuous
 62
     3
100
AcDbEllipse
 10
0.0
 20
0.0
 30
4.0
 11
0.0
 21
-0.3
 31
0.0052365194784653
210
0.0
220
-0.0174524064372835
230
-0.9998476951563913
 40
0.999848
 41
5.5589210569059606
 42
7.0074495574532119
  0
LINE
  5
37A
100
AcDbEntity
  8
1
390
0
  6
Continuous
 62
     3
100
AcDbLine
 10
-0.296677
 20
-0.299429
 30
4.005227
 11
-0.198775
 21
-0.224696
 31
4.003922
  0
SPLINE
  5
37B
100
AcDbEntity
  8
1
390
0
  6
Continuous
 62
     3
100
AcDbSpline
210
0.0
220
0.0
230
1.0
 70
     0
 71
     1
 72
     4
 73
     2
 74
     0
 42
0.000001
 43
0.000001
 40
0.0
 40
0.0
 40
1.0
 40
1.0
 10
0.0052159352829746
 20
0.8436489783475063
 30
4.0749999999999993
 10
0.0060365853658537
 20
0.8433457249070631
 30
4.0649999999999995
  0
LINE
  5
37C
100
AcDbEntity
  8
1
390
0
  6
Continuous
 62
     3
100
AcDbLine
 10
0.020543
 20
1.023391
 30
4.065
 11
0.022304
 21
1.010206
 31
4.065
  0
SPLINE
  5
37D
100
AcDbEntity
  8
1
390
0
  6
Continuous
 62
     3
100
AcDbSpline
210
0.0
220
0.0
230
1.0
 70
     0
 71
     3
 72
     8
 73
     4
 74
     0
 42
0.000001
 43
0.000001
 40
0.0
 40
0.0
 40
0.0
 40
0.0
 40
1.0
 40
1.0
 40
1.0
 40
1.0
 10
0.0064557926829262
 20
0.8624907063197035
 30
4.0649999999999853
 10
0.0017606705569105
 20
0.8593308551031179
 30
4.0649999999999853
 10
-0.0015929875859097
 20
0.8547955389413634
 30
4.0649999999999853
 10
-0.0035213414634157
 20
0.8488847583643127
 30
4.0649999999999853
  0
LINE
  5
37E
100
AcDbEntity
  8
1
390
0
  6
Continuous
 62
     3
100
AcDbLine
 10
0.020543
 20
1.023391
 30
4.075
 11
0.022304
 21
1.010206
 31
4.075
  0
LINE
  5
37F
100
AcDbEntity
  8
1
390
0
  6
Continuous
 62
     3
100
AcDbLine
 10
0.055
 20
0.6329
 30
4.065
 11
0.010271
 21
0.6329
 31
4.065
  0
LINE
  5
380
100
AcDbEntity
  8
1
390
0
  6
Continuous
 62
     3
100
AcDbLine
 10
0.055
 20
0.97119
 30
4.065
 11
0.025069
 21
0.954201
 31
4.065
  0
SPLINE
  5
381
100
AcDbEntity
  8
1
390
0
  6
Continuous
 62
     3
100
AcDbSpline
210
0.0
220
0.0
230
1.0
 70
     0
 71
     3
 72
     8
 73
     4
 74
     0
 42
0.000001
 43
0.000001
 40
0.0
 40
0.0
 40
0.0
 40
0.0
 40
1.0
 40
1.0
 40
1.0
 40
1.0
 10
-0.0079649390243933
 20
0.675873605947952
 30
4.064999999999948
 10
-0.0044435975609893
 20
0.6723791821561104
 30
4.065000000000361
 10
-0.0026829268292726
 20
0.6664684014870044
 30
4.064999999999948
 10
-0.0026829268292727
 20
0.6581412639405203
 30
4.064999999999948
  0
LINE
  5
382
100
AcDbEntity
  8
1
390
0
  6
Continuous
 62
     3
100
AcDbLine
 10
0.042879
 20
0.779348
 30
4.075
 11
0.042005
 21
0.780223
 31
4.065
  0
LINE
  5
383
100
AcDbEntity
  8
1
390
0
  6
Continuous
 62
     3
100
AcDbLine
 10
0.042879
 20
0.830781
 30
4.075
 11
0.042005
 21
0.830781
 31
4.065
  0
SPLINE
  5
384
100
AcDbEntity
  8
1
390
0
  6
Continuous
 62
     3
100
AcDbSpline
210
0.0
220
0.0
230
1.0
 70
     0
 71
     1
 72
     4
 73
     2
 74
     0
 42
0.000001
 43
0.000001
 40
0.0
 40
0.0
 40
1.0
 40
1.0
 10
-0.0347942073170731
 20
0.8474721189591077
 30
4.0649999999999995
 10
-0.0251524390243902
 20
0.849814126394052
 30
4.0649999999999995
  0
LINE
  5
385
100
AcDbEntity
  8
1
390
0
  6
Continuous
 62
     3
100
AcDbLine
 10
-0.054125
 20
0.620875
 30
4.075
 11
0.054125
 21
0.620875
 31
4.075
  0
SPLINE
  5
386
100
AcDbEntity
  8
1
390
0
  6
Continuous
 62
     3
100
AcDbSpline
210
0.0
220
0.0
230
1.0
 70
     0
 71
     1
 72
     4
 73
     2
 74
     0
 42
0.000001
 43
0.000001
 40
0.0
 40
0.0
 40
1.0
 40
1.0
 10
-0.0150708582802653
 20
0.8480537419923757
 30
4.0749999999999984
 10
-0.0155525914634146
 20
0.8473234200743494
 30
4.0649999999999995
  0
LINE
  5
387
100
AcDbEntity
  8
1
390
0
  6
Continuous
 62
     3
100
AcDbLine
 10
0.021668
 20
-1.054441
 30
4.075
 11
0.021668
 21
-1.02416
 31
4.075
  0
LINE
  5
388
100
AcDbEntity
  8
1
390
0
  6
Continuous
 62
     3
100
AcDbLine
 10
-0.042843
 20
0.898104
 30
4.065
 11
-0.042843
 21
0.928996
 31
4.065
  0
LINE
  5
389
100
AcDbEntity
  8
1
390
0
  6
Continuous
 62
     3
100
AcDbLine
 10
0.005222
 20
-0.886198
 30
4.075
 11
-0.030986
 21
-0.903801
 31
4.075
  0
LINE
  5
38A
100
AcDbEntity
  8
1
390
0
  6
Continuous
 62
     3
100
AcDbLine
 10
0.020543
 20
1.023391
 30
4.075
 11
0.020543
 21
1.023391
 31
4.065
  0
CIRCLE
  5
38B
100
AcDbEntity
  8
1
390
0
  6
Continuous
 62
     3
100
AcDbCircle
 10
0.0
 20
0.0
 30
1.660131
 40
0.22513
  0
SPLINE
  5
38C
100
AcDbEntity
  8
1
390
0
  6
Continuous
 62
     3
100
AcDbSpline
210
0.0
220
0.0
230
1.0
 70
     0
 71
     1
 72
     4
 73
     2
 74
     0
 42
0.000001
 43
0.000001
 40
0.0
 40
0.0
 40
1.0
 40
1.0
 10
0.0531554878048782
 20
0.8465427509293679
 30
4.0649999999999986
 10
0.0477057926829272
 20
0.8572118959107803
 30
4.0649999999999986
  0
LINE
  5
38D
100
AcDbEntity
  8
1
390
0
  6
Continuous
 62
     3
100
AcDbLine
 10
-0.043129
 20
1.071381
 30
4.075
 11
-0.043129
 21
1.071381
 31
4.065
  0
SPLINE
  5
38E
100
AcDbEntity
  8
1
390
0
  6
Continuous
 62
     3
100
AcDbSpline
210
0.0
220
0.0
230
1.0
 70
     0
 71
     3
 72
     8
 73
     4
 74
     0
 42
0.000001
 43
0.000001
 40
0.0
 40
0.0
 40
0.0
 40
0.0
 40
1.0
 40
1.0
 40
1.0
 40
1.0
 10
-0.0075052783333051
 20
1.0604886069083115
 30
4.0749999999999993
 10
-0.009757363123454
 20
1.06536129945427
 30
4.0749999999999993
 10
-0.012703462943732
 20
1.069106575729635
 30
4.0749999999999993
 10
-0.0166151456970368
 20
1.0715565698034171
 30
4.0749999999999993
  0
LINE
  5
38F
100
AcDbEntity
  8
1
390
0
  6
Continuous
 62
     3
100
AcDbLine
 10
-0.041072
 20
1.374386
 30
4.05
 11
-0.041046
 21
1.373514
 31
4.075
  0
LINE
  5
390
100
AcDbEntity
  8
1
390
0
  6
Continuous
 62
     3
100
AcDbLine
 10
-0.028461
 20
0.753799
 30
4.075
 11
-0.028967
 21
0.753086
 31
4.065
  0
LINE
  5
391
100
AcDbEntity
  8
1
390
0
  6
Continuous
 62
     3
100
AcDbLine
 10
0.009396
 20
0.657918
 30
4.075
 11
0.010271
 21
0.657918
 31
4.065
  0
ARC
  5
392
100
AcDbEntity
  8
1
390
0
  6
Continuous
 62
     3
100
AcDbCircle
 10
0.0
 20
0.0
 30
-4.075
 40
1.374127
210
0.0
220
0.0
230
-1.0
100
AcDbArc
 50
268.288289
 51
271.711711
  0
LINE
  5
393
100
AcDbEntity
  8
1
390
0
  6
Continuous
 62
     3
100
AcDbLine
 10
-0.001247
 20
-0.973326
 30
4.075
 11
0.027756
 21
-0.960302
 31
4.075
  0
LINE
  5
394
100
AcDbEntity
  8
1
390
0
  6
Continuous
 62
     3
100
AcDbLine
 10
0.054125
 20
0.779348
 30
4.075
 11
0.042879
 21
0.779348
 31
4.075
  0
LINE
  5
395
100
AcDbEntity
  8
1
390
0
  6
Continuous
 62
     3
100
AcDbLine
 10
-0.042879
 20
0.709648
 30
4.075
 11
-0.042879
 21
0.765113
 31
4.075
  0
LINE
  5
396
100
AcDbEntity
  8
1
390
0
  6
Continuous
 62
     3
100
AcDbLine
 10
-0.282692
 20
1.128905
 30
4.075
 11
-0.297374
 21
0.299092
 31
4.075
  0
LINE
  5
397
100
AcDbEntity
  8
1
390
0
  6
Continuous
 62
     3
100
AcDbLine
 10
-0.030986
 20
-0.686267
 30
4.075
 11
-0.030986
 21
-0.663394
 31
4.075
  0
LINE
  5
398
100
AcDbEntity
  8
1
390
0
  6
Continuous
 62
     3
100
AcDbLine
 10
0.055
 20
0.954944
 30
4.065
 11
0.055
 21
0.97119
 31
4.065
  0
SPLINE
  5
399
100
AcDbEntity
  8
1
390
0
  6
Continuous
 62
     3
100
AcDbSpline
210
0.0
220
0.0
230
1.0
 70
     0
 71
     1
 72
     4
 73
     2
 74
     0
 42
0.000001
 43
0.000001
 40
0.0
 40
0.0
 40
1.0
 40
1.0
 10
-0.0345426829268292
 20
0.6780669144981414
 30
4.0649999999999995
 10
-0.0227210365853658
 20
0.6811524163568772
 30
4.0649999999999995
  0
LINE
  5
39A
100
AcDbEntity
  8
1
390
0
  6
Continuous
 62
     3
100
AcDbLine
 10
-0.013101
 20
-0.58748
 30
4.065
 11
-0.013101
 21
-0.608585
 31
4.065
  0
LINE
  5
39B
100
AcDbEntity
  8
1
390
0
  6
Continuous
 62
     3
100
AcDbLine
 10
-0.015446
 20
-0.78155
 30
4.065
 11
0.043601
 21
-0.78155
 31
4.065
  0
LINE
  5
39C
100
AcDbEntity
  8
1
390
0
  6
Continuous
 62
     3
100
AcDbLine
 10
0.046766
 20
-0.99065
 30
4.065
 11
0.046766
 21
-0.955734
 31
4.065
  0
SPLINE
  5
39D
100
AcDbEntity
  8
1
390
0
  6
Continuous
 62
     3
100
AcDbSpline
210
0.0
220
0.0
230
1.0
 70
     0
 71
     1
 72
     4
 73
     2
 74
     0
 42
0.000001
 43
0.000001
 40
0.0
 40
0.0
 40
1.0
 40
1.0
 10
0.0088919913788474
 20
0.9266852067972071
 30
4.0750000000000277
 10
0.0164782760273022
 20
0.9334319725585751
 30
4.0750000000000277
  0
ARC
  5
39E
100
AcDbEntity
  8
1
390
0
  6
Continuous
 62
     3
100
AcDbCircle
 10
-0.018729
 20
-1.024239
 30
4.065
 40
0.041271
210
0.0
220
0.0
230
1.0
100
AcDbArc
 50
108.552969
 51
179.890024
  0
SPLINE
  5
39F
100
AcDbEntity
  8
1
390
0
  6
Continuous
 62
     3
100
AcDbSpline
210
0.0
220
0.0
230
1.0
 70
     0
 71
     1
 72
     4
 73
     2
 74
     0
 42
0.000001
 43
0.000001
 40
0.0
 40
0.0
 40
1.0
 40
1.0
 10
-0.0033094470991596
 20
0.8467134528275616
 30
4.0749999999999993
 10
-0.0140018198189139
 20
0.8583772288021786
 30
4.0749999999999993
  0
LINE
  5
3A0
100
AcDbEntity
  8
1
390
0
  6
Continuous
 62
     3
100
AcDbLine
 10
0.003314
 20
-1.053566
 30
4.065
 11
0.004189
 21
-1.054441
 31
4.075
  0
SPLINE
  5
3A1
100
AcDbEntity
  8
1
390
0
  6
Continuous
 62
     3
100
AcDbSpline
210
0.0
220
0.0
230
1.0
 70
     0
 71
     1
 72
     4
 73
     2
 74
     0
 42
0.000001
 43
0.000001
 40
0.0
 40
0.0
 40
1.0
 40
1.0
 10
-0.0150708582802661
 20
0.8480537419923742
 30
4.0749999999999851
 10
-0.0092315195071917
 20
0.8401667763373433
 30
4.0749999999999851
  0
LINE
  5
3A2
100
AcDbEntity
  8
1
390
0
  6
Continuous
 62
     3
100
AcDbLine
 10
0.000899
 20
-0.973321
 30
4.065
 11
0.026881
 21
-0.961654
 31
4.065
  0
LINE
  5
3A3
100
AcDbEntity
  8
1
390
0
  6
Continuous
 62
     3
100
AcDbLine
 10
-0.042879
 20
0.825985
 30
4.075
 11
-0.042005
 21
0.825985
 31
4.065
  0
LINE
  5
3A4
100
AcDbEntity
  8
1
390
0
  6
Continuous
 62
     3
100
AcDbLine
 10
0.060015
 20
-0.797965
 30
4.065
 11
0.05914
 21
-0.797965
 31
4.075
  0
LINE
  5
3A5
100
AcDbEntity
  8
1
390
0
  6
Continuous
 62
     3
100
AcDbLine
 10
0.038911
 20
-0.822376
 30
4.065
 11
0.038911
 21
-0.812996
 31
4.065
  0
LINE
  5
3A6
100
AcDbEntity
  8
1
390
0
  6
Continuous
 62
     3
100
AcDbLine
 10
-0.03186
 20
-0.797965
 30
4.065
 11
-0.030986
 21
-0.797965
 31
4.075
  0
ARC
  5
3A7
100
AcDbEntity
  8
1
390
0
  6
Continuous
 62
     3
100
AcDbCircle
 10
0.0
 20
0.0
 30
-4.05
 40
0.3
210
0.0
220
0.0
230
-1.0
100
AcDbArc
 50
311.810315
 51
408.189685
  0
LINE
  5
3A8
100
AcDbEntity
  8
1
390
0
  6
Continuous
 62
     3
100
AcDbLine
 10
0.042879
 20
0.830781
 30
4.075
 11
0.042879
 21
0.805631
 31
4.075
  0
LINE
  5
3A9
100
AcDbEntity
  8
1
390
0
  6
Continuous
 62
     3
100
AcDbLine
 10
-0.03186
 20
-0.655484
 30
4.065
 11
-0.030986
 21
-0.65461
 31
4.075
  0
LINE
  5
3AA
100
AcDbEntity
  8
1
390
0
  6
Continuous
 62
     3
100
AcDbLine
 10
0.054125
 20
0.70396
 30
4.075
 11
0.055
 21
0.703086
 31
4.065
  0
SPLINE
  5
3AB
100
AcDbEntity
  8
1
390
0
  6
Continuous
 62
     3
100
AcDbSpline
210
0.0
220
0.0
230
1.0
 70
     0
 71
     3
 72
     8
 73
     4
 74
     0
 42
0.000001
 43
0.000001
 40
0.0
 40
0.0
 40
0.0
 40
0.0
 40
1.0
 40
1.0
 40
1.0
 40
1.0
 10
-0.0269960485171394
 20
1.0247009322430358
 30
4.0649999999999995
 10
-0.0334656739142946
 20
1.0256836601514643
 30
4.0649999999999995
 10
-0.0382974194640686
 20
1.0278947979454287
 30
4.0649999999999995
 10
-0.0415322321626462
 20
1.0312933986287445
 30
4.0649999999999995
  0
LINE
  5
3AC
100
AcDbEntity
  8
1
390
0
  6
Continuous
 62
     3
100
AcDbLine
 10
0.003317
 20
0.829071
 30
4.075
 11
0.004192
 21
0.829071
 31
4.065
  0
SPLINE
  5
3AD
100
AcDbEntity
  8
1
390
0
  6
Continuous
 62
     3
100
AcDbSpline
210
0.0
220
0.0
230
1.0
 70
     0
 71
     1
 72
     4
 73
     2
 74
     0
 42
0.000001
 43
0.000001
 40
0.0
 40
0.0
 40
1.0
 40
1.0
 10
-0.0165955114862698
 20
1.0715442958781334
 30
4.0649999999999995
 10
-0.0292890803034729
 20
1.0753114195271098
 30
4.0649999999999995
  0
SPLINE
  5
3AE
100
AcDbEntity
  8
1
390
0
  6
Continuous
 62
     3
100
AcDbSpline
210
0.0
220
0.0
230
1.0
 70
     0
 71
     3
 72
     8
 73
     4
 74
     0
 42
0.000001
 43
0.000001
 40
0.0
 40
0.0
 40
0.0
 40
0.0
 40
1.0
 40
1.0
 40
1.0
 40
1.0
 10
-0.0516463414634175
 20
0.8481040892193321
 30
4.0649999999999622
 10
-0.0539100607950733
 20
0.8436059478964592
 30
4.0649999999999622
 10
-0.0550000001724181
 20
0.8376579926093161
 30
4.0649999999999622
 10
-0.0550000000000032
 20
0.8301858736059479
 30
4.0649999999999622
  0
LINE
  5
3AF
100
AcDbEntity
  8
1
390
0
  6
Continuous
 62
     3
100
AcDbLine
 10
0.042005
 20
0.780223
 30
4.065
 11
0.042005
 21
0.717955
 31
4.065
  0
LINE
  5
3B0
100
AcDbEntity
  8
1
390
0
  6
Continuous
 62
     3
100
AcDbLine
 10
0.054125
 20
0.779348
 30
4.075
 11
0.055
 21
0.780223
 31
4.065
  0
SPLINE
  5
3B1
100
AcDbEntity
  8
1
390
0
  6
Continuous
 62
     3
100
AcDbSpline
210
0.0
220
0.0
230
1.0
 70
     0
 71
     3
 72
     8
 73
     4
 74
     0
 42
0.000001
 43
0.000001
 40
0.0
 40
0.0
 40
0.0
 40
0.0
 40
1.0
 40
1.0
 40
1.0
 40
1.0
 10
-0.0249847560975609
 20
0.9631970260222946
 30
4.0650000000001132
 10
-0.0310213414872147
 20
0.9631970261394218
 30
4.0649999999996114
 10
-0.0365548780170862
 20
0.9618587359458928
 30
4.0650000000001132
 10
-0.0415853658536537
 20
0.9591449814126305
 30
4.0650000000001132
  0
LINE
  5
3B2
100
AcDbEntity
  8
1
390
0
  6
Continuous
 62
     3
100
AcDbLine
 10
-0.054125
 20
0.886079
 30
4.075
 11
-0.055
 21
0.885204
 31
4.065
  0
LINE
  5
3B3
100
AcDbEntity
  8
1
390
0
  6
Continuous
 62
     3
100
AcDbLine
 10
-0.283565
 20
1.12892
 30
4.05
 11
-0.298254
 21
0.298666
 31
4.05
  0
LINE
  5
3B4
100
AcDbEntity
  8
1
390
0
  6
Continuous
 62
     3
100
AcDbLine
 10
0.042879
 20
0.805631
 30
4.075
 11
0.042005
 21
0.806506
 31
4.065
  0
ARC
  5
3B5
100
AcDbEntity
  8
1
390
0
  6
Continuous
 62
     3
100
AcDbCircle
 10
0.043601
 20
-0.797965
 30
4.075
 40
0.01554
100
AcDbArc
 50
0.0
 51
90.0
  0
LINE
  5
3B6
100
AcDbEntity
  8
1
390
0
  6
Continuous
 62
     3
100
AcDbLine
 10
0.041072
 20
1.374386
 30
4.05
 11
0.041045
 21
1.373478
 31
4.023974
  0
LINE
  5
3B7
100
AcDbEntity
  8
1
390
0
  6
Continuous
 62
     3
100
AcDbLine
 10
-0.008761
 20
0.806506
 30
4.065
 11
-0.042005
 21
0.806506
 31
4.065
  0
LINE
  5
3B8
100
AcDbEntity
  8
1
390
0
  6
Continuous
 62
     3
100
AcDbLine
 10
-0.026871
 20
0.861653
 30
4.075
 11
-0.026871
 21
0.862528
 31
4.065
  0
SPLINE
  5
3B9
100
AcDbEntity
  8
1
390
0
  6
Continuous
 62
     3
100
AcDbSpline
210
0.0
220
0.0
230
1.0
 70
     0
 71
     1
 72
     4
 73
     2
 74
     0
 42
0.000001
 43
0.000001
 40
0.0
 40
0.0
 40
1.0
 40
1.0
 10
0.005287460925716
 20
0.9130855018587359
 30
4.0750000000000037
 10
0.005816568737775
 20
0.9205103767200604
 30
4.0750000000000037
  0
SPLINE
  5
3BA
100
AcDbEntity
  8
1
390
0
  6
Continuous
 62
     3
100
AcDbSpline
210
0.0
220
0.0
230
1.0
 70
     0
 71
     1
 72
     4
 73
     2
 74
     0
 42
0.000001
 43
0.000001
 40
0.0
 40
0.0
 40
1.0
 40
1.0
 10
0.0044751280378074
 20
0.9330075344882959
 30
4.0749999999999993
 10
0.0049466463414635
 20
0.9357249070631969
 30
4.0649999999999995
  0
LINE
  5
3BB
100
AcDbEntity
  8
1
390
0
  6
Continuous
 62
     3
100
AcDbLine
 10
0.297374
 20
-0.299092
 30
4.075
 11
0.219544
 21
-0.239636
 31
4.075
  0
LINE
  5
3BC
100
AcDbEntity
  8
1
390
0
  6
Continuous
 62
     3
100
AcDbLine
 10
0.075875
 20
1.100875
 30
4.075
 11
0.075
 21
1.1
 31
4.065
  0
SPLINE
  5
3BD
100
AcDbEntity
  8
1
390
0
  6
Continuous
 62
     3
100
AcDbSpline
210
0.0
220
0.0
230
1.0
 70
     0
 71
     2
 72
     6
 73
     3
 74
     0
 42
0.000001
 43
0.000001
 40
0.0
 40
0.0
 40
0.0
 40
1.0
 40
1.0
 40
1.0
 10
-0.042879459805991
 20
0.765112944293123
 30
4.0749999999999975
 10
-0.0377694773952257
 20
0.7606844707609514
 30
4.0749999999999975
 10
-0.0284609551764381
 20
0.753799026726345
 30
4.0749999999999975
  0
LINE
  5
3BE
100
AcDbEntity
  8
1
390
0
  6
Continuous
 62
     3
100
AcDbLine
 10
-0.041532
 20
1.031293
 30
4.075
 11
-0.041532
 21
1.031293
 31
4.065
  0
LINE
  5
3BF
100
AcDbEntity
  8
1
390
0
  6
Continuous
 62
     3
100
AcDbLine
 10
-0.042879
 20
0.805631
 30
4.075
 11
-0.042879
 21
0.825985
 31
4.075
  0
LINE
  5
3C0
100
AcDbEntity
  8
1
390
0
  6
Continuous
 62
     3
100
AcDbLine
 10
-0.1
 20
0.053687
 30
1.75
 11
-0.1
 21
0.053687
 31
1.735
  0
LINE
  5
3C1
100
AcDbEntity
  8
1
390
0
  6
Continuous
 62
     3
100
AcDbLine
 10
-0.041614
 20
1.056803
 30
4.075
 11
-0.041614
 21
1.056803
 31
4.065
  0
LINE
  5
3C2
100
AcDbEntity
  8
1
390
0
  6
Continuous
 62
     3
100
AcDbLine
 10
-0.030986
 20
-0.985747
 30
4.075
 11
-0.030986
 21
-0.961389
 31
4.075
  0
LINE
  5
3C3
100
AcDbEntity
  8
1
390
0
  6
Continuous
 62
     3
100
AcDbLine
 10
-0.029371
 20
1.011516
 30
4.075
 11
-0.029371
 21
1.011516
 31
4.065
  0
SPLINE
  5
3C4
100
AcDbEntity
  8
1
390
0
  6
Continuous
 62
     3
100
AcDbSpline
210
0.0
220
0.0
230
1.0
 70
     0
 71
     1
 72
     4
 73
     2
 74
     0
 42
0.000001
 43
0.000001
 40
0.0
 40
0.0
 40
1.0
 40
1.0
 10
-0.0147008033601995
 20
0.9480467336561568
 30
4.0749999999999993
 10
-0.0077020698876232
 20
0.9400384983483126
 30
4.0749999999999993
  0
LINE
  5
3C5
100
AcDbEntity
  8
1
390
0
  6
Continuous
 62
     3
100
AcDbLine
 10
0.283565
 20
-1.12892
 30
4.05
 11
0.298254
 21
-0.298666
 31
4.05
  0
LINE
  5
3C6
100
AcDbEntity
  8
1
390
0
  6
Continuous
 62
     3
100
AcDbLine
 10
0.054125
 20
0.830781
 30
4.075
 11
0.055
 21
0.830781
 31
4.065
  0
LINE
  5
3C7
100
AcDbEntity
  8
1
390
0
  6
Continuous
 62
     3
100
AcDbLine
 10
0.04417
 20
1.020852
 30
4.075
 11
0.04417
 21
1.020852
 31
4.065
  0
LINE
  5
3C8
100
AcDbEntity
  8
1
390
0
  6
Continuous
 62
     3
100
AcDbLine
 10
-0.013976
 20
-0.588355
 30
4.075
 11
-0.030986
 21
-0.588355
 31
4.075
  0
LINE
  5
3C9
100
AcDbEntity
  8
1
390
0
  6
Continuous
 62
     3
100
AcDbLine
 10
0.027756
 20
-0.986204
 30
4.075
 11
0.027756
 21
-0.960302
 31
4.075
  0
LINE
  5
3CA
100
AcDbEntity
  8
1
390
0
  6
Continuous
 62
     3
100
AcDbLine
 10
0.05914
 20
-0.751065
 30
4.075
 11
0.05914
 21
-0.718376
 31
4.075
  0
LINE
  5
3CB
100
AcDbEntity
  8
1
390
0
  6
Continuous
 62
     3
100
AcDbLine
 10
-0.297374
 20
0.299092
 30
4.075
 11
-0.298254
 21
0.298666
 31
4.05
  0
SPLINE
  5
3CC
100
AcDbEntity
  8
1
390
0
  6
Continuous
 62
     3
100
AcDbSpline
210
0.0
220
0.0
230
1.0
 70
     0
 71
     1
 72
     4
 73
     2
 74
     0
 42
0.000001
 43
0.000001
 40
0.0
 40
0.0
 40
1.0
 40
1.0
 10
0.0124085365853671
 20
0.851078066914496
 30
4.064999999999972
 10
0.0230983231707318
 20
0.8538661710037149
 30
4.064999999999972
  0
LINE
  5
3CD
100
AcDbEntity
  8
1
390
0
  6
Continuous
 62
     3
100
AcDbLine
 10
-0.282507
 20
-1.128902
 30
4.019705
 11
-0.283565
 21
-1.12892
 31
4.05
  0
SPLINE
  5
3CE
100
AcDbEntity
  8
1
390
0
  6
Continuous
 62
     3
100
AcDbSpline
210
0.0
220
0.0
230
1.0
 70
     0
 71
     3
 72
     8
 73
     4
 74
     0
 42
0.000001
 43
0.000001
 40
0.0
 40
0.0
 40
0.0
 40
0.0
 40
1.0
 40
1.0
 40
1.0
 40
1.0
 10
-0.0227210365853658
 20
0.6820273029921364
 30
4.0749999999999993
 10
-0.0162366550867228
 20
0.6820273034411969
 30
4.0749999999999993
 10
-0.0110266481297407
 20
0.6802256378465004
 30
4.0749999999999993
 10
-0.0073451652713337
 20
0.6764911252120542
 30
4.0749999999999993
  0
LINE
  5
3CF
100
AcDbEntity
  8
1
390
0
  6
Continuous
 62
     3
100
AcDbLine
 10
0.060015
 20
-0.751065
 30
4.065
 11
0.060015
 21
-0.718376
 31
4.065
  0
SPLINE
  5
3D0
100
AcDbEntity
  8
1
390
0
  6
Continuous
 62
     3
100
AcDbSpline
210
0.0
220
0.0
230
1.0
 70
     0
 71
     3
 72
     8
 73
     4
 74
     0
 42
0.000001
 43
0.000001
 40
0.0
 40
0.0
 40
0.0
 40
0.0
 40
1.0
 40
1.0
 40
1.0
 40
1.0
 10
-0.0295757092767646
 20
1.0617170167938472
 30
4.0749999999999993
 10
-0.0234746068452702
 20
1.0617170167938472
 30
4.0749999999999993
 10
-0.0189294902687878
 20
1.0594649320036982
 30
4.0749999999999993
 10
-0.0160222535396865
 20
1.0550017094195849
 30
4.0749999999999993
  0
ARC
  5
3D1
100
AcDbEntity
  8
1
390
0
  6
Continuous
 62
     3
100
AcDbCircle
 10
0.043601
 20
-0.797965
 30
4.065
 40
0.016415
210
0.0
220
0.0
230
1.0
100
AcDbArc
 50
0.0
 51
90.0
  0
LINE
  5
3D2
100
AcDbEntity
  8
1
390
0
  6
Continuous
 62
     3
100
AcDbLine
 10
0.060015
 20
-0.863624
 30
4.065
 11
0.060015
 21
-0.891294
 31
4.065
  0
SPLINE
  5
3D3
100
AcDbEntity
  8
1
390
0
  6
Continuous
 62
     3
100
AcDbSpline
210
0.0
220
0.0
230
1.0
 70
     0
 71
     1
 72
     4
 73
     2
 74
     0
 42
0.000001
 43
0.000001
 40
0.0
 40
0.0
 40
1.0
 40
1.0
 10
-0.0508627309226442
 20
0.8477149836400306
 30
4.0749999999999993
 10
-0.0541251133647407
 20
0.8301858736059479
 30
4.0749999999999993
  0
LINE
  5
3D4
100
AcDbEntity
  8
1
390
0
  6
Continuous
 62
     3
100
AcDbLine
 10
-0.03186
 20
-0.687141
 30
4.065
 11
-0.03186
 21
-0.662519
 31
4.065
  0
SPLINE
  5
3D5
100
AcDbEntity
  8
1
390
0
  6
Continuous
 62
     3
100
AcDbSpline
210
0.0
220
0.0
230
1.0
 70
     0
 71
     3
 72
     8
 73
     4
 74
     0
 42
0.000001
 43
0.000001
 40
0.0
 40
0.0
 40
0.0
 40
0.0
 40
1.0
 40
1.0
 40
1.0
 40
1.0
 10
-0.0431291650138427
 20
1.0713805078933953
 30
4.0749999999999993
 10
-0.0474695466094024
 20
1.0687599001375856
 30
4.0749999999999993
 10
-0.0509090942889026
 20
1.0649927764886093
 30
4.0749999999999993
 10
-0.0534478080523432
 20
1.0600381899502815
 30
4.0749999999999993
  0
LINE
  5
3D6
100
AcDbEntity
  8
1
390
0
  6
Continuous
 62
     3
100
AcDbLine
 10
0.003314
 20
-1.053566
 30
4.065
 11
-0.038895
 21
-1.053566
 31
4.065
  0
SPLINE
  5
3D7
100
AcDbEntity
  8
1
390
0
  6
Continuous
 62
     3
100
AcDbSpline
210
0.0
220
0.0
230
1.0
 70
     0
 71
     1
 72
     4
 73
     2
 74
     0
 42
0.000001
 43
0.000001
 40
0.0
 40
0.0
 40
1.0
 40
1.0
 10
-0.0350095467462804
 20
0.6788068316899322
 30
4.0750000000000011
 10
-0.0227210365853658
 20
0.6820273029921364
 30
4.0750000000000011
  0
LINE
  5
3D8
100
AcDbEntity
  8
1
390
0
  6
Continuous
 62
     3
100
AcDbLine
 10
-0.038895
 20
-1.041841
 30
4.065
 11
-0.03977
 21
-1.041841
 31
4.075
  0
SPLINE
  5
3D9
100
AcDbEntity
  8
1
390
0
  6
Continuous
 62
     3
100
AcDbSpline
210
0.0
220
0.0
230
1.0
 70
     0
 71
     1
 72
     4
 73
     2
 74
     0
 42
0.000001
 43
0.000001
 40
0.0
 40
0.0
 40
1.0
 40
1.0
 10
0.0230983231707318
 20
0.8547410576389766
 30
4.0750000000000011
 10
0.0327425623237972
 20
0.8527212903115209
 30
4.0750000000000011
  0
LINE
  5
3DA
100
AcDbEntity
  8
1
390
0
  6
Continuous
 62
     3
100
AcDbLine
 10
0.001421
 20
-0.887073
 30
4.065
 11
0.005222
 21
-0.886198
 31
4.075
  0
SPLINE
  5
3DB
100
AcDbEntity
  8
1
390
0
  6
Continuous
 62
     3
100
AcDbSpline
210
0.0
220
0.0
230
1.0
 70
     0
 71
     1
 72
     4
 73
     2
 74
     0
 42
0.000001
 43
0.000001
 40
0.0
 40
0.0
 40
1.0
 40
1.0
 10
-0.0530933605388627
 20
0.6714674454673721
 30
4.0749999999999993
 10
-0.0541251133647407
 20
0.6568029739776951
 30
4.0749999999999993
  0
LINE
  5
3DC
100
AcDbEntity
  8
1
390
0
  6
Continuous
 62
     3
100
AcDbLine
 10
0.060015
 20
-0.751065
 30
4.065
 11
0.05914
 21
-0.751065
 31
4.075
  0
LINE
  5
3DD
100
AcDbEntity
  8
1
390
0
  6
Continuous
 62
     3
100
AcDbLine
 10
-0.282507
 20
-1.128902
 30
4.019705
 11
-0.296677
 21
-0.299429
 31
4.005227
  0
LINE
  5
3DE
100
AcDbEntity
  8
1
390
0
  6
Continuous
 62
     3
100
AcDbLine
 10
0.05914
 20
-0.996835
 30
4.075
 11
0.045891
 21
-0.99123
 31
4.075
  0
ELLIPSE
  5
3DF
100
AcDbEntity
  8
1
390
0
  6
Continuous
 62
     3
100
AcDbEllipse
 10
0.0
 20
0.0
 30
5.661584
 11
-0.182118599462005
 21
0.2383963416875304
 31
8.5908759848746801
210
0.6066921924396423
220
-0.7941703902580933
230
0.034899496702501
 40
0.034899
 41
1.7595068575784838
 42
1.7649702635318025
  0
SPLINE
  5
3E0
100
AcDbEntity
  8
1
390
0
  6
Continuous
 62
     3
100
AcDbSpline
210
0.0
220
0.0
230
1.0
 70
     0
 71
     3
 72
     8
 73
     4
 74
     0
 42
0.000001
 43
0.000001
 40
0.0
 40
0.0
 40
0.0
 40
0.0
 40
1.0
 40
1.0
 40
1.0
 40
1.0
 10
-0.0016498578789179
 20
1.0455429533009595
 30
4.0749999999999993
 10
-0.0016498578789179
 20
1.0516440557324538
 30
4.0749999999999993
 10
0.0003155979379394
 20
1.0566805362631506
 30
4.0749999999999993
 10
0.0042465095716539
 20
1.0606523948930495
 30
4.0749999999999993
  0
LINE
  5
3E1
100
AcDbEntity
  8
1
390
0
  6
Continuous
 62
     3
100
AcDbLine
 10
-0.297374
 20
-0.299092
 30
4.075
 11
-0.298254
 21
-0.298666
 31
4.05
  0
SPLINE
  5
3E2
100
AcDbEntity
  8
1
390
0
  6
Continuous
 62
     3
100
AcDbSpline
210
0.0
220
0.0
230
1.0
 70
     0
 71
     3
 72
     8
 73
     4
 74
     0
 42
0.000001
 43
0.000001
 40
0.0
 40
0.0
 40
0.0
 40
0.0
 40
1.0
 40
1.0
 40
1.0
 40
1.0
 10
0.0192331101751904
 20
1.0665487623436212
 30
4.0649999999999995
 10
0.0255798945837919
 20
1.0665487623436212
 30
4.0649999999999995
 10
0.0309030040877803
 20
1.064419518542026
 30
4.0649999999999995
 10
0.0352024386871555
 20
1.0601610309388352
 30
4.0649999999999995
  0
SPLINE
  5
3E3
100
AcDbEntity
  8
1
390
0
  6
Continuous
 62
     3
100
AcDbSpline
210
0.0
220
0.0
230
1.0
 70
     0
 71
     3
 72
     8
 73
     4
 74
     0
 42
0.000001
 43
0.000001
 40
0.0
 40
0.0
 40
0.0
 40
0.0
 40
1.0
 40
1.0
 40
1.0
 40
1.0
 10
-0.0415322321626462
 20
1.0312933986287445
 30
4.0749999999999993
 10
-0.0449008913761473
 20
1.0346205521929583
 30
4.0749999999999993
 10
-0.0464813886757299
 20
1.0389978239901037
 30
4.0749999999999993
 10
-0.0463639777124202
 20
1.0441507554306855
 30
4.0749999999999993
  0
SPLINE
  5
3E4
100
AcDbEntity
  8
1
390
0
  6
Continuous
 62
     3
100
AcDbSpline
210
0.0
220
0.0
230
1.0
 70
     0
 71
     3
 72
     8
 73
     4
 74
     0
 42
0.000001
 43
0.000001
 40
0.0
 40
0.0
 40
0.0
 40
0.0
 40
1.0
 40
1.0
 40
1.0
 40
1.0
 10
-0.049926366380474
 20
1.0225307414452558
 30
4.0649999999999995
 10
-0.0450536738345154
 20
1.0167981619794222
 30
4.0649999999999995
 10
-0.0382155254716996
 20
1.0131538793189994
 30
4.0649999999999995
 10
-0.0293709742958419
 20
1.0115159994716183
 30
4.0649999999999995
  0
LINE
  5
3E5
100
AcDbEntity
  8
1
390
0
  6
Continuous
 62
     3
100
AcDbLine
 10
-0.030986
 20
-0.864498
 30
4.075
 11
0.05914
 21
-0.864498
 31
4.075
  0
SPLINE
  5
3E6
100
AcDbEntity
  8
1
390
0
  6
Continuous
 62
     3
100
AcDbSpline
210
0.0
220
0.0
230
1.0
 70
     0
 71
     2
 72
     6
 73
     3
 74
     0
 42
0.000001
 43
0.000001
 40
0.0
 40
0.0
 40
0.0
 40
1.0
 40
1.0
 40
1.0
 10
-0.0381897865853657
 20
0.6914869888475833
 30
4.0650000000000031
 10
-0.0427591462079863
 20
0.6895167285983048
 30
4.0650000000000031
 10
-0.0487957317073089
 20
0.6836802973977793
 30
4.0650000000000031
  0
LINE
  5
3E7
100
AcDbEntity
  8
1
390
0
  6
Continuous
 62
     3
100
AcDbLine
 10
-0.055
 20
0.708773
 30
4.065
 11
-0.042005
 21
0.708773
 31
4.065
  0
LINE
  5
3E8
100
AcDbEntity
  8
1
390
0
  6
Continuous
 62
     3
100
AcDbLine
 10
-0.030986
 20
-0.720269
 30
4.075
 11
-0.030986
 21
-0.702837
 31
4.075
  0
LINE
  5
3E9
100
AcDbEntity
  8
1
390
0
  6
Continuous
 62
     3
100
AcDbLine
 10
-0.075
 20
0.6
 30
4.065
 11
0.075
 21
0.6
 31
4.065
  0
ARC
  5
3EA
100
AcDbEntity
  8
1
390
0
  6
Continuous
 62
     3
100
AcDbCircle
 10
-0.015446
 20
-0.797965
 30
4.075
 40
0.01554
100
AcDbArc
 50
90.0
 51
180.0
  0
LINE
  5
3EB
100
AcDbEntity
  8
1
390
0
  6
Continuous
 62
     3
100
AcDbLine
 10
-0.023182
 20
0.693586
 30
4.075
 11
-0.023182
 21
0.694461
 31
4.065
  0
LINE
  5
3EC
100
AcDbEntity
  8
1
390
0
  6
Continuous
 62
     3
100
AcDbLine
 10
0.004192
 20
0.806506
 30
4.065
 11
0.004192
 21
0.829071
 31
4.065
  0
SPLINE
  5
3ED
100
AcDbEntity
  8
1
390
0
  6
Continuous
 62
     3
100
AcDbSpline
210
0.0
220
0.0
230
1.0
 70
     0
 71
     1
 72
     4
 73
     2
 74
     0
 42
0.000001
 43
0.000001
 40
0.0
 40
0.0
 40
1.0
 40
1.0
 10
0.0392001321797491
 20
0.8475275355938988
 30
4.0749999999999984
 10
0.0384832317073171
 20
0.8470260223048326
 30
4.0649999999999995
  0
LINE
  5
3EE
100
AcDbEntity
  8
1
390
0
  6
Continuous
 62
     3
100
AcDbLine
 10
0.025502
 20
0.953441
 30
4.075
 11
0.025069
 21
0.954201
 31
4.065
  0
LINE
  5
3EF
100
AcDbEntity
  8
1
390
0
  6
Continuous
 62
     3
100
AcDbLine
 10
-0.055
 20
0.62
 30
4.065
 11
0.055
 21
0.62
 31
4.065
  0
LINE
  5
3F0
100
AcDbEntity
  8
1
390
0
  6
Continuous
 62
     3
100
AcDbLine
 10
0.1
 20
0.053687
 30
1.75
 11
0.1
 21
-0.053687
 31
1.75
  0
LINE
  5
3F1
100
AcDbEntity
  8
1
390
0
  6
Continuous
 62
     3
100
AcDbLine
 10
-0.016022
 20
1.055002
 30
4.075
 11
-0.016022
 21
1.055002
 31
4.065
  0
ARC
  5
3F2
100
AcDbEntity
  8
1
390
0
  6
Continuous
 62
     3
100
AcDbCircle
 10
0.034221
 20
-0.812996
 30
4.075
 40
0.005565
100
AcDbArc
 50
0.0
 51
90.0
  0
ARC
  5
3F3
100
AcDbEntity
  8
1
390
0
  6
Continuous
 62
     3
100
AcDbCircle
 10
0.0
 20
0.0
 30
1.735
 40
0.1135
100
AcDbArc
 50
151.770165
 51
208.229835
  0
SPLINE
  5
3F4
100
AcDbEntity
  8
1
390
0
  6
Continuous
 62
     3
100
AcDbSpline
210
0.0
220
0.0
230
1.0
 70
     0
 71
     2
 72
     6
 73
     3
 74
     0
 42
0.000001
 43
0.000001
 40
0.0
 40
0.0
 40
0.0
 40
1.0
 40
1.0
 40
1.0
 10
-0.047908804751934
 20
0.6833914222294496
 30
4.0749999999999984
 10
-0.0509699768631511
 20
0.6799001149569978
 30
4.0749999999999984
 10
-0.053093360538863
 20
0.6714674454673713
 30
4.0749999999999984
  0
SPLINE
  5
3F5
100
AcDbEntity
  8
1
390
0
  6
Continuous
 62
     3
100
AcDbSpline
210
0.0
220
0.0
230
1.0
 70
     0
 71
     3
 72
    11
 73
     7
 74
     0
 42
0.000001
 43
0.000001
 40
0.0
 40
0.0
 40
0.0
 40
0.0
 40
0.498755754502819
 40
0.498755754502819
 40
0.498755754502819
 40
1.0
 40
1.0
 40
1.0
 40
1.0
 10
-0.2195442028100008
 20
-0.2396358550228269
 30
4.0750000000000002
 10
-0.2162964021589597
 20
-0.2369720299016382
 30
4.0708418959527206
 10
-0.2130479307443259
 20
-0.2343077287775648
 30
4.0666846205603111
 10
-0.2097987039883578
 20
-0.2316428916811009
 30
4.0625282794589586
 10
-0.2065332658153912
 20
-0.2289647588719495
 30
4.0583512010610603
 10
-0.2032670647955376
 20
-0.2262860847460673
 30
4.0541750658151869
 10
-0.1999999999999851
 20
-0.2236067977499668
 30
4.0499999999999812
  0
SPLINE
  5
3F6
100
AcDbEntity
  8
1
390
0
  6
Continuous
 62
     3
100
AcDbSpline
210
0.0
220
0.0
230
1.0
 70
     0
 71
     1
 72
     4
 73
     2
 74
     0
 42
0.000001
 43
0.000001
 40
0.0
 40
0.0
 40
1.0
 40
1.0
 10
-0.05122254286985
 20
0.9479382517895103
 30
4.0750000000000233
 10
-0.0541251133647386
 20
0.9284758364312267
 30
4.0750000000000233
  0
SPLINE
  5
3F7
100
AcDbEntity
  8
1
390
0
  6
Continuous
 62
     3
100
AcDbSpline
210
0.0
220
0.0
230
1.0
 70
     0
 71
     3
 72
     8
 73
     4
 74
     0
 42
0.000001
 43
0.000001
 40
0.0
 40
0.0
 40
0.0
 40
0.0
 40
1.0
 40
1.0
 40
1.0
 40
1.0
 10
-0.0160222535396865
 20
1.0550017094195849
 30
4.0749999999999993
 10
-0.0130740698144006
 20
1.0504975398392871
 30
4.0749999999999993
 10
-0.0115999779517577
 20
1.0454201123124058
 30
4.0749999999999993
 10
-0.0115999779517577
 20
1.0398103738351259
 30
4.0749999999999993
  0
LINE
  5
3F8
100
AcDbEntity
  8
1
390
0
  6
Continuous
 62
     3
100
AcDbLine
 10
-0.041876
 20
0.670147
 30
4.075
 11
-0.04104
 21
0.669888
 31
4.065
  0
SPLINE
  5
3F9
100
AcDbEntity
  8
1
390
0
  6
Continuous
 62
     3
100
AcDbSpline
210
0.0
220
0.0
230
1.0
 70
     0
 71
     3
 72
     8
 73
     4
 74
     0
 42
0.000001
 43
0.000001
 40
0.0
 40
0.0
 40
0.0
 40
0.0
 40
1.0
 40
1.0
 40
1.0
 40
1.0
 10
-0.0463639777124202
 20
1.0441507554306855
 30
4.0649999999999995
 10
-0.0465105869005939
 20
1.0492669565637547
 30
4.0649999999999995
 10
-0.0448906882869113
 20
1.0536289908838574
 30
4.0649999999999995
 10
-0.0415639959028884
 20
1.0568554606305371
 30
4.0649999999999995
  0
ARC
  5
3FA
100
AcDbEntity
  8
1
390
0
  6
Continuous
 62
     3
100
AcDbCircle
 10
-0.018729
 20
-1.024239
 30
4.065
 40
0.041271
210
0.0
220
0.0
230
1.0
100
AcDbArc
 50
0.109976
 51
26.139298
  0
ARC
  5
3FB
100
AcDbEntity
  8
1
390
0
  6
Continuous
 62
     3
100
AcDbCircle
 10
0.034221
 20
-0.732446
 30
4.075
 40
0.005565
100
AcDbArc
 50
270.0
 51
360.0
  0
LINE
  5
3FC
100
AcDbEntity
  8
1
390
0
  6
Continuous
 62
     3
100
AcDbLine
 10
-0.054125
 20
0.709648
 30
4.075
 11
-0.055
 21
0.708773
 31
4.065
  0
LINE
  5
3FD
100
AcDbEntity
  8
1
390
0
  6
Continuous
 62
     3
100
AcDbLine
 10
0.042879
 20
0.805631
 30
4.075
 11
0.003317
 21
0.805631
 31
4.075
  0
LINE
  5
3FE
100
AcDbEntity
  8
1
390
0
  6
Continuous
 62
     3
100
AcDbLine
 10
-0.013101
 20
-0.655484
 30
4.065
 11
-0.013101
 21
-0.636725
 31
4.065
  0
ARC
  5
3FF
100
AcDbEntity
  8
1
390
0
  6
Continuous
 62
     3
100
AcDbCircle
 10
0.034221
 20
-0.725833
 30
4.065
 40
0.00469
210
0.0
220
0.0
230
1.0
100
AcDbArc
 50
0.0
 51
90.0
  0
ARC
  5
400
100
AcDbEntity
  8
1
390
0
  6
Continuous
 62
     3
100
AcDbCircle
 10
0.033604
 20
1.124498
 30
4.075
 40
0.249127
100
AcDbArc
 50
1.013589
 51
88.288289
  0
LINE
  5
401
100
AcDbEntity
  8
1
390
0
  6
Continuous
 62
     3
100
AcDbLine
 10
0.022543
 20
-1.053566
 30
4.065
 11
0.022543
 21
-1.02416
 31
4.065
  0
LINE
  5
402
100
AcDbEntity
  8
1
390
0
  6
Continuous
 62
     3
100
AcDbLine
 10
0.298254
 20
-0.298666
 30
4.05
 11
0.297374
 21
-0.299092
 31
4.075
  0
LINE
  5
403
100
AcDbEntity
  8
1
390
0
  6
Continuous
 62
     3
100
AcDbLine
 10
-0.03186
 20
-0.933973
 30
4.065
 11
-0.03186
 21
-0.903253
 31
4.065
  0
LINE
  5
404
100
AcDbEntity
  8
1
390
0
  6
Continuous
 62
     3
100
AcDbLine
 10
0.060015
 20
-1.1075
 30
4.065
 11
0.05914
 21
-1.106625
 31
4.075
  0
LINE
  5
405
100
AcDbEntity
  8
1
390
0
  6
Continuous
 62
     3
100
AcDbLine
 10
-0.005581
 20
0.897229
 30
4.075
 11
-0.043718
 21
0.897229
 31
4.075
  0
LINE
  5
406
100
AcDbEntity
  8
1
390
0
  6
Continuous
 62
     3
100
AcDbLine
 10
-0.0775
 20
-1.125
 30
4.065
 11
-0.078375
 21
-1.125875
 31
4.075
  0
LINE
  5
407
100
AcDbEntity
  8
1
390
0
  6
Continuous
 62
     3
100
AcDbLine
 10
0.027936
 20
-0.933973
 30
4.065
 11
0.03202
 21
-0.933098
 31
4.075
  0
LINE
  5
408
100
AcDbEntity
  8
1
390
0
  6
Continuous
 62
     3
100
AcDbLine
 10
-0.007989
 20
-0.808306
 30
4.065
 11
0.034221
 21
-0.808306
 31
4.065
  0
LINE
  5
409
100
AcDbEntity
  8
1
390
0
  6
Continuous
 62
     3
100
AcDbLine
 10
-0.012679
 20
-0.822376
 30
4.065
 11
-0.013553
 21
-0.82325
 31
4.075
  0
LINE
  5
40A
100
AcDbEntity
  8
1
390
0
  6
Continuous
 62
     3
100
AcDbLine
 10
-0.030986
 20
-0.848679
 30
4.075
 11
-0.030986
 21
-0.797965
 31
4.075
  0
LINE
  5
40B
100
AcDbEntity
  8
1
390
0
  6
Continuous
 62
     3
100
AcDbLine
 10
0.060015
 20
-0.636725
 30
4.065
 11
0.05914
 21
-0.63585
 31
4.075
  0
LINE
  5
40C
100
AcDbEntity
  8
1
390
0
  6
Continuous
 62
     3
100
AcDbLine
 10
0.05914
 20
-0.60946
 30
4.075
 11
0.05914
 21
-0.63585
 31
4.075
  0
LINE
  5
40D
100
AcDbEntity
  8
1
390
0
  6
Continuous
 62
     3
100
AcDbLine
 10
0.298254
 20
-0.298666
 30
4.05
 11
0.2
 21
-0.223607
 31
4.05
  0
LINE
  5
40E
100
AcDbEntity
  8
1
390
0
  6
Continuous
 62
     3
100
AcDbLine
 10
-0.298254
 20
0.298666
 30
4.05
 11
-0.2
 21
0.223607
 31
4.05
  0
SPLINE
  5
40F
100
AcDbEntity
  8
1
390
0
  6
Continuous
 62
     3
100
AcDbSpline
210
0.0
220
0.0
230
1.0
 70
     0
 71
     2
 72
     6
 73
     3
 74
     0
 42
0.000001
 43
0.000001
 40
0.0
 40
0.0
 40
0.0
 40
1.0
 40
1.0
 40
1.0
 10
-0.0420045731707343
 20
0.6578438661710037
 30
4.0650000000000297
 10
-0.0420045734497604
 20
0.6637174728550982
 30
4.0649999999999071
 10
-0.0410403963414658
 20
0.6698884758364319
 30
4.0650000000000297
  0
SPLINE
  5
410
100
AcDbEntity
  8
1
390
0
  6
Continuous
 62
     3
100
AcDbSpline
210
0.0
220
0.0
230
1.0
 70
     0
 71
     3
 72
     8
 73
     4
 74
     0
 42
0.000001
 43
0.000001
 40
0.0
 40
0.0
 40
0.0
 40
0.0
 40
1.0
 40
1.0
 40
1.0
 40
1.0
 10
0.0428185799774774
 20
1.0703158859925976
 30
4.0649999999999995
 10
0.0362670605879532
 20
1.0771540343554136
 30
4.0649999999999995
 10
0.0283233433281552
 20
1.0805526350387291
 30
4.0649999999999995
 10
0.0189464812018987
 20
1.0805526350387291
 30
4.0649999999999995
  0
SPLINE
  5
411
100
AcDbEntity
  8
1
390
0
  6
Continuous
 62
     3
100
AcDbSpline
210
0.0
220
0.0
230
1.0
 70
     0
 71
     3
 72
     8
 73
     4
 74
     0
 42
0.000001
 43
0.000001
 40
0.0
 40
0.0
 40
0.0
 40
0.0
 40
1.0
 40
1.0
 40
1.0
 40
1.0
 10
-0.0035213414634147
 20
0.8488847583643127
 30
4.0649999999999995
 10
-0.0060785060975658
 20
0.8534572490706146
 30
4.0649999999999995
 10
-0.0094321646341367
 20
0.8568773234200992
 30
4.0649999999999995
 10
-0.0135823170731707
 20
0.8591449814126393
 30
4.0649999999999995
  0
LINE
  5
412
100
AcDbEntity
  8
1
390
0
  6
Continuous
 62
     3
100
AcDbLine
 10
0.05914
 20
-0.996835
 30
4.075
 11
0.05914
 21
-1.022031
 31
4.075
  0
LINE
  5
413
100
AcDbEntity
  8
1
390
0
  6
Continuous
 62
     3
100
AcDbLine
 10
0.010271
 20
0.6329
 30
4.065
 11
0.010271
 21
0.657918
 31
4.065
  0
LINE
  5
414
100
AcDbEntity
  8
1
390
0
  6
Continuous
 62
     3
100
AcDbLine
 10
-0.029371
 20
1.011516
 30
4.075
 11
-0.026996
 21
1.024701
 31
4.075
  0
SPLINE
  5
415
100
AcDbEntity
  8
1
390
0
  6
Continuous
 62
     3
100
AcDbSpline
210
0.0
220
0.0
230
1.0
 70
     0
 71
     3
 72
     8
 73
     4
 74
     0
 42
0.000001
 43
0.000001
 40
0.0
 40
0.0
 40
0.0
 40
0.0
 40
1.0
 40
1.0
 40
1.0
 40
1.0
 10
0.0250685975609743
 20
0.9542007434944261
 30
4.0649999999999675
 10
0.0191996951740366
 20
0.9508550185568659
 30
4.0649999999999675
 10
0.0143368901561159
 20
0.9472862454261032
 30
4.0649999999999675
 10
0.0104382621951202
 20
0.9434944237918235
 30
4.0649999999999675
  0
LINE
  5
416
100
AcDbEntity
  8
1
390
0
  6
Continuous
 62
     3
100
AcDbLine
 10
-0.042005
 20
0.6329
 30
4.065
 11
-0.042005
 21
0.657844
 31
4.065
  0
LINE
  5
417
100
AcDbEntity
  8
1
390
0
  6
Continuous
 62
     3
100
AcDbLine
 10
-0.054125
 20
0.656803
 30
4.075
 11
-0.055
 21
0.656803
 31
4.065
  0
SPLINE
  5
418
100
AcDbEntity
  8
1
390
0
  6
Continuous
 62
     3
100
AcDbSpline
210
0.0
220
0.0
230
1.0
 70
     0
 71
     1
 72
     4
 73
     2
 74
     0
 42
0.000001
 43
0.000001
 40
0.0
 40
0.0
 40
1.0
 40
1.0
 10
-0.0251524390243902
 20
0.8506890130293112
 30
4.0749999999999993
 10
-0.0150708582802654
 20
0.8480537419923757
 30
4.0749999999999993
  0
LINE
  5
419
100
AcDbEntity
  8
1
390
0
  6
Continuous
 62
     3
100
AcDbLine
 10
0.041046
 20
1.373514
 30
4.075
 11
0.041072
 21
1.374386
 31
4.05
  0
ARC
  5
41A
100
AcDbEntity
  8
1
390
0
  6
Continuous
 62
     3
100
AcDbCircle
 10
0.033604
 20
-1.124498
 30
4.075
 40
0.249127
100
AcDbArc
 50
271.711711
 51
358.986411
  0
SPLINE
  5
41B
100
AcDbEntity
  8
1
390
0
  6
Continuous
 62
     3
100
AcDbSpline
210
0.0
220
0.0
230
1.0
 70
     0
 71
     1
 72
     4
 73
     2
 74
     0
 42
0.000001
 43
0.000001
 40
0.0
 40
0.0
 40
1.0
 40
1.0
 10
-0.0251524390243902
 20
0.849814126394052
 30
4.0649999999999995
 10
-0.0155525914634146
 20
0.8473234200743494
 30
4.0649999999999995
  0
SPLINE
  5
41C
100
AcDbEntity
  8
1
390
0
  6
Continuous
 62
     3
100
AcDbSpline
210
0.0
220
0.0
230
1.0
 70
     0
 71
     1
 72
     4
 73
     2
 74
     0
 42
0.000001
 43
0.000001
 40
0.0
 40
0.0
 40
1.0
 40
1.0
 10
-0.0092315195071923
 20
0.8401667763373429
 30
4.0750000000000002
 10
-0.010060975609756
 20
0.8398884758364311
 30
4.0649999999999995
  0
LINE
  5
41D
100
AcDbEntity
  8
1
390
0
  6
Continuous
 62
     3
100
AcDbLine
 10
-0.006456
 20
0.898104
 30
4.065
 11
-0.042843
 21
0.898104
 31
4.065
  0
LINE
  5
41E
100
AcDbEntity
  8
1
390
0
  6
Continuous
 62
     3
100
AcDbLine
 10
-0.03186
 20
-0.721143
 30
4.065
 11
-0.030986
 21
-0.720269
 31
4.075
  0
LINE
  5
41F
100
AcDbEntity
  8
1
390
0
  6
Continuous
 62
     3
100
AcDbLine
 10
-0.054125
 20
0.928476
 30
4.075
 11
-0.055
 21
0.928476
 31
4.065
  0
ARC
  5
420
100
AcDbEntity
  8
1
390
0
  6
Continuous
 62
     3
100
AcDbCircle
 10
-0.007989
 20
-0.812996
 30
4.075
 40
0.005565
100
AcDbArc
 50
90.0
 51
180.0
  0
CIRCLE
  5
421
100
AcDbEntity
  8
1
390
0
  6
Continuous
 62
     3
100
AcDbCircle
 10
0.0
 20
0.0
 30
-1.675
 40
0.21013
210
0.0
220
0.0
230
-1.0
  0
LINE
  5
422
100
AcDbEntity
  8
1
390
0
  6
Continuous
 62
     3
100
AcDbLine
 10
-0.282692
 20
1.128905
 30
4.075
 11
-0.283565
 21
1.12892
 31
4.05
  0
SPLINE
  5
423
100
AcDbEntity
  8
1
390
0
  6
Continuous
 62
     3
100
AcDbSpline
210
0.0
220
0.0
230
1.0
 70
     0
 71
     1
 72
     4
 73
     2
 74
     0
 42
0.000001
 43
0.000001
 40
0.0
 40
0.0
 40
1.0
 40
1.0
 10
-0.0418760982577387
 20
0.6701473752989431
 30
4.0750000000000002
 10
-0.0350095467462805
 20
0.6788068316899322
 30
4.0750000000000002
  0
SPLINE
  5
424
100
AcDbEntity
  8
1
390
0
  6
Continuous
 62
     3
100
AcDbSpline
210
0.0
220
0.0
230
1.0
 70
     4
 71
     2
 72
     6
 73
     3
 74
     0
 42
0.000001
 43
0.000001
 40
0.0
 40
0.0
 40
0.0
 40
1.0
 40
1.0
 40
1.0
 10
0.0410720112143815
 20
1.3743864412510791
 30
4.0499999999999998
 41
0.5001115810312649
 10
0.0000000000000013
 20
1.3756138326561187
 30
4.0499999999999998
 41
0.4998884189687351
 10
-0.041072011214382
 20
1.3743864412510791
 30
4.0499999999999998
 41
0.5001115810312649
  0
LINE
  5
425
100
AcDbEntity
  8
1
390
0
  6
Continuous
 62
     3
100
AcDbLine
 10
0.05914
 20
-1.106625
 30
4.075
 11
-0.059125
 21
-1.106625
 31
4.075
  0
LINE
  5
426
100
AcDbEntity
  8
1
390
0
  6
Continuous
 62
     3
100
AcDbLine
 10
0.041045
 20
-1.373478
 30
4.023974
 11
0.041072
 21
-1.374386
 31
4.05
  0
LINE
  5
427
100
AcDbEntity
  8
1
390
0
  6
Continuous
 62
     3
100
AcDbLine
 10
0.042879
 20
0.716183
 30
4.075
 11
0.03377
 21
0.723163
 31
4.075
  0
LINE
  5
428
100
AcDbEntity
  8
1
390
0
  6
Continuous
 62
     3
100
AcDbLine
 10
0.032111
 20
0.942045
 30
4.065
 11
0.055
 21
0.954944
 31
4.065
  0
ARC
  5
429
100
AcDbEntity
  8
1
390
0
  6
Continuous
 62
     3
100
AcDbCircle
 10
-0.002548
 20
-1.041841
 30
4.075
 40
0.006737
100
AcDbArc
 50
0.0
 51
90.0
  0
LINE
  5
42A
100
AcDbEntity
  8
1
390
0
  6
Continuous
 62
     3
100
AcDbLine
 10
0.054125
 20
0.794481
 30
4.075
 11
0.055
 21
0.793606
 31
4.065
  0
SPLINE
  5
42B
100
AcDbEntity
  8
1
390
0
  6
Continuous
 62
     3
100
AcDbSpline
210
0.0
220
0.0
230
1.0
 70
     0
 71
     1
 72
     4
 73
     2
 74
     0
 42
0.000001
 43
0.000001
 40
0.0
 40
0.0
 40
1.0
 40
1.0
 10
-0.0352178255622302
 20
0.8482376102248109
 30
4.0749999999999993
 10
-0.0347942073170731
 20
0.8474721189591077
 30
4.0649999999999995
  0
LINE
  5
42C
100
AcDbEntity
  8
1
390
0
  6
Continuous
 62
     3
100
AcDbLine
 10
0.03377
 20
0.723163
 30
4.075
 11
-0.042286
 21
0.77775
 31
4.075
  0
LINE
  5
42D
100
AcDbEntity
  8
1
390
0
  6
Continuous
 62
     3
100
AcDbLine
 10
-0.013101
 20
-0.58748
 30
4.065
 11
-0.03186
 21
-0.58748
 31
4.065
  0
ARC
  5
42E
100
AcDbEntity
  8
1
390
0
  6
Continuous
 62
     3
100
AcDbCircle
 10
-0.015446
 20
-0.797965
 30
4.065
 40
0.016415
210
0.0
220
0.0
230
1.0
100
AcDbArc
 50
90.0
 51
180.0
  0
LINE
  5
42F
100
AcDbEntity
  8
1
390
0
  6
Continuous
 62
     3
100
AcDbLine
 10
0.05914
 20
-0.663394
 30
4.075
 11
0.05914
 21
-0.686267
 31
4.075
  0
LINE
  5
430
100
AcDbEntity
  8
1
390
0
  6
Continuous
 62
     3
100
AcDbLine
 10
0.046766
 20
-0.955734
 30
4.065
 11
0.060015
 21
-0.949262
 31
4.065
  0
LINE
  5
431
100
AcDbEntity
  8
1
390
0
  6
Continuous
 62
     3
100
AcDbLine
 10
-0.0775
 20
-0.57
 30
4.065
 11
-0.0775
 21
-1.125
 31
4.065
  0
LINE
  5
432
100
AcDbEntity
  8
1
390
0
  6
Continuous
 62
     3
100
AcDbLine
 10
-0.038895
 20
-1.053566
 30
4.065
 11
-0.038895
 21
-1.041841
 31
4.065
  0
LINE
  5
433
100
AcDbEntity
  8
1
390
0
  6
Continuous
 62
     3
100
AcDbLine
 10
0.026881
 20
-0.984858
 30
4.065
 11
0.026881
 21
-0.961654
 31
4.065
  0
LINE
  5
434
100
AcDbEntity
  8
1
390
0
  6
Continuous
 62
     3
100
AcDbLine
 10
0.060015
 20
-0.849554
 30
4.065
 11
0.05914
 21
-0.848679
 31
4.075
  0
LINE
  5
435
100
AcDbEntity
  8
1
390
0
  6
Continuous
 62
     3
100
AcDbLine
 10
0.034221
 20
-0.808306
 30
4.065
 11
0.034221
 21
-0.807431
 31
4.075
  0
SPLINE
  5
436
100
AcDbEntity
  8
1
390
0
  6
Continuous
 62
     3
100
AcDbSpline
210
0.0
220
0.0
230
1.0
 70
     0
 71
     1
 72
     4
 73
     2
 74
     0
 42
0.000001
 43
0.000001
 40
0.0
 40
0.0
 40
1.0
 40
1.0
 10
-0.0001757660162749
 20
1.0362070381708874
 30
4.0749999999999993
 10
-0.0016498578789179
 20
1.0455429533009595
 30
4.0749999999999993
  0
LINE
  5
437
100
AcDbEntity
  8
1
390
0
  6
Continuous
 62
     3
100
AcDbLine
 10
-0.015446
 20
-0.78155
 30
4.065
 11
-0.015446
 21
-0.782425
 31
4.075
  0
SPLINE
  5
438
100
AcDbEntity
  8
1
390
0
  6
Continuous
 62
     3
100
AcDbSpline
210
0.0
220
0.0
230
1.0
 70
     0
 71
     3
 72
     8
 73
     4
 74
     0
 42
0.000001
 43
0.000001
 40
0.0
 40
0.0
 40
0.0
 40
0.0
 40
1.0
 40
1.0
 40
1.0
 40
1.0
 10
0.0163596167702467
 20
0.9333483137828555
 30
4.0749999999999051
 10
0.0201219020203474
 20
0.9359952942889648
 30
4.0750000000002737
 10
0.025085505414001
 20
0.9390065584733516
 30
4.0749999999999167
 10
0.0316745319791579
 20
0.9428026844405896
 30
4.0749999999999167
  0
ARC
  5
439
100
AcDbEntity
  8
1
390
0
  6
Continuous
 62
     3
100
AcDbCircle
 10
0.0
 20
0.0
 30
-4.05
 40
0.3
210
0.0
220
0.0
230
-1.0
100
AcDbArc
 50
48.189685
 51
131.810315
  0
SPLINE
  5
43A
100
AcDbEntity
  8
1
390
0
  6
Continuous
 62
     3
100
AcDbSpline
210
0.0
220
0.0
230
1.0
 70
     0
 71
     3
 72
     8
 73
     4
 74
     0
 42
0.000001
 43
0.000001
 40
0.0
 40
0.0
 40
0.0
 40
0.0
 40
1.0
 40
1.0
 40
1.0
 40
1.0
 10
0.0069442739216373
 20
0.861764887675699
 30
4.0749999999999993
 10
0.0024164461094071
 20
0.8587176265270153
 30
4.0749999999999993
 10
-0.0008139522437445
 20
0.8543626301049965
 30
4.0749999999999993
 10
-0.0026895990137212
 20
0.8486134078125655
 30
4.0749999999999993
  0
SPLINE
  5
43B
100
AcDbEntity
  8
1
390
0
  6
Continuous
 62
     3
100
AcDbSpline
210
0.0
220
0.0
230
1.0
 70
     0
 71
     3
 72
     8
 73
     4
 74
     0
 42
0.000001
 43
0.000001
 40
0.0
 40
0.0
 40
0.0
 40
0.0
 40
1.0
 40
1.0
 40
1.0
 40
1.0
 10
0.199999999999996
 20
-0.2236067977499758
 30
4.0499999999999954
 10
0.2065178980022784
 20
-0.2289520603793543
 30
4.0583293888671435
 10
0.2130323851219108
 20
-0.234294904205364
 30
4.0666630303416822
 10
0.2195442028100006
 20
-0.2396358550228268
 30
4.0750000000000002
  0
SPLINE
  5
43C
100
AcDbEntity
  8
1
390
0
  6
Continuous
 62
     3
100
AcDbSpline
210
0.0
220
0.0
230
1.0
 70
     0
 71
     1
 72
     4
 73
     2
 74
     0
 42
0.000001
 43
0.000001
 40
0.0
 40
0.0
 40
1.0
 40
1.0
 10
-0.041319533763487
 20
0.8411115942855263
 30
4.0749999999999993
 10
-0.0404954268292682
 20
0.8408178438661708
 30
4.0649999999999995
  0
SPLINE
  5
43D
100
AcDbEntity
  8
1
390
0
  6
Continuous
 62
     3
100
AcDbSpline
210
0.0
220
0.0
230
1.0
 70
     0
 71
     3
 72
     8
 73
     4
 74
     0
 42
0.000001
 43
0.000001
 40
0.0
 40
0.0
 40
0.0
 40
0.0
 40
1.0
 40
1.0
 40
1.0
 40
1.0
 10
-0.0415322321626462
 20
1.0312933986287445
 30
4.0649999999999995
 10
-0.0449008913761473
 20
1.0346205521929583
 30
4.0649999999999995
 10
-0.0464813886757299
 20
1.0389978239901037
 30
4.0649999999999995
 10
-0.0463639777124202
 20
1.0441507554306855
 30
4.0649999999999995
  0
SPLINE
  5
43E
100
AcDbEntity
  8
1
390
0
  6
Continuous
 62
     3
100
AcDbSpline
210
0.0
220
0.0
230
1.0
 70
     0
 71
     3
 72
     8
 73
     4
 74
     0
 42
0.000001
 43
0.000001
 40
0.0
 40
0.0
 40
0.0
 40
0.0
 40
1.0
 40
1.0
 40
1.0
 40
1.0
 10
-0.0292890803034729
 20
1.0753114195271098
 30
4.0649999999999995
 10
-0.0341617728494315
 20
1.0753114195271098
 30
4.0649999999999995
 10
-0.0387887834182829
 20
1.0740011156492051
 30
4.0649999999999995
 10
-0.0431291650138427
 20
1.0713805078933953
 30
4.0649999999999995
  0
LINE
  5
43F
100
AcDbEntity
  8
1
390
0
  6
Continuous
 62
     3
100
AcDbLine
 10
-0.055
 20
0.830186
 30
4.065
 11
-0.055
 21
0.793606
 31
4.065
  0
ARC
  5
440
100
AcDbEntity
  8
1
390
0
  6
Continuous
 62
     3
100
AcDbCircle
 10
-0.018729
 20
-1.024239
 30
4.075
 40
0.040397
100
AcDbArc
 50
0.112358
 51
29.544978
  0
LINE
  5
441
100
AcDbEntity
  8
1
390
0
  6
Continuous
 62
     3
100
AcDbLine
 10
0.042005
 20
0.717955
 30
4.065
 11
0.034291
 21
0.723866
 31
4.065
  0
SPLINE
  5
442
100
AcDbEntity
  8
1
390
0
  6
Continuous
 62
     3
100
AcDbSpline
210
0.0
220
0.0
230
1.0
 70
     0
 71
     3
 72
     8
 73
     4
 74
     0
 42
0.000001
 43
0.000001
 40
0.0
 40
0.0
 40
0.0
 40
0.0
 40
1.0
 40
1.0
 40
1.0
 40
1.0
 10
-0.0415853658536584
 20
0.9591449814126393
 30
4.0650000000000013
 10
-0.0465739329828416
 20
0.9564312268676583
 30
4.0650000000000013
 10
-0.0500533536160114
 20
0.9528252787337092
 30
4.0650000000000013
 10
-0.0520236280487803
 20
0.9482899628252787
 30
4.0650000000000013
  0
LINE
  5
443
100
AcDbEntity
  8
1
390
0
  6
Continuous
 62
     3
100
AcDbLine
 10
-0.296677
 20
0.299429
 30
4.005227
 11
-0.282507
 21
1.128902
 31
4.019705
  0
LINE
  5
444
100
AcDbEntity
  8
1
390
0
  6
Continuous
 62
     3
100
AcDbLine
 10
0.055
 20
0.793606
 30
4.065
 11
0.055
 21
0.830781
 31
4.065
  0
SPLINE
  5
445
100
AcDbEntity
  8
1
390
0
  6
Continuous
 62
     3
100
AcDbSpline
210
0.0
220
0.0
230
1.0
 70
     0
 71
     1
 72
     4
 73
     2
 74
     0
 42
0.000001
 43
0.000001
 40
0.0
 40
0.0
 40
1.0
 40
1.0
 10
0.0230983231707318
 20
0.8538661710037191
 30
4.065000000000019
 10
0.0323628048780496
 20
0.8519330855018601
 30
4.065000000000019
  0
SPLINE
  5
446
100
AcDbEntity
  8
1
390
0
  6
Continuous
 62
     3
100
AcDbSpline
210
0.0
220
0.0
230
1.0
 70
     0
 71
     2
 72
     6
 73
     3
 74
     0
 42
0.000001
 43
0.000001
 40
0.0
 40
0.0
 40
0.0
 40
1.0
 40
1.0
 40
1.0
 10
-0.0428794598059936
 20
0.6578438661710037
 30
4.0750000000000304
 10
-0.0428794601078598
 20
0.6637492129184156
 30
4.0749999999999078
 10
-0.0418760987637188
 20
0.6701473754754905
 30
4.0750000000000304
  0
LINE
  5
447
100
AcDbEntity
  8
1
390
0
  6
Continuous
 62
     3
100
AcDbLine
 10
-0.054125
 20
0.77775
 30
4.075
 11
-0.055
 21
0.778625
 31
4.065
  0
LINE
  5
448
100
AcDbEntity
  8
1
390
0
  6
Continuous
 62
     3
100
AcDbLine
 10
-0.054125
 20
0.830186
 30
4.075
 11
-0.055
 21
0.830186
 31
4.065
  0
LINE
  5
449
100
AcDbEntity
  8
1
390
0
  6
Continuous
 62
     3
100
AcDbLine
 10
0.003317
 20
0.805631
 30
4.075
 11
0.003317
 21
0.829071
 31
4.075
  0
LINE
  5
44A
100
AcDbEntity
  8
1
390
0
  6
Continuous
 62
     3
100
AcDbLine
 10
-0.005581
 20
0.925874
 30
4.075
 11
-0.006456
 21
0.925874
 31
4.065
  0
LINE
  5
44B
100
AcDbEntity
  8
1
390
0
  6
Continuous
 62
     3
100
AcDbLine
 10
-0.030986
 20
-0.766605
 30
4.075
 11
-0.030986
 21
-0.738011
 31
4.075
  0
SPLINE
  5
44C
100
AcDbEntity
  8
1
390
0
  6
Continuous
 62
     3
100
AcDbSpline
210
0.0
220
0.0
230
1.0
 70
     0
 71
     1
 72
     4
 73
     2
 74
     0
 42
0.000001
 43
0.000001
 40
0.0
 40
0.0
 40
1.0
 40
1.0
 10
0.0470377834678479
 20
0.8566469266079743
 30
4.0749999999999265
 10
0.0371253377348535
 20
0.8635483960790659
 30
4.0749999999999265
  0
LINE
  5
44D
100
AcDbEntity
  8
1
390
0
  6
Continuous
 62
     3
100
AcDbLine
 10
-0.007989
 20
-0.807431
 30
4.075
 11
0.034221
 21
-0.807431
 31
4.075
  0
LINE
  5
44E
100
AcDbEntity
  8
1
390
0
  6
Continuous
 62
     3
100
AcDbLine
 10
0.1
 20
0.053687
 30
1.735
 11
0.1
 21
0.053687
 31
1.75
  0
LINE
  5
44F
100
AcDbEntity
  8
1
390
0
  6
Continuous
 62
     3
100
AcDbLine
 10
-0.042879
 20
0.709648
 30
4.075
 11
-0.042005
 21
0.708773
 31
4.065
  0
SPLINE
  5
450
100
AcDbEntity
  8
1
390
0
  6
Continuous
 62
     3
100
AcDbSpline
210
0.0
220
0.0
230
1.0
 70
     0
 71
     3
 72
     8
 73
     4
 74
     0
 42
0.000001
 43
0.000001
 40
0.0
 40
0.0
 40
0.0
 40
0.0
 40
1.0
 40
1.0
 40
1.0
 40
1.0
 10
0.0255018881221096
 20
0.9534406869740335
 30
4.0749999999999993
 10
0.0196846519259763
 20
0.9501244157088388
 30
4.0749999999999993
 10
0.0148828237755472
 20
0.9465967767065241
 30
4.0749999999999993
 10
0.0110482498718205
 20
0.9428672542303539
 30
4.0749999999999993
  0
SPLINE
  5
451
100
AcDbEntity
  8
1
390
0
  6
Continuous
 62
     3
100
AcDbSpline
210
0.0
220
0.0
230
1.0
 70
     0
 71
     1
 72
     4
 73
     2
 74
     0
 42
0.000001
 43
0.000001
 40
0.0
 40
0.0
 40
1.0
 40
1.0
 10
0.0119520603671687
 20
0.851824433646981
 30
4.0749999999999122
 10
0.0230983231707318
 20
0.8547410576389689
 30
4.0749999999999122
  0
SPLINE
  5
452
100
AcDbEntity
  8
1
390
0
  6
Continuous
 62
     3
100
AcDbSpline
210
0.0
220
0.0
230
1.0
 70
     0
 71
     3
 72
     8
 73
     4
 74
     0
 42
0.000001
 43
0.000001
 40
0.0
 40
0.0
 40
0.0
 40
0.0
 40
1.0
 40
1.0
 40
1.0
 40
1.0
 10
0.0352024386871555
 20
1.0601610309388352
 30
4.0749999999999993
 10
0.0395018732865308
 20
1.05586159633946
 30
4.0749999999999993
 10
0.0416720640843106
 20
1.0506203808278407
 30
4.0749999999999993
 10
0.0416720640843106
 20
1.0444373844039772
 30
4.0749999999999993
  0
LINE
  5
453
100
AcDbEntity
  8
1
390
0
  6
Continuous
 62
     3
100
AcDbLine
 10
0.042819
 20
1.070316
 30
4.075
 11
0.042819
 21
1.070316
 31
4.065
  0
LINE
  5
454
100
AcDbEntity
  8
1
390
0
  6
Continuous
 62
     3
100
AcDbLine
 10
0.045891
 20
-0.955188
 30
4.075
 11
0.05914
 21
-0.948715
 31
4.075
  0
LINE
  5
455
100
AcDbEntity
  8
1
390
0
  6
Continuous
 62
     3
100
AcDbLine
 10
0.054125
 20
0.886079
 30
4.075
 11
0.055
 21
0.885204
 31
4.065
  0
LINE
  5
456
100
AcDbEntity
  8
1
390
0
  6
Continuous
 62
     3
100
AcDbLine
 10
-0.026996
 20
1.024701
 30
4.075
 11
-0.026996
 21
1.024701
 31
4.065
  0
LINE
  5
457
100
AcDbEntity
  8
1
390
0
  6
Continuous
 62
     3
100
AcDbLine
 10
0.042879
 20
0.779348
 30
4.075
 11
0.042879
 21
0.716183
 31
4.075
  0
SPLINE
  5
458
100
AcDbEntity
  8
1
390
0
  6
Continuous
 62
     3
100
AcDbSpline
210
0.0
220
0.0
230
1.0
 70
     0
 71
     1
 72
     4
 73
     2
 74
     0
 42
0.000001
 43
0.000001
 40
0.0
 40
0.0
 40
1.0
 40
1.0
 10
-0.0140018198189139
 20
0.8583772288021786
 30
4.0749999999999993
 10
-0.0268711890243902
 20
0.8616529944056329
 30
4.0749999999999993
  0
ARC
  5
459
100
AcDbEntity
  8
1
390
0
  6
Continuous
 62
     3
100
AcDbCircle
 10
0.0
 20
0.0
 30
4.075
 40
0.325
100
AcDbArc
 50
47.505407
 51
132.494593
  0
ELLIPSE
  5
45A
100
AcDbEntity
  8
1
390
0
  6
Continuous
 62
     3
100
AcDbEllipse
 10
-0.033604
 20
-1.12465
 30
4.019631
 11
0.0
 21
-0.2489394853607915
 31
0.0043452548801697
210
-0.0
220
-0.0174524064372835
230
-0.9998476951563916
 40
0.999848
 41
0.0298932103707127
 42
1.5537153170036826
  0
LINE
  5
45B
100
AcDbEntity
  8
1
390
0
  6
Continuous
 62
     3
100
AcDbLine
 10
0.282692
 20
-1.128905
 30
4.075
 11
0.297374
 21
-0.299092
 31
4.075
  0
ARC
  5
45C
100
AcDbEntity
  8
1
390
0
  6
Continuous
 62
     3
100
AcDbCircle
 10
0.043601
 20
-0.718376
 30
4.065
 40
0.016415
210
0.0
220
0.0
230
1.0
100
AcDbArc
 50
0.0
 51
90.0
  0
LINE
  5
45D
100
AcDbEntity
  8
1
390
0
  6
Continuous
 62
     3
100
AcDbLine
 10
-0.06
 20
-1.1075
 30
4.065
 11
-0.06
 21
-1.02416
 31
4.065
  0
LINE
  5
45E
100
AcDbEntity
  8
1
390
0
  6
Continuous
 62
     3
100
AcDbLine
 10
0.031678
 20
0.942805
 30
4.075
 11
0.054125
 21
0.955455
 31
4.075
  0
LINE
  5
45F
100
AcDbEntity
  8
1
390
0
  6
Continuous
 62
     3
100
AcDbLine
 10
-0.03186
 20
-0.863624
 30
4.065
 11
0.060015
 21
-0.863624
 31
4.065
  0
LINE
  5
460
100
AcDbEntity
  8
1
390
0
  6
Continuous
 62
     3
100
AcDbLine
 10
0.060015
 20
-0.687141
 30
4.065
 11
-0.03186
 21
-0.687141
 31
4.065
  0
LINE
  5
461
100
AcDbEntity
  8
1
390
0
  6
Continuous
 62
     3
100
AcDbLine
 10
-0.054125
 20
0.709648
 30
4.075
 11
-0.042879
 21
0.709648
 31
4.075
  0
LINE
  5
462
100
AcDbEntity
  8
1
390
0
  6
Continuous
 62
     3
100
AcDbLine
 10
0.003314
 20
-1.053566
 30
4.065
 11
0.003314
 21
-1.041841
 31
4.065
  0
LINE
  5
463
100
AcDbEntity
  8
1
390
0
  6
Continuous
 62
     3
100
AcDbLine
 10
-0.042879
 20
0.632025
 30
4.075
 11
-0.042879
 21
0.657844
 31
4.075
  0
LINE
  5
464
100
AcDbEntity
  8
1
390
0
  6
Continuous
 62
     3
100
AcDbLine
 10
-0.038895
 20
-1.053566
 30
4.065
 11
-0.03977
 21
-1.054441
 31
4.075
  0
LINE
  5
465
100
AcDbEntity
  8
1
390
0
  6
Continuous
 62
     3
100
AcDbLine
 10
0.282692
 20
-1.128905
 30
4.075
 11
0.283565
 21
-1.12892
 31
4.05
  0
LINE
  5
466
100
AcDbEntity
  8
1
390
0
  6
Continuous
 62
     3
100
AcDbLine
 10
0.060015
 20
-0.718376
 30
4.065
 11
0.05914
 21
-0.718376
 31
4.075
  0
LINE
  5
467
100
AcDbEntity
  8
1
390
0
  6
Continuous
 62
     3
100
AcDbLine
 10
0.060015
 20
-0.662519
 30
4.065
 11
0.05914
 21
-0.663394
 31
4.075
  0
SPLINE
  5
468
100
AcDbEntity
  8
1
390
0
  6
Continuous
 62
     3
100
AcDbSpline
210
0.0
220
0.0
230
1.0
 70
     0
 71
     3
 72
     8
 73
     4
 74
     0
 42
0.000001
 43
0.000001
 40
0.0
 40
0.0
 40
0.0
 40
0.0
 40
1.0
 40
1.0
 40
1.0
 40
1.0
 10
0.0189464812018987
 20
1.0805526350387291
 30
4.0749999999999993
 10
0.0120264388467138
 20
1.0805526350387291
 30
4.0749999999999993
 10
0.0062119653885111
 20
1.0787919142027946
 30
4.0749999999999993
 10
0.0016259018158442
 20
1.0753114195271098
 30
4.0749999999999993
  0
ELLIPSE
  5
469
100
AcDbEntity
  8
1
390
0
  6
Continuous
 62
     3
100
AcDbEllipse
 10
0.0
 20
0.0
 30
5.661584
 11
0.1821185994620051
 21
0.2383963416875304
 31
8.5908759848746801
210
0.6066921924396425
220
0.794170390258093
230
-0.034899496702501
 40
0.034899
 41
1.7595068575784689
 42
1.7649702635318021
  0
LINE
  5
46A
100
AcDbEntity
  8
1
390
0
  6
Continuous
 62
     3
100
AcDbLine
 10
-0.054125
 20
0.794481
 30
4.075
 11
0.054125
 21
0.794481
 31
4.075
  0
SPLINE
  5
46B
100
AcDbEntity
  8
1
390
0
  6
Continuous
 62
     3
100
AcDbSpline
210
0.0
220
0.0
230
1.0
 70
     0
 71
     3
 72
     8
 73
     4
 74
     0
 42
0.000001
 43
0.000001
 40
0.0
 40
0.0
 40
0.0
 40
0.0
 40
1.0
 40
1.0
 40
1.0
 40
1.0
 10
-0.2195442028100005
 20
0.2396358550228268
 30
4.0750000000000002
 10
-0.2130323851219119
 20
0.2342949042053649
 30
4.066663030341684
 10
-0.2065178980022805
 20
0.2289520603793563
 30
4.0583293888671461
 10
-0.1999999999999993
 20
0.2236067977499787
 30
4.0499999999999998
  0
SPLINE
  5
46C
100
AcDbEntity
  8
1
390
0
  6
Continuous
 62
     3
100
AcDbSpline
210
0.0
220
0.0
230
1.0
 70
     0
 71
     3
 72
     8
 73
     4
 74
     0
 42
0.000001
 43
0.000001
 40
0.0
 40
0.0
 40
0.0
 40
0.0
 40
1.0
 40
1.0
 40
1.0
 40
1.0
 10
0.0352024386871555
 20
1.0601610309388352
 30
4.0649999999999995
 10
0.0395018732865308
 20
1.05586159633946
 30
4.0649999999999995
 10
0.0416720640843106
 20
1.0506203808278407
 30
4.0649999999999995
 10
0.0416720640843106
 20
1.0444373844039772
 30
4.0649999999999995
  0
SPLINE
  5
46D
100
AcDbEntity
  8
1
390
0
  6
Continuous
 62
     3
100
AcDbSpline
210
0.0
220
0.0
230
1.0
 70
     0
 71
     1
 72
     4
 73
     2
 74
     0
 42
0.000001
 43
0.000001
 40
0.0
 40
0.0
 40
1.0
 40
1.0
 10
0.047705792682926
 20
0.8572118959107797
 30
4.0650000000000128
 10
0.0374771341463411
 20
0.8643494423791809
 30
4.0650000000000128
  0
SPLINE
  5
46E
100
AcDbEntity
  8
1
390
0
  6
Continuous
 62
     3
100
AcDbSpline
210
0.0
220
0.0
230
1.0
 70
     0
 71
     1
 72
     4
 73
     2
 74
     0
 42
0.000001
 43
0.000001
 40
0.0
 40
0.0
 40
1.0
 40
1.0
 10
-0.0487957317073174
 20
0.6836802973977693
 30
4.0649999999999968
 10
-0.0539519817073173
 20
0.671635687732342
 30
4.0649999999999968
  0
LINE
  5
46F
100
AcDbEntity
  8
1
390
0
  6
Continuous
 62
     3
100
AcDbLine
 10
-0.042005
 20
0.708773
 30
4.065
 11
-0.042005
 21
0.763197
 31
4.065
  0
LINE
  5
470
100
AcDbEntity
  8
1
390
0
  6
Continuous
 62
     3
100
AcDbLine
 10
0.297374
 20
0.299092
 30
4.075
 11
0.219544
 21
0.239636
 31
4.075
  0
LINE
  5
471
100
AcDbEntity
  8
1
390
0
  6
Continuous
 62
     3
100
AcDbLine
 10
0.009396
 20
0.632025
 30
4.075
 11
0.010271
 21
0.6329
 31
4.065
  0
LINE
  5
472
100
AcDbEntity
  8
1
390
0
  6
Continuous
 62
     3
100
AcDbLine
 10
0.052314
 20
0.846303
 30
4.075
 11
0.053155
 21
0.846543
 31
4.065
  0
SPLINE
  5
473
100
AcDbEntity
  8
1
390
0
  6
Continuous
 62
     3
100
AcDbSpline
210
0.0
220
0.0
230
1.0
 70
     0
 71
     2
 72
     6
 73
     3
 74
     0
 42
0.000001
 43
0.000001
 40
0.0
 40
0.0
 40
0.0
 40
1.0
 40
1.0
 40
1.0
 10
-0.0073271511790023
 20
0.6765090733737365
 30
4.0752906528548802
 10
-0.0076111932950376
 20
0.6762260701638829
 30
4.0707076994980236
 10
-0.0079649390243902
 20
0.6758736059479553
 30
4.0649999999999995
  0
SPLINE
  5
474
100
AcDbEntity
  8
1
390
0
  6
Continuous
 62
     3
100
AcDbSpline
210
0.0
220
0.0
230
1.0
 70
     0
 71
     1
 72
     4
 73
     2
 74
     0
 42
0.000001
 43
0.000001
 40
0.0
 40
0.0
 40
1.0
 40
1.0
 10
-0.040495426829267
 20
0.84081784386617
 30
4.0649999999999826
 10
-0.0347942073170724
 20
0.8474721189591065
 30
4.0649999999999826
  0
LINE
  5
475
100
AcDbEntity
  8
1
390
0
  6
Continuous
 62
     3
100
AcDbLine
 10
0.042005
 20
0.830781
 30
4.065
 11
0.042005
 21
0.806506
 31
4.065
  0
LINE
  5
476
100
AcDbEntity
  8
1
390
0
  6
Continuous
 62
     3
100
AcDbLine
 10
0.003317
 20
0.805631
 30
4.075
 11
0.004192
 21
0.806506
 31
4.065
  0
LINE
  5
477
100
AcDbEntity
  8
1
390
0
  6
Continuous
 62
     3
100
AcDbLine
 10
0.054125
 20
0.632025
 30
4.075
 11
0.055
 21
0.6329
 31
4.065
  0
LINE
  5
478
100
AcDbEntity
  8
1
390
0
  6
Continuous
 62
     3
100
AcDbLine
 10
-0.007887
 20
0.827584
 30
4.075
 11
-0.008761
 21
0.827584
 31
4.065
  0
SPLINE
  5
479
100
AcDbEntity
  8
1
390
0
  6
Continuous
 62
     3
100
AcDbSpline
210
0.0
220
0.0
230
1.0
 70
     0
 71
     1
 72
     4
 73
     2
 74
     0
 42
0.000001
 43
0.000001
 40
0.0
 40
0.0
 40
1.0
 40
1.0
 10
-0.0001757660162749
 20
1.0362070381708874
 30
4.0649999999999995
 10
-0.0016498578789179
 20
1.0455429533009595
 30
4.0649999999999995
  0
SPLINE
  5
47A
100
AcDbEntity
  8
1
390
0
  6
Continuous
 62
     3
100
AcDbSpline
210
0.0
220
0.0
230
1.0
 70
     0
 71
     1
 72
     4
 73
     2
 74
     0
 42
0.000001
 43
0.000001
 40
0.0
 40
0.0
 40
1.0
 40
1.0
 10
-0.0249847560975609
 20
0.9498884758364311
 30
4.0649999999999995
 10
-0.0151333841463414
 20
0.9472862453531598
 30
4.0649999999999995
  0
LINE
  5
47B
100
AcDbEntity
  8
1
390
0
  6
Continuous
 62
     3
100
AcDbLine
 10
-0.024985
 20
0.962322
 30
4.075
 11
-0.024985
 21
0.963197
 31
4.065
  0
ARC
  5
47C
100
AcDbEntity
  8
1
390
0
  6
Continuous
 62
     3
100
AcDbCircle
 10
0.0
 20
0.0
 30
-1.75
 40
0.1135
210
-0.0
220
0.0
230
-1.0
100
AcDbArc
 50
28.229835
 51
151.770165
  0
LINE
  5
47D
100
AcDbEntity
  8
1
390
0
  6
Continuous
 62
     3
100
AcDbLine
 10
0.03202
 20
-0.933098
 30
4.075
 11
-0.030986
 21
-0.933098
 31
4.075
  0
LINE
  5
47E
100
AcDbEntity
  8
1
390
0
  6
Continuous
 62
     3
100
AcDbLine
 10
-0.029289
 20
1.075311
 30
4.075
 11
-0.029289
 21
1.075311
 31
4.065
  0
LINE
  5
47F
100
AcDbEntity
  8
1
390
0
  6
Continuous
 62
     3
100
AcDbLine
 10
-0.022721
 20
0.682027
 30
4.075
 11
-0.022721
 21
0.681152
 31
4.065
  0
CIRCLE
  5
480
100
AcDbEntity
  8
1
390
0
  6
Continuous
 62
     3
100
AcDbCircle
 10
0.0
 20
0.0
 30
-1.69
 40
0.1135
210
0.0
220
0.0
230
-1.0
  0
LINE
  5
481
100
AcDbEntity
  8
1
390
0
  6
Continuous
 62
     3
100
AcDbLine
 10
0.039786
 20
-0.82325
 30
4.075
 11
-0.013553
 21
-0.82325
 31
4.075
  0
LINE
  5
482
100
AcDbEntity
  8
1
390
0
  6
Continuous
 62
     3
100
AcDbLine
 10
0.296677
 20
-0.299429
 30
4.005227
 11
0.282507
 21
-1.128902
 31
4.019705
  0
LINE
  5
483
100
AcDbEntity
  8
1
390
0
  6
Continuous
 62
     3
100
AcDbLine
 10
0.05914
 20
-0.797965
 30
4.075
 11
0.05914
 21
-0.848679
 31
4.075
  0
LINE
  5
484
100
AcDbEntity
  8
1
390
0
  6
Continuous
 62
     3
100
AcDbLine
 10
0.054125
 20
0.897229
 30
4.075
 11
0.055
 21
0.898104
 31
4.065
  0
SPLINE
  5
485
100
AcDbEntity
  8
1
390
0
  6
Continuous
 62
     3
100
AcDbSpline
210
0.0
220
0.0
230
1.0
 70
     0
 71
     3
 72
     8
 73
     4
 74
     0
 42
0.000001
 43
0.000001
 40
0.0
 40
0.0
 40
0.0
 40
0.0
 40
1.0
 40
1.0
 40
1.0
 40
1.0
 10
-0.0437178744401372
 20
0.9289962825278809
 30
4.0749999999999993
 10
-0.0437178746627528
 20
0.9363642994790732
 30
4.0749999999999993
 10
-0.0420180318801079
 20
0.9419101190404784
 30
4.0749999999999993
 10
-0.0384304052275588
 20
0.9454892589258181
 30
4.0749999999999993
  0
SPLINE
  5
486
100
AcDbEntity
  8
1
390
0
  6
Continuous
 62
     3
100
AcDbSpline
210
0.0
220
0.0
230
1.0
 70
     4
 71
     2
 72
     6
 73
     3
 74
     0
 42
0.000001
 43
0.000001
 40
0.0
 40
0.0
 40
0.0
 40
1.0
 40
1.0
 40
1.0
 10
0.0410720112143819
 20
-1.3743864412510791
 30
4.0499999999999998
 41
0.5801398996025312
 10
0.2793483740071914
 20
-1.3672658169848502
 30
4.0499999999999998
 41
0.4198601003974688
 10
0.2835652547760723
 20
-1.1289203822219995
 30
4.0499999999999998
 41
0.5801398996025312
  0
SPLINE
  5
487
100
AcDbEntity
  8
1
390
0
  6
Continuous
 62
     3
100
AcDbSpline
210
0.0
220
0.0
230
1.0
 70
     0
 71
     1
 72
     4
 73
     2
 74
     0
 42
0.000001
 43
0.000001
 40
0.0
 40
0.0
 40
1.0
 40
1.0
 10
0.0183218564583457
 20
-1.0060567811261136
 30
4.0650000000000039
 10
0.0164151704650064
 20
-1.0043193100032199
 30
4.0750000000000277
  0
LINE
  5
488
100
AcDbEntity
  8
1
390
0
  6
Continuous
 62
     3
100
AcDbLine
 10
-0.030986
 20
-0.65461
 30
4.075
 11
-0.013976
 21
-0.65461
 31
4.075
  0
LINE
  5
489
100
AcDbEntity
  8
1
390
0
  6
Continuous
 62
     3
100
AcDbLine
 10
0.054125
 20
0.955455
 30
4.075
 11
0.054125
 21
0.969687
 31
4.075
  0
LINE
  5
48A
100
AcDbEntity
  8
1
390
0
  6
Continuous
 62
     3
100
AcDbLine
 10
0.05914
 20
-0.848679
 30
4.075
 11
-0.030986
 21
-0.848679
 31
4.075
  0
LINE
  5
48B
100
AcDbEntity
  8
1
390
0
  6
Continuous
 62
     3
100
AcDbLine
 10
0.060015
 20
-0.636725
 30
4.065
 11
-0.013101
 21
-0.636725
 31
4.065
  0
LINE
  5
48C
100
AcDbEntity
  8
1
390
0
  6
Continuous
 62
     3
100
AcDbLine
 10
0.038911
 20
-0.732446
 30
4.065
 11
0.038911
 21
-0.725833
 31
4.065
  0
LINE
  5
48D
100
AcDbEntity
  8
1
390
0
  6
Continuous
 62
     3
100
AcDbLine
 10
0.060015
 20
-1.02334
 30
4.065
 11
0.018322
 21
-1.006057
 31
4.065
  0
CIRCLE
  5
48E
100
AcDbEntity
  8
1
390
0
  6
Continuous
 62
     3
100
AcDbCircle
 10
0.0
 20
0.0
 30
4.075
 40
0.275
  0
LINE
  5
48F
100
AcDbEntity
  8
1
390
0
  6
Continuous
 62
     3
100
AcDbLine
 10
0.027936
 20
-0.933973
 30
4.065
 11
-0.03186
 21
-0.933973
 31
4.065
  0
LINE
  5
490
100
AcDbEntity
  8
1
390
0
  6
Continuous
 62
     3
100
AcDbLine
 10
0.060015
 20
-1.02334
 30
4.065
 11
0.05914
 21
-1.022031
 31
4.075
  0
SPLINE
  5
491
100
AcDbEntity
  8
1
390
0
  6
Continuous
 62
     3
100
AcDbSpline
210
0.0
220
0.0
230
1.0
 70
     0
 71
     1
 72
     4
 73
     2
 74
     0
 42
0.000001
 43
0.000001
 40
0.0
 40
0.0
 40
1.0
 40
1.0
 10
-0.0092315195071914
 20
0.8401667763373405
 30
4.0749999999999984
 10
-0.0078865462915699
 20
0.8275836431226765
 30
4.0750000000000002
  0
LINE
  5
492
100
AcDbEntity
  8
1
390
0
  6
Continuous
 62
     3
100
AcDbLine
 10
0.060015
 20
-0.949262
 30
4.065
 11
0.05914
 21
-0.948715
 31
4.075
  0
SPLINE
  5
493
100
AcDbEntity
  8
1
390
0
  6
Continuous
 62
     3
100
AcDbSpline
210
0.0
220
0.0
230
1.0
 70
     0
 71
     2
 72
     6
 73
     3
 74
     0
 42
0.000001
 43
0.000001
 40
0.0
 40
0.0
 40
0.0
 40
1.0
 40
1.0
 40
1.0
 10
-0.0350231385966887
 20
0.6788283729715549
 30
4.0752911309686617
 10
-0.0348091770924988
 20
0.6784892723472777
 30
4.0707081773955887
 10
-0.0345426829268314
 20
0.6780669144981398
 30
4.0649999999999995
  0
LINE
  5
494
100
AcDbEntity
  8
1
390
0
  6
Continuous
 62
     3
100
AcDbLine
 10
0.060015
 20
-0.863624
 30
4.065
 11
0.05914
 21
-0.864498
 31
4.075
  0
SPLINE
  5
495
100
AcDbEntity
  8
1
390
0
  6
Continuous
 62
     3
100
AcDbSpline
210
0.0
220
0.0
230
1.0
 70
     0
 71
     1
 72
     4
 73
     2
 74
     0
 42
0.000001
 43
0.000001
 40
0.0
 40
0.0
 40
1.0
 40
1.0
 10
-0.0165955114862698
 20
1.0715442958781334
 30
4.0749999999999993
 10
-0.0292890803034729
 20
1.0753114195271098
 30
4.0749999999999993
  0
ARC
  5
496
100
AcDbEntity
  8
1
390
0
  6
Continuous
 62
     3
100
AcDbCircle
 10
0.034221
 20
-0.812996
 30
4.065
 40
0.00469
210
0.0
220
0.0
230
1.0
100
AcDbArc
 50
0.0
 51
90.0
  0
LINE
  5
497
100
AcDbEntity
  8
1
390
0
  6
Continuous
 62
     3
100
AcDbLine
 10
-0.011764
 20
1.037681
 30
4.075
 11
-0.000176
 21
1.036207
 31
4.075
  0
LINE
  5
498
100
AcDbEntity
  8
1
390
0
  6
Continuous
 62
     3
100
AcDbLine
 10
0.043601
 20
-0.701962
 30
4.065
 11
0.043601
 21
-0.702837
 31
4.075
  0
SPLINE
  5
499
100
AcDbEntity
  8
1
390
0
  6
Continuous
 62
     3
100
AcDbSpline
210
0.0
220
0.0
230
1.0
 70
     0
 71
     3
 72
     8
 73
     4
 74
     0
 42
0.000001
 43
0.000001
 40
0.0
 40
0.0
 40
0.0
 40
0.0
 40
1.0
 40
1.0
 40
1.0
 40
1.0
 10
-0.0572149317013196
 20
1.0438641264573938
 30
4.0749999999999993
 10
-0.0572149317013196
 20
1.0353471512510124
 30
4.0749999999999993
 10
-0.054758111930248
 20
1.028222373914905
 30
4.0749999999999993
 10
-0.049926366380474
 20
1.0225307414452558
 30
4.0749999999999993
  0
LINE
  5
49A
100
AcDbEntity
  8
1
390
0
  6
Continuous
 62
     3
100
AcDbLine
 10
0.198775
 20
-0.224696
 30
4.003922
 11
0.296677
 21
-0.299429
 31
4.005227
  0
LINE
  5
49B
100
AcDbEntity
  8
1
390
0
  6
Continuous
 62
     3
100
AcDbLine
 10
0.04178
 20
0.70396
 30
4.075
 11
0.054125
 21
0.70396
 31
4.075
  0
LINE
  5
49C
100
AcDbEntity
  8
1
390
0
  6
Continuous
 62
     3
100
AcDbLine
 10
-0.298254
 20
0.298666
 30
4.05
 11
-0.296677
 21
0.299429
 31
4.005227
  0
LINE
  5
49D
100
AcDbEntity
  8
1
390
0
  6
Continuous
 62
     3
100
AcDbLine
 10
0.004189
 20
-1.054441
 30
4.075
 11
-0.03977
 21
-1.054441
 31
4.075
  0
SPLINE
  5
49E
100
AcDbEntity
  8
1
390
0
  6
Continuous
 62
     3
100
AcDbSpline
210
0.0
220
0.0
230
1.0
 70
     0
 71
     3
 72
     8
 73
     4
 74
     0
 42
0.000001
 43
0.000001
 40
0.0
 40
0.0
 40
0.0
 40
0.0
 40
1.0
 40
1.0
 40
1.0
 40
1.0
 10
0.0189464812018987
 20
1.0805526350387291
 30
4.0649999999999995
 10
0.0120264388467138
 20
1.0805526350387291
 30
4.0649999999999995
 10
0.0062119653885111
 20
1.0787919142027946
 30
4.0649999999999995
 10
0.0016259018158442
 20
1.0753114195271098
 30
4.0649999999999995
  0
SPLINE
  5
49F
100
AcDbEntity
  8
1
390
0
  6
Continuous
 62
     3
100
AcDbSpline
210
0.0
220
0.0
230
1.0
 70
     0
 71
     1
 72
     4
 73
     2
 74
     0
 42
0.000001
 43
0.000001
 40
0.0
 40
0.0
 40
1.0
 40
1.0
 10
0.0110471751563297
 20
0.9428662107465665
 30
4.0749999999999993
 10
0.0044751280378074
 20
0.933007534488296
 30
4.0749999999999993
  0
SPLINE
  5
4A0
100
AcDbEntity
  8
1
390
0
  6
Continuous
 62
     3
100
AcDbSpline
210
0.0
220
0.0
230
1.0
 70
     0
 71
     3
 72
     8
 73
     4
 74
     0
 42
0.000001
 43
0.000001
 40
0.0
 40
0.0
 40
0.0
 40
0.0
 40
1.0
 40
1.0
 40
1.0
 40
1.0
 10
-0.0135823170731707
 20
0.8591449814126393
 30
4.0650000000000004
 10
-0.0176973140038709
 20
0.8614769703958503
 30
4.0650000000000004
 10
-0.0221784723186504
 20
0.8625883001313141
 30
4.0650000000000004
 10
-0.0268711890243902
 20
0.862527881040892
 30
4.0650000000000004
  0
LINE
  5
4A1
100
AcDbEntity
  8
1
390
0
  6
Continuous
 62
     3
100
AcDbLine
 10
-0.075
 20
0.6
 30
4.065
 11
-0.075
 21
1.1
 31
4.065
  0
LINE
  5
4A2
100
AcDbEntity
  8
1
390
0
  6
Continuous
 62
     3
100
AcDbLine
 10
0.05914
 20
-1.022031
 30
4.075
 11
0.016415
 21
-1.004319
 31
4.075
  0
SPLINE
  5
4A3
100
AcDbEntity
  8
1
390
0
  6
Continuous
 62
     3
100
AcDbSpline
210
0.0
220
0.0
230
1.0
 70
     0
 71
     1
 72
     4
 73
     2
 74
     0
 42
0.000001
 43
0.000001
 40
0.0
 40
0.0
 40
1.0
 40
1.0
 10
0.0104382621951219
 20
0.9434944237918216
 30
4.0649999999999986
 10
0.0049466463414631
 20
0.9357249070631967
 30
4.0649999999999986
  0
LINE
  5
4A4
100
AcDbEntity
  8
1
390
0
  6
Continuous
 62
     3
100
AcDbLine
 10
-0.002683
 20
0.6329
 30
4.065
 11
-0.042005
 21
0.6329
 31
4.065
  0
LINE
  5
4A5
100
AcDbEntity
  8
1
390
0
  6
Continuous
 62
     3
100
AcDbLine
 10
-0.037843
 20
0.690684
 30
4.075
 11
-0.03819
 21
0.691487
 31
4.065
  0
LINE
  5
4A6
100
AcDbEntity
  8
1
390
0
  6
Continuous
 62
     3
100
AcDbLine
 10
-0.001808
 20
0.658141
 30
4.075
 11
-0.001808
 21
0.632025
 31
4.075
  0
SPLINE
  5
4A7
100
AcDbEntity
  8
1
390
0
  6
Continuous
 62
     3
100
AcDbSpline
210
0.0
220
0.0
230
1.0
 70
     4
 71
     2
 72
     6
 73
     3
 74
     0
 42
0.000001
 43
0.000001
 40
0.0
 40
0.0
 40
0.0
 40
1.0
 40
1.0
 40
1.0
 10
0.2835652547760722
 20
1.1289203822219995
 30
4.0499999999999998
 41
0.5801398996025311
 10
0.279348374007191
 20
1.3672658169848502
 30
4.0499999999999998
 41
0.4198601003974689
 10
0.0410720112143817
 20
1.3743864412510789
 30
4.0499999999999998
 41
0.5801398996025311
  0
SPLINE
  5
4A8
100
AcDbEntity
  8
1
390
0
  6
Continuous
 62
     3
100
AcDbSpline
210
0.0
220
0.0
230
1.0
 70
     0
 71
     1
 72
     4
 73
     2
 74
     0
 42
0.000001
 43
0.000001
 40
0.0
 40
0.0
 40
1.0
 40
1.0
 10
-0.0155525914634148
 20
0.8473234200743488
 30
4.0649999999999942
 10
-0.0100609756097565
 20
0.839888475836431
 30
4.0649999999999942
  0
LINE
  5
4A9
100
AcDbEntity
  8
1
390
0
  6
Continuous
 62
     3
100
AcDbLine
 10
-0.030986
 20
-0.961389
 30
4.075
 11
0.03202
 21
-0.933098
 31
4.075
  0
LINE
  5
4AA
100
AcDbEntity
  8
1
390
0
  6
Continuous
 62
     3
100
AcDbLine
 10
-0.042879
 20
0.805631
 30
4.075
 11
-0.042005
 21
0.806506
 31
4.065
  0
LINE
  5
4AB
100
AcDbEntity
  8
1
390
0
  6
Continuous
 62
     3
100
AcDbLine
 10
0.05914
 20
-0.686267
 30
4.075
 11
-0.030986
 21
-0.686267
 31
4.075
  0
LINE
  5
4AC
100
AcDbEntity
  8
1
390
0
  6
Continuous
 62
     3
100
AcDbLine
 10
-0.006456
 20
0.925874
 30
4.065
 11
-0.006456
 21
0.898104
 31
4.065
  0
SPLINE
  5
4AD
100
AcDbEntity
  8
1
390
0
  6
Continuous
 62
     3
100
AcDbSpline
210
0.0
220
0.0
230
1.0
 70
     0
 71
     2
 72
     6
 73
     3
 74
     0
 42
0.000001
 43
0.000001
 40
0.0
 40
0.0
 40
0.0
 40
1.0
 40
1.0
 40
1.0
 10
0.0088919913788493
 20
0.9266852067972057
 30
4.0749999999999993
 10
0.0092279337514721
 20
0.9264411703123726
 30
4.0702540859435867
 10
0.0095998475609756
 20
0.9261710037174721
 30
4.0649999999999995
  0
LINE
  5
4AE
100
AcDbEntity
  8
1
390
0
  6
Continuous
 62
     3
100
AcDbLine
 10
0.041672
 20
1.044437
 30
4.075
 11
0.041672
 21
1.044437
 31
4.065
  0
SPLINE
  5
4AF
100
AcDbEntity
  8
1
390
0
  6
Continuous
 62
     3
100
AcDbSpline
210
0.0
220
0.0
230
1.0
 70
     0
 71
     3
 72
     8
 73
     4
 74
     0
 42
0.000001
 43
0.000001
 40
0.0
 40
0.0
 40
0.0
 40
0.0
 40
1.0
 40
1.0
 40
1.0
 40
1.0
 10
-0.0268711890243902
 20
0.8616529944056312
 30
4.0750000000000206
 10
-0.0317533813138259
 20
0.8616529944932138
 30
4.0749999999999158
 10
-0.0364618671513598
 20
0.8604311390227554
 30
4.0750000000000206
 10
-0.0409504700974753
 20
0.8579343239326361
 30
4.0750000000000206
  0
SPLINE
  5
4B0
100
AcDbEntity
  8
1
390
0
  6
Continuous
 62
     3
100
AcDbSpline
210
0.0
220
0.0
230
1.0
 70
     4
 71
     2
 72
     6
 73
     3
 74
     0
 42
0.000001
 43
0.000001
 40
0.0
 40
0.0
 40
0.0
 40
1.0
 40
1.0
 40
1.0
 10
-0.041072011214382
 20
1.3743864412510789
 30
4.0499999999999998
 41
0.5801398996025311
 10
-0.2793483740071912
 20
1.3672658169848502
 30
4.0499999999999998
 41
0.4198601003974689
 10
-0.2835652547760724
 20
1.1289203822219995
 30
4.0499999999999998
 41
0.5801398996025311
  0
LINE
  5
4B1
100
AcDbEntity
  8
1
390
0
  6
Continuous
 62
     3
100
AcDbLine
 10
-0.041045
 20
1.373478
 30
4.023974
 11
-0.041072
 21
1.374386
 31
4.05
  0
LINE
  5
4B2
100
AcDbEntity
  8
1
390
0
  6
Continuous
 62
     3
100
AcDbLine
 10
0.041072
 20
-1.374386
 30
4.05
 11
0.041046
 21
-1.373514
 31
4.075
  0
LINE
  5
4B3
100
AcDbEntity
  8
1
390
0
  6
Continuous
 62
     3
100
AcDbLine
 10
-0.030986
 20
-0.702837
 30
4.075
 11
0.043601
 21
-0.702837
 31
4.075
  0
LINE
  5
4B4
100
AcDbEntity
  8
1
390
0
  6
Continuous
 62
     3
100
AcDbLine
 10
0.047038
 20
0.856647
 30
4.075
 11
0.047706
 21
0.857212
 31
4.065
  0
LINE
  5
4B5
100
AcDbEntity
  8
1
390
0
  6
Continuous
 62
     3
100
AcDbLine
 10
0.052605
 20
1.044355
 30
4.075
 11
0.052605
 21
1.044355
 31
4.065
  0
LINE
  5
4B6
100
AcDbEntity
  8
1
390
0
  6
Continuous
 62
     3
100
AcDbLine
 10
-0.078375
 20
-1.125875
 30
4.075
 11
0.078375
 21
-1.125875
 31
4.075
  0
SPLINE
  5
4B7
100
AcDbEntity
  8
1
390
0
  6
Continuous
 62
     3
100
AcDbSpline
210
0.0
220
0.0
230
1.0
 70
     0
 71
     2
 72
     6
 73
     3
 74
     0
 42
0.000001
 43
0.000001
 40
0.0
 40
0.0
 40
0.0
 40
1.0
 40
1.0
 40
1.0
 10
-0.0378433757159789
 20
0.6906836046716586
 30
4.0750000000000037
 10
-0.0423066076770334
 20
0.6887591053652734
 30
4.0750000000000037
 10
-0.0481072679893577
 20
0.6831404301353365
 30
4.0750000000000037
  0
SPLINE
  5
4B8
100
AcDbEntity
  8
1
390
0
  6
Continuous
 62
     3
100
AcDbSpline
210
0.0
220
0.0
230
1.0
 70
     0
 71
     2
 72
     6
 73
     3
 74
     0
 42
0.000001
 43
0.000001
 40
0.0
 40
0.0
 40
0.0
 40
1.0
 40
1.0
 40
1.0
 10
-0.0409519362763002
 20
0.8579335083609624
 30
4.0750000000000259
 10
-0.0454672939638115
 20
0.8554444381685921
 30
4.0749999999999149
 10
-0.0508627309226424
 20
0.8477149836400288
 30
4.0750000000000259
  0
LINE
  5
4B9
100
AcDbEntity
  8
1
390
0
  6
Continuous
 62
     3
100
AcDbLine
 10
0.045891
 20
-0.99123
 30
4.075
 11
0.045891
 21
-0.955188
 31
4.075
  0
SPLINE
  5
4BA
100
AcDbEntity
  8
1
390
0
  6
Continuous
 62
     3
100
AcDbSpline
210
0.0
220
0.0
230
1.0
 70
     0
 71
     3
 72
     8
 73
     4
 74
     0
 42
0.000001
 43
0.000001
 40
0.0
 40
0.0
 40
0.0
 40
0.0
 40
1.0
 40
1.0
 40
1.0
 40
1.0
 10
-0.042842987804878
 20
0.9289962825278809
 30
4.0649999999999995
 10
-0.0428429878048772
 20
0.9362453530602189
 30
4.0649999999999995
 10
-0.0411661585942769
 20
0.9415241637014297
 30
4.0649999999999995
 10
-0.0378125
 20
0.9448698884758363
 30
4.0649999999999995
  0
SPLINE
  5
4BB
100
AcDbEntity
  8
1
390
0
  6
Continuous
 62
     3
100
AcDbSpline
210
0.0
220
0.0
230
1.0
 70
     0
 71
     3
 72
     8
 73
     4
 74
     0
 42
0.000001
 43
0.000001
 40
0.0
 40
0.0
 40
0.0
 40
0.0
 40
1.0
 40
1.0
 40
1.0
 40
1.0
 10
0.0428185799774774
 20
1.0703158859925976
 30
4.0749999999999993
 10
0.0362670605879532
 20
1.0771540343554136
 30
4.0749999999999993
 10
0.0283233433281552
 20
1.0805526350387291
 30
4.0749999999999993
 10
0.0189464812018987
 20
1.0805526350387291
 30
4.0749999999999993
  0
SPLINE
  5
4BC
100
AcDbEntity
  8
1
390
0
  6
Continuous
 62
     3
100
AcDbSpline
210
0.0
220
0.0
230
1.0
 70
     0
 71
     3
 72
     8
 73
     4
 74
     0
 42
0.000001
 43
0.000001
 40
0.0
 40
0.0
 40
0.0
 40
0.0
 40
1.0
 40
1.0
 40
1.0
 40
1.0
 10
0.0033171865354723
 20
0.8290706319702601
 30
4.075000000000002
 10
0.0032833256680383
 20
0.8350272537301454
 30
4.075000000000002
 10
0.0037545795717648
 20
0.839611139929523
 30
4.075000000000002
 10
0.0053234527503208
 20
0.843942210987868
 30
4.075000000000002
  0
SPLINE
  5
4BD
100
AcDbEntity
  8
1
390
0
  6
Continuous
 62
     3
100
AcDbSpline
210
0.0
220
0.0
230
1.0
 70
     4
 71
     2
 72
     6
 73
     3
 74
     0
 42
0.000001
 43
0.000001
 40
0.0
 40
0.0
 40
0.0
 40
1.0
 40
1.0
 40
1.0
 10
-0.2835652547760723
 20
-1.1289203822219995
 30
4.0499999999999998
 41
0.5801398996025311
 10
-0.2793483740071912
 20
-1.3672658169848502
 30
4.0499999999999998
 41
0.4198601003974689
 10
-0.0410720112143819
 20
-1.3743864412510791
 30
4.0499999999999998
 41
0.5801398996025311
  0
SPLINE
  5
4BE
100
AcDbEntity
  8
1
390
0
  6
Continuous
 62
     3
100
AcDbSpline
210
0.0
220
0.0
230
1.0
 70
     0
 71
     3
 72
     8
 73
     4
 74
     0
 42
0.000001
 43
0.000001
 40
0.0
 40
0.0
 40
0.0
 40
0.0
 40
1.0
 40
1.0
 40
1.0
 40
1.0
 10
0.0223041348890298
 20
1.0102056955937135
 30
4.0649999999999995
 10
0.031271527053441
 20
1.0110655825135886
 30
4.0649999999999995
 10
0.0385600923742867
 20
1.0146279711816424
 30
4.0649999999999995
 10
0.0441698308515667
 20
1.0208519146016903
 30
4.0649999999999995
  0
LINE
  5
4BF
100
AcDbEntity
  8
1
390
0
  6
Continuous
 62
     3
100
AcDbLine
 10
-0.03186
 20
-0.76748
 30
4.065
 11
-0.03186
 21
-0.737136
 31
4.065
  0
LINE
  5
4C0
100
AcDbEntity
  8
1
390
0
  6
Continuous
 62
     3
100
AcDbLine
 10
-0.03186
 20
-0.849554
 30
4.065
 11
-0.03186
 21
-0.797965
 31
4.065
  0
SPLINE
  5
4C1
100
AcDbEntity
  8
1
390
0
  6
Continuous
 62
     3
100
AcDbSpline
210
0.0
220
0.0
230
1.0
 70
     0
 71
     3
 72
     8
 73
     4
 74
     0
 42
0.000001
 43
0.000001
 40
0.0
 40
0.0
 40
0.0
 40
0.0
 40
1.0
 40
1.0
 40
1.0
 40
1.0
 10
0.0042465095716539
 20
1.0606523948930495
 30
4.0649999999999995
 10
0.0081774212053684
 20
1.064583306526764
 30
4.0649999999999995
 10
0.0131729547398805
 20
1.0665487623436212
 30
4.0649999999999995
 10
0.0192331101751904
 20
1.0665487623436212
 30
4.0649999999999995
  0
LINE
  5
4C2
100
AcDbEntity
  8
1
390
0
  6
Continuous
 62
     3
100
AcDbLine
 10
0.060015
 20
-0.908178
 30
4.065
 11
0.060015
 21
-0.949262
 31
4.065
  0
LINE
  5
4C3
100
AcDbEntity
  8
1
390
0
  6
Continuous
 62
     3
100
AcDbLine
 10
-0.013553
 20
-0.82325
 30
4.075
 11
-0.013553
 21
-0.812996
 31
4.075
  0
LINE
  5
4C4
100
AcDbEntity
  8
1
390
0
  6
Continuous
 62
     3
100
AcDbLine
 10
0.0775
 20
-0.57
 30
4.065
 11
-0.0775
 21
-0.57
 31
4.065
  0
SPLINE
  5
4C5
100
AcDbEntity
  8
1
390
0
  6
Continuous
 62
     3
100
AcDbSpline
210
0.0
220
0.0
230
1.0
 70
     0
 71
     3
 72
     8
 73
     4
 74
     0
 42
0.000001
 43
0.000001
 40
0.0
 40
0.0
 40
0.0
 40
0.0
 40
1.0
 40
1.0
 40
1.0
 40
1.0
 10
0.0541251133647408
 20
0.8307806691449813
 30
4.0749999999999993
 10
0.0541251132100605
 20
0.8369293095581307
 30
4.0749999999999993
 10
0.0535408734857669
 20
0.8419871846921442
 30
4.0749999999999993
 10
0.0522832164832464
 20
0.8464125109153882
 30
4.0749999999999993
  0
ARC
  5
4C6
100
AcDbEntity
  8
1
390
0
  6
Continuous
 62
     3
100
AcDbCircle
 10
-0.033033
 20
-1.041841
 30
4.065
 40
0.005862
210
0.0
220
0.0
230
1.0
100
AcDbArc
 50
90.0
 51
180.0
  0
LINE
  5
4C7
100
AcDbEntity
  8
1
390
0
  6
Continuous
 62
     3
100
AcDbLine
 10
0.026881
 20
-0.984858
 30
4.065
 11
0.000899
 21
-0.973321
 31
4.065
  0
LINE
  5
4C8
100
AcDbEntity
  8
1
390
0
  6
Continuous
 62
     3
100
AcDbLine
 10
0.078375
 20
-1.125875
 30
4.075
 11
0.078375
 21
-0.569125
 31
4.075
  0
LINE
  5
4C9
100
AcDbEntity
  8
1
390
0
  6
Continuous
 62
     3
100
AcDbLine
 10
-0.03186
 20
-0.849554
 30
4.065
 11
-0.030986
 21
-0.848679
 31
4.075
  0
LINE
  5
4CA
100
AcDbEntity
  8
1
390
0
  6
Continuous
 62
     3
100
AcDbLine
 10
0.054125
 20
0.632025
 30
4.075
 11
0.009396
 21
0.632025
 31
4.075
  0
LINE
  5
4CB
100
AcDbEntity
  8
1
390
0
  6
Continuous
 62
     3
100
AcDbLine
 10
0.038911
 20
-0.812996
 30
4.065
 11
0.039786
 21
-0.812996
 31
4.075
  0
LINE
  5
4CC
100
AcDbEntity
  8
1
390
0
  6
Continuous
 62
     3
100
AcDbLine
 10
-0.075875
 20
1.100875
 30
4.075
 11
0.075875
 21
1.100875
 31
4.075
  0
LINE
  5
4CD
100
AcDbEntity
  8
1
390
0
  6
Continuous
 62
     3
100
AcDbLine
 10
0.034221
 20
-0.721143
 30
4.065
 11
0.034221
 21
-0.720269
 31
4.075
  0
ARC
  5
4CE
100
AcDbEntity
  8
1
390
0
  6
Continuous
 62
     3
100
AcDbCircle
 10
0.034221
 20
-0.725833
 30
4.075
 40
0.005565
100
AcDbArc
 50
0.0
 51
90.0
  0
LINE
  5
4CF
100
AcDbEntity
  8
1
390
0
  6
Continuous
 62
     3
100
AcDbLine
 10
-0.013101
 20
-0.608585
 30
4.065
 11
-0.013976
 21
-0.60946
 31
4.075
  0
SPLINE
  5
4D0
100
AcDbEntity
  8
1
390
0
  6
Continuous
 62
     3
100
AcDbSpline
210
0.0
220
0.0
230
1.0
 70
     0
 71
     3
 72
     8
 73
     4
 74
     0
 42
0.000001
 43
0.000001
 40
0.0
 40
0.0
 40
0.0
 40
0.0
 40
1.0
 40
1.0
 40
1.0
 40
1.0
 10
0.0192331101751904
 20
1.0665487623436212
 30
4.0749999999999993
 10
0.0255798945837919
 20
1.0665487623436212
 30
4.0749999999999993
 10
0.0309030040877803
 20
1.064419518542026
 30
4.0749999999999993
 10
0.0352024386871555
 20
1.0601610309388352
 30
4.0749999999999993
  0
SPLINE
  5
4D1
100
AcDbEntity
  8
1
390
0
  6
Continuous
 62
     3
100
AcDbSpline
210
0.0
220
0.0
230
1.0
 70
     0
 71
     3
 72
     8
 73
     4
 74
     0
 42
0.000001
 43
0.000001
 40
0.0
 40
0.0
 40
0.0
 40
0.0
 40
1.0
 40
1.0
 40
1.0
 40
1.0
 10
-0.0295757092767646
 20
1.0617170167938472
 30
4.0649999999999995
 10
-0.0234746068452702
 20
1.0617170167938472
 30
4.0649999999999995
 10
-0.0189294902687878
 20
1.0594649320036982
 30
4.0649999999999995
 10
-0.0160222535396865
 20
1.0550017094195849
 30
4.0649999999999995
  0
SPLINE
  5
4D2
100
AcDbEntity
  8
1
390
0
  6
Continuous
 62
     3
100
AcDbSpline
210
0.0
220
0.0
230
1.0
 70
     0
 71
     3
 72
     8
 73
     4
 74
     0
 42
0.000001
 43
0.000001
 40
0.0
 40
0.0
 40
0.0
 40
0.0
 40
1.0
 40
1.0
 40
1.0
 40
1.0
 10
-0.0431291650138427
 20
1.0713805078933953
 30
4.0649999999999995
 10
-0.0474695466094024
 20
1.0687599001375856
 30
4.0649999999999995
 10
-0.0509090942889026
 20
1.0649927764886093
 30
4.0649999999999995
 10
-0.0534478080523432
 20
1.0600381899502815
 30
4.0649999999999995
  0
LINE
  5
4D3
100
AcDbEntity
  8
1
390
0
  6
Continuous
 62
     3
100
AcDbLine
 10
-0.055
 20
0.793606
 30
4.065
 11
0.055
 21
0.793606
 31
4.065
  0
LINE
  5
4D4
100
AcDbEntity
  8
1
390
0
  6
Continuous
 62
     3
100
AcDbLine
 10
0.297374
 20
0.299092
 30
4.075
 11
0.282692
 21
1.128905
 31
4.075
  0
LINE
  5
4D5
100
AcDbEntity
  8
1
390
0
  6
Continuous
 62
     3
100
AcDbLine
 10
0.034291
 20
0.723866
 30
4.065
 11
-0.042005
 21
0.778625
 31
4.065
  0
LINE
  5
4D6
100
AcDbEntity
  8
1
390
0
  6
Continuous
 62
     3
100
AcDbLine
 10
0.046766
 20
-0.955734
 30
4.065
 11
0.045891
 21
-0.955188
 31
4.075
  0
SPLINE
  5
4D7
100
AcDbEntity
  8
1
390
0
  6
Continuous
 62
     3
100
AcDbSpline
210
0.0
220
0.0
230
1.0
 70
     0
 71
     3
 72
     8
 73
     4
 74
     0
 42
0.000001
 43
0.000001
 40
0.0
 40
0.0
 40
0.0
 40
0.0
 40
1.0
 40
1.0
 40
1.0
 40
1.0
 10
-0.0520236280487784
 20
0.9482899628252779
 30
4.0650000000000244
 10
-0.0540358229776109
 20
0.9437546467408388
 30
4.0649999999999205
 10
-0.0550000001272135
 20
0.9371747212641775
 30
4.0650000000000244
 10
-0.0549999999999978
 20
0.9284758364312266
 30
4.0650000000000244
  0
LINE
  5
4D8
100
AcDbEntity
  8
1
390
0
  6
Continuous
 62
     3
100
AcDbLine
 10
0.005287
 20
0.913086
 30
4.075
 11
0.006162
 21
0.913086
 31
4.065
  0
LINE
  5
4D9
100
AcDbEntity
  8
1
390
0
  6
Continuous
 62
     3
100
AcDbLine
 10
0.042879
 20
0.716183
 30
4.075
 11
0.042005
 21
0.717955
 31
4.065
  0
SPLINE
  5
4DA
100
AcDbEntity
  8
1
390
0
  6
Continuous
 62
     3
100
AcDbSpline
210
0.0
220
0.0
230
1.0
 70
     0
 71
     1
 72
     4
 73
     2
 74
     0
 42
0.000001
 43
0.000001
 40
0.0
 40
0.0
 40
1.0
 40
1.0
 10
0.0323628048780494
 20
0.8519330855018598
 30
4.0650000000000155
 10
0.0384832317073183
 20
0.8470260223048335
 30
4.0650000000000155
  0
ELLIPSE
  5
4DB
100
AcDbEntity
  8
1
390
0
  6
Continuous
 62
     3
100
AcDbEllipse
 10
0.033604
 20
1.12465
 30
4.019631
 11
0.0
 21
0.2489394853607915
 31
0.0043452548801697
210
-0.0
220
0.0174524064372835
230
-0.9998476951563916
 40
0.999848
 41
0.0298932103707136
 42
1.5537153170036822
  0
LINE
  5
4DC
100
AcDbEntity
  8
1
390
0
  6
Continuous
 62
     3
100
AcDbLine
 10
-0.042286
 20
0.77775
 30
4.075
 11
-0.042005
 21
0.778625
 31
4.065
  0
SPLINE
  5
4DD
100
AcDbEntity
  8
1
390
0
  6
Continuous
 62
     3
100
AcDbSpline
210
0.0
220
0.0
230
1.0
 70
     0
 71
     2
 72
     6
 73
     3
 74
     0
 42
0.000001
 43
0.000001
 40
0.0
 40
0.0
 40
0.0
 40
1.0
 40
1.0
 40
1.0
 10
-0.0508399157776484
 20
0.8477036546686418
 30
4.0752911541436587
 10
-0.0511990408252915
 20
0.847881979957987
 30
4.0707082007833311
 10
-0.051646341463188
 20
0.8481040892197929
 30
4.0650000000000013
  0
SPLINE
  5
4DE
100
AcDbEntity
  8
1
390
0
  6
Continuous
 62
     3
100
AcDbSpline
210
0.0
220
0.0
230
1.0
 70
     0
 71
     3
 72
     8
 73
     4
 74
     0
 42
0.000001
 43
0.000001
 40
0.0
 40
0.0
 40
0.0
 40
0.0
 40
1.0
 40
1.0
 40
1.0
 40
1.0
 10
-0.049926366380474
 20
1.0225307414452558
 30
4.0749999999999993
 10
-0.0450536738345154
 20
1.0167981619794222
 30
4.0749999999999993
 10
-0.0382155254716996
 20
1.0131538793189994
 30
4.0749999999999993
 10
-0.0293709742958419
 20
1.0115159994716183
 30
4.0749999999999993
  0
SPLINE
  5
4DF
100
AcDbEntity
  8
1
390
0
  6
Continuous
 62
     3
100
AcDbSpline
210
0.0
220
0.0
230
1.0
 70
     0
 71
     1
 72
     4
 73
     2
 74
     0
 42
0.000001
 43
0.000001
 40
0.0
 40
0.0
 40
1.0
 40
1.0
 10
-0.0147008033602005
 20
0.9480467336561549
 30
4.0749999999999993
 10
-0.0151333841463414
 20
0.9472862453531598
 30
4.0649999999999995
  0
ARC
  5
4E0
100
AcDbEntity
  8
1
390
0
  6
Continuous
 62
     3
100
AcDbCircle
 10
0.043601
 20
-0.751065
 30
4.075
 40
0.01554
100
AcDbArc
 50
270.0
 51
360.0
  0
LINE
  5
4E1
100
AcDbEntity
  8
1
390
0
  6
Continuous
 62
     3
100
AcDbLine
 10
0.035202
 20
1.060161
 30
4.075
 11
0.035202
 21
1.060161
 31
4.065
  0
SPLINE
  5
4E2
100
AcDbEntity
  8
1
390
0
  6
Continuous
 62
     3
100
AcDbSpline
210
0.0
220
0.0
230
1.0
 70
     0
 71
     2
 72
     6
 73
     3
 74
     0
 42
0.000001
 43
0.000001
 40
0.0
 40
0.0
 40
0.0
 40
1.0
 40
1.0
 40
1.0
 10
0.0058165687377754
 20
0.9205103767200605
 30
4.0749999999999993
 10
0.0062194146662417
 20
0.9204092994642272
 30
4.0702540921048191
 10
0.0066653963414634
 20
0.9202973977695166
 30
4.0649999999999995
  0
LINE
  5
4E3
100
AcDbEntity
  8
1
390
0
  6
Continuous
 62
     3
100
AcDbLine
 10
0.001626
 20
1.075311
 30
4.075
 11
0.001626
 21
1.075311
 31
4.065
  0
SPLINE
  5
4E4
100
AcDbEntity
  8
1
390
0
  6
Continuous
 62
     3
100
AcDbSpline
210
0.0
220
0.0
230
1.0
 70
     0
 71
     3
 72
     8
 73
     4
 74
     0
 42
0.000001
 43
0.000001
 40
0.0
 40
0.0
 40
0.0
 40
0.0
 40
1.0
 40
1.0
 40
1.0
 40
1.0
 10
-0.0534478080523432
 20
1.0600381899502815
 30
4.0749999999999993
 10
-0.0559455748195993
 20
1.0551245504081386
 30
4.0749999999999993
 10
-0.0572149317013196
 20
1.049719546911781
 30
4.0749999999999993
 10
-0.0572149317013196
 20
1.0438641264573938
 30
4.0749999999999993
  0
ARC
  5
4E5
100
AcDbEntity
  8
1
390
0
  6
Continuous
 62
     3
100
AcDbCircle
 10
0.0
 20
0.0
 30
1.735
 40
0.1135
210
0.0
220
0.0
230
1.0
100
AcDbArc
 50
-28.229835
 51
28.229835
  0
LINE
  5
4E6
100
AcDbEntity
  8
1
390
0
  6
Continuous
 62
     3
100
AcDbLine
 10
-0.075875
 20
0.599125
 30
4.075
 11
-0.075875
 21
1.100875
 31
4.075
  0
LINE
  5
4E7
100
AcDbEntity
  8
1
390
0
  6
Continuous
 62
     3
100
AcDbLine
 10
-0.043718
 20
0.897229
 30
4.075
 11
-0.043718
 21
0.928996
 31
4.075
  0
LINE
  5
4E8
100
AcDbEntity
  8
1
390
0
  6
Continuous
 62
     3
100
AcDbLine
 10
0.05914
 20
-0.909053
 30
4.075
 11
0.05914
 21
-0.948715
 31
4.075
  0
LINE
  5
4E9
100
AcDbEntity
  8
1
390
0
  6
Continuous
 62
     3
100
AcDbLine
 10
0.039786
 20
-0.732446
 30
4.075
 11
0.039786
 21
-0.725833
 31
4.075
  0
SPLINE
  5
4EA
100
AcDbEntity
  8
1
390
0
  6
Continuous
 62
     3
100
AcDbSpline
210
0.0
220
0.0
230
1.0
 70
     0
 71
     2
 72
     6
 73
     3
 74
     0
 42
0.000001
 43
0.000001
 40
0.0
 40
0.0
 40
0.0
 40
1.0
 40
1.0
 40
1.0
 10
0.0164637146358287
 20
0.9334529049323055
 30
4.0752914489505523
 10
0.0166926884243389
 20
0.9331237491948392
 30
4.0707084957851505
 10
0.0169778963414634
 20
0.9327137546468401
 30
4.0649999999999995
  0
LINE
  5
4EB
100
AcDbEntity
  8
1
390
0
  6
Continuous
 62
     3
100
AcDbLine
 10
-0.075875
 20
1.100875
 30
4.075
 11
-0.075
 21
1.1
 31
4.065
  0
LINE
  5
4EC
100
AcDbEntity
  8
1
390
0
  6
Continuous
 62
     3
100
AcDbLine
 10
0.296677
 20
0.299429
 30
4.005227
 11
0.298254
 21
0.298666
 31
4.05
  0
LINE
  5
4ED
100
AcDbEntity
  8
1
390
0
  6
Continuous
 62
     3
100
AcDbLine
 10
0.296677
 20
-0.299429
 30
4.005227
 11
0.298254
 21
-0.298666
 31
4.05
  0
LINE
  5
4EE
100
AcDbEntity
  8
1
390
0
  6
Continuous
 62
     3
100
AcDbLine
 10
0.055
 20
0.885204
 30
4.065
 11
0.055
 21
0.898104
 31
4.065
  0
LINE
  5
4EF
100
AcDbEntity
  8
1
390
0
  6
Continuous
 62
     3
100
AcDbLine
 10
0.282507
 20
1.128902
 30
4.019705
 11
0.296677
 21
0.299429
 31
4.005227
  0
LINE
  5
4F0
100
AcDbEntity
  8
1
390
0
  6
Continuous
 62
     3
100
AcDbLine
 10
0.0775
 20
-1.125
 30
4.065
 11
0.078375
 21
-1.125875
 31
4.075
  0
LINE
  5
4F1
100
AcDbEntity
  8
1
390
0
  6
Continuous
 62
     3
100
AcDbLine
 10
-0.297374
 20
-0.299092
 30
4.075
 11
-0.282692
 21
-1.128905
 31
4.075
  0
LINE
  5
4F2
100
AcDbEntity
  8
1
390
0
  6
Continuous
 62
     3
100
AcDbLine
 10
-0.03186
 20
-0.701962
 30
4.065
 11
0.043601
 21
-0.701962
 31
4.065
  0
LINE
  5
4F3
100
AcDbEntity
  8
1
390
0
  6
Continuous
 62
     3
100
AcDbLine
 10
0.060015
 20
-1.1075
 30
4.065
 11
-0.06
 21
-1.1075
 31
4.065
  0
ARC
  5
4F4
100
AcDbEntity
  8
1
390
0
  6
Continuous
 62
     3
100
AcDbCircle
 10
0.0
 20
0.0
 30
4.075
 40
0.325
100
AcDbArc
 50
227.505407
 51
312.494593
  0
LINE
  5
4F5
100
AcDbEntity
  8
1
390
0
  6
Continuous
 62
     3
100
AcDbLine
 10
-0.03186
 20
-0.887073
 30
4.065
 11
-0.03186
 21
-0.863624
 31
4.065
  0
LINE
  5
4F6
100
AcDbEntity
  8
1
390
0
  6
Continuous
 62
     3
100
AcDbLine
 10
-0.054125
 20
0.794481
 30
4.075
 11
-0.055
 21
0.793606
 31
4.065
  0
LINE
  5
4F7
100
AcDbEntity
  8
1
390
0
  6
Continuous
 62
     3
100
AcDbLine
 10
0.0775
 20
-1.125
 30
4.065
 11
0.0775
 21
-0.57
 31
4.065
  0
LINE
  5
4F8
100
AcDbEntity
  8
1
390
0
  6
Continuous
 62
     3
100
AcDbLine
 10
0.046766
 20
-0.99065
 30
4.065
 11
0.045891
 21
-0.99123
 31
4.075
  0
LINE
  5
4F9
100
AcDbEntity
  8
1
390
0
  6
Continuous
 62
     3
100
AcDbLine
 10
-0.06
 20
-1.02416
 30
4.065
 11
-0.059125
 21
-1.024162
 31
4.075
  0
LINE
  5
4FA
100
AcDbEntity
  8
1
390
0
  6
Continuous
 62
     3
100
AcDbLine
 10
0.038911
 20
-0.822376
 30
4.065
 11
0.039786
 21
-0.82325
 31
4.075
  0
LINE
  5
4FB
100
AcDbEntity
  8
1
390
0
  6
Continuous
 62
     3
100
AcDbLine
 10
-0.03186
 20
-0.76748
 30
4.065
 11
-0.030986
 21
-0.766605
 31
4.075
  0
ELLIPSE
  5
4FC
100
AcDbEntity
  8
1
390
0
  6
Continuous
 62
     3
100
AcDbEllipse
 10
0.0
 20
0.0
 30
5.661584
 11
0.1821185994620045
 21
-0.2383963416875309
 31
8.5908759848746801
210
-0.6066921924396406
220
0.7941703902580946
230
0.034899496702501
 40
0.034899
 41
1.759506857578323
 42
1.7649702635317341
  0
LINE
  5
4FD
100
AcDbEntity
  8
1
390
0
  6
Continuous
 62
     3
100
AcDbLine
 10
0.060015
 20
-0.687141
 30
4.065
 11
0.05914
 21
-0.686267
 31
4.075
  0
LINE
  5
4FE
100
AcDbEntity
  8
1
390
0
  6
Continuous
 62
     3
100
AcDbLine
 10
0.054125
 20
0.897229
 30
4.075
 11
0.005287
 21
0.897229
 31
4.075
  0
ELLIPSE
  5
4FF
100
AcDbEntity
  8
1
390
0
  6
Continuous
 62
     3
100
AcDbEllipse
 10
0.0
 20
0.0
 30
4.0
 11
0.0
 21
0.3
 31
0.0052365194784653
210
0.0
220
0.0174524064372835
230
-0.9998476951563913
 40
0.999848
 41
5.5589210569059606
 42
7.0074495574532829
  0
SPLINE
  5
500
100
AcDbEntity
  8
1
390
0
  6
Continuous
 62
     3
100
AcDbSpline
210
0.0
220
0.0
230
1.0
 70
     0
 71
     3
 72
     8
 73
     4
 74
     0
 42
0.000001
 43
0.000001
 40
0.0
 40
0.0
 40
0.0
 40
0.0
 40
1.0
 40
1.0
 40
1.0
 40
1.0
 10
0.0230983231707318
 20
0.8663741839967107
 30
4.075000000000002
 10
0.0168731594822102
 20
0.8663741837430619
 30
4.075000000000002
 10
0.0114827931179584
 20
0.8648193440450048
 30
4.075000000000002
 10
0.0069442739216375
 20
0.8617648876756988
 30
4.075000000000002
  0
LINE
  5
501
100
AcDbEntity
  8
1
390
0
  6
Continuous
 62
     3
100
AcDbLine
 10
-0.298254
 20
-0.298666
 30
4.05
 11
-0.2
 21
-0.223607
 31
4.05
  0
LINE
  5
502
100
AcDbEntity
  8
1
390
0
  6
Continuous
 62
     3
100
AcDbLine
 10
-0.007887
 20
0.805631
 30
4.075
 11
-0.042879
 21
0.805631
 31
4.075
  0
SPLINE
  5
503
100
AcDbEntity
  8
1
390
0
  6
Continuous
 62
     3
100
AcDbSpline
210
0.0
220
0.0
230
1.0
 70
     0
 71
     3
 72
     8
 73
     4
 74
     0
 42
0.000001
 43
0.000001
 40
0.0
 40
0.0
 40
0.0
 40
0.0
 40
1.0
 40
1.0
 40
1.0
 40
1.0
 10
0.0416720640843106
 20
1.0444373844039772
 30
4.0649999999999995
 10
0.0416720640843106
 20
1.0391961688923579
 30
4.0649999999999995
 10
0.0400341842369296
 20
1.034773893304429
 30
4.0649999999999995
 10
0.036717477545983
 20
1.0311296106440062
 30
4.0649999999999995
  0
SPLINE
  5
504
100
AcDbEntity
  8
1
390
0
  6
Continuous
 62
     3
100
AcDbSpline
210
0.0
220
0.0
230
1.0
 70
     0
 71
     3
 72
     8
 73
     4
 74
     0
 42
0.000001
 43
0.000001
 40
0.0
 40
0.0
 40
0.0
 40
0.0
 40
1.0
 40
1.0
 40
1.0
 40
1.0
 10
-0.0016498578789179
 20
1.0455429533009595
 30
4.0649999999999995
 10
-0.0016498578789179
 20
1.0516440557324538
 30
4.0649999999999995
 10
0.0003155979379394
 20
1.0566805362631506
 30
4.0649999999999995
 10
0.0042465095716539
 20
1.0606523948930495
 30
4.0649999999999995
  0
SPLINE
  5
505
100
AcDbEntity
  8
1
390
0
  6
Continuous
 62
     3
100
AcDbSpline
210
0.0
220
0.0
230
1.0
 70
     0
 71
     3
 72
     8
 73
     4
 74
     0
 42
0.000001
 43
0.000001
 40
0.0
 40
0.0
 40
0.0
 40
0.0
 40
1.0
 40
1.0
 40
1.0
 40
1.0
 10
0.0374771341463414
 20
0.8643494423791817
 30
4.0650000000000031
 10
0.0330754571893071
 20
0.8662825277541998
 30
4.0650000000001034
 10
0.0282545732666907
 20
0.8672490706319966
 30
4.0650000000000031
 10
0.0230983231707318
 20
0.8672490706319698
 30
4.0650000000000031
  0
SPLINE
  5
506
100
AcDbEntity
  8
1
390
0
  6
Continuous
 62
     3
100
AcDbSpline
210
0.0
220
0.0
230
1.0
 70
     0
 71
     3
 72
     8
 73
     4
 74
     0
 42
0.000001
 43
0.000001
 40
0.0
 40
0.0
 40
0.0
 40
0.0
 40
1.0
 40
1.0
 40
1.0
 40
1.0
 10
-0.0000088405322818
 20
0.6858654614349729
 30
4.0750000000001716
 10
-0.0062968532768158
 20
0.6910070803871251
 30
4.0749999999994779
 10
-0.0140004833644903
 20
0.6935860797956935
 30
4.0750000000001716
 10
-0.0231821646341463
 20
0.6935860799074766
 30
4.0750000000001716
  0
SPLINE
  5
507
100
AcDbEntity
  8
1
390
0
  6
Continuous
 62
     3
100
AcDbSpline
210
0.0
220
0.0
230
1.0
 70
     0
 71
     3
 72
     8
 73
     4
 74
     0
 42
0.000001
 43
0.000001
 40
0.0
 40
0.0
 40
0.0
 40
0.0
 40
1.0
 40
1.0
 40
1.0
 40
1.0
 10
-0.0538748962096536
 20
0.6720058119903904
 30
4.0649999999999986
 10
-0.0547530238681647
 20
0.6674887484540641
 30
4.0649999999999986
 10
-0.0550093830885454
 20
0.6628940398474537
 30
4.0649999999999986
 10
-0.055
 20
0.6568029739776951
 30
4.0649999999999986
  0
LINE
  5
508
100
AcDbEntity
  8
1
390
0
  6
Continuous
 62
     3
100
AcDbLine
 10
-0.013976
 20
-0.588355
 30
4.075
 11
-0.013976
 21
-0.60946
 31
4.075
  0
LINE
  5
509
100
AcDbEntity
  8
1
390
0
  6
Continuous
 62
     3
100
AcDbLine
 10
0.055
 20
0.898104
 30
4.065
 11
0.006162
 21
0.898104
 31
4.065
  0
SPLINE
  5
50A
100
AcDbEntity
  8
1
390
0
  6
Continuous
 62
     3
100
AcDbSpline
210
0.0
220
0.0
230
1.0
 70
     0
 71
     3
 72
     8
 73
     4
 74
     0
 42
0.000001
 43
0.000001
 40
0.0
 40
0.0
 40
0.0
 40
0.0
 40
1.0
 40
1.0
 40
1.0
 40
1.0
 10
0.0168377489274748
 20
0.9326149290040899
 30
4.0649999999999462
 10
0.0206007722933011
 20
0.9352607090757386
 30
4.0650000000003157
 10
0.0255297254323042
 20
0.9382527882459069
 30
4.0649999999999604
 10
0.0321112804878066
 20
0.9420446096654244
 30
4.0649999999999604
  0
LINE
  5
50B
100
AcDbEntity
  8
1
390
0
  6
Continuous
 62
     3
100
AcDbLine
 10
-0.001808
 20
0.632025
 30
4.075
 11
-0.002683
 21
0.6329
 31
4.065
  0
LINE
  5
50C
100
AcDbEntity
  8
1
390
0
  6
Continuous
 62
     3
100
AcDbLine
 10
-0.042879
 20
0.632025
 30
4.075
 11
-0.042005
 21
0.6329
 31
4.065
  0
LINE
  5
50D
100
AcDbEntity
  8
1
390
0
  6
Continuous
 62
     3
100
AcDbLine
 10
-0.005581
 20
0.925874
 30
4.075
 11
-0.005581
 21
0.897229
 31
4.075
  0
LINE
  5
50E
100
AcDbEntity
  8
1
390
0
  6
Continuous
 62
     3
100
AcDbLine
 10
0.042005
 20
0.806506
 30
4.065
 11
0.004192
 21
0.806506
 31
4.065
  0
LINE
  5
50F
100
AcDbEntity
  8
1
390
0
  6
Continuous
 62
     3
100
AcDbLine
 10
-0.007887
 20
0.805631
 30
4.075
 11
-0.008761
 21
0.806506
 31
4.065
  0
ELLIPSE
  5
510
100
AcDbEntity
  8
1
390
0
  6
Continuous
 62
     3
100
AcDbEllipse
 10
0.0
 20
-0.000837
 30
4.000015
 11
0.0
 21
-1.3732544717502184
 31
0.0239702459673652
210
-0.0
220
-0.0174524064372835
230
-0.9998476951563916
 40
0.999848
 41
6.2532920968088739
 42
6.3130785175502986
  0
LINE
  5
511
100
AcDbEntity
  8
1
390
0
  6
Continuous
 62
     3
100
AcDbLine
 10
-0.014002
 20
0.858377
 30
4.075
 11
-0.013582
 21
0.859145
 31
4.065
  0
LINE
  5
512
100
AcDbEntity
  8
1
390
0
  6
Continuous
 62
     3
100
AcDbLine
 10
0.05914
 20
-0.60946
 30
4.075
 11
-0.013976
 21
-0.60946
 31
4.075
  0
SPLINE
  5
513
100
AcDbEntity
  8
1
390
0
  6
Continuous
 62
     3
100
AcDbSpline
210
0.0
220
0.0
230
1.0
 70
     0
 71
     1
 72
     4
 73
     2
 74
     0
 42
0.000001
 43
0.000001
 40
0.0
 40
0.0
 40
1.0
 40
1.0
 10
-0.0151333841463412
 20
0.9472862453531602
 30
4.0650000000000031
 10
-0.008509908536585
 20
0.9397026022304833
 30
4.0650000000000031
  0
SPLINE
  5
514
100
AcDbEntity
  8
1
390
0
  6
Continuous
 62
     3
100
AcDbSpline
210
0.0
220
0.0
230
1.0
 70
     0
 71
     1
 72
     4
 73
     2
 74
     0
 42
0.000001
 43
0.000001
 40
0.0
 40
0.0
 40
1.0
 40
1.0
 10
0.005816568737775
 20
0.9205103767200596
 30
4.075000000000002
 10
0.0088919913788493
 20
0.9266852067972058
 30
4.0750000000000037
  0
LINE
  5
515
100
AcDbEntity
  8
1
390
0
  6
Continuous
 62
     3
100
AcDbLine
 10
0.036717
 20
1.03113
 30
4.075
 11
0.036717
 21
1.03113
 31
4.065
  0
LINE
  5
516
100
AcDbEntity
  8
1
390
0
  6
Continuous
 62
     3
100
AcDbLine
 10
0.054125
 20
0.886079
 30
4.075
 11
0.054125
 21
0.897229
 31
4.075
  0
LINE
  5
517
100
AcDbEntity
  8
1
390
0
  6
Continuous
 62
     3
100
AcDbLine
 10
-0.1
 20
0.053687
 30
1.75
 11
-0.1
 21
-0.053687
 31
1.75
  0
LINE
  5
518
100
AcDbEntity
  8
1
390
0
  6
Continuous
 62
     3
100
AcDbLine
 10
-0.057215
 20
1.043864
 30
4.075
 11
-0.057215
 21
1.043864
 31
4.065
  0
CIRCLE
  5
519
100
AcDbEntity
  8
1
390
0
  6
Continuous
 62
     3
100
AcDbCircle
 10
0.0
 20
0.0
 30
1.675
 40
0.1285
  0
SPLINE
  5
51A
100
AcDbEntity
  8
1
390
0
  6
Continuous
 62
     3
100
AcDbSpline
210
0.0
220
0.0
230
1.0
 70
     0
 71
     3
 72
     8
 73
     4
 74
     0
 42
0.000001
 43
0.000001
 40
0.0
 40
0.0
 40
0.0
 40
0.0
 40
1.0
 40
1.0
 40
1.0
 40
1.0
 10
0.0093956926330098
 20
0.6579182156133828
 30
4.0750000000002702
 10
0.0093956925861613
 20
0.671602487978745
 30
4.07499999999912
 10
0.0061809893951517
 20
0.6808367731545384
 30
4.0750000000002702
 10
-0.0000066909271955
 20
0.6858637094106019
 30
4.0750000000002702
  0
SPLINE
  5
51B
100
AcDbEntity
  8
1
390
0
  6
Continuous
 62
     3
100
AcDbSpline
210
0.0
220
0.0
230
1.0
 70
     0
 71
     1
 72
     4
 73
     2
 74
     0
 42
0.000001
 43
0.000001
 40
0.0
 40
0.0
 40
1.0
 40
1.0
 10
0.0523139648234454
 20
0.8463034484089552
 30
4.0749999999999993
 10
0.0470377817444024
 20
0.8566469255693684
 30
4.0749999999999993
  0
LINE
  5
51C
100
AcDbEntity
  8
1
390
0
  6
Continuous
 62
     3
100
AcDbLine
 10
-0.029576
 20
1.061717
 30
4.075
 11
-0.029576
 21
1.061717
 31
4.065
  0
SPLINE
  5
51D
100
AcDbEntity
  8
1
390
0
  6
Continuous
 62
     3
100
AcDbSpline
210
0.0
220
0.0
230
1.0
 70
     0
 71
     3
 72
     8
 73
     4
 74
     0
 42
0.000001
 43
0.000001
 40
0.0
 40
0.0
 40
0.0
 40
0.0
 40
1.0
 40
1.0
 40
1.0
 40
1.0
 10
-0.0073451652712609
 20
0.6764911252119727
 30
4.0749999999999025
 10
-0.0035713959872041
 20
0.6727434555046234
 30
4.0750000000003155
 10
-0.0018080400436814
 20
0.6665658610875421
 30
4.0749999999999025
 10
-0.0018080401940175
 20
0.6581412639405203
 30
4.0749999999999025
  0
LINE
  5
51E
100
AcDbEntity
  8
1
390
0
  6
Continuous
 62
     3
100
AcDbLine
 10
-0.00165
 20
1.045543
 30
4.075
 11
-0.00165
 21
1.045543
 31
4.065
  0
LINE
  5
51F
100
AcDbEntity
  8
1
390
0
  6
Continuous
 62
     3
100
AcDbLine
 10
-0.029371
 20
1.011516
 30
4.065
 11
-0.026996
 21
1.024701
 31
4.065
  0
LINE
  5
520
100
AcDbEntity
  8
1
390
0
  6
Continuous
 62
     3
100
AcDbLine
 10
0.022304
 20
1.010206
 30
4.075
 11
0.022304
 21
1.010206
 31
4.065
  0
LINE
  5
521
100
AcDbEntity
  8
1
390
0
  6
Continuous
 62
     3
100
AcDbLine
 10
-0.011764
 20
1.037681
 30
4.075
 11
-0.011764
 21
1.037681
 31
4.065
  0
CIRCLE
  5
522
100
AcDbEntity
  8
1
390
0
  6
Continuous
 62
     3
100
AcDbCircle
 10
0.0
 20
0.0
 30
-4.075
 40
0.24529
210
0.0
220
0.0
230
-1.0
  0
SPLINE
  5
523
100
AcDbEntity
  8
1
390
0
  6
Continuous
 62
     3
100
AcDbSpline
210
0.0
220
0.0
230
1.0
 70
     0
 71
     3
 72
     8
 73
     4
 74
     0
 42
0.000001
 43
0.000001
 40
0.0
 40
0.0
 40
0.0
 40
0.0
 40
1.0
 40
1.0
 40
1.0
 40
1.0
 10
0.0441698308515667
 20
1.0208519146016903
 30
4.0649999999999995
 10
0.0497795693288468
 20
1.0271168050179227
 30
4.0649999999999995
 10
0.0526049120655791
 20
1.0349376812891673
 30
4.0649999999999995
 10
0.0526049120655791
 20
1.0443554904116081
 30
4.0649999999999995
  0
LINE
  5
524
100
AcDbEntity
  8
1
390
0
  6
Continuous
 62
     3
100
AcDbLine
 10
-0.042286
 20
0.77775
 30
4.075
 11
-0.054125
 21
0.77775
 31
4.075
  0
SPLINE
  5
525
100
AcDbEntity
  8
1
390
0
  6
Continuous
 62
     3
100
AcDbSpline
210
0.0
220
0.0
230
1.0
 70
     0
 71
     2
 72
     6
 73
     3
 74
     0
 42
0.000001
 43
0.000001
 40
0.0
 40
0.0
 40
0.0
 40
1.0
 40
1.0
 40
1.0
 10
-0.0420045731707318
 20
0.8259851301115241
 30
4.0650000000000013
 10
-0.0420045731707387
 20
0.833011152416359
 30
4.0650000000000013
 10
-0.0415015243902369
 20
0.8379553903345699
 30
4.0650000000000013
  0
LINE
  5
526
100
AcDbEntity
  8
1
390
0
  6
Continuous
 62
     3
100
AcDbLine
 10
0.05914
 20
-1.054441
 30
4.075
 11
0.05914
 21
-1.106625
 31
4.075
  0
LINE
  5
527
100
AcDbEntity
  8
1
390
0
  6
Continuous
 62
     3
100
AcDbLine
 10
0.060015
 20
-0.608585
 30
4.065
 11
0.060015
 21
-0.636725
 31
4.065
  0
SPLINE
  5
528
100
AcDbEntity
  8
1
390
0
  6
Continuous
 62
     3
100
AcDbSpline
210
0.0
220
0.0
230
1.0
 70
     0
 71
     3
 72
     8
 73
     4
 74
     0
 42
0.000001
 43
0.000001
 40
0.0
 40
0.0
 40
0.0
 40
0.0
 40
1.0
 40
1.0
 40
1.0
 40
1.0
 10
-0.0231821646341463
 20
0.6935860799074916
 30
4.0750000000000011
 10
-0.0285245414258064
 20
0.69358607970165
 30
4.0750000000000011
 10
-0.0334317520681097
 20
0.6926034587597346
 30
4.0750000000000011
 10
-0.037840676961153
 20
0.6906847737300264
 30
4.0750000000000011
  0
ARC
  5
529
100
AcDbEntity
  8
1
390
0
  6
Continuous
 62
     3
100
AcDbCircle
 10
0.034221
 20
-0.732446
 30
4.065
 40
0.00469
210
0.0
220
0.0
230
1.0
100
AcDbArc
 50
-90.0
 51
0.0
  0
LINE
  5
52A
100
AcDbEntity
  8
1
390
0
  6
Continuous
 62
     3
100
AcDbLine
 10
0.298254
 20
0.298666
 30
4.05
 11
0.2
 21
0.223607
 31
4.05
  0
LINE
  5
52B
100
AcDbEntity
  8
1
390
0
  6
Continuous
 62
     3
100
AcDbLine
 10
0.060015
 20
-0.996255
 30
4.065
 11
0.060015
 21
-1.02334
 31
4.065
  0
LINE
  5
52C
100
AcDbEntity
  8
1
390
0
  6
Continuous
 62
     3
100
AcDbLine
 10
-0.03186
 20
-0.960822
 30
4.065
 11
0.027936
 21
-0.933973
 31
4.065
  0
LINE
  5
52D
100
AcDbEntity
  8
1
390
0
  6
Continuous
 62
     3
100
AcDbLine
 10
0.298254
 20
0.298666
 30
4.05
 11
0.297374
 21
0.299092
 31
4.075
  0
LINE
  5
52E
100
AcDbEntity
  8
1
390
0
  6
Continuous
 62
     3
100
AcDbLine
 10
0.060015
 20
-0.996255
 30
4.065
 11
0.05914
 21
-0.996835
 31
4.075
  0
ARC
  5
52F
100
AcDbEntity
  8
1
390
0
  6
Continuous
 62
     3
100
AcDbCircle
 10
-0.033033
 20
-1.041841
 30
4.075
 40
0.006737
100
AcDbArc
 50
90.0
 51
180.0
  0
LINE
  5
530
100
AcDbEntity
  8
1
390
0
  6
Continuous
 62
     3
100
AcDbLine
 10
0.060015
 20
-0.908178
 30
4.065
 11
0.05914
 21
-0.909053
 31
4.075
  0
SPLINE
  5
531
100
AcDbEntity
  8
1
390
0
  6
Continuous
 62
     3
100
AcDbSpline
210
0.0
220
0.0
230
1.0
 70
     0
 71
     2
 72
     6
 73
     3
 74
     0
 42
0.000001
 43
0.000001
 40
0.0
 40
0.0
 40
0.0
 40
1.0
 40
1.0
 40
1.0
 10
0.0050537838045606
 20
0.8432124141442815
 30
4.0749999999999975
 10
0.0063142943146413
 20
0.8477461061428615
 30
4.0749999999999975
 10
0.011952060367164
 20
0.8518244336469869
 30
4.0749999999999975
  0
SPLINE
  5
532
100
AcDbEntity
  8
1
390
0
  6
Continuous
 62
     3
100
AcDbSpline
210
0.0
220
0.0
230
1.0
 70
     0
 71
     1
 72
     4
 73
     2
 74
     0
 42
0.000001
 43
0.000001
 40
0.0
 40
0.0
 40
1.0
 40
1.0
 10
-0.0318604108532888
 20
-0.9851125442343904
 30
4.0650000000000039
 10
-0.0309855242180302
 20
-0.9857469010896333
 30
4.0749999999999975
  0
LINE
  5
533
100
AcDbEntity
  8
1
390
0
  6
Continuous
 62
     3
100
AcDbLine
 10
-0.012679
 20
-0.822376
 30
4.065
 11
-0.012679
 21
-0.812996
 31
4.065
  0
LINE
  5
534
100
AcDbEntity
  8
1
390
0
  6
Continuous
 62
     3
100
AcDbLine
 10
0.038911
 20
-0.732446
 30
4.065
 11
0.039786
 21
-0.732446
 31
4.075
  0
LINE
  5
535
100
AcDbEntity
  8
1
390
0
  6
Continuous
 62
     3
100
AcDbLine
 10
-0.219544
 20
-0.239636
 30
4.075
 11
-0.297374
 21
-0.299092
 31
4.075
  0
LINE
  5
536
100
AcDbEntity
  8
1
390
0
  6
Continuous
 62
     3
100
AcDbLine
 10
-0.03186
 20
-0.701962
 30
4.065
 11
-0.030986
 21
-0.702837
 31
4.075
  0
LINE
  5
537
100
AcDbEntity
  8
1
390
0
  6
Continuous
 62
     3
100
AcDbLine
 10
-0.03186
 20
-0.662519
 30
4.065
 11
-0.030986
 21
-0.663394
 31
4.075
  0
LINE
  5
538
100
AcDbEntity
  8
1
390
0
  6
Continuous
 62
     3
100
AcDbLine
 10
-0.296677
 20
0.299429
 30
4.005227
 11
-0.198775
 21
0.224696
 31
4.003922
  0
SPLINE
  5
539
100
AcDbEntity
  8
1
390
0
  6
Continuous
 62
     3
100
AcDbSpline
210
0.0
220
0.0
230
1.0
 70
     0
 71
     3
 72
     8
 73
     4
 74
     0
 42
0.000001
 43
0.000001
 40
0.0
 40
0.0
 40
0.0
 40
0.0
 40
1.0
 40
1.0
 40
1.0
 40
1.0
 10
0.0526049120655791
 20
1.0443554904116081
 30
4.0749999999999993
 10
0.0526049120655791
 20
1.0547969744386623
 30
4.0749999999999993
 10
0.049329152370817
 20
1.0634777376297819
 30
4.0749999999999993
 10
0.0428185799774774
 20
1.0703158859925976
 30
4.0749999999999993
  0
SPLINE
  5
53A
100
AcDbEntity
  8
1
390
0
  6
Continuous
 62
     3
100
AcDbSpline
210
0.0
220
0.0
230
1.0
 70
     0
 71
     3
 72
     8
 73
     4
 74
     0
 42
0.000001
 43
0.000001
 40
0.0
 40
0.0
 40
0.0
 40
0.0
 40
1.0
 40
1.0
 40
1.0
 40
1.0
 10
0.0016259018158442
 20
1.0753114195271098
 30
4.0649999999999995
 10
-0.0030011087530072
 20
1.0717899778552407
 30
4.0649999999999995
 10
-0.0060311864706621
 20
1.0668353913169129
 30
4.0649999999999995
 10
-0.0075052783333051
 20
1.0604886069083115
 30
4.0649999999999995
  0
SPLINE
  5
53B
100
AcDbEntity
  8
1
390
0
  6
Continuous
 62
     3
100
AcDbSpline
210
0.0
220
0.0
230
1.0
 70
     0
 71
     3
 72
     8
 73
     4
 74
     0
 42
0.000001
 43
0.000001
 40
0.0
 40
0.0
 40
0.0
 40
0.0
 40
1.0
 40
1.0
 40
1.0
 40
1.0
 10
-0.0268711890243902
 20
0.8625278810408901
 30
4.0650000000000226
 10
-0.0319016769519947
 20
0.8625278812095385
 30
4.0649999999999178
 10
-0.0367644815439102
 20
0.8612639402657238
 30
4.0650000000000226
 10
-0.041375762195121
 20
0.8586988847583622
 30
4.0650000000000226
  0
LINE
  5
53C
100
AcDbEntity
  8
1
390
0
  6
Continuous
 62
     3
100
AcDbLine
 10
-0.075
 20
1.1
 30
4.065
 11
0.075
 21
1.1
 31
4.065
  0
LINE
  5
53D
100
AcDbEntity
  8
1
390
0
  6
Continuous
 62
     3
100
AcDbLine
 10
0.043601
 20
-0.76748
 30
4.065
 11
0.043601
 21
-0.766605
 31
4.075
  0
SPLINE
  5
53E
100
AcDbEntity
  8
1
390
0
  6
Continuous
 62
     3
100
AcDbSpline
210
0.0
220
0.0
230
1.0
 70
     0
 71
     3
 72
     8
 73
     4
 74
     0
 42
0.000001
 43
0.000001
 40
0.0
 40
0.0
 40
0.0
 40
0.0
 40
1.0
 40
1.0
 40
1.0
 40
1.0
 10
0.004946646341463
 20
0.935724907063197
 30
4.0650000000000048
 10
0.003521341317475
 20
0.9450929367052106
 30
4.0650000000000048
 10
0.0000838416151384
 20
0.9520074350679266
 30
4.0650000000000048
 10
-0.0052400914634148
 20
0.9564684014869885
 30
4.0650000000000048
  0
LINE
  5
53F
100
AcDbEntity
  8
1
390
0
  6
Continuous
 62
     3
100
AcDbLine
 10
-0.030986
 20
-0.65461
 30
4.075
 11
-0.030986
 21
-0.588355
 31
4.075
  0
LINE
  5
540
100
AcDbEntity
  8
1
390
0
  6
Continuous
 62
     3
100
AcDbLine
 10
-0.002683
 20
0.658141
 30
4.065
 11
-0.002683
 21
0.6329
 31
4.065
  0
LINE
  5
541
100
AcDbEntity
  8
1
390
0
  6
Continuous
 62
     3
100
AcDbLine
 10
0.054125
 20
0.794481
 30
4.075
 11
0.054125
 21
0.830781
 31
4.075
  0
SPLINE
  5
542
100
AcDbEntity
  8
1
390
0
  6
Continuous
 62
     3
100
AcDbSpline
210
0.0
220
0.0
230
1.0
 70
     0
 71
     2
 72
     6
 73
     3
 74
     0
 42
0.000001
 43
0.000001
 40
0.0
 40
0.0
 40
0.0
 40
1.0
 40
1.0
 40
1.0
 10
-0.0480872192513989
 20
0.6831247086717885
 30
4.075291209796724
 10
-0.0484027389778534
 20
0.6833721273317334
 30
4.0707082562162773
 10
-0.048795731707469
 20
0.6836802973975737
 30
4.0650000000000022
  0
LINE
  5
543
100
AcDbEntity
  8
1
390
0
  6
Continuous
 62
     3
100
AcDbLine
 10
0.039786
 20
-0.82325
 30
4.075
 11
0.039786
 21
-0.812996
 31
4.075
  0
SPLINE
  5
544
100
AcDbEntity
  8
1
390
0
  6
Continuous
 62
     3
100
AcDbSpline
210
0.0
220
0.0
230
1.0
 70
     0
 71
     1
 72
     4
 73
     2
 74
     0
 42
0.000001
 43
0.000001
 40
0.0
 40
0.0
 40
1.0
 40
1.0
 10
-0.010060975609756
 20
0.8398884758364311
 30
4.0649999999999995
 10
-0.0087614329268292
 20
0.8275836431226765
 30
4.0649999999999995
  0
LINE
  5
545
100
AcDbEntity
  8
1
390
0
  6
Continuous
 62
     3
100
AcDbLine
 10
-0.025152
 20
0.850689
 30
4.075
 11
-0.025152
 21
0.849814
 31
4.065
  0
LINE
  5
546
100
AcDbEntity
  8
1
390
0
  6
Continuous
 62
     3
100
AcDbLine
 10
0.027756
 20
-0.986204
 30
4.075
 11
-0.001247
 21
-0.973326
 31
4.075
  0
LINE
  5
547
100
AcDbEntity
  8
1
390
0
  6
Continuous
 62
     3
100
AcDbLine
 10
0.011047
 20
0.942866
 30
4.075
 11
0.010438
 21
0.943494
 31
4.065
  0
SPLINE
  5
548
100
AcDbEntity
  8
1
390
0
  6
Continuous
 62
     3
100
AcDbSpline
210
0.0
220
0.0
230
1.0
 70
     0
 71
     2
 72
     6
 73
     3
 74
     0
 42
0.000001
 43
0.000001
 40
0.0
 40
0.0
 40
0.0
 40
1.0
 40
1.0
 40
1.0
 10
-0.0511992264787747
 20
0.9479280148828142
 30
4.075291060085549
 10
-0.0515663600852089
 20
0.9480892024506519
 30
4.0707081064861104
 10
-0.0520236280488625
 20
0.9482899628250895
 30
4.0650000000000013
  0
LINE
  5
549
100
AcDbEntity
  8
1
390
0
  6
Continuous
 62
     3
100
AcDbLine
 10
0.04178
 20
0.70396
 30
4.075
 11
0.041502
 21
0.703086
 31
4.065
  0
LINE
  5
54A
100
AcDbEntity
  8
1
390
0
  6
Continuous
 62
     3
100
AcDbLine
 10
-0.049926
 20
1.022531
 30
4.075
 11
-0.049926
 21
1.022531
 31
4.065
  0
LINE
  5
54B
100
AcDbEntity
  8
1
390
0
  6
Continuous
 62
     3
100
AcDbLine
 10
-0.028967
 20
0.753086
 30
4.065
 11
0.041502
 21
0.703086
 31
4.065
  0
LINE
  5
54C
100
AcDbEntity
  8
1
390
0
  6
Continuous
 62
     3
100
AcDbLine
 10
-0.283565
 20
1.12892
 30
4.05
 11
-0.282507
 21
1.128902
 31
4.019705
  0
SPLINE
  5
54D
100
AcDbEntity
  8
1
390
0
  6
Continuous
 62
     3
100
AcDbSpline
210
0.0
220
0.0
230
1.0
 70
     0
 71
     1
 72
     4
 73
     2
 74
     0
 42
0.000001
 43
0.000001
 40
0.0
 40
0.0
 40
1.0
 40
1.0
 10
0.042359342993527
 20
0.8397258738909224
 30
4.0749999999999904
 10
0.0428794598059903
 20
0.8307806691449813
 30
4.0749999999999904
  0
ELLIPSE
  5
54E
100
AcDbEntity
  8
1
390
0
  6
Continuous
 62
     3
100
AcDbEllipse
 10
0.0
 20
0.000837
 30
4.000015
 11
0.0
 21
1.3732544717502184
 31
0.0239702459673652
210
0.0
220
-0.0174524064372835
230
0.9998476951563916
 40
0.999848
 41
6.2532920968088739
 42
6.3130785175502986
  0
LINE
  5
54F
100
AcDbEntity
  8
1
390
0
  6
Continuous
 62
     3
100
AcDbLine
 10
0.055
 20
0.62
 30
4.065
 11
0.055
 21
0.6329
 31
4.065
  0
LINE
  5
550
100
AcDbEntity
  8
1
390
0
  6
Continuous
 62
     3
100
AcDbLine
 10
0.298254
 20
0.298666
 30
4.05
 11
0.283565
 21
1.12892
 31
4.05
  0
SPLINE
  5
551
100
AcDbEntity
  8
1
390
0
  6
Continuous
 62
     3
100
AcDbSpline
210
0.0
220
0.0
230
1.0
 70
     0
 71
     1
 72
     4
 73
     2
 74
     0
 42
0.000001
 43
0.000001
 40
0.0
 40
0.0
 40
1.0
 40
1.0
 10
0.006665396341463
 20
0.9202973977695171
 30
4.0650000000000066
 10
0.009599847560975
 20
0.9261710037174721
 30
4.0650000000000066
  0
SPLINE
  5
552
100
AcDbEntity
  8
1
390
0
  6
Continuous
 62
     3
100
AcDbSpline
210
0.0
220
0.0
230
1.0
 70
     0
 71
     1
 72
     4
 73
     2
 74
     0
 42
0.000001
 43
0.000001
 40
0.0
 40
0.0
 40
1.0
 40
1.0
 10
-0.0428794598059909
 20
0.7651129442931232
 30
4.0749999999999993
 10
-0.0420045731707315
 20
0.7631970260223047
 30
4.0649999999999995
  0
LINE
  5
553
100
AcDbEntity
  8
1
390
0
  6
Continuous
 62
     3
100
AcDbLine
 10
-0.007887
 20
0.827584
 30
4.075
 11
-0.007887
 21
0.805631
 31
4.075
  0
LINE
  5
554
100
AcDbEntity
  8
1
390
0
  6
Continuous
 62
     3
100
AcDbLine
 10
0.054125
 20
0.969687
 30
4.075
 11
0.055
 21
0.97119
 31
4.065
  0
LINE
  5
555
100
AcDbEntity
  8
1
390
0
  6
Continuous
 62
     3
100
AcDbLine
 10
0.043601
 20
-0.766605
 30
4.075
 11
-0.030986
 21
-0.766605
 31
4.075
  0
SPLINE
  5
556
100
AcDbEntity
  8
1
390
0
  6
Continuous
 62
     3
100
AcDbSpline
210
0.0
220
0.0
230
1.0
 70
     0
 71
     3
 72
     8
 73
     4
 74
     0
 42
0.000001
 43
0.000001
 40
0.0
 40
0.0
 40
0.0
 40
0.0
 40
1.0
 40
1.0
 40
1.0
 40
1.0
 10
0.0441698308515667
 20
1.0208519146016903
 30
4.0749999999999993
 10
0.0497795693288468
 20
1.0271168050179227
 30
4.0749999999999993
 10
0.0526049120655791
 20
1.0349376812891673
 30
4.0749999999999993
 10
0.0526049120655791
 20
1.0443554904116081
 30
4.0749999999999993
  0
LINE
  5
557
100
AcDbEntity
  8
1
390
0
  6
Continuous
 62
     3
100
AcDbLine
 10
-0.0775
 20
-0.57
 30
4.065
 11
-0.078375
 21
-0.569125
 31
4.075
  0
LINE
  5
558
100
AcDbEntity
  8
1
390
0
  6
Continuous
 62
     3
100
AcDbLine
 10
0.034221
 20
-0.720269
 30
4.075
 11
-0.030986
 21
-0.720269
 31
4.075
  0
SPLINE
  5
559
100
AcDbEntity
  8
1
390
0
  6
Continuous
 62
     3
100
AcDbSpline
210
0.0
220
0.0
230
1.0
 70
     0
 71
     1
 72
     4
 73
     2
 74
     0
 42
0.000001
 43
0.000001
 40
0.0
 40
0.0
 40
1.0
 40
1.0
 10
-0.0410403963414627
 20
0.6698884758364307
 30
4.0649999999999915
 10
-0.0345426829268289
 20
0.6780669144981407
 30
4.0649999999999915
  0
LINE
  5
55A
100
AcDbEntity
  8
1
390
0
  6
Continuous
 62
     3
100
AcDbLine
 10
0.043601
 20
-0.76748
 30
4.065
 11
-0.03186
 21
-0.76748
 31
4.065
  0
LINE
  5
55B
100
AcDbEntity
  8
1
390
0
  6
Continuous
 62
     3
100
AcDbLine
 10
-0.042879
 20
0.657844
 30
4.075
 11
-0.042005
 21
0.657844
 31
4.065
  0
LINE
  5
55C
100
AcDbEntity
  8
1
390
0
  6
Continuous
 62
     3
100
AcDbLine
 10
0.060015
 20
-0.849554
 30
4.065
 11
-0.03186
 21
-0.849554
 31
4.065
  0
LINE
  5
55D
100
AcDbEntity
  8
1
390
0
  6
Continuous
 62
     3
100
AcDbLine
 10
0.060015
 20
-0.908178
 30
4.065
 11
0.020901
 21
-0.908178
 31
4.065
  0
LINE
  5
55E
100
AcDbEntity
  8
1
390
0
  6
Continuous
 62
     3
100
AcDbLine
 10
0.005287
 20
0.897229
 30
4.075
 11
0.005287
 21
0.913086
 31
4.075
  0
LINE
  5
55F
100
AcDbEntity
  8
1
390
0
  6
Continuous
 62
     3
100
AcDbLine
 10
0.060015
 20
-0.662519
 30
4.065
 11
0.060015
 21
-0.687141
 31
4.065
  0
SPLINE
  5
560
100
AcDbEntity
  8
1
390
0
  6
Continuous
 62
     3
100
AcDbSpline
210
0.0
220
0.0
230
1.0
 70
     0
 71
     1
 72
     4
 73
     2
 74
     0
 42
0.000001
 43
0.000001
 40
0.0
 40
0.0
 40
1.0
 40
1.0
 10
-0.0416141261550152
 20
1.056803377251704
 30
4.0749999999999993
 10
-0.0295757092767646
 20
1.0617170167938472
 30
4.0749999999999993
  0
LINE
  5
561
100
AcDbEntity
  8
1
390
0
  6
Continuous
 62
     3
100
AcDbLine
 10
-0.002548
 20
-1.035979
 30
4.065
 11
-0.033033
 21
-1.035979
 31
4.065
  0
LINE
  5
562
100
AcDbEntity
  8
1
390
0
  6
Continuous
 62
     3
100
AcDbLine
 10
0.021668
 20
-1.054441
 30
4.075
 11
0.05914
 21
-1.054441
 31
4.075
  0
LINE
  5
563
100
AcDbEntity
  8
1
390
0
  6
Continuous
 62
     3
100
AcDbLine
 10
0.026881
 20
-0.961654
 30
4.065
 11
0.027756
 21
-0.960302
 31
4.075
  0
SPLINE
  5
564
100
AcDbEntity
  8
1
390
0
  6
Continuous
 62
     3
100
AcDbSpline
210
0.0
220
0.0
230
1.0
 70
     0
 71
     3
 72
     8
 73
     4
 74
     0
 42
0.000001
 43
0.000001
 40
0.0
 40
0.0
 40
0.0
 40
0.0
 40
1.0
 40
1.0
 40
1.0
 40
1.0
 10
-0.0292890803034729
 20
1.0753114195271098
 30
4.0749999999999993
 10
-0.0341617728494315
 20
1.0753114195271098
 30
4.0749999999999993
 10
-0.0387887834182829
 20
1.0740011156492051
 30
4.0749999999999993
 10
-0.0431291650138427
 20
1.0713805078933953
 30
4.0749999999999993
  0
LINE
  5
565
100
AcDbEntity
  8
1
390
0
  6
Continuous
 62
     3
100
AcDbLine
 10
-0.03186
 20
-0.903253
 30
4.065
 11
-0.030986
 21
-0.903801
 31
4.075
  0
LINE
  5
566
100
AcDbEntity
  8
1
390
0
  6
Continuous
 62
     3
100
AcDbLine
 10
-0.007989
 20
-0.808306
 30
4.065
 11
-0.007989
 21
-0.807431
 31
4.075
  0
LINE
  5
567
100
AcDbEntity
  8
1
390
0
  6
Continuous
 62
     3
100
AcDbLine
 10
0.038911
 20
-0.725833
 30
4.065
 11
0.039786
 21
-0.725833
 31
4.075
  0
LINE
  5
568
100
AcDbEntity
  8
1
390
0
  6
Continuous
 62
     3
100
AcDbLine
 10
0.0775
 20
-0.57
 30
4.065
 11
0.078375
 21
-0.569125
 31
4.075
  0
LINE
  5
569
100
AcDbEntity
  8
1
390
0
  6
Continuous
 62
     3
100
AcDbLine
 10
-0.03186
 20
-0.58748
 30
4.065
 11
-0.030986
 21
-0.588355
 31
4.075
  0
SPLINE
  5
56A
100
AcDbEntity
  8
1
390
0
  6
Continuous
 62
     3
100
AcDbSpline
210
0.0
220
0.0
230
1.0
 70
     0
 71
     1
 72
     4
 73
     2
 74
     0
 42
0.000001
 43
0.000001
 40
0.0
 40
0.0
 40
1.0
 40
1.0
 10
-0.0352178255622301
 20
0.8482376102248113
 30
4.0750000000000002
 10
-0.0251524390243902
 20
0.8506890130293112
 30
4.0750000000000002
  0
SPLINE
  5
56B
100
AcDbEntity
  8
1
390
0
  6
Continuous
 62
     3
100
AcDbSpline
210
0.0
220
0.0
230
1.0
 70
     0
 71
     3
 72
     8
 73
     4
 74
     0
 42
0.000001
 43
0.000001
 40
0.0
 40
0.0
 40
0.0
 40
0.0
 40
1.0
 40
1.0
 40
1.0
 40
1.0
 10
-0.0160222535396865
 20
1.0550017094195849
 30
4.0649999999999995
 10
-0.0130740698144006
 20
1.0504975398392871
 30
4.0649999999999995
 10
-0.0115999779517577
 20
1.0454201123124058
 30
4.0649999999999995
 10
-0.0115999779517577
 20
1.0398103738351259
 30
4.0649999999999995
  0
SPLINE
  5
56C
100
AcDbEntity
  8
1
390
0
  6
Continuous
 62
     3
100
AcDbSpline
210
0.0
220
0.0
230
1.0
 70
     0
 71
     1
 72
     4
 73
     2
 74
     0
 42
0.000001
 43
0.000001
 40
0.0
 40
0.0
 40
1.0
 40
1.0
 10
0.0392001321797441
 20
0.8475275355938954
 30
4.0749999999999993
 10
0.0423593466813812
 20
0.8397258750812702
 30
4.0749999999999993
  0
SPLINE
  5
56D
100
AcDbEntity
  8
1
390
0
  6
Continuous
 62
     3
100
AcDbSpline
210
0.0
220
0.0
230
1.0
 70
     0
 71
     3
 72
     8
 73
     4
 74
     0
 42
0.000001
 43
0.000001
 40
0.0
 40
0.0
 40
0.0
 40
0.0
 40
1.0
 40
1.0
 40
1.0
 40
1.0
 10
-0.0534478080523432
 20
1.0600381899502815
 30
4.0649999999999995
 10
-0.0559455748195993
 20
1.0551245504081386
 30
4.0649999999999995
 10
-0.0572149317013196
 20
1.049719546911781
 30
4.0649999999999995
 10
-0.0572149317013196
 20
1.0438641264573938
 30
4.0649999999999995
  0
SPLINE
  5
56E
100
AcDbEntity
  8
1
390
0
  6
Continuous
 62
     3
100
AcDbSpline
210
0.0
220
0.0
230
1.0
 70
     0
 71
     3
 72
     8
 73
     4
 74
     0
 42
0.000001
 43
0.000001
 40
0.0
 40
0.0
 40
0.0
 40
0.0
 40
1.0
 40
1.0
 40
1.0
 40
1.0
 10
0.0005449695121856
 20
0.6865427509293561
 30
4.0650000000001718
 10
-0.0059108232126705
 20
0.6918215613159087
 30
4.0649999999994773
 10
-0.0138338414319241
 20
0.694460966542752
 30
4.0650000000001718
 10
-0.0231821646341463
 20
0.6944609665427357
 30
4.0650000000001718
  0
LINE
  5
56F
100
AcDbEntity
  8
1
390
0
  6
Continuous
 62
     3
100
AcDbLine
 10
-0.042005
 20
0.778625
 30
4.065
 11
-0.055
 21
0.778625
 31
4.065
  0
SPLINE
  5
570
100
AcDbEntity
  8
1
390
0
  6
Continuous
 62
     3
100
AcDbSpline
210
0.0
220
0.0
230
1.0
 70
     0
 71
     3
 72
     8
 73
     4
 74
     0
 42
0.000001
 43
0.000001
 40
0.0
 40
0.0
 40
0.0
 40
0.0
 40
1.0
 40
1.0
 40
1.0
 40
1.0
 10
-0.0115999779517577
 20
1.0398103738351259
 30
4.0749999999999993
 10
-0.0115999779517577
 20
1.0392780628847269
 30
4.0749999999999993
 10
-0.0116818719441267
 20
1.0385819639495901
 30
4.0749999999999993
 10
-0.0117637659364958
 20
1.0376811300335305
 30
4.0749999999999993
  0
LINE
  5
571
100
AcDbEntity
  8
1
390
0
  6
Continuous
 62
     3
100
AcDbLine
 10
-0.055
 20
0.928476
 30
4.065
 11
-0.055
 21
0.885204
 31
4.065
  0
LINE
  5
572
100
AcDbEntity
  8
1
390
0
  6
Continuous
 62
     3
100
AcDbLine
 10
-0.054125
 20
0.77775
 30
4.075
 11
-0.054125
 21
0.709648
 31
4.075
  0
SPLINE
  5
573
100
AcDbEntity
  8
1
390
0
  6
Continuous
 62
     3
100
AcDbSpline
210
0.0
220
0.0
230
1.0
 70
     0
 71
     1
 72
     4
 73
     2
 74
     0
 42
0.000001
 43
0.000001
 40
0.0
 40
0.0
 40
1.0
 40
1.0
 10
0.0384832317073175
 20
0.8470260223048329
 30
4.0650000000000039
 10
0.0415015243902444
 20
0.8395539033457248
 30
4.0650000000000039
  0
SPLINE
  5
574
100
AcDbEntity
  8
1
390
0
  6
Continuous
 62
     3
100
AcDbSpline
210
0.0
220
0.0
230
1.0
 70
     0
 71
     3
 72
     8
 73
     4
 74
     0
 42
0.000001
 43
0.000001
 40
0.0
 40
0.0
 40
0.0
 40
0.0
 40
1.0
 40
1.0
 40
1.0
 40
1.0
 10
0.0416720640843106
 20
1.0444373844039772
 30
4.0749999999999993
 10
0.0416720640843106
 20
1.0391961688923579
 30
4.0749999999999993
 10
0.0400341842369296
 20
1.034773893304429
 30
4.0749999999999993
 10
0.036717477545983
 20
1.0311296106440062
 30
4.0749999999999993
  0
LINE
  5
575
100
AcDbEntity
  8
1
390
0
  6
Continuous
 62
     3
100
AcDbLine
 10
0.037125
 20
0.863548
 30
4.075
 11
0.037477
 21
0.864349
 31
4.065
  0
SPLINE
  5
576
100
AcDbEntity
  8
1
390
0
  6
Continuous
 62
     3
100
AcDbSpline
210
0.0
220
0.0
230
1.0
 70
     0
 71
     3
 72
     8
 73
     4
 74
     0
 42
0.000001
 43
0.000001
 40
0.0
 40
0.0
 40
0.0
 40
0.0
 40
1.0
 40
1.0
 40
1.0
 40
1.0
 10
0.010270579268269
 20
0.6579182156133828
 30
4.0650000000002713
 10
0.0102705792935738
 20
0.6717100372337755
 30
4.0649999999991229
 10
0.007042682879953
 20
0.6812639404418025
 30
4.0650000000002713
 10
0.0005449695121798
 20
0.6865427509293498
 30
4.0650000000002713
  0
LINE
  5
577
100
AcDbEntity
  8
1
390
0
  6
Continuous
 62
     3
100
AcDbLine
 10
0.023098
 20
0.866374
 30
4.075
 11
0.023098
 21
0.867249
 31
4.065
  0
SPLINE
  5
578
100
AcDbEntity
  8
1
390
0
  6
Continuous
 62
     3
100
AcDbSpline
210
0.0
220
0.0
230
1.0
 70
     0
 71
     3
 72
    11
 73
     7
 74
     0
 42
0.000001
 43
0.000001
 40
0.0
 40
0.0
 40
0.0
 40
0.0
 40
0.5012442454956132
 40
0.5012442454956132
 40
0.5012442454956132
 40
1.0
 40
1.0
 40
1.0
 40
1.0
 10
0.2000000000000465
 20
0.2236067977500172
 30
4.0500000000000602
 10
0.2032670647955784
 20
0.2262860847461009
 30
4.0541750658152393
 10
0.2065332658154115
 20
0.2289647588719663
 30
4.058351201061086
 10
0.2097987039883577
 20
0.2316428916811009
 30
4.0625282794589586
 10
0.2130479307443258
 20
0.2343077287775648
 30
4.0666846205603111
 10
0.2162964021589596
 20
0.2369720299016381
 30
4.0708418959527197
 10
0.2195442028100008
 20
0.2396358550228268
 30
4.0750000000000002
  0
SPLINE
  5
579
100
AcDbEntity
  8
1
390
0
  6
Continuous
 62
     3
100
AcDbSpline
210
0.0
220
0.0
230
1.0
 70
     0
 71
     2
 72
     6
 73
     3
 74
     0
 42
0.000001
 43
0.000001
 40
0.0
 40
0.0
 40
0.0
 40
1.0
 40
1.0
 40
1.0
 10
-0.0409395919778449
 20
0.8579112161082899
 30
4.0752912586913679
 10
-0.0411338294411415
 20
0.8582619845733011
 30
4.0707083048945893
 10
-0.0413757621950472
 20
0.8586988847584056
 30
4.0649999999999995
  0
SPLINE
  5
57A
100
AcDbEntity
  8
1
390
0
  6
Continuous
 62
     3
100
AcDbSpline
210
0.0
220
0.0
230
1.0
 70
     0
 71
     1
 72
     4
 73
     2
 74
     0
 42
0.000001
 43
0.000001
 40
0.0
 40
0.0
 40
1.0
 40
1.0
 10
-0.0077020698876232
 20
0.9400384983483124
 30
4.0749999999999993
 10
-0.0085099085365853
 20
0.9397026022304832
 30
4.0649999999999995
  0
SPLINE
  5
57B
100
AcDbEntity
  8
1
390
0
  6
Continuous
 62
     3
100
AcDbSpline
210
0.0
220
0.0
230
1.0
 70
     0
 71
     1
 72
     4
 73
     2
 74
     0
 42
0.000001
 43
0.000001
 40
0.0
 40
0.0
 40
1.0
 40
1.0
 10
0.009599847560975
 20
0.9261710037174727
 30
4.065000000000011
 10
0.0169778963414629
 20
0.9327137546468408
 30
4.065000000000011
  0
LINE
  5
57C
100
AcDbEntity
  8
1
390
0
  6
Continuous
 62
     3
100
AcDbLine
 10
0.018946
 20
1.080553
 30
4.075
 11
0.018946
 21
1.080553
 31
4.065
  0
SPLINE
  5
57D
100
AcDbEntity
  8
1
390
0
  6
Continuous
 62
     3
100
AcDbSpline
210
0.0
220
0.0
230
1.0
 70
     0
 71
     3
 72
     8
 73
     4
 74
     0
 42
0.000001
 43
0.000001
 40
0.0
 40
0.0
 40
0.0
 40
0.0
 40
1.0
 40
1.0
 40
1.0
 40
1.0
 10
0.036717477545983
 20
1.0311296106440062
 30
4.0749999999999993
 10
0.0334417178512209
 20
1.0274853279835834
 30
4.0749999999999993
 10
0.0280367143548635
 20
1.0249056672239583
 30
4.0749999999999993
 10
0.0205434140530952
 20
1.0233906283651308
 30
4.0749999999999993
  0
LINE
  5
57E
100
AcDbEntity
  8
1
390
0
  6
Continuous
 62
     3
100
AcDbLine
 10
-0.016596
 20
1.071544
 30
4.075
 11
-0.016596
 21
1.071544
 31
4.065
  0
ENDBLK
  5
57F
100
AcDbEntity
  8
0
390
0
100
AcDbBlockEnd
  0
ENDSEC
  0
SECTION
  2
ENTITIES
  0
VIEWPORT
  5
45
100
AcDbEntity
 67
     1
  8
0
390
0
100
AcDbViewport
 10
5.5
 20
4.25
 30
0.0
 40
11.0
 41
8.5
 68
     1
 69
     1
 12
5.5
 22
4.25
 13
0.0
 23
0.0
 14
0.0
 24
0.0
 15
0.0
 25
0.0
 16
0.0
 26
0.0
 36
1.0
 17
0.0
 27
0.0
 37
0.0
 42
49.350513
 43
0.0
 44
0.0
 45
8.5
 50
0.0
 51
0.0
 72
   100
341
2C
 90
    32800
340
0
  1

281
     0
 71
     0
 74
     1
110
0.0
120
0.0
130
0.0
111
1.0
121
0.0
131
0.0
112
0.0
122
1.0
132
0.0
345
0
346
0
 79
     0
146
0.0
  0
POINT
  5
46
102
{ACAD_REACTORS
330
2AE
102
}
100
AcDbEntity
 67
     1
  8
1
390
0
  6
Continuous
 62
     3
100
AcDbPoint
 10
-0.008345
 20
8.49386
 30
0.0
  0
POINT
  5
47
102
{ACAD_REACTORS
330
2AE
102
}
100
AcDbEntity
 67
     1
  8
1
390
0
  6
Continuous
 62
     3
100
AcDbPoint
 10
11.06
 20
8.49386
 30
0.0
  0
POINT
  5
48
102
{ACAD_REACTORS
330
2AE
102
}
100
AcDbEntity
 67
     1
  8
1
390
0
  6
Continuous
 62
     3
100
AcDbPoint
 10
11.06
 20
-0.03
 30
0.0
  0
POINT
  5
49
102
{ACAD_REACTORS
330
2AE
102
}
100
AcDbEntity
 67
     1
  8
1
390
0
  6
Continuous
 62
     3
100
AcDbPoint
 10
-0.008345
 20
-0.03
 30
0.0
  0
LINE
  5
4A
102
{ACAD_REACTORS
330
2AE
330
2AF
102
}
100
AcDbEntity
 67
     1
  8
1
390
0
  6
Continuous
 62
     7
100
AcDbLine
 10
0.301655
 20
0.25
 30
0.0
 11
10.75
 21
0.25
 31
0.0
  0
LINE
  5
4B
102
{ACAD_REACTORS
330
2AE
330
2AF
102
}
100
AcDbEntity
 67
     1
  8
1
390
0
  6
Continuous
 62
     7
100
AcDbLine
 10
0.301655
 20
8.20386
 30
0.0
 11
10.75
 21
8.20386
 31
0.0
  0
LINE
  5
4C
102
{ACAD_REACTORS
330
2AE
330
2AF
102
}
100
AcDbEntity
 67
     1
  8
1
390
0
  6
Continuous
 62
     7
100
AcDbLine
 10
0.301655
 20
8.20386
 30
0.0
 11
0.301655
 21
0.25
 31
0.0
  0
LINE
  5
4D
102
{ACAD_REACTORS
330
2AE
330
2AF
102
}
100
AcDbEntity
 67
     1
  8
1
390
0
  6
Continuous
 62
     7
100
AcDbLine
 10
7.357996
 20
0.25
 30
0.0
 11
7.357996
 21
1.037558
 31
0.0
  0
LINE
  5
4E
102
{ACAD_REACTORS
330
2AE
330
2AF
102
}
100
AcDbEntity
 67
     1
  8
1
390
0
  6
Continuous
 62
     7
100
AcDbLine
 10
6.585438
 20
3.035295
 30
0.0
 11
6.585438
 21
0.25
 31
0.0
  0
LINE
  5
4F
102
{ACAD_REACTORS
330
2AE
330
2AF
102
}
100
AcDbEntity
 67
     1
  8
1
390
0
  6
Continuous
 62
     7
100
AcDbLine
 10
6.191659
 20
0.25
 30
0.0
 11
6.191659
 21
2.573295
 31
0.0
  0
LINE
  5
50
102
{ACAD_REACTORS
330
2AE
330
2AF
102
}
100
AcDbEntity
 67
     1
  8
1
390
0
  6
Continuous
 62
     7
100
AcDbLine
 10
5.827307
 20
0.25
 30
0.0
 11
5.827307
 21
2.573295
 31
0.0
  0
LINE
  5
51
102
{ACAD_REACTORS
330
2AE
330
2AF
102
}
100
AcDbEntity
 67
     1
  8
1
390
0
  6
Continuous
 62
     7
100
AcDbLine
 10
5.450266
 20
0.25
 30
0.0
 11
5.450266
 21
2.573295
 31
0.0
  0
LINE
  5
52
102
{ACAD_REACTORS
330
2AE
330
2AF
102
}
100
AcDbEntity
 67
     1
  8
1
390
0
  6
Continuous
 62
     7
100
AcDbLine
 10
5.125768
 20
0.511645
 30
0.0
 11
5.125768
 21
2.573295
 31
0.0
  0
LINE
  5
53
102
{ACAD_REACTORS
330
2AE
330
2AF
102
}
100
AcDbEntity
 67
     1
  8
1
390
0
  6
Continuous
 62
     7
100
AcDbLine
 10
0.301655
 20
0.511645
 30
0.0
 11
7.357996
 21
0.511645
 31
0.0
  0
LINE
  5
54
102
{ACAD_REACTORS
330
2AE
330
2AF
102
}
100
AcDbEntity
 67
     1
  8
1
390
0
  6
Continuous
 62
     7
100
AcDbLine
 10
0.301655
 20
0.784601
 30
0.0
 11
7.357996
 21
0.784601
 31
0.0
  0
LINE
  5
55
102
{ACAD_REACTORS
330
2AE
330
2AF
102
}
100
AcDbEntity
 67
     1
  8
1
390
0
  6
Continuous
 62
     7
100
AcDbLine
 10
0.301655
 20
1.037558
 30
0.0
 11
10.75
 21
1.037558
 31
0.0
  0
LINE
  5
56
102
{ACAD_REACTORS
330
2AE
330
2AF
102
}
100
AcDbEntity
 67
     1
  8
1
390
0
  6
Continuous
 62
     7
100
AcDbLine
 10
6.585438
 20
1.291514
 30
0.0
 11
0.301655
 21
1.291514
 31
0.0
  0
LINE
  5
57
102
{ACAD_REACTORS
330
2AE
330
2AF
102
}
100
AcDbEntity
 67
     1
  8
1
390
0
  6
Continuous
 62
     7
100
AcDbLine
 10
10.75
 20
1.54347
 30
0.0
 11
6.585438
 21
1.54347
 31
0.0
  0
LINE
  5
58
102
{ACAD_REACTORS
330
2AE
330
2AF
102
}
100
AcDbEntity
 67
     1
  8
1
390
0
  6
Continuous
 62
     7
100
AcDbLine
 10
6.585438
 20
2.057382
 30
0.0
 11
10.75
 21
2.057382
 31
0.0
  0
LINE
  5
59
102
{ACAD_REACTORS
330
2AE
330
2AF
102
}
100
AcDbEntity
 67
     1
  8
1
390
0
  6
Continuous
 62
     7
100
AcDbLine
 10
9.156445
 20
0.784601
 30
0.0
 11
10.75
 21
0.784601
 31
0.0
  0
LINE
  5
5A
102
{ACAD_REACTORS
330
2AE
330
2AF
102
}
100
AcDbEntity
 67
     1
  8
1
390
0
  6
Continuous
 62
     7
100
AcDbLine
 10
10.347525
 20
0.784601
 30
0.0
 11
10.347525
 21
0.25
 31
0.0
  0
LINE
  5
5B
102
{ACAD_REACTORS
330
2AE
330
2AF
102
}
100
AcDbEntity
 67
     1
  8
1
390
0
  6
Continuous
 62
     7
100
AcDbLine
 10
10.75
 20
8.20386
 30
0.0
 11
10.75
 21
0.25
 31
0.0
  0
LINE
  5
5C
102
{ACAD_REACTORS
330
2AE
330
2AF
102
}
100
AcDbEntity
 67
     1
  8
1
390
0
  6
Continuous
 62
     7
100
AcDbLine
 10
0.646582
 20
0.25
 30
0.0
 11
0.646582
 21
2.573295
 31
0.0
  0
LINE
  5
5D
102
{ACAD_REACTORS
330
2AE
330
2AF
102
}
100
AcDbEntity
 67
     1
  8
1
390
0
  6
Continuous
 62
     7
100
AcDbLine
 10
1.12633
 20
0.25
 30
0.0
 11
1.12633
 21
2.573295
 31
0.0
  0
LINE
  5
5E
102
{ACAD_REACTORS
330
2AE
330
2AF
102
}
100
AcDbEntity
 67
     1
  8
1
390
0
  6
Continuous
 62
     7
100
AcDbLine
 10
1.430401
 20
0.25
 30
0.0
 11
1.430401
 21
2.573295
 31
0.0
  0
LINE
  5
5F
102
{ACAD_REACTORS
330
2AE
330
2AF
102
}
100
AcDbEntity
 67
     1
  8
1
390
0
  6
Continuous
 62
     7
100
AcDbLine
 10
1.734425
 20
0.25
 30
0.0
 11
1.734425
 21
2.573295
 31
0.0
  0
LINE
  5
60
102
{ACAD_REACTORS
330
2AE
330
2AF
102
}
100
AcDbEntity
 67
     1
  8
1
390
0
  6
Continuous
 62
     7
100
AcDbLine
 10
4.511886
 20
0.25
 30
0.0
 11
4.511886
 21
2.573295
 31
0.0
  0
LINE
  5
61
102
{ACAD_REACTORS
330
2AE
330
2AF
102
}
100
AcDbEntity
 67
     1
  8
1
390
0
  6
Continuous
 62
     7
100
AcDbLine
 10
9.156445
 20
1.51347
 30
0.0
 11
9.156445
 21
0.25
 31
0.0
  0
LINE
  5
62
102
{ACAD_REACTORS
330
2AE
330
2AF
102
}
100
AcDbEntity
 67
     1
  8
1
390
0
  6
Continuous
 62
     7
100
AcDbLine
 10
0.301655
 20
1.54347
 30
0.0
 11
6.585438
 21
1.54347
 31
0.0
  0
LINE
  5
63
102
{ACAD_REACTORS
330
2AE
330
2AF
102
}
100
AcDbEntity
 67
     1
  8
1
390
0
  6
Continuous
 62
     7
100
AcDbLine
 10
6.585438
 20
1.799426
 30
0.0
 11
0.301655
 21
1.799426
 31
0.0
  0
LINE
  5
64
102
{ACAD_REACTORS
330
2AE
330
2AF
102
}
100
AcDbEntity
 67
     1
  8
1
390
0
  6
Continuous
 62
     7
100
AcDbLine
 10
6.585438
 20
2.057382
 30
0.0
 11
0.301655
 21
2.057382
 31
0.0
  0
LINE
  5
65
102
{ACAD_REACTORS
330
2AE
330
2AF
102
}
100
AcDbEntity
 67
     1
  8
1
390
0
  6
Continuous
 62
     7
100
AcDbLine
 10
6.585438
 20
2.310339
 30
0.0
 11
0.301655
 21
2.310339
 31
0.0
  0
LINE
  5
66
102
{ACAD_REACTORS
330
2AE
330
2AF
102
}
100
AcDbEntity
 67
     1
  8
1
390
0
  6
Continuous
 62
     7
100
AcDbLine
 10
10.75
 20
2.573295
 30
0.0
 11
0.301655
 21
2.573295
 31
0.0
  0
LINE
  5
67
102
{ACAD_REACTORS
330
2AE
330
2AF
102
}
100
AcDbEntity
 67
     1
  8
1
390
0
  6
Continuous
 62
     7
100
AcDbLine
 10
10.75
 20
2.804295
 30
0.0
 11
6.585438
 21
2.804295
 31
0.0
  0
LINE
  5
68
102
{ACAD_REACTORS
330
2AE
102
}
100
AcDbEntity
 67
     1
  8
1
390
0
  6
Continuous
 62
     3
100
AcDbLine
 10
5.650828
 20
8.28886
 30
0.0
 11
5.557078
 21
8.28886
 31
0.0
  0
LINE
  5
69
102
{ACAD_REACTORS
330
2AE
102
}
100
AcDbEntity
 67
     1
  8
1
390
0
  6
Continuous
 62
     3
100
AcDbLine
 10
5.557078
 20
8.20386
 30
0.0
 11
5.557078
 21
8.28886
 31
0.0
  0
LINE
  5
6A
102
{ACAD_REACTORS
330
2AE
102
}
100
AcDbEntity
 67
     1
  8
1
390
0
  6
Continuous
 62
     3
100
AcDbLine
 10
5.494578
 20
8.20386
 30
0.0
 11
5.494578
 21
8.28886
 31
0.0
  0
LINE
  5
6B
102
{ACAD_REACTORS
330
2AE
102
}
100
AcDbEntity
 67
     1
  8
1
390
0
  6
Continuous
 62
     3
100
AcDbLine
 10
5.494578
 20
8.20386
 30
0.0
 11
5.557078
 21
8.20386
 31
0.0
  0
LINE
  5
6C
102
{ACAD_REACTORS
330
2AE
102
}
100
AcDbEntity
 67
     1
  8
1
390
0
  6
Continuous
 62
     3
100
AcDbLine
 10
5.525828
 20
8.44511
 30
0.0
 11
5.650828
 21
8.28886
 31
0.0
  0
LINE
  5
6D
102
{ACAD_REACTORS
330
2AE
102
}
100
AcDbEntity
 67
     1
  8
1
390
0
  6
Continuous
 62
     3
100
AcDbLine
 10
5.525828
 20
8.44511
 30
0.0
 11
5.400828
 21
8.28886
 31
0.0
  0
LINE
  5
6E
102
{ACAD_REACTORS
330
2AE
102
}
100
AcDbEntity
 67
     1
  8
1
390
0
  6
Continuous
 62
     3
100
AcDbLine
 10
5.494578
 20
8.28886
 30
0.0
 11
5.400828
 21
8.28886
 31
0.0
  0
LINE
  5
6F
102
{ACAD_REACTORS
330
2AE
102
}
100
AcDbEntity
 67
     1
  8
1
390
0
  6
Continuous
 62
     3
100
AcDbLine
 10
0.301655
 20
4.25818
 30
0.0
 11
0.216655
 21
4.25818
 31
0.0
  0
LINE
  5
70
102
{ACAD_REACTORS
330
2AE
102
}
100
AcDbEntity
 67
     1
  8
1
390
0
  6
Continuous
 62
     3
100
AcDbLine
 10
0.301655
 20
4.19568
 30
0.0
 11
0.216655
 21
4.19568
 31
0.0
  0
LINE
  5
71
102
{ACAD_REACTORS
330
2AE
102
}
100
AcDbEntity
 67
     1
  8
1
390
0
  6
Continuous
 62
     3
100
AcDbLine
 10
0.301655
 20
4.19568
 30
0.0
 11
0.301655
 21
4.25818
 31
0.0
  0
LINE
  5
72
102
{ACAD_REACTORS
330
2AE
102
}
100
AcDbEntity
 67
     1
  8
1
390
0
  6
Continuous
 62
     3
100
AcDbLine
 10
0.060405
 20
4.22693
 30
0.0
 11
0.216655
 21
4.35193
 31
0.0
  0
LINE
  5
73
102
{ACAD_REACTORS
330
2AE
102
}
100
AcDbEntity
 67
     1
  8
1
390
0
  6
Continuous
 62
     3
100
AcDbLine
 10
0.216655
 20
4.35193
 30
0.0
 11
0.216655
 21
4.25818
 31
0.0
  0
LINE
  5
74
102
{ACAD_REACTORS
330
2AE
102
}
100
AcDbEntity
 67
     1
  8
1
390
0
  6
Continuous
 62
     3
100
AcDbLine
 10
0.060405
 20
4.22693
 30
0.0
 11
0.216655
 21
4.10193
 31
0.0
  0
LINE
  5
75
102
{ACAD_REACTORS
330
2AE
102
}
100
AcDbEntity
 67
     1
  8
1
390
0
  6
Continuous
 62
     3
100
AcDbLine
 10
0.216655
 20
4.19568
 30
0.0
 11
0.216655
 21
4.10193
 31
0.0
  0
LINE
  5
76
102
{ACAD_REACTORS
330
2AE
102
}
100
AcDbEntity
 67
     1
  8
1
390
0
  6
Continuous
 62
     3
100
AcDbLine
 10
5.494578
 20
0.25
 30
0.0
 11
5.494578
 21
0.165
 31
0.0
  0
LINE
  5
77
102
{ACAD_REACTORS
330
2AE
102
}
100
AcDbEntity
 67
     1
  8
1
390
0
  6
Continuous
 62
     3
100
AcDbLine
 10
5.557078
 20
0.25
 30
0.0
 11
5.557078
 21
0.165
 31
0.0
  0
LINE
  5
78
102
{ACAD_REACTORS
330
2AE
102
}
100
AcDbEntity
 67
     1
  8
1
390
0
  6
Continuous
 62
     3
100
AcDbLine
 10
5.557078
 20
0.25
 30
0.0
 11
5.494578
 21
0.25
 31
0.0
  0
LINE
  5
79
102
{ACAD_REACTORS
330
2AE
102
}
100
AcDbEntity
 67
     1
  8
1
390
0
  6
Continuous
 62
     3
100
AcDbLine
 10
5.525827
 20
0.00875
 30
0.0
 11
5.650828
 21
0.165
 31
0.0
  0
LINE
  5
7A
102
{ACAD_REACTORS
330
2AE
102
}
100
AcDbEntity
 67
     1
  8
1
390
0
  6
Continuous
 62
     3
100
AcDbLine
 10
5.557078
 20
0.165
 30
0.0
 11
5.650828
 21
0.165
 31
0.0
  0
LINE
  5
7B
102
{ACAD_REACTORS
330
2AE
102
}
100
AcDbEntity
 67
     1
  8
1
390
0
  6
Continuous
 62
     3
100
AcDbLine
 10
5.525827
 20
0.00875
 30
0.0
 11
5.400828
 21
0.165
 31
0.0
  0
LINE
  5
7C
102
{ACAD_REACTORS
330
2AE
102
}
100
AcDbEntity
 67
     1
  8
1
390
0
  6
Continuous
 62
     3
100
AcDbLine
 10
5.400828
 20
0.165
 30
0.0
 11
5.494578
 21
0.165
 31
0.0
  0
LINE
  5
7D
102
{ACAD_REACTORS
330
2AE
102
}
100
AcDbEntity
 67
     1
  8
1
390
0
  6
Continuous
 62
     3
100
AcDbLine
 10
10.75
 20
4.19568
 30
0.0
 11
10.835
 21
4.19568
 31
0.0
  0
LINE
  5
7E
102
{ACAD_REACTORS
330
2AE
102
}
100
AcDbEntity
 67
     1
  8
1
390
0
  6
Continuous
 62
     3
100
AcDbLine
 10
10.75
 20
4.25818
 30
0.0
 11
10.835
 21
4.25818
 31
0.0
  0
LINE
  5
7F
102
{ACAD_REACTORS
330
2AE
102
}
100
AcDbEntity
 67
     1
  8
1
390
0
  6
Continuous
 62
     3
100
AcDbLine
 10
10.75
 20
4.25818
 30
0.0
 11
10.75
 21
4.19568
 31
0.0
  0
LINE
  5
80
102
{ACAD_REACTORS
330
2AE
102
}
100
AcDbEntity
 67
     1
  8
1
390
0
  6
Continuous
 62
     3
100
AcDbLine
 10
10.99125
 20
4.22693
 30
0.0
 11
10.835
 21
4.35193
 31
0.0
  0
LINE
  5
81
102
{ACAD_REACTORS
330
2AE
102
}
100
AcDbEntity
 67
     1
  8
1
390
0
  6
Continuous
 62
     3
100
AcDbLine
 10
10.835
 20
4.25818
 30
0.0
 11
10.835
 21
4.35193
 31
0.0
  0
LINE
  5
82
102
{ACAD_REACTORS
330
2AE
102
}
100
AcDbEntity
 67
     1
  8
1
390
0
  6
Continuous
 62
     3
100
AcDbLine
 10
10.99125
 20
4.22693
 30
0.0
 11
10.835
 21
4.10193
 31
0.0
  0
LINE
  5
83
102
{ACAD_REACTORS
330
2AE
102
}
100
AcDbEntity
 67
     1
  8
1
390
0
  6
Continuous
 62
     3
100
AcDbLine
 10
10.835
 20
4.10193
 30
0.0
 11
10.835
 21
4.19568
 31
0.0
  0
LINE
  5
84
102
{ACAD_REACTORS
330
2AE
102
}
100
AcDbEntity
 67
     1
  8
1
390
0
  6
Continuous
 62
     7
100
AcDbLine
 10
10.75
 20
3.035295
 30
0.0
 11
6.585438
 21
3.035295
 31
0.0
  0
LINE
  5
85
102
{ACAD_REACTORS
330
2AE
330
2B1
102
}
100
AcDbEntity
 67
     1
  8
1
390
0
  6
Continuous
 62
     7
100
AcDbLine
 10
7.553318
 20
1.107409
 30
0.0
 11
7.553318
 21
1.414636
 31
0.0
  0
LINE
  5
86
102
{ACAD_REACTORS
330
2AE
330
2B1
102
}
100
AcDbEntity
 67
     1
  8
1
390
0
  6
Continuous
 62
     7
100
AcDbLine
 10
8.708318
 20
1.107409
 30
0.0
 11
8.708318
 21
1.414636
 31
0.0
  0
LINE
  5
87
102
{ACAD_REACTORS
330
2AE
330
2B1
102
}
100
AcDbEntity
 67
     1
  8
1
390
0
  6
Continuous
 62
     7
100
AcDbLine
 10
7.612021
 20
1.392617
 30
0.0
 11
7.586104
 21
1.392617
 31
0.0
  0
LINE
  5
88
102
{ACAD_REACTORS
330
2AE
330
2B1
102
}
100
AcDbEntity
 67
     1
  8
1
390
0
  6
Continuous
 62
     7
100
AcDbLine
 10
7.586104
 20
1.392617
 30
0.0
 11
7.586104
 21
1.319427
 31
0.0
  0
LINE
  5
89
102
{ACAD_REACTORS
330
2AE
330
2B1
102
}
100
AcDbEntity
 67
     1
  8
1
390
0
  6
Continuous
 62
     7
100
AcDbLine
 10
7.586104
 20
1.319427
 30
0.0
 11
7.612021
 21
1.319427
 31
0.0
  0
LINE
  5
8A
102
{ACAD_REACTORS
330
2AE
330
2B1
102
}
100
AcDbEntity
 67
     1
  8
1
390
0
  6
Continuous
 62
     7
100
AcDbLine
 10
8.676159
 20
1.391188
 30
0.0
 11
8.650242
 21
1.391188
 31
0.0
  0
LINE
  5
8B
102
{ACAD_REACTORS
330
2AE
330
2B1
102
}
100
AcDbEntity
 67
     1
  8
1
390
0
  6
Continuous
 62
     7
100
AcDbLine
 10
8.676159
 20
1.317997
 30
0.0
 11
8.676159
 21
1.391188
 31
0.0
  0
LINE
  5
8C
102
{ACAD_REACTORS
330
2AE
330
2B1
102
}
100
AcDbEntity
 67
     1
  8
1
390
0
  6
Continuous
 62
     7
100
AcDbLine
 10
8.650242
 20
1.317997
 30
0.0
 11
8.676159
 21
1.317997
 31
0.0
  0
LINE
  5
8D
100
AcDbEntity
 67
     1
  8
1
390
0
  6
Continuous
 62
     3
100
AcDbLine
 10
6.348566
 20
7.598628
 30
0.0
 11
10.048566
 21
7.598628
 31
0.0
  0
LINE
  5
8E
100
AcDbEntity
 67
     1
  8
1
390
0
  6
Continuous
 62
     3
100
AcDbLine
 10
6.348566
 20
7.198628
 30
0.0
 11
10.048566
 21
7.198628
 31
0.0
  0
LINE
  5
8F
100
AcDbEntity
 67
     1
  8
1
390
0
  6
Continuous
 62
     3
100
AcDbLine
 10
6.348566
 20
6.798628
 30
0.0
 11
10.048566
 21
6.798628
 31
0.0
  0
LINE
  5
90
100
AcDbEntity
 67
     1
  8
1
390
0
  6
Continuous
 62
     3
100
AcDbLine
 10
6.348566
 20
6.398628
 30
0.0
 11
10.048566
 21
6.398628
 31
0.0
  0
LINE
  5
91
100
AcDbEntity
 67
     1
  8
1
390
0
  6
Continuous
 62
     3
100
AcDbLine
 10
6.348566
 20
7.598628
 30
0.0
 11
6.348566
 21
6.398628
 31
0.0
  0
LINE
  5
92
100
AcDbEntity
 67
     1
  8
1
390
0
  6
Continuous
 62
     3
100
AcDbLine
 10
8.348566
 20
7.598628
 30
0.0
 11
8.348566
 21
6.398628
 31
0.0
  0
LINE
  5
93
100
AcDbEntity
 67
     1
  8
1
390
0
  6
Continuous
 62
     3
100
AcDbLine
 10
10.048566
 20
7.598628
 30
0.0
 11
10.048566
 21
6.398628
 31
0.0
  0
INSERT
  5
99
102
{ACAD_REACTORS
330
2AE
330
2AF
102
}
100
AcDbEntity
 67
     1
  8
1
390
0
  6
Continuous
 62
     7
100
AcDbBlockReference
  2
ASSORTED_DRAFT61
 10
0.0
 20
0.0
 30
0.0
  0
INSERT
  5
9E
102
{ACAD_REACTORS
330
2AE
330
2AF
102
}
100
AcDbEntity
 67
     1
  8
1
390
0
  6
Continuous
 62
     7
100
AcDbBlockReference
  2
ASSORTED_DRAFT62
 10
0.0
 20
0.0
 30
0.0
  0
INSERT
  5
A3
102
{ACAD_REACTORS
330
2AE
330
2AF
102
}
100
AcDbEntity
 67
     1
  8
1
390
0
  6
Continuous
 62
     7
100
AcDbBlockReference
  2
ASSORTED_DRAFT63
 10
0.0
 20
0.0
 30
0.0
  0
INSERT
  5
A8
102
{ACAD_REACTORS
330
2AE
330
2AF
102
}
100
AcDbEntity
 67
     1
  8
1
390
0
  6
Continuous
 62
     7
100
AcDbBlockReference
  2
ASSORTED_DRAFT64
 10
0.0
 20
0.0
 30
0.0
  0
INSERT
  5
AD
102
{ACAD_REACTORS
330
2AE
330
2AF
102
}
100
AcDbEntity
 67
     1
  8
1
390
0
  6
Continuous
 62
     7
100
AcDbBlockReference
  2
ASSORTED_DRAFT65
 10
0.0
 20
0.0
 30
0.0
  0
INSERT
  5
B2
102
{ACAD_REACTORS
330
2AE
330
2AF
102
}
100
AcDbEntity
 67
     1
  8
1
390
0
  6
Continuous
 62
     7
100
AcDbBlockReference
  2
ASSORTED_DRAFT66
 10
0.0
 20
0.0
 30
0.0
  0
INSERT
  5
B7
102
{ACAD_REACTORS
330
2AE
330
2AF
102
}
100
AcDbEntity
 67
     1
  8
1
390
0
  6
Continuous
 62
     7
100
AcDbBlockReference
  2
ASSORTED_DRAFT67
 10
0.0
 20
0.0
 30
0.0
  0
INSERT
  5
BC
102
{ACAD_REACTORS
330
2AE
330
2AF
102
}
100
AcDbEntity
 67
     1
  8
1
390
0
  6
Continuous
 62
     7
100
AcDbBlockReference
  2
ASSORTED_DRAFT68
 10
0.0
 20
0.0
 30
0.0
  0
INSERT
  5
C1
102
{ACAD_REACTORS
330
2AE
330
2AF
102
}
100
AcDbEntity
 67
     1
  8
1
390
0
  6
Continuous
 62
     7
100
AcDbBlockReference
  2
ASSORTED_DRAFT69
 10
0.0
 20
0.0
 30
0.0
  0
INSERT
  5
C6
102
{ACAD_REACTORS
330
2AE
330
2AF
102
}
100
AcDbEntity
 67
     1
  8
1
390
0
  6
Continuous
 62
     7
100
AcDbBlockReference
  2
ASSORTED_DRAFT70
 10
0.0
 20
0.0
 30
0.0
  0
INSERT
  5
CB
102
{ACAD_REACTORS
330
2AE
330
2AF
102
}
100
AcDbEntity
 67
     1
  8
1
390
0
  6
Continuous
 62
     7
100
AcDbBlockReference
  2
ASSORTED_DRAFT71
 10
0.0
 20
0.0
 30
0.0
  0
INSERT
  5
D0
102
{ACAD_REACTORS
330
2AE
330
2AF
102
}
100
AcDbEntity
 67
     1
  8
1
390
0
  6
Continuous
 62
     7
100
AcDbBlockReference
  2
ASSORTED_DRAFT72
 10
0.0
 20
0.0
 30
0.0
  0
INSERT
  5
D5
102
{ACAD_REACTORS
330
2AE
330
2AF
102
}
100
AcDbEntity
 67
     1
  8
1
390
0
  6
Continuous
 62
     7
100
AcDbBlockReference
  2
ASSORTED_DRAFT73
 10
0.0
 20
0.0
 30
0.0
  0
INSERT
  5
DA
102
{ACAD_REACTORS
330
2AE
330
2AF
102
}
100
AcDbEntity
 67
     1
  8
1
390
0
  6
Continuous
 62
     7
100
AcDbBlockReference
  2
ASSORTED_DRAFT74
 10
0.0
 20
0.0
 30
0.0
  0
INSERT
  5
DF
102
{ACAD_REACTORS
330
2AE
330
2AF
102
}
100
AcDbEntity
 67
     1
  8
1
390
0
  6
Continuous
 62
     7
100
AcDbBlockReference
  2
ASSORTED_DRAFT75
 10
0.0
 20
0.0
 30
0.0
  0
INSERT
  5
E4
102
{ACAD_REACTORS
330
2AE
330
2AF
102
}
100
AcDbEntity
 67
     1
  8
1
390
0
  6
Continuous
 62
     7
100
AcDbBlockReference
  2
ASSORTED_DRAFT76
 10
0.0
 20
0.0
 30
0.0
  0
INSERT
  5
E9
102
{ACAD_REACTORS
330
2AE
330
2AF
102
}
100
AcDbEntity
 67
     1
  8
1
390
0
  6
Continuous
 62
     7
100
AcDbBlockReference
  2
ASSORTED_DRAFT77
 10
0.0
 20
0.0
 30
0.0
  0
INSERT
  5
EE
102
{ACAD_REACTORS
330
2AE
330
2AF
102
}
100
AcDbEntity
 67
     1
  8
1
390
0
  6
Continuous
 62
     7
100
AcDbBlockReference
  2
ASSORTED_DRAFT78
 10
0.0
 20
0.0
 30
0.0
  0
INSERT
  5
F3
102
{ACAD_REACTORS
330
2AE
330
2AF
102
}
100
AcDbEntity
 67
     1
  8
1
390
0
  6
Continuous
 62
     7
100
AcDbBlockReference
  2
ASSORTED_DRAFT79
 10
0.0
 20
0.0
 30
0.0
  0
INSERT
  5
F8
102
{ACAD_REACTORS
330
2AE
330
2AF
102
}
100
AcDbEntity
 67
     1
  8
1
390
0
  6
Continuous
 62
     7
100
AcDbBlockReference
  2
ASSORTED_DRAFT80
 10
0.0
 20
0.0
 30
0.0
  0
INSERT
  5
FD
102
{ACAD_REACTORS
330
2AE
330
2AF
102
}
100
AcDbEntity
 67
     1
  8
1
390
0
  6
Continuous
 62
     7
100
AcDbBlockReference
  2
ASSORTED_DRAFT81
 10
0.0
 20
0.0
 30
0.0
  0
INSERT
  5
102
102
{ACAD_REACTORS
330
2AE
330
2AF
102
}
100
AcDbEntity
 67
     1
  8
1
390
0
  6
Continuous
 62
     7
100
AcDbBlockReference
  2
ASSORTED_DRAFT82
 10
0.0
 20
0.0
 30
0.0
  0
INSERT
  5
107
102
{ACAD_REACTORS
330
2AE
330
2AF
102
}
100
AcDbEntity
 67
     1
  8
1
390
0
  6
Continuous
 62
     7
100
AcDbBlockReference
  2
ASSORTED_DRAFT83
 10
0.0
 20
0.0
 30
0.0
  0
INSERT
  5
10C
102
{ACAD_REACTORS
330
2AE
330
2AF
102
}
100
AcDbEntity
 67
     1
  8
1
390
0
  6
Continuous
 62
     7
100
AcDbBlockReference
  2
ASSORTED_DRAFT84
 10
0.0
 20
0.0
 30
0.0
  0
INSERT
  5
111
102
{ACAD_REACTORS
330
2AE
330
2AF
102
}
100
AcDbEntity
 67
     1
  8
1
390
0
  6
Continuous
 62
     7
100
AcDbBlockReference
  2
ASSORTED_DRAFT85
 10
0.0
 20
0.0
 30
0.0
  0
INSERT
  5
116
102
{ACAD_REACTORS
330
2AE
330
2AF
102
}
100
AcDbEntity
 67
     1
  8
1
390
0
  6
Continuous
 62
     7
100
AcDbBlockReference
  2
ASSORTED_DRAFT86
 10
0.0
 20
0.0
 30
0.0
  0
INSERT
  5
11B
102
{ACAD_REACTORS
330
2AE
330
2AF
102
}
100
AcDbEntity
 67
     1
  8
1
390
0
  6
Continuous
 62
     7
100
AcDbBlockReference
  2
ASSORTED_DRAFT87
 10
0.0
 20
0.0
 30
0.0
  0
MTEXT
  5
11C
102
{ACAD_REACTORS
330
2AE
330
2AF
102
}
100
AcDbEntity
 67
     1
  8
1
390
0
  6
Continuous
 62
     7
100
AcDbMText
 10
6.622451
 20
2.722241
 30
0.0
 40
0.037378
 41
0.0
 71
     7
 72
     5
  1
\W01.000;\Fsimplex.shx;CAD FILENAME/LAYERS
  7
blockfont
210
0.0
220
0.0
230
1.0
 73
     2
 44
0.903614
  0
MTEXT
  5
11D
102
{ACAD_REACTORS
330
2AE
330
2AF
102
}
100
AcDbEntity
 67
     1
  8
1
390
0
  6
Continuous
 62
     3
100
AcDbMText
 10
0.48
 20
0.577396
 30
0.0
 40
0.07
 41
0.0
 71
     8
 72
     5
  1
\W01.000;\Fsimplex.shx;00
  7
blockfont
210
0.0
220
0.0
230
1.0
 73
     2
 44
0.903614
  0
MTEXT
  5
11E
102
{ACAD_REACTORS
330
2AE
330
2AF
102
}
100
AcDbEntity
 67
     1
  8
1
390
0
  6
Continuous
 62
     3
100
AcDbMText
 10
0.89
 20
0.58974
 30
0.0
 40
0.055
 41
0.0
 71
     8
 72
     5
  1
\W01.000;\Fsimplex.shx;12-14-06
  7
blockfont
210
0.0
220
0.0
230
1.0
 73
     2
 44
0.903614
  0
MTEXT
  5
11F
102
{ACAD_REACTORS
330
2AE
330
2AF
102
}
100
AcDbEntity
 67
     1
  8
1
390
0
  6
Continuous
 62
     3
100
AcDbMText
 10
1.27
 20
0.58151
 30
0.0
 40
0.065
 41
0.0
 71
     8
 72
     5
  1
\W01.000;\Fsimplex.shx;MAV
  7
blockfont
210
0.0
220
0.0
230
1.0
 73
     2
 44
0.903614
  0
MTEXT
  5
120
102
{ACAD_REACTORS
330
2AE
330
2AF
102
}
100
AcDbEntity
 67
     1
  8
1
390
0
  6
Continuous
 62
     3
100
AcDbMText
 10
2.72935
 20
0.57575
 30
0.0
 40
0.072
 41
0.0
 71
     8
 72
     5
  1
\W01.000;\Fsimplex.shx;RELEASED TO PRODUCTION
  7
blockfont
210
0.0
220
0.0
230
1.0
 73
     2
 44
0.903614
  0
MTEXT
  5
121
102
{ACAD_REACTORS
330
2AE
330
2AF
102
}
100
AcDbEntity
 67
     1
  8
1
390
0
  6
Continuous
 62
     3
100
AcDbMText
 10
9.05
 20
2.603469
 30
0.0
 40
0.093
 41
0.0
 71
     8
 72
     5
  1
\W01.000;\Fsimplex.shx;V10290EG_DC_00A.PRT 
  7
blockfont
210
0.0
220
0.0
230
1.0
 73
     2
 44
0.903614
  0
MTEXT
  5
122
102
{ACAD_REACTORS
330
2AE
330
2AF
102
}
100
AcDbEntity
 67
     1
  8
1
390
0
  6
Continuous
 62
     3
100
AcDbMText
 10
8.723512
 20
1.646202
 30
0.0
 40
0.11
 41
0.0
 71
     8
 72
     5
  1
\W01.000;\Fsimplex.shx;3" BEND RADIUS POST (PZBR3)\PCUSTOMER DRAWING
  7
blockfont
210
0.0
220
0.0
230
1.0
 73
     2
 44
0.903614
  0
MTEXT
  5
123
102
{ACAD_REACTORS
330
2AE
330
2AF
102
}
100
AcDbEntity
 67
     1
  8
1
390
0
  6
Continuous
 62
     3
100
AcDbMText
 10
6.95
 20
0.542396
 30
0.0
 40
0.07
 41
0.0
 71
     8
 72
     5
  1
\W01.000;\Fsimplex.shx;12-14-06
  7
blockfont
210
0.0
220
0.0
230
1.0
 73
     2
 44
0.903614
  0
MTEXT
  5
124
102
{ACAD_REACTORS
330
2AE
330
2AF
102
}
100
AcDbEntity
 67
     1
  8
1
390
0
  6
Continuous
 62
     3
100
AcDbMText
 10
9.75
 20
0.395938
 30
0.0
 40
0.09
 41
0.0
 71
     8
 72
     5
  1
\W01.000;\Fsimplex.shx;10290-67
  7
blockfont
210
0.0
220
0.0
230
1.0
 73
     2
 44
0.903614
  0
MTEXT
  5
125
102
{ACAD_REACTORS
330
2AE
330
2AF
102
}
100
AcDbEntity
 67
     1
  8
1
390
0
  6
Continuous
 62
     3
100
AcDbMText
 10
8.25
 20
0.547135
 30
0.0
 40
0.125
 41
0.0
 71
     8
 72
     5
  1
\W01.000;\Fsimplex.shx;N/A
  7
blockfont
210
0.0
220
0.0
230
1.0
 73
     2
 44
0.903614
  0
INSERT
  5
15A
102
{ACAD_REACTORS
330
2AE
102
}
100
AcDbEntity
 67
     1
  8
1
390
0
  6
Continuous
 62
     3
100
AcDbBlockReference
  2
ASSORTED_DRAFT88
 10
0.0
 20
0.0
 30
0.0
  0
INSERT
  5
1A1
102
{ACAD_REACTORS
330
2AE
102
}
100
AcDbEntity
 67
     1
  8
1
390
0
  6
Continuous
 62
     3
100
AcDbBlockReference
  2
ASSORTED_DRAFT89
 10
0.0
 20
0.0
 30
0.0
  0
INSERT
  5
1D5
102
{ACAD_REACTORS
330
2AE
102
}
100
AcDbEntity
 67
     1
  8
1
390
0
  6
Continuous
 62
     3
100
AcDbBlockReference
  2
ASSORTED_DRAFT90
 10
0.0
 20
0.0
 30
0.0
  0
INSERT
  5
20A
102
{ACAD_REACTORS
330
2AE
102
}
100
AcDbEntity
 67
     1
  8
1
390
0
  6
Continuous
 62
     3
100
AcDbBlockReference
  2
ASSORTED_DRAFT91
 10
0.0
 20
0.0
 30
0.0
  0
MTEXT
  5
20B
102
{ACAD_REACTORS
330
2AE
102
}
100
AcDbEntity
 67
     1
  8
1
390
0
  6
Continuous
 62
     3
100
AcDbMText
 10
10.028298
 20
0.848781
 30
0.0
 40
0.09
 41
0.0
 71
     8
 72
     5
  1
\W01.000;\Fsimplex.shx;NONE
  7
blockfont
210
0.0
220
0.0
230
1.0
 73
     2
 44
0.903614
  0
MTEXT
  5
20C
102
{ACAD_REACTORS
330
2AE
102
}
100
AcDbEntity
 67
     1
  8
1
390
0
  6
Continuous
 62
     3
100
AcDbMText
 10
6.95
 20
0.813706
 30
0.0
 40
0.072
 41
0.0
 71
     8
 72
     5
  1
\W01.000;\Fsimplex.shx;MAV
  7
blockfont
210
0.0
220
0.0
230
1.0
 73
     2
 44
0.903614
  0
INSERT
  5
211
102
{ACAD_REACTORS
330
2AE
102
}
100
AcDbEntity
 67
     1
  8
1
390
0
  6
Continuous
 62
     7
100
AcDbBlockReference
  2
ASSORTED_DRAFT92
 10
0.0
 20
0.0
 30
0.0
  0
MTEXT
  5
212
102
{ACAD_REACTORS
330
2AE
102
}
100
AcDbEntity
 67
     1
  8
1
390
0
  6
Continuous
 62
     3
100
AcDbMText
 10
8.95
 20
2.834469
 30
0.0
 40
0.093
 41
0.0
 71
     8
 72
     5
  1
\W01.000;\Fsimplex.shx;V10290EG_SMGMTPOST_02.PRT
  7
blockfont
210
0.0
220
0.0
230
1.0
 73
     2
 44
0.903614
  0
MTEXT
  5
213
102
{ACAD_REACTORS
330
2AE
102
}
100
AcDbEntity
 67
     1
  8
1
390
0
  6
Continuous
 62
     7
100
AcDbMText
 10
6.898137
 20
2.953241
 30
0.0
 40
0.037378
 41
0.0
 71
     8
 72
     5
  1
\W01.000;\Fsimplex.shx;MODEL FILENAME
  7
blockfont
210
0.0
220
0.0
230
1.0
 73
     2
 44
0.903614
  0
MTEXT
  5
214
102
{ACAD_REACTORS
330
2AE
102
}
100
AcDbEntity
 67
     1
  8
1
390
0
  6
Continuous
 62
     3
100
AcDbMText
 10
4.822283
 20
0.589513
 30
0.0
 40
0.065
 41
0.0
 71
     8
 72
     5
  1
\W01.000;\Fsimplex.shx;10290-67
  7
blockfont
210
0.0
220
0.0
230
1.0
 73
     2
 44
0.903614
  0
MTEXT
  5
215
102
{ACAD_REACTORS
330
2AE
330
2B1
102
}
100
AcDbEntity
 67
     1
  8
1
390
0
  6
Continuous
 62
     7
100
AcDbMText
 10
6.674778
 20
1.436748
 30
0.0
 40
0.04
 41
0.0
 71
     7
 72
     5
  1
\W01.000;\Fsimplex.shx;UNLESS OTHERWISE SPECIFIED, DIMENSIONAL TOLERANCES ARE:
  7
blockfont
210
0.0
220
0.0
230
1.0
 73
     2
 44
1.204819
  0
MTEXT
  5
216
102
{ACAD_REACTORS
330
2AE
330
2B1
102
}
100
AcDbEntity
 67
     1
  8
1
390
0
  6
Continuous
 62
     7
100
AcDbMText
 10
7.625931
 20
1.088414
 30
0.0
 40
0.05
 41
0.0
 71
     7
 72
     5
  1
\W01.000;\Fsimplex.shx;METRIC - MILLIMETER\PX.     +/- 0.8\PX.X    +/- 0.4\PX.XX   +/- 0.13
  7
blockfont
210
0.0
220
0.0
230
1.0
 73
     2
 44
0.903614
  0
MTEXT
  5
217
102
{ACAD_REACTORS
330
2AE
330
2B1
102
}
100
AcDbEntity
 67
     1
  8
1
390
0
  6
Continuous
 62
     7
100
AcDbMText
 10
6.664138
 20
1.086181
 30
0.0
 40
0.05
 41
0.0
 71
     7
 72
     5
  1
\W01.000;\Fsimplex.shx;INCHES\PX.X    +/- 0.03\PX.XX   +/- 0.015\PX.XXX  +/- 0.005
  7
blockfont
210
0.0
220
0.0
230
1.0
 73
     2
 44
0.903614
  0
MTEXT
  5
218
102
{ACAD_REACTORS
330
2AE
330
2AE
330
2AE
330
2AE
330
2AE
330
2AE
330
2AE
330
2AE
330
2AE
330
2AE
330
2AE
330
2AE
330
2AE
330
2AE
330
2AE
330
2AE
330
2AE
330
2AE
330
2AE
330
2AE
330
2AE
330
2AE
330
2AE
330
2AE
330
2AE
330
2AE
330
2AE
330
2AE
330
2B1
330
2B1
330
2B1
330
2B1
330
2B1
330
2B1
330
2B1
330
2B1
330
2B1
330
2B1
330
2B1
330
2B1
330
2B1
330
2B1
330
2B1
330
2B1
102
}
100
AcDbEntity
 67
     1
  8
1
390
0
  6
Continuous
 62
     7
100
AcDbMText
 10
8.777292
 20
1.161971
 30
0.0
 40
0.05
 41
0.0
 71
     7
 72
     5
  1
\W01.000;\Fsimplex.shx;ANGLE\P\P+/-  1%%d
  7
blockfont
210
0.0
220
0.0
230
1.0
 73
     2
 44
0.903614
  0
MTEXT
  5
219
100
AcDbEntity
 67
     1
  8
1
390
0
  6
Continuous
 62
     3
100
AcDbMText
 10
6.526288
 20
5.212922
 30
0.0
 40
0.09
 41
0.0
 71
     7
 72
     5
  3
\W01.000;\Fsimplex.shx;NOTES:\P1. VISIT OUR ON-LINE CATALOG AT \P   WWW.PANDUIT.COM FOR A CURRENT LIST\P   OF PRODUCTS APPLICABLE FOR USE WITH\P   THIS PART.\P2. COMPONENTS: (2) BEND RADIUS POSTS\P               (2) #12-24 x 1.5" SCREWS \P3. DIMENSI
  1
ONS IN PARENTHESIS ARE METRIC.
  7
blockfont
210
0.0
220
0.0
230
1.0
 73
     2
 44
0.903614
  0
MTEXT
  5
21A
100
AcDbEntity
 67
     1
  8
1
390
0
  6
Continuous
 62
     3
100
AcDbMText
 10
6.602762
 20
7.31636
 30
0.0
 40
0.09
 41
0.0
 71
     7
 72
     5
  1
\W01.000;\Fsimplex.shx;PANDUIT PART NO.
  7
blockfont
210
0.0
220
0.0
230
1.0
 73
     2
 44
0.903614
  0
MTEXT
  5
21B
100
AcDbEntity
 67
     1
  8
1
390
0
  6
Continuous
 62
     3
100
AcDbMText
 10
8.987365
 20
7.31636
 30
0.0
 40
0.09
 41
0.0
 71
     7
 72
     5
  1
\W01.000;\Fsimplex.shx;WEIGHT
  7
blockfont
210
0.0
220
0.0
230
1.0
 73
     2
 44
0.903614
  0
MTEXT
  5
21C
100
AcDbEntity
 67
     1
  8
1
390
0
  6
Continuous
 62
     3
100
AcDbMText
 10
7.130762
 20
6.911518
 30
0.0
 40
0.09
 41
0.0
 71
     7
 72
     5
  1
\W01.000;\Fsimplex.shx;PZBR3
  7
blockfont
210
0.0
220
0.0
230
1.0
 73
     2
 44
0.903614
  0
MTEXT
  5
21D
100
AcDbEntity
 67
     1
  8
1
390
0
  6
Continuous
 62
     3
100
AcDbMText
 10
8.659148
 20
6.867151
 30
0.0
 40
0.09
 41
0.0
 71
     7
 72
     5
  1
\W01.000;\Fsimplex.shx;0.2 LBS/EACH\P0.09 Kg/EACH
  7
blockfont
210
0.0
220
0.0
230
1.0
 73
     2
 44
0.903614
  0
MTEXT
  5
21E
100
AcDbEntity
 67
     1
  8
1
390
0
  6
Continuous
 62
     3
100
AcDbMText
 10
7.0327
 20
6.511518
 30
0.0
 40
0.09
 41
0.0
 71
     7
 72
     5
  1
\W01.000;\Fsimplex.shx;PZBR3-X
  7
blockfont
210
0.0
220
0.0
230
1.0
 73
     2
 44
0.903614
  0
MTEXT
  5
21F
100
AcDbEntity
 67
     1
  8
1
390
0
  6
Continuous
 62
     3
100
AcDbMText
 10
8.659148
 20
6.534651
 30
0.0
 40
0.09
 41
0.0
 71
     7
 72
     5
  1
\W01.000;\Fsimplex.shx;(10) PZBR3's
  7
blockfont
210
0.0
220
0.0
230
1.0
 73
     2
 44
0.903614
  0
INSERT
  5
224
100
AcDbEntity
 67
     1
  8
1
390
0
  6
Continuous
 62
     7
100
AcDbBlockReference
  2
ASSORTED_DRAFT93
 10
0.0
 20
0.0
 30
0.0
  0
INSERT
  5
229
100
AcDbEntity
 67
     1
  8
1
390
0
  6
Continuous
 62
     7
100
AcDbBlockReference
  2
ASSORTED_DRAFT94
 10
0.0
 20
0.0
 30
0.0
  0
INSERT
  5
22E
100
AcDbEntity
 67
     1
  8
1
390
0
  6
Continuous
 62
     7
100
AcDbBlockReference
  2
ASSORTED_DRAFT95
 10
0.0
 20
0.0
 30
0.0
  0
INSERT
  5
233
100
AcDbEntity
 67
     1
  8
1
390
0
  6
Continuous
 62
     7
100
AcDbBlockReference
  2
ASSORTED_DRAFT96
 10
0.0
 20
0.0
 30
0.0
  0
INSERT
  5
238
100
AcDbEntity
 67
     1
  8
1
390
0
  6
Continuous
 62
     7
100
AcDbBlockReference
  2
ASSORTED_DRAFT97
 10
0.0
 20
0.0
 30
0.0
  0
INSERT
  5
23D
100
AcDbEntity
 67
     1
  8
1
390
0
  6
Continuous
 62
     7
100
AcDbBlockReference
  2
ASSORTED_DRAFT98
 10
0.0
 20
0.0
 30
0.0
  0
INSERT
  5
242
100
AcDbEntity
 67
     1
  8
1
390
0
  6
Continuous
 62
     7
100
AcDbBlockReference
  2
ASSORTED_DRAFT99
 10
0.0
 20
0.0
 30
0.0
  0
INSERT
  5
247
100
AcDbEntity
 67
     1
  8
1
390
0
  6
Continuous
 62
     7
100
AcDbBlockReference
  2
ASSORTED_DRAFT100
 10
0.0
 20
0.0
 30
0.0
  0
INSERT
  5
24C
100
AcDbEntity
 67
     1
  8
1
390
0
  6
Continuous
 62
     7
100
AcDbBlockReference
  2
ASSORTED_DRAFT101
 10
0.0
 20
0.0
 30
0.0
  0
INSERT
  5
251
100
AcDbEntity
 67
     1
  8
1
390
0
  6
Continuous
 62
     7
100
AcDbBlockReference
  2
ASSORTED_DRAFT102
 10
0.0
 20
0.0
 30
0.0
  0
INSERT
  5
256
100
AcDbEntity
 67
     1
  8
1
390
0
  6
Continuous
 62
     7
100
AcDbBlockReference
  2
ASSORTED_DRAFT103
 10
0.0
 20
0.0
 30
0.0
  0
INSERT
  5
25B
100
AcDbEntity
 67
     1
  8
1
390
0
  6
Continuous
 62
     7
100
AcDbBlockReference
  2
ASSORTED_DRAFT104
 10
0.0
 20
0.0
 30
0.0
  0
INSERT
  5
260
100
AcDbEntity
 67
     1
  8
1
390
0
  6
Continuous
 62
     7
100
AcDbBlockReference
  2
ASSORTED_DRAFT105
 10
0.0
 20
0.0
 30
0.0
  0
INSERT
  5
265
100
AcDbEntity
 67
     1
  8
1
390
0
  6
Continuous
 62
     7
100
AcDbBlockReference
  2
ASSORTED_DRAFT106
 10
0.0
 20
0.0
 30
0.0
  0
INSERT
  5
26A
100
AcDbEntity
 67
     1
  8
1
390
0
  6
Continuous
 62
     7
100
AcDbBlockReference
  2
ASSORTED_DRAFT107
 10
0.0
 20
0.0
 30
0.0
  0
INSERT
  5
26F
100
AcDbEntity
 67
     1
  8
1
390
0
  6
Continuous
 62
     7
100
AcDbBlockReference
  2
ASSORTED_DRAFT108
 10
0.0
 20
0.0
 30
0.0
  0
INSERT
  5
274
100
AcDbEntity
 67
     1
  8
1
390
0
  6
Continuous
 62
     7
100
AcDbBlockReference
  2
ASSORTED_DRAFT109
 10
0.0
 20
0.0
 30
0.0
  0
INSERT
  5
279
100
AcDbEntity
 67
     1
  8
1
390
0
  6
Continuous
 62
     7
100
AcDbBlockReference
  2
ASSORTED_DRAFT110
 10
0.0
 20
0.0
 30
0.0
  0
INSERT
  5
27E
100
AcDbEntity
 67
     1
  8
1
390
0
  6
Continuous
 62
     7
100
AcDbBlockReference
  2
ASSORTED_DRAFT111
 10
0.0
 20
0.0
 30
0.0
  0
INSERT
  5
283
100
AcDbEntity
 67
     1
  8
1
390
0
  6
Continuous
 62
     7
100
AcDbBlockReference
  2
ASSORTED_DRAFT112
 10
0.0
 20
0.0
 30
0.0
  0
INSERT
  5
288
100
AcDbEntity
 67
     1
  8
1
390
0
  6
Continuous
 62
     7
100
AcDbBlockReference
  2
ASSORTED_DRAFT113
 10
0.0
 20
0.0
 30
0.0
  0
INSERT
  5
28D
100
AcDbEntity
 67
     1
  8
1
390
0
  6
Continuous
 62
     7
100
AcDbBlockReference
  2
ASSORTED_DRAFT114
 10
0.0
 20
0.0
 30
0.0
  0
INSERT
  5
292
100
AcDbEntity
 67
     1
  8
1
390
0
  6
Continuous
 62
     7
100
AcDbBlockReference
  2
ASSORTED_DRAFT115
 10
0.0
 20
0.0
 30
0.0
  0
INSERT
  5
297
100
AcDbEntity
 67
     1
  8
1
390
0
  6
Continuous
 62
     7
100
AcDbBlockReference
  2
ASSORTED_DRAFT116
 10
0.0
 20
0.0
 30
0.0
  0
INSERT
  5
29C
100
AcDbEntity
 67
     1
  8
1
390
0
  6
Continuous
 62
     7
100
AcDbBlockReference
  2
ASSORTED_DRAFT117
 10
0.0
 20
0.0
 30
0.0
  0
INSERT
  5
2A1
100
AcDbEntity
 67
     1
  8
1
390
0
  6
Continuous
 62
     7
100
AcDbBlockReference
  2
ASSORTED_DRAFT118
 10
0.0
 20
0.0
 30
0.0
  0
INSERT
  5
2A6
100
AcDbEntity
 67
     1
  8
1
390
0
  6
Continuous
 62
     7
100
AcDbBlockReference
  2
ASSORTED_DRAFT119
 10
0.0
 20
0.0
 30
0.0
  0
INSERT
  5
2AB
100
AcDbEntity
 67
     1
  8
1
390
0
  6
Continuous
 62
     7
100
AcDbBlockReference
  2
ASSORTED_DRAFT120
 10
0.0
 20
0.0
 30
0.0
  0
VIEWPORT
  5
2AC
100
AcDbEntity
 67
     1
  8
0
390
0
100
AcDbViewport
 10
3.240104
 20
5.213653
 30
0.0
 40
2.786755
 41
3.832491
 68
     1
 69
     2
 12
-1.289443
 22
0.545612
 13
0.0
 23
0.0
 14
0.0
 24
0.0
 15
0.0
 25
0.0
 16
0.718873
 26
-0.585049
 36
0.375419
 17
0.0
 27
0.0
 37
0.0
 42
49.350513
 43
0.0
 44
0.0
 45
3.832491
 50
0.0
 51
0.0
 72
   100
 90
    32800
340
0
  1

281
     0
 71
     0
 74
     1
110
0.0
120
0.0
130
0.0
111
1.0
121
0.0
131
0.0
112
0.0
122
1.0
132
0.0
345
0
346
0
 79
     0
146
0.0
  0
LINE
  5
2B
100
AcDbEntity
  8
TFR-TRI$2
390
0
  6
Continuous
 62
     3
100
AcDbLine
 10
-0.193575
 20
-2.977979
 30
2.4125
 11
-0.194147
 21
-2.978662
 31
2.387
  0
LINE
  5
2D
100
AcDbEntity
  8
TFR-TRI$2
390
0
  6
Continuous
 62
     3
100
AcDbLine
 10
-0.188662
 20
-2.983126
 30
2.388
 11
-0.188067
 21
-2.982374
 31
2.360538
  0
LINE
  5
2E
100
AcDbEntity
  8
TFR-TRI$2
390
0
  6
Continuous
 62
     3
100
AcDbLine
 10
0.053504
 20
-2.447374
 30
2.4025
 11
0.052976
 21
-2.448072
 31
2.4125
  0
LINE
  5
2F
100
AcDbEntity
  8
TFR-TRI$2
390
0
  6
Continuous
 62
     3
100
AcDbLine
 10
0.053504
 20
-2.367786
 30
2.4025
 11
0.052976
 21
-2.368484
 31
2.4125
  0
LINE
  5
30
100
AcDbEntity
  8
TFR-TRI$2
390
0
  6
Continuous
 62
     3
100
AcDbLine
 10
0.07889
 20
-1.373059
 30
2.3875
 11
0.072315
 21
-1.397179
 31
2.4125
  0
LINE
  5
31
100
AcDbEntity
  8
TFR-TRI$2
390
0
  6
Continuous
 62
     3
100
AcDbLine
 10
-0.245101
 20
-1.787202
 30
2.4125
 11
-0.267383
 21
-1.798538
 31
2.3875
  0
LINE
  5
32
100
AcDbEntity
  8
TFR-TRI$2
390
0
  6
HIDDEN
 62
     3
100
AcDbLine
 10
-0.189366
 20
-1.895182
 30
2.341561
 11
-0.189366
 21
-1.895182
 31
-0.6625
  0
LINE
  5
33
100
AcDbEntity
  8
TFR-TRI$2
390
0
  6
HIDDEN
 62
     3
100
AcDbLine
 10
0.189366
 20
-1.429819
 30
-0.6625
 11
0.189366
 21
-1.429819
 31
2.341561
  0
LINE
  5
34
100
AcDbEntity
  8
TFR-TRI$2
390
0
  6
Continuous
 62
     3
100
AcDbLine
 10
0.188662
 20
-0.341875
 30
2.387
 11
0.188109
 21
-0.342574
 31
2.4125
  0
LINE
  5
35
100
AcDbEntity
  8
TFR-TRI$2
390
0
  6
Continuous
 62
     3
100
AcDbLine
 10
0.19353
 20
-0.347077
 30
2.36046
 11
0.194147
 21
-0.346339
 31
2.388
  0
LINE
  5
36
100
AcDbEntity
  8
TFR-TRI$2
390
0
  6
Continuous
 62
     3
100
AcDbLine
 10
0.039467
 20
-0.589085
 30
2.40125
 11
0.039467
 21
-0.589085
 31
2.41375
  0
LINE
  5
37
100
AcDbEntity
  8
TFR-TRI$2
390
0
  6
Continuous
 62
     3
100
AcDbLine
 10
-0.046079
 20
-0.643737
 30
2.41375
 11
-0.046079
 21
-0.643737
 31
2.40125
  0
LINE
  5
38
100
AcDbEntity
  8
TFR-TRI$2
390
0
  6
HIDDEN
 62
     3
100
AcDbLine
 10
-0.014772
 20
-0.592291
 30
2.40125
 11
-0.014772
 21
-0.592291
 31
2.41375
  0
SPLINE
  5
39
100
AcDbEntity
  8
TFR-TRI$2
390
0
  6
Continuous
 62
     3
100
AcDbSpline
210
0.0
220
0.0
230
1.0
 70
     0
 71
     1
 72
     4
 73
     2
 74
     0
 42
0.000001
 43
0.000001
 40
0.0
 40
0.0
 40
1.0
 40
1.0
 10
-0.0004872421393243
 20
-0.9751456576303033
 30
2.4024995078740896
 10
-0.0010186214491707
 20
-0.9758405873874507
 30
2.4124995078740898
  0
SPLINE
  5
3A
100
AcDbEntity
  8
TFR-TRI$2
390
0
  6
Continuous
 62
     3
100
AcDbSpline
210
0.0
220
0.0
230
1.0
 70
     0
 71
     1
 72
     4
 73
     2
 74
     0
 42
0.000001
 43
0.000001
 40
0.0
 40
0.0
 40
1.0
 40
1.0
 10
0.0437598486319718
 20
-0.8016687477036879
 30
2.4024995078741389
 10
0.043242364458471
 20
-0.8023808823828684
 30
2.4125595078741395
  0
SPLINE
  5
3B
100
AcDbEntity
  8
TFR-TRI$2
390
0
  6
HIDDEN
 62
     3
100
AcDbSpline
210
0.0
220
0.0
230
1.0
 70
     0
 71
     1
 72
     4
 73
     2
 74
     0
 42
0.000001
 43
0.000001
 40
0.0
 40
0.0
 40
1.0
 40
1.0
 10
-0.0090061069867207
 20
-0.8066102215291183
 30
2.4024995078740159
 10
-0.0095934138363012
 20
-0.8072571698694704
 30
2.4124995078740157
  0
SPLINE
  5
3C
100
AcDbEntity
  8
TFR-TRI$2
390
0
  6
HIDDEN
 62
     3
100
AcDbSpline
210
0.0
220
0.0
230
1.0
 70
     0
 71
     1
 72
     4
 73
     2
 74
     0
 42
0.000001
 43
0.000001
 40
0.0
 40
0.0
 40
1.0
 40
1.0
 10
-0.0063660370430996
 20
-0.7051349784728717
 30
2.4024995078740177
 10
-0.0068987425769246
 20
-0.7058288086267133
 30
2.4124995078740161
  0
INSERT
  5
580
100
AcDbEntity
  8
1
390
0
  6
Continuous
 62
     3
100
AcDbBlockReference
  2
V10290EG_SMGMTPOST_02_MODEL
 10
0.0
 20
-1.6625
 30
-1.6625
210
0.0
220
0.0
230
1.0
  0
ENDSEC
  0
SECTION
  2
OBJECTS
  0
DICTIONARY
  5
19
100
AcDbDictionary
280
     0
281
     1
  3
ACAD_GROUP
350
1A
  3
ACAD_MLINESTYLE
350
1B
  3
ACAD_LAYOUT
350
1E
  3
ACAD_PLOTSETTINGS
350
22
  3
ACAD_PLOTSTYLENAME
350
1F
  3
ACAD_WIPEOUT_VARS
350
23
  0
DICTIONARY
  5
1A
102
{ACAD_REACTORS
330
19
102
}
100
AcDbDictionary
280
     0
281
     1
  3
0ASIZE
350
2AE
  3
ASIZE
350
2AF
  3
DUAL DIMENSION TOL
350
2B1
  0
DICTIONARY
  5
1B
102
{ACAD_REACTORS
330
19
102
}
100
AcDbDictionary
280
     0
281
     1
  3
Standard
350
1C
  0
MLINESTYLE
  5
1C
102
{ACAD_REACTORS
330
1B
102
}
100
AcDbMlineStyle
  2
Standard
 70
     0
  3

 62
     0
 51
90.0
 52
90.0
 71
     2
 49
0.5
 62
   256
  6
ByLayer
 49
-0.5
 62
   256
  6
ByLayer
  0
ACDBDICTIONARYWDFLT
  5
1F
102
{ACAD_REACTORS
330
19
102
}
100
AcDbDictionary
281
     1
  3
Normal
350
1D
100
AcDbDictionaryWithDefault
340
1D
  0
ACDBPLACEHOLDER
  5
1D
102
{ACAD_REACTORS
330
1F
102
}
  0
LAYOUT
  5
20
102
{ACAD_REACTORS
330
1E
102
}
100
AcDbPlotSettings
  1

  2

  4

  6

 40
0.0
 41
0.0
 42
0.0
 43
0.0
 44
0.0
 45
0.0
 46
0.0
 47
0.0
 48
0.0
 49
0.0
140
0.0
141
0.0
142
1.0
143
1.0
 70
  1024
 72
     0
 73
     0
 74
     0
  7

 75
     0
147
1.0
148
0.0
149
0.0
100
AcDbLayout
  1
Model
 70
     0
 71
     0
 10
0.0
 20
0.0
 11
0.0
 21
0.0
 12
0.0
 22
0.0
 32
0.0
 14
0.0
 24
0.0
 34
0.0
 15
0.0
 25
0.0
 35
0.0
146
0.0
 13
0.0
 23
0.0
 33
0.0
 16
0.0
 26
0.0
 36
0.0
 17
0.0
 27
0.0
 37
0.0
 76
     0
330
A
331
0
345
0
346
0
  0
LAYOUT
  5
21
102
{ACAD_REACTORS
330
1E
102
}
100
AcDbPlotSettings
  1

  2

  4

  6

 40
0.0
 41
0.0
 42
0.0
 43
0.0
 44
0.0
 45
0.0
 46
0.0
 47
0.0
 48
0.0
 49
0.0
140
0.0
141
0.0
142
1.0
143
1.0
 70
     0
 72
     0
 73
     0
 74
     0
  7

 75
     0
147
1.0
148
0.0
149
0.0
100
AcDbLayout
  1
Layout1
 70
     0
 71
     0
 10
0.0
 20
0.0
 11
0.0
 21
0.0
 12
0.0
 22
0.0
 32
0.0
 14
0.0
 24
0.0
 34
0.0
 15
0.0
 25
0.0
 35
0.0
146
0.0
 13
0.0
 23
0.0
 33
0.0
 16
0.0
 26
0.0
 36
0.0
 17
0.0
 27
0.0
 37
0.0
 76
     0
330
B
331
0
345
0
346
0
  0
DICTIONARY
  5
1E
102
{ACAD_REACTORS
330
19
102
}
100
AcDbDictionary
280
     0
281
     1
  3
Layout1
350
21
  3
Model
350
20
  3
SH1
350
2AD
  0
DICTIONARY
  5
22
102
{ACAD_REACTORS
330
19
102
}
100
AcDbDictionary
280
     0
281
     1
  0
WIPEOUTVARIABLES
  5
23
100
AcDbWipeoutVariables
 70
     1
  0
LAYOUT
  5
2AD
102
{ACAD_REACTORS
330
1E
102
}
100
AcDbPlotSettings
  1

  2

  4

  6

 40
20.0
 41
20.0
 42
20.0
 43
20.0
 44
319.4
 45
255.9
 46
0.0
 47
0.0
 48
0.0
 49
0.0
140
319.4
141
255.9
142
1.0
143
1.0
 70
     0
 72
     0
 73
     0
 74
     1
  7

 75
     0
147
1.0
148
0.0
149
0.0
100
AcDbLayout
  1
SH1
 70
     0
 71
     1
 10
0.0
 20
0.0
 11
11.0
 21
8.5
 12
0.0
 22
0.0
 32
0.0
 14
0.0
 24
0.0
 34
0.0
 15
11.0
 25
8.5
 35
0.0
146
0.0
 13
0.0
 23
0.0
 33
0.0
 16
0.0
 26
0.0
 36
0.0
 17
0.0
 27
0.0
 37
0.0
 76
     0
330
B
331
45
345
0
346
0
  0
GROUP
  5
2AE
102
{ACAD_REACTORS
330
1A
102
}
100
AcDbGroup
300
0ASIZE
 70
     1
 71
     1
340
46
340
47
340
48
340
49
340
4A
340
4B
340
4C
340
4D
340
4E
340
4F
340
50
340
51
340
52
340
53
340
54
340
55
340
56
340
57
340
58
340
59
340
5A
340
5B
340
5C
340
5D
340
5E
340
5F
340
60
340
61
340
62
340
63
340
64
340
65
340
66
340
67
340
68
340
69
340
6A
340
6B
340
6C
340
6D
340
6E
340
6F
340
70
340
71
340
72
340
73
340
74
340
75
340
76
340
77
340
78
340
79
340
7A
340
7B
340
7C
340
7D
340
7E
340
7F
340
80
340
81
340
82
340
83
340
84
340
85
340
86
340
87
340
88
340
89
340
8A
340
8B
340
8C
340
99
340
9E
340
A3
340
A8
340
AD
340
B2
340
B7
340
BC
340
C1
340
C6
340
CB
340
D0
340
D5
340
DA
340
DF
340
E4
340
E9
340
EE
340
F3
340
F8
340
FD
340
102
340
107
340
10C
340
111
340
116
340
11B
340
11C
340
11D
340
11E
340
11F
340
120
340
121
340
122
340
123
340
124
340
125
340
15A
340
1A1
340
1D5
340
20A
340
20B
340
20C
340
211
340
212
340
213
340
214
340
215
340
216
340
217
340
218
340
218
340
218
340
218
340
218
340
218
340
218
340
218
340
218
340
218
340
218
340
218
340
218
340
218
340
218
340
218
340
218
340
218
340
218
340
218
340
218
340
218
340
218
340
218
340
218
340
218
340
218
340
218
  0
GROUP
  5
2AF
102
{ACAD_REACTORS
330
1A
102
}
100
AcDbGroup
300
ASIZE
 70
     1
 71
     1
340
4A
340
4B
340
4C
340
4D
340
4E
340
4F
340
50
340
51
340
52
340
53
340
54
340
55
340
56
340
57
340
58
340
59
340
5A
340
5B
340
5C
340
5D
340
5E
340
5F
340
60
340
61
340
62
340
63
340
64
340
65
340
66
340
67
340
99
340
9E
340
A3
340
A8
340
AD
340
B2
340
B7
340
BC
340
C1
340
C6
340
CB
340
D0
340
D5
340
DA
340
DF
340
E4
340
E9
340
EE
340
F3
340
F8
340
FD
340
102
340
107
340
10C
340
111
340
116
340
11B
340
11C
340
125
340
124
340
123
340
122
340
121
340
120
340
11F
340
11E
340
11D
  0
GROUP
  5
2B1
102
{ACAD_REACTORS
330
1A
102
}
100
AcDbGroup
300
DUAL DIMENSION TOL
 70
     1
 71
     1
340
85
340
86
340
87
340
88
340
89
340
8A
340
8B
340
8C
340
215
340
216
340
217
340
218
340
218
340
218
340
218
340
218
340
218
340
218
340
218
340
218
340
218
340
218
340
218
340
218
340
218
340
218
340
218
  0
ENDSEC
  0
EOF
