  0
SECTION
  2
HEADER
  9
$ACADVER
  1
AC1012
  9
$DWGCODEPAGE
  3
ANSI_1252
  9
$INSBASE
 10
0.0
 20
0.0
 30
0.0
  9
$EXTMIN
 10
-2.253320610368811
 20
-1.13945077723064
 30
0.0
  9
$EXTMAX
 10
3.93187074988071
 20
3.360763444781371
 30
0.0
  9
$LIMMIN
 10
0.0
 20
0.0
  9
$LIMMAX
 10
12.0
 20
9.0
  9
$ORTHOMODE
 70
     0
  9
$REGENMODE
 70
     1
  9
$FILLMODE
 70
     1
  9
$QTEXTMODE
 70
     0
  9
$MIRRTEXT
 70
     1
  9
$DRAGMODE
 70
     2
  9
$LTSCALE
 40
0.1250293074140792
  9
$OSMODE
 70
   547
  9
$ATTMODE
 70
     1
  9
$TEXTSIZE
 40
0.2
  9
$TRACEWID
 40
0.05
  9
$TEXTSTYLE
  7
STANDARD
  9
$CLAYER
  8
0
  9
$CELTYPE
  6
BYLAYER
  9
$CECOLOR
 62
   256
  9
$CELTSCALE
 40
1.0
  9
$DELOBJ
 70
     1
  9
$DISPSILH
 70
     0
  9
$DIMSCALE
 40
1.0
  9
$DIMASZ
 40
0.18
  9
$DIMEXO
 40
0.0625
  9
$DIMDLI
 40
0.38
  9
$DIMRND
 40
0.0
  9
$DIMDLE
 40
0.0
  9
$DIMEXE
 40
0.18
  9
$DIMTP
 40
0.0
  9
$DIMTM
 40
0.0
  9
$DIMTXT
 40
0.18
  9
$DIMCEN
 40
0.09
  9
$DIMTSZ
 40
0.0
  9
$DIMTOL
 70
     0
  9
$DIMLIM
 70
     0
  9
$DIMTIH
 70
     1
  9
$DIMTOH
 70
     1
  9
$DIMSE1
 70
     0
  9
$DIMSE2
 70
     0
  9
$DIMTAD
 70
     0
  9
$DIMZIN
 70
     0
  9
$DIMBLK
  1

  9
$DIMASO
 70
     1
  9
$DIMSHO
 70
     1
  9
$DIMPOST
  1

  9
$DIMAPOST
  1

  9
$DIMALT
 70
     0
  9
$DIMALTD
 70
     2
  9
$DIMALTF
 40
25.4
  9
$DIMLFAC
 40
1.0
  9
$DIMTOFL
 70
     0
  9
$DIMTVP
 40
0.0
  9
$DIMTIX
 70
     0
  9
$DIMSOXD
 70
     0
  9
$DIMSAH
 70
     0
  9
$DIMBLK1
  1

  9
$DIMBLK2
  1

  9
$DIMSTYLE
  2
STANDARD
  9
$DIMCLRD
 70
     0
  9
$DIMCLRE
 70
     0
  9
$DIMCLRT
 70
     0
  9
$DIMTFAC
 40
1.0
  9
$DIMGAP
 40
0.09
  9
$DIMJUST
 70
     0
  9
$DIMSD1
 70
     0
  9
$DIMSD2
 70
     0
  9
$DIMTOLJ
 70
     1
  9
$DIMTZIN
 70
     0
  9
$DIMALTZ
 70
     0
  9
$DIMALTTZ
 70
     0
  9
$DIMFIT
 70
     3
  9
$DIMUPT
 70
     0
  9
$DIMUNIT
 70
     2
  9
$DIMDEC
 70
     4
  9
$DIMTDEC
 70
     4
  9
$DIMALTU
 70
     2
  9
$DIMALTTD
 70
     2
  9
$DIMTXSTY
  7
STANDARD
  9
$DIMAUNIT
 70
     0
  9
$LUNITS
 70
     2
  9
$LUPREC
 70
     4
  9
$SKETCHINC
 40
0.1
  9
$FILLETRAD
 40
0.0
  9
$AUNITS
 70
     0
  9
$AUPREC
 70
     0
  9
$MENU
  1
acad
  9
$ELEVATION
 40
0.0
  9
$PELEVATION
 40
0.0
  9
$THICKNESS
 40
0.0
  9
$LIMCHECK
 70
     0
  9
$BLIPMODE
 70
     0
  9
$CHAMFERA
 40
0.0
  9
$CHAMFERB
 40
0.0
  9
$CHAMFERC
 40
0.0
  9
$CHAMFERD
 40
0.0
  9
$SKPOLY
 70
     0
  9
$TDCREATE
 40
2451099.285133090
  9
$TDUPDATE
 40
2453944.412527650
  9
$TDINDWG
 40
0.0021465625
  9
$TDUSRTIMER
 40
0.0021465625
  9
$USRTIMER
 70
     1
  9
$ANGBASE
 50
0.0
  9
$ANGDIR
 70
     0
  9
$PDMODE
 70
     0
  9
$PDSIZE
 40
0.0
  9
$PLINEWID
 40
0.0
  9
$COORDS
 70
     1
  9
$SPLFRAME
 70
     0
  9
$SPLINETYPE
 70
     6
  9
$SPLINESEGS
 70
     8
  9
$ATTDIA
 70
     0
  9
$ATTREQ
 70
     1
  9
$HANDLING
 70
  4097
  9
$HANDSEED
  5
93D
  9
$SURFTAB1
 70
     6
  9
$SURFTAB2
 70
     6
  9
$SURFTYPE
 70
     6
  9
$SURFU
 70
     6
  9
$SURFV
 70
     6
  9
$UCSNAME
  2

  9
$UCSORG
 10
0.0
 20
0.0
 30
0.0
  9
$UCSXDIR
 10
1.0
 20
0.0
 30
0.0
  9
$UCSYDIR
 10
0.0
 20
1.0
 30
0.0
  9
$PUCSNAME
  2

  9
$PUCSORG
 10
0.0
 20
0.0
 30
0.0
  9
$PUCSXDIR
 10
1.0
 20
0.0
 30
0.0
  9
$PUCSYDIR
 10
0.0
 20
1.0
 30
0.0
  9
$USERI1
 70
     0
  9
$USERI2
 70
     0
  9
$USERI3
 70
     0
  9
$USERI4
 70
     0
  9
$USERI5
 70
     0
  9
$USERR1
 40
0.0
  9
$USERR2
 40
0.0
  9
$USERR3
 40
0.0
  9
$USERR4
 40
0.0
  9
$USERR5
 40
0.0
  9
$WORLDVIEW
 70
     1
  9
$SHADEDGE
 70
     3
  9
$SHADEDIF
 70
    70
  9
$TILEMODE
 70
     1
  9
$MAXACTVP
 70
    16
  9
$PINSBASE
 10
0.0
 20
0.0
 30
0.0
  9
$PLIMCHECK
 70
     0
  9
$PEXTMIN
 10
1.000000000000000E+20
 20
1.000000000000000E+20
 30
1.000000000000000E+20
  9
$PEXTMAX
 10
-1.000000000000000E+20
 20
-1.000000000000000E+20
 30
-1.000000000000000E+20
  9
$PLIMMIN
 10
0.0
 20
0.0
  9
$PLIMMAX
 10
17.0
 20
11.0
  9
$UNITMODE
 70
     0
  9
$VISRETAIN
 70
     0
  9
$PLINEGEN
 70
     0
  9
$PSLTSCALE
 70
     1
  9
$TREEDEPTH
 70
  3020
  9
$PICKSTYLE
 70
     1
  9
$CMLSTYLE
  2
STANDARD
  9
$CMLJUST
 70
     0
  9
$CMLSCALE
 40
1.0
  9
$SAVEIMAGES
 70
     1
  0
ENDSEC
  0
SECTION
  2
CLASSES
  0
CLASS
  1
ACDBDICTIONARYWDFLT
  2
AcDbDictionaryWithDefault
  3
AutoCAD 2000
 90
    32768
280
     0
281
     0
  0
CLASS
  1
ACDBPLACEHOLDER
  2
AcDbPlaceHolder
  3
AutoCAD 2000
 90
    32768
280
     0
281
     0
  0
CLASS
  1
LAYOUT
  2
AcDbLayout
  3
AutoCAD 2000
 90
    32768
280
     0
281
     0
  0
CLASS
  1
LONG_TRANSACTION
  2
AcDbLongTransaction
  3
AutoCAD 2000
 90
    32768
280
     0
281
     0
  0
CLASS
  1
LWPOLYLINE
  2
AcDbPolyline
  3
AutoCAD 2000
 90
    32768
280
     0
281
     1
  0
CLASS
  1
HATCH
  2
AcDbHatch
  3
AutoCAD 2000
 90
    32768
280
     0
281
     1
  0
CLASS
  1
XRECORD
  2
AcDbXrecord
  3
AutoCAD 2000
 90
    32768
280
     0
281
     0
  0
CLASS
  1
LONG_TRANSACTION
  2
AcDbLongTransaction
  3
AutoCAD 2000
 90
    32768
280
     0
281
     0
  0
CLASS
  1
LWPOLYLINE
  2
AcDbPolyline
  3
AutoCAD 2000
 90
    32768
280
     0
281
     1
  0
CLASS
  1
HATCH
  2
AcDbHatch
  3
AutoCAD 2000
 90
    32768
280
     0
281
     1
  0
CLASS
  1
XRECORD
  2
AcDbXrecord
  3
AutoCAD 2000
 90
    32768
280
     0
281
     0
  0
CLASS
  1
LONG_TRANSACTION
  2
AcDbLongTransaction
  3
AutoCAD 2000
 90
    32768
280
     0
281
     0
  0
CLASS
  1
LWPOLYLINE
  2
AcDbPolyline
  3
AutoCAD 2000
 90
    32768
280
     0
281
     1
  0
CLASS
  1
HATCH
  2
AcDbHatch
  3
AutoCAD 2000
 90
    32768
280
     0
281
     1
  0
CLASS
  1
XRECORD
  2
AcDbXrecord
  3
AutoCAD 2000
 90
    32768
280
     0
281
     0
  0
ENDSEC
  0
SECTION
  2
TABLES
  0
TABLE
  2
VPORT
  5
8
330
0
100
AcDbSymbolTable
 70
     3
  0
VPORT
  5
93A
330
8
100
AcDbSymbolTableRecord
100
AcDbViewportTableRecord
  2
*ACTIVE
 70
     0
 10
0.0
 20
0.0
 11
1.0
 21
1.0
 12
1.074325632500993
 22
1.110374467692308
 13
0.0
 23
0.0
 14
1.0
 24
1.0
 15
0.0
 25
0.0
 16
0.0
 26
0.0
 36
1.0
 17
0.0
 27
0.0
 37
0.0
 40
4.536033724175757
 41
1.740671641791044
 42
50.0
 43
0.0
 44
0.0
 50
0.0
 51
0.0
 71
     0
 72
   100
 73
     1
 74
     1
 75
     0
 76
     0
 77
     0
 78
     0
  0
ENDTAB
  0
TABLE
  2
LTYPE
  5
5
330
0
100
AcDbSymbolTable
 70
     1
  0
LTYPE
  5
14
330
5
100
AcDbSymbolTableRecord
100
AcDbLinetypeTableRecord
  2
BYBLOCK
 70
     0
  3

 72
    65
 73
     0
 40
0.0
  0
LTYPE
  5
15
330
5
100
AcDbSymbolTableRecord
100
AcDbLinetypeTableRecord
  2
BYLAYER
 70
     0
  3

 72
    65
 73
     0
 40
0.0
  0
LTYPE
  5
16
330
5
100
AcDbSymbolTableRecord
100
AcDbLinetypeTableRecord
  2
CONTINUOUS
 70
     0
  3
Solid line
 72
    65
 73
     0
 40
0.0
  0
ENDTAB
  0
TABLE
  2
LAYER
  5
2
330
0
100
AcDbSymbolTable
 70
     5
  0
LAYER
  5
F
330
2
100
AcDbSymbolTableRecord
100
AcDbLayerTableRecord
  2
0
 70
     0
 62
     7
  6
CONTINUOUS
  0
LAYER
  5
28
330
2
100
AcDbSymbolTableRecord
100
AcDbLayerTableRecord
  2
IGES_FRZ
 70
     1
 62
     7
  6
CONTINUOUS
  0
LAYER
  5
2A
330
2
100
AcDbSymbolTableRecord
100
AcDbLayerTableRecord
  2
1
 70
     0
 62
     7
  6
CONTINUOUS
  0
LAYER
  5
2B
330
2
100
AcDbSymbolTableRecord
100
AcDbLayerTableRecord
  2
1_TOP
 70
     0
 62
     7
  6
CONTINUOUS
  0
LAYER
  5
8D9
330
2
100
AcDbSymbolTableRecord
100
AcDbLayerTableRecord
  2
DEFPOINTS
 70
     0
 62
     7
  6
CONTINUOUS
  0
ENDTAB
  0
TABLE
  2
STYLE
  5
3
330
0
100
AcDbSymbolTable
 70
     1
  0
STYLE
  5
10
330
3
100
AcDbSymbolTableRecord
100
AcDbTextStyleTableRecord
  2
STANDARD
 70
     0
 40
0.0
 41
1.0
 50
0.0
 71
     0
 42
0.2
  3
txt
  4

  0
ENDTAB
  0
TABLE
  2
VIEW
  5
6
330
0
100
AcDbSymbolTable
 70
     7
  0
VIEW
  5
879
330
6
100
AcDbSymbolTableRecord
100
AcDbViewTableRecord
  2
FRONT
 70
     0
 40
10.08208740960553
 10
0.0
 20
0.0
 41
10.35310039370078
 11
0.0
 21
-1.0
 31
0.0
 12
0.0
 22
0.0
 32
0.0
 42
50.0
 43
7.225565277142227
 44
-7.225565277142227
 50
0.0
 71
    22
  0
VIEW
  5
87B
330
6
100
AcDbSymbolTableRecord
100
AcDbViewTableRecord
  2
RIGHT
 70
     0
 40
10.08208740960553
 10
0.0
 20
0.0
 41
10.08208740960553
 11
1.0
 21
0.0
 31
0.0
 12
0.0
 22
0.0
 32
0.0
 42
50.0
 43
7.129112375847587
 44
-7.129112375847587
 50
0.0
 71
    22
  0
VIEW
  5
87D
330
6
100
AcDbSymbolTableRecord
100
AcDbViewTableRecord
  2
BACK
 70
     0
 40
10.08208740960553
 10
0.0
 20
0.0
 41
10.35310039370078
 11
0.0
 21
1.0
 31
0.0
 12
0.0
 22
0.0
 32
0.0
 42
50.0
 43
7.225565277142227
 44
-7.225565277142227
 50
0.0
 71
    22
  0
VIEW
  5
87F
330
6
100
AcDbSymbolTableRecord
100
AcDbViewTableRecord
  2
BOTTOM
 70
     0
 40
10.08208740960553
 10
0.0
 20
0.0
 41
10.35310039370078
 11
0.0
 21
0.0
 31
-1.0
 12
0.0
 22
0.0
 32
0.0
 42
50.0
 43
7.225565277142227
 44
-7.225565277142227
 50
180.0
 71
    22
  0
VIEW
  5
881
330
6
100
AcDbSymbolTableRecord
100
AcDbViewTableRecord
  2
LEFT
 70
     0
 40
10.08208740960553
 10
0.0
 20
0.0
 41
10.08208740960553
 11
-1.0
 21
0.0
 31
0.0
 12
0.0
 22
0.0
 32
0.0
 42
50.0
 43
7.129112375847587
 44
-7.129112375847587
 50
0.0
 71
    22
  0
VIEW
  5
883
330
6
100
AcDbSymbolTableRecord
100
AcDbViewTableRecord
  2
TFR-ISO
 70
     0
 40
16.57462038456519
 10
0.0
 20
0.0
 41
14.44985987053855
 11
0.577350269189626
 21
-0.577350269189626
 31
0.577350269189626
 12
0.0
 22
0.0
 32
0.0
 42
50.0
 43
10.99450420858808
 44
-10.99450420858808
 50
0.0
 71
    22
  0
VIEW
  5
885
330
6
100
AcDbSymbolTableRecord
100
AcDbViewTableRecord
  2
TFR-TRI
 70
     0
 40
14.74838788771739
 10
0.0
 20
0.0
 41
14.35478768606859
 11
0.7188730927569429
 21
-0.5850486126764432
 31
0.375419228750255
 12
0.0
 22
0.0
 32
0.0
 42
50.0
 43
10.2904673703223
 44
-10.2904673703223
 50
0.0000000000000095
 71
    22
  0
ENDTAB
  0
TABLE
  2
UCS
  5
7
330
0
100
AcDbSymbolTable
 70
     0
  0
ENDTAB
  0
TABLE
  2
APPID
  5
9
330
0
100
AcDbSymbolTable
 70
     2
  0
APPID
  5
11
330
9
100
AcDbSymbolTableRecord
100
AcDbRegAppTableRecord
  2
ACAD
 70
     0
  0
APPID
  5
29
330
9
100
AcDbSymbolTableRecord
100
AcDbRegAppTableRecord
  2
ACADIGES
 70
     0
  0
ENDTAB
  0
TABLE
  2
DIMSTYLE
  5
A
330
0
100
AcDbSymbolTable
 70
     1
  0
DIMSTYLE
105
1D
330
A
100
AcDbSymbolTableRecord
100
AcDbDimStyleTableRecord
  2
STANDARD
 70
     0
  3

  4

  5

  6

  7

 40
1.0
 41
0.18
 42
0.0625
 43
0.38
 44
0.18
 45
0.0
 46
0.0
 47
0.0
 48
0.0
140
0.18
141
0.09
142
0.0
143
25.4
144
1.0
145
0.0
146
1.0
147
0.09
 71
     0
 72
     0
 73
     1
 74
     1
 75
     0
 76
     0
 77
     0
 78
     0
170
     0
171
     2
172
     0
173
     0
174
     0
175
     0
176
     0
177
     0
178
     0
270
     2
271
     4
272
     4
273
     2
274
     2
340
10
275
     0
280
     0
281
     0
282
     0
283
     1
284
     0
285
     0
286
     0
287
     3
288
     0
  0
ENDTAB
  0
TABLE
  2
BLOCK_RECORD
  5
1
330
0
100
AcDbSymbolTable
 70
     2
  0
BLOCK_RECORD
  5
1A
102
{ACAD_XDICTIONARY
360
8C1
102
}
330
1
100
AcDbSymbolTableRecord
100
AcDbBlockTableRecord
  2
*MODEL_SPACE
  0
BLOCK_RECORD
  5
17
102
{ACAD_XDICTIONARY
360
8BF
102
}
330
1
100
AcDbSymbolTableRecord
100
AcDbBlockTableRecord
  2
*PAPER_SPACE
  0
BLOCK_RECORD
  5
862
330
1
100
AcDbSymbolTableRecord
100
AcDbBlockTableRecord
  2
DVIEWBLOCK
  0
ENDTAB
  0
ENDSEC
  0
SECTION
  2
BLOCKS
  0
BLOCK
  5
1B
330
1A
100
AcDbEntity
  8
0
100
AcDbBlockBegin
  2
*MODEL_SPACE
 70
     0
 10
0.0
 20
0.0
 30
0.0
  3
*MODEL_SPACE
  1

  0
ENDBLK
  5
1C
330
1A
100
AcDbEntity
  8
0
100
AcDbBlockEnd
  0
BLOCK
  5
18
330
17
100
AcDbEntity
 67
     1
  8
0
100
AcDbBlockBegin
  2
*PAPER_SPACE
 70
     0
 10
0.0
 20
0.0
 30
0.0
  3
*PAPER_SPACE
  1

  0
ENDBLK
  5
19
330
17
100
AcDbEntity
 67
     1
  8
0
100
AcDbBlockEnd
  0
BLOCK
  5
863
330
862
100
AcDbEntity
  8
0
100
AcDbBlockBegin
  2
DVIEWBLOCK
 70
     0
 10
0.0
 20
0.0
 30
0.0
  3
DVIEWBLOCK
  1

  0
3DFACE
  5
864
330
862
100
AcDbEntity
  8
IGES_FRZ
 62
     4
100
AcDbFace
 10
0.1
 20
0.1
 30
0.0
 11
0.9
 21
0.1
 31
0.0
 12
0.9
 22
0.9
 32
0.0
 13
0.1
 23
0.9
 33
0.0
  0
3DFACE
  5
865
330
862
100
AcDbEntity
  8
IGES_FRZ
 62
     4
100
AcDbFace
 10
0.1
 20
0.1
 30
0.0
 11
0.1
 21
0.1
 31
0.595
 12
0.2
 22
0.1
 32
0.4
 13
0.2
 23
0.1
 33
0.0
 70
    10
  0
3DFACE
  5
866
330
862
100
AcDbEntity
  8
IGES_FRZ
 62
     4
100
AcDbFace
 10
0.2
 20
0.1
 30
0.4
 11
0.1
 21
0.1
 31
0.595
 12
0.9
 22
0.1
 32
0.595
 13
0.4
 23
0.1
 33
0.4
 70
     5
  0
3DFACE
  5
867
330
862
100
AcDbEntity
  8
IGES_FRZ
 62
     4
100
AcDbFace
 10
0.4
 20
0.1
 30
0.0
 11
0.4
 21
0.1
 31
0.4
 12
0.9
 22
0.1
 32
0.595
 13
0.9
 23
0.1
 33
0.0
 70
    14
  0
3DFACE
  5
868
330
862
100
AcDbEntity
  8
IGES_FRZ
 62
     7
100
AcDbFace
 10
0.2
 20
0.1
 30
0.005
 11
0.2
 21
0.1
 31
0.4
 12
0.34
 22
0.24
 32
0.4
 13
0.34
 23
0.24
 33
0.005
 70
     1
  0
3DFACE
  5
869
330
862
100
AcDbEntity
  8
IGES_FRZ
 62
     4
100
AcDbFace
 10
0.9
 20
0.1
 30
0.0
 11
0.9
 21
0.1
 31
0.595
 12
0.9
 22
0.5
 32
0.9949999999999999
 13
0.9
 23
0.3
 33
0.4
 70
    12
  0
3DFACE
  5
86A
330
862
100
AcDbEntity
  8
IGES_FRZ
 62
     4
100
AcDbFace
 10
0.9
 20
0.3
 30
0.4
 11
0.9
 21
0.5
 31
0.9949999999999999
 12
0.9
 22
0.9
 32
0.595
 13
0.9
 23
0.7000000000000001
 33
0.4
 70
     5
  0
3DFACE
  5
86B
330
862
100
AcDbEntity
  8
IGES_FRZ
 62
     4
100
AcDbFace
 10
0.9
 20
0.7000000000000001
 30
0.4
 11
0.9
 21
0.9
 31
0.595
 12
0.9
 22
0.9
 32
0.0
 13
0.9
 23
0.7000000000000001
 33
0.2
 70
     7
  0
3DFACE
  5
86C
330
862
100
AcDbEntity
  8
IGES_FRZ
 62
     4
100
AcDbFace
 10
0.9
 20
0.7000000000000001
 30
0.2
 11
0.9
 21
0.9
 31
0.0
 12
0.9
 22
0.1
 32
0.0
 13
0.9
 23
0.3
 33
0.2
 70
     7
  0
3DFACE
  5
86D
330
862
100
AcDbEntity
  8
IGES_FRZ
 62
     4
100
AcDbFace
 10
0.9
 20
0.3
 30
0.2
 11
0.9
 21
0.3
 31
0.2
 12
0.9
 22
0.1
 32
0.0
 13
0.9
 23
0.3
 33
0.4
 70
     7
  0
3DFACE
  5
86E
330
862
100
AcDbEntity
  8
IGES_FRZ
 62
     4
100
AcDbFace
 10
0.9
 20
0.9
 30
0.0
 11
0.9
 21
0.9
 31
0.595
 12
0.1
 22
0.9
 32
0.595
 13
0.1
 23
0.9
 33
0.0
 70
    12
  0
3DFACE
  5
86F
330
862
100
AcDbEntity
  8
IGES_FRZ
 62
     4
100
AcDbFace
 10
0.1
 20
0.9
 30
0.0
 11
0.1
 21
0.9
 31
0.595
 12
0.1
 22
0.5
 32
0.9949999999999999
 13
0.1
 23
0.5
 33
0.0
 70
    12
  0
3DFACE
  5
870
330
862
100
AcDbEntity
  8
IGES_FRZ
 62
     4
100
AcDbFace
 10
0.1
 20
0.5
 30
0.0
 11
0.1
 21
0.5
 31
0.9949999999999999
 12
0.1
 22
0.1
 32
0.595
 13
0.1
 23
0.1
 33
0.0
 70
    13
  0
3DFACE
  5
871
330
862
100
AcDbEntity
  8
IGES_FRZ
 62
     1
100
AcDbFace
 10
0.2
 20
0.6
 30
0.9
 11
0.2
 21
0.6
 31
1.0
 12
0.3
 22
0.6
 32
1.0
 13
0.3
 23
0.6
 33
0.9
 70
     4
  0
3DFACE
  5
872
330
862
100
AcDbEntity
  8
IGES_FRZ
 62
     1
100
AcDbFace
 10
0.3
 20
0.6
 30
0.9
 11
0.3
 21
0.6
 31
1.0
 12
0.3
 22
0.7000000000000001
 32
1.0
 13
0.3
 23
0.7000000000000001
 33
0.8
 70
     4
  0
3DFACE
  5
873
330
862
100
AcDbEntity
  8
IGES_FRZ
 62
     1
100
AcDbFace
 10
0.3
 20
0.7000000000000001
 30
0.8
 11
0.3
 21
0.7000000000000001
 31
1.0
 12
0.2
 22
0.7000000000000001
 32
1.0
 13
0.2
 23
0.7000000000000001
 33
0.8
 70
     4
  0
3DFACE
  5
874
330
862
100
AcDbEntity
  8
IGES_FRZ
 62
     1
100
AcDbFace
 10
0.2
 20
0.7000000000000001
 30
0.8
 11
0.2
 21
0.7000000000000001
 31
1.0
 12
0.2
 22
0.6
 32
1.0
 13
0.2
 23
0.6
 33
0.9
 70
     4
  0
3DFACE
  5
875
330
862
100
AcDbEntity
  8
IGES_FRZ
 62
     4
100
AcDbFace
 10
0.0
 20
0.0
 30
0.5
 11
1.0
 21
0.0
 31
0.5
 12
1.0
 22
0.5
 32
1.0
 13
0.0
 23
0.5
 33
1.0
  0
3DFACE
  5
876
330
862
100
AcDbEntity
  8
IGES_FRZ
 62
     4
100
AcDbFace
 10
0.0
 20
0.5
 30
1.0
 11
1.0
 21
0.5
 31
1.0
 12
1.0
 22
1.0
 32
0.5
 13
0.0
 23
1.0
 33
0.5
 70
     1
  0
ENDBLK
  5
877
330
862
100
AcDbEntity
  8
0
100
AcDbBlockEnd
  0
ENDSEC
  0
SECTION
  2
ENTITIES
  0
LINE
  5
46E
330
1A
100
AcDbEntity
  8
1_TOP
  6
CONTINUOUS
 62
     7
100
AcDbLine
 10
-0.9403637054612307
 20
2.673519960309195
 30
0.0
 11
-0.9403637054612307
 21
2.674466576678975
 31
0.0
  0
LINE
  5
46F
330
1A
100
AcDbEntity
  8
1_TOP
  6
CONTINUOUS
 62
     7
100
AcDbLine
 10
-1.753507167116322
 20
2.545726750386646
 30
0.0
 11
-1.750667318006932
 21
2.545726750386646
 31
0.0
  0
LINE
  5
470
330
1A
100
AcDbEntity
  8
1_TOP
  6
CONTINUOUS
 62
     7
100
AcDbLine
 10
-0.8154103446481107
 20
-0.3386133283829031
 30
0.0
 11
-0.8154103446481107
 21
-0.2922291262628818
 31
0.0
  0
LINE
  5
471
330
1A
100
AcDbEntity
  8
1_TOP
  6
CONTINUOUS
 62
     7
100
AcDbLine
 10
-0.9403637054612307
 20
-0.6784486051398043
 30
0.0
 11
-0.8154103446481107
 21
-0.6784486051398043
 31
0.0
  0
LINE
  5
472
330
1A
100
AcDbEntity
  8
1_TOP
  6
CONTINUOUS
 62
     7
100
AcDbLine
 10
-1.672098159313832
 20
1.036820256931235
 30
0.0
 11
-1.675884624793018
 21
1.03303379145205
 31
0.0
  0
LINE
  5
473
330
1A
100
AcDbEntity
  8
1_TOP
  6
CONTINUOUS
 62
     7
100
AcDbLine
 10
0.497546560259464
 20
-1.10821243702736
 30
0.0
 11
0.497546560259464
 21
3.32952510457808
 31
0.0
  0
LINE
  5
474
330
1A
100
AcDbEntity
  8
1_TOP
  6
CONTINUOUS
 62
     7
100
AcDbLine
 10
-0.8154103446481107
 20
2.560872612303376
 30
0.0
 11
-0.8154103446481107
 21
2.514488410183366
 31
0.0
  0
LINE
  5
475
330
1A
100
AcDbEntity
  8
1_TOP
  6
CONTINUOUS
 62
     7
100
AcDbLine
 10
-0.0051067321024136
 20
-0.7456583673953452
 30
0.0
 11
-0.0051067321024136
 21
-0.3140013027681991
 31
0.0
  0
LINE
  5
476
330
1A
100
AcDbEntity
  8
1_TOP
  6
CONTINUOUS
 62
     7
100
AcDbLine
 10
-0.1518322694208529
 20
0.0457129177544272
 30
0.0
 11
-0.0912488217538803
 21
0.0457129177544272
 31
0.0
  0
LINE
  5
477
330
1A
100
AcDbEntity
  8
1_TOP
  6
CONTINUOUS
 62
     7
100
AcDbLine
 10
-1.675884624793018
 20
0.2927797902712826
 30
0.0
 11
-1.719428977803652
 21
0.2927797902712826
 31
0.0
  0
LINE
  5
478
330
1A
100
AcDbEntity
  8
1_TOP
  6
CONTINUOUS
 62
     7
100
AcDbLine
 10
-1.642753051850148
 20
0.0513926159732056
 30
0.0
 11
-1.601101931579106
 21
0.0513926159732056
 31
0.0
  0
LINE
  5
479
330
1A
100
AcDbEntity
  8
1_TOP
  6
CONTINUOUS
 62
     7
100
AcDbLine
 10
-0.1518322694208529
 20
1.608576544288239
 30
0.0
 11
-0.1518322694208529
 21
1.280100663968879
 31
0.0
  0
LINE
  5
47A
330
1A
100
AcDbEntity
  8
1_TOP
  6
CONTINUOUS
 62
     7
100
AcDbLine
 10
-0.7377878023248094
 20
-0.5298298350817723
 30
0.0
 11
-0.7387344186946066
 21
-0.5298298350817723
 31
0.0
  0
LINE
  5
47B
330
1A
100
AcDbEntity
  8
1_TOP
  6
CONTINUOUS
 62
     7
100
AcDbLine
 10
-0.0912488217538803
 20
1.608576544288239
 30
0.0
 11
-0.0912488217538803
 21
1.696611866679301
 31
0.0
  0
LINE
  5
47C
330
1A
100
AcDbEntity
  8
1_TOP
  6
CONTINUOUS
 62
     7
100
AcDbLine
 10
-0.8154103446481107
 20
-0.6831816869887844
 30
0.0
 11
-0.9403637054612307
 21
-0.6831816869887844
 31
0.0
  0
LINE
  5
47D
330
1A
100
AcDbEntity
  8
1_TOP
  6
CONTINUOUS
 62
     7
100
AcDbLine
 10
-0.9403637054612307
 20
-0.6831816869887844
 30
0.0
 11
-0.9403637054612307
 21
-0.6784486051398043
 31
0.0
  0
LINE
  5
47E
330
1A
100
AcDbEntity
  8
1_TOP
  6
CONTINUOUS
 62
     7
100
AcDbLine
 10
-0.5957953468553507
 20
-0.5298298350817723
 30
0.0
 11
-0.5995818123345363
 21
-0.5298298350817723
 31
0.0
  0
LINE
  5
47F
330
1A
100
AcDbEntity
  8
1_TOP
  6
CONTINUOUS
 62
     7
100
AcDbLine
 10
-0.0808360416861203
 20
0.5209143353922068
 30
0.0
 11
-0.0363450723056942
 21
0.5209143353922068
 31
0.0
  0
LINE
  5
480
330
1A
100
AcDbEntity
  8
1_TOP
  6
CONTINUOUS
 62
     7
100
AcDbLine
 10
-1.601101931579106
 20
-0.2259659803771352
 30
0.0
 11
-1.601101931579106
 21
0.0513926159732056
 31
0.0
  0
LINE
  5
481
330
1A
100
AcDbEntity
  8
1_TOP
  6
CONTINUOUS
 62
     7
100
AcDbLine
 10
-1.159978703253991
 20
-0.5298298350817723
 30
0.0
 11
-1.156192237774808
 21
-0.5298298350817723
 31
0.0
  0
LINE
  5
482
330
1A
100
AcDbEntity
  8
1_TOP
  6
CONTINUOUS
 62
     7
100
AcDbLine
 10
0.4445360435508662
 20
3.339937884645843
 30
0.0
 11
0.4663082200561823
 21
3.360763444781371
 31
0.0
  0
LINE
  5
483
330
1A
100
AcDbEntity
  8
1_TOP
  6
CONTINUOUS
 62
     7
100
AcDbLine
 10
-1.601101931579106
 20
0.6070564250436804
 30
0.0
 11
-1.601101931579106
 21
0.9468917018005765
 31
0.0
  0
LINE
  5
484
330
1A
100
AcDbEntity
  8
1_TOP
  6
CONTINUOUS
 62
     7
100
AcDbLine
 10
-0.0912488217538803
 20
-0.2297524458563207
 30
0.0
 11
-0.0912488217538803
 21
0.0457129177544272
 31
0.0
  0
LINE
  5
485
330
1A
100
AcDbEntity
  8
1_TOP
  6
CONTINUOUS
 62
     7
100
AcDbLine
 10
-1.664525228355464
 20
2.088511043775014
 30
0.0
 11
-1.664525228355464
 21
1.923799795430447
 31
0.0
  0
LINE
  5
486
330
1A
100
AcDbEntity
  8
1_TOP
  6
CONTINUOUS
 62
     7
100
AcDbLine
 10
-0.1546721185302422
 20
-0.2259659803771352
 30
0.0
 11
-0.1546721185302422
 21
0.0513926159732056
 31
0.0
  0
LINE
  5
487
330
1A
100
AcDbEntity
  8
1_TOP
  6
CONTINUOUS
 62
     7
100
AcDbLine
 10
-0.0287721413473205
 20
1.708917879486678
 30
0.0
 11
-0.0316119904567085
 21
1.711757728596022
 31
0.0
  0
LINE
  5
488
330
1A
100
AcDbEntity
  8
1_TOP
  6
CONTINUOUS
 62
     7
100
AcDbLine
 10
-0.9403637054612307
 20
-0.3386133283829031
 30
0.0
 11
-0.9403637054612307
 21
-0.2922291262628818
 31
0.0
  0
LINE
  5
489
330
1A
100
AcDbEntity
  8
1_TOP
  6
CONTINUOUS
 62
     7
100
AcDbLine
 10
-1.642753051850148
 20
0.6070564250436804
 30
0.0
 11
-1.601101931579106
 21
0.6070564250436804
 31
0.0
  0
LINE
  5
48A
330
1A
100
AcDbEntity
  8
1_TOP
  6
CONTINUOUS
 62
     7
100
AcDbLine
 10
-0.0051067321024136
 20
2.501235781006204
 30
0.0
 11
-0.8002644827313684
 21
2.501235781006204
 31
0.0
  0
LINE
  5
48B
330
1A
100
AcDbEntity
  8
1_TOP
  6
CONTINUOUS
 62
     7
100
AcDbLine
 10
-0.1546721185302422
 20
0.6070564250436804
 30
0.0
 11
-0.1546721185302422
 21
0.9468917018005765
 31
0.0
  0
LINE
  5
48C
330
1A
100
AcDbEntity
  8
1_TOP
  6
CONTINUOUS
 62
     7
100
AcDbLine
 10
-0.9403637054612307
 20
2.560872612303376
 30
0.0
 11
-0.9403637054612307
 21
2.514488410183366
 31
0.0
  0
LINE
  5
48D
330
1A
100
AcDbEntity
  8
1_TOP
  6
CONTINUOUS
 62
     7
100
AcDbLine
 10
-0.1518322694208529
 20
0.941212003581797
 30
0.0
 11
-0.1546721185302422
 21
0.9468917018005765
 31
0.0
  0
LINE
  5
48E
330
1A
100
AcDbEntity
  8
1_TOP
  6
CONTINUOUS
 62
     7
100
AcDbLine
 10
-0.8154103446481107
 20
2.597790650725455
 30
0.0
 11
-0.8154103446481107
 21
2.603470348944262
 31
0.0
  0
LINE
  5
48F
330
1A
100
AcDbEntity
  8
1_TOP
  6
CONTINUOUS
 62
     7
100
AcDbLine
 10
-0.1518322694208529
 20
2.451065113407008
 30
0.0
 11
-0.1518322694208529
 21
2.176546366166072
 31
0.0
  0
LINE
  5
490
330
1A
100
AcDbEntity
  8
1_TOP
  6
CONTINUOUS
 62
     7
100
AcDbLine
 10
-1.664525228355464
 20
2.451065113407008
 30
0.0
 11
-1.664525228355464
 21
2.176546366166072
 31
0.0
  0
LINE
  5
491
330
1A
100
AcDbEntity
  8
1_TOP
  6
CONTINUOUS
 62
     7
100
AcDbLine
 10
-1.642753051850148
 20
1.274420965750131
 30
0.0
 11
-1.642753051850148
 21
0.9468917018005765
 31
0.0
  0
LINE
  5
492
330
1A
100
AcDbEntity
  8
1_TOP
  6
CONTINUOUS
 62
     7
100
AcDbLine
 10
-0.113020998259197
 20
1.274420965750131
 30
0.0
 11
-0.1546721185302422
 21
1.274420965750131
 31
0.0
  0
LINE
  5
493
330
1A
100
AcDbEntity
  8
1_TOP
  6
CONTINUOUS
 62
     7
100
AcDbLine
 10
-0.0884089726444926
 20
1.864162964133275
 30
0.0
 11
-0.0912488217538803
 21
1.860376498654088
 31
0.0
  0
LINE
  5
494
330
1A
100
AcDbEntity
  8
1_TOP
  6
CONTINUOUS
 62
     7
100
AcDbLine
 10
-1.716589128694263
 20
1.185439026989242
 30
0.0
 11
-1.672098159313832
 21
1.185439026989242
 31
0.0
  0
LINE
  5
495
330
1A
100
AcDbEntity
  8
1_TOP
  6
CONTINUOUS
 62
     7
100
AcDbLine
 10
-0.0391849214150839
 20
1.852803567695726
 30
0.0
 11
-0.0363450723056942
 21
1.855643416805069
 31
0.0
  0
LINE
  5
496
330
1A
100
AcDbEntity
  8
1_TOP
  6
CONTINUOUS
 62
     7
100
AcDbLine
 10
-0.9403637054612307
 20
-0.4531539091282624
 30
0.0
 11
-0.9403637054612307
 21
-0.4522072927584697
 31
0.0
  0
LINE
  5
497
330
1A
100
AcDbEntity
  8
1_TOP
  6
CONTINUOUS
 62
     7
100
AcDbLine
 10
-1.664525228355464
 20
0.0457129177544272
 30
0.0
 11
-1.642753051850148
 21
0.0513926159732056
 31
0.0
  0
LINE
  5
498
330
1A
100
AcDbEntity
  8
1_TOP
  6
CONTINUOUS
 62
     7
100
AcDbLine
 10
-1.672098159313832
 20
1.932319342758589
 30
0.0
 11
-1.716589128694263
 21
1.932319342758589
 31
0.0
  0
LINE
  5
499
330
1A
100
AcDbEntity
  8
1_TOP
  6
CONTINUOUS
 62
     7
100
AcDbLine
 10
-0.9403637054612307
 20
-0.6083989937748717
 30
0.0
 11
-0.8154103446481107
 21
-0.6083989937748717
 31
0.0
  0
LINE
  5
49A
330
1A
100
AcDbEntity
  8
1_TOP
  6
CONTINUOUS
 62
     7
100
AcDbLine
 10
-0.0912488217538803
 20
2.176546366166072
 30
0.0
 11
-0.113020998259197
 21
2.169920051577497
 31
0.0
  0
LINE
  5
49B
330
1A
100
AcDbEntity
  8
1_TOP
  6
CONTINUOUS
 62
     7
100
AcDbLine
 10
-1.664525228355464
 20
2.451065113407008
 30
0.0
 11
-1.665471844725257
 21
2.452011729776788
 31
0.0
  0
LINE
  5
49C
330
1A
100
AcDbEntity
  8
1_TOP
  6
CONTINUOUS
 62
     7
100
AcDbLine
 10
-1.727948525131818
 20
2.076205030967639
 30
0.0
 11
-1.724162059652637
 21
2.072418565488458
 31
0.0
  0
LINE
  5
49D
330
1A
100
AcDbEntity
  8
1_TOP
  6
CONTINUOUS
 62
     7
100
AcDbLine
 10
-0.8154103446481107
 20
2.828765044955781
 30
0.0
 11
-0.9403637054612307
 21
2.828765044955781
 31
0.0
  0
LINE
  5
49E
330
1A
100
AcDbEntity
  8
1_TOP
  6
CONTINUOUS
 62
     7
100
AcDbLine
 10
-0.0287721413473205
 20
1.848070485846713
 30
0.0
 11
-0.0316119904567085
 21
1.844284020367531
 31
0.0
  0
LINE
  5
49F
330
1A
100
AcDbEntity
  8
1_TOP
  6
CONTINUOUS
 62
     7
100
AcDbLine
 10
-0.8154103446481107
 20
-0.6083989937748717
 30
0.0
 11
-0.8154103446481107
 21
-0.607452377405074
 31
0.0
  0
LINE
  5
4A0
330
1A
100
AcDbEntity
  8
1_TOP
  6
CONTINUOUS
 62
     7
100
AcDbLine
 10
-0.8286629738252599
 20
-0.607452377405074
 30
0.0
 11
-0.8286629738252599
 21
-0.5790538863111827
 31
0.0
  0
LINE
  5
4A1
330
1A
100
AcDbEntity
  8
1_TOP
  6
CONTINUOUS
 62
     7
100
AcDbLine
 10
-0.113020998259197
 20
2.169920051577497
 30
0.0
 11
-0.113020998259197
 21
1.614256242507039
 31
0.0
  0
LINE
  5
4A2
330
1A
100
AcDbEntity
  8
1_TOP
  6
CONTINUOUS
 62
     7
100
AcDbLine
 10
-0.8154103446481107
 20
2.985903362341992
 30
0.0
 11
-0.9403637054612307
 21
2.985903362341992
 31
0.0
  0
LINE
  5
4A3
330
1A
100
AcDbEntity
  8
1_TOP
  6
CONTINUOUS
 62
     7
100
AcDbLine
 10
-1.672098159313832
 20
2.080938112816657
 30
0.0
 11
-1.675884624793018
 21
2.083777961926051
 31
0.0
  0
LINE
  5
4A4
330
1A
100
AcDbEntity
  8
1_TOP
  6
CONTINUOUS
 62
     7
100
AcDbLine
 10
-1.601101931579106
 20
0.6070564250436804
 30
0.0
 11
-1.604888397058292
 21
0.612736123262458
 31
0.0
  0
LINE
  5
4A5
330
1A
100
AcDbEntity
  8
1_TOP
  6
CONTINUOUS
 62
     7
100
AcDbLine
 10
-0.9280576926538783
 20
2.828765044955781
 30
0.0
 11
-0.9280576926538783
 21
2.800366553861896
 31
0.0
  0
LINE
  5
4A6
330
1A
100
AcDbEntity
  8
1_TOP
  6
CONTINUOUS
 62
     7
100
AcDbLine
 10
-1.642753051850148
 20
1.274420965750131
 30
0.0
 11
-1.664525228355464
 21
1.280100663968879
 31
0.0
  0
LINE
  5
4A7
330
1A
100
AcDbEntity
  8
1_TOP
  6
CONTINUOUS
 62
     7
100
AcDbLine
 10
-0.113020998259197
 20
1.614256242507039
 30
0.0
 11
-0.0912488217538803
 21
1.608576544288239
 31
0.0
  0
LINE
  5
4A8
330
1A
100
AcDbEntity
  8
1_TOP
  6
CONTINUOUS
 62
     7
100
AcDbLine
 10
-0.8277163574554622
 20
2.800366553861896
 30
0.0
 11
-0.9280576926538783
 21
2.800366553861896
 31
0.0
  0
LINE
  5
4A9
330
1A
100
AcDbEntity
  8
1_TOP
  6
CONTINUOUS
 62
     7
100
AcDbLine
 10
-0.0884089726444926
 20
0.5284872663505804
 30
0.0
 11
-0.0884089726444926
 21
1.692825401200121
 31
0.0
  0
LINE
  5
4AA
330
1A
100
AcDbEntity
  8
1_TOP
  6
CONTINUOUS
 62
     7
100
AcDbLine
 10
-1.750667318006932
 20
-0.7456583673953452
 30
0.0
 11
-1.750667318006932
 21
-0.3140013027681991
 31
0.0
  0
LINE
  5
4AB
330
1A
100
AcDbEntity
  8
1_TOP
  6
CONTINUOUS
 62
     7
100
AcDbLine
 10
-0.9280576926538783
 20
-0.607452377405074
 30
0.0
 11
-0.8286629738252599
 21
-0.607452377405074
 31
0.0
  0
LINE
  5
4AC
330
1A
100
AcDbEntity
  8
1_TOP
  6
CONTINUOUS
 62
     7
100
AcDbLine
 10
-0.0884089726444926
 20
0.5284872663505804
 30
0.0
 11
-0.0912488217538803
 21
0.5256474172411919
 31
0.0
  0
LINE
  5
4AD
330
1A
100
AcDbEntity
  8
1_TOP
  6
CONTINUOUS
 62
     7
100
AcDbLine
 10
-1.664525228355464
 20
1.193011957947654
 30
0.0
 11
-1.664525228355464
 21
1.028300709603065
 31
0.0
  0
LINE
  5
4AE
330
1A
100
AcDbEntity
  8
1_TOP
  6
CONTINUOUS
 62
     7
100
AcDbLine
 10
-0.0363450723056942
 20
0.3656692507456039
 30
0.0
 11
-0.0808360416861203
 21
0.3656692507456039
 31
0.0
  0
LINE
  5
4AF
330
1A
100
AcDbEntity
  8
1_TOP
  6
CONTINUOUS
 62
     7
100
AcDbLine
 10
-1.604888397058292
 20
2.451065113407008
 30
0.0
 11
-1.601101931579106
 21
2.448225264297607
 31
0.0
  0
LINE
  5
4B0
330
1A
100
AcDbEntity
  8
1_TOP
  6
CONTINUOUS
 62
     7
100
AcDbLine
 10
-1.716589128694263
 20
2.080938112816657
 30
0.0
 11
-1.719428977803652
 21
2.083777961926051
 31
0.0
  0
LINE
  5
4B1
330
1A
100
AcDbEntity
  8
1_TOP
  6
CONTINUOUS
 62
     7
100
AcDbLine
 10
-0.1546721185302422
 20
-0.2259659803771352
 30
0.0
 11
-0.1518322694208529
 21
-0.2297524458563207
 31
0.0
  0
LINE
  5
4B2
330
1A
100
AcDbEntity
  8
1_TOP
  6
CONTINUOUS
 62
     7
100
AcDbLine
 10
-1.667365077464853
 20
1.920959946321041
 30
0.0
 11
-1.664525228355464
 21
1.923799795430447
 31
0.0
  0
LINE
  5
4B3
330
1A
100
AcDbEntity
  8
1_TOP
  6
CONTINUOUS
 62
     7
100
AcDbLine
 10
-0.8154103446481107
 20
2.904494354539465
 30
0.0
 11
-0.9403637054612307
 21
2.904494354539465
 31
0.0
  0
LINE
  5
4B4
330
1A
100
AcDbEntity
  8
1_TOP
  6
CONTINUOUS
 62
     7
100
AcDbLine
 10
-0.0884089726444926
 20
1.864162964133275
 30
0.0
 11
-0.0884089726444926
 21
2.446332031558044
 31
0.0
  0
LINE
  5
4B5
330
1A
100
AcDbEntity
  8
1_TOP
  6
CONTINUOUS
 62
     7
100
AcDbLine
 10
-0.9403637054612307
 20
2.828765044955781
 30
0.0
 11
-0.8154103446481107
 21
2.828765044955781
 31
0.0
  0
LINE
  5
4B6
330
1A
100
AcDbEntity
  8
1_TOP
  6
CONTINUOUS
 62
     7
100
AcDbLine
 10
-0.9403637054612307
 20
-0.2950689753722704
 30
0.0
 11
-0.9403637054612307
 21
-0.2922291262628818
 31
0.0
  0
LINE
  5
4B7
330
1A
100
AcDbEntity
  8
1_TOP
  6
CONTINUOUS
 62
     7
100
AcDbLine
 10
-1.604888397058292
 20
0.941212003581797
 30
0.0
 11
-1.601101931579106
 21
0.9468917018005765
 31
0.0
  0
LINE
  5
4B8
330
1A
100
AcDbEntity
  8
1_TOP
  6
CONTINUOUS
 62
     7
100
AcDbLine
 10
-1.601101931579106
 20
1.274420965750131
 30
0.0
 11
-1.604888397058292
 21
1.280100663968879
 31
0.0
  0
LINE
  5
4B9
330
1A
100
AcDbEntity
  8
1_TOP
  6
CONTINUOUS
 62
     7
100
AcDbLine
 10
-1.664525228355464
 20
2.176546366166072
 30
0.0
 11
-1.642753051850148
 21
2.169920051577497
 31
0.0
  0
LINE
  5
4BA
330
1A
100
AcDbEntity
  8
1_TOP
  6
CONTINUOUS
 62
     7
100
AcDbLine
 10
-0.9403637054612307
 20
-0.6083989937748717
 30
0.0
 11
-0.9403637054612307
 21
-0.607452377405074
 31
0.0
  0
LINE
  5
4BB
330
1A
100
AcDbEntity
  8
1_TOP
  6
CONTINUOUS
 62
     7
100
AcDbLine
 10
-0.9403637054612307
 20
-0.7210463417806395
 30
0.0
 11
-0.8154103446481107
 21
-0.7210463417806395
 31
0.0
  0
LINE
  5
4BC
330
1A
100
AcDbEntity
  8
1_TOP
  6
CONTINUOUS
 62
     7
100
AcDbLine
 10
-1.601101931579106
 20
-0.2259659803771352
 30
0.0
 11
-0.1546721185302422
 21
-0.2259659803771352
 31
0.0
  0
LINE
  5
4BD
330
1A
100
AcDbEntity
  8
1_TOP
  6
CONTINUOUS
 62
     7
100
AcDbLine
 10
-0.9280576926538783
 20
2.828765044955781
 30
0.0
 11
-0.8286629738252599
 21
2.828765044955781
 31
0.0
  0
LINE
  5
4BE
330
1A
100
AcDbEntity
  8
1_TOP
  6
CONTINUOUS
 62
     7
100
AcDbLine
 10
-0.0912488217538803
 20
1.280100663968879
 30
0.0
 11
-0.0912488217538803
 21
1.608576544288239
 31
0.0
  0
LINE
  5
4BF
330
1A
100
AcDbEntity
  8
1_TOP
  6
CONTINUOUS
 62
     7
100
AcDbLine
 10
-1.664525228355464
 20
1.280100663968879
 30
0.0
 11
-1.664525228355464
 21
1.608576544288239
 31
0.0
  0
LINE
  5
4C0
330
1A
100
AcDbEntity
  8
1_TOP
  6
CONTINUOUS
 62
     7
100
AcDbLine
 10
-0.9403637054612307
 20
-0.6623561268532658
 30
0.0
 11
-0.8154103446481107
 21
-0.6623561268532658
 31
0.0
  0
LINE
  5
4C1
330
1A
100
AcDbEntity
  8
1_TOP
  6
CONTINUOUS
 62
     7
100
AcDbLine
 10
-1.601101931579106
 20
2.448225264297607
 30
0.0
 11
-0.1546721185302422
 21
2.448225264297607
 31
0.0
  0
LINE
  5
4C2
330
1A
100
AcDbEntity
  8
1_TOP
  6
CONTINUOUS
 62
     7
100
AcDbLine
 10
-0.1546721185302422
 20
0.6070564250436804
 30
0.0
 11
-0.1518322694208529
 21
0.612736123262458
 31
0.0
  0
LINE
  5
4C3
330
1A
100
AcDbEntity
  8
1_TOP
  6
CONTINUOUS
 62
     7
100
AcDbLine
 10
-0.8286629738252599
 20
2.674466576678975
 30
0.0
 11
-0.8286629738252599
 21
2.701918451403082
 31
0.0
  0
LINE
  5
4C4
330
1A
100
AcDbEntity
  8
1_TOP
  6
CONTINUOUS
 62
     7
100
AcDbLine
 10
-1.093715557368248
 20
-0.5298298350817723
 30
0.0
 11
-1.088982475519264
 21
-0.5298298350817723
 31
0.0
  0
LINE
  5
4C5
330
1A
100
AcDbEntity
  8
1_TOP
  6
CONTINUOUS
 62
     7
100
AcDbLine
 10
-0.8277163574554622
 20
-0.4806057838523619
 30
0.0
 11
-0.9280576926538783
 21
-0.4806057838523619
 31
0.0
  0
LINE
  5
4C6
330
1A
100
AcDbEntity
  8
1_TOP
  6
CONTINUOUS
 62
     7
100
AcDbLine
 10
-2.200310093660215
 20
-1.118625217095117
 30
0.0
 11
-2.22208227016553
 21
-1.13945077723064
 31
0.0
  0
LINE
  5
4C7
330
1A
100
AcDbEntity
  8
1_TOP
  6
CONTINUOUS
 62
     7
100
AcDbLine
 10
-1.716589128694263
 20
1.932319342758589
 30
0.0
 11
-1.719428977803652
 21
1.928532877279409
 31
0.0
  0
LINE
  5
4C8
330
1A
100
AcDbEntity
  8
1_TOP
  6
CONTINUOUS
 62
     7
100
AcDbLine
 10
-0.9403637054612307
 20
-0.3973035433102778
 30
0.0
 11
-0.8154103446481107
 21
-0.3973035433102778
 31
0.0
  0
LINE
  5
4C9
330
1A
100
AcDbEntity
  8
1_TOP
  6
CONTINUOUS
 62
     7
100
AcDbLine
 10
-0.0912488217538803
 20
0.36093616889662
 30
0.0
 11
-0.0912488217538803
 21
0.1328016237756947
 31
0.0
  0
LINE
  5
4CA
330
1A
100
AcDbEntity
  8
1_TOP
  6
CONTINUOUS
 62
     7
100
AcDbLine
 10
-2.22208227016553
 20
-1.13945077723064
 30
0.0
 11
0.4663082200561823
 21
-1.13945077723064
 31
0.0
  0
LINE
  5
4CB
330
1A
100
AcDbEntity
  8
1_TOP
  6
CONTINUOUS
 62
     7
100
AcDbLine
 10
-2.22208227016553
 20
3.360763444781371
 30
0.0
 11
-2.200310093660215
 21
3.339937884645843
 31
0.0
  0
LINE
  5
4CC
330
1A
100
AcDbEntity
  8
1_TOP
  6
CONTINUOUS
 62
     7
100
AcDbLine
 10
-1.664525228355464
 20
0.612736123262458
 30
0.0
 11
-1.664525228355464
 21
0.941212003581797
 31
0.0
  0
LINE
  5
4CD
330
1A
100
AcDbEntity
  8
1_TOP
  6
CONTINUOUS
 62
     7
100
AcDbLine
 10
-0.0912488217538803
 20
0.612736123262458
 30
0.0
 11
-0.1518322694208529
 21
0.612736123262458
 31
0.0
  0
LINE
  5
4CE
330
1A
100
AcDbEntity
  8
1_TOP
  6
CONTINUOUS
 62
     7
100
AcDbLine
 10
-0.9280576926538783
 20
-0.4531539091282624
 30
0.0
 11
-0.9280576926538783
 21
-0.4522072927584697
 31
0.0
  0
LINE
  5
4CF
330
1A
100
AcDbEntity
  8
1_TOP
  6
CONTINUOUS
 62
     7
100
AcDbLine
 10
-0.8154103446481107
 20
2.673519960309195
 30
0.0
 11
-0.8154103446481107
 21
2.674466576678975
 31
0.0
  0
LINE
  5
4D0
330
1A
100
AcDbEntity
  8
1_TOP
  6
CONTINUOUS
 62
     7
100
AcDbLine
 10
-0.9403637054612307
 20
-0.4522072927584697
 30
0.0
 11
-0.8154103446481107
 21
-0.4522072927584697
 31
0.0
  0
LINE
  5
4D1
330
1A
100
AcDbEntity
  8
1_TOP
  6
CONTINUOUS
 62
     7
100
AcDbLine
 10
-0.8277163574554622
 20
-0.5790538863111827
 30
0.0
 11
-0.8277163574554622
 21
-0.607452377405074
 31
0.0
  0
LINE
  5
4D2
330
1A
100
AcDbEntity
  8
1_TOP
  6
CONTINUOUS
 62
     7
100
AcDbLine
 10
-1.667365077464853
 20
1.195851807056998
 30
0.0
 11
-1.667365077464853
 21
1.920959946321041
 31
0.0
  0
LINE
  5
4D3
330
1A
100
AcDbEntity
  8
1_TOP
  6
CONTINUOUS
 62
     7
100
AcDbLine
 10
-1.604888397058292
 20
0.0457129177544272
 30
0.0
 11
-1.604888397058292
 21
-0.2297524458563207
 31
0.0
  0
LINE
  5
4D4
330
1A
100
AcDbEntity
  8
1_TOP
  6
CONTINUOUS
 62
     7
100
AcDbLine
 10
-0.1518322694208529
 20
1.608576544288239
 30
0.0
 11
-0.1546721185302422
 21
1.614256242507039
 31
0.0
  0
LINE
  5
4D5
330
1A
100
AcDbEntity
  8
1_TOP
  6
CONTINUOUS
 62
     7
100
AcDbLine
 10
-1.724162059652637
 20
0.1488941020622337
 30
0.0
 11
-1.724162059652637
 21
0.2814203938337224
 31
0.0
  0
LINE
  5
4D6
330
1A
100
AcDbEntity
  8
1_TOP
  6
CONTINUOUS
 62
     7
100
AcDbLine
 10
-0.9403637054612307
 20
-0.6159719247332452
 30
0.0
 11
-0.8154103446481107
 21
-0.6159719247332452
 31
0.0
  0
LINE
  5
4D7
330
1A
100
AcDbEntity
  8
1_TOP
  6
CONTINUOUS
 62
     7
100
AcDbLine
 10
0.4663082200561823
 20
3.360763444781371
 30
0.0
 11
-2.22208227016553
 21
3.360763444781371
 31
0.0
  0
LINE
  5
4D8
330
1A
100
AcDbEntity
  8
1_TOP
  6
CONTINUOUS
 62
     7
100
AcDbLine
 10
-1.604888397058292
 20
-0.2297524458563207
 30
0.0
 11
-1.664525228355464
 21
-0.2297524458563207
 31
0.0
  0
LINE
  5
4D9
330
1A
100
AcDbEntity
  8
1_TOP
  6
CONTINUOUS
 62
     7
100
AcDbLine
 10
-2.253320610368811
 20
-1.10821243702736
 30
0.0
 11
-2.231548433863494
 21
-1.087386876891836
 31
0.0
  0
LINE
  5
4DA
330
1A
100
AcDbEntity
  8
1_TOP
  6
CONTINUOUS
 62
     7
100
AcDbLine
 10
-0.0912488217538803
 20
2.451065113407008
 30
0.0
 11
-0.1518322694208529
 21
2.451065113407008
 31
0.0
  0
LINE
  5
4DB
330
1A
100
AcDbEntity
  8
1_TOP
  6
CONTINUOUS
 62
     7
100
AcDbLine
 10
-0.9403637054612307
 20
-0.4436877454302999
 30
0.0
 11
-0.8154103446481107
 21
-0.4436877454302999
 31
0.0
  0
LINE
  5
4DC
330
1A
100
AcDbEntity
  8
1_TOP
  6
CONTINUOUS
 62
     7
100
AcDbLine
 10
-0.0912488217538803
 20
0.0457129177544272
 30
0.0
 11
-0.113020998259197
 21
0.0513926159732056
 31
0.0
  0
LINE
  5
4DD
330
1A
100
AcDbEntity
  8
1_TOP
  6
CONTINUOUS
 62
     7
100
AcDbLine
 10
-0.9403637054612307
 20
-0.6150253083634463
 30
0.0
 11
-0.8154103446481107
 21
-0.6150253083634463
 31
0.0
  0
LINE
  5
4DE
330
1A
100
AcDbEntity
  8
1_TOP
  6
CONTINUOUS
 62
     7
100
AcDbLine
 10
-0.1546721185302422
 20
1.274420965750131
 30
0.0
 11
-0.1518322694208529
 21
1.280100663968879
 31
0.0
  0
LINE
  5
4DF
330
1A
100
AcDbEntity
  8
1_TOP
  6
CONTINUOUS
 62
     7
100
AcDbLine
 10
-0.8286629738252599
 20
2.701918451403082
 30
0.0
 11
-0.8277163574554622
 21
2.702865067772862
 31
0.0
  0
LINE
  5
4E0
330
1A
100
AcDbEntity
  8
1_TOP
  6
CONTINUOUS
 62
     7
100
AcDbLine
 10
-0.8286629738252599
 20
-0.4806057838523619
 30
0.0
 11
-0.9280576926538783
 21
-0.4806057838523619
 31
0.0
  0
LINE
  5
4E1
330
1A
100
AcDbEntity
  8
1_TOP
  6
CONTINUOUS
 62
     7
100
AcDbLine
 10
-0.0912488217538803
 20
1.860376498654088
 30
0.0
 11
-0.0912488217538803
 21
2.176546366166072
 31
0.0
  0
LINE
  5
4E2
330
1A
100
AcDbEntity
  8
1_TOP
  6
CONTINUOUS
 62
     7
100
AcDbLine
 10
-0.9403637054612307
 20
-0.3764779831747602
 30
0.0
 11
-0.8154103446481107
 21
-0.3764779831747602
 31
0.0
  0
LINE
  5
4E3
330
1A
100
AcDbEntity
  8
1_TOP
  6
CONTINUOUS
 62
     7
100
AcDbLine
 10
-0.9403637054612307
 20
2.603470348944262
 30
0.0
 11
-0.8154103446481107
 21
2.603470348944262
 31
0.0
  0
LINE
  5
4E4
330
1A
100
AcDbEntity
  8
1_TOP
  6
CONTINUOUS
 62
     7
100
AcDbLine
 10
-0.0363450723056942
 20
0.3656692507456039
 30
0.0
 11
-0.0401315377848766
 21
0.3685090998549929
 31
0.0
  0
LINE
  5
4E5
330
1A
100
AcDbEntity
  8
1_TOP
  6
CONTINUOUS
 62
     7
100
AcDbLine
 10
-0.9403637054612307
 20
-0.749444832874532
 30
0.0
 11
-0.9403637054612307
 21
-0.7456583673953452
 31
0.0
  0
LINE
  5
4E6
330
1A
100
AcDbEntity
  8
1_TOP
  6
CONTINUOUS
 62
     7
100
AcDbLine
 10
-0.113020998259197
 20
1.274420965750131
 30
0.0
 11
-0.0912488217538803
 21
1.280100663968879
 31
0.0
  0
LINE
  5
4E7
330
1A
100
AcDbEntity
  8
1_TOP
  6
CONTINUOUS
 62
     7
100
AcDbLine
 10
-0.9403637054612307
 20
2.970757500425212
 30
0.0
 11
-0.8154103446481107
 21
2.970757500425212
 31
0.0
  0
LINE
  5
4E8
330
1A
100
AcDbEntity
  8
1_TOP
  6
CONTINUOUS
 62
     7
100
AcDbLine
 10
-0.0287721413473205
 20
0.5123947880640425
 30
0.0
 11
-0.0316119904567085
 21
0.5095549389546528
 31
0.0
  0
LINE
  5
4E9
330
1A
100
AcDbEntity
  8
1_TOP
  6
CONTINUOUS
 62
     7
100
AcDbLine
 10
-2.200310093660215
 20
3.339937884645843
 30
0.0
 11
0.4445360435508662
 21
3.339937884645843
 31
0.0
  0
LINE
  5
4EA
330
1A
100
AcDbEntity
  8
1_TOP
  6
CONTINUOUS
 62
     7
100
AcDbLine
 10
-0.9403637054612307
 20
-0.3821576813935359
 30
0.0
 11
-0.8154103446481107
 21
-0.3821576813935359
 31
0.0
  0
LINE
  5
4EB
330
1A
100
AcDbEntity
  8
1_TOP
  6
CONTINUOUS
 62
     7
100
AcDbLine
 10
-0.9555095673779764
 20
-0.2780298807159343
 30
0.0
 11
-0.8002644827313684
 21
-0.2780298807159343
 31
0.0
  0
LINE
  5
4EC
330
1A
100
AcDbEntity
  8
1_TOP
  6
CONTINUOUS
 62
     7
100
AcDbLine
 10
-0.1546721185302422
 20
2.169920051577497
 30
0.0
 11
-0.1546721185302422
 21
2.448225264297607
 31
0.0
  0
LINE
  5
4ED
330
1A
100
AcDbEntity
  8
1_TOP
  6
CONTINUOUS
 62
     7
100
AcDbLine
 10
-0.8277163574554622
 20
2.674466576678975
 30
0.0
 11
-0.8286629738252599
 21
2.674466576678975
 31
0.0
  0
LINE
  5
4EE
330
1A
100
AcDbEntity
  8
1_TOP
  6
CONTINUOUS
 62
     7
100
AcDbLine
 10
-1.672098159313832
 20
1.036820256931235
 30
0.0
 11
-1.716589128694263
 21
1.036820256931235
 31
0.0
  0
LINE
  5
4EF
330
1A
100
AcDbEntity
  8
1_TOP
  6
CONTINUOUS
 62
     7
100
AcDbLine
 10
-0.113020998259197
 20
0.9468917018005765
 30
0.0
 11
-0.0912488217538803
 21
0.941212003581797
 31
0.0
  0
LINE
  5
4F0
330
1A
100
AcDbEntity
  8
1_TOP
  6
CONTINUOUS
 62
     7
100
AcDbLine
 10
-0.1518322694208529
 20
2.451065113407008
 30
0.0
 11
-0.1546721185302422
 21
2.448225264297607
 31
0.0
  0
LINE
  5
4F1
330
1A
100
AcDbEntity
  8
1_TOP
  6
CONTINUOUS
 62
     7
100
AcDbLine
 10
-1.642753051850148
 20
0.9468917018005765
 30
0.0
 11
-1.601101931579106
 21
0.9468917018005765
 31
0.0
  0
LINE
  5
4F2
330
1A
100
AcDbEntity
  8
1_TOP
  6
CONTINUOUS
 62
     7
100
AcDbLine
 10
-0.0912488217538803
 20
0.941212003581797
 30
0.0
 11
-0.0912488217538803
 21
1.280100663968879
 31
0.0
  0
LINE
  5
4F3
330
1A
100
AcDbEntity
  8
1_TOP
  6
CONTINUOUS
 62
     7
100
AcDbLine
 10
-0.0391849214150839
 20
1.852803567695726
 30
0.0
 11
-0.0363450723056942
 21
1.855643416805069
 31
0.0
  0
LINE
  5
4F4
330
1A
100
AcDbEntity
  8
1_TOP
  6
CONTINUOUS
 62
     7
100
AcDbLine
 10
-0.0836758907955093
 20
1.704184797637658
 30
0.0
 11
-0.0808360416861203
 21
1.700398332158477
 31
0.0
  0
LINE
  5
4F5
330
1A
100
AcDbEntity
  8
1_TOP
  6
CONTINUOUS
 62
     7
100
AcDbLine
 10
-0.8154103446481107
 20
-0.4531539091282624
 30
0.0
 11
-0.8154103446481107
 21
-0.4522072927584697
 31
0.0
  0
LINE
  5
4F6
330
1A
100
AcDbEntity
  8
1_TOP
  6
CONTINUOUS
 62
     7
100
AcDbLine
 10
-0.0287721413473205
 20
0.3732421817039705
 30
0.0
 11
-0.0316119904567085
 21
0.3770286471831585
 31
0.0
  0
LINE
  5
4F7
330
1A
100
AcDbEntity
  8
1_TOP
  6
CONTINUOUS
 62
     7
100
AcDbLine
 10
-0.0836758907955093
 20
0.51712786991302
 30
0.0
 11
-0.0808360416861203
 21
0.5209143353922068
 31
0.0
  0
LINE
  5
4F8
330
1A
100
AcDbEntity
  8
1_TOP
  6
CONTINUOUS
 62
     7
100
AcDbLine
 10
-0.113020998259197
 20
0.6070564250436804
 30
0.0
 11
-0.1546721185302422
 21
0.6070564250436804
 31
0.0
  0
LINE
  5
4F9
330
1A
100
AcDbEntity
  8
1_TOP
  6
CONTINUOUS
 62
     7
100
AcDbLine
 10
-0.9403637054612307
 20
-0.4522072927584697
 30
0.0
 11
-0.8154103446481107
 21
-0.4522072927584697
 31
0.0
  0
LINE
  5
4FA
330
1A
100
AcDbEntity
  8
1_TOP
  6
CONTINUOUS
 62
     7
100
AcDbLine
 10
-0.8286629738252599
 20
2.674466576678975
 30
0.0
 11
-0.9280576926538783
 21
2.674466576678975
 31
0.0
  0
LINE
  5
4FB
330
1A
100
AcDbEntity
  8
1_TOP
  6
CONTINUOUS
 62
     7
100
AcDbLine
 10
-1.664525228355464
 20
-0.2297524458563207
 30
0.0
 11
-1.665471844725257
 21
-0.230699062226114
 31
0.0
  0
LINE
  5
4FC
330
1A
100
AcDbEntity
  8
1_TOP
  6
CONTINUOUS
 62
     7
100
AcDbLine
 10
-0.8286629738252599
 20
2.800366553861896
 30
0.0
 11
-0.8277163574554622
 21
2.800366553861896
 31
0.0
  0
LINE
  5
4FD
330
1A
100
AcDbEntity
  8
1_TOP
  6
CONTINUOUS
 62
     7
100
AcDbLine
 10
-0.1518322694208529
 20
-0.2297524458563207
 30
0.0
 11
-0.0912488217538803
 21
-0.2297524458563207
 31
0.0
  0
LINE
  5
4FE
330
1A
100
AcDbEntity
  8
1_TOP
  6
CONTINUOUS
 62
     7
100
AcDbLine
 10
-1.664525228355464
 20
1.608576544288239
 30
0.0
 11
-1.664525228355464
 21
1.923799795430447
 31
0.0
  0
LINE
  5
4FF
330
1A
100
AcDbEntity
  8
1_TOP
  6
CONTINUOUS
 62
     7
100
AcDbLine
 10
-0.6620584927410973
 20
-0.5298298350817723
 30
0.0
 11
-0.6677381909598756
 21
-0.5298298350817723
 31
0.0
  0
LINE
  5
500
330
1A
100
AcDbEntity
  8
1_TOP
  6
CONTINUOUS
 62
     7
100
AcDbLine
 10
-0.0316119904567085
 20
1.711757728596022
 30
0.0
 11
-0.0316119904567085
 21
1.844284020367531
 31
0.0
  0
LINE
  5
501
330
1A
100
AcDbEntity
  8
1_TOP
  6
CONTINUOUS
 62
     7
100
AcDbLine
 10
-0.113020998259197
 20
0.0513926159732056
 30
0.0
 11
-0.113020998259197
 21
0.6070564250436804
 31
0.0
  0
LINE
  5
502
330
1A
100
AcDbEntity
  8
1_TOP
  6
CONTINUOUS
 62
     7
100
AcDbLine
 10
-1.750667318006932
 20
2.536260586688665
 30
0.0
 11
-1.753507167116322
 21
2.536260586688665
 31
0.0
  0
LINE
  5
503
330
1A
100
AcDbEntity
  8
1_TOP
  6
CONTINUOUS
 62
     7
100
AcDbLine
 10
-1.716589128694263
 20
1.185439026989242
 30
0.0
 11
-1.719428977803652
 21
1.188278876098636
 31
0.0
  0
LINE
  5
504
330
1A
100
AcDbEntity
  8
1_TOP
  6
CONTINUOUS
 62
     7
100
AcDbLine
 10
-0.1518322694208529
 20
0.0457129177544272
 30
0.0
 11
-0.1518322694208529
 21
-0.2297524458563207
 31
0.0
  0
LINE
  5
505
330
1A
100
AcDbEntity
  8
1_TOP
  6
CONTINUOUS
 62
     7
100
AcDbLine
 10
-0.8154103446481107
 20
2.514488410183366
 30
0.0
 11
-0.8154103446481107
 21
2.516381642922978
 31
0.0
  0
LINE
  5
506
330
1A
100
AcDbEntity
  8
1_TOP
  6
CONTINUOUS
 62
     7
100
AcDbLine
 10
-1.667365077464853
 20
1.025460860493675
 30
0.0
 11
-1.664525228355464
 21
1.028300709603065
 31
0.0
  0
LINE
  5
507
330
1A
100
AcDbEntity
  8
1_TOP
  6
CONTINUOUS
 62
     7
100
AcDbLine
 10
-0.0912488217538803
 20
2.451065113407008
 30
0.0
 11
-0.0903022053840841
 21
2.452011729776788
 31
0.0
  0
LINE
  5
508
330
1A
100
AcDbEntity
  8
1_TOP
  6
CONTINUOUS
 62
     7
100
AcDbLine
 10
-1.750667318006932
 20
2.536260586688665
 30
0.0
 11
-1.750667318006932
 21
2.53531397031889
 31
0.0
  0
LINE
  5
509
330
1A
100
AcDbEntity
  8
1_TOP
  6
CONTINUOUS
 62
     7
100
AcDbLine
 10
-0.113020998259197
 20
1.274420965750131
 30
0.0
 11
-0.113020998259197
 21
0.9468917018005765
 31
0.0
  0
LINE
  5
50A
330
1A
100
AcDbEntity
  8
1_TOP
  6
CONTINUOUS
 62
     7
100
AcDbLine
 10
-0.0287721413473205
 20
0.3732421817039705
 30
0.0
 11
-0.0287721413473205
 21
0.5123947880640425
 31
0.0
  0
LINE
  5
50B
330
1A
100
AcDbEntity
  8
1_TOP
  6
CONTINUOUS
 62
     7
100
AcDbLine
 10
-0.0912488217538803
 20
0.5256474172411919
 30
0.0
 11
-0.0912488217538803
 21
0.612736123262458
 31
0.0
  0
LINE
  5
50C
330
1A
100
AcDbEntity
  8
1_TOP
  6
CONTINUOUS
 62
     7
100
AcDbLine
 10
-0.8154103446481107
 20
2.674466576678975
 30
0.0
 11
-0.9403637054612307
 21
2.674466576678975
 31
0.0
  0
LINE
  5
50D
330
1A
100
AcDbEntity
  8
1_TOP
  6
CONTINUOUS
 62
     7
100
AcDbLine
 10
-0.9403637054612307
 20
2.967917651315874
 30
0.0
 11
-0.8154103446481107
 21
2.967917651315874
 31
0.0
  0
LINE
  5
50E
330
1A
100
AcDbEntity
  8
1_TOP
  6
CONTINUOUS
 62
     7
100
AcDbLine
 10
-0.0912488217538803
 20
0.36093616889662
 30
0.0
 11
-0.0912488217538803
 21
0.5256474172411919
 31
0.0
  0
LINE
  5
50F
330
1A
100
AcDbEntity
  8
1_TOP
  6
CONTINUOUS
 62
     7
100
AcDbLine
 10
-0.0051067321024136
 20
-0.2799231134555289
 30
0.0
 11
-0.8002644827313684
 21
-0.2799231134555289
 31
0.0
  0
LINE
  5
510
330
1A
100
AcDbEntity
  8
1_TOP
  6
CONTINUOUS
 62
     7
100
AcDbLine
 10
-0.0912488217538803
 20
-0.2297524458563207
 30
0.0
 11
-0.0903022053840841
 21
-0.230699062226114
 31
0.0
  0
LINE
  5
511
330
1A
100
AcDbEntity
  8
1_TOP
  6
CONTINUOUS
 62
     7
100
AcDbLine
 10
-1.727948525131818
 20
0.1451076365830476
 30
0.0
 11
-1.724162059652637
 21
0.1488941020622337
 31
0.0
  0
LINE
  5
512
330
1A
100
AcDbEntity
  8
1_TOP
  6
CONTINUOUS
 62
     7
100
AcDbLine
 10
-0.8286629738252599
 20
-0.607452377405074
 30
0.0
 11
-0.8277163574554622
 21
-0.607452377405074
 31
0.0
  0
LINE
  5
513
330
1A
100
AcDbEntity
  8
1_TOP
  6
CONTINUOUS
 62
     7
100
AcDbLine
 10
-0.0391849214150839
 20
0.51712786991302
 30
0.0
 11
-0.0363450723056942
 21
0.5209143353922068
 31
0.0
  0
LINE
  5
514
330
1A
100
AcDbEntity
  8
1_TOP
  6
CONTINUOUS
 62
     7
100
AcDbLine
 10
-0.9403637054612307
 20
2.829711661325562
 30
0.0
 11
-0.8154103446481107
 21
2.829711661325562
 31
0.0
  0
LINE
  5
515
330
1A
100
AcDbEntity
  8
1_TOP
  6
CONTINUOUS
 62
     7
100
AcDbLine
 10
0.4663082200561823
 20
-1.13945077723064
 30
0.0
 11
0.4445360435508662
 21
-1.118625217095117
 31
0.0
  0
LINE
  5
516
330
1A
100
AcDbEntity
  8
1_TOP
  6
CONTINUOUS
 62
     7
100
AcDbLine
 10
-1.719428977803652
 20
1.928532877279409
 30
0.0
 11
-1.675884624793018
 21
1.928532877279409
 31
0.0
  0
LINE
  5
517
330
1A
100
AcDbEntity
  8
1_TOP
  6
CONTINUOUS
 62
     7
100
AcDbLine
 10
-0.1546721185302422
 20
1.614256242507039
 30
0.0
 11
-0.113020998259197
 21
1.614256242507039
 31
0.0
  0
LINE
  5
518
330
1A
100
AcDbEntity
  8
1_TOP
  6
CONTINUOUS
 62
     7
100
AcDbLine
 10
-0.0884089726444926
 20
-0.225019364007337
 30
0.0
 11
-0.0884089726444926
 21
0.3580963197872303
 31
0.0
  0
LINE
  5
519
330
1A
100
AcDbEntity
  8
1_TOP
  6
CONTINUOUS
 62
     7
100
AcDbLine
 10
-0.8286629738252599
 20
-0.5790538863111827
 30
0.0
 11
-0.9280576926538783
 21
-0.5790538863111827
 31
0.0
  0
LINE
  5
51A
330
1A
100
AcDbEntity
  8
1_TOP
  6
CONTINUOUS
 62
     7
100
AcDbLine
 10
-1.642753051850148
 20
0.6070564250436804
 30
0.0
 11
-1.664525228355464
 21
0.612736123262458
 31
0.0
  0
LINE
  5
51B
330
1A
100
AcDbEntity
  8
1_TOP
  6
CONTINUOUS
 62
     7
100
AcDbLine
 10
-1.642753051850148
 20
1.274420965750131
 30
0.0
 11
-1.601101931579106
 21
1.274420965750131
 31
0.0
  0
LINE
  5
51C
330
1A
100
AcDbEntity
  8
1_TOP
  6
CONTINUOUS
 62
     7
100
AcDbLine
 10
-1.727948525131818
 20
1.937052424607604
 30
0.0
 11
-1.724162059652637
 21
1.939892273716947
 31
0.0
  0
LINE
  5
51D
330
1A
100
AcDbEntity
  8
1_TOP
  6
CONTINUOUS
 62
     7
100
AcDbLine
 10
-1.672098159313832
 20
1.185439026989242
 30
0.0
 11
-1.675884624793018
 21
1.188278876098636
 31
0.0
  0
LINE
  5
51E
330
1A
100
AcDbEntity
  8
1_TOP
  6
CONTINUOUS
 62
     7
100
AcDbLine
 10
-0.8154103446481107
 20
-0.7645906947912728
 30
0.0
 11
-0.9403637054612307
 21
-0.7645906947912728
 31
0.0
  0
LINE
  5
51F
330
1A
100
AcDbEntity
  8
1_TOP
  6
CONTINUOUS
 62
     7
100
AcDbLine
 10
-0.8154103446481107
 20
2.829711661325562
 30
0.0
 11
-0.8154103446481107
 21
2.828765044955781
 31
0.0
  0
LINE
  5
520
330
1A
100
AcDbEntity
  8
1_TOP
  6
CONTINUOUS
 62
     7
100
AcDbLine
 10
-0.0316119904567085
 20
0.3770286471831585
 30
0.0
 11
-0.0316119904567085
 21
0.5095549389546528
 31
0.0
  0
LINE
  5
521
330
1A
100
AcDbEntity
  8
1_TOP
  6
CONTINUOUS
 62
     7
100
AcDbLine
 10
-1.642753051850148
 20
2.169920051577497
 30
0.0
 11
-1.642753051850148
 21
1.614256242507039
 31
0.0
  0
LINE
  5
522
330
1A
100
AcDbEntity
  8
1_TOP
  6
CONTINUOUS
 62
     7
100
AcDbLine
 10
-1.716589128694263
 20
2.080938112816657
 30
0.0
 11
-1.672098159313832
 21
2.080938112816657
 31
0.0
  0
LINE
  5
523
330
1A
100
AcDbEntity
  8
1_TOP
  6
CONTINUOUS
 62
     7
100
AcDbLine
 10
-1.750667318006932
 20
2.53531397031889
 30
0.0
 11
-1.750667318006932
 21
2.500289164636424
 31
0.0
  0
LINE
  5
524
330
1A
100
AcDbEntity
  8
1_TOP
  6
CONTINUOUS
 62
     7
100
AcDbLine
 10
-2.231548433863494
 20
3.308699544442556
 30
0.0
 11
-2.253320610368811
 21
3.32952510457808
 31
0.0
  0
LINE
  5
525
330
1A
100
AcDbEntity
  8
1_TOP
  6
CONTINUOUS
 62
     7
100
AcDbLine
 10
-1.667365077464853
 20
2.092297509254195
 30
0.0
 11
-1.664525228355464
 21
2.088511043775014
 31
0.0
  0
LINE
  5
526
330
1A
100
AcDbEntity
  8
1_TOP
  6
CONTINUOUS
 62
     7
100
AcDbLine
 10
-1.727948525131818
 20
2.076205030967639
 30
0.0
 11
-1.727948525131818
 21
1.937052424607604
 31
0.0
  0
LINE
  5
527
330
1A
100
AcDbEntity
  8
1_TOP
  6
CONTINUOUS
 62
     7
100
AcDbLine
 10
-0.8154103446481107
 20
-0.3764779831747602
 30
0.0
 11
-0.8154103446481107
 21
-0.3821576813935359
 31
0.0
  0
LINE
  5
528
330
1A
100
AcDbEntity
  8
1_TOP
  6
CONTINUOUS
 62
     7
100
AcDbLine
 10
-1.667365077464853
 20
2.092297509254195
 30
0.0
 11
-1.667365077464853
 21
2.446332031558044
 31
0.0
  0
LINE
  5
529
330
1A
100
AcDbEntity
  8
1_TOP
  6
CONTINUOUS
 62
     7
100
AcDbLine
 10
-0.1518322694208529
 20
0.941212003581797
 30
0.0
 11
-0.1518322694208529
 21
0.612736123262458
 31
0.0
  0
LINE
  5
52A
330
1A
100
AcDbEntity
  8
1_TOP
  6
CONTINUOUS
 62
     7
100
AcDbLine
 10
-1.604888397058292
 20
0.941212003581797
 30
0.0
 11
-1.664525228355464
 21
0.941212003581797
 31
0.0
  0
LINE
  5
52B
330
1A
100
AcDbEntity
  8
1_TOP
  6
CONTINUOUS
 62
     7
100
AcDbLine
 10
-1.604888397058292
 20
1.608576544288239
 30
0.0
 11
-1.604888397058292
 21
1.280100663968879
 31
0.0
  0
LINE
  5
52C
330
1A
100
AcDbEntity
  8
1_TOP
  6
CONTINUOUS
 62
     7
100
AcDbLine
 10
-0.0287721413473205
 20
1.848070485846713
 30
0.0
 11
-0.0287721413473205
 21
1.708917879486678
 31
0.0
  0
LINE
  5
52D
330
1A
100
AcDbEntity
  8
1_TOP
  6
CONTINUOUS
 62
     7
100
AcDbLine
 10
-1.750667318006932
 20
-0.8138147460206877
 30
0.0
 11
-1.750667318006932
 21
-0.2799231134555289
 31
0.0
  0
LINE
  5
52E
330
1A
100
AcDbEntity
  8
1_TOP
  6
CONTINUOUS
 62
     7
100
AcDbLine
 10
-1.664525228355464
 20
2.088511043775014
 30
0.0
 11
-1.664525228355464
 21
2.176546366166072
 31
0.0
  0
LINE
  5
52F
330
1A
100
AcDbEntity
  8
1_TOP
  6
CONTINUOUS
 62
     7
100
AcDbLine
 10
-1.675884624793018
 20
2.083777961926051
 30
0.0
 11
-1.719428977803652
 21
2.083777961926051
 31
0.0
  0
LINE
  5
530
330
1A
100
AcDbEntity
  8
1_TOP
  6
CONTINUOUS
 62
     7
100
AcDbLine
 10
-1.604888397058292
 20
0.0457129177544272
 30
0.0
 11
-1.601101931579106
 21
0.0513926159732056
 31
0.0
  0
LINE
  5
531
330
1A
100
AcDbEntity
  8
1_TOP
  6
CONTINUOUS
 62
     7
100
AcDbLine
 10
-0.113020998259197
 20
0.6070564250436804
 30
0.0
 11
-0.0912488217538803
 21
0.612736123262458
 31
0.0
  0
LINE
  5
532
330
1A
100
AcDbEntity
  8
1_TOP
  6
CONTINUOUS
 62
     7
100
AcDbLine
 10
-0.9403637054612307
 20
-0.4522072927584697
 30
0.0
 11
-0.9403637054612307
 21
-0.4531539091282624
 31
0.0
  0
LINE
  5
533
330
1A
100
AcDbEntity
  8
1_TOP
  6
CONTINUOUS
 62
     7
100
AcDbLine
 10
-0.9403637054612307
 20
-0.607452377405074
 30
0.0
 11
-0.8154103446481107
 21
-0.607452377405074
 31
0.0
  0
LINE
  5
534
330
1A
100
AcDbEntity
  8
1_TOP
  6
CONTINUOUS
 62
     7
100
AcDbLine
 10
-1.664525228355464
 20
1.608576544288239
 30
0.0
 11
-1.604888397058292
 21
1.608576544288239
 31
0.0
  0
LINE
  5
535
330
1A
100
AcDbEntity
  8
1_TOP
  6
CONTINUOUS
 62
     7
100
AcDbLine
 10
-1.724162059652637
 20
1.044393187889602
 30
0.0
 11
-1.724162059652637
 21
1.176919479661098
 31
0.0
  0
LINE
  5
536
330
1A
100
AcDbEntity
  8
1_TOP
  6
CONTINUOUS
 62
     7
100
AcDbLine
 10
-1.604888397058292
 20
2.451065113407008
 30
0.0
 11
-1.604888397058292
 21
2.176546366166072
 31
0.0
  0
LINE
  5
537
330
1A
100
AcDbEntity
  8
1_TOP
  6
CONTINUOUS
 62
     7
100
AcDbLine
 10
-0.113020998259197
 20
2.169920051577497
 30
0.0
 11
-0.1546721185302422
 21
2.169920051577497
 31
0.0
  0
LINE
  5
538
330
1A
100
AcDbEntity
  8
1_TOP
  6
CONTINUOUS
 62
     7
100
AcDbLine
 10
-0.0884089726444926
 20
1.692825401200121
 30
0.0
 11
-0.0912488217538803
 21
1.696611866679301
 31
0.0
  0
LINE
  5
539
330
1A
100
AcDbEntity
  8
1_TOP
  6
CONTINUOUS
 62
     7
100
AcDbLine
 10
-1.667365077464853
 20
-0.225019364007337
 30
0.0
 11
-1.667365077464853
 21
0.1299617746663055
 31
0.0
  0
LINE
  5
53A
330
1A
100
AcDbEntity
  8
1_TOP
  6
CONTINUOUS
 62
     7
100
AcDbLine
 10
-1.664525228355464
 20
0.1328016237756947
 30
0.0
 11
-1.664525228355464
 21
0.0457129177544272
 31
0.0
  0
LINE
  5
53B
330
1A
100
AcDbEntity
  8
1_TOP
  6
CONTINUOUS
 62
     7
100
AcDbLine
 10
-0.9280576926538783
 20
-0.607452377405074
 30
0.0
 11
-0.9280576926538783
 21
-0.5790538863111827
 31
0.0
  0
LINE
  5
53C
330
1A
100
AcDbEntity
  8
1_TOP
  6
CONTINUOUS
 62
     7
100
AcDbLine
 10
-0.8277163574554622
 20
2.702865067772862
 30
0.0
 11
-0.9280576926538783
 21
2.702865067772862
 31
0.0
  0
LINE
  5
53D
330
1A
100
AcDbEntity
  8
1_TOP
  6
CONTINUOUS
 62
     7
100
AcDbLine
 10
-0.9280576926538783
 20
-0.4806057838523619
 30
0.0
 11
-0.9280576926538783
 21
-0.4531539091282624
 31
0.0
  0
LINE
  5
53E
330
1A
100
AcDbEntity
  8
1_TOP
  6
CONTINUOUS
 62
     7
100
AcDbLine
 10
-1.667365077464853
 20
1.025460860493675
 30
0.0
 11
-1.667365077464853
 21
0.3003527212296493
 31
0.0
  0
LINE
  5
53F
330
1A
100
AcDbEntity
  8
1_TOP
  6
CONTINUOUS
 62
     7
100
AcDbLine
 10
-1.672098159313832
 20
0.1413211711038602
 30
0.0
 11
-1.716589128694263
 21
0.1413211711038602
 31
0.0
  0
LINE
  5
540
330
1A
100
AcDbEntity
  8
1_TOP
  6
CONTINUOUS
 62
     7
100
AcDbLine
 10
-0.9280576926538783
 20
-0.4522072927584697
 30
0.0
 11
-0.9280576926538783
 21
-0.4806057838523619
 31
0.0
  0
LINE
  5
541
330
1A
100
AcDbEntity
  8
1_TOP
  6
CONTINUOUS
 62
     7
100
AcDbLine
 10
-0.0051067321024136
 20
-0.8299072243072229
 30
0.0
 11
-1.750667318006932
 21
-0.8299072243072229
 31
0.0
  0
LINE
  5
542
330
1A
100
AcDbEntity
  8
1_TOP
  6
CONTINUOUS
 62
     7
100
AcDbLine
 10
-0.7387344186946066
 20
-0.5298298350817723
 30
0.0
 11
-0.7377878023248094
 21
-0.5298298350817723
 31
0.0
  0
LINE
  5
543
330
1A
100
AcDbEntity
  8
1_TOP
  6
CONTINUOUS
 62
     7
100
AcDbLine
 10
-0.0051067321024136
 20
2.53531397031889
 30
0.0
 11
-0.0051067321024136
 21
2.500289164636424
 31
0.0
  0
LINE
  5
544
330
1A
100
AcDbEntity
  8
1_TOP
  6
CONTINUOUS
 62
     7
100
AcDbLine
 10
-1.604888397058292
 20
0.0457129177544272
 30
0.0
 11
-1.664525228355464
 21
0.0457129177544272
 31
0.0
  0
LINE
  5
545
330
1A
100
AcDbEntity
  8
1_TOP
  6
CONTINUOUS
 62
     7
100
AcDbLine
 10
-0.9280576926538783
 20
2.800366553861896
 30
0.0
 11
-0.9280576926538783
 21
2.828765044955781
 31
0.0
  0
LINE
  5
546
330
1A
100
AcDbEntity
  8
1_TOP
  6
CONTINUOUS
 62
     7
100
AcDbLine
 10
-0.0287721413473205
 20
0.5123947880640425
 30
0.0
 11
-0.0287721413473205
 21
0.3732421817039705
 31
0.0
  0
LINE
  5
547
330
1A
100
AcDbEntity
  8
1_TOP
  6
CONTINUOUS
 62
     7
100
AcDbLine
 10
-0.8154103446481107
 20
-0.4531539091282624
 30
0.0
 11
-0.9403637054612307
 21
-0.4531539091282624
 31
0.0
  0
LINE
  5
548
330
1A
100
AcDbEntity
  8
1_TOP
  6
CONTINUOUS
 62
     7
100
AcDbLine
 10
-1.664525228355464
 20
0.941212003581797
 30
0.0
 11
-1.664525228355464
 21
1.028300709603065
 31
0.0
  0
LINE
  5
549
330
1A
100
AcDbEntity
  8
1_TOP
  6
CONTINUOUS
 62
     7
100
AcDbLine
 10
-0.8286629738252599
 20
-0.4806057838523619
 30
0.0
 11
-0.8277163574554622
 21
-0.4806057838523619
 31
0.0
  0
LINE
  5
54A
330
1A
100
AcDbEntity
  8
1_TOP
  6
CONTINUOUS
 62
     7
100
AcDbLine
 10
-1.672098159313832
 20
0.1413211711038602
 30
0.0
 11
-1.675884624793018
 21
0.1375347056246728
 31
0.0
  0
LINE
  5
54B
330
1A
100
AcDbEntity
  8
1_TOP
  6
CONTINUOUS
 62
     7
100
AcDbLine
 10
-0.9403637054612307
 20
-0.3764779831747602
 30
0.0
 11
-0.9403637054612307
 21
-0.3821576813935359
 31
0.0
  0
LINE
  5
54C
330
1A
100
AcDbEntity
  8
1_TOP
  6
CONTINUOUS
 62
     7
100
AcDbLine
 10
-0.8277163574554622
 20
2.800366553861896
 30
0.0
 11
-0.8277163574554622
 21
2.828765044955781
 31
0.0
  0
LINE
  5
54D
330
1A
100
AcDbEntity
  8
1_TOP
  6
CONTINUOUS
 62
     7
100
AcDbLine
 10
-1.664525228355464
 20
0.612736123262458
 30
0.0
 11
-1.664525228355464
 21
0.2975128721202608
 31
0.0
  0
LINE
  5
54E
330
1A
100
AcDbEntity
  8
1_TOP
  6
CONTINUOUS
 62
     7
100
AcDbLine
 10
-0.8002644827313684
 20
-0.2799231134555289
 30
0.0
 11
-0.8002644827313684
 21
-0.2780298807159343
 31
0.0
  0
LINE
  5
54F
330
1A
100
AcDbEntity
  8
1_TOP
  6
CONTINUOUS
 62
     7
100
AcDbLine
 10
-1.672098159313832
 20
0.2889933247920947
 30
0.0
 11
-1.675884624793018
 21
0.2927797902712826
 31
0.0
  0
LINE
  5
550
330
1A
100
AcDbEntity
  8
1_TOP
  6
CONTINUOUS
 62
     7
100
AcDbLine
 10
-0.9280576926538783
 20
-0.5790538863111827
 30
0.0
 11
-0.9280576926538783
 21
-0.607452377405074
 31
0.0
  0
LINE
  5
551
330
1A
100
AcDbEntity
  8
1_TOP
  6
CONTINUOUS
 62
     7
100
AcDbLine
 10
-0.8154103446481107
 20
-0.2922291262628818
 30
0.0
 11
-0.8154103446481107
 21
-0.2950689753722704
 31
0.0
  0
LINE
  5
552
330
1A
100
AcDbEntity
  8
1_TOP
  6
CONTINUOUS
 62
     7
100
AcDbLine
 10
-1.750667318006932
 20
-0.2799231134555289
 30
0.0
 11
-0.9555095673779764
 21
-0.2799231134555289
 31
0.0
  0
LINE
  5
553
330
1A
100
AcDbEntity
  8
1_TOP
  6
CONTINUOUS
 62
     7
100
AcDbLine
 10
-0.9403637054612307
 20
2.829711661325562
 30
0.0
 11
-0.9403637054612307
 21
2.828765044955781
 31
0.0
  0
LINE
  5
554
330
1A
100
AcDbEntity
  8
1_TOP
  6
CONTINUOUS
 62
     7
100
AcDbLine
 10
-1.750667318006932
 20
3.07015221925387
 30
0.0
 11
-0.0051067321024136
 21
3.07015221925387
 31
0.0
  0
LINE
  5
555
330
1A
100
AcDbEntity
  8
1_TOP
  6
CONTINUOUS
 62
     7
100
AcDbLine
 10
-0.8286629738252599
 20
-0.4522072927584697
 30
0.0
 11
-0.8286629738252599
 21
-0.4806057838523619
 31
0.0
  0
LINE
  5
556
330
1A
100
AcDbEntity
  8
1_TOP
  6
CONTINUOUS
 62
     7
100
AcDbLine
 10
-1.716589128694263
 20
0.2889933247920947
 30
0.0
 11
-1.719428977803652
 21
0.2927797902712826
 31
0.0
  0
LINE
  5
557
330
1A
100
AcDbEntity
  8
1_TOP
  6
CONTINUOUS
 62
     7
100
AcDbLine
 10
-1.672098159313832
 20
1.932319342758589
 30
0.0
 11
-1.675884624793018
 21
1.928532877279409
 31
0.0
  0
LINE
  5
558
330
1A
100
AcDbEntity
  8
1_TOP
  6
CONTINUOUS
 62
     7
100
AcDbLine
 10
-0.9403637054612307
 20
2.94235900933133
 30
0.0
 11
-0.8154103446481107
 21
2.94235900933133
 31
0.0
  0
LINE
  5
559
330
1A
100
AcDbEntity
  8
1_TOP
  6
CONTINUOUS
 62
     7
100
AcDbLine
 10
-1.667365077464853
 20
0.1299617746663055
 30
0.0
 11
-1.664525228355464
 21
0.1328016237756947
 31
0.0
  0
LINE
  5
55A
330
1A
100
AcDbEntity
  8
1_TOP
  6
CONTINUOUS
 62
     7
100
AcDbLine
 10
-0.0363450723056942
 20
1.700398332158477
 30
0.0
 11
-0.0808360416861203
 21
1.700398332158477
 31
0.0
  0
LINE
  5
55B
330
1A
100
AcDbEntity
  8
1_TOP
  6
CONTINUOUS
 62
     7
100
AcDbLine
 10
-0.8286629738252599
 20
2.701918451403082
 30
0.0
 11
-0.9280576926538783
 21
2.701918451403082
 31
0.0
  0
LINE
  5
55C
330
1A
100
AcDbEntity
  8
1_TOP
  6
CONTINUOUS
 62
     7
100
AcDbLine
 10
-1.716589128694263
 20
1.036820256931235
 30
0.0
 11
-1.719428977803652
 21
1.03303379145205
 31
0.0
  0
LINE
  5
55D
330
1A
100
AcDbEntity
  8
1_TOP
  6
CONTINUOUS
 62
     7
100
AcDbLine
 10
-0.9403637054612307
 20
2.883668794403997
 30
0.0
 11
-0.8154103446481107
 21
2.883668794403997
 31
0.0
  0
LINE
  5
55E
330
1A
100
AcDbEntity
  8
1_TOP
  6
CONTINUOUS
 62
     7
100
AcDbLine
 10
-0.9403637054612307
 20
2.618616210860979
 30
0.0
 11
-0.8154103446481107
 21
2.618616210860979
 31
0.0
  0
LINE
  5
55F
330
1A
100
AcDbEntity
  8
1_TOP
  6
CONTINUOUS
 62
     7
100
AcDbLine
 10
-0.0391849214150839
 20
1.852803567695726
 30
0.0
 11
-0.0836758907955093
 21
1.852803567695726
 31
0.0
  0
LINE
  5
560
330
1A
100
AcDbEntity
  8
1_TOP
  6
CONTINUOUS
 62
     7
100
AcDbLine
 10
-0.0836758907955093
 20
1.704184797637658
 30
0.0
 11
-0.0391849214150839
 21
1.704184797637658
 31
0.0
  0
LINE
  5
561
330
1A
100
AcDbEntity
  8
1_TOP
  6
CONTINUOUS
 62
     7
100
AcDbLine
 10
-1.604888397058292
 20
2.176546366166072
 30
0.0
 11
-1.664525228355464
 21
2.176546366166072
 31
0.0
  0
LINE
  5
562
330
1A
100
AcDbEntity
  8
1_TOP
  6
CONTINUOUS
 62
     7
100
AcDbLine
 10
-1.727948525131818
 20
0.1451076365830476
 30
0.0
 11
-1.724162059652637
 21
0.1488941020622337
 31
0.0
  0
LINE
  5
563
330
1A
100
AcDbEntity
  8
1_TOP
  6
CONTINUOUS
 62
     7
100
AcDbLine
 10
-1.642753051850148
 20
0.0513926159732056
 30
0.0
 11
-1.642753051850148
 21
0.6070564250436804
 31
0.0
  0
LINE
  5
564
330
1A
100
AcDbEntity
  8
1_TOP
  6
CONTINUOUS
 62
     7
100
AcDbLine
 10
-0.9403637054612307
 20
2.970757500425212
 30
0.0
 11
-0.9403637054612307
 21
2.967917651315874
 31
0.0
  0
LINE
  5
565
330
1A
100
AcDbEntity
  8
1_TOP
  6
CONTINUOUS
 62
     7
100
AcDbLine
 10
-0.0912488217538803
 20
0.612736123262458
 30
0.0
 11
-0.0912488217538803
 21
0.941212003581797
 31
0.0
  0
LINE
  5
566
330
1A
100
AcDbEntity
  8
1_TOP
  6
CONTINUOUS
 62
     7
100
AcDbLine
 10
-1.750667318006932
 20
2.501235781006204
 30
0.0
 11
-0.9555095673779764
 21
2.501235781006204
 31
0.0
  0
LINE
  5
567
330
1A
100
AcDbEntity
  8
1_TOP
  6
CONTINUOUS
 62
     7
100
AcDbLine
 10
-0.8154103446481107
 20
2.531527504839703
 30
0.0
 11
-0.8154103446481107
 21
2.53531397031889
 31
0.0
  0
LINE
  5
568
330
1A
100
AcDbEntity
  8
1_TOP
  6
CONTINUOUS
 62
     7
100
AcDbLine
 10
-0.8286629738252599
 20
2.828765044955781
 30
0.0
 11
-0.8277163574554622
 21
2.828765044955781
 31
0.0
  0
LINE
  5
569
330
1A
100
AcDbEntity
  8
1_TOP
  6
CONTINUOUS
 62
     7
100
AcDbLine
 10
-0.9555095673779764
 20
2.499342548266635
 30
0.0
 11
-0.8002644827313684
 21
2.499342548266635
 31
0.0
  0
LINE
  5
56A
330
1A
100
AcDbEntity
  8
1_TOP
  6
CONTINUOUS
 62
     7
100
AcDbLine
 10
-0.9403637054612307
 20
2.531527504839703
 30
0.0
 11
-0.9403637054612307
 21
2.53531397031889
 31
0.0
  0
LINE
  5
56B
330
1A
100
AcDbEntity
  8
1_TOP
  6
CONTINUOUS
 62
     7
100
AcDbLine
 10
-1.750667318006932
 20
2.966971034946035
 30
0.0
 11
-1.750667318006932
 21
2.536260586688665
 31
0.0
  0
LINE
  5
56C
330
1A
100
AcDbEntity
  8
1_TOP
  6
CONTINUOUS
 62
     7
100
AcDbLine
 10
-0.0912488217538803
 20
1.608576544288239
 30
0.0
 11
-0.1518322694208529
 21
1.608576544288239
 31
0.0
  0
LINE
  5
56D
330
1A
100
AcDbEntity
  8
1_TOP
  6
CONTINUOUS
 62
     7
100
AcDbLine
 10
-0.1518322694208529
 20
0.0457129177544272
 30
0.0
 11
-0.1546721185302422
 21
0.0513926159732056
 31
0.0
  0
LINE
  5
56E
330
1A
100
AcDbEntity
  8
1_TOP
  6
CONTINUOUS
 62
     7
100
AcDbLine
 10
-1.719428977803652
 20
1.03303379145205
 30
0.0
 11
-1.675884624793018
 21
1.03303379145205
 31
0.0
  0
LINE
  5
56F
330
1A
100
AcDbEntity
  8
1_TOP
  6
CONTINUOUS
 62
     7
100
AcDbLine
 10
-0.9403637054612307
 20
2.899761272690502
 30
0.0
 11
-0.8154103446481107
 21
2.899761272690502
 31
0.0
  0
LINE
  5
570
330
1A
100
AcDbEntity
  8
1_TOP
  6
CONTINUOUS
 62
     7
100
AcDbLine
 10
-0.0912488217538803
 20
1.280100663968879
 30
0.0
 11
-0.1518322694208529
 21
1.280100663968879
 31
0.0
  0
LINE
  5
571
330
1A
100
AcDbEntity
  8
1_TOP
  6
CONTINUOUS
 62
     7
100
AcDbLine
 10
-0.8286629738252599
 20
2.828765044955781
 30
0.0
 11
-0.8286629738252599
 21
2.800366553861896
 31
0.0
  0
LINE
  5
572
330
1A
100
AcDbEntity
  8
1_TOP
  6
CONTINUOUS
 62
     7
100
AcDbLine
 10
-1.642753051850148
 20
1.614256242507039
 30
0.0
 11
-1.664525228355464
 21
1.608576544288239
 31
0.0
  0
LINE
  5
573
330
1A
100
AcDbEntity
  8
1_TOP
  6
CONTINUOUS
 62
     7
100
AcDbLine
 10
-0.0912488217538803
 20
0.1328016237756947
 30
0.0
 11
-0.0912488217538803
 21
0.0457129177544272
 31
0.0
  0
LINE
  5
574
330
1A
100
AcDbEntity
  8
1_TOP
  6
CONTINUOUS
 62
     7
100
AcDbLine
 10
-0.8154103446481107
 20
-0.749444832874532
 30
0.0
 11
-0.8154103446481107
 21
-0.7456583673953452
 31
0.0
  0
LINE
  5
575
330
1A
100
AcDbEntity
  8
1_TOP
  6
CONTINUOUS
 62
     7
100
AcDbLine
 10
-0.113020998259197
 20
0.0513926159732056
 30
0.0
 11
-0.1546721185302422
 21
0.0513926159732056
 31
0.0
  0
LINE
  5
576
330
1A
100
AcDbEntity
  8
1_TOP
  6
CONTINUOUS
 62
     7
100
AcDbLine
 10
-0.0391849214150839
 20
0.51712786991302
 30
0.0
 11
-0.0836758907955093
 21
0.51712786991302
 31
0.0
  0
LINE
  5
577
330
1A
100
AcDbEntity
  8
1_TOP
  6
CONTINUOUS
 62
     7
100
AcDbLine
 10
-1.667365077464853
 20
1.195851807056998
 30
0.0
 11
-1.664525228355464
 21
1.193011957947654
 31
0.0
  0
LINE
  5
578
330
1A
100
AcDbEntity
  8
1_TOP
  6
CONTINUOUS
 62
     7
100
AcDbLine
 10
-0.0836758907955093
 20
0.3685090998549929
 30
0.0
 11
-0.0391849214150839
 21
0.3685090998549929
 31
0.0
  0
LINE
  5
579
330
1A
100
AcDbEntity
  8
1_TOP
  6
CONTINUOUS
 62
     7
100
AcDbLine
 10
-1.727948525131818
 20
1.180705945140279
 30
0.0
 11
-1.727948525131818
 21
1.041553338780213
 31
0.0
  0
LINE
  5
57A
330
1A
100
AcDbEntity
  8
1_TOP
  6
CONTINUOUS
 62
     7
100
AcDbLine
 10
-0.9555095673779764
 20
2.499342548266635
 30
0.0
 11
-0.9555095673779764
 21
2.501235781006204
 31
0.0
  0
LINE
  5
57B
330
1A
100
AcDbEntity
  8
1_TOP
  6
CONTINUOUS
 62
     7
100
AcDbLine
 10
-0.113020998259197
 20
0.9468917018005765
 30
0.0
 11
-0.1546721185302422
 21
0.9468917018005765
 31
0.0
  0
LINE
  5
57C
330
1A
100
AcDbEntity
  8
1_TOP
  6
CONTINUOUS
 62
     7
100
AcDbLine
 10
-1.65979214650648
 20
-0.23259229496571
 30
0.0
 11
-0.095981903602866
 21
-0.23259229496571
 31
0.0
  0
LINE
  5
57D
330
1A
100
AcDbEntity
  8
1_TOP
  6
CONTINUOUS
 62
     7
100
AcDbLine
 10
-0.8002644827313684
 20
2.501235781006204
 30
0.0
 11
-0.8002644827313684
 21
2.499342548266635
 31
0.0
  0
LINE
  5
57E
330
1A
100
AcDbEntity
  8
1_TOP
  6
CONTINUOUS
 62
     7
100
AcDbLine
 10
-0.9403637054612307
 20
2.516381642922978
 30
0.0
 11
-0.9403637054612307
 21
2.514488410183366
 31
0.0
  0
LINE
  5
57F
330
1A
100
AcDbEntity
  8
1_TOP
  6
CONTINUOUS
 62
     7
100
AcDbLine
 10
-0.1518322694208529
 20
0.941212003581797
 30
0.0
 11
-0.0912488217538803
 21
0.941212003581797
 31
0.0
  0
LINE
  5
580
330
1A
100
AcDbEntity
  8
1_TOP
  6
CONTINUOUS
 62
     7
100
AcDbLine
 10
-0.0912488217538803
 20
2.451065113407008
 30
0.0
 11
-0.0912488217538803
 21
2.176546366166072
 31
0.0
  0
LINE
  5
581
330
1A
100
AcDbEntity
  8
1_TOP
  6
CONTINUOUS
 62
     7
100
AcDbLine
 10
-1.750667318006932
 20
-0.8299072243072229
 30
0.0
 11
-1.750667318006932
 21
-0.8289606079374285
 31
0.0
  0
LINE
  5
582
330
1A
100
AcDbEntity
  8
1_TOP
  6
CONTINUOUS
 62
     7
100
AcDbLine
 10
-0.8154103446481107
 20
2.904494354539465
 30
0.0
 11
-0.8154103446481107
 21
2.899761272690502
 31
0.0
  0
LINE
  5
583
330
1A
100
AcDbEntity
  8
1_TOP
  6
CONTINUOUS
 62
     7
100
AcDbLine
 10
-0.9403637054612307
 20
2.597790650725455
 30
0.0
 11
-0.9403637054612307
 21
2.603470348944262
 31
0.0
  0
LINE
  5
584
330
1A
100
AcDbEntity
  8
1_TOP
  6
CONTINUOUS
 62
     7
100
AcDbLine
 10
-1.01893286415433
 20
-0.5298298350817723
 30
0.0
 11
-1.017986247784538
 21
-0.5298298350817723
 31
0.0
  0
LINE
  5
585
330
1A
100
AcDbEntity
  8
1_TOP
  6
CONTINUOUS
 62
     7
100
AcDbLine
 10
-1.675884624793018
 20
1.188278876098636
 30
0.0
 11
-1.719428977803652
 21
1.188278876098636
 31
0.0
  0
LINE
  5
586
330
1A
100
AcDbEntity
  8
1_TOP
  6
CONTINUOUS
 62
     7
100
AcDbLine
 10
-1.664525228355464
 20
-0.2297524458563207
 30
0.0
 11
-1.664525228355464
 21
0.0457129177544272
 31
0.0
  0
LINE
  5
587
330
1A
100
AcDbEntity
  8
1_TOP
  6
CONTINUOUS
 62
     7
100
AcDbLine
 10
-0.1546721185302422
 20
1.274420965750131
 30
0.0
 11
-0.1546721185302422
 21
1.614256242507039
 31
0.0
  0
LINE
  5
588
330
1A
100
AcDbEntity
  8
1_TOP
  6
CONTINUOUS
 62
     7
100
AcDbLine
 10
-0.0912488217538803
 20
1.696611866679301
 30
0.0
 11
-0.0912488217538803
 21
1.860376498654088
 31
0.0
  0
LINE
  5
589
330
1A
100
AcDbEntity
  8
1_TOP
  6
CONTINUOUS
 62
     7
100
AcDbLine
 10
-1.664525228355464
 20
0.612736123262458
 30
0.0
 11
-1.604888397058292
 21
0.612736123262458
 31
0.0
  0
LINE
  5
58A
330
1A
100
AcDbEntity
  8
1_TOP
  6
CONTINUOUS
 62
     7
100
AcDbLine
 10
-0.0287721413473205
 20
1.708917879486678
 30
0.0
 11
-0.0287721413473205
 21
1.848070485846713
 31
0.0
  0
LINE
  5
58B
330
1A
100
AcDbEntity
  8
1_TOP
  6
CONTINUOUS
 62
     7
100
AcDbLine
 10
-0.1546721185302422
 20
2.169920051577497
 30
0.0
 11
-0.1518322694208529
 21
2.176546366166072
 31
0.0
  0
LINE
  5
58C
330
1A
100
AcDbEntity
  8
1_TOP
  6
CONTINUOUS
 62
     7
100
AcDbLine
 10
-1.716589128694263
 20
2.080938112816657
 30
0.0
 11
-1.719428977803652
 21
2.083777961926051
 31
0.0
  0
LINE
  5
58D
330
1A
100
AcDbEntity
  8
1_TOP
  6
CONTINUOUS
 62
     7
100
AcDbLine
 10
-1.724162059652637
 20
1.939892273716947
 30
0.0
 11
-1.724162059652637
 21
2.072418565488458
 31
0.0
  0
LINE
  5
58E
330
1A
100
AcDbEntity
  8
1_TOP
  6
CONTINUOUS
 62
     7
100
AcDbLine
 10
-0.9403637054612307
 20
-0.444634361800097
 30
0.0
 11
-0.8154103446481107
 21
-0.444634361800097
 31
0.0
  0
LINE
  5
58F
330
1A
100
AcDbEntity
  8
1_TOP
  6
CONTINUOUS
 62
     7
100
AcDbLine
 10
-1.750667318006932
 20
-0.8488395517031506
 30
0.0
 11
-0.0051067321024136
 21
-0.8488395517031506
 31
0.0
  0
LINE
  5
590
330
1A
100
AcDbEntity
  8
1_TOP
  6
CONTINUOUS
 62
     7
100
AcDbLine
 10
-1.601101931579106
 20
1.614256242507039
 30
0.0
 11
-1.642753051850148
 21
1.614256242507039
 31
0.0
  0
LINE
  5
591
330
1A
100
AcDbEntity
  8
1_TOP
  6
CONTINUOUS
 62
     7
100
AcDbLine
 10
-1.716589128694263
 20
0.2889933247920947
 30
0.0
 11
-1.672098159313832
 21
0.2889933247920947
 31
0.0
  0
LINE
  5
592
330
1A
100
AcDbEntity
  8
1_TOP
  6
CONTINUOUS
 62
     7
100
AcDbLine
 10
-0.0051067321024136
 20
-0.2799231134555289
 30
0.0
 11
-0.0051067321024136
 21
-0.8138147460206877
 31
0.0
  0
LINE
  5
593
330
1A
100
AcDbEntity
  8
1_TOP
  6
CONTINUOUS
 62
     7
100
AcDbLine
 10
-0.8286629738252599
 20
-0.5790538863111827
 30
0.0
 11
-0.8277163574554622
 21
-0.5790538863111827
 31
0.0
  0
LINE
  5
594
330
1A
100
AcDbEntity
  8
1_TOP
  6
CONTINUOUS
 62
     7
100
AcDbLine
 10
-0.8154103446481107
 20
-0.4522072927584697
 30
0.0
 11
-0.8154103446481107
 21
-0.4531539091282624
 31
0.0
  0
LINE
  5
595
330
1A
100
AcDbEntity
  8
1_TOP
  6
CONTINUOUS
 62
     7
100
AcDbLine
 10
-1.604888397058292
 20
0.941212003581797
 30
0.0
 11
-1.604888397058292
 21
0.612736123262458
 31
0.0
  0
LINE
  5
596
330
1A
100
AcDbEntity
  8
1_TOP
  6
CONTINUOUS
 62
     7
100
AcDbLine
 10
-1.664525228355464
 20
1.280100663968879
 30
0.0
 11
-1.604888397058292
 21
1.280100663968879
 31
0.0
  0
LINE
  5
597
330
1A
100
AcDbEntity
  8
1_TOP
  6
CONTINUOUS
 62
     7
100
AcDbLine
 10
-0.1518322694208529
 20
2.176546366166072
 30
0.0
 11
-0.0912488217538803
 21
2.176546366166072
 31
0.0
  0
LINE
  5
598
330
1A
100
AcDbEntity
  8
1_TOP
  6
CONTINUOUS
 62
     7
100
AcDbLine
 10
-1.664525228355464
 20
1.193011957947654
 30
0.0
 11
-1.664525228355464
 21
1.280100663968879
 31
0.0
  0
LINE
  5
599
330
1A
100
AcDbEntity
  8
1_TOP
  6
CONTINUOUS
 62
     7
100
AcDbLine
 10
-0.0051067321024136
 20
2.501235781006204
 30
0.0
 11
-0.0051067321024136
 21
3.035127413571403
 31
0.0
  0
LINE
  5
59A
330
1A
100
AcDbEntity
  8
1_TOP
  6
CONTINUOUS
 62
     7
100
AcDbLine
 10
-1.727948525131818
 20
0.2842602429431152
 30
0.0
 11
-1.724162059652637
 21
0.2814203938337224
 31
0.0
  0
LINE
  5
59B
330
1A
100
AcDbEntity
  8
1_TOP
  6
CONTINUOUS
 62
     7
100
AcDbLine
 10
-0.0051067321024136
 20
-0.8299072243072229
 30
0.0
 11
-0.0051067321024136
 21
-0.8289606079374285
 31
0.0
  0
LINE
  5
59C
330
1A
100
AcDbEntity
  8
1_TOP
  6
CONTINUOUS
 62
     7
100
AcDbLine
 10
-0.0836758907955093
 20
1.852803567695726
 30
0.0
 11
-0.0808360416861203
 21
1.855643416805069
 31
0.0
  0
LINE
  5
59D
330
1A
100
AcDbEntity
  8
1_TOP
  6
CONTINUOUS
 62
     7
100
AcDbLine
 10
-0.8286629738252599
 20
-0.4522072927584697
 30
0.0
 11
-0.9280576926538783
 21
-0.4522072927584697
 31
0.0
  0
LINE
  5
59E
330
1A
100
AcDbEntity
  8
1_TOP
  6
CONTINUOUS
 62
     7
100
AcDbLine
 10
-0.9403637054612307
 20
-0.749444832874532
 30
0.0
 11
-0.8154103446481107
 21
-0.749444832874532
 31
0.0
  0
LINE
  5
59F
330
1A
100
AcDbEntity
  8
1_TOP
  6
CONTINUOUS
 62
     7
100
AcDbLine
 10
-1.601101931579106
 20
2.169920051577497
 30
0.0
 11
-1.601101931579106
 21
2.448225264297607
 31
0.0
  0
LINE
  5
5A0
330
1A
100
AcDbEntity
  8
1_TOP
  6
CONTINUOUS
 62
     7
100
AcDbLine
 10
-2.253320610368811
 20
-1.10821243702736
 30
0.0
 11
-2.253320610368811
 21
3.32952510457808
 31
0.0
  0
LINE
  5
5A1
330
1A
100
AcDbEntity
  8
1_TOP
  6
CONTINUOUS
 62
     7
100
AcDbLine
 10
-0.9403637054612307
 20
2.597790650725455
 30
0.0
 11
-0.8154103446481107
 21
2.597790650725455
 31
0.0
  0
LINE
  5
5A2
330
1A
100
AcDbEntity
  8
1_TOP
  6
CONTINUOUS
 62
     7
100
AcDbLine
 10
-1.642753051850148
 20
0.9468917018005765
 30
0.0
 11
-1.664525228355464
 21
0.941212003581797
 31
0.0
  0
LINE
  5
5A3
330
1A
100
AcDbEntity
  8
1_TOP
  6
CONTINUOUS
 62
     7
100
AcDbLine
 10
-1.604888397058292
 20
1.608576544288239
 30
0.0
 11
-1.601101931579106
 21
1.614256242507039
 31
0.0
  0
LINE
  5
5A4
330
1A
100
AcDbEntity
  8
1_TOP
  6
CONTINUOUS
 62
     7
100
AcDbLine
 10
-1.727948525131818
 20
1.180705945140279
 30
0.0
 11
-1.724162059652637
 21
1.176919479661098
 31
0.0
  0
LINE
  5
5A5
330
1A
100
AcDbEntity
  8
1_TOP
  6
CONTINUOUS
 62
     7
100
AcDbLine
 10
0.4757743837541461
 20
-1.087386876891836
 30
0.0
 11
0.497546560259464
 21
-1.10821243702736
 31
0.0
  0
LINE
  5
5A6
330
1A
100
AcDbEntity
  8
1_TOP
  6
CONTINUOUS
 62
     7
100
AcDbLine
 10
-1.601101931579106
 20
2.169920051577497
 30
0.0
 11
-1.604888397058292
 21
2.176546366166072
 31
0.0
  0
LINE
  5
5A7
330
1A
100
AcDbEntity
  8
1_TOP
  6
CONTINUOUS
 62
     7
100
AcDbLine
 10
-1.664525228355464
 20
2.451065113407008
 30
0.0
 11
-1.604888397058292
 21
2.451065113407008
 31
0.0
  0
LINE
  5
5A8
330
1A
100
AcDbEntity
  8
1_TOP
  6
CONTINUOUS
 62
     7
100
AcDbLine
 10
-0.8154103446481107
 20
-0.607452377405074
 30
0.0
 11
-0.9403637054612307
 21
-0.607452377405074
 31
0.0
  0
LINE
  5
5A9
330
1A
100
AcDbEntity
  8
1_TOP
  6
CONTINUOUS
 62
     7
100
AcDbLine
 10
-0.8286629738252599
 20
2.800366553861896
 30
0.0
 11
-0.9280576926538783
 21
2.800366553861896
 31
0.0
  0
LINE
  5
5AA
330
1A
100
AcDbEntity
  8
1_TOP
  6
CONTINUOUS
 62
     7
100
AcDbLine
 10
-1.642753051850148
 20
2.169920051577497
 30
0.0
 11
-1.601101931579106
 21
2.169920051577497
 31
0.0
  0
LINE
  5
5AB
330
1A
100
AcDbEntity
  8
1_TOP
  6
CONTINUOUS
 62
     7
100
AcDbLine
 10
-0.9280576926538783
 20
2.674466576678975
 30
0.0
 11
-0.9280576926538783
 21
2.701918451403082
 31
0.0
  0
LINE
  5
5AC
330
1A
100
AcDbEntity
  8
1_TOP
  6
CONTINUOUS
 62
     7
100
AcDbLine
 10
-0.9403637054612307
 20
2.904494354539465
 30
0.0
 11
-0.9403637054612307
 21
2.899761272690502
 31
0.0
  0
LINE
  5
5AD
330
1A
100
AcDbEntity
  8
1_TOP
  6
CONTINUOUS
 62
     7
100
AcDbLine
 10
0.497546560259464
 20
3.32952510457808
 30
0.0
 11
0.4757743837541461
 21
3.308699544442556
 31
0.0
  0
LINE
  5
5AE
330
1A
100
AcDbEntity
  8
1_TOP
  6
CONTINUOUS
 62
     7
100
AcDbLine
 10
-0.0884089726444926
 20
0.3580963197872303
 30
0.0
 11
-0.0912488217538803
 21
0.36093616889662
 31
0.0
  0
LINE
  5
5AF
330
1A
100
AcDbEntity
  8
1_TOP
  6
CONTINUOUS
 62
     7
100
AcDbLine
 10
0.4445360435508662
 20
-1.118625217095117
 30
0.0
 11
-2.200310093660215
 21
-1.118625217095117
 31
0.0
  0
LINE
  5
5B0
330
1A
100
AcDbEntity
  8
1_TOP
  6
CONTINUOUS
 62
     7
100
AcDbLine
 10
-0.9403637054612307
 20
2.674466576678975
 30
0.0
 11
-0.8154103446481107
 21
2.674466576678975
 31
0.0
  0
LINE
  5
5B1
330
1A
100
AcDbEntity
  8
1_TOP
  6
CONTINUOUS
 62
     7
100
AcDbLine
 10
-0.9555095673779764
 20
-0.2780298807159343
 30
0.0
 11
-0.9555095673779764
 21
-0.2799231134555289
 31
0.0
  0
LINE
  5
5B2
330
1A
100
AcDbEntity
  8
1_TOP
  6
CONTINUOUS
 62
     7
100
AcDbLine
 10
-0.9280576926538783
 20
2.701918451403082
 30
0.0
 11
-0.9280576926538783
 21
2.702865067772862
 31
0.0
  0
LINE
  5
5B3
330
1A
100
AcDbEntity
  8
1_TOP
  6
CONTINUOUS
 62
     7
100
AcDbLine
 10
-0.8277163574554622
 20
-0.4806057838523619
 30
0.0
 11
-0.8277163574554622
 21
-0.4531539091282624
 31
0.0
  0
LINE
  5
5B4
330
1A
100
AcDbEntity
  8
1_TOP
  6
CONTINUOUS
 62
     7
100
AcDbLine
 10
-0.9403637054612307
 20
2.837284592283925
 30
0.0
 11
-0.8154103446481107
 21
2.837284592283925
 31
0.0
  0
LINE
  5
5B5
330
1A
100
AcDbEntity
  8
1_TOP
  6
CONTINUOUS
 62
     7
100
AcDbLine
 10
-0.9403637054612307
 20
2.665947029350776
 30
0.0
 11
-0.8154103446481107
 21
2.665947029350776
 31
0.0
  0
LINE
  5
5B6
330
1A
100
AcDbEntity
  8
1_TOP
  6
CONTINUOUS
 62
     7
100
AcDbLine
 10
-0.8154103446481107
 20
-0.6831816869887844
 30
0.0
 11
-0.8154103446481107
 21
-0.6784486051398043
 31
0.0
  0
LINE
  5
5B7
330
1A
100
AcDbEntity
  8
1_TOP
  6
CONTINUOUS
 62
     7
100
AcDbLine
 10
-0.8277163574554622
 20
-0.4531539091282624
 30
0.0
 11
-0.8286629738252599
 21
-0.4522072927584697
 31
0.0
  0
LINE
  5
5B8
330
1A
100
AcDbEntity
  8
1_TOP
  6
CONTINUOUS
 62
     7
100
AcDbLine
 10
-0.9403637054612307
 20
2.837284592283925
 30
0.0
 11
-0.8154103446481107
 21
2.837284592283925
 31
0.0
  0
LINE
  5
5B9
330
1A
100
AcDbEntity
  8
1_TOP
  6
CONTINUOUS
 62
     7
100
AcDbLine
 10
-1.750667318006932
 20
3.051219891857906
 30
0.0
 11
-0.0051067321024136
 21
3.051219891857906
 31
0.0
  0
LINE
  5
5BA
330
1A
100
AcDbEntity
  8
1_TOP
  6
CONTINUOUS
 62
     7
100
AcDbLine
 10
-0.9403637054612307
 20
2.665947029350776
 30
0.0
 11
-0.8154103446481107
 21
2.665947029350776
 31
0.0
  0
LINE
  5
5BB
330
1A
100
AcDbEntity
  8
1_TOP
  6
CONTINUOUS
 62
     7
100
AcDbLine
 10
-1.719428977803652
 20
0.1375347056246728
 30
0.0
 11
-1.675884624793018
 21
0.1375347056246728
 31
0.0
  0
LINE
  5
5BC
330
1A
100
AcDbEntity
  8
1_TOP
  6
CONTINUOUS
 62
     7
100
AcDbLine
 10
-1.601101931579106
 20
1.274420965750131
 30
0.0
 11
-1.601101931579106
 21
1.614256242507039
 31
0.0
  0
LINE
  5
5BD
330
1A
100
AcDbEntity
  8
1_TOP
  6
CONTINUOUS
 62
     7
100
AcDbLine
 10
-0.9280576926538783
 20
2.702865067772862
 30
0.0
 11
-0.9280576926538783
 21
2.674466576678975
 31
0.0
  0
LINE
  5
5BE
330
1A
100
AcDbEntity
  8
1_TOP
  6
CONTINUOUS
 62
     7
100
AcDbLine
 10
-1.664525228355464
 20
0.2975128721202608
 30
0.0
 11
-1.664525228355464
 21
0.1328016237756947
 31
0.0
  0
LINE
  5
5BF
330
1A
100
AcDbEntity
  8
1_TOP
  6
CONTINUOUS
 62
     7
100
AcDbLine
 10
-0.8277163574554622
 20
-0.5790538863111827
 30
0.0
 11
-0.9280576926538783
 21
-0.5790538863111827
 31
0.0
  0
LINE
  5
5C0
330
1A
100
AcDbEntity
  8
1_TOP
  6
CONTINUOUS
 62
     7
100
AcDbLine
 10
-1.65979214650648
 20
2.453904962516411
 30
0.0
 11
-0.095981903602866
 21
2.453904962516411
 31
0.0
  0
LINE
  5
5C1
330
1A
100
AcDbEntity
  8
1_TOP
  6
CONTINUOUS
 62
     7
100
AcDbLine
 10
-0.8277163574554622
 20
2.702865067772862
 30
0.0
 11
-0.8277163574554622
 21
2.674466576678975
 31
0.0
  0
LINE
  5
5C2
330
1A
100
AcDbEntity
  8
1_TOP
  6
CONTINUOUS
 62
     7
100
AcDbLine
 10
-0.9403637054612307
 20
-0.7456583673953452
 30
0.0
 11
-0.8154103446481107
 21
-0.7456583673953452
 31
0.0
  0
LINE
  5
5C3
330
1A
100
AcDbEntity
  8
1_TOP
  6
CONTINUOUS
 62
     7
100
AcDbLine
 10
-1.601101931579106
 20
-0.2259659803771352
 30
0.0
 11
-1.604888397058292
 21
-0.2297524458563207
 31
0.0
  0
LINE
  5
5C4
330
1A
100
AcDbEntity
  8
1_TOP
  6
CONTINUOUS
 62
     7
100
AcDbLine
 10
-0.0808360416861203
 20
1.855643416805069
 30
0.0
 11
-0.0363450723056942
 21
1.855643416805069
 31
0.0
  0
LINE
  5
5C5
330
1A
100
AcDbEntity
  8
1_TOP
  6
CONTINUOUS
 62
     7
100
AcDbLine
 10
-0.0391849214150839
 20
1.704184797637658
 30
0.0
 11
-0.0363450723056942
 21
1.700398332158477
 31
0.0
  0
LINE
  5
5C6
330
1A
100
AcDbEntity
  8
1_TOP
  6
CONTINUOUS
 62
     7
100
AcDbLine
 10
-0.0836758907955093
 20
0.3685090998549929
 30
0.0
 11
-0.0808360416861203
 21
0.3656692507456039
 31
0.0
  0
LINE
  5
5C7
330
1A
100
AcDbEntity
  8
1_TOP
  6
CONTINUOUS
 62
     7
100
AcDbLine
 10
-1.727948525131818
 20
1.041553338780213
 30
0.0
 11
-1.724162059652637
 21
1.044393187889602
 31
0.0
  0
LINE
  5
5C8
330
1A
100
AcDbEntity
  8
1_TOP
  6
CONTINUOUS
 62
     7
100
AcDbLine
 10
-0.8154103446481107
 20
-0.310214837289013
 30
0.0
 11
-0.8154103446481107
 21
-0.3140013027681991
 31
0.0
  0
LINE
  5
5C9
330
1A
100
AcDbEntity
  8
1_TOP
  6
CONTINUOUS
 62
     7
100
AcDbLine
 10
-1.667365077464853
 20
0.3003527212296493
 30
0.0
 11
-1.664525228355464
 21
0.2975128721202608
 31
0.0
  0
LINE
  5
5CA
330
1A
100
AcDbEntity
  8
1_TOP
  6
CONTINUOUS
 62
     7
100
AcDbLine
 10
-0.8154103446481107
 20
2.970757500425212
 30
0.0
 11
-0.8154103446481107
 21
2.967917651315874
 31
0.0
  0
LINE
  5
5CB
330
1A
100
AcDbEntity
  8
1_TOP
  6
CONTINUOUS
 62
     7
100
AcDbLine
 10
-1.727948525131818
 20
0.2842602429431152
 30
0.0
 11
-1.727948525131818
 21
0.1451076365830476
 31
0.0
  0
LINE
  5
5CC
330
1A
100
AcDbEntity
  8
1_TOP
  6
CONTINUOUS
 62
     7
100
AcDbLine
 10
-0.9403637054612307
 20
2.673519960309195
 30
0.0
 11
-0.8154103446481107
 21
2.673519960309195
 31
0.0
  0
LINE
  5
5CD
330
1A
100
AcDbEntity
  8
1_TOP
  6
CONTINUOUS
 62
     7
100
AcDbLine
 10
-0.9403637054612307
 20
-0.310214837289013
 30
0.0
 11
-0.9403637054612307
 21
-0.3140013027681991
 31
0.0
  0
LINE
  5
5CE
330
1A
100
AcDbEntity
  8
1_TOP
  6
CONTINUOUS
 62
     7
100
AcDbLine
 10
-0.8154103446481107
 20
2.837284592283925
 30
0.0
 11
-0.8154103446481107
 21
2.831604894065181
 31
0.0
  0
LINE
  5
5CF
330
1A
100
AcDbEntity
  8
1_TOP
  6
CONTINUOUS
 62
     7
100
AcDbLine
 10
-0.8154103446481107
 20
2.831604894065181
 30
0.0
 11
-0.8154103446481107
 21
2.828765044955781
 31
0.0
  0
LINE
  5
5D0
330
1A
100
AcDbEntity
  8
1_TOP
  6
CONTINUOUS
 62
     7
100
AcDbLine
 10
-0.8154103446481107
 20
-0.4522072927584697
 30
0.0
 11
-0.8154103446481107
 21
-0.450314060018874
 31
0.0
  0
LINE
  5
5D1
330
1A
100
AcDbEntity
  8
1_TOP
  6
CONTINUOUS
 62
     7
100
AcDbLine
 10
-0.8154103446481107
 20
-0.450314060018874
 30
0.0
 11
-0.8154103446481107
 21
-0.444634361800097
 31
0.0
  0
LINE
  5
5D2
330
1A
100
AcDbEntity
  8
1_TOP
  6
CONTINUOUS
 62
     7
100
AcDbLine
 10
-0.8154103446481107
 20
2.516381642922978
 30
0.0
 11
-0.8154103446481107
 21
2.526794422990747
 31
0.0
  0
LINE
  5
5D3
330
1A
100
AcDbEntity
  8
1_TOP
  6
CONTINUOUS
 62
     7
100
AcDbLine
 10
-0.8154103446481107
 20
2.526794422990747
 30
0.0
 11
-0.8154103446481107
 21
2.531527504839703
 31
0.0
  0
LINE
  5
5D4
330
1A
100
AcDbEntity
  8
1_TOP
  6
CONTINUOUS
 62
     7
100
AcDbLine
 10
0.4757743837541461
 20
-1.087386876891836
 30
0.0
 11
0.4663082200561823
 21
-1.109159053397152
 31
0.0
  0
LINE
  5
5D5
330
1A
100
AcDbEntity
  8
1_TOP
  6
CONTINUOUS
 62
     7
100
AcDbLine
 10
0.4663082200561823
 20
-1.109159053397152
 30
0.0
 11
0.4445360435508662
 21
-1.118625217095117
 31
0.0
  0
LINE
  5
5D6
330
1A
100
AcDbEntity
  8
1_TOP
  6
CONTINUOUS
 62
     7
100
AcDbLine
 10
-0.0051067321024136
 20
2.967917651315874
 30
0.0
 11
-0.0051067321024136
 21
3.019034935284846
 31
0.0
  0
LINE
  5
5D7
330
1A
100
AcDbEntity
  8
1_TOP
  6
CONTINUOUS
 62
     7
100
AcDbLine
 10
-0.0051067321024136
 20
3.019034935284846
 30
0.0
 11
-0.0051067321024136
 21
3.07015221925387
 31
0.0
  0
LINE
  5
5D8
330
1A
100
AcDbEntity
  8
1_TOP
  6
CONTINUOUS
 62
     7
100
AcDbLine
 10
-0.7302148713664361
 20
-0.5298298350817723
 30
0.0
 11
-0.7358945695852186
 21
-0.5298298350817723
 31
0.0
  0
LINE
  5
5D9
330
1A
100
AcDbEntity
  8
1_TOP
  6
CONTINUOUS
 62
     7
100
AcDbLine
 10
-0.7358945695852186
 20
-0.5298298350817723
 30
0.0
 11
-0.7377878023248094
 21
-0.5298298350817723
 31
0.0
  0
LINE
  5
5DA
330
1A
100
AcDbEntity
  8
1_TOP
  6
CONTINUOUS
 62
     7
100
AcDbLine
 10
-1.026505795112703
 20
-0.5298298350817723
 30
0.0
 11
-1.020826096893928
 21
-0.5298298350817723
 31
0.0
  0
LINE
  5
5DB
330
1A
100
AcDbEntity
  8
1_TOP
  6
CONTINUOUS
 62
     7
100
AcDbLine
 10
-1.020826096893928
 20
-0.5298298350817723
 30
0.0
 11
-1.017986247784538
 21
-0.5298298350817723
 31
0.0
  0
LINE
  5
5DC
330
1A
100
AcDbEntity
  8
1_TOP
  6
CONTINUOUS
 62
     7
100
AcDbLine
 10
-0.8154103446481107
 20
-0.3140013027681991
 30
0.0
 11
-0.8154103446481107
 21
-0.3215742337265657
 31
0.0
  0
LINE
  5
5DD
330
1A
100
AcDbEntity
  8
1_TOP
  6
CONTINUOUS
 62
     7
100
AcDbLine
 10
-0.8154103446481107
 20
-0.3215742337265657
 30
0.0
 11
-0.8154103446481107
 21
-0.3386133283829031
 31
0.0
  0
LINE
  5
5DE
330
1A
100
AcDbEntity
  8
1_TOP
  6
CONTINUOUS
 62
     7
100
AcDbLine
 10
-0.0051067321024136
 20
3.051219891857906
 30
0.0
 11
-0.0051067321024136
 21
3.057846206446487
 31
0.0
  0
LINE
  5
5DF
330
1A
100
AcDbEntity
  8
1_TOP
  6
CONTINUOUS
 62
     7
100
AcDbLine
 10
-0.0051067321024136
 20
3.057846206446487
 30
0.0
 11
-0.0051067321024136
 21
3.07015221925387
 31
0.0
  0
LINE
  5
5E0
330
1A
100
AcDbEntity
  8
1_TOP
  6
CONTINUOUS
 62
     7
100
AcDbLine
 10
-0.9403637054612307
 20
2.883668794403997
 30
0.0
 11
-0.9403637054612307
 21
2.895028190841534
 31
0.0
  0
LINE
  5
5E1
330
1A
100
AcDbEntity
  8
1_TOP
  6
CONTINUOUS
 62
     7
100
AcDbLine
 10
-0.9403637054612307
 20
2.895028190841534
 30
0.0
 11
-0.9403637054612307
 21
2.899761272690502
 31
0.0
  0
LINE
  5
5E2
330
1A
100
AcDbEntity
  8
1_TOP
  6
CONTINUOUS
 62
     7
100
AcDbLine
 10
-0.9403637054612307
 20
-0.4436877454302999
 30
0.0
 11
-0.9403637054612307
 21
-0.4493674436490807
 31
0.0
  0
LINE
  5
5E3
330
1A
100
AcDbEntity
  8
1_TOP
  6
CONTINUOUS
 62
     7
100
AcDbLine
 10
-0.9403637054612307
 20
-0.4493674436490807
 30
0.0
 11
-0.9403637054612307
 21
-0.4522072927584697
 31
0.0
  0
LINE
  5
5E4
330
1A
100
AcDbEntity
  8
1_TOP
  6
CONTINUOUS
 62
     7
100
AcDbLine
 10
-2.231548433863494
 20
-1.087386876891836
 30
0.0
 11
-2.223028886535328
 21
-1.109159053397152
 31
0.0
  0
LINE
  5
5E5
330
1A
100
AcDbEntity
  8
1_TOP
  6
CONTINUOUS
 62
     7
100
AcDbLine
 10
-2.223028886535328
 20
-1.109159053397152
 30
0.0
 11
-2.200310093660215
 21
-1.118625217095117
 31
0.0
  0
LINE
  5
5E6
330
1A
100
AcDbEntity
  8
1_TOP
  6
CONTINUOUS
 62
     7
100
AcDbLine
 10
0.4757743837541461
 20
-1.087386876891836
 30
0.0
 11
0.4663082200561823
 21
-1.092119958740821
 31
0.0
  0
LINE
  5
5E7
330
1A
100
AcDbEntity
  8
1_TOP
  6
CONTINUOUS
 62
     7
100
AcDbLine
 10
0.4663082200561823
 20
-1.092119958740821
 30
0.0
 11
0.4445360435508662
 21
-1.094013191480412
 31
0.0
  0
LINE
  5
5E8
330
1A
100
AcDbEntity
  8
1_TOP
  6
CONTINUOUS
 62
     7
100
AcDbLine
 10
-0.7377878023248094
 20
-0.5298298350817723
 30
0.0
 11
-0.7349479532154197
 21
-0.5298298350817723
 31
0.0
  0
LINE
  5
5E9
330
1A
100
AcDbEntity
  8
1_TOP
  6
CONTINUOUS
 62
     7
100
AcDbLine
 10
-0.7349479532154197
 20
-0.5298298350817723
 30
0.0
 11
-0.729268254996642
 21
-0.5298298350817723
 31
0.0
  0
LINE
  5
5EA
330
1A
100
AcDbEntity
  8
1_TOP
  6
CONTINUOUS
 62
     7
100
AcDbLine
 10
-0.9403637054612307
 20
2.674466576678975
 30
0.0
 11
-0.9403637054612307
 21
2.67162672756957
 31
0.0
  0
LINE
  5
5EB
330
1A
100
AcDbEntity
  8
1_TOP
  6
CONTINUOUS
 62
     7
100
AcDbLine
 10
-0.9403637054612307
 20
2.67162672756957
 30
0.0
 11
-0.9403637054612307
 21
2.665947029350776
 31
0.0
  0
LINE
  5
5EC
330
1A
100
AcDbEntity
  8
1_TOP
  6
CONTINUOUS
 62
     7
100
AcDbLine
 10
-0.9403637054612307
 20
-0.7210463417806395
 30
0.0
 11
-0.9403637054612307
 21
-0.7380854364369763
 31
0.0
  0
LINE
  5
5ED
330
1A
100
AcDbEntity
  8
1_TOP
  6
CONTINUOUS
 62
     7
100
AcDbLine
 10
-0.9403637054612307
 20
-0.7380854364369763
 30
0.0
 11
-0.9403637054612307
 21
-0.7456583673953452
 31
0.0
  0
LINE
  5
5EE
330
1A
100
AcDbEntity
  8
1_TOP
  6
CONTINUOUS
 62
     7
100
AcDbLine
 10
-0.9403637054612307
 20
-0.3821576813935359
 30
0.0
 11
-0.9403637054612307
 21
-0.3868907632425209
 31
0.0
  0
LINE
  5
5EF
330
1A
100
AcDbEntity
  8
1_TOP
  6
CONTINUOUS
 62
     7
100
AcDbLine
 10
-0.9403637054612307
 20
-0.3868907632425209
 30
0.0
 11
-0.9403637054612307
 21
-0.3973035433102778
 31
0.0
  0
LINE
  5
5F0
330
1A
100
AcDbEntity
  8
1_TOP
  6
CONTINUOUS
 62
     7
100
AcDbLine
 10
0.4445360435508662
 20
3.339937884645843
 30
0.0
 11
0.4445360435508662
 21
3.332364953687428
 31
0.0
  0
LINE
  5
5F1
330
1A
100
AcDbEntity
  8
1_TOP
  6
CONTINUOUS
 62
     7
100
AcDbLine
 10
0.4445360435508662
 20
3.332364953687428
 30
0.0
 11
0.4445360435508662
 21
3.315325859031141
 31
0.0
  0
LINE
  5
5F2
330
1A
100
AcDbEntity
  8
1_TOP
  6
CONTINUOUS
 62
     7
100
AcDbLine
 10
-0.8154103446481107
 20
-0.6083989937748717
 30
0.0
 11
-0.8154103446481107
 21
-0.6102922265144619
 31
0.0
  0
LINE
  5
5F3
330
1A
100
AcDbEntity
  8
1_TOP
  6
CONTINUOUS
 62
     7
100
AcDbLine
 10
-0.8154103446481107
 20
-0.6102922265144619
 30
0.0
 11
-0.8154103446481107
 21
-0.6159719247332452
 31
0.0
  0
LINE
  5
5F4
330
1A
100
AcDbEntity
  8
1_TOP
  6
CONTINUOUS
 62
     7
100
AcDbLine
 10
-1.750667318006932
 20
-0.8289606079374285
 30
0.0
 11
-1.750667318006932
 21
-0.824227526088444
 31
0.0
  0
LINE
  5
5F5
330
1A
100
AcDbEntity
  8
1_TOP
  6
CONTINUOUS
 62
     7
100
AcDbLine
 10
-1.750667318006932
 20
-0.824227526088444
 30
0.0
 11
-1.750667318006932
 21
-0.8138147460206877
 31
0.0
  0
LINE
  5
5F6
330
1A
100
AcDbEntity
  8
1_TOP
  6
CONTINUOUS
 62
     7
100
AcDbLine
 10
-2.200310093660215
 20
3.339937884645843
 30
0.0
 11
-2.223028886535328
 21
3.330471720947862
 31
0.0
  0
LINE
  5
5F7
330
1A
100
AcDbEntity
  8
1_TOP
  6
CONTINUOUS
 62
     7
100
AcDbLine
 10
-2.223028886535328
 20
3.330471720947862
 30
0.0
 11
-2.231548433863494
 21
3.308699544442556
 31
0.0
  0
LINE
  5
5F8
330
1A
100
AcDbEntity
  8
1_TOP
  6
CONTINUOUS
 62
     7
100
AcDbLine
 10
-1.131580212160104
 20
-0.5298298350817723
 30
0.0
 11
-1.148619306816435
 21
-0.5298298350817723
 31
0.0
  0
LINE
  5
5F9
330
1A
100
AcDbEntity
  8
1_TOP
  6
CONTINUOUS
 62
     7
100
AcDbLine
 10
-1.148619306816435
 20
-0.5298298350817723
 30
0.0
 11
-1.156192237774808
 21
-0.5298298350817723
 31
0.0
  0
LINE
  5
5FA
330
1A
100
AcDbEntity
  8
1_TOP
  6
CONTINUOUS
 62
     7
100
AcDbLine
 10
-0.0051067321024136
 20
-0.8299072243072229
 30
0.0
 11
-0.0051067321024136
 21
-0.8365335388957975
 31
0.0
  0
LINE
  5
5FB
330
1A
100
AcDbEntity
  8
1_TOP
  6
CONTINUOUS
 62
     7
100
AcDbLine
 10
-0.0051067321024136
 20
-0.8365335388957975
 30
0.0
 11
-0.0051067321024136
 21
-0.8488395517031506
 31
0.0
  0
LINE
  5
5FC
330
1A
100
AcDbEntity
  8
1_TOP
  6
CONTINUOUS
 62
     7
100
AcDbLine
 10
0.4757743837541461
 20
3.308699544442556
 30
0.0
 11
0.4663082200561823
 21
3.313432626291518
 31
0.0
  0
LINE
  5
5FD
330
1A
100
AcDbEntity
  8
1_TOP
  6
CONTINUOUS
 62
     7
100
AcDbLine
 10
0.4663082200561823
 20
3.313432626291518
 30
0.0
 11
0.4445360435508662
 21
3.315325859031141
 31
0.0
  0
LINE
  5
5FE
330
1A
100
AcDbEntity
  8
1_TOP
  6
CONTINUOUS
 62
     7
100
AcDbLine
 10
-0.8154103446481107
 20
2.53531397031889
 30
0.0
 11
-0.8154103446481107
 21
2.542886901277247
 31
0.0
  0
LINE
  5
5FF
330
1A
100
AcDbEntity
  8
1_TOP
  6
CONTINUOUS
 62
     7
100
AcDbLine
 10
-0.8154103446481107
 20
2.542886901277247
 30
0.0
 11
-0.8154103446481107
 21
2.560872612303376
 31
0.0
  0
LINE
  5
600
330
1A
100
AcDbEntity
  8
1_TOP
  6
CONTINUOUS
 62
     7
100
AcDbLine
 10
-0.9403637054612307
 20
2.829711661325562
 30
0.0
 11
-0.9403637054612307
 21
2.831604894065181
 31
0.0
  0
LINE
  5
601
330
1A
100
AcDbEntity
  8
1_TOP
  6
CONTINUOUS
 62
     7
100
AcDbLine
 10
-0.9403637054612307
 20
2.831604894065181
 30
0.0
 11
-0.9403637054612307
 21
2.837284592283925
 31
0.0
  0
LINE
  5
602
330
1A
100
AcDbEntity
  8
1_TOP
  6
CONTINUOUS
 62
     7
100
AcDbLine
 10
-0.9403637054612307
 20
2.837284592283925
 30
0.0
 11
-0.9403637054612307
 21
2.831604894065181
 31
0.0
  0
LINE
  5
603
330
1A
100
AcDbEntity
  8
1_TOP
  6
CONTINUOUS
 62
     7
100
AcDbLine
 10
-0.9403637054612307
 20
2.831604894065181
 30
0.0
 11
-0.9403637054612307
 21
2.828765044955781
 31
0.0
  0
LINE
  5
604
330
1A
100
AcDbEntity
  8
1_TOP
  6
CONTINUOUS
 62
     7
100
AcDbLine
 10
-0.9403637054612307
 20
2.53531397031889
 30
0.0
 11
-0.9403637054612307
 21
2.542886901277247
 31
0.0
  0
LINE
  5
605
330
1A
100
AcDbEntity
  8
1_TOP
  6
CONTINUOUS
 62
     7
100
AcDbLine
 10
-0.9403637054612307
 20
2.542886901277247
 30
0.0
 11
-0.9403637054612307
 21
2.560872612303376
 31
0.0
  0
LINE
  5
606
330
1A
100
AcDbEntity
  8
1_TOP
  6
CONTINUOUS
 62
     7
100
AcDbLine
 10
-0.8154103446481107
 20
-0.6150253083634463
 30
0.0
 11
-0.8154103446481107
 21
-0.6102922265144619
 31
0.0
  0
LINE
  5
607
330
1A
100
AcDbEntity
  8
1_TOP
  6
CONTINUOUS
 62
     7
100
AcDbLine
 10
-0.8154103446481107
 20
-0.6102922265144619
 30
0.0
 11
-0.8154103446481107
 21
-0.607452377405074
 31
0.0
  0
LINE
  5
608
330
1A
100
AcDbEntity
  8
1_TOP
  6
CONTINUOUS
 62
     7
100
AcDbLine
 10
-0.9403637054612307
 20
-0.2950689753722704
 30
0.0
 11
-0.9403637054612307
 21
-0.3054817554400324
 31
0.0
  0
LINE
  5
609
330
1A
100
AcDbEntity
  8
1_TOP
  6
CONTINUOUS
 62
     7
100
AcDbLine
 10
-0.9403637054612307
 20
-0.3054817554400324
 30
0.0
 11
-0.9403637054612307
 21
-0.310214837289013
 31
0.0
  0
LINE
  5
60A
330
1A
100
AcDbEntity
  8
1_TOP
  6
CONTINUOUS
 62
     7
100
AcDbLine
 10
-0.8154103446481107
 20
2.665947029350776
 30
0.0
 11
-0.8154103446481107
 21
2.67068011119979
 31
0.0
  0
LINE
  5
60B
330
1A
100
AcDbEntity
  8
1_TOP
  6
CONTINUOUS
 62
     7
100
AcDbLine
 10
-0.8154103446481107
 20
2.67068011119979
 30
0.0
 11
-0.8154103446481107
 21
2.673519960309195
 31
0.0
  0
LINE
  5
60C
330
1A
100
AcDbEntity
  8
1_TOP
  6
CONTINUOUS
 62
     7
100
AcDbLine
 10
-0.8154103446481107
 20
2.94235900933133
 30
0.0
 11
-0.8154103446481107
 21
2.96034472035745
 31
0.0
  0
LINE
  5
60D
330
1A
100
AcDbEntity
  8
1_TOP
  6
CONTINUOUS
 62
     7
100
AcDbLine
 10
-0.8154103446481107
 20
2.96034472035745
 30
0.0
 11
-0.8154103446481107
 21
2.967917651315874
 31
0.0
  0
LINE
  5
60E
330
1A
100
AcDbEntity
  8
1_TOP
  6
CONTINUOUS
 62
     7
100
AcDbLine
 10
0.4445360435508662
 20
-1.094013191480412
 30
0.0
 11
0.4445360435508662
 21
-1.111052286136749
 31
0.0
  0
LINE
  5
60F
330
1A
100
AcDbEntity
  8
1_TOP
  6
CONTINUOUS
 62
     7
100
AcDbLine
 10
0.4445360435508662
 20
-1.111052286136749
 30
0.0
 11
0.4445360435508662
 21
-1.118625217095117
 31
0.0
  0
LINE
  5
610
330
1A
100
AcDbEntity
  8
1_TOP
  6
CONTINUOUS
 62
     7
100
AcDbLine
 10
-0.6241938379492423
 20
-0.5298298350817723
 30
0.0
 11
-0.6071547432929093
 21
-0.5298298350817723
 31
0.0
  0
LINE
  5
611
330
1A
100
AcDbEntity
  8
1_TOP
  6
CONTINUOUS
 62
     7
100
AcDbLine
 10
-0.6071547432929093
 20
-0.5298298350817723
 30
0.0
 11
-0.5995818123345363
 21
-0.5298298350817723
 31
0.0
  0
LINE
  5
612
330
1A
100
AcDbEntity
  8
1_TOP
  6
CONTINUOUS
 62
     7
100
AcDbLine
 10
-1.175124565170736
 20
-0.5298298350817723
 30
0.0
 11
-1.164711785102975
 21
-0.5298298350817723
 31
0.0
  0
LINE
  5
613
330
1A
100
AcDbEntity
  8
1_TOP
  6
CONTINUOUS
 62
     7
100
AcDbLine
 10
-1.164711785102975
 20
-0.5298298350817723
 30
0.0
 11
-1.159978703253991
 21
-0.5298298350817723
 31
0.0
  0
LINE
  5
614
330
1A
100
AcDbEntity
  8
1_TOP
  6
CONTINUOUS
 62
     7
100
AcDbLine
 10
-1.088982475519264
 20
-0.5298298350817723
 30
0.0
 11
-1.084249393670285
 21
-0.5298298350817723
 31
0.0
  0
LINE
  5
615
330
1A
100
AcDbEntity
  8
1_TOP
  6
CONTINUOUS
 62
     7
100
AcDbLine
 10
-1.084249393670285
 20
-0.5298298350817723
 30
0.0
 11
-1.072889997232725
 21
-0.5298298350817723
 31
0.0
  0
LINE
  5
616
330
1A
100
AcDbEntity
  8
1_TOP
  6
CONTINUOUS
 62
     7
100
AcDbLine
 10
-0.8154103446481107
 20
-0.6623561268532658
 30
0.0
 11
-0.8154103446481107
 21
-0.6737155232908206
 31
0.0
  0
LINE
  5
617
330
1A
100
AcDbEntity
  8
1_TOP
  6
CONTINUOUS
 62
     7
100
AcDbLine
 10
-0.8154103446481107
 20
-0.6737155232908206
 30
0.0
 11
-0.8154103446481107
 21
-0.6784486051398043
 31
0.0
  0
LINE
  5
618
330
1A
100
AcDbEntity
  8
1_TOP
  6
CONTINUOUS
 62
     7
100
AcDbLine
 10
-0.8154103446481107
 20
2.985903362341992
 30
0.0
 11
-0.8154103446481107
 21
2.97549058227423
 31
0.0
  0
LINE
  5
619
330
1A
100
AcDbEntity
  8
1_TOP
  6
CONTINUOUS
 62
     7
100
AcDbLine
 10
-0.8154103446481107
 20
2.97549058227423
 30
0.0
 11
-0.8154103446481107
 21
2.970757500425212
 31
0.0
  0
LINE
  5
61A
330
1A
100
AcDbEntity
  8
1_TOP
  6
CONTINUOUS
 62
     7
100
AcDbLine
 10
0.4757743837541461
 20
3.308699544442556
 30
0.0
 11
0.4663082200561823
 21
3.330471720947862
 31
0.0
  0
LINE
  5
61B
330
1A
100
AcDbEntity
  8
1_TOP
  6
CONTINUOUS
 62
     7
100
AcDbLine
 10
0.4663082200561823
 20
3.330471720947862
 30
0.0
 11
0.4445360435508662
 21
3.339937884645843
 31
0.0
  0
LINE
  5
61C
330
1A
100
AcDbEntity
  8
1_TOP
  6
CONTINUOUS
 62
     7
100
AcDbLine
 10
-1.750667318006932
 20
-0.8299072243072229
 30
0.0
 11
-1.750667318006932
 21
-0.8365335388957975
 31
0.0
  0
LINE
  5
61D
330
1A
100
AcDbEntity
  8
1_TOP
  6
CONTINUOUS
 62
     7
100
AcDbLine
 10
-1.750667318006932
 20
-0.8365335388957975
 30
0.0
 11
-1.750667318006932
 21
-0.8488395517031506
 31
0.0
  0
LINE
  5
61E
330
1A
100
AcDbEntity
  8
1_TOP
  6
CONTINUOUS
 62
     7
100
AcDbLine
 10
-0.9403637054612307
 20
-0.4522072927584697
 30
0.0
 11
-0.9403637054612307
 21
-0.450314060018874
 31
0.0
  0
LINE
  5
61F
330
1A
100
AcDbEntity
  8
1_TOP
  6
CONTINUOUS
 62
     7
100
AcDbLine
 10
-0.9403637054612307
 20
-0.450314060018874
 30
0.0
 11
-0.9403637054612307
 21
-0.444634361800097
 31
0.0
  0
LINE
  5
620
330
1A
100
AcDbEntity
  8
1_TOP
  6
CONTINUOUS
 62
     7
100
AcDbLine
 10
-0.8154103446481107
 20
-0.2950689753722704
 30
0.0
 11
-0.8154103446481107
 21
-0.3054817554400324
 31
0.0
  0
LINE
  5
621
330
1A
100
AcDbEntity
  8
1_TOP
  6
CONTINUOUS
 62
     7
100
AcDbLine
 10
-0.8154103446481107
 20
-0.3054817554400324
 30
0.0
 11
-0.8154103446481107
 21
-0.310214837289013
 31
0.0
  0
LINE
  5
622
330
1A
100
AcDbEntity
  8
1_TOP
  6
CONTINUOUS
 62
     7
100
AcDbLine
 10
-0.9403637054612307
 20
2.603470348944262
 30
0.0
 11
-0.9403637054612307
 21
2.608203430793222
 31
0.0
  0
LINE
  5
623
330
1A
100
AcDbEntity
  8
1_TOP
  6
CONTINUOUS
 62
     7
100
AcDbLine
 10
-0.9403637054612307
 20
2.608203430793222
 30
0.0
 11
-0.9403637054612307
 21
2.618616210860979
 31
0.0
  0
LINE
  5
624
330
1A
100
AcDbEntity
  8
1_TOP
  6
CONTINUOUS
 62
     7
100
AcDbLine
 10
-0.8154103446481107
 20
2.603470348944262
 30
0.0
 11
-0.8154103446481107
 21
2.608203430793222
 31
0.0
  0
LINE
  5
625
330
1A
100
AcDbEntity
  8
1_TOP
  6
CONTINUOUS
 62
     7
100
AcDbLine
 10
-0.8154103446481107
 20
2.608203430793222
 30
0.0
 11
-0.8154103446481107
 21
2.618616210860979
 31
0.0
  0
LINE
  5
626
330
1A
100
AcDbEntity
  8
1_TOP
  6
CONTINUOUS
 62
     7
100
AcDbLine
 10
-0.9403637054612307
 20
2.516381642922978
 30
0.0
 11
-0.9403637054612307
 21
2.526794422990747
 31
0.0
  0
LINE
  5
627
330
1A
100
AcDbEntity
  8
1_TOP
  6
CONTINUOUS
 62
     7
100
AcDbLine
 10
-0.9403637054612307
 20
2.526794422990747
 30
0.0
 11
-0.9403637054612307
 21
2.531527504839703
 31
0.0
  0
LINE
  5
628
330
1A
100
AcDbEntity
  8
1_TOP
  6
CONTINUOUS
 62
     7
100
AcDbLine
 10
-1.750667318006932
 20
3.051219891857906
 30
0.0
 11
-1.750667318006932
 21
3.045540193639164
 31
0.0
  0
LINE
  5
629
330
1A
100
AcDbEntity
  8
1_TOP
  6
CONTINUOUS
 62
     7
100
AcDbLine
 10
-1.750667318006932
 20
3.045540193639164
 30
0.0
 11
-1.750667318006932
 21
3.035127413571403
 31
0.0
  0
LINE
  5
62A
330
1A
100
AcDbEntity
  8
1_TOP
  6
CONTINUOUS
 62
     7
100
AcDbLine
 10
-0.9403637054612307
 20
-0.6083989937748717
 30
0.0
 11
-0.9403637054612307
 21
-0.6102922265144619
 31
0.0
  0
LINE
  5
62B
330
1A
100
AcDbEntity
  8
1_TOP
  6
CONTINUOUS
 62
     7
100
AcDbLine
 10
-0.9403637054612307
 20
-0.6102922265144619
 30
0.0
 11
-0.9403637054612307
 21
-0.6159719247332452
 31
0.0
  0
LINE
  5
62C
330
1A
100
AcDbEntity
  8
1_TOP
  6
CONTINUOUS
 62
     7
100
AcDbLine
 10
-0.9403637054612307
 20
-0.6150253083634463
 30
0.0
 11
-0.9403637054612307
 21
-0.6102922265144619
 31
0.0
  0
LINE
  5
62D
330
1A
100
AcDbEntity
  8
1_TOP
  6
CONTINUOUS
 62
     7
100
AcDbLine
 10
-0.9403637054612307
 20
-0.6102922265144619
 30
0.0
 11
-0.9403637054612307
 21
-0.607452377405074
 31
0.0
  0
LINE
  5
62E
330
1A
100
AcDbEntity
  8
1_TOP
  6
CONTINUOUS
 62
     7
100
AcDbLine
 10
-0.5806494849386088
 20
-0.5298298350817723
 30
0.0
 11
-0.5910622650063708
 21
-0.5298298350817723
 31
0.0
  0
LINE
  5
62F
330
1A
100
AcDbEntity
  8
1_TOP
  6
CONTINUOUS
 62
     7
100
AcDbLine
 10
-0.5910622650063708
 20
-0.5298298350817723
 30
0.0
 11
-0.5957953468553507
 21
-0.5298298350817723
 31
0.0
  0
LINE
  5
630
330
1A
100
AcDbEntity
  8
1_TOP
  6
CONTINUOUS
 62
     7
100
AcDbLine
 10
-0.0051067321024136
 20
-0.8289606079374285
 30
0.0
 11
-0.0051067321024136
 21
-0.824227526088444
 31
0.0
  0
LINE
  5
631
330
1A
100
AcDbEntity
  8
1_TOP
  6
CONTINUOUS
 62
     7
100
AcDbLine
 10
-0.0051067321024136
 20
-0.824227526088444
 30
0.0
 11
-0.0051067321024136
 21
-0.8138147460206877
 31
0.0
  0
LINE
  5
632
330
1A
100
AcDbEntity
  8
1_TOP
  6
CONTINUOUS
 62
     7
100
AcDbLine
 10
-1.750667318006932
 20
2.967917651315874
 30
0.0
 11
-1.750667318006932
 21
3.019034935284846
 31
0.0
  0
LINE
  5
633
330
1A
100
AcDbEntity
  8
1_TOP
  6
CONTINUOUS
 62
     7
100
AcDbLine
 10
-1.750667318006932
 20
3.019034935284846
 30
0.0
 11
-1.750667318006932
 21
3.07015221925387
 31
0.0
  0
LINE
  5
634
330
1A
100
AcDbEntity
  8
1_TOP
  6
CONTINUOUS
 62
     7
100
AcDbLine
 10
-0.9403637054612307
 20
-0.7645906947912728
 30
0.0
 11
-0.9403637054612307
 21
-0.754177914723516
 31
0.0
  0
LINE
  5
635
330
1A
100
AcDbEntity
  8
1_TOP
  6
CONTINUOUS
 62
     7
100
AcDbLine
 10
-0.9403637054612307
 20
-0.754177914723516
 30
0.0
 11
-0.9403637054612307
 21
-0.749444832874532
 31
0.0
  0
LINE
  5
636
330
1A
100
AcDbEntity
  8
1_TOP
  6
CONTINUOUS
 62
     7
100
AcDbLine
 10
-1.750667318006932
 20
3.051219891857906
 30
0.0
 11
-1.750667318006932
 21
3.057846206446487
 31
0.0
  0
LINE
  5
637
330
1A
100
AcDbEntity
  8
1_TOP
  6
CONTINUOUS
 62
     7
100
AcDbLine
 10
-1.750667318006932
 20
3.057846206446487
 30
0.0
 11
-1.750667318006932
 21
3.07015221925387
 31
0.0
  0
LINE
  5
638
330
1A
100
AcDbEntity
  8
1_TOP
  6
CONTINUOUS
 62
     7
100
AcDbLine
 10
-0.8154103446481107
 20
-0.4436877454302999
 30
0.0
 11
-0.8154103446481107
 21
-0.4493674436490807
 31
0.0
  0
LINE
  5
639
330
1A
100
AcDbEntity
  8
1_TOP
  6
CONTINUOUS
 62
     7
100
AcDbLine
 10
-0.8154103446481107
 20
-0.4493674436490807
 30
0.0
 11
-0.8154103446481107
 21
-0.4522072927584697
 31
0.0
  0
LINE
  5
63A
330
1A
100
AcDbEntity
  8
1_TOP
  6
CONTINUOUS
 62
     7
100
AcDbLine
 10
-0.9403637054612307
 20
-0.3140013027681991
 30
0.0
 11
-0.9403637054612307
 21
-0.3215742337265657
 31
0.0
  0
LINE
  5
63B
330
1A
100
AcDbEntity
  8
1_TOP
  6
CONTINUOUS
 62
     7
100
AcDbLine
 10
-0.9403637054612307
 20
-0.3215742337265657
 30
0.0
 11
-0.9403637054612307
 21
-0.3386133283829031
 31
0.0
  0
LINE
  5
63C
330
1A
100
AcDbEntity
  8
1_TOP
  6
CONTINUOUS
 62
     7
100
AcDbLine
 10
-1.750667318006932
 20
-0.7466049837651429
 30
0.0
 11
-1.750667318006932
 21
-0.797722267734148
 31
0.0
  0
LINE
  5
63D
330
1A
100
AcDbEntity
  8
1_TOP
  6
CONTINUOUS
 62
     7
100
AcDbLine
 10
-1.750667318006932
 20
-0.797722267734148
 30
0.0
 11
-1.750667318006932
 21
-0.8488395517031506
 31
0.0
  0
LINE
  5
63E
330
1A
100
AcDbEntity
  8
1_TOP
  6
CONTINUOUS
 62
     7
100
AcDbLine
 10
-0.0051067321024136
 20
3.051219891857906
 30
0.0
 11
-0.0051067321024136
 21
3.045540193639164
 31
0.0
  0
LINE
  5
63F
330
1A
100
AcDbEntity
  8
1_TOP
  6
CONTINUOUS
 62
     7
100
AcDbLine
 10
-0.0051067321024136
 20
3.045540193639164
 30
0.0
 11
-0.0051067321024136
 21
3.035127413571403
 31
0.0
  0
LINE
  5
640
330
1A
100
AcDbEntity
  8
1_TOP
  6
CONTINUOUS
 62
     7
100
AcDbLine
 10
-0.9403637054612307
 20
2.665947029350776
 30
0.0
 11
-0.9403637054612307
 21
2.67068011119979
 31
0.0
  0
LINE
  5
641
330
1A
100
AcDbEntity
  8
1_TOP
  6
CONTINUOUS
 62
     7
100
AcDbLine
 10
-0.9403637054612307
 20
2.67068011119979
 30
0.0
 11
-0.9403637054612307
 21
2.673519960309195
 31
0.0
  0
LINE
  5
642
330
1A
100
AcDbEntity
  8
1_TOP
  6
CONTINUOUS
 62
     7
100
AcDbLine
 10
-0.9403637054612307
 20
2.94235900933133
 30
0.0
 11
-0.9403637054612307
 21
2.96034472035745
 31
0.0
  0
LINE
  5
643
330
1A
100
AcDbEntity
  8
1_TOP
  6
CONTINUOUS
 62
     7
100
AcDbLine
 10
-0.9403637054612307
 20
2.96034472035745
 30
0.0
 11
-0.9403637054612307
 21
2.967917651315874
 31
0.0
  0
LINE
  5
644
330
1A
100
AcDbEntity
  8
1_TOP
  6
CONTINUOUS
 62
     7
100
AcDbLine
 10
-0.8154103446481107
 20
2.674466576678975
 30
0.0
 11
-0.8154103446481107
 21
2.67162672756957
 31
0.0
  0
LINE
  5
645
330
1A
100
AcDbEntity
  8
1_TOP
  6
CONTINUOUS
 62
     7
100
AcDbLine
 10
-0.8154103446481107
 20
2.67162672756957
 30
0.0
 11
-0.8154103446481107
 21
2.665947029350776
 31
0.0
  0
LINE
  5
646
330
1A
100
AcDbEntity
  8
1_TOP
  6
CONTINUOUS
 62
     7
100
AcDbLine
 10
-0.8154103446481107
 20
-0.7210463417806395
 30
0.0
 11
-0.8154103446481107
 21
-0.7380854364369763
 31
0.0
  0
LINE
  5
647
330
1A
100
AcDbEntity
  8
1_TOP
  6
CONTINUOUS
 62
     7
100
AcDbLine
 10
-0.8154103446481107
 20
-0.7380854364369763
 30
0.0
 11
-0.8154103446481107
 21
-0.7456583673953452
 31
0.0
  0
LINE
  5
648
330
1A
100
AcDbEntity
  8
1_TOP
  6
CONTINUOUS
 62
     7
100
AcDbLine
 10
-0.8154103446481107
 20
2.883668794403997
 30
0.0
 11
-0.8154103446481107
 21
2.895028190841534
 31
0.0
  0
LINE
  5
649
330
1A
100
AcDbEntity
  8
1_TOP
  6
CONTINUOUS
 62
     7
100
AcDbLine
 10
-0.8154103446481107
 20
2.895028190841534
 30
0.0
 11
-0.8154103446481107
 21
2.899761272690502
 31
0.0
  0
LINE
  5
64A
330
1A
100
AcDbEntity
  8
1_TOP
  6
CONTINUOUS
 62
     7
100
AcDbLine
 10
-0.9403637054612307
 20
2.985903362341992
 30
0.0
 11
-0.9403637054612307
 21
2.97549058227423
 31
0.0
  0
LINE
  5
64B
330
1A
100
AcDbEntity
  8
1_TOP
  6
CONTINUOUS
 62
     7
100
AcDbLine
 10
-0.9403637054612307
 20
2.97549058227423
 30
0.0
 11
-0.9403637054612307
 21
2.970757500425212
 31
0.0
  0
LINE
  5
64C
330
1A
100
AcDbEntity
  8
1_TOP
  6
CONTINUOUS
 62
     7
100
AcDbLine
 10
-0.9403637054612307
 20
-0.6623561268532658
 30
0.0
 11
-0.9403637054612307
 21
-0.6737155232908206
 31
0.0
  0
LINE
  5
64D
330
1A
100
AcDbEntity
  8
1_TOP
  6
CONTINUOUS
 62
     7
100
AcDbLine
 10
-0.9403637054612307
 20
-0.6737155232908206
 30
0.0
 11
-0.9403637054612307
 21
-0.6784486051398043
 31
0.0
  0
LINE
  5
64E
330
1A
100
AcDbEntity
  8
1_TOP
  6
CONTINUOUS
 62
     7
100
AcDbLine
 10
-1.01893286415433
 20
-0.5298298350817723
 30
0.0
 11
-1.020826096893928
 21
-0.5298298350817723
 31
0.0
  0
LINE
  5
64F
330
1A
100
AcDbEntity
  8
1_TOP
  6
CONTINUOUS
 62
     7
100
AcDbLine
 10
-1.020826096893928
 20
-0.5298298350817723
 30
0.0
 11
-1.026505795112703
 21
-0.5298298350817723
 31
0.0
  0
LINE
  5
650
330
1A
100
AcDbEntity
  8
1_TOP
  6
CONTINUOUS
 62
     7
100
AcDbLine
 10
-0.8154103446481107
 20
2.829711661325562
 30
0.0
 11
-0.8154103446481107
 21
2.831604894065181
 31
0.0
  0
LINE
  5
651
330
1A
100
AcDbEntity
  8
1_TOP
  6
CONTINUOUS
 62
     7
100
AcDbLine
 10
-0.8154103446481107
 20
2.831604894065181
 30
0.0
 11
-0.8154103446481107
 21
2.837284592283925
 31
0.0
  0
LINE
  5
652
330
1A
100
AcDbEntity
  8
1_TOP
  6
CONTINUOUS
 62
     7
100
AcDbLine
 10
-0.6677381909598756
 20
-0.5298298350817723
 30
0.0
 11
-0.6724712728088594
 21
-0.5298298350817723
 31
0.0
  0
LINE
  5
653
330
1A
100
AcDbEntity
  8
1_TOP
  6
CONTINUOUS
 62
     7
100
AcDbLine
 10
-0.6724712728088594
 20
-0.5298298350817723
 30
0.0
 11
-0.6828840528766208
 21
-0.5298298350817723
 31
0.0
  0
LINE
  5
654
330
1A
100
AcDbEntity
  8
1_TOP
  6
CONTINUOUS
 62
     7
100
AcDbLine
 10
-0.8154103446481107
 20
-0.3821576813935359
 30
0.0
 11
-0.8154103446481107
 21
-0.3868907632425209
 31
0.0
  0
LINE
  5
655
330
1A
100
AcDbEntity
  8
1_TOP
  6
CONTINUOUS
 62
     7
100
AcDbLine
 10
-0.8154103446481107
 20
-0.3868907632425209
 30
0.0
 11
-0.8154103446481107
 21
-0.3973035433102778
 31
0.0
  0
LINE
  5
656
330
1A
100
AcDbEntity
  8
1_TOP
  6
CONTINUOUS
 62
     7
100
AcDbLine
 10
-0.0051067321024136
 20
-0.7466049837651429
 30
0.0
 11
-0.0051067321024136
 21
-0.797722267734148
 31
0.0
  0
LINE
  5
657
330
1A
100
AcDbEntity
  8
1_TOP
  6
CONTINUOUS
 62
     7
100
AcDbLine
 10
-0.0051067321024136
 20
-0.797722267734148
 30
0.0
 11
-0.0051067321024136
 21
-0.8488395517031506
 31
0.0
  0
LINE
  5
658
330
1A
100
AcDbEntity
  8
1_TOP
  6
CONTINUOUS
 62
     7
100
AcDbLine
 10
-0.8154103446481107
 20
-0.7645906947912728
 30
0.0
 11
-0.8154103446481107
 21
-0.754177914723516
 31
0.0
  0
LINE
  5
659
330
1A
100
AcDbEntity
  8
1_TOP
  6
CONTINUOUS
 62
     7
100
AcDbLine
 10
-0.8154103446481107
 20
-0.754177914723516
 30
0.0
 11
-0.8154103446481107
 21
-0.749444832874532
 31
0.0
  0
LINE
  5
65A
330
1A
100
AcDbEntity
  8
1_TOP
  6
CONTINUOUS
 62
     7
100
AcDbLine
 10
-0.0391849214150839
 20
0.3685090998549929
 30
0.0
 11
-0.0316119904567085
 21
0.3770286471831585
 31
0.0
  0
LINE
  5
65B
330
1A
100
AcDbEntity
  8
1_TOP
  6
CONTINUOUS
 62
     7
100
AcDbLine
 10
-1.665471844725257
 20
2.452011729776788
 30
0.0
 11
-1.663578611985666
 21
2.452958346146626
 31
0.0
  0
LINE
  5
65C
330
1A
100
AcDbEntity
  8
1_TOP
  6
CONTINUOUS
 62
     7
100
AcDbLine
 10
-1.663578611985666
 20
2.452958346146626
 30
0.0
 11
-1.661685379246076
 21
2.453904962516411
 31
0.0
  0
LINE
  5
65D
330
1A
100
AcDbEntity
  8
1_TOP
  6
CONTINUOUS
 62
     7
100
AcDbLine
 10
-1.661685379246076
 20
2.453904962516411
 30
0.0
 11
-1.65979214650648
 21
2.453904962516411
 31
0.0
  0
LINE
  5
65E
330
1A
100
AcDbEntity
  8
1_TOP
  6
CONTINUOUS
 62
     7
100
AcDbLine
 10
-0.0903022053840841
 20
-0.230699062226114
 30
0.0
 11
-0.0921954381236812
 21
-0.2316456785959122
 31
0.0
  0
LINE
  5
65F
330
1A
100
AcDbEntity
  8
1_TOP
  6
CONTINUOUS
 62
     7
100
AcDbLine
 10
-0.0921954381236812
 20
-0.2316456785959122
 30
0.0
 11
-0.0940886708632696
 21
-0.23259229496571
 31
0.0
  0
LINE
  5
660
330
1A
100
AcDbEntity
  8
1_TOP
  6
CONTINUOUS
 62
     7
100
AcDbLine
 10
-0.0940886708632696
 20
-0.23259229496571
 30
0.0
 11
-0.095981903602866
 21
-0.23259229496571
 31
0.0
  0
LINE
  5
661
330
1A
100
AcDbEntity
  8
1_TOP
  6
CONTINUOUS
 62
     7
100
AcDbLine
 10
-1.672098159313832
 20
0.1413211711038602
 30
0.0
 11
-1.664525228355464
 21
0.1328016237756947
 31
0.0
  0
LINE
  5
662
330
1A
100
AcDbEntity
  8
1_TOP
  6
CONTINUOUS
 62
     7
100
AcDbLine
 10
-0.0363450723056942
 20
0.3656692507456039
 30
0.0
 11
-0.0287721413473205
 21
0.3732421817039705
 31
0.0
  0
LINE
  5
663
330
1A
100
AcDbEntity
  8
1_TOP
  6
CONTINUOUS
 62
     7
100
AcDbLine
 10
-0.0808360416861203
 20
0.5209143353922068
 30
0.0
 11
-0.0884089726444926
 21
0.5284872663505804
 31
0.0
  0
LINE
  5
664
330
1A
100
AcDbEntity
  8
1_TOP
  6
CONTINUOUS
 62
     7
100
AcDbLine
 10
-0.0903022053840841
 20
2.452011729776788
 30
0.0
 11
-0.0893555890142921
 21
2.450118497037226
 31
0.0
  0
LINE
  5
665
330
1A
100
AcDbEntity
  8
1_TOP
  6
CONTINUOUS
 62
     7
100
AcDbLine
 10
-0.0893555890142921
 20
2.450118497037226
 30
0.0
 11
-0.0884089726444926
 21
2.448225264297607
 31
0.0
  0
LINE
  5
666
330
1A
100
AcDbEntity
  8
1_TOP
  6
CONTINUOUS
 62
     7
100
AcDbLine
 10
-0.0884089726444926
 20
2.448225264297607
 30
0.0
 11
-0.0884089726444926
 21
2.446332031558044
 31
0.0
  0
LINE
  5
667
330
1A
100
AcDbEntity
  8
1_TOP
  6
CONTINUOUS
 62
     7
100
AcDbLine
 10
-1.719428977803652
 20
0.2927797902712826
 30
0.0
 11
-1.727948525131818
 21
0.2842602429431152
 31
0.0
  0
LINE
  5
668
330
1A
100
AcDbEntity
  8
1_TOP
  6
CONTINUOUS
 62
     7
100
AcDbLine
 10
-0.0391849214150839
 20
1.852803567695726
 30
0.0
 11
-0.0316119904567085
 21
1.844284020367531
 31
0.0
  0
LINE
  5
669
330
1A
100
AcDbEntity
  8
1_TOP
  6
CONTINUOUS
 62
     7
100
AcDbLine
 10
-1.719428977803652
 20
2.083777961926051
 30
0.0
 11
-1.727948525131818
 21
2.076205030967639
 31
0.0
  0
LINE
  5
66A
330
1A
100
AcDbEntity
  8
1_TOP
  6
CONTINUOUS
 62
     7
100
AcDbLine
 10
-1.716589128694263
 20
0.2889933247920947
 30
0.0
 11
-1.724162059652637
 21
0.2814203938337224
 31
0.0
  0
LINE
  5
66B
330
1A
100
AcDbEntity
  8
1_TOP
  6
CONTINUOUS
 62
     7
100
AcDbLine
 10
-0.0391849214150839
 20
1.704184797637658
 30
0.0
 11
-0.0316119904567085
 21
1.711757728596022
 31
0.0
  0
LINE
  5
66C
330
1A
100
AcDbEntity
  8
1_TOP
  6
CONTINUOUS
 62
     7
100
AcDbLine
 10
0.4663082200561823
 20
-1.13945077723064
 30
0.0
 11
0.497546560259464
 21
-1.10821243702736
 31
0.0
  0
LINE
  5
66D
330
1A
100
AcDbEntity
  8
1_TOP
  6
CONTINUOUS
 62
     7
100
AcDbLine
 10
-0.0836758907955093
 20
1.704184797637658
 30
0.0
 11
-0.0912488217538803
 21
1.696611866679301
 31
0.0
  0
LINE
  5
66E
330
1A
100
AcDbEntity
  8
1_TOP
  6
CONTINUOUS
 62
     7
100
AcDbLine
 10
-2.231548433863494
 20
-1.087386876891836
 30
0.0
 11
-2.22397550290512
 21
-0.4654599219356211
 31
0.0
  0
LINE
  5
66F
330
1A
100
AcDbEntity
  8
1_TOP
  6
CONTINUOUS
 62
     7
100
AcDbLine
 10
-2.22397550290512
 20
-0.4654599219356211
 30
0.0
 11
-2.218295804686343
 21
0.1621467312393787
 31
0.0
  0
LINE
  5
670
330
1A
100
AcDbEntity
  8
1_TOP
  6
CONTINUOUS
 62
     7
100
AcDbLine
 10
-2.218295804686343
 20
0.1621467312393787
 30
0.0
 11
-2.215455955576954
 21
0.7944864662633633
 31
0.0
  0
LINE
  5
671
330
1A
100
AcDbEntity
  8
1_TOP
  6
CONTINUOUS
 62
     7
100
AcDbLine
 10
-2.215455955576954
 20
0.7944864662633633
 30
0.0
 11
-2.215455955576954
 21
1.426826201287329
 31
0.0
  0
LINE
  5
672
330
1A
100
AcDbEntity
  8
1_TOP
  6
CONTINUOUS
 62
     7
100
AcDbLine
 10
-2.215455955576954
 20
1.426826201287329
 30
0.0
 11
-2.218295804686343
 21
2.059165936311289
 31
0.0
  0
LINE
  5
673
330
1A
100
AcDbEntity
  8
1_TOP
  6
CONTINUOUS
 62
     7
100
AcDbLine
 10
-2.218295804686343
 20
2.059165936311289
 30
0.0
 11
-2.22397550290512
 21
2.686772589486295
 31
0.0
  0
LINE
  5
674
330
1A
100
AcDbEntity
  8
1_TOP
  6
CONTINUOUS
 62
     7
100
AcDbLine
 10
-2.22397550290512
 20
2.686772589486295
 30
0.0
 11
-2.231548433863494
 21
3.308699544442556
 31
0.0
  0
LINE
  5
675
330
1A
100
AcDbEntity
  8
1_TOP
  6
CONTINUOUS
 62
     7
100
AcDbLine
 10
-1.716589128694263
 20
1.036820256931235
 30
0.0
 11
-1.724162059652637
 21
1.044393187889602
 31
0.0
  0
LINE
  5
676
330
1A
100
AcDbEntity
  8
1_TOP
  6
CONTINUOUS
 62
     7
100
AcDbLine
 10
-1.665471844725257
 20
2.452011729776788
 30
0.0
 11
-1.666418461095055
 21
2.450118497037226
 31
0.0
  0
LINE
  5
677
330
1A
100
AcDbEntity
  8
1_TOP
  6
CONTINUOUS
 62
     7
100
AcDbLine
 10
-1.666418461095055
 20
2.450118497037226
 30
0.0
 11
-1.667365077464853
 21
2.448225264297607
 31
0.0
  0
LINE
  5
678
330
1A
100
AcDbEntity
  8
1_TOP
  6
CONTINUOUS
 62
     7
100
AcDbLine
 10
-1.667365077464853
 20
2.448225264297607
 30
0.0
 11
-1.667365077464853
 21
2.446332031558044
 31
0.0
  0
LINE
  5
679
330
1A
100
AcDbEntity
  8
1_TOP
  6
CONTINUOUS
 62
     7
100
AcDbLine
 10
-2.22208227016553
 20
3.360763444781371
 30
0.0
 11
-2.253320610368811
 21
3.32952510457808
 31
0.0
  0
LINE
  5
67A
330
1A
100
AcDbEntity
  8
1_TOP
  6
CONTINUOUS
 62
     7
100
AcDbLine
 10
-1.675884624793018
 20
1.188278876098636
 30
0.0
 11
-1.667365077464853
 21
1.195851807056998
 31
0.0
  0
LINE
  5
67B
330
1A
100
AcDbEntity
  8
1_TOP
  6
CONTINUOUS
 62
     7
100
AcDbLine
 10
-0.0836758907955093
 20
0.51712786991302
 30
0.0
 11
-0.0912488217538803
 21
0.5256474172411919
 31
0.0
  0
LINE
  5
67C
330
1A
100
AcDbEntity
  8
1_TOP
  6
CONTINUOUS
 62
     7
100
AcDbLine
 10
-0.0363450723056942
 20
1.855643416805069
 30
0.0
 11
-0.0287721413473205
 21
1.848070485846713
 31
0.0
  0
LINE
  5
67D
330
1A
100
AcDbEntity
  8
1_TOP
  6
CONTINUOUS
 62
     7
100
AcDbLine
 10
-1.675884624793018
 20
1.928532877279409
 30
0.0
 11
-1.667365077464853
 21
1.920959946321041
 31
0.0
  0
LINE
  5
67E
330
1A
100
AcDbEntity
  8
1_TOP
  6
CONTINUOUS
 62
     7
100
AcDbLine
 10
-1.716589128694263
 20
2.080938112816657
 30
0.0
 11
-1.724162059652637
 21
2.072418565488458
 31
0.0
  0
LINE
  5
67F
330
1A
100
AcDbEntity
  8
1_TOP
  6
CONTINUOUS
 62
     7
100
AcDbLine
 10
-1.719428977803652
 20
0.1375347056246728
 30
0.0
 11
-1.727948525131818
 21
0.1451076365830476
 31
0.0
  0
LINE
  5
680
330
1A
100
AcDbEntity
  8
1_TOP
  6
CONTINUOUS
 62
     7
100
AcDbLine
 10
-1.672098159313832
 20
2.080938112816657
 30
0.0
 11
-1.664525228355464
 21
2.088511043775014
 31
0.0
  0
LINE
  5
681
330
1A
100
AcDbEntity
  8
1_TOP
  6
CONTINUOUS
 62
     7
100
AcDbLine
 10
-0.0836758907955093
 20
1.852803567695726
 30
0.0
 11
-0.0912488217538803
 21
1.860376498654088
 31
0.0
  0
LINE
  5
682
330
1A
100
AcDbEntity
  8
1_TOP
  6
CONTINUOUS
 62
     7
100
AcDbLine
 10
-2.253320610368811
 20
-1.10821243702736
 30
0.0
 11
-2.22208227016553
 21
-1.13945077723064
 31
0.0
  0
LINE
  5
683
330
1A
100
AcDbEntity
  8
1_TOP
  6
CONTINUOUS
 62
     7
100
AcDbLine
 10
-1.672098159313832
 20
1.036820256931235
 30
0.0
 11
-1.664525228355464
 21
1.028300709603065
 31
0.0
  0
LINE
  5
684
330
1A
100
AcDbEntity
  8
1_TOP
  6
CONTINUOUS
 62
     7
100
AcDbLine
 10
-0.0903022053840841
 20
2.452011729776788
 30
0.0
 11
-0.0921954381236812
 21
2.452958346146626
 31
0.0
  0
LINE
  5
685
330
1A
100
AcDbEntity
  8
1_TOP
  6
CONTINUOUS
 62
     7
100
AcDbLine
 10
-0.0921954381236812
 20
2.452958346146626
 30
0.0
 11
-0.0940886708632696
 21
2.453904962516411
 31
0.0
  0
LINE
  5
686
330
1A
100
AcDbEntity
  8
1_TOP
  6
CONTINUOUS
 62
     7
100
AcDbLine
 10
-0.0940886708632696
 20
2.453904962516411
 30
0.0
 11
-0.095981903602866
 21
2.453904962516411
 31
0.0
  0
LINE
  5
687
330
1A
100
AcDbEntity
  8
1_TOP
  6
CONTINUOUS
 62
     7
100
AcDbLine
 10
-0.0391849214150839
 20
0.51712786991302
 30
0.0
 11
-0.0316119904567085
 21
0.5095549389546528
 31
0.0
  0
LINE
  5
688
330
1A
100
AcDbEntity
  8
1_TOP
  6
CONTINUOUS
 62
     7
100
AcDbLine
 10
-1.665471844725257
 20
-0.230699062226114
 30
0.0
 11
-1.666418461095055
 21
-0.2288058294865232
 31
0.0
  0
LINE
  5
689
330
1A
100
AcDbEntity
  8
1_TOP
  6
CONTINUOUS
 62
     7
100
AcDbLine
 10
-1.666418461095055
 20
-0.2288058294865232
 30
0.0
 11
-1.667365077464853
 21
-0.2269125967469341
 31
0.0
  0
LINE
  5
68A
330
1A
100
AcDbEntity
  8
1_TOP
  6
CONTINUOUS
 62
     7
100
AcDbLine
 10
-1.667365077464853
 20
-0.2269125967469341
 30
0.0
 11
-1.667365077464853
 21
-0.225019364007337
 31
0.0
  0
LINE
  5
68B
330
1A
100
AcDbEntity
  8
1_TOP
  6
CONTINUOUS
 62
     7
100
AcDbLine
 10
-1.672098159313832
 20
1.185439026989242
 30
0.0
 11
-1.664525228355464
 21
1.193011957947654
 31
0.0
  0
LINE
  5
68C
330
1A
100
AcDbEntity
  8
1_TOP
  6
CONTINUOUS
 62
     7
100
AcDbLine
 10
-1.675884624793018
 20
0.1375347056246728
 30
0.0
 11
-1.667365077464853
 21
0.1299617746663055
 31
0.0
  0
LINE
  5
68D
330
1A
100
AcDbEntity
  8
1_TOP
  6
CONTINUOUS
 62
     7
100
AcDbLine
 10
-1.719428977803652
 20
1.928532877279409
 30
0.0
 11
-1.727948525131818
 21
1.937052424607604
 31
0.0
  0
LINE
  5
68E
330
1A
100
AcDbEntity
  8
1_TOP
  6
CONTINUOUS
 62
     7
100
AcDbLine
 10
-1.672098159313832
 20
1.932319342758589
 30
0.0
 11
-1.664525228355464
 21
1.923799795430447
 31
0.0
  0
LINE
  5
68F
330
1A
100
AcDbEntity
  8
1_TOP
  6
CONTINUOUS
 62
     7
100
AcDbLine
 10
-1.716589128694263
 20
0.1413211711038602
 30
0.0
 11
-1.724162059652637
 21
0.1488941020622337
 31
0.0
  0
LINE
  5
690
330
1A
100
AcDbEntity
  8
1_TOP
  6
CONTINUOUS
 62
     7
100
AcDbLine
 10
-1.719428977803652
 20
1.03303379145205
 30
0.0
 11
-1.727948525131818
 21
1.041553338780213
 31
0.0
  0
LINE
  5
691
330
1A
100
AcDbEntity
  8
1_TOP
  6
CONTINUOUS
 62
     7
100
AcDbLine
 10
-0.0808360416861203
 20
1.855643416805069
 30
0.0
 11
-0.0884089726444926
 21
1.864162964133275
 31
0.0
  0
LINE
  5
692
330
1A
100
AcDbEntity
  8
1_TOP
  6
CONTINUOUS
 62
     7
100
AcDbLine
 10
-0.0808360416861203
 20
1.700398332158477
 30
0.0
 11
-0.0884089726444926
 21
1.692825401200121
 31
0.0
  0
LINE
  5
693
330
1A
100
AcDbEntity
  8
1_TOP
  6
CONTINUOUS
 62
     7
100
AcDbLine
 10
-1.716589128694263
 20
1.185439026989242
 30
0.0
 11
-1.724162059652637
 21
1.176919479661098
 31
0.0
  0
LINE
  5
694
330
1A
100
AcDbEntity
  8
1_TOP
  6
CONTINUOUS
 62
     7
100
AcDbLine
 10
-1.675884624793018
 20
1.03303379145205
 30
0.0
 11
-1.667365077464853
 21
1.025460860493675
 31
0.0
  0
LINE
  5
695
330
1A
100
AcDbEntity
  8
1_TOP
  6
CONTINUOUS
 62
     7
100
AcDbLine
 10
-0.0363450723056942
 20
0.5209143353922068
 30
0.0
 11
-0.0287721413473205
 21
0.5123947880640425
 31
0.0
  0
LINE
  5
696
330
1A
100
AcDbEntity
  8
1_TOP
  6
CONTINUOUS
 62
     7
100
AcDbLine
 10
0.497546560259464
 20
3.32952510457808
 30
0.0
 11
0.4663082200561823
 21
3.360763444781371
 31
0.0
  0
LINE
  5
697
330
1A
100
AcDbEntity
  8
1_TOP
  6
CONTINUOUS
 62
     7
100
AcDbLine
 10
-1.665471844725257
 20
-0.230699062226114
 30
0.0
 11
-1.663578611985666
 21
-0.2316456785959122
 31
0.0
  0
LINE
  5
698
330
1A
100
AcDbEntity
  8
1_TOP
  6
CONTINUOUS
 62
     7
100
AcDbLine
 10
-1.663578611985666
 20
-0.2316456785959122
 30
0.0
 11
-1.661685379246076
 21
-0.23259229496571
 31
0.0
  0
LINE
  5
699
330
1A
100
AcDbEntity
  8
1_TOP
  6
CONTINUOUS
 62
     7
100
AcDbLine
 10
-1.661685379246076
 20
-0.23259229496571
 30
0.0
 11
-1.65979214650648
 21
-0.23259229496571
 31
0.0
  0
LINE
  5
69A
330
1A
100
AcDbEntity
  8
1_TOP
  6
CONTINUOUS
 62
     7
100
AcDbLine
 10
-1.672098159313832
 20
0.2889933247920947
 30
0.0
 11
-1.664525228355464
 21
0.2975128721202608
 31
0.0
  0
LINE
  5
69B
330
1A
100
AcDbEntity
  8
1_TOP
  6
CONTINUOUS
 62
     7
100
AcDbLine
 10
-1.716589128694263
 20
1.932319342758589
 30
0.0
 11
-1.724162059652637
 21
1.939892273716947
 31
0.0
  0
LINE
  5
69C
330
1A
100
AcDbEntity
  8
1_TOP
  6
CONTINUOUS
 62
     7
100
AcDbLine
 10
-1.675884624793018
 20
0.2927797902712826
 30
0.0
 11
-1.667365077464853
 21
0.3003527212296493
 31
0.0
  0
LINE
  5
69D
330
1A
100
AcDbEntity
  8
1_TOP
  6
CONTINUOUS
 62
     7
100
AcDbLine
 10
-0.0363450723056942
 20
1.700398332158477
 30
0.0
 11
-0.0287721413473205
 21
1.708917879486678
 31
0.0
  0
LINE
  5
69E
330
1A
100
AcDbEntity
  8
1_TOP
  6
CONTINUOUS
 62
     7
100
AcDbLine
 10
0.4757743837541461
 20
3.308699544442556
 30
0.0
 11
0.4672548364259831
 21
2.686772589486295
 31
0.0
  0
LINE
  5
69F
330
1A
100
AcDbEntity
  8
1_TOP
  6
CONTINUOUS
 62
     7
100
AcDbLine
 10
0.4672548364259831
 20
2.686772589486295
 30
0.0
 11
0.4615751382072041
 21
2.059165936311289
 31
0.0
  0
LINE
  5
6A0
330
1A
100
AcDbEntity
  8
1_TOP
  6
CONTINUOUS
 62
     7
100
AcDbLine
 10
0.4615751382072041
 20
2.059165936311289
 30
0.0
 11
0.4587352890978157
 21
1.426826201287329
 31
0.0
  0
LINE
  5
6A1
330
1A
100
AcDbEntity
  8
1_TOP
  6
CONTINUOUS
 62
     7
100
AcDbLine
 10
0.4587352890978157
 20
1.426826201287329
 30
0.0
 11
0.4587352890978157
 21
0.7944864662633633
 31
0.0
  0
LINE
  5
6A2
330
1A
100
AcDbEntity
  8
1_TOP
  6
CONTINUOUS
 62
     7
100
AcDbLine
 10
0.4587352890978157
 20
0.7944864662633633
 30
0.0
 11
0.4615751382072041
 21
0.1621467312393787
 31
0.0
  0
LINE
  5
6A3
330
1A
100
AcDbEntity
  8
1_TOP
  6
CONTINUOUS
 62
     7
100
AcDbLine
 10
0.4615751382072041
 20
0.1621467312393787
 30
0.0
 11
0.4672548364259831
 21
-0.4654599219356211
 31
0.0
  0
LINE
  5
6A4
330
1A
100
AcDbEntity
  8
1_TOP
  6
CONTINUOUS
 62
     7
100
AcDbLine
 10
0.4672548364259831
 20
-0.4654599219356211
 30
0.0
 11
0.4757743837541461
 21
-1.087386876891836
 31
0.0
  0
LINE
  5
6A5
330
1A
100
AcDbEntity
  8
1_TOP
  6
CONTINUOUS
 62
     7
100
AcDbLine
 10
-1.675884624793018
 20
2.083777961926051
 30
0.0
 11
-1.667365077464853
 21
2.092297509254195
 31
0.0
  0
LINE
  5
6A6
330
1A
100
AcDbEntity
  8
1_TOP
  6
CONTINUOUS
 62
     7
100
AcDbLine
 10
-1.719428977803652
 20
1.188278876098636
 30
0.0
 11
-1.727948525131818
 21
1.180705945140279
 31
0.0
  0
LINE
  5
6A7
330
1A
100
AcDbEntity
  8
1_TOP
  6
CONTINUOUS
 62
     7
100
AcDbLine
 10
-0.0836758907955093
 20
0.3685090998549929
 30
0.0
 11
-0.0912488217538803
 21
0.36093616889662
 31
0.0
  0
LINE
  5
6A8
330
1A
100
AcDbEntity
  8
1_TOP
  6
CONTINUOUS
 62
     7
100
AcDbLine
 10
-0.0903022053840841
 20
-0.230699062226114
 30
0.0
 11
-0.0893555890142921
 21
-0.2288058294865232
 31
0.0
  0
LINE
  5
6A9
330
1A
100
AcDbEntity
  8
1_TOP
  6
CONTINUOUS
 62
     7
100
AcDbLine
 10
-0.0893555890142921
 20
-0.2288058294865232
 30
0.0
 11
-0.0884089726444926
 21
-0.2269125967469341
 31
0.0
  0
LINE
  5
6AA
330
1A
100
AcDbEntity
  8
1_TOP
  6
CONTINUOUS
 62
     7
100
AcDbLine
 10
-0.0884089726444926
 20
-0.2269125967469341
 30
0.0
 11
-0.0884089726444926
 21
-0.225019364007337
 31
0.0
  0
LINE
  5
6AB
330
1A
100
AcDbEntity
  8
1_TOP
  6
CONTINUOUS
 62
     7
100
AcDbLine
 10
-0.0808360416861203
 20
0.3656692507456039
 30
0.0
 11
-0.0884089726444926
 21
0.3580963197872303
 31
0.0
  0
LINE
  5
6AC
330
1A
100
AcDbEntity
  8
1_TOP
  6
CONTINUOUS
 62
     7
100
AcDbLine
 10
3.93187074988071
 20
-1.10821243702736
 30
0.0
 11
3.93187074988071
 21
3.32952510457808
 31
0.0
  0
LINE
  5
6AD
330
1A
100
AcDbEntity
  8
1_TOP
  6
CONTINUOUS
 62
     7
100
AcDbLine
 10
3.626113662436491
 20
3.339937884645843
 30
0.0
 11
3.93187074988071
 21
3.360763444781371
 31
0.0
  0
LINE
  5
6AE
330
1A
100
AcDbEntity
  8
1_TOP
  6
CONTINUOUS
 62
     7
100
AcDbLine
 10
3.487907672446247
 20
-0.5298298350817723
 30
0.0
 11
3.597715171342602
 21
-1.094013191480412
 31
0.0
  0
LINE
  5
6AF
330
1A
100
AcDbEntity
  8
1_TOP
  6
CONTINUOUS
 62
     7
100
AcDbLine
 10
3.626113662436491
 20
-1.118625217095117
 30
0.0
 11
3.93187074988071
 21
-1.13945077723064
 31
0.0
  0
LINE
  5
6B0
330
1A
100
AcDbEntity
  8
1_TOP
  6
CONTINUOUS
 62
     7
100
AcDbLine
 10
3.93187074988071
 20
3.360763444781371
 30
0.0
 11
3.626113662436491
 21
3.339937884645843
 31
0.0
  0
LINE
  5
6B1
330
1A
100
AcDbEntity
  8
1_TOP
  6
CONTINUOUS
 62
     7
100
AcDbLine
 10
3.93187074988071
 20
-1.13945077723064
 30
0.0
 11
3.626113662436491
 21
-1.118625217095117
 31
0.0
  0
LINE
  5
6B2
330
1A
100
AcDbEntity
  8
1_TOP
  6
CONTINUOUS
 62
     7
100
AcDbLine
 10
3.93187074988071
 20
-1.10821243702736
 30
0.0
 11
3.93187074988071
 21
3.32952510457808
 31
0.0
  0
LINE
  5
6B3
330
1A
100
AcDbEntity
  8
1_TOP
  6
CONTINUOUS
 62
     2
100
AcDbLine
 10
3.93187074988071
 20
-1.10821243702736
 30
0.0
 11
3.93187074988071
 21
-1.13945077723064
 31
0.0
  0
LINE
  5
6B4
330
1A
100
AcDbEntity
  8
1_TOP
  6
CONTINUOUS
 62
     7
100
AcDbLine
 10
3.597715171342602
 20
3.315325859031141
 30
0.0
 11
3.476548276008641
 21
2.682039507637332
 31
0.0
  0
LINE
  5
6B5
330
1A
100
AcDbEntity
  8
1_TOP
  6
CONTINUOUS
 62
     7
100
AcDbLine
 10
3.476548276008641
 20
2.682039507637332
 30
0.0
 11
3.39513926820617
 21
2.042126841655009
 31
0.0
  0
LINE
  5
6B6
330
1A
100
AcDbEntity
  8
1_TOP
  6
CONTINUOUS
 62
     7
100
AcDbLine
 10
3.39513926820617
 20
2.042126841655009
 30
0.0
 11
3.356327997044522
 21
1.398427710193442
 31
0.0
  0
LINE
  5
6B7
330
1A
100
AcDbEntity
  8
1_TOP
  6
CONTINUOUS
 62
     7
100
AcDbLine
 10
3.356327997044522
 20
1.398427710193442
 30
0.0
 11
3.358221229784135
 21
0.753781962362119
 31
0.0
  0
LINE
  5
6B8
330
1A
100
AcDbEntity
  8
1_TOP
  6
CONTINUOUS
 62
     7
100
AcDbLine
 10
3.358221229784135
 20
0.753781962362119
 30
0.0
 11
3.402712199164525
 21
0.1100828309005797
 31
0.0
  0
LINE
  5
6B9
330
1A
100
AcDbEntity
  8
1_TOP
  6
CONTINUOUS
 62
     7
100
AcDbLine
 10
3.402712199164525
 20
0.1100828309005797
 30
0.0
 11
3.487907672446247
 21
-0.5298298350817723
 31
0.0
  0
LINE
  5
6BA
330
1A
100
AcDbEntity
  8
1_TOP
  6
CONTINUOUS
 62
     7
100
AcDbLine
 10
3.597715171342602
 20
-1.094013191480412
 30
0.0
 11
3.477494892378478
 21
-0.4701930037845999
 31
0.0
  0
LINE
  5
6BB
330
1A
100
AcDbEntity
  8
1_TOP
  6
CONTINUOUS
 62
     7
100
AcDbLine
 10
3.477494892378478
 20
-0.4701930037845999
 30
0.0
 11
3.397032500945787
 21
0.1593068821299889
 31
0.0
  0
LINE
  5
6BC
330
1A
100
AcDbEntity
  8
1_TOP
  6
CONTINUOUS
 62
     7
100
AcDbLine
 10
3.397032500945787
 20
0.1593068821299889
 30
0.0
 11
3.357274613414297
 21
0.7935398498935627
 31
0.0
  0
LINE
  5
6BD
330
1A
100
AcDbEntity
  8
1_TOP
  6
CONTINUOUS
 62
     7
100
AcDbLine
 10
3.357274613414297
 20
0.7935398498935627
 30
0.0
 11
3.357274613414297
 21
1.428719434026942
 31
0.0
  0
LINE
  5
6BE
330
1A
100
AcDbEntity
  8
1_TOP
  6
CONTINUOUS
 62
     7
100
AcDbLine
 10
3.357274613414297
 20
1.428719434026942
 30
0.0
 11
3.397032500945787
 21
2.062005785420689
 31
0.0
  0
LINE
  5
6BF
330
1A
100
AcDbEntity
  8
1_TOP
  6
CONTINUOUS
 62
     7
100
AcDbLine
 10
3.397032500945787
 20
2.062005785420689
 30
0.0
 11
3.477494892378478
 21
2.691505671335319
 31
0.0
  0
LINE
  5
6C0
330
1A
100
AcDbEntity
  8
1_TOP
  6
CONTINUOUS
 62
     7
100
AcDbLine
 10
3.477494892378478
 20
2.691505671335319
 30
0.0
 11
3.597715171342602
 21
3.315325859031141
 31
0.0
  0
LINE
  5
6C1
330
1A
100
AcDbEntity
  8
1_TOP
  6
CONTINUOUS
 62
     7
100
AcDbLine
 10
3.93187074988071
 20
3.360763444781371
 30
0.0
 11
3.93187074988071
 21
3.32952510457808
 31
0.0
  0
LINE
  5
6C2
330
1A
100
AcDbEntity
  8
1_TOP
  6
CONTINUOUS
 62
     7
100
AcDbLine
 10
3.93187074988071
 20
3.32952510457808
 30
0.0
 11
3.93187074988071
 21
3.360763444781371
 31
0.0
  0
LINE
  5
6C3
330
1A
100
AcDbEntity
  8
1_TOP
  6
CONTINUOUS
 62
     7
100
AcDbLine
 10
3.523879094498495
 20
2.957504871248111
 30
0.0
 11
3.428270841149074
 21
2.345990696359612
 31
0.0
  0
LINE
  5
6C4
330
1A
100
AcDbEntity
  8
1_TOP
  6
CONTINUOUS
 62
     7
100
AcDbLine
 10
3.428270841149074
 20
2.345990696359612
 30
0.0
 11
3.371473858961246
 21
1.729743439622202
 31
0.0
  0
LINE
  5
6C5
330
1A
100
AcDbEntity
  8
1_TOP
  6
CONTINUOUS
 62
     7
100
AcDbLine
 10
3.371473858961246
 20
1.729743439622202
 30
0.0
 11
3.352541531565337
 21
1.11065633377535
 31
0.0
  0
LINE
  5
6C6
330
1A
100
AcDbEntity
  8
1_TOP
  6
CONTINUOUS
 62
     7
100
AcDbLine
 10
3.352541531565337
 20
1.11065633377535
 30
0.0
 11
3.371473858961246
 21
0.4915692279285172
 31
0.0
  0
LINE
  5
6C7
330
1A
100
AcDbEntity
  8
1_TOP
  6
CONTINUOUS
 62
     7
100
AcDbLine
 10
3.371473858961246
 20
0.4915692279285172
 30
0.0
 11
3.428270841149074
 21
-0.1246780288089209
 31
0.0
  0
LINE
  5
6C8
330
1A
100
AcDbEntity
  8
1_TOP
  6
CONTINUOUS
 62
     7
100
AcDbLine
 10
3.428270841149074
 20
-0.1246780288089209
 30
0.0
 11
3.523879094498495
 21
-0.7361922036973816
 31
0.0
  0
LINE
  5
6C9
330
1A
100
AcDbEntity
  8
1_TOP
  6
CONTINUOUS
 62
     7
100
AcDbLine
 10
3.523879094498495
 20
2.957504871248111
 30
0.0
 11
3.428270841149074
 21
2.345990696359612
 31
0.0
  0
LINE
  5
6CA
330
1A
100
AcDbEntity
  8
1_TOP
  6
CONTINUOUS
 62
     7
100
AcDbLine
 10
3.428270841149074
 20
2.345990696359612
 30
0.0
 11
3.371473858961246
 21
1.729743439622202
 31
0.0
  0
LINE
  5
6CB
330
1A
100
AcDbEntity
  8
1_TOP
  6
CONTINUOUS
 62
     7
100
AcDbLine
 10
3.371473858961246
 20
1.729743439622202
 30
0.0
 11
3.352541531565337
 21
1.11065633377535
 31
0.0
  0
LINE
  5
6CC
330
1A
100
AcDbEntity
  8
1_TOP
  6
CONTINUOUS
 62
     7
100
AcDbLine
 10
3.352541531565337
 20
1.11065633377535
 30
0.0
 11
3.371473858961246
 21
0.4915692279285172
 31
0.0
  0
LINE
  5
6CD
330
1A
100
AcDbEntity
  8
1_TOP
  6
CONTINUOUS
 62
     7
100
AcDbLine
 10
3.371473858961246
 20
0.4915692279285172
 30
0.0
 11
3.428270841149074
 21
-0.1246780288089209
 31
0.0
  0
LINE
  5
6CE
330
1A
100
AcDbEntity
  8
1_TOP
  6
CONTINUOUS
 62
     7
100
AcDbLine
 10
3.428270841149074
 20
-0.1246780288089209
 30
0.0
 11
3.523879094498495
 21
-0.7361922036973816
 31
0.0
  0
ARC
  5
824
330
1A
100
AcDbEntity
  8
1_TOP
  6
CONTINUOUS
 62
     7
100
AcDbCircle
 10
-0.9403637054612307
 20
2.75114250263249
 30
0.0
 40
0.1325262917715062
100
AcDbArc
 50
90.0
 51
270.0
  0
ARC
  5
825
330
1A
100
AcDbEntity
  8
1_TOP
  6
CONTINUOUS
 62
     7
100
AcDbCircle
 10
-0.9403637054612307
 20
2.75114250263249
 30
0.0
 40
0.0851954732816851
100
AcDbArc
 50
90.0
 51
270.0
  0
ARC
  5
826
330
1A
100
AcDbEntity
  8
1_TOP
  6
CONTINUOUS
 62
     7
100
AcDbCircle
 10
-0.8154103446481107
 20
-0.5298298350817723
 30
0.0
 40
0.2158285323135731
100
AcDbArc
 50
270.0
 51
90.0
  0
ARC
  5
827
330
1A
100
AcDbEntity
  8
1_TOP
  6
CONTINUOUS
 62
     7
100
AcDbCircle
 10
-0.9403637054612307
 20
2.75114250263249
 30
0.0
 40
0.0766759259535142
100
AcDbArc
 50
90.0
 51
270.0
  0
ARC
  5
828
330
1A
100
AcDbEntity
  8
1_TOP
  6
CONTINUOUS
 62
     7
100
AcDbCircle
 10
-0.9555095673779764
 20
-0.2922291262628818
 30
0.0
 40
0.0141992455469481
100
AcDbArc
 50
0.0
 51
90.0
  0
ARC
  5
829
330
1A
100
AcDbEntity
  8
1_TOP
  6
CONTINUOUS
 62
     7
100
AcDbCircle
 10
-0.8154103446481107
 20
2.75114250263249
 30
0.0
 40
0.0766759259535142
100
AcDbArc
 50
270.0
 51
90.0
  0
ARC
  5
82A
330
1A
100
AcDbEntity
  8
1_TOP
  6
CONTINUOUS
 62
     7
100
AcDbCircle
 10
-0.8154103446481107
 20
-0.5298298350817723
 30
0.0
 40
0.1902698903290701
100
AcDbArc
 50
270.0
 51
90.0
  0
ARC
  5
82B
330
1A
100
AcDbEntity
  8
1_TOP
  6
CONTINUOUS
 62
     7
100
AcDbCircle
 10
-0.095981903602866
 20
-0.225019364007337
 30
0.0
 40
0.0075729309583734
100
AcDbArc
 50
270.0
 51
0.0
  0
ARC
  5
82C
330
1A
100
AcDbEntity
  8
1_TOP
  6
CONTINUOUS
 62
     7
100
AcDbCircle
 10
-0.8154103446481107
 20
-0.5298298350817723
 30
0.0
 40
0.0766759259535092
100
AcDbArc
 50
270.0
 51
90.0
  0
ARC
  5
82D
330
1A
100
AcDbEntity
  8
1_TOP
  6
CONTINUOUS
 62
     7
100
AcDbCircle
 10
-0.9403637054612307
 20
-0.5298298350817723
 30
0.0
 40
0.2158285323135731
100
AcDbArc
 50
90.0
 51
270.0
  0
ARC
  5
82E
330
1A
100
AcDbEntity
  8
1_TOP
  6
CONTINUOUS
 62
     7
100
AcDbCircle
 10
-0.8154103446481107
 20
-0.5298298350817723
 30
0.0
 40
0.0851954732816755
100
AcDbArc
 50
270.0
 51
90.0
  0
ARC
  5
82F
330
1A
100
AcDbEntity
  8
1_TOP
  6
CONTINUOUS
 62
     7
100
AcDbCircle
 10
-0.9555095673779764
 20
2.516381642922978
 30
0.0
 40
0.0141992455469458
100
AcDbArc
 50
270.0
 51
0.0
  0
ARC
  5
830
330
1A
100
AcDbEntity
  8
1_TOP
  6
CONTINUOUS
 62
     7
100
AcDbCircle
 10
-0.9555095673779764
 20
-0.2950689753722704
 30
0.0
 40
0.0141992455469487
100
AcDbArc
 50
0.0
 51
90.0
  0
ARC
  5
831
330
1A
100
AcDbEntity
  8
1_TOP
  6
CONTINUOUS
 62
     7
100
AcDbCircle
 10
-0.8154103446481107
 20
2.75114250263249
 30
0.0
 40
0.0776225423232954
100
AcDbArc
 50
270.0
 51
90.0
  0
ARC
  5
832
330
1A
100
AcDbEntity
  8
1_TOP
  6
CONTINUOUS
 62
     7
100
AcDbCircle
 10
-0.8154103446481107
 20
-0.5298298350817723
 30
0.0
 40
0.2196149977927598
100
AcDbArc
 50
270.0
 51
90.0
  0
ARC
  5
833
330
1A
100
AcDbEntity
  8
1_TOP
  6
CONTINUOUS
 62
     7
100
AcDbCircle
 10
-0.9403637054612307
 20
2.75114250263249
 30
0.0
 40
0.1476721536882292
100
AcDbArc
 50
90.0
 51
270.0
  0
ARC
  5
834
330
1A
100
AcDbEntity
  8
1_TOP
  6
CONTINUOUS
 62
     7
100
AcDbCircle
 10
-0.8154103446481107
 20
-0.5298298350817723
 30
0.0
 40
0.2338142433397056
100
AcDbArc
 50
270.0
 51
90.0
  0
ARC
  5
835
330
1A
100
AcDbEntity
  8
1_TOP
  6
CONTINUOUS
 62
     7
100
AcDbCircle
 10
-0.9403637054612307
 20
2.75114250263249
 30
0.0
 40
0.2196149977927542
100
AcDbArc
 50
90.0
 51
270.0
  0
ARC
  5
836
330
1A
100
AcDbEntity
  8
1_TOP
  6
CONTINUOUS
 62
     7
100
AcDbCircle
 10
-0.8154103446481107
 20
-0.5298298350817723
 30
0.0
 40
0.1325262917714943
100
AcDbArc
 50
270.0
 51
90.0
  0
ARC
  5
837
330
1A
100
AcDbEntity
  8
1_TOP
  6
CONTINUOUS
 62
     7
100
AcDbCircle
 10
-0.9403637054612307
 20
-0.5298298350817723
 30
0.0
 40
0.0766759259535092
100
AcDbArc
 50
90.0
 51
270.0
  0
ARC
  5
838
330
1A
100
AcDbEntity
  8
1_TOP
  6
CONTINUOUS
 62
     7
100
AcDbCircle
 10
-0.8154103446481107
 20
-0.5298298350817723
 30
0.0
 40
0.0766759259535092
100
AcDbArc
 50
270.0
 51
90.0
  0
ARC
  5
839
330
1A
100
AcDbEntity
  8
1_TOP
  6
CONTINUOUS
 62
     7
100
AcDbCircle
 10
-0.9403637054612307
 20
-0.5298298350817723
 30
0.0
 40
0.2196149977927598
100
AcDbArc
 50
90.0
 51
270.0
  0
ARC
  5
83A
330
1A
100
AcDbEntity
  8
1_TOP
  6
CONTINUOUS
 62
     7
100
AcDbCircle
 10
-0.9403637054612307
 20
2.75114250263249
 30
0.0
 40
0.153351851907003
100
AcDbArc
 50
90.0
 51
270.0
  0
ARC
  5
83B
330
1A
100
AcDbEntity
  8
1_TOP
  6
CONTINUOUS
 62
     7
100
AcDbCircle
 10
-0.8002644827313684
 20
-0.2950689753722704
 30
0.0
 40
0.0141992455469492
100
AcDbArc
 50
90.0
 51
180.0
  0
ARC
  5
83C
330
1A
100
AcDbEntity
  8
1_TOP
  6
CONTINUOUS
 62
     7
100
AcDbCircle
 10
-0.9403637054612307
 20
-0.5298298350817723
 30
0.0
 40
0.2338142433397056
100
AcDbArc
 50
90.0
 51
270.0
  0
ARC
  5
83D
330
1A
100
AcDbEntity
  8
1_TOP
  6
CONTINUOUS
 62
     7
100
AcDbCircle
 10
-0.8154103446481107
 20
-0.5298298350817723
 30
0.0
 40
0.1533518519070121
100
AcDbArc
 50
270.0
 51
90.0
  0
ARC
  5
83E
330
1A
100
AcDbEntity
  8
1_TOP
  6
CONTINUOUS
 62
     7
100
AcDbCircle
 10
-0.9403637054612307
 20
-0.5298298350817723
 30
0.0
 40
0.0851954732816755
100
AcDbArc
 50
90.0
 51
270.0
  0
ARC
  5
83F
330
1A
100
AcDbEntity
  8
1_TOP
  6
CONTINUOUS
 62
     7
100
AcDbCircle
 10
-0.9403637054612307
 20
2.75114250263249
 30
0.0
 40
0.0851954732816851
100
AcDbArc
 50
90.0
 51
270.0
  0
ARC
  5
840
330
1A
100
AcDbEntity
  8
1_TOP
  6
CONTINUOUS
 62
     7
100
AcDbCircle
 10
-0.9403637054612307
 20
-0.5298298350817723
 30
0.0
 40
0.0766759259535092
100
AcDbArc
 50
90.0
 51
270.0
  0
ARC
  5
841
330
1A
100
AcDbEntity
  8
1_TOP
  6
CONTINUOUS
 62
     7
100
AcDbCircle
 10
-0.8154103446481107
 20
2.75114250263249
 30
0.0
 40
0.2196149977927542
100
AcDbArc
 50
270.0
 51
90.0
  0
ARC
  5
842
330
1A
100
AcDbEntity
  8
1_TOP
  6
CONTINUOUS
 62
     7
100
AcDbCircle
 10
-0.9403637054612307
 20
-0.5298298350817723
 30
0.0
 40
0.1325262917714943
100
AcDbArc
 50
90.0
 51
270.0
  0
ARC
  5
843
330
1A
100
AcDbEntity
  8
1_TOP
  6
CONTINUOUS
 62
     7
100
AcDbCircle
 10
-1.65979214650648
 20
-0.225019364007337
 30
0.0
 40
0.0075729309583734
100
AcDbArc
 50
180.0
 51
270.0
  0
ARC
  5
844
330
1A
100
AcDbEntity
  8
1_TOP
  6
CONTINUOUS
 62
     7
100
AcDbCircle
 10
-0.8154103446481107
 20
2.75114250263249
 30
0.0
 40
0.1325262917715062
100
AcDbArc
 50
270.0
 51
90.0
  0
ARC
  5
845
330
1A
100
AcDbEntity
  8
1_TOP
  6
CONTINUOUS
 62
     7
100
AcDbCircle
 10
-0.9403637054612307
 20
2.75114250263249
 30
0.0
 40
0.190269890329087
100
AcDbArc
 50
90.0
 51
270.0
  0
ARC
  5
846
330
1A
100
AcDbEntity
  8
1_TOP
  6
CONTINUOUS
 62
     7
100
AcDbCircle
 10
-0.9403637054612307
 20
-0.5298298350817723
 30
0.0
 40
0.0776225423233021
100
AcDbArc
 50
90.0
 51
270.0
  0
ARC
  5
847
330
1A
100
AcDbEntity
  8
1_TOP
  6
CONTINUOUS
 62
     7
100
AcDbCircle
 10
-0.8154103446481107
 20
-0.5298298350817723
 30
0.0
 40
0.0776225423233021
100
AcDbArc
 50
270.0
 51
90.0
  0
ARC
  5
848
330
1A
100
AcDbEntity
  8
1_TOP
  6
CONTINUOUS
 62
     7
100
AcDbCircle
 10
-0.9403637054612307
 20
-0.5298298350817723
 30
0.0
 40
0.147672153688236
100
AcDbArc
 50
90.0
 51
270.0
  0
ARC
  5
849
330
1A
100
AcDbEntity
  8
1_TOP
  6
CONTINUOUS
 62
     7
100
AcDbCircle
 10
-0.8002644827313684
 20
2.514488410183366
 30
0.0
 40
0.0141992455469464
100
AcDbArc
 50
180.0
 51
270.0
  0
ARC
  5
84A
330
1A
100
AcDbEntity
  8
1_TOP
  6
CONTINUOUS
 62
     7
100
AcDbCircle
 10
-0.9403637054612307
 20
-0.5298298350817723
 30
0.0
 40
0.1902698903290701
100
AcDbArc
 50
90.0
 51
270.0
  0
ARC
  5
84B
330
1A
100
AcDbEntity
  8
1_TOP
  6
CONTINUOUS
 62
     7
100
AcDbCircle
 10
-0.8154103446481107
 20
2.75114250263249
 30
0.0
 40
0.1476721536882292
100
AcDbArc
 50
270.0
 51
90.0
  0
ARC
  5
84C
330
1A
100
AcDbEntity
  8
1_TOP
  6
CONTINUOUS
 62
     7
100
AcDbCircle
 10
-0.8154103446481107
 20
2.75114250263249
 30
0.0
 40
0.0851954732816851
100
AcDbArc
 50
270.0
 51
90.0
  0
ARC
  5
84D
330
1A
100
AcDbEntity
  8
1_TOP
  6
CONTINUOUS
 62
     7
100
AcDbCircle
 10
-0.9403637054612307
 20
-0.5298298350817723
 30
0.0
 40
0.1533518519070121
100
AcDbArc
 50
90.0
 51
270.0
  0
ARC
  5
84E
330
1A
100
AcDbEntity
  8
1_TOP
  6
CONTINUOUS
 62
     7
100
AcDbCircle
 10
-0.8002644827313684
 20
2.516381642922978
 30
0.0
 40
0.0141992455469464
100
AcDbArc
 50
180.0
 51
270.0
  0
ARC
  5
84F
330
1A
100
AcDbEntity
  8
1_TOP
  6
CONTINUOUS
 62
     7
100
AcDbCircle
 10
-0.8154103446481107
 20
2.75114250263249
 30
0.0
 40
0.153351851907003
100
AcDbArc
 50
270.0
 51
90.0
  0
ARC
  5
850
330
1A
100
AcDbEntity
  8
1_TOP
  6
CONTINUOUS
 62
     7
100
AcDbCircle
 10
-0.8154103446481107
 20
2.75114250263249
 30
0.0
 40
0.2158285323135731
100
AcDbArc
 50
270.0
 51
90.0
  0
ARC
  5
851
330
1A
100
AcDbEntity
  8
1_TOP
  6
CONTINUOUS
 62
     7
100
AcDbCircle
 10
-0.9403637054612307
 20
2.75114250263249
 30
0.0
 40
0.0776225423232954
100
AcDbArc
 50
90.0
 51
270.0
  0
ARC
  5
852
330
1A
100
AcDbEntity
  8
1_TOP
  6
CONTINUOUS
 62
     7
100
AcDbCircle
 10
-0.8154103446481107
 20
2.75114250263249
 30
0.0
 40
0.190269890329087
100
AcDbArc
 50
270.0
 51
90.0
  0
ARC
  5
853
330
1A
100
AcDbEntity
  8
1_TOP
  6
CONTINUOUS
 62
     7
100
AcDbCircle
 10
-0.9403637054612307
 20
-0.5298298350817723
 30
0.0
 40
0.0851954732816755
100
AcDbArc
 50
90.0
 51
270.0
  0
ARC
  5
854
330
1A
100
AcDbEntity
  8
1_TOP
  6
CONTINUOUS
 62
     7
100
AcDbCircle
 10
-1.65979214650648
 20
2.446332031558044
 30
0.0
 40
0.0075729309583677
100
AcDbArc
 50
90.0
 51
180.0
  0
ARC
  5
855
330
1A
100
AcDbEntity
  8
1_TOP
  6
CONTINUOUS
 62
     7
100
AcDbCircle
 10
-0.9403637054612307
 20
2.75114250263249
 30
0.0
 40
0.2158285323135731
100
AcDbArc
 50
90.0
 51
270.0
  0
ARC
  5
856
330
1A
100
AcDbEntity
  8
1_TOP
  6
CONTINUOUS
 62
     7
100
AcDbCircle
 10
-0.8154103446481107
 20
2.75114250263249
 30
0.0
 40
0.0851954732816851
100
AcDbArc
 50
270.0
 51
90.0
  0
ARC
  5
857
330
1A
100
AcDbEntity
  8
1_TOP
  6
CONTINUOUS
 62
     7
100
AcDbCircle
 10
-0.095981903602866
 20
2.446332031558044
 30
0.0
 40
0.0075729309583677
100
AcDbArc
 50
0.0
 51
90.0
  0
ARC
  5
858
330
1A
100
AcDbEntity
  8
1_TOP
  6
CONTINUOUS
 62
     7
100
AcDbCircle
 10
-0.8154103446481107
 20
2.75114250263249
 30
0.0
 40
0.2338142433396966
100
AcDbArc
 50
270.0
 51
90.0
  0
ARC
  5
859
330
1A
100
AcDbEntity
  8
1_TOP
  6
CONTINUOUS
 62
     7
100
AcDbCircle
 10
-0.9555095673779764
 20
2.514488410183366
 30
0.0
 40
0.0141992455469458
100
AcDbArc
 50
270.0
 51
0.0
  0
ARC
  5
85A
330
1A
100
AcDbEntity
  8
1_TOP
  6
CONTINUOUS
 62
     7
100
AcDbCircle
 10
-0.9403637054612307
 20
2.75114250263249
 30
0.0
 40
0.0766759259535142
100
AcDbArc
 50
90.0
 51
270.0
  0
ARC
  5
85B
330
1A
100
AcDbEntity
  8
1_TOP
  6
CONTINUOUS
 62
     7
100
AcDbCircle
 10
-0.9403637054612307
 20
2.75114250263249
 30
0.0
 40
0.2338142433396966
100
AcDbArc
 50
90.0
 51
270.0
  0
ARC
  5
85C
330
1A
100
AcDbEntity
  8
1_TOP
  6
CONTINUOUS
 62
     7
100
AcDbCircle
 10
-0.8154103446481107
 20
2.75114250263249
 30
0.0
 40
0.0766759259535142
100
AcDbArc
 50
270.0
 51
90.0
  0
ARC
  5
85D
330
1A
100
AcDbEntity
  8
1_TOP
  6
CONTINUOUS
 62
     7
100
AcDbCircle
 10
-0.8154103446481107
 20
-0.5298298350817723
 30
0.0
 40
0.147672153688236
100
AcDbArc
 50
270.0
 51
90.0
  0
ARC
  5
85E
330
1A
100
AcDbEntity
  8
1_TOP
  6
CONTINUOUS
 62
     7
100
AcDbCircle
 10
-0.8154103446481107
 20
-0.5298298350817723
 30
0.0
 40
0.0851954732816755
100
AcDbArc
 50
270.0
 51
90.0
  0
ARC
  5
85F
330
1A
100
AcDbEntity
  8
1_TOP
  6
CONTINUOUS
 62
     7
100
AcDbCircle
 10
-0.8002644827313684
 20
-0.2922291262628818
 30
0.0
 40
0.0141992455469487
100
AcDbArc
 50
90.0
 51
180.0
  0
ARC
  5
860
330
1A
100
AcDbEntity
  8
1_TOP
  6
CONTINUOUS
 62
     7
100
AcDbCircle
 10
3.628953511545894
 20
-1.087386876891836
 30
0.0
 40
0.0312383402033
100
AcDbArc
 50
192.3390872783166
 51
266.4236656249678
  0
ARC
  5
861
330
1A
100
AcDbEntity
  8
1_TOP
  6
CONTINUOUS
 62
     7
100
AcDbCircle
 10
3.628953511545894
 20
3.308699544442556
 30
0.0
 40
0.0312383402033011
100
AcDbArc
 50
93.57633437503187
 51
167.6609127216821
  0
VIEWPORT
  5
889
330
17
100
AcDbEntity
 67
     1
  8
0
100
AcDbViewport
 10
8.52002583979328
 20
5.5
 30
0.0
 40
17.04005167958656
 41
11.0
 68
     1
 69
     1
1001
ACAD
1000
MVIEW
1002
{
1070
    16
1010
0.0
1020
0.0
1030
0.0
1010
0.0
1020
0.0
1030
1.0
1040
0.0
1040
11.0
1040
8.52002583979328
1040
5.5
1040
50.0
1040
0.0
1040
0.0
1070
     0
1070
   100
1070
     1
1070
     1
1070
     0
1070
     0
1070
     0
1070
     0
1040
0.0
1040
0.0
1040
0.0
1040
1.0
1040
1.0
1040
0.0
1040
0.0
1070
     0
1002
{
1002
}
1002
}
  0
ENDSEC
  0
SECTION
  2
OBJECTS
  0
DICTIONARY
  5
C
330
0
100
AcDbDictionary
  3
ACAD_GROUP
350
D
  3
ACAD_LAYOUT
350
88F
  3
ACAD_MLINESTYLE
350
E
  3
ACAD_PLOTSETTINGS
350
890
1001
ACAD
1000
TREAT_AS_HARD
1070
     0
  0
DICTIONARY
  5
8C1
330
1A
100
AcDbDictionary
  3
ACAD_LAYOUTSELFREF
350
93C
1001
ACAD
1000
TREAT_AS_HARD
1070
     1
  0
DICTIONARY
  5
8BF
330
17
100
AcDbDictionary
  3
ACAD_LAYOUTSELFREF
350
93B
1001
ACAD
1000
TREAT_AS_HARD
1070
     1
  0
DICTIONARY
  5
D
102
{ACAD_REACTORS
330
C
102
}
330
C
100
AcDbDictionary
1001
ACAD
1000
TREAT_AS_HARD
1070
     0
  0
DICTIONARY
  5
88F
102
{ACAD_REACTORS
330
C
102
}
330
C
100
AcDbDictionary
1001
ACAD
1000
TREAT_AS_HARD
1070
     0
  0
DICTIONARY
  5
E
102
{ACAD_REACTORS
330
C
102
}
330
C
100
AcDbDictionary
  3
STANDARD
350
13
1001
ACAD
1000
TREAT_AS_HARD
1070
     0
  0
DICTIONARY
  5
890
102
{ACAD_REACTORS
330
C
102
}
330
C
100
AcDbDictionary
1001
ACAD
1000
TREAT_AS_HARD
1070
     0
  0
XRECORD
  5
93C
102
{ACAD_REACTORS
330
8C1
102
}
330
8C1
100
AcDbXrecord
340
1A
  0
XRECORD
  5
93B
102
{ACAD_REACTORS
330
8BF
102
}
330
8BF
100
AcDbXrecord
340
17
  0
MLINESTYLE
  5
13
102
{ACAD_REACTORS
330
E
102
}
330
E
100
AcDbMlineStyle
  2
STANDARD
 70
     0
  3

 62
     0
 51
90.0
 52
90.0
 71
     2
 49
0.5
 62
   256
  6
BYLAYER
 49
-0.5
 62
   256
  6
BYLAYER
  0
ENDSEC
  0
EOF
