  0
SECTION
  2
HEADER
  9
$ACADVER
  1
AC1024
  9
$ACADMAINTVER
 70
     6
  9
$DWGCODEPAGE
  3
ANSI_1252
  9
$INSBASE
 10
0.0
 20
0.0
 30
0.0
  9
$EXTMIN
 10
1.000000000000000E+20
 20
1.000000000000000E+20
 30
1.000000000000000E+20
  9
$EXTMAX
 10
-1.000000000000000E+20
 20
-1.000000000000000E+20
 30
-1.000000000000000E+20
  9
$LIMMIN
 10
0.0
 20
0.0
  9
$LIMMAX
 10
12.0
 20
9.0
  9
$ORTHOMODE
 70
     0
  9
$REGENMODE
 70
     1
  9
$FILLMODE
 70
     1
  9
$QTEXTMODE
 70
     0
  9
$MIRRTEXT
 70
     1
  9
$LTSCALE
 40
1.0
  9
$ATTMODE
 70
     1
  9
$TEXTSIZE
 40
0.2
  9
$TRACEWID
 40
0.05
  9
$TEXTSTYLE
  7
Standard
  9
$CLAYER
  8
0
  9
$CELTYPE
  6
ByLayer
  9
$CECOLOR
 62
   256
  9
$CELTSCALE
 40
1.0
  9
$DISPSILH
 70
     0
  9
$DIMSCALE
 40
1.0
  9
$DIMASZ
 40
0.18
  9
$DIMEXO
 40
0.0625
  9
$DIMDLI
 40
0.38
  9
$DIMRND
 40
0.0
  9
$DIMDLE
 40
0.0
  9
$DIMEXE
 40
0.18
  9
$DIMTP
 40
0.0
  9
$DIMTM
 40
0.0
  9
$DIMTXT
 40
0.18
  9
$DIMCEN
 40
0.09
  9
$DIMTSZ
 40
0.0
  9
$DIMTOL
 70
     0
  9
$DIMLIM
 70
     0
  9
$DIMTIH
 70
     1
  9
$DIMTOH
 70
     1
  9
$DIMSE1
 70
     0
  9
$DIMSE2
 70
     0
  9
$DIMTAD
 70
     0
  9
$DIMZIN
 70
     0
  9
$DIMBLK
  1

  9
$DIMASO
 70
     1
  9
$DIMSHO
 70
     1
  9
$DIMPOST
  1

  9
$DIMAPOST
  1

  9
$DIMALT
 70
     0
  9
$DIMALTD
 70
     2
  9
$DIMALTF
 40
25.4
  9
$DIMLFAC
 40
1.0
  9
$DIMTOFL
 70
     0
  9
$DIMTVP
 40
0.0
  9
$DIMTIX
 70
     0
  9
$DIMSOXD
 70
     0
  9
$DIMSAH
 70
     0
  9
$DIMBLK1
  1

  9
$DIMBLK2
  1

  9
$DIMSTYLE
  2
Standard
  9
$DIMCLRD
 70
     0
  9
$DIMCLRE
 70
     0
  9
$DIMCLRT
 70
     0
  9
$DIMTFAC
 40
1.0
  9
$DIMGAP
 40
0.09
  9
$DIMJUST
 70
     0
  9
$DIMSD1
 70
     0
  9
$DIMSD2
 70
     0
  9
$DIMTOLJ
 70
     1
  9
$DIMTZIN
 70
     0
  9
$DIMALTZ
 70
     0
  9
$DIMALTTZ
 70
     0
  9
$DIMUPT
 70
     0
  9
$DIMDEC
 70
     4
  9
$DIMTDEC
 70
     4
  9
$DIMALTU
 70
     2
  9
$DIMALTTD
 70
     2
  9
$DIMTXSTY
  7
Standard
  9
$DIMAUNIT
 70
     0
  9
$DIMADEC
 70
     0
  9
$DIMALTRND
 40
0.0
  9
$DIMAZIN
 70
     0
  9
$DIMDSEP
 70
    46
  9
$DIMATFIT
 70
     3
  9
$DIMFRAC
 70
     0
  9
$DIMLDRBLK
  1

  9
$DIMLUNIT
 70
     2
  9
$DIMLWD
 70
    -2
  9
$DIMLWE
 70
    -2
  9
$DIMTMOVE
 70
     0
  9
$DIMFXL
 40
1.0
  9
$DIMFXLON
 70
     0
  9
$DIMJOGANG
 40
0.7853981633974483
  9
$DIMTFILL
 70
     0
  9
$DIMTFILLCLR
 70
     0
  9
$DIMARCSYM
 70
     0
  9
$DIMLTYPE
  6

  9
$DIMLTEX1
  6

  9
$DIMLTEX2
  6

  9
$DIMTXTDIRECTION
 70
     0
  9
$LUNITS
 70
     2
  9
$LUPREC
 70
     4
  9
$SKETCHINC
 40
0.1
  9
$FILLETRAD
 40
0.5
  9
$AUNITS
 70
     0
  9
$AUPREC
 70
     0
  9
$MENU
  1
.
  9
$ELEVATION
 40
0.0
  9
$PELEVATION
 40
0.0
  9
$THICKNESS
 40
0.0
  9
$LIMCHECK
 70
     0
  9
$CHAMFERA
 40
0.5
  9
$CHAMFERB
 40
0.5
  9
$CHAMFERC
 40
1.0
  9
$CHAMFERD
 40
0.0
  9
$SKPOLY
 70
     0
  9
$TDCREATE
 40
2457779.657805671
  9
$TDUCREATE
 40
2457779.907805671
  9
$TDUPDATE
 40
2457779.657807685
  9
$TDUUPDATE
 40
2457779.907807685
  9
$TDINDWG
 40
0.0000000116
  9
$TDUSRTIMER
 40
0.0000000116
  9
$USRTIMER
 70
     1
  9
$ANGBASE
 50
0.0
  9
$ANGDIR
 70
     0
  9
$PDMODE
 70
     0
  9
$PDSIZE
 40
0.0
  9
$PLINEWID
 40
0.0
  9
$SPLFRAME
 70
     0
  9
$SPLINETYPE
 70
     6
  9
$SPLINESEGS
 70
     8
  9
$HANDSEED
  5
782
  9
$SURFTAB1
 70
     6
  9
$SURFTAB2
 70
     6
  9
$SURFTYPE
 70
     6
  9
$SURFU
 70
     6
  9
$SURFV
 70
     6
  9
$UCSBASE
  2

  9
$UCSNAME
  2

  9
$UCSORG
 10
0.0
 20
0.0
 30
0.0
  9
$UCSXDIR
 10
1.0
 20
0.0
 30
0.0
  9
$UCSYDIR
 10
0.0
 20
1.0
 30
0.0
  9
$UCSORTHOREF
  2

  9
$UCSORTHOVIEW
 70
     0
  9
$UCSORGTOP
 10
0.0
 20
0.0
 30
0.0
  9
$UCSORGBOTTOM
 10
0.0
 20
0.0
 30
0.0
  9
$UCSORGLEFT
 10
0.0
 20
0.0
 30
0.0
  9
$UCSORGRIGHT
 10
0.0
 20
0.0
 30
0.0
  9
$UCSORGFRONT
 10
0.0
 20
0.0
 30
0.0
  9
$UCSORGBACK
 10
0.0
 20
0.0
 30
0.0
  9
$PUCSBASE
  2

  9
$PUCSNAME
  2

  9
$PUCSORG
 10
0.0
 20
0.0
 30
0.0
  9
$PUCSXDIR
 10
1.0
 20
0.0
 30
0.0
  9
$PUCSYDIR
 10
0.0
 20
1.0
 30
0.0
  9
$PUCSORTHOREF
  2

  9
$PUCSORTHOVIEW
 70
     0
  9
$PUCSORGTOP
 10
0.0
 20
0.0
 30
0.0
  9
$PUCSORGBOTTOM
 10
0.0
 20
0.0
 30
0.0
  9
$PUCSORGLEFT
 10
0.0
 20
0.0
 30
0.0
  9
$PUCSORGRIGHT
 10
0.0
 20
0.0
 30
0.0
  9
$PUCSORGFRONT
 10
0.0
 20
0.0
 30
0.0
  9
$PUCSORGBACK
 10
0.0
 20
0.0
 30
0.0
  9
$USERI1
 70
     0
  9
$USERI2
 70
     0
  9
$USERI3
 70
     0
  9
$USERI4
 70
     0
  9
$USERI5
 70
     0
  9
$USERR1
 40
0.0
  9
$USERR2
 40
0.0
  9
$USERR3
 40
0.0
  9
$USERR4
 40
0.0
  9
$USERR5
 40
0.0
  9
$WORLDVIEW
 70
     1
  9
$SHADEDGE
 70
     3
  9
$SHADEDIF
 70
    70
  9
$TILEMODE
 70
     1
  9
$MAXACTVP
 70
    64
  9
$PINSBASE
 10
0.0
 20
0.0
 30
0.0
  9
$PLIMCHECK
 70
     0
  9
$PEXTMIN
 10
1.000000000000000E+20
 20
1.000000000000000E+20
 30
1.000000000000000E+20
  9
$PEXTMAX
 10
-1.000000000000000E+20
 20
-1.000000000000000E+20
 30
-1.000000000000000E+20
  9
$PLIMMIN
 10
0.0
 20
0.0
  9
$PLIMMAX
 10
12.0
 20
9.0
  9
$UNITMODE
 70
     0
  9
$VISRETAIN
 70
     1
  9
$PLINEGEN
 70
     0
  9
$PSLTSCALE
 70
     1
  9
$TREEDEPTH
 70
  3020
  9
$CMLSTYLE
  2
Standard
  9
$CMLJUST
 70
     0
  9
$CMLSCALE
 40
1.0
  9
$PROXYGRAPHICS
 70
     1
  9
$MEASUREMENT
 70
     0
  9
$CELWEIGHT
370
    -1
  9
$ENDCAPS
280
     0
  9
$JOINSTYLE
280
     0
  9
$LWDISPLAY
290
     1
  9
$INSUNITS
 70
     1
  9
$HYPERLINKBASE
  1

  9
$STYLESHEET
  1

  9
$XEDIT
290
     1
  9
$CEPSNTYPE
380
     0
  9
$PSTYLEMODE
290
     1
  9
$FINGERPRINTGUID
  2
{97022A57-8A7C-4A2D-9863-3DC3FD4F40A0}
  9
$VERSIONGUID
  2
{FAEB1C32-E019-11D5-929B-00C0DF256EC4}
  9
$EXTNAMES
290
     1
  9
$PSVPSCALE
 40
0.0
  9
$OLESTARTUP
290
     0
  9
$SORTENTS
280
   127
  9
$INDEXCTL
280
     0
  9
$HIDETEXT
280
     1
  9
$XCLIPFRAME
280
     2
  9
$HALOGAP
280
     0
  9
$OBSCOLOR
 70
   257
  9
$OBSLTYPE
280
     0
  9
$INTERSECTIONDISPLAY
280
     0
  9
$INTERSECTIONCOLOR
 70
   257
  9
$DIMASSOC
280
     2
  9
$PROJECTNAME
  1

  9
$CAMERADISPLAY
290
     0
  9
$LENSLENGTH
 40
50.0
  9
$CAMERAHEIGHT
 40
0.0
  9
$STEPSPERSEC
 40
2.0
  9
$STEPSIZE
 40
6.0
  9
$3DDWFPREC
 40
2.0
  9
$PSOLWIDTH
 40
0.25
  9
$PSOLHEIGHT
 40
4.0
  9
$LOFTANG1
 40
1.570796326794897
  9
$LOFTANG2
 40
1.570796326794897
  9
$LOFTMAG1
 40
0.0
  9
$LOFTMAG2
 40
0.0
  9
$LOFTPARAM
 70
     7
  9
$LOFTNORMALS
280
     1
  9
$LATITUDE
 40
37.795
  9
$LONGITUDE
 40
-122.394
  9
$NORTHDIRECTION
 40
0.0
  9
$TIMEZONE
 70
 -8000
  9
$LIGHTGLYPHDISPLAY
280
     1
  9
$TILEMODELIGHTSYNCH
280
     1
  9
$CMATERIAL
347
3C
  9
$SOLIDHIST
280
     1
  9
$SHOWHIST
280
     1
  9
$DWFFRAME
280
     2
  9
$DGNFRAME
280
     2
  9
$REALWORLDSCALE
290
     1
  9
$INTERFERECOLOR
 62
   256
  9
$CSHADOW
280
     0
  9
$SHADOWPLANELOCATION
 40
0.0
  0
ENDSEC
  0
SECTION
  2
CLASSES
  0
CLASS
  1
ACDBDICTIONARYWDFLT
  2
AcDbDictionaryWithDefault
  3
ObjectDBX Classes
 90
        0
 91
        4
280
     0
281
     0
  0
CLASS
  1
VISUALSTYLE
  2
AcDbVisualStyle
  3
ObjectDBX Classes
 90
     4095
 91
        4
280
     0
281
     0
  0
CLASS
  1
MATERIAL
  2
AcDbMaterial
  3
ObjectDBX Classes
 90
     1153
 91
        4
280
     0
281
     0
  0
CLASS
  1
SUN
  2
AcDbSun
  3
SCENEOE
 90
     1024
 91
        4
280
     0
281
     0
  0
ENDSEC
  0
SECTION
  2
TABLES
  0
TABLE
  2
VPORT
  5
8
330
0
100
AcDbSymbolTable
 70
     1
  0
VPORT
  5
29
330
8
100
AcDbSymbolTableRecord
100
AcDbViewportTableRecord
  2
*Active
 70
     0
 10
0.0
 20
0.0
 11
1.0
 21
1.0
 12
0.0
 22
0.0
 13
0.0
 23
0.0
 14
0.5
 24
0.5
 15
0.5
 25
0.5
 16
0.0
 26
0.0
 36
1.0
 17
5.5
 27
4.25
 37
0.0
 40
8.5
 41
1.294117647058824
 42
50.0
 43
0.0
 44
0.0
 50
0.0
 51
0.0
 71
     0
 72
   100
 73
     1
 74
     3
 75
     0
 76
     0
 77
     0
 78
     0
281
     0
 65
     1
110
0.0
120
0.0
130
0.0
111
1.0
121
0.0
131
0.0
112
0.0
122
1.0
132
0.0
 79
     0
146
0.0
 60
     3
 61
     5
292
     1
282
     1
141
0.0
142
0.0
 63
   250
361
3F
  0
ENDTAB
  0
TABLE
  2
LTYPE
  5
5
330
0
100
AcDbSymbolTable
 70
     1
  0
LTYPE
  5
14
330
5
100
AcDbSymbolTableRecord
100
AcDbLinetypeTableRecord
  2
ByBlock
 70
     0
  3

 72
    65
 73
     0
 40
0.0
  0
LTYPE
  5
15
330
5
100
AcDbSymbolTableRecord
100
AcDbLinetypeTableRecord
  2
ByLayer
 70
     0
  3

 72
    65
 73
     0
 40
0.0
  0
LTYPE
  5
16
330
5
100
AcDbSymbolTableRecord
100
AcDbLinetypeTableRecord
  2
Continuous
 70
     0
  3
Solid line
 72
    65
 73
     0
 40
0.0
  0
ENDTAB
  0
TABLE
  2
LAYER
  5
2
330
0
100
AcDbSymbolTable
 70
     2
  0
LAYER
  5
10
330
2
100
AcDbSymbolTableRecord
100
AcDbLayerTableRecord
  2
0
 70
     0
 62
     7
  6
Continuous
370
    -3
390
F
347
3E
  0
LAYER
  5
40
330
2
100
AcDbSymbolTableRecord
100
AcDbLayerTableRecord
  2
Layer 1
 70
     0
 62
     7
  6
Continuous
370
    -3
390
F
347
3E
  0
ENDTAB
  0
TABLE
  2
STYLE
  5
3
330
0
100
AcDbSymbolTable
 70
     1
  0
STYLE
  5
11
330
3
100
AcDbSymbolTableRecord
100
AcDbTextStyleTableRecord
  2
Standard
 70
     0
 40
0.0
 41
1.0
 50
0.0
 71
     0
 42
0.2
  3
txt
  4

  0
ENDTAB
  0
TABLE
  2
VIEW
  5
6
330
0
100
AcDbSymbolTable
 70
     0
  0
ENDTAB
  0
TABLE
  2
UCS
  5
7
330
0
100
AcDbSymbolTable
 70
     0
  0
ENDTAB
  0
TABLE
  2
APPID
  5
9
330
0
100
AcDbSymbolTable
 70
     1
  0
APPID
  5
12
330
9
100
AcDbSymbolTableRecord
100
AcDbRegAppTableRecord
  2
ACAD
 70
     0
  0
ENDTAB
  0
TABLE
  2
DIMSTYLE
  5
A
330
0
100
AcDbSymbolTable
 70
     1
100
AcDbDimStyleTable
  0
DIMSTYLE
105
27
330
A
100
AcDbSymbolTableRecord
100
AcDbDimStyleTableRecord
  2
Standard
 70
     0
178
     0
340
11
  0
ENDTAB
  0
TABLE
  2
BLOCK_RECORD
  5
1
330
0
100
AcDbSymbolTable
 70
     1
  0
BLOCK_RECORD
  5
1F
330
1
100
AcDbSymbolTableRecord
100
AcDbBlockTableRecord
  2
*Model_Space
340
22
 70
     0
280
     1
281
     0
  0
BLOCK_RECORD
  5
1B
330
1
100
AcDbSymbolTableRecord
100
AcDbBlockTableRecord
  2
*Paper_Space
340
1E
 70
     0
280
     1
281
     0
  0
BLOCK_RECORD
  5
23
330
1
100
AcDbSymbolTableRecord
100
AcDbBlockTableRecord
  2
*Paper_Space0
340
26
 70
     0
280
     1
281
     0
  0
ENDTAB
  0
ENDSEC
  0
SECTION
  2
BLOCKS
  0
BLOCK
  5
20
330
1F
100
AcDbEntity
  8
0
100
AcDbBlockBegin
  2
*Model_Space
 70
     0
 10
0.0
 20
0.0
 30
0.0
  3
*Model_Space
  1

  0
ENDBLK
  5
21
330
1F
100
AcDbEntity
  8
0
100
AcDbBlockEnd
  0
BLOCK
  5
1C
330
1B
100
AcDbEntity
 67
     1
  8
0
100
AcDbBlockBegin
  2
*Paper_Space
 70
     0
 10
0.0
 20
0.0
 30
0.0
  3
*Paper_Space
  1

  0
ENDBLK
  5
1D
330
1B
100
AcDbEntity
 67
     1
  8
0
100
AcDbBlockEnd
  0
BLOCK
  5
24
330
23
100
AcDbEntity
  8
0
100
AcDbBlockBegin
  2
*Paper_Space0
 70
     0
 10
0.0
 20
0.0
 30
0.0
  3
*Paper_Space0
  1

  0
ENDBLK
  5
25
330
23
100
AcDbEntity
  8
0
100
AcDbBlockEnd
  0
ENDSEC
  0
SECTION
  2
ENTITIES
  0
SPLINE
  5
41
330
1F
100
AcDbEntity
  8
Layer 1
 62
     7
370
    18
100
AcDbSpline
210
0.0
220
0.0
230
1.0
 70
     8
 71
     3
 72
     8
 73
     4
 74
     0
 42
0.0000000001
 43
0.0000000001
 12
1.0
 22
0.0
 32
0.0
 13
1.0
 23
0.0
 33
0.0
 40
0.0
 40
0.0
 40
0.0
 40
0.0
 40
1.0
 40
1.0
 40
1.0
 40
1.0
 10
6.682442982991536
 20
6.01657231648763
 30
0.0
 10
6.688499874538845
 20
6.016688876681857
 30
0.0
 10
6.694380442301432
 20
6.018636067708333
 30
0.0
 10
6.699309878879123
 20
6.022157033284505
 30
0.0
  0
SPLINE
  5
42
330
1F
100
AcDbEntity
  8
Layer 1
 62
     7
370
    18
100
AcDbSpline
210
0.0
220
0.0
230
1.0
 70
     8
 71
     3
 72
     8
 73
     4
 74
     0
 42
0.0000000001
 43
0.0000000001
 12
1.0
 22
0.0
 32
0.0
 13
1.0
 23
0.0
 33
0.0
 40
0.0
 40
0.0
 40
0.0
 40
0.0
 40
1.0
 40
1.0
 40
1.0
 40
1.0
 10
6.571841769748263
 20
4.74998050265842
 30
0.0
 10
6.577263726128471
 20
4.750118255615234
 30
0.0
 10
6.581588745117188
 20
4.754554324679904
 30
0.0
 10
6.581588745117188
 20
4.759977976481119
 30
0.0
  0
SPLINE
  5
43
330
1F
100
AcDbEntity
  8
Layer 1
 62
     7
370
    18
100
AcDbSpline
210
0.0
220
0.0
230
1.0
 70
     8
 71
     3
 72
     8
 73
     4
 74
     0
 42
0.0000000001
 43
0.0000000001
 12
1.0
 22
0.0
 32
0.0
 13
1.0
 23
0.0
 33
0.0
 40
0.0
 40
0.0
 40
0.0
 40
0.0
 40
1.0
 40
1.0
 40
1.0
 40
1.0
 10
6.529336293538411
 20
4.663466559516059
 30
0.0
 10
6.52314461602105
 20
4.664008246527778
 30
0.0
 10
6.516972011990017
 20
4.662223815917969
 30
0.0
 10
6.512023501925998
 20
4.658461252848307
 30
0.0
  0
SPLINE
  5
44
330
1F
100
AcDbEntity
  8
Layer 1
 62
     7
370
    18
100
AcDbSpline
210
0.0
220
0.0
230
1.0
 70
     8
 71
     3
 72
     8
 73
     4
 74
     0
 42
0.0000000001
 43
0.0000000001
 12
1.0
 22
0.0
 32
0.0
 13
1.0
 23
0.0
 33
0.0
 40
0.0
 40
0.0
 40
0.0
 40
0.0
 40
1.0
 40
1.0
 40
1.0
 40
1.0
 10
6.865129258897569
 20
4.757159762912326
 30
0.0
 10
6.861607021755642
 20
4.756863911946614
 30
0.0
 10
6.858226352267795
 20
4.755640241834852
 30
0.0
 10
6.855331844753689
 20
4.753613789876302
 30
0.0
  0
POLYLINE
  5
45
330
1F
100
AcDbEntity
  8
Layer 1
 62
     7
370
    18
100
AcDb2dPolyline
 66
     1
 10
0.0
 20
0.0
 30
0.0
  0
VERTEX
  5
46
330
45
100
AcDbEntity
  8
Layer 1
 62
     7
370
    18
100
AcDbVertex
100
AcDb2dVertex
 10
6.676133473714192
 20
4.628136105007595
 30
0.0
  0
VERTEX
  5
47
330
45
100
AcDbEntity
  8
Layer 1
 62
     7
370
    18
100
AcDbVertex
100
AcDb2dVertex
 10
6.658924950493706
 20
4.622711181640625
 30
0.0
  0
SEQEND
  5
48
330
45
100
AcDbEntity
  8
Layer 1
 62
     7
370
    18
  0
POLYLINE
  5
49
330
1F
100
AcDbEntity
  8
Layer 1
 62
     7
370
    18
100
AcDb2dPolyline
 66
     1
 10
0.0
 20
0.0
 30
0.0
  0
VERTEX
  5
4A
330
49
100
AcDbEntity
  8
Layer 1
 62
     7
370
    18
100
AcDbVertex
100
AcDb2dVertex
 10
6.850752936469184
 20
4.751692877875434
 30
0.0
  0
VERTEX
  5
4B
330
49
100
AcDbEntity
  8
Layer 1
 62
     7
370
    18
100
AcDbVertex
100
AcDb2dVertex
 10
6.855473412407768
 20
4.755613962809244
 30
0.0
  0
VERTEX
  5
4C
330
49
100
AcDbEntity
  8
Layer 1
 62
     7
370
    18
100
AcDbVertex
100
AcDb2dVertex
 10
6.860943264431423
 20
4.756984710693359
 30
0.0
  0
SEQEND
  5
4D
330
49
100
AcDbEntity
  8
Layer 1
 62
     7
370
    18
  0
POLYLINE
  5
4E
330
1F
100
AcDbEntity
  8
Layer 1
 62
     7
370
    18
100
AcDb2dPolyline
 66
     1
 10
0.0
 20
0.0
 30
0.0
  0
VERTEX
  5
4F
330
4E
100
AcDbEntity
  8
Layer 1
 62
     7
370
    18
100
AcDbVertex
100
AcDb2dVertex
 10
6.83826658460829
 20
4.746699863009982
 30
0.0
  0
VERTEX
  5
50
330
4E
100
AcDbEntity
  8
Layer 1
 62
     7
370
    18
100
AcDbVertex
100
AcDb2dVertex
 10
6.84104029337565
 20
4.75422371758355
 30
0.0
  0
VERTEX
  5
51
330
4E
100
AcDbEntity
  8
Layer 1
 62
     7
370
    18
100
AcDbVertex
100
AcDb2dVertex
 10
6.844872368706596
 20
4.756984710693359
 30
0.0
  0
SEQEND
  5
52
330
4E
100
AcDbEntity
  8
Layer 1
 62
     7
370
    18
  0
POLYLINE
  5
53
330
1F
100
AcDbEntity
  8
Layer 1
 62
     7
370
    18
100
AcDb2dPolyline
 66
     1
 10
0.0
 20
0.0
 30
0.0
  0
VERTEX
  5
54
330
53
100
AcDbEntity
  8
Layer 1
 62
     7
370
    18
100
AcDbVertex
100
AcDb2dVertex
 10
6.616430494520399
 20
4.65584733751085
 30
0.0
  0
VERTEX
  5
55
330
53
100
AcDbEntity
  8
Layer 1
 62
     7
370
    18
100
AcDbVertex
100
AcDb2dVertex
 10
6.529336293538411
 20
4.663466559516059
 30
0.0
  0
SEQEND
  5
56
330
53
100
AcDbEntity
  8
Layer 1
 62
     7
370
    18
  0
POLYLINE
  5
57
330
1F
100
AcDbEntity
  8
Layer 1
 62
     7
370
    18
100
AcDb2dPolyline
 66
     1
 10
0.0
 20
0.0
 30
0.0
  0
VERTEX
  5
58
330
57
100
AcDbEntity
  8
Layer 1
 62
     7
370
    18
100
AcDbVertex
100
AcDb2dVertex
 10
6.531611124674479
 20
4.668200174967447
 30
0.0
  0
VERTEX
  5
59
330
57
100
AcDbEntity
  8
Layer 1
 62
     7
370
    18
100
AcDbVertex
100
AcDb2dVertex
 10
6.529336293538411
 20
4.663466559516059
 30
0.0
  0
SEQEND
  5
5A
330
57
100
AcDbEntity
  8
Layer 1
 62
     7
370
    18
  0
POLYLINE
  5
5B
330
1F
100
AcDbEntity
  8
Layer 1
 62
     7
370
    18
100
AcDb2dPolyline
 66
     1
 10
0.0
 20
0.0
 30
0.0
  0
VERTEX
  5
5C
330
5B
100
AcDbEntity
  8
Layer 1
 62
     7
370
    18
100
AcDbVertex
100
AcDb2dVertex
 10
6.670397016737196
 20
4.636154174804688
 30
0.0
  0
VERTEX
  5
5D
330
5B
100
AcDbEntity
  8
Layer 1
 62
     7
370
    18
100
AcDbVertex
100
AcDb2dVertex
 10
6.674424913194444
 20
4.63045416937934
 30
0.0
  0
VERTEX
  5
5E
330
5B
100
AcDbEntity
  8
Layer 1
 62
     7
370
    18
100
AcDbVertex
100
AcDb2dVertex
 10
6.676133473714192
 20
4.628136105007595
 30
0.0
  0
SEQEND
  5
5F
330
5B
100
AcDbEntity
  8
Layer 1
 62
     7
370
    18
  0
POLYLINE
  5
60
330
1F
100
AcDbEntity
  8
Layer 1
 62
     7
370
    18
100
AcDb2dPolyline
 66
     1
 10
0.0
 20
0.0
 30
0.0
  0
VERTEX
  5
61
330
60
100
AcDbEntity
  8
Layer 1
 62
     7
370
    18
100
AcDbVertex
100
AcDb2dVertex
 10
6.83826658460829
 20
4.746699863009982
 30
0.0
  0
VERTEX
  5
62
330
60
100
AcDbEntity
  8
Layer 1
 62
     7
370
    18
100
AcDbVertex
100
AcDb2dVertex
 10
6.837140401204427
 20
4.746262444390191
 30
0.0
  0
VERTEX
  5
63
330
60
100
AcDbEntity
  8
Layer 1
 62
     7
370
    18
100
AcDbVertex
100
AcDb2dVertex
 10
6.828323788113064
 20
4.743888854980469
 30
0.0
  0
VERTEX
  5
64
330
60
100
AcDbEntity
  8
Layer 1
 62
     7
370
    18
100
AcDbVertex
100
AcDb2dVertex
 10
6.823741488986545
 20
4.743526458740234
 30
0.0
  0
SEQEND
  5
65
330
60
100
AcDbEntity
  8
Layer 1
 62
     7
370
    18
  0
POLYLINE
  5
66
330
1F
100
AcDbEntity
  8
Layer 1
 62
     7
370
    18
100
AcDb2dPolyline
 66
     1
 10
0.0
 20
0.0
 30
0.0
  0
VERTEX
  5
67
330
66
100
AcDbEntity
  8
Layer 1
 62
     7
370
    18
100
AcDbVertex
100
AcDb2dVertex
 10
6.658924950493706
 20
4.622711181640625
 30
0.0
  0
VERTEX
  5
68
330
66
100
AcDbEntity
  8
Layer 1
 62
     7
370
    18
100
AcDbVertex
100
AcDb2dVertex
 10
6.658924950493706
 20
4.625578986273871
 30
0.0
  0
VERTEX
  5
69
330
66
100
AcDbEntity
  8
Layer 1
 62
     7
370
    18
100
AcDbVertex
100
AcDb2dVertex
 10
6.658924950493706
 20
4.632536146375868
 30
0.0
  0
SEQEND
  5
6A
330
66
100
AcDbEntity
  8
Layer 1
 62
     7
370
    18
  0
POLYLINE
  5
6B
330
1F
100
AcDbEntity
  8
Layer 1
 62
     7
370
    18
100
AcDb2dPolyline
 66
     1
 10
0.0
 20
0.0
 30
0.0
  0
VERTEX
  5
6C
330
6B
100
AcDbEntity
  8
Layer 1
 62
     7
370
    18
100
AcDbVertex
100
AcDb2dVertex
 10
6.621677822536892
 20
4.622711181640625
 30
0.0
  0
VERTEX
  5
6D
330
6B
100
AcDbEntity
  8
Layer 1
 62
     7
370
    18
100
AcDbVertex
100
AcDb2dVertex
 10
6.621223449707031
 20
4.625578986273871
 30
0.0
  0
VERTEX
  5
6E
330
6B
100
AcDbEntity
  8
Layer 1
 62
     7
370
    18
100
AcDbVertex
100
AcDb2dVertex
 10
6.620122273763021
 20
4.632536146375868
 30
0.0
  0
SEQEND
  5
6F
330
6B
100
AcDbEntity
  8
Layer 1
 62
     7
370
    18
  0
POLYLINE
  5
70
330
1F
100
AcDbEntity
  8
Layer 1
 62
     7
370
    18
100
AcDb2dPolyline
 66
     1
 10
0.0
 20
0.0
 30
0.0
  0
VERTEX
  5
71
330
70
100
AcDbEntity
  8
Layer 1
 62
     7
370
    18
100
AcDbVertex
100
AcDb2dVertex
 10
6.850752936469184
 20
4.751692877875434
 30
0.0
  0
VERTEX
  5
72
330
70
100
AcDbEntity
  8
Layer 1
 62
     7
370
    18
100
AcDbVertex
100
AcDb2dVertex
 10
6.83826658460829
 20
4.746699863009982
 30
0.0
  0
SEQEND
  5
73
330
70
100
AcDbEntity
  8
Layer 1
 62
     7
370
    18
  0
POLYLINE
  5
74
330
1F
100
AcDbEntity
  8
Layer 1
 62
     7
370
    18
100
AcDb2dPolyline
 66
     1
 10
0.0
 20
0.0
 30
0.0
  0
VERTEX
  5
75
330
74
100
AcDbEntity
  8
Layer 1
 62
     7
370
    18
100
AcDbVertex
100
AcDb2dVertex
 10
6.855331844753689
 20
4.753612518310547
 30
0.0
  0
VERTEX
  5
76
330
74
100
AcDbEntity
  8
Layer 1
 62
     7
370
    18
100
AcDbVertex
100
AcDb2dVertex
 10
6.855223761664496
 20
4.753568013509114
 30
0.0
  0
VERTEX
  5
77
330
74
100
AcDbEntity
  8
Layer 1
 62
     7
370
    18
100
AcDbVertex
100
AcDb2dVertex
 10
6.854645623101128
 20
4.753316667344834
 30
0.0
  0
VERTEX
  5
78
330
74
100
AcDbEntity
  8
Layer 1
 62
     7
370
    18
100
AcDbVertex
100
AcDb2dVertex
 10
6.853859795464409
 20
4.752977583143446
 30
0.0
  0
VERTEX
  5
79
330
74
100
AcDbEntity
  8
Layer 1
 62
     7
370
    18
100
AcDbVertex
100
AcDb2dVertex
 10
6.850752936469184
 20
4.751692877875434
 30
0.0
  0
SEQEND
  5
7A
330
74
100
AcDbEntity
  8
Layer 1
 62
     7
370
    18
  0
POLYLINE
  5
7B
330
1F
100
AcDbEntity
  8
Layer 1
 62
     7
370
    18
100
AcDb2dPolyline
 66
     1
 10
0.0
 20
0.0
 30
0.0
  0
VERTEX
  5
7C
330
7B
100
AcDbEntity
  8
Layer 1
 62
     7
370
    18
100
AcDbVertex
100
AcDb2dVertex
 10
6.855331844753689
 20
4.753612518310547
 30
0.0
  0
VERTEX
  5
7D
330
7B
100
AcDbEntity
  8
Layer 1
 62
     7
370
    18
100
AcDbVertex
100
AcDb2dVertex
 10
6.676133473714192
 20
4.628136105007595
 30
0.0
  0
SEQEND
  5
7E
330
7B
100
AcDbEntity
  8
Layer 1
 62
     7
370
    18
  0
POLYLINE
  5
7F
330
1F
100
AcDbEntity
  8
Layer 1
 62
     7
370
    18
100
AcDb2dPolyline
 66
     1
 10
0.0
 20
0.0
 30
0.0
  0
VERTEX
  5
80
330
7F
100
AcDbEntity
  8
Layer 1
 62
     7
370
    18
100
AcDbVertex
100
AcDb2dVertex
 10
6.571588728162977
 20
4.789987352159288
 30
0.0
  0
VERTEX
  5
81
330
7F
100
AcDbEntity
  8
Layer 1
 62
     7
370
    18
100
AcDbVertex
100
AcDb2dVertex
 10
6.571588728162977
 20
4.835476345486111
 30
0.0
  0
SEQEND
  5
82
330
7F
100
AcDbEntity
  8
Layer 1
 62
     7
370
    18
  0
POLYLINE
  5
83
330
1F
100
AcDbEntity
  8
Layer 1
 62
     7
370
    18
100
AcDb2dPolyline
 66
     1
 10
0.0
 20
0.0
 30
0.0
  0
VERTEX
  5
84
330
83
100
AcDbEntity
  8
Layer 1
 62
     7
370
    18
100
AcDbVertex
100
AcDb2dVertex
 10
6.658924950493706
 20
4.622711181640625
 30
0.0
  0
VERTEX
  5
85
330
83
100
AcDbEntity
  8
Layer 1
 62
     7
370
    18
100
AcDbVertex
100
AcDb2dVertex
 10
6.621677822536892
 20
4.622711181640625
 30
0.0
  0
SEQEND
  5
86
330
83
100
AcDbEntity
  8
Layer 1
 62
     7
370
    18
  0
POLYLINE
  5
87
330
1F
100
AcDbEntity
  8
Layer 1
 62
     7
370
    18
100
AcDb2dPolyline
 66
     1
 10
0.0
 20
0.0
 30
0.0
  0
VERTEX
  5
88
330
87
100
AcDbEntity
  8
Layer 1
 62
     7
370
    18
100
AcDbVertex
100
AcDb2dVertex
 10
6.512023501925998
 20
4.788476308186849
 30
0.0
  0
VERTEX
  5
89
330
87
100
AcDbEntity
  8
Layer 1
 62
     7
370
    18
100
AcDbVertex
100
AcDb2dVertex
 10
6.571588728162977
 20
4.789987352159288
 30
0.0
  0
SEQEND
  5
8A
330
87
100
AcDbEntity
  8
Layer 1
 62
     7
370
    18
  0
POLYLINE
  5
8B
330
1F
100
AcDbEntity
  8
Layer 1
 62
     7
370
    18
100
AcDb2dPolyline
 66
     1
 10
0.0
 20
0.0
 30
0.0
  0
VERTEX
  5
8C
330
8B
100
AcDbEntity
  8
Layer 1
 62
     7
370
    18
100
AcDbVertex
100
AcDb2dVertex
 10
6.571841769748263
 20
4.74998050265842
 30
0.0
  0
VERTEX
  5
8D
330
8B
100
AcDbEntity
  8
Layer 1
 62
     7
370
    18
100
AcDbVertex
100
AcDb2dVertex
 10
6.571822272406684
 20
4.753026326497396
 30
0.0
  0
VERTEX
  5
8E
330
8B
100
AcDbEntity
  8
Layer 1
 62
     7
370
    18
100
AcDbVertex
100
AcDb2dVertex
 10
6.571768018934462
 20
4.761698404947916
 30
0.0
  0
VERTEX
  5
8F
330
8B
100
AcDbEntity
  8
Layer 1
 62
     7
370
    18
100
AcDbVertex
100
AcDb2dVertex
 10
6.571686214870876
 20
4.774677700466579
 30
0.0
  0
VERTEX
  5
90
330
8B
100
AcDbEntity
  8
Layer 1
 62
     7
370
    18
100
AcDbVertex
100
AcDb2dVertex
 10
6.571588728162977
 20
4.789987352159288
 30
0.0
  0
SEQEND
  5
91
330
8B
100
AcDbEntity
  8
Layer 1
 62
     7
370
    18
  0
POLYLINE
  5
92
330
1F
100
AcDbEntity
  8
Layer 1
 62
     7
370
    18
100
AcDb2dPolyline
 66
     1
 10
0.0
 20
0.0
 30
0.0
  0
VERTEX
  5
93
330
92
100
AcDbEntity
  8
Layer 1
 62
     7
370
    18
100
AcDbVertex
100
AcDb2dVertex
 10
6.711869557698567
 20
6.071946038140191
 30
0.0
  0
VERTEX
  5
94
330
92
100
AcDbEntity
  8
Layer 1
 62
     7
370
    18
100
AcDbVertex
100
AcDb2dVertex
 10
6.711869557698567
 20
6.068880716959635
 30
0.0
  0
VERTEX
  5
95
330
92
100
AcDbEntity
  8
Layer 1
 62
     7
370
    18
100
AcDbVertex
100
AcDb2dVertex
 10
6.711869557698567
 20
6.06006113688151
 30
0.0
  0
VERTEX
  5
96
330
92
100
AcDbEntity
  8
Layer 1
 62
     7
370
    18
100
AcDbVertex
100
AcDb2dVertex
 10
6.711869557698567
 20
6.046566857231988
 30
0.0
  0
SEQEND
  5
97
330
92
100
AcDbEntity
  8
Layer 1
 62
     7
370
    18
  0
POLYLINE
  5
98
330
1F
100
AcDbEntity
  8
Layer 1
 62
     7
370
    18
100
AcDb2dPolyline
 66
     1
 10
0.0
 20
0.0
 30
0.0
  0
VERTEX
  5
99
330
98
100
AcDbEntity
  8
Layer 1
 62
     7
370
    18
100
AcDbVertex
100
AcDb2dVertex
 10
6.581588745117188
 20
4.789987352159288
 30
0.0
  0
VERTEX
  5
9A
330
98
100
AcDbEntity
  8
Layer 1
 62
     7
370
    18
100
AcDbVertex
100
AcDb2dVertex
 10
6.581588745117188
 20
4.774982028537326
 30
0.0
  0
VERTEX
  5
9B
330
98
100
AcDbEntity
  8
Layer 1
 62
     7
370
    18
100
AcDbVertex
100
AcDb2dVertex
 10
6.581588745117188
 20
4.763998667399088
 30
0.0
  0
VERTEX
  5
9C
330
98
100
AcDbEntity
  8
Layer 1
 62
     7
370
    18
100
AcDbVertex
100
AcDb2dVertex
 10
6.581588745117188
 20
4.759977976481119
 30
0.0
  0
SEQEND
  5
9D
330
98
100
AcDbEntity
  8
Layer 1
 62
     7
370
    18
  0
POLYLINE
  5
9E
330
1F
100
AcDbEntity
  8
Layer 1
 62
     7
370
    18
100
AcDb2dPolyline
 66
     1
 10
0.0
 20
0.0
 30
0.0
  0
VERTEX
  5
9F
330
9E
100
AcDbEntity
  8
Layer 1
 62
     7
370
    18
100
AcDbVertex
100
AcDb2dVertex
 10
6.581588745117188
 20
4.835213979085286
 30
0.0
  0
VERTEX
  5
A0
330
9E
100
AcDbEntity
  8
Layer 1
 62
     7
370
    18
100
AcDbVertex
100
AcDb2dVertex
 10
6.581588745117188
 20
4.789987352159288
 30
0.0
  0
SEQEND
  5
A1
330
9E
100
AcDbEntity
  8
Layer 1
 62
     7
370
    18
  0
POLYLINE
  5
A2
330
1F
100
AcDbEntity
  8
Layer 1
 62
     7
370
    18
100
AcDb2dPolyline
 66
     1
 10
0.0
 20
0.0
 30
0.0
  0
VERTEX
  5
A3
330
A2
100
AcDbEntity
  8
Layer 1
 62
     7
370
    18
100
AcDbVertex
100
AcDb2dVertex
 10
6.581588745117188
 20
4.789987352159288
 30
0.0
  0
VERTEX
  5
A4
330
A2
100
AcDbEntity
  8
Layer 1
 62
     7
370
    18
100
AcDbVertex
100
AcDb2dVertex
 10
6.57865990532769
 20
4.789987352159288
 30
0.0
  0
VERTEX
  5
A5
330
A2
100
AcDbEntity
  8
Layer 1
 62
     7
370
    18
100
AcDbVertex
100
AcDb2dVertex
 10
6.571588728162977
 20
4.789987352159288
 30
0.0
  0
SEQEND
  5
A6
330
A2
100
AcDbEntity
  8
Layer 1
 62
     7
370
    18
  0
POLYLINE
  5
A7
330
1F
100
AcDbEntity
  8
Layer 1
 62
     7
370
    18
100
AcDb2dPolyline
 66
     1
 10
0.0
 20
0.0
 30
0.0
  0
VERTEX
  5
A8
330
A7
100
AcDbEntity
  8
Layer 1
 62
     7
370
    18
100
AcDbVertex
100
AcDb2dVertex
 10
6.699309878879123
 20
6.022157033284505
 30
0.0
  0
VERTEX
  5
A9
330
A7
100
AcDbEntity
  8
Layer 1
 62
     7
370
    18
100
AcDbVertex
100
AcDb2dVertex
 10
6.512023501925998
 20
6.025426228841146
 30
0.0
  0
SEQEND
  5
AA
330
A7
100
AcDbEntity
  8
Layer 1
 62
     7
370
    18
  0
POLYLINE
  5
AB
330
1F
100
AcDbEntity
  8
Layer 1
 62
     7
370
    18
100
AcDb2dPolyline
 66
     1
 10
0.0
 20
0.0
 30
0.0
  0
VERTEX
  5
AC
330
AB
100
AcDbEntity
  8
Layer 1
 62
     7
370
    18
100
AcDbVertex
100
AcDb2dVertex
 10
6.699309878879123
 20
6.022157033284505
 30
0.0
  0
VERTEX
  5
AD
330
AB
100
AcDbEntity
  8
Layer 1
 62
     7
370
    18
100
AcDbVertex
100
AcDb2dVertex
 10
6.705977969699435
 20
6.028712378607856
 30
0.0
  0
VERTEX
  5
AE
330
AB
100
AcDbEntity
  8
Layer 1
 62
     7
370
    18
100
AcDbVertex
100
AcDb2dVertex
 10
6.710255516899956
 20
6.036858452690972
 30
0.0
  0
VERTEX
  5
AF
330
AB
100
AcDbEntity
  8
Layer 1
 62
     7
370
    18
100
AcDbVertex
100
AcDb2dVertex
 10
6.711831834581163
 20
6.045058356391059
 30
0.0
  0
VERTEX
  5
B0
330
AB
100
AcDbEntity
  8
Layer 1
 62
     7
370
    18
100
AcDbVertex
100
AcDb2dVertex
 10
6.711869557698567
 20
6.046566857231988
 30
0.0
  0
SEQEND
  5
B1
330
AB
100
AcDbEntity
  8
Layer 1
 62
     7
370
    18
  0
POLYLINE
  5
B2
330
1F
100
AcDbEntity
  8
Layer 1
 62
     7
370
    18
100
AcDb2dPolyline
 66
     1
 10
0.0
 20
0.0
 30
0.0
  0
VERTEX
  5
B3
330
B2
100
AcDbEntity
  8
Layer 1
 62
     7
370
    18
100
AcDbVertex
100
AcDb2dVertex
 10
6.215758429633246
 20
4.59468756781684
 30
0.0
  0
VERTEX
  5
B4
330
B2
100
AcDbEntity
  8
Layer 1
 62
     7
370
    18
100
AcDbVertex
100
AcDb2dVertex
 10
6.215801239013672
 20
4.594637552897135
 30
0.0
  0
SEQEND
  5
B5
330
B2
100
AcDbEntity
  8
Layer 1
 62
     7
370
    18
  0
POLYLINE
  5
B6
330
1F
100
AcDbEntity
  8
Layer 1
 62
     7
370
    18
100
AcDb2dPolyline
 66
     1
 10
0.0
 20
0.0
 30
0.0
  0
VERTEX
  5
B7
330
B6
100
AcDbEntity
  8
Layer 1
 62
     7
370
    18
100
AcDbVertex
100
AcDb2dVertex
 10
6.254361046685112
 20
4.678238762749566
 30
0.0
  0
VERTEX
  5
B8
330
B6
100
AcDbEntity
  8
Layer 1
 62
     7
370
    18
100
AcDbVertex
100
AcDb2dVertex
 10
6.254216512044271
 20
4.677892896864149
 30
0.0
  0
VERTEX
  5
B9
330
B6
100
AcDbEntity
  8
Layer 1
 62
     7
370
    18
100
AcDbVertex
100
AcDb2dVertex
 10
6.254187689887153
 20
4.677825080023871
 30
0.0
  0
VERTEX
  5
BA
330
B6
100
AcDbEntity
  8
Layer 1
 62
     7
370
    18
100
AcDbVertex
100
AcDb2dVertex
 10
6.25415293375651
 20
4.677742852105035
 30
0.0
  0
VERTEX
  5
BB
330
B6
100
AcDbEntity
  8
Layer 1
 62
     7
370
    18
100
AcDbVertex
100
AcDb2dVertex
 10
6.253980424669053
 20
4.677332136366102
 30
0.0
  0
VERTEX
  5
BC
330
B6
100
AcDbEntity
  8
Layer 1
 62
     7
370
    18
100
AcDbVertex
100
AcDb2dVertex
 10
6.253662533230251
 20
4.676579369439019
 30
0.0
  0
VERTEX
  5
BD
330
B6
100
AcDbEntity
  8
Layer 1
 62
     7
370
    18
100
AcDbVertex
100
AcDb2dVertex
 10
6.253081851535373
 20
4.675201416015625
 30
0.0
  0
VERTEX
  5
BE
330
B6
100
AcDbEntity
  8
Layer 1
 62
     7
370
    18
100
AcDbVertex
100
AcDb2dVertex
 10
6.25201670328776
 20
4.672691769070095
 30
0.0
  0
VERTEX
  5
BF
330
B6
100
AcDbEntity
  8
Layer 1
 62
     7
370
    18
100
AcDbVertex
100
AcDb2dVertex
 10
6.250065273708767
 20
4.668123457166883
 30
0.0
  0
VERTEX
  5
C0
330
B6
100
AcDbEntity
  8
Layer 1
 62
     7
370
    18
100
AcDbVertex
100
AcDb2dVertex
 10
6.246466742621528
 20
4.659822252061631
 30
0.0
  0
VERTEX
  5
C1
330
B6
100
AcDbEntity
  8
Layer 1
 62
     7
370
    18
100
AcDbVertex
100
AcDb2dVertex
 10
6.239637586805555
 20
4.644535912407769
 30
0.0
  0
VERTEX
  5
C2
330
B6
100
AcDbEntity
  8
Layer 1
 62
     7
370
    18
100
AcDbVertex
100
AcDb2dVertex
 10
6.237173716227213
 20
4.639177958170572
 30
0.0
  0
VERTEX
  5
C3
330
B6
100
AcDbEntity
  8
Layer 1
 62
     7
370
    18
100
AcDbVertex
100
AcDb2dVertex
 10
6.225956810845268
 20
4.615822262234158
 30
0.0
  0
VERTEX
  5
C4
330
B6
100
AcDbEntity
  8
Layer 1
 62
     7
370
    18
100
AcDbVertex
100
AcDb2dVertex
 10
6.221800062391493
 20
4.607547336154513
 30
0.0
  0
VERTEX
  5
C5
330
B6
100
AcDbEntity
  8
Layer 1
 62
     7
370
    18
100
AcDbVertex
100
AcDb2dVertex
 10
6.217245737711588
 20
4.598462422688802
 30
0.0
  0
VERTEX
  5
C6
330
B6
100
AcDbEntity
  8
Layer 1
 62
     7
370
    18
100
AcDbVertex
100
AcDb2dVertex
 10
6.215758429633246
 20
4.59468756781684
 30
0.0
  0
SEQEND
  5
C7
330
B6
100
AcDbEntity
  8
Layer 1
 62
     7
370
    18
  0
POLYLINE
  5
C8
330
1F
100
AcDbEntity
  8
Layer 1
 62
     7
370
    18
100
AcDb2dPolyline
 66
     1
 10
0.0
 20
0.0
 30
0.0
  0
VERTEX
  5
C9
330
C8
100
AcDbEntity
  8
Layer 1
 62
     7
370
    18
100
AcDbVertex
100
AcDb2dVertex
 10
5.561880747477213
 20
5.446934594048394
 30
0.0
  0
VERTEX
  5
CA
330
C8
100
AcDbEntity
  8
Layer 1
 62
     7
370
    18
100
AcDbVertex
100
AcDb2dVertex
 10
5.537191602918837
 20
5.453595903184678
 30
0.0
  0
VERTEX
  5
CB
330
C8
100
AcDbEntity
  8
Layer 1
 62
     7
370
    18
100
AcDbVertex
100
AcDb2dVertex
 10
5.515096028645833
 20
5.459632025824653
 30
0.0
  0
VERTEX
  5
CC
330
C8
100
AcDbEntity
  8
Layer 1
 62
     7
370
    18
100
AcDbVertex
100
AcDb2dVertex
 10
5.49766370985243
 20
5.464477962917751
 30
0.0
  0
VERTEX
  5
CD
330
C8
100
AcDbEntity
  8
Layer 1
 62
     7
370
    18
100
AcDbVertex
100
AcDb2dVertex
 10
5.486531999376084
 20
5.467679341634114
 30
0.0
  0
VERTEX
  5
CE
330
C8
100
AcDbEntity
  8
Layer 1
 62
     7
370
    18
100
AcDbVertex
100
AcDb2dVertex
 10
5.482743157280816
 20
5.468934800889756
 30
0.0
  0
SEQEND
  5
CF
330
C8
100
AcDbEntity
  8
Layer 1
 62
     7
370
    18
  0
POLYLINE
  5
D0
330
1F
100
AcDbEntity
  8
Layer 1
 62
     7
370
    18
100
AcDb2dPolyline
 66
     1
 10
0.0
 20
0.0
 30
0.0
  0
VERTEX
  5
D1
330
D0
100
AcDbEntity
  8
Layer 1
 62
     7
370
    18
100
AcDbVertex
100
AcDb2dVertex
 10
6.177388932969834
 20
4.638518015543619
 30
0.0
  0
VERTEX
  5
D2
330
D0
100
AcDbEntity
  8
Layer 1
 62
     7
370
    18
100
AcDbVertex
100
AcDb2dVertex
 10
6.181127760145399
 20
4.617366790771484
 30
0.0
  0
VERTEX
  5
D3
330
D0
100
AcDbEntity
  8
Layer 1
 62
     7
370
    18
100
AcDbVertex
100
AcDb2dVertex
 10
6.195279015435113
 20
4.601201375325521
 30
0.0
  0
VERTEX
  5
D4
330
D0
100
AcDbEntity
  8
Layer 1
 62
     7
370
    18
100
AcDbVertex
100
AcDb2dVertex
 10
6.215758429633246
 20
4.59468756781684
 30
0.0
  0
SEQEND
  5
D5
330
D0
100
AcDbEntity
  8
Layer 1
 62
     7
370
    18
  0
POLYLINE
  5
D6
330
1F
100
AcDbEntity
  8
Layer 1
 62
     7
370
    18
100
AcDb2dPolyline
 66
     1
 10
0.0
 20
0.0
 30
0.0
  0
VERTEX
  5
D7
330
D6
100
AcDbEntity
  8
Layer 1
 62
     7
370
    18
100
AcDbVertex
100
AcDb2dVertex
 10
6.254361046685112
 20
4.678238762749566
 30
0.0
  0
VERTEX
  5
D8
330
D6
100
AcDbEntity
  8
Layer 1
 62
     7
370
    18
100
AcDbVertex
100
AcDb2dVertex
 10
6.254063924153646
 20
4.678011152479383
 30
0.0
  0
VERTEX
  5
D9
330
D6
100
AcDbEntity
  8
Layer 1
 62
     7
370
    18
100
AcDbVertex
100
AcDb2dVertex
 10
6.254005432128906
 20
4.677966647677951
 30
0.0
  0
VERTEX
  5
DA
330
D6
100
AcDbEntity
  8
Layer 1
 62
     7
370
    18
100
AcDbVertex
100
AcDb2dVertex
 10
6.253657023111979
 20
4.677700042724609
 30
0.0
  0
VERTEX
  5
DB
330
D6
100
AcDbEntity
  8
Layer 1
 62
     7
370
    18
100
AcDbVertex
100
AcDb2dVertex
 10
6.253067864312065
 20
4.677251180013021
 30
0.0
  0
VERTEX
  5
DC
330
D6
100
AcDbEntity
  8
Layer 1
 62
     7
370
    18
100
AcDbVertex
100
AcDb2dVertex
 10
6.251981947157118
 20
4.67643059624566
 30
0.0
  0
VERTEX
  5
DD
330
D6
100
AcDbEntity
  8
Layer 1
 62
     7
370
    18
100
AcDbVertex
100
AcDb2dVertex
 10
6.24997075398763
 20
4.674925062391493
 30
0.0
  0
VERTEX
  5
DE
330
D6
100
AcDbEntity
  8
Layer 1
 62
     7
370
    18
100
AcDbVertex
100
AcDb2dVertex
 10
6.246202680799696
 20
4.672169579399957
 30
0.0
  0
VERTEX
  5
DF
330
D6
100
AcDbEntity
  8
Layer 1
 62
     7
370
    18
100
AcDbVertex
100
AcDb2dVertex
 10
6.238966623942057
 20
4.667111290825738
 30
0.0
  0
VERTEX
  5
E0
330
D6
100
AcDbEntity
  8
Layer 1
 62
     7
370
    18
100
AcDbVertex
100
AcDb2dVertex
 10
6.224347432454427
 20
4.657876332600911
 30
0.0
  0
VERTEX
  5
E1
330
D6
100
AcDbEntity
  8
Layer 1
 62
     7
370
    18
100
AcDbVertex
100
AcDb2dVertex
 10
6.217931959364149
 20
4.654262542724609
 30
0.0
  0
VERTEX
  5
E2
330
D6
100
AcDbEntity
  8
Layer 1
 62
     7
370
    18
100
AcDbVertex
100
AcDb2dVertex
 10
6.19719738430447
 20
4.644582112630208
 30
0.0
  0
VERTEX
  5
E3
330
D6
100
AcDbEntity
  8
Layer 1
 62
     7
370
    18
100
AcDbVertex
100
AcDb2dVertex
 10
6.189197116427951
 20
4.64174567328559
 30
0.0
  0
VERTEX
  5
E4
330
D6
100
AcDbEntity
  8
Layer 1
 62
     7
370
    18
100
AcDbVertex
100
AcDb2dVertex
 10
6.180531819661458
 20
4.639298756917317
 30
0.0
  0
VERTEX
  5
E5
330
D6
100
AcDbEntity
  8
Layer 1
 62
     7
370
    18
100
AcDbVertex
100
AcDb2dVertex
 10
6.177388932969834
 20
4.638518015543619
 30
0.0
  0
SEQEND
  5
E6
330
D6
100
AcDbEntity
  8
Layer 1
 62
     7
370
    18
  0
POLYLINE
  5
E7
330
1F
100
AcDbEntity
  8
Layer 1
 62
     7
370
    18
100
AcDb2dPolyline
 66
     1
 10
0.0
 20
0.0
 30
0.0
  0
VERTEX
  5
E8
330
E7
100
AcDbEntity
  8
Layer 1
 62
     7
370
    18
100
AcDbVertex
100
AcDb2dVertex
 10
6.244057125515408
 20
6.044229295518663
 30
0.0
  0
VERTEX
  5
E9
330
E7
100
AcDbEntity
  8
Layer 1
 62
     7
370
    18
100
AcDbVertex
100
AcDb2dVertex
 10
6.218510945638021
 20
6.044229295518663
 30
0.0
  0
VERTEX
  5
EA
330
E7
100
AcDbEntity
  8
Layer 1
 62
     7
370
    18
100
AcDbVertex
100
AcDb2dVertex
 10
6.195633358425564
 20
6.044229295518663
 30
0.0
  0
VERTEX
  5
EB
330
E7
100
AcDbEntity
  8
Layer 1
 62
     7
370
    18
100
AcDbVertex
100
AcDb2dVertex
 10
6.177566528320312
 20
6.044229295518663
 30
0.0
  0
VERTEX
  5
EC
330
E7
100
AcDbEntity
  8
Layer 1
 62
     7
370
    18
100
AcDbVertex
100
AcDb2dVertex
 10
6.166002909342447
 20
6.044229295518663
 30
0.0
  0
VERTEX
  5
ED
330
E7
100
AcDbEntity
  8
Layer 1
 62
     7
370
    18
100
AcDbVertex
100
AcDb2dVertex
 10
6.162023756239149
 20
6.044229295518663
 30
0.0
  0
SEQEND
  5
EE
330
E7
100
AcDbEntity
  8
Layer 1
 62
     7
370
    18
  0
POLYLINE
  5
EF
330
1F
100
AcDbEntity
  8
Layer 1
 62
     7
370
    18
100
AcDb2dPolyline
 66
     1
 10
0.0
 20
0.0
 30
0.0
  0
VERTEX
  5
F0
330
EF
100
AcDbEntity
  8
Layer 1
 62
     7
370
    18
100
AcDbVertex
100
AcDb2dVertex
 10
6.138972388373481
 20
4.767320844862196
 30
0.0
  0
VERTEX
  5
F1
330
EF
100
AcDbEntity
  8
Layer 1
 62
     7
370
    18
100
AcDbVertex
100
AcDb2dVertex
 10
6.138202667236328
 20
4.741090138753255
 30
0.0
  0
VERTEX
  5
F2
330
EF
100
AcDbEntity
  8
Layer 1
 62
     7
370
    18
100
AcDbVertex
100
AcDb2dVertex
 10
6.137798733181423
 20
4.71742206149631
 30
0.0
  0
VERTEX
  5
F3
330
EF
100
AcDbEntity
  8
Layer 1
 62
     7
370
    18
100
AcDbVertex
100
AcDb2dVertex
 10
6.137798733181423
 20
4.698632134331597
 30
0.0
  0
VERTEX
  5
F4
330
EF
100
AcDbEntity
  8
Layer 1
 62
     7
370
    18
100
AcDbVertex
100
AcDb2dVertex
 10
6.138202667236328
 20
4.686555650499131
 30
0.0
  0
VERTEX
  5
F5
330
EF
100
AcDbEntity
  8
Layer 1
 62
     7
370
    18
100
AcDbVertex
100
AcDb2dVertex
 10
6.138972388373481
 20
4.682372199164496
 30
0.0
  0
SEQEND
  5
F6
330
EF
100
AcDbEntity
  8
Layer 1
 62
     7
370
    18
  0
POLYLINE
  5
F7
330
1F
100
AcDbEntity
  8
Layer 1
 62
     7
370
    18
100
AcDb2dPolyline
 66
     1
 10
0.0
 20
0.0
 30
0.0
  0
VERTEX
  5
F8
330
F7
100
AcDbEntity
  8
Layer 1
 62
     7
370
    18
100
AcDbVertex
100
AcDb2dVertex
 10
5.943419562445746
 20
4.774150000678168
 30
0.0
  0
VERTEX
  5
F9
330
F7
100
AcDbEntity
  8
Layer 1
 62
     7
370
    18
100
AcDbVertex
100
AcDb2dVertex
 10
5.942649841308594
 20
4.747918023003472
 30
0.0
  0
VERTEX
  5
FA
330
F7
100
AcDbEntity
  8
Layer 1
 62
     7
370
    18
100
AcDbVertex
100
AcDb2dVertex
 10
5.942245907253689
 20
4.724251217312283
 30
0.0
  0
VERTEX
  5
FB
330
F7
100
AcDbEntity
  8
Layer 1
 62
     7
370
    18
100
AcDbVertex
100
AcDb2dVertex
 10
5.942245907253689
 20
4.705461290147569
 30
0.0
  0
VERTEX
  5
FC
330
F7
100
AcDbEntity
  8
Layer 1
 62
     7
370
    18
100
AcDbVertex
100
AcDb2dVertex
 10
5.942649841308594
 20
4.693384806315104
 30
0.0
  0
VERTEX
  5
FD
330
F7
100
AcDbEntity
  8
Layer 1
 62
     7
370
    18
100
AcDbVertex
100
AcDb2dVertex
 10
5.943419562445746
 20
4.689201354980469
 30
0.0
  0
SEQEND
  5
FE
330
F7
100
AcDbEntity
  8
Layer 1
 62
     7
370
    18
  0
POLYLINE
  5
FF
330
1F
100
AcDbEntity
  8
Layer 1
 62
     7
370
    18
100
AcDb2dPolyline
 66
     1
 10
0.0
 20
0.0
 30
0.0
  0
VERTEX
  5
100
330
FF
100
AcDbEntity
  8
Layer 1
 62
     7
370
    18
100
AcDbVertex
100
AcDb2dVertex
 10
5.88939709133572
 20
4.806609683566623
 30
0.0
  0
VERTEX
  5
101
330
FF
100
AcDbEntity
  8
Layer 1
 62
     7
370
    18
100
AcDbVertex
100
AcDb2dVertex
 10
5.86722903781467
 20
4.793715159098307
 30
0.0
  0
VERTEX
  5
102
330
FF
100
AcDbEntity
  8
Layer 1
 62
     7
370
    18
100
AcDbVertex
100
AcDb2dVertex
 10
5.847429063585069
 20
4.782034556070963
 30
0.0
  0
VERTEX
  5
103
330
FF
100
AcDbEntity
  8
Layer 1
 62
     7
370
    18
100
AcDbVertex
100
AcDb2dVertex
 10
5.831862555609809
 20
4.772669474283854
 30
0.0
  0
VERTEX
  5
104
330
FF
100
AcDbEntity
  8
Layer 1
 62
     7
370
    18
100
AcDbVertex
100
AcDb2dVertex
 10
5.821993086073133
 20
4.76650153266059
 30
0.0
  0
VERTEX
  5
105
330
FF
100
AcDbEntity
  8
Layer 1
 62
     7
370
    18
100
AcDbVertex
100
AcDb2dVertex
 10
5.818751441107856
 20
4.764109717475043
 30
0.0
  0
SEQEND
  5
106
330
FF
100
AcDbEntity
  8
Layer 1
 62
     7
370
    18
  0
POLYLINE
  5
107
330
1F
100
AcDbEntity
  8
Layer 1
 62
     7
370
    18
100
AcDb2dPolyline
 66
     1
 10
0.0
 20
0.0
 30
0.0
  0
VERTEX
  5
108
330
107
100
AcDbEntity
  8
Layer 1
 62
     7
370
    18
100
AcDbVertex
100
AcDb2dVertex
 10
5.551617940266927
 20
5.391659630669488
 30
0.0
  0
VERTEX
  5
109
330
107
100
AcDbEntity
  8
Layer 1
 62
     7
370
    18
100
AcDbVertex
100
AcDb2dVertex
 10
5.529451582166883
 20
5.378765106201172
 30
0.0
  0
VERTEX
  5
10A
330
107
100
AcDbEntity
  8
Layer 1
 62
     7
370
    18
100
AcDbVertex
100
AcDb2dVertex
 10
5.509651184082031
 20
5.367086198594834
 30
0.0
  0
VERTEX
  5
10B
330
107
100
AcDbEntity
  8
Layer 1
 62
     7
370
    18
100
AcDbVertex
100
AcDb2dVertex
 10
5.494083404541016
 20
5.357719421386719
 30
0.0
  0
VERTEX
  5
10C
330
107
100
AcDbEntity
  8
Layer 1
 62
     7
370
    18
100
AcDbVertex
100
AcDb2dVertex
 10
5.48421393500434
 20
5.351551479763454
 30
0.0
  0
VERTEX
  5
10D
330
107
100
AcDbEntity
  8
Layer 1
 62
     7
370
    18
100
AcDbVertex
100
AcDb2dVertex
 10
5.480972290039062
 20
5.349159664577908
 30
0.0
  0
SEQEND
  5
10E
330
107
100
AcDbEntity
  8
Layer 1
 62
     7
370
    18
  0
POLYLINE
  5
10F
330
1F
100
AcDbEntity
  8
Layer 1
 62
     7
370
    18
100
AcDb2dPolyline
 66
     1
 10
0.0
 20
0.0
 30
0.0
  0
VERTEX
  5
110
330
10F
100
AcDbEntity
  8
Layer 1
 62
     7
370
    18
100
AcDbVertex
100
AcDb2dVertex
 10
5.55011961195204
 20
5.403041839599609
 30
0.0
  0
VERTEX
  5
111
330
10F
100
AcDbEntity
  8
Layer 1
 62
     7
370
    18
100
AcDbVertex
100
AcDb2dVertex
 10
5.525430467393663
 20
5.409702724880642
 30
0.0
  0
VERTEX
  5
112
330
10F
100
AcDbEntity
  8
Layer 1
 62
     7
370
    18
100
AcDbVertex
100
AcDb2dVertex
 10
5.50333489312066
 20
5.415738847520616
 30
0.0
  0
VERTEX
  5
113
330
10F
100
AcDbEntity
  8
Layer 1
 62
     7
370
    18
100
AcDbVertex
100
AcDb2dVertex
 10
5.485902574327256
 20
5.420584784613715
 30
0.0
  0
VERTEX
  5
114
330
10F
100
AcDbEntity
  8
Layer 1
 62
     7
370
    18
100
AcDbVertex
100
AcDb2dVertex
 10
5.474770863850911
 20
5.423786163330078
 30
0.0
  0
VERTEX
  5
115
330
10F
100
AcDbEntity
  8
Layer 1
 62
     7
370
    18
100
AcDbVertex
100
AcDb2dVertex
 10
5.470982021755642
 20
5.42504162258572
 30
0.0
  0
SEQEND
  5
116
330
10F
100
AcDbEntity
  8
Layer 1
 62
     7
370
    18
  0
POLYLINE
  5
117
330
1F
100
AcDbEntity
  8
Layer 1
 62
     7
370
    18
100
AcDb2dPolyline
 66
     1
 10
0.0
 20
0.0
 30
0.0
  0
VERTEX
  5
118
330
117
100
AcDbEntity
  8
Layer 1
 62
     7
370
    18
100
AcDbVertex
100
AcDb2dVertex
 10
5.615462409125434
 20
5.516763899061415
 30
0.0
  0
VERTEX
  5
119
330
117
100
AcDbEntity
  8
Layer 1
 62
     7
370
    18
100
AcDbVertex
100
AcDb2dVertex
 10
5.602626376681857
 20
5.539271036783854
 30
0.0
  0
VERTEX
  5
11A
330
117
100
AcDbEntity
  8
Layer 1
 62
     7
370
    18
100
AcDbVertex
100
AcDb2dVertex
 10
5.591302659776475
 20
5.559622022840712
 30
0.0
  0
VERTEX
  5
11B
330
117
100
AcDbEntity
  8
Layer 1
 62
     7
370
    18
100
AcDbVertex
100
AcDb2dVertex
 10
5.582576327853732
 20
5.575870937771267
 30
0.0
  0
VERTEX
  5
11C
330
117
100
AcDbEntity
  8
Layer 1
 62
     7
370
    18
100
AcDbVertex
100
AcDb2dVertex
 10
5.577281951904297
 20
5.586459689670138
 30
0.0
  0
VERTEX
  5
11D
330
117
100
AcDbEntity
  8
Layer 1
 62
     7
370
    18
100
AcDbVertex
100
AcDb2dVertex
 10
5.575927734375
 20
5.590376536051432
 30
0.0
  0
SEQEND
  5
11E
330
117
100
AcDbEntity
  8
Layer 1
 62
     7
370
    18
  0
POLYLINE
  5
11F
330
1F
100
AcDbEntity
  8
Layer 1
 62
     7
370
    18
100
AcDb2dPolyline
 66
     1
 10
0.0
 20
0.0
 30
0.0
  0
VERTEX
  5
120
330
11F
100
AcDbEntity
  8
Layer 1
 62
     7
370
    18
100
AcDbVertex
100
AcDb2dVertex
 10
6.101556989881727
 20
5.797411176893446
 30
0.0
  0
VERTEX
  5
121
330
11F
100
AcDbEntity
  8
Layer 1
 62
     7
370
    18
100
AcDbVertex
100
AcDb2dVertex
 10
6.08872095743815
 20
5.819917890760633
 30
0.0
  0
VERTEX
  5
122
330
11F
100
AcDbEntity
  8
Layer 1
 62
     7
370
    18
100
AcDbVertex
100
AcDb2dVertex
 10
6.077398512098524
 20
5.840269300672743
 30
0.0
  0
VERTEX
  5
123
330
11F
100
AcDbEntity
  8
Layer 1
 62
     7
370
    18
100
AcDbVertex
100
AcDb2dVertex
 10
6.068672180175781
 20
5.856518215603298
 30
0.0
  0
VERTEX
  5
124
330
11F
100
AcDbEntity
  8
Layer 1
 62
     7
370
    18
100
AcDbVertex
100
AcDb2dVertex
 10
6.063377804226345
 20
5.86710696750217
 30
0.0
  0
VERTEX
  5
125
330
11F
100
AcDbEntity
  8
Layer 1
 62
     7
370
    18
100
AcDbVertex
100
AcDb2dVertex
 10
6.062023586697048
 20
5.871023813883463
 30
0.0
  0
SEQEND
  5
126
330
11F
100
AcDbEntity
  8
Layer 1
 62
     7
370
    18
  0
POLYLINE
  5
127
330
1F
100
AcDbEntity
  8
Layer 1
 62
     7
370
    18
100
AcDb2dPolyline
 66
     1
 10
0.0
 20
0.0
 30
0.0
  0
VERTEX
  5
128
330
127
100
AcDbEntity
  8
Layer 1
 62
     7
370
    18
100
AcDbVertex
100
AcDb2dVertex
 10
6.244057125515408
 20
6.072182125515408
 30
0.0
  0
VERTEX
  5
129
330
127
100
AcDbEntity
  8
Layer 1
 62
     7
370
    18
100
AcDbVertex
100
AcDb2dVertex
 10
6.218510945638021
 20
6.072182125515408
 30
0.0
  0
VERTEX
  5
12A
330
127
100
AcDbEntity
  8
Layer 1
 62
     7
370
    18
100
AcDbVertex
100
AcDb2dVertex
 10
6.195633358425564
 20
6.072182125515408
 30
0.0
  0
VERTEX
  5
12B
330
127
100
AcDbEntity
  8
Layer 1
 62
     7
370
    18
100
AcDbVertex
100
AcDb2dVertex
 10
6.177566528320312
 20
6.072182125515408
 30
0.0
  0
VERTEX
  5
12C
330
127
100
AcDbEntity
  8
Layer 1
 62
     7
370
    18
100
AcDbVertex
100
AcDb2dVertex
 10
6.166002909342447
 20
6.072182125515408
 30
0.0
  0
VERTEX
  5
12D
330
127
100
AcDbEntity
  8
Layer 1
 62
     7
370
    18
100
AcDbVertex
100
AcDb2dVertex
 10
6.162023756239149
 20
6.072182125515408
 30
0.0
  0
SEQEND
  5
12E
330
127
100
AcDbEntity
  8
Layer 1
 62
     7
370
    18
  0
POLYLINE
  5
12F
330
1F
100
AcDbEntity
  8
Layer 1
 62
     7
370
    18
100
AcDb2dPolyline
 66
     1
 10
0.0
 20
0.0
 30
0.0
  0
VERTEX
  5
130
330
12F
100
AcDbEntity
  8
Layer 1
 62
     7
370
    18
100
AcDbVertex
100
AcDb2dVertex
 10
6.355044470893012
 20
6.187112596299913
 30
0.0
  0
VERTEX
  5
131
330
12F
100
AcDbEntity
  8
Layer 1
 62
     7
370
    18
100
AcDbVertex
100
AcDb2dVertex
 10
6.354273478190104
 20
6.213342878553602
 30
0.0
  0
VERTEX
  5
132
330
12F
100
AcDbEntity
  8
Layer 1
 62
     7
370
    18
100
AcDbVertex
100
AcDb2dVertex
 10
6.3538695441352
 20
6.237009684244791
 30
0.0
  0
VERTEX
  5
133
330
12F
100
AcDbEntity
  8
Layer 1
 62
     7
370
    18
100
AcDbVertex
100
AcDb2dVertex
 10
6.3538695441352
 20
6.255800035264756
 30
0.0
  0
VERTEX
  5
134
330
12F
100
AcDbEntity
  8
Layer 1
 62
     7
370
    18
100
AcDbVertex
100
AcDb2dVertex
 10
6.354273478190104
 20
6.267877790662977
 30
0.0
  0
VERTEX
  5
135
330
12F
100
AcDbEntity
  8
Layer 1
 62
     7
370
    18
100
AcDbVertex
100
AcDb2dVertex
 10
6.355044470893012
 20
6.272059546576606
 30
0.0
  0
SEQEND
  5
136
330
12F
100
AcDbEntity
  8
Layer 1
 62
     7
370
    18
  0
POLYLINE
  5
137
330
1F
100
AcDbEntity
  8
Layer 1
 62
     7
370
    18
100
AcDb2dPolyline
 66
     1
 10
0.0
 20
0.0
 30
0.0
  0
VERTEX
  5
138
330
137
100
AcDbEntity
  8
Layer 1
 62
     7
370
    18
100
AcDbVertex
100
AcDb2dVertex
 10
6.254361046685112
 20
4.678238762749566
 30
0.0
  0
VERTEX
  5
139
330
137
100
AcDbEntity
  8
Layer 1
 62
     7
370
    18
100
AcDbVertex
100
AcDb2dVertex
 10
6.512023501925998
 20
4.669241587320963
 30
0.0
  0
SEQEND
  5
13A
330
137
100
AcDbEntity
  8
Layer 1
 62
     7
370
    18
  0
POLYLINE
  5
13B
330
1F
100
AcDbEntity
  8
Layer 1
 62
     7
370
    18
100
AcDb2dPolyline
 66
     1
 10
0.0
 20
0.0
 30
0.0
  0
VERTEX
  5
13C
330
13B
100
AcDbEntity
  8
Layer 1
 62
     7
370
    18
100
AcDbVertex
100
AcDb2dVertex
 10
6.138972388373481
 20
4.767320844862196
 30
0.0
  0
VERTEX
  5
13D
330
13B
100
AcDbEntity
  8
Layer 1
 62
     7
370
    18
100
AcDbVertex
100
AcDb2dVertex
 10
6.169625176323785
 20
4.762391832139756
 30
0.0
  0
VERTEX
  5
13E
330
13B
100
AcDbEntity
  8
Layer 1
 62
     7
370
    18
100
AcDbVertex
100
AcDb2dVertex
 10
6.198117997911241
 20
4.75006103515625
 30
0.0
  0
VERTEX
  5
13F
330
13B
100
AcDbEntity
  8
Layer 1
 62
     7
370
    18
100
AcDbVertex
100
AcDb2dVertex
 10
6.2226931254069
 20
4.73108885023329
 30
0.0
  0
VERTEX
  5
140
330
13B
100
AcDbEntity
  8
Layer 1
 62
     7
370
    18
100
AcDbVertex
100
AcDb2dVertex
 10
6.241834852430555
 20
4.706645965576172
 30
0.0
  0
VERTEX
  5
141
330
13B
100
AcDbEntity
  8
Layer 1
 62
     7
370
    18
100
AcDbVertex
100
AcDb2dVertex
 10
6.254361046685112
 20
4.678238762749566
 30
0.0
  0
SEQEND
  5
142
330
13B
100
AcDbEntity
  8
Layer 1
 62
     7
370
    18
  0
POLYLINE
  5
143
330
1F
100
AcDbEntity
  8
Layer 1
 62
     7
370
    18
100
AcDb2dPolyline
 66
     1
 10
0.0
 20
0.0
 30
0.0
  0
VERTEX
  5
144
330
143
100
AcDbEntity
  8
Layer 1
 62
     7
370
    18
100
AcDbVertex
100
AcDb2dVertex
 10
5.561880747477213
 20
5.446934594048394
 30
0.0
  0
VERTEX
  5
145
330
143
100
AcDbEntity
  8
Layer 1
 62
     7
370
    18
100
AcDbVertex
100
AcDb2dVertex
 10
5.55011961195204
 20
5.403041839599609
 30
0.0
  0
SEQEND
  5
146
330
143
100
AcDbEntity
  8
Layer 1
 62
     7
370
    18
  0
POLYLINE
  5
147
330
1F
100
AcDbEntity
  8
Layer 1
 62
     7
370
    18
100
AcDb2dPolyline
 66
     1
 10
0.0
 20
0.0
 30
0.0
  0
VERTEX
  5
148
330
147
100
AcDbEntity
  8
Layer 1
 62
     7
370
    18
100
AcDbVertex
100
AcDb2dVertex
 10
6.244057125515408
 20
6.044229295518663
 30
0.0
  0
VERTEX
  5
149
330
147
100
AcDbEntity
  8
Layer 1
 62
     7
370
    18
100
AcDbVertex
100
AcDb2dVertex
 10
6.239727867974175
 20
5.9947386847602
 30
0.0
  0
VERTEX
  5
14A
330
147
100
AcDbEntity
  8
Layer 1
 62
     7
370
    18
100
AcDbVertex
100
AcDb2dVertex
 10
6.226869371202256
 20
5.946752760145399
 30
0.0
  0
VERTEX
  5
14B
330
147
100
AcDbEntity
  8
Layer 1
 62
     7
370
    18
100
AcDbVertex
100
AcDb2dVertex
 10
6.205874972873263
 20
5.901729159884982
 30
0.0
  0
VERTEX
  5
14C
330
147
100
AcDbEntity
  8
Layer 1
 62
     7
370
    18
100
AcDbVertex
100
AcDb2dVertex
 10
6.1773804558648
 20
5.861034817165798
 30
0.0
  0
VERTEX
  5
14D
330
147
100
AcDbEntity
  8
Layer 1
 62
     7
370
    18
100
AcDbVertex
100
AcDb2dVertex
 10
6.142251332600911
 20
5.825906965467665
 30
0.0
  0
VERTEX
  5
14E
330
147
100
AcDbEntity
  8
Layer 1
 62
     7
370
    18
100
AcDbVertex
100
AcDb2dVertex
 10
6.101556989881727
 20
5.797411176893446
 30
0.0
  0
SEQEND
  5
14F
330
147
100
AcDbEntity
  8
Layer 1
 62
     7
370
    18
  0
POLYLINE
  5
150
330
1F
100
AcDbEntity
  8
Layer 1
 62
     7
370
    18
100
AcDb2dPolyline
 66
     1
 10
0.0
 20
0.0
 30
0.0
  0
VERTEX
  5
151
330
150
100
AcDbEntity
  8
Layer 1
 62
     7
370
    18
100
AcDbVertex
100
AcDb2dVertex
 10
5.943419562445746
 20
4.774150000678168
 30
0.0
  0
VERTEX
  5
152
330
150
100
AcDbEntity
  8
Layer 1
 62
     7
370
    18
100
AcDbVertex
100
AcDb2dVertex
 10
6.138972388373481
 20
4.767320844862196
 30
0.0
  0
SEQEND
  5
153
330
150
100
AcDbEntity
  8
Layer 1
 62
     7
370
    18
  0
POLYLINE
  5
154
330
1F
100
AcDbEntity
  8
Layer 1
 62
     7
370
    18
100
AcDb2dPolyline
 66
     1
 10
0.0
 20
0.0
 30
0.0
  0
VERTEX
  5
155
330
154
100
AcDbEntity
  8
Layer 1
 62
     7
370
    18
100
AcDbVertex
100
AcDb2dVertex
 10
5.88939709133572
 20
4.806609683566623
 30
0.0
  0
VERTEX
  5
156
330
154
100
AcDbEntity
  8
Layer 1
 62
     7
370
    18
100
AcDbVertex
100
AcDb2dVertex
 10
5.903330485026041
 20
4.789806789822048
 30
0.0
  0
VERTEX
  5
157
330
154
100
AcDbEntity
  8
Layer 1
 62
     7
370
    18
100
AcDbVertex
100
AcDb2dVertex
 10
5.922041575113932
 20
4.778564029269748
 30
0.0
  0
VERTEX
  5
158
330
154
100
AcDbEntity
  8
Layer 1
 62
     7
370
    18
100
AcDbVertex
100
AcDb2dVertex
 10
5.943419562445746
 20
4.774150000678168
 30
0.0
  0
SEQEND
  5
159
330
154
100
AcDbEntity
  8
Layer 1
 62
     7
370
    18
  0
POLYLINE
  5
15A
330
1F
100
AcDbEntity
  8
Layer 1
 62
     7
370
    18
100
AcDb2dPolyline
 66
     1
 10
0.0
 20
0.0
 30
0.0
  0
VERTEX
  5
15B
330
15A
100
AcDbEntity
  8
Layer 1
 62
     7
370
    18
100
AcDbVertex
100
AcDb2dVertex
 10
5.551617940266927
 20
5.391659630669488
 30
0.0
  0
VERTEX
  5
15C
330
15A
100
AcDbEntity
  8
Layer 1
 62
     7
370
    18
100
AcDbVertex
100
AcDb2dVertex
 10
5.88939709133572
 20
4.806609683566623
 30
0.0
  0
SEQEND
  5
15D
330
15A
100
AcDbEntity
  8
Layer 1
 62
     7
370
    18
  0
POLYLINE
  5
15E
330
1F
100
AcDbEntity
  8
Layer 1
 62
     7
370
    18
100
AcDb2dPolyline
 66
     1
 10
0.0
 20
0.0
 30
0.0
  0
VERTEX
  5
15F
330
15E
100
AcDbEntity
  8
Layer 1
 62
     7
370
    18
100
AcDbVertex
100
AcDb2dVertex
 10
5.55011961195204
 20
5.403041839599609
 30
0.0
  0
VERTEX
  5
160
330
15E
100
AcDbEntity
  8
Layer 1
 62
     7
370
    18
100
AcDbVertex
100
AcDb2dVertex
 10
5.551617940266927
 20
5.391659630669488
 30
0.0
  0
SEQEND
  5
161
330
15E
100
AcDbEntity
  8
Layer 1
 62
     7
370
    18
  0
POLYLINE
  5
162
330
1F
100
AcDbEntity
  8
Layer 1
 62
     7
370
    18
100
AcDb2dPolyline
 66
     1
 10
0.0
 20
0.0
 30
0.0
  0
VERTEX
  5
163
330
162
100
AcDbEntity
  8
Layer 1
 62
     7
370
    18
100
AcDbVertex
100
AcDb2dVertex
 10
6.244057125515408
 20
6.072182125515408
 30
0.0
  0
VERTEX
  5
164
330
162
100
AcDbEntity
  8
Layer 1
 62
     7
370
    18
100
AcDbVertex
100
AcDb2dVertex
 10
6.244057125515408
 20
6.044229295518663
 30
0.0
  0
SEQEND
  5
165
330
162
100
AcDbEntity
  8
Layer 1
 62
     7
370
    18
  0
POLYLINE
  5
166
330
1F
100
AcDbEntity
  8
Layer 1
 62
     7
370
    18
100
AcDb2dPolyline
 66
     1
 10
0.0
 20
0.0
 30
0.0
  0
VERTEX
  5
167
330
166
100
AcDbEntity
  8
Layer 1
 62
     7
370
    18
100
AcDbVertex
100
AcDb2dVertex
 10
5.615462409125434
 20
5.516763899061415
 30
0.0
  0
VERTEX
  5
168
330
166
100
AcDbEntity
  8
Layer 1
 62
     7
370
    18
100
AcDbVertex
100
AcDb2dVertex
 10
5.591644287109375
 20
5.49848895602756
 30
0.0
  0
VERTEX
  5
169
330
166
100
AcDbEntity
  8
Layer 1
 62
     7
370
    18
100
AcDbVertex
100
AcDb2dVertex
 10
5.573369344075521
 20
5.474670834011501
 30
0.0
  0
VERTEX
  5
16A
330
166
100
AcDbEntity
  8
Layer 1
 62
     7
370
    18
100
AcDbVertex
100
AcDb2dVertex
 10
5.561880747477213
 20
5.446934594048394
 30
0.0
  0
SEQEND
  5
16B
330
166
100
AcDbEntity
  8
Layer 1
 62
     7
370
    18
  0
POLYLINE
  5
16C
330
1F
100
AcDbEntity
  8
Layer 1
 62
     7
370
    18
100
AcDb2dPolyline
 66
     1
 10
0.0
 20
0.0
 30
0.0
  0
VERTEX
  5
16D
330
16C
100
AcDbEntity
  8
Layer 1
 62
     7
370
    18
100
AcDbVertex
100
AcDb2dVertex
 10
6.101556989881727
 20
5.797411176893446
 30
0.0
  0
VERTEX
  5
16E
330
16C
100
AcDbEntity
  8
Layer 1
 62
     7
370
    18
100
AcDbVertex
100
AcDb2dVertex
 10
5.615462409125434
 20
5.516763899061415
 30
0.0
  0
SEQEND
  5
16F
330
16C
100
AcDbEntity
  8
Layer 1
 62
     7
370
    18
  0
POLYLINE
  5
170
330
1F
100
AcDbEntity
  8
Layer 1
 62
     7
370
    18
100
AcDb2dPolyline
 66
     1
 10
0.0
 20
0.0
 30
0.0
  0
VERTEX
  5
171
330
170
100
AcDbEntity
  8
Layer 1
 62
     7
370
    18
100
AcDbVertex
100
AcDb2dVertex
 10
6.355044470893012
 20
6.187112596299913
 30
0.0
  0
VERTEX
  5
172
330
170
100
AcDbEntity
  8
Layer 1
 62
     7
370
    18
100
AcDbVertex
100
AcDb2dVertex
 10
6.326074812147352
 20
6.182351430257161
 30
0.0
  0
VERTEX
  5
173
330
170
100
AcDbEntity
  8
Layer 1
 62
     7
370
    18
100
AcDbVertex
100
AcDb2dVertex
 10
6.29925537109375
 20
6.170409732394748
 30
0.0
  0
VERTEX
  5
174
330
170
100
AcDbEntity
  8
Layer 1
 62
     7
370
    18
100
AcDbVertex
100
AcDb2dVertex
 10
6.276333279079861
 20
6.152068244086371
 30
0.0
  0
VERTEX
  5
175
330
170
100
AcDbEntity
  8
Layer 1
 62
     7
370
    18
100
AcDbVertex
100
AcDb2dVertex
 10
6.258802625868055
 20
6.128519270155165
 30
0.0
  0
VERTEX
  5
176
330
170
100
AcDbEntity
  8
Layer 1
 62
     7
370
    18
100
AcDbVertex
100
AcDb2dVertex
 10
6.247805701361762
 20
6.101300133599175
 30
0.0
  0
VERTEX
  5
177
330
170
100
AcDbEntity
  8
Layer 1
 62
     7
370
    18
100
AcDbVertex
100
AcDb2dVertex
 10
6.244057125515408
 20
6.072182125515408
 30
0.0
  0
SEQEND
  5
178
330
170
100
AcDbEntity
  8
Layer 1
 62
     7
370
    18
  0
POLYLINE
  5
179
330
1F
100
AcDbEntity
  8
Layer 1
 62
     7
370
    18
100
AcDb2dPolyline
 66
     1
 10
0.0
 20
0.0
 30
0.0
  0
VERTEX
  5
17A
330
179
100
AcDbEntity
  8
Layer 1
 62
     7
370
    18
100
AcDbVertex
100
AcDb2dVertex
 10
6.512023501925998
 20
6.192594316270616
 30
0.0
  0
VERTEX
  5
17B
330
179
100
AcDbEntity
  8
Layer 1
 62
     7
370
    18
100
AcDbVertex
100
AcDb2dVertex
 10
6.355044470893012
 20
6.187112596299913
 30
0.0
  0
SEQEND
  5
17C
330
179
100
AcDbEntity
  8
Layer 1
 62
     7
370
    18
  0
POLYLINE
  5
17D
330
1F
100
AcDbEntity
  8
Layer 1
 62
     7
370
    18
100
AcDb2dPolyline
 66
     1
 10
0.0
 20
0.0
 30
0.0
  0
VERTEX
  5
17E
330
17D
100
AcDbEntity
  8
Layer 1
 62
     7
370
    18
100
AcDbVertex
100
AcDb2dVertex
 10
6.512023501925998
 20
4.706984625922309
 30
0.0
  0
VERTEX
  5
17F
330
17D
100
AcDbEntity
  8
Layer 1
 62
     7
370
    18
100
AcDbVertex
100
AcDb2dVertex
 10
6.518140157063802
 20
4.730946011013454
 30
0.0
  0
VERTEX
  5
180
330
17D
100
AcDbEntity
  8
Layer 1
 62
     7
370
    18
100
AcDbVertex
100
AcDb2dVertex
 10
6.534990098741319
 20
4.749045901828342
 30
0.0
  0
SEQEND
  5
181
330
17D
100
AcDbEntity
  8
Layer 1
 62
     7
370
    18
  0
POLYLINE
  5
182
330
1F
100
AcDbEntity
  8
Layer 1
 62
     7
370
    18
100
AcDb2dPolyline
 66
     1
 10
0.0
 20
0.0
 30
0.0
  0
VERTEX
  5
183
330
182
100
AcDbEntity
  8
Layer 1
 62
     7
370
    18
100
AcDbVertex
100
AcDb2dVertex
 10
6.842927720811631
 20
4.756984710693359
 30
0.0
  0
VERTEX
  5
184
330
182
100
AcDbEntity
  8
Layer 1
 62
     7
370
    18
100
AcDbVertex
100
AcDb2dVertex
 10
6.846634758843315
 20
4.828763749864366
 30
0.0
  0
SEQEND
  5
185
330
182
100
AcDbEntity
  8
Layer 1
 62
     7
370
    18
  0
POLYLINE
  5
186
330
1F
100
AcDbEntity
  8
Layer 1
 62
     7
370
    18
100
AcDb2dPolyline
 66
     1
 10
0.0
 20
0.0
 30
0.0
  0
VERTEX
  5
187
330
186
100
AcDbEntity
  8
Layer 1
 62
     7
370
    18
100
AcDbVertex
100
AcDb2dVertex
 10
6.571588728162977
 20
4.835476345486111
 30
0.0
  0
VERTEX
  5
188
330
186
100
AcDbEntity
  8
Layer 1
 62
     7
370
    18
100
AcDbVertex
100
AcDb2dVertex
 10
6.57865990532769
 20
4.835290273030599
 30
0.0
  0
VERTEX
  5
189
330
186
100
AcDbEntity
  8
Layer 1
 62
     7
370
    18
100
AcDbVertex
100
AcDb2dVertex
 10
6.581588745117188
 20
4.835213979085286
 30
0.0
  0
SEQEND
  5
18A
330
186
100
AcDbEntity
  8
Layer 1
 62
     7
370
    18
  0
POLYLINE
  5
18B
330
1F
100
AcDbEntity
  8
Layer 1
 62
     7
370
    18
100
AcDb2dPolyline
 66
     1
 10
0.0
 20
0.0
 30
0.0
  0
VERTEX
  5
18C
330
18B
100
AcDbEntity
  8
Layer 1
 62
     7
370
    18
100
AcDbVertex
100
AcDb2dVertex
 10
6.571841769748263
 20
4.74998050265842
 30
0.0
  0
VERTEX
  5
18D
330
18B
100
AcDbEntity
  8
Layer 1
 62
     7
370
    18
100
AcDbVertex
100
AcDb2dVertex
 10
6.512023501925998
 20
4.748463948567708
 30
0.0
  0
SEQEND
  5
18E
330
18B
100
AcDbEntity
  8
Layer 1
 62
     7
370
    18
  0
POLYLINE
  5
18F
330
1F
100
AcDbEntity
  8
Layer 1
 62
     7
370
    18
100
AcDb2dPolyline
 66
     1
 10
0.0
 20
0.0
 30
0.0
  0
VERTEX
  5
190
330
18F
100
AcDbEntity
  8
Layer 1
 62
     7
370
    18
100
AcDbVertex
100
AcDb2dVertex
 10
6.512023501925998
 20
4.8370361328125
 30
0.0
  0
VERTEX
  5
191
330
18F
100
AcDbEntity
  8
Layer 1
 62
     7
370
    18
100
AcDbVertex
100
AcDb2dVertex
 10
6.571588728162977
 20
4.835476345486111
 30
0.0
  0
SEQEND
  5
192
330
18F
100
AcDbEntity
  8
Layer 1
 62
     7
370
    18
  0
POLYLINE
  5
193
330
1F
100
AcDbEntity
  8
Layer 1
 62
     7
370
    18
100
AcDb2dPolyline
 66
     1
 10
0.0
 20
0.0
 30
0.0
  0
VERTEX
  5
194
330
193
100
AcDbEntity
  8
Layer 1
 62
     7
370
    18
100
AcDbVertex
100
AcDb2dVertex
 10
6.671869489881727
 20
6.139673444959852
 30
0.0
  0
VERTEX
  5
195
330
193
100
AcDbEntity
  8
Layer 1
 62
     7
370
    18
100
AcDbVertex
100
AcDb2dVertex
 10
6.711869557698567
 20
6.099673800998263
 30
0.0
  0
SEQEND
  5
196
330
193
100
AcDbEntity
  8
Layer 1
 62
     7
370
    18
  0
POLYLINE
  5
197
330
1F
100
AcDbEntity
  8
Layer 1
 62
     7
370
    18
100
AcDb2dPolyline
 66
     1
 10
0.0
 20
0.0
 30
0.0
  0
VERTEX
  5
198
330
197
100
AcDbEntity
  8
Layer 1
 62
     7
370
    18
100
AcDbVertex
100
AcDb2dVertex
 10
6.628761291503906
 20
6.121563805474175
 30
0.0
  0
VERTEX
  5
199
330
197
100
AcDbEntity
  8
Layer 1
 62
     7
370
    18
100
AcDbVertex
100
AcDb2dVertex
 10
6.621298472086588
 20
6.095539093017578
 30
0.0
  0
SEQEND
  5
19A
330
197
100
AcDbEntity
  8
Layer 1
 62
     7
370
    18
  0
POLYLINE
  5
19B
330
1F
100
AcDbEntity
  8
Layer 1
 62
     7
370
    18
100
AcDb2dPolyline
 66
     1
 10
0.0
 20
0.0
 30
0.0
  0
VERTEX
  5
19C
330
19B
100
AcDbEntity
  8
Layer 1
 62
     7
370
    18
100
AcDbVertex
100
AcDb2dVertex
 10
6.512023501925998
 20
6.094673580593533
 30
0.0
  0
VERTEX
  5
19D
330
19B
100
AcDbEntity
  8
Layer 1
 62
     7
370
    18
100
AcDbVertex
100
AcDb2dVertex
 10
6.514952765570746
 20
6.087602827284071
 30
0.0
  0
VERTEX
  5
19E
330
19B
100
AcDbEntity
  8
Layer 1
 62
     7
370
    18
100
AcDbVertex
100
AcDb2dVertex
 10
6.522023518880208
 20
6.084673563639322
 30
0.0
  0
SEQEND
  5
19F
330
19B
100
AcDbEntity
  8
Layer 1
 62
     7
370
    18
  0
POLYLINE
  5
1A0
330
1F
100
AcDbEntity
  8
Layer 1
 62
     7
370
    18
100
AcDb2dPolyline
 66
     1
 10
0.0
 20
0.0
 30
0.0
  0
VERTEX
  5
1A1
330
1A0
100
AcDbEntity
  8
Layer 1
 62
     7
370
    18
100
AcDbVertex
100
AcDb2dVertex
 10
6.606879340277778
 20
6.084673563639322
 30
0.0
  0
VERTEX
  5
1A2
330
1A0
100
AcDbEntity
  8
Layer 1
 62
     7
370
    18
100
AcDbVertex
100
AcDb2dVertex
 10
6.522023518880208
 20
6.084673563639322
 30
0.0
  0
SEQEND
  5
1A3
330
1A0
100
AcDbEntity
  8
Layer 1
 62
     7
370
    18
  0
POLYLINE
  5
1A4
330
1F
100
AcDbEntity
  8
Layer 1
 62
     7
370
    18
100
AcDb2dPolyline
 66
     1
 10
0.0
 20
0.0
 30
0.0
  0
VERTEX
  5
1A5
330
1A4
100
AcDbEntity
  8
Layer 1
 62
     7
370
    18
100
AcDbVertex
100
AcDb2dVertex
 10
6.606879340277778
 20
6.084673563639322
 30
0.0
  0
VERTEX
  5
1A6
330
1A4
100
AcDbEntity
  8
Layer 1
 62
     7
370
    18
100
AcDbVertex
100
AcDb2dVertex
 10
6.615907033284505
 20
6.087694380018446
 30
0.0
  0
VERTEX
  5
1A7
330
1A4
100
AcDbEntity
  8
Layer 1
 62
     7
370
    18
100
AcDbVertex
100
AcDb2dVertex
 10
6.621298472086588
 20
6.095539093017578
 30
0.0
  0
SEQEND
  5
1A8
330
1A4
100
AcDbEntity
  8
Layer 1
 62
     7
370
    18
  0
POLYLINE
  5
1A9
330
1F
100
AcDbEntity
  8
Layer 1
 62
     7
370
    18
100
AcDb2dPolyline
 66
     1
 10
0.0
 20
0.0
 30
0.0
  0
VERTEX
  5
1AA
330
1A9
100
AcDbEntity
  8
Layer 1
 62
     7
370
    18
100
AcDbVertex
100
AcDb2dVertex
 10
6.65279303656684
 20
6.139673444959852
 30
0.0
  0
VERTEX
  5
1AB
330
1A9
100
AcDbEntity
  8
Layer 1
 62
     7
370
    18
100
AcDbVertex
100
AcDb2dVertex
 10
6.637747022840712
 20
6.134638892279731
 30
0.0
  0
VERTEX
  5
1AC
330
1A9
100
AcDbEntity
  8
Layer 1
 62
     7
370
    18
100
AcDbVertex
100
AcDb2dVertex
 10
6.628761291503906
 20
6.121563805474175
 30
0.0
  0
SEQEND
  5
1AD
330
1A9
100
AcDbEntity
  8
Layer 1
 62
     7
370
    18
  0
POLYLINE
  5
1AE
330
1F
100
AcDbEntity
  8
Layer 1
 62
     7
370
    18
100
AcDb2dPolyline
 66
     1
 10
0.0
 20
0.0
 30
0.0
  0
VERTEX
  5
1AF
330
1AE
100
AcDbEntity
  8
Layer 1
 62
     7
370
    18
100
AcDbVertex
100
AcDb2dVertex
 10
6.711869557698567
 20
6.071946038140191
 30
0.0
  0
VERTEX
  5
1B0
330
1AE
100
AcDbEntity
  8
Layer 1
 62
     7
370
    18
100
AcDbVertex
100
AcDb2dVertex
 10
6.711869557698567
 20
6.099673800998263
 30
0.0
  0
SEQEND
  5
1B1
330
1AE
100
AcDbEntity
  8
Layer 1
 62
     7
370
    18
  0
POLYLINE
  5
1B2
330
1F
100
AcDbEntity
  8
Layer 1
 62
     7
370
    18
100
AcDb2dPolyline
 66
     1
 10
0.0
 20
0.0
 30
0.0
  0
VERTEX
  5
1B3
330
1B2
100
AcDbEntity
  8
Layer 1
 62
     7
370
    18
100
AcDbVertex
100
AcDb2dVertex
 10
6.671869489881727
 20
6.139673444959852
 30
0.0
  0
VERTEX
  5
1B4
330
1B2
100
AcDbEntity
  8
Layer 1
 62
     7
370
    18
100
AcDbVertex
100
AcDb2dVertex
 10
6.65279303656684
 20
6.139673444959852
 30
0.0
  0
SEQEND
  5
1B5
330
1B2
100
AcDbEntity
  8
Layer 1
 62
     7
370
    18
  0
POLYLINE
  5
1B6
330
1F
100
AcDbEntity
  8
Layer 1
 62
     7
370
    18
100
AcDb2dPolyline
 66
     1
 10
0.0
 20
0.0
 30
0.0
  0
VERTEX
  5
1B7
330
1B6
100
AcDbEntity
  8
Layer 1
 62
     7
370
    18
100
AcDbVertex
100
AcDb2dVertex
 10
6.512023501925998
 20
6.075434790717231
 30
0.0
  0
VERTEX
  5
1B8
330
1B6
100
AcDbEntity
  8
Layer 1
 62
     7
370
    18
100
AcDbVertex
100
AcDb2dVertex
 10
6.711869557698567
 20
6.071946038140191
 30
0.0
  0
SEQEND
  5
1B9
330
1B6
100
AcDbEntity
  8
Layer 1
 62
     7
370
    18
  0
POLYLINE
  5
1BA
330
1F
100
AcDbEntity
  8
Layer 1
 62
     7
370
    18
100
AcDb2dPolyline
 66
     1
 10
0.0
 20
0.0
 30
0.0
  0
VERTEX
  5
1BB
330
1BA
100
AcDbEntity
  8
Layer 1
 62
     7
370
    18
100
AcDbVertex
100
AcDb2dVertex
 10
6.682442982991536
 20
6.01657231648763
 30
0.0
  0
VERTEX
  5
1BC
330
1BA
100
AcDbEntity
  8
Layer 1
 62
     7
370
    18
100
AcDbVertex
100
AcDb2dVertex
 10
6.512023501925998
 20
6.013313717312283
 30
0.0
  0
SEQEND
  5
1BD
330
1BA
100
AcDbEntity
  8
Layer 1
 62
     7
370
    18
  0
POLYLINE
  5
1BE
330
1F
100
AcDbEntity
  8
Layer 1
 62
     7
370
    18
100
AcDb2dPolyline
 66
     1
 10
0.0
 20
0.0
 30
0.0
  0
VERTEX
  5
1BF
330
1BE
100
AcDbEntity
  8
Layer 1
 62
     7
370
    18
100
AcDbVertex
100
AcDb2dVertex
 10
6.860943264431423
 20
4.756984710693359
 30
0.0
  0
VERTEX
  5
1C0
330
1BE
100
AcDbEntity
  8
Layer 1
 62
     7
370
    18
100
AcDbVertex
100
AcDb2dVertex
 10
6.842927720811631
 20
4.756984710693359
 30
0.0
  0
SEQEND
  5
1C1
330
1BE
100
AcDbEntity
  8
Layer 1
 62
     7
370
    18
  0
POLYLINE
  5
1C2
330
1F
100
AcDbEntity
  8
Layer 1
 62
     7
370
    18
100
AcDb2dPolyline
 66
     1
 10
0.0
 20
0.0
 30
0.0
  0
VERTEX
  5
1C3
330
1C2
100
AcDbEntity
  8
Layer 1
 62
     7
370
    18
100
AcDbVertex
100
AcDb2dVertex
 10
6.842927720811631
 20
4.756984710693359
 30
0.0
  0
VERTEX
  5
1C4
330
1C2
100
AcDbEntity
  8
Layer 1
 62
     7
370
    18
100
AcDbVertex
100
AcDb2dVertex
 10
6.581134796142578
 20
4.756984710693359
 30
0.0
  0
SEQEND
  5
1C5
330
1C2
100
AcDbEntity
  8
Layer 1
 62
     7
370
    18
  0
POLYLINE
  5
1C6
330
1F
100
AcDbEntity
  8
Layer 1
 62
     7
370
    18
100
AcDb2dPolyline
 66
     1
 10
0.0
 20
0.0
 30
0.0
  0
VERTEX
  5
1C7
330
1C6
100
AcDbEntity
  8
Layer 1
 62
     7
370
    18
100
AcDbVertex
100
AcDb2dVertex
 10
6.620122273763021
 20
4.632536146375868
 30
0.0
  0
VERTEX
  5
1C8
330
1C6
100
AcDbEntity
  8
Layer 1
 62
     7
370
    18
100
AcDbVertex
100
AcDb2dVertex
 10
6.615638732910156
 20
4.660848405626084
 30
0.0
  0
SEQEND
  5
1C9
330
1C6
100
AcDbEntity
  8
Layer 1
 62
     7
370
    18
  0
POLYLINE
  5
1CA
330
1F
100
AcDbEntity
  8
Layer 1
 62
     7
370
    18
100
AcDb2dPolyline
 66
     1
 10
0.0
 20
0.0
 30
0.0
  0
VERTEX
  5
1CB
330
1CA
100
AcDbEntity
  8
Layer 1
 62
     7
370
    18
100
AcDbVertex
100
AcDb2dVertex
 10
6.620122273763021
 20
4.632536146375868
 30
0.0
  0
VERTEX
  5
1CC
330
1CA
100
AcDbEntity
  8
Layer 1
 62
     7
370
    18
100
AcDbVertex
100
AcDb2dVertex
 10
6.658924950493706
 20
4.632536146375868
 30
0.0
  0
SEQEND
  5
1CD
330
1CA
100
AcDbEntity
  8
Layer 1
 62
     7
370
    18
  0
POLYLINE
  5
1CE
330
1F
100
AcDbEntity
  8
Layer 1
 62
     7
370
    18
100
AcDb2dPolyline
 66
     1
 10
0.0
 20
0.0
 30
0.0
  0
VERTEX
  5
1CF
330
1CE
100
AcDbEntity
  8
Layer 1
 62
     7
370
    18
100
AcDbVertex
100
AcDb2dVertex
 10
6.531611124674479
 20
4.668200174967447
 30
0.0
  0
VERTEX
  5
1D0
330
1CE
100
AcDbEntity
  8
Layer 1
 62
     7
370
    18
100
AcDbVertex
100
AcDb2dVertex
 10
6.615638732910156
 20
4.660848405626084
 30
0.0
  0
SEQEND
  5
1D1
330
1CE
100
AcDbEntity
  8
Layer 1
 62
     7
370
    18
  0
POLYLINE
  5
1D2
330
1F
100
AcDbEntity
  8
Layer 1
 62
     7
370
    18
100
AcDb2dPolyline
 66
     1
 10
0.0
 20
0.0
 30
0.0
  0
VERTEX
  5
1D3
330
1D2
100
AcDbEntity
  8
Layer 1
 62
     7
370
    18
100
AcDbVertex
100
AcDb2dVertex
 10
6.512023501925998
 20
4.658684624565972
 30
0.0
  0
VERTEX
  5
1D4
330
1D2
100
AcDbEntity
  8
Layer 1
 62
     7
370
    18
100
AcDbVertex
100
AcDb2dVertex
 10
6.5199097527398
 20
4.663828955756293
 30
0.0
  0
VERTEX
  5
1D5
330
1D2
100
AcDbEntity
  8
Layer 1
 62
     7
370
    18
100
AcDbVertex
100
AcDb2dVertex
 10
6.531611124674479
 20
4.668200174967447
 30
0.0
  0
SEQEND
  5
1D6
330
1D2
100
AcDbEntity
  8
Layer 1
 62
     7
370
    18
  0
POLYLINE
  5
1D7
330
1F
100
AcDbEntity
  8
Layer 1
 62
     7
370
    18
100
AcDb2dPolyline
 66
     1
 10
0.0
 20
0.0
 30
0.0
  0
VERTEX
  5
1D8
330
1D7
100
AcDbEntity
  8
Layer 1
 62
     7
370
    18
100
AcDbVertex
100
AcDb2dVertex
 10
6.823741488986545
 20
4.743526458740234
 30
0.0
  0
VERTEX
  5
1D9
330
1D7
100
AcDbEntity
  8
Layer 1
 62
     7
370
    18
100
AcDbVertex
100
AcDb2dVertex
 10
6.823698679606119
 20
4.743698543972439
 30
0.0
  0
VERTEX
  5
1DA
330
1D7
100
AcDbEntity
  8
Layer 1
 62
     7
370
    18
100
AcDbVertex
100
AcDb2dVertex
 10
6.822651333279079
 20
4.748452928331163
 30
0.0
  0
VERTEX
  5
1DB
330
1D7
100
AcDbEntity
  8
Layer 1
 62
     7
370
    18
100
AcDbVertex
100
AcDb2dVertex
 10
6.8187624613444
 20
4.756984710693359
 30
0.0
  0
SEQEND
  5
1DC
330
1D7
100
AcDbEntity
  8
Layer 1
 62
     7
370
    18
  0
POLYLINE
  5
1DD
330
1F
100
AcDbEntity
  8
Layer 1
 62
     7
370
    18
100
AcDb2dPolyline
 66
     1
 10
0.0
 20
0.0
 30
0.0
  0
VERTEX
  5
1DE
330
1DD
100
AcDbEntity
  8
Layer 1
 62
     7
370
    18
100
AcDbVertex
100
AcDb2dVertex
 10
6.670397016737196
 20
4.636154174804688
 30
0.0
  0
VERTEX
  5
1DF
330
1DD
100
AcDbEntity
  8
Layer 1
 62
     7
370
    18
100
AcDbVertex
100
AcDb2dVertex
 10
6.823741488986545
 20
4.743526458740234
 30
0.0
  0
SEQEND
  5
1E0
330
1DD
100
AcDbEntity
  8
Layer 1
 62
     7
370
    18
  0
POLYLINE
  5
1E1
330
1F
100
AcDbEntity
  8
Layer 1
 62
     7
370
    18
100
AcDb2dPolyline
 66
     1
 10
0.0
 20
0.0
 30
0.0
  0
VERTEX
  5
1E2
330
1E1
100
AcDbEntity
  8
Layer 1
 62
     7
370
    18
100
AcDbVertex
100
AcDb2dVertex
 10
6.670397016737196
 20
4.636154174804688
 30
0.0
  0
VERTEX
  5
1E3
330
1E1
100
AcDbEntity
  8
Layer 1
 62
     7
370
    18
100
AcDbVertex
100
AcDb2dVertex
 10
6.658924950493706
 20
4.632536146375868
 30
0.0
  0
SEQEND
  5
1E4
330
1E1
100
AcDbEntity
  8
Layer 1
 62
     7
370
    18
  0
POLYLINE
  5
1E5
330
1F
100
AcDbEntity
  8
Layer 1
 62
     7
370
    18
100
AcDb2dPolyline
 66
     1
 10
0.0
 20
0.0
 30
0.0
  0
VERTEX
  5
1E6
330
1E5
100
AcDbEntity
  8
Layer 1
 62
     7
370
    18
100
AcDbVertex
100
AcDb2dVertex
 10
6.860943264431423
 20
4.756984710693359
 30
0.0
  0
VERTEX
  5
1E7
330
1E5
100
AcDbEntity
  8
Layer 1
 62
     7
370
    18
100
AcDbVertex
100
AcDb2dVertex
 10
6.879512363009982
 20
4.760561201307508
 30
0.0
  0
SEQEND
  5
1E8
330
1E5
100
AcDbEntity
  8
Layer 1
 62
     7
370
    18
  0
POLYLINE
  5
1E9
330
1F
100
AcDbEntity
  8
Layer 1
 62
     7
370
    18
100
AcDb2dPolyline
 66
     1
 10
0.0
 20
0.0
 30
0.0
  0
VERTEX
  5
1EA
330
1E9
100
AcDbEntity
  8
Layer 1
 62
     7
370
    18
100
AcDbVertex
100
AcDb2dVertex
 10
6.466166602240668
 20
4.472355736626519
 30
0.0
  0
VERTEX
  5
1EB
330
1E9
100
AcDbEntity
  8
Layer 1
 62
     7
370
    18
100
AcDbVertex
100
AcDb2dVertex
 10
6.465784708658854
 20
4.486955430772569
 30
0.0
  0
SEQEND
  5
1EC
330
1E9
100
AcDbEntity
  8
Layer 1
 62
     7
370
    18
  0
POLYLINE
  5
1ED
330
1F
100
AcDbEntity
  8
Layer 1
 62
     7
370
    18
100
AcDb2dPolyline
 66
     1
 10
0.0
 20
0.0
 30
0.0
  0
VERTEX
  5
1EE
330
1ED
100
AcDbEntity
  8
Layer 1
 62
     7
370
    18
100
AcDbVertex
100
AcDb2dVertex
 10
6.451172298855251
 20
4.471962398952908
 30
0.0
  0
VERTEX
  5
1EF
330
1ED
100
AcDbEntity
  8
Layer 1
 62
     7
370
    18
100
AcDbVertex
100
AcDb2dVertex
 10
6.466166602240668
 20
4.472355736626519
 30
0.0
  0
SEQEND
  5
1F0
330
1ED
100
AcDbEntity
  8
Layer 1
 62
     7
370
    18
  0
POLYLINE
  5
1F1
330
1F
100
AcDbEntity
  8
Layer 1
 62
     7
370
    18
100
AcDb2dPolyline
 66
     1
 10
0.0
 20
0.0
 30
0.0
  0
VERTEX
  5
1F2
330
1F1
100
AcDbEntity
  8
Layer 1
 62
     7
370
    18
100
AcDbVertex
100
AcDb2dVertex
 10
6.451172298855251
 20
4.471962398952908
 30
0.0
  0
VERTEX
  5
1F3
330
1F1
100
AcDbEntity
  8
Layer 1
 62
     7
370
    18
100
AcDbVertex
100
AcDb2dVertex
 10
6.448172251383463
 20
4.586524963378906
 30
0.0
  0
SEQEND
  5
1F4
330
1F1
100
AcDbEntity
  8
Layer 1
 62
     7
370
    18
  0
POLYLINE
  5
1F5
330
1F
100
AcDbEntity
  8
Layer 1
 62
     7
370
    18
100
AcDb2dPolyline
 66
     1
 10
0.0
 20
0.0
 30
0.0
  0
VERTEX
  5
1F6
330
1F5
100
AcDbEntity
  8
Layer 1
 62
     7
370
    18
100
AcDbVertex
100
AcDb2dVertex
 10
6.465784708658854
 20
4.486955430772569
 30
0.0
  0
VERTEX
  5
1F7
330
1F5
100
AcDbEntity
  8
Layer 1
 62
     7
370
    18
100
AcDbVertex
100
AcDb2dVertex
 10
6.478747049967447
 20
4.486955430772569
 30
0.0
  0
SEQEND
  5
1F8
330
1F5
100
AcDbEntity
  8
Layer 1
 62
     7
370
    18
  0
POLYLINE
  5
1F9
330
1F
100
AcDbEntity
  8
Layer 1
 62
     7
370
    18
100
AcDb2dPolyline
 66
     1
 10
0.0
 20
0.0
 30
0.0
  0
VERTEX
  5
1FA
330
1F9
100
AcDbEntity
  8
Layer 1
 62
     7
370
    18
100
AcDbVertex
100
AcDb2dVertex
 10
6.493688795301649
 20
4.584932115342881
 30
0.0
  0
VERTEX
  5
1FB
330
1F9
100
AcDbEntity
  8
Layer 1
 62
     7
370
    18
100
AcDbVertex
100
AcDb2dVertex
 10
6.478747049967447
 20
4.486955430772569
 30
0.0
  0
SEQEND
  5
1FC
330
1F9
100
AcDbEntity
  8
Layer 1
 62
     7
370
    18
  0
POLYLINE
  5
1FD
330
1F
100
AcDbEntity
  8
Layer 1
 62
     7
370
    18
100
AcDb2dPolyline
 66
     1
 10
0.0
 20
0.0
 30
0.0
  0
VERTEX
  5
1FE
330
1FD
100
AcDbEntity
  8
Layer 1
 62
     7
370
    18
100
AcDbVertex
100
AcDb2dVertex
 10
6.995023515489366
 20
4.80676523844401
 30
0.0
  0
VERTEX
  5
1FF
330
1FD
100
AcDbEntity
  8
Layer 1
 62
     7
370
    18
100
AcDbVertex
100
AcDb2dVertex
 10
6.991341484917534
 20
4.805291493733724
 30
0.0
  0
VERTEX
  5
200
330
1FD
100
AcDbEntity
  8
Layer 1
 62
     7
370
    18
100
AcDbVertex
100
AcDb2dVertex
 10
6.980465359157986
 20
4.800941467285156
 30
0.0
  0
VERTEX
  5
201
330
1FD
100
AcDbEntity
  8
Layer 1
 62
     7
370
    18
100
AcDbVertex
100
AcDb2dVertex
 10
6.962897406684028
 20
4.793913947211371
 30
0.0
  0
VERTEX
  5
202
330
1FD
100
AcDbEntity
  8
Layer 1
 62
     7
370
    18
100
AcDbVertex
100
AcDb2dVertex
 10
6.93945566813151
 20
4.784537421332465
 30
0.0
  0
VERTEX
  5
203
330
1FD
100
AcDbEntity
  8
Layer 1
 62
     7
370
    18
100
AcDbVertex
100
AcDb2dVertex
 10
6.911223517523871
 20
4.773245917426215
 30
0.0
  0
VERTEX
  5
204
330
1FD
100
AcDbEntity
  8
Layer 1
 62
     7
370
    18
100
AcDbVertex
100
AcDb2dVertex
 10
6.879512363009982
 20
4.760561201307508
 30
0.0
  0
SEQEND
  5
205
330
1FD
100
AcDbEntity
  8
Layer 1
 62
     7
370
    18
  0
POLYLINE
  5
206
330
1F
100
AcDbEntity
  8
Layer 1
 62
     7
370
    18
100
AcDb2dPolyline
 66
     1
 10
0.0
 20
0.0
 30
0.0
  0
VERTEX
  5
207
330
206
100
AcDbEntity
  8
Layer 1
 62
     7
370
    18
100
AcDbVertex
100
AcDb2dVertex
 10
6.995023515489366
 20
4.826173570421006
 30
0.0
  0
VERTEX
  5
208
330
206
100
AcDbEntity
  8
Layer 1
 62
     7
370
    18
100
AcDbVertex
100
AcDb2dVertex
 10
6.995023515489366
 20
4.80676523844401
 30
0.0
  0
SEQEND
  5
209
330
206
100
AcDbEntity
  8
Layer 1
 62
     7
370
    18
  0
POLYLINE
  5
20A
330
1F
100
AcDbEntity
  8
Layer 1
 62
     7
370
    18
100
AcDb2dPolyline
 66
     1
 10
0.0
 20
0.0
 30
0.0
  0
VERTEX
  5
20B
330
20A
100
AcDbEntity
  8
Layer 1
 62
     7
370
    18
100
AcDbVertex
100
AcDb2dVertex
 10
6.177388932969834
 20
4.638518015543619
 30
0.0
  0
VERTEX
  5
20C
330
20A
100
AcDbEntity
  8
Layer 1
 62
     7
370
    18
100
AcDbVertex
100
AcDb2dVertex
 10
6.175657060411241
 20
4.654641469319661
 30
0.0
  0
VERTEX
  5
20D
330
20A
100
AcDbEntity
  8
Layer 1
 62
     7
370
    18
100
AcDbVertex
100
AcDb2dVertex
 10
6.167665269639756
 20
4.668752882215712
 30
0.0
  0
VERTEX
  5
20E
330
20A
100
AcDbEntity
  8
Layer 1
 62
     7
370
    18
100
AcDbVertex
100
AcDb2dVertex
 10
6.154729207356771
 20
4.678532070583767
 30
0.0
  0
VERTEX
  5
20F
330
20A
100
AcDbEntity
  8
Layer 1
 62
     7
370
    18
100
AcDbVertex
100
AcDb2dVertex
 10
6.138972388373481
 20
4.682372199164496
 30
0.0
  0
SEQEND
  5
210
330
20A
100
AcDbEntity
  8
Layer 1
 62
     7
370
    18
  0
POLYLINE
  5
211
330
1F
100
AcDbEntity
  8
Layer 1
 62
     7
370
    18
100
AcDb2dPolyline
 66
     1
 10
0.0
 20
0.0
 30
0.0
  0
VERTEX
  5
212
330
211
100
AcDbEntity
  8
Layer 1
 62
     7
370
    18
100
AcDbVertex
100
AcDb2dVertex
 10
5.943419562445746
 20
4.689201354980469
 30
0.0
  0
VERTEX
  5
213
330
211
100
AcDbEntity
  8
Layer 1
 62
     7
370
    18
100
AcDbVertex
100
AcDb2dVertex
 10
5.906052907307942
 20
4.695286220974392
 30
0.0
  0
VERTEX
  5
214
330
211
100
AcDbEntity
  8
Layer 1
 62
     7
370
    18
100
AcDbVertex
100
AcDb2dVertex
 10
5.871398501925998
 20
4.71053483751085
 30
0.0
  0
VERTEX
  5
215
330
211
100
AcDbEntity
  8
Layer 1
 62
     7
370
    18
100
AcDbVertex
100
AcDb2dVertex
 10
5.841666751437717
 20
4.733973609076606
 30
0.0
  0
VERTEX
  5
216
330
211
100
AcDbEntity
  8
Layer 1
 62
     7
370
    18
100
AcDbVertex
100
AcDb2dVertex
 10
5.818751441107856
 20
4.764109717475043
 30
0.0
  0
SEQEND
  5
217
330
211
100
AcDbEntity
  8
Layer 1
 62
     7
370
    18
  0
POLYLINE
  5
218
330
1F
100
AcDbEntity
  8
Layer 1
 62
     7
370
    18
100
AcDb2dPolyline
 66
     1
 10
0.0
 20
0.0
 30
0.0
  0
VERTEX
  5
219
330
218
100
AcDbEntity
  8
Layer 1
 62
     7
370
    18
100
AcDbVertex
100
AcDb2dVertex
 10
6.062023586697048
 20
5.871023813883463
 30
0.0
  0
VERTEX
  5
21A
330
218
100
AcDbEntity
  8
Layer 1
 62
     7
370
    18
100
AcDbVertex
100
AcDb2dVertex
 10
6.095850202772352
 20
5.895599789089626
 30
0.0
  0
VERTEX
  5
21B
330
218
100
AcDbEntity
  8
Layer 1
 62
     7
370
    18
100
AcDbVertex
100
AcDb2dVertex
 10
6.123827616373697
 20
5.926672193739149
 30
0.0
  0
VERTEX
  5
21C
330
218
100
AcDbEntity
  8
Layer 1
 62
     7
370
    18
100
AcDbVertex
100
AcDb2dVertex
 10
6.144733428955078
 20
5.962882147894965
 30
0.0
  0
VERTEX
  5
21D
330
218
100
AcDbEntity
  8
Layer 1
 62
     7
370
    18
100
AcDbVertex
100
AcDb2dVertex
 10
6.157654232449001
 20
6.002647399902344
 30
0.0
  0
VERTEX
  5
21E
330
218
100
AcDbEntity
  8
Layer 1
 62
     7
370
    18
100
AcDbVertex
100
AcDb2dVertex
 10
6.162023756239149
 20
6.044229295518663
 30
0.0
  0
SEQEND
  5
21F
330
218
100
AcDbEntity
  8
Layer 1
 62
     7
370
    18
  0
POLYLINE
  5
220
330
1F
100
AcDbEntity
  8
Layer 1
 62
     7
370
    18
100
AcDb2dPolyline
 66
     1
 10
0.0
 20
0.0
 30
0.0
  0
VERTEX
  5
221
330
220
100
AcDbEntity
  8
Layer 1
 62
     7
370
    18
100
AcDbVertex
100
AcDb2dVertex
 10
6.162023756239149
 20
6.072182125515408
 30
0.0
  0
VERTEX
  5
222
330
220
100
AcDbEntity
  8
Layer 1
 62
     7
370
    18
100
AcDbVertex
100
AcDb2dVertex
 10
6.165698581271701
 20
6.11034435696072
 30
0.0
  0
VERTEX
  5
223
330
220
100
AcDbEntity
  8
Layer 1
 62
     7
370
    18
100
AcDbVertex
100
AcDb2dVertex
 10
6.176587422688802
 20
6.147102779812283
 30
0.0
  0
VERTEX
  5
224
330
220
100
AcDbEntity
  8
Layer 1
 62
     7
370
    18
100
AcDbVertex
100
AcDb2dVertex
 10
6.194290161132812
 20
6.181109534369575
 30
0.0
  0
VERTEX
  5
225
330
220
100
AcDbEntity
  8
Layer 1
 62
     7
370
    18
100
AcDbVertex
100
AcDb2dVertex
 10
6.218155754937066
 20
6.211113823784722
 30
0.0
  0
VERTEX
  5
226
330
220
100
AcDbEntity
  8
Layer 1
 62
     7
370
    18
100
AcDbVertex
100
AcDb2dVertex
 10
6.247308519151475
 20
6.236012352837456
 30
0.0
  0
VERTEX
  5
227
330
220
100
AcDbEntity
  8
Layer 1
 62
     7
370
    18
100
AcDbVertex
100
AcDb2dVertex
 10
6.2806765238444
 20
6.254891713460286
 30
0.0
  0
VERTEX
  5
228
330
220
100
AcDbEntity
  8
Layer 1
 62
     7
370
    18
100
AcDbVertex
100
AcDb2dVertex
 10
6.317033131917317
 20
6.267056783040364
 30
0.0
  0
VERTEX
  5
229
330
220
100
AcDbEntity
  8
Layer 1
 62
     7
370
    18
100
AcDbVertex
100
AcDb2dVertex
 10
6.355044470893012
 20
6.272059546576606
 30
0.0
  0
SEQEND
  5
22A
330
220
100
AcDbEntity
  8
Layer 1
 62
     7
370
    18
  0
POLYLINE
  5
22B
330
1F
100
AcDbEntity
  8
Layer 1
 62
     7
370
    18
100
AcDb2dPolyline
 66
     1
 10
0.0
 20
0.0
 30
0.0
  0
VERTEX
  5
22C
330
22B
100
AcDbEntity
  8
Layer 1
 62
     7
370
    18
100
AcDbVertex
100
AcDb2dVertex
 10
5.480972290039062
 20
5.349159664577908
 30
0.0
  0
VERTEX
  5
22D
330
22B
100
AcDbEntity
  8
Layer 1
 62
     7
370
    18
100
AcDbVertex
100
AcDb2dVertex
 10
5.470982021755642
 20
5.373277876112196
 30
0.0
  0
VERTEX
  5
22E
330
22B
100
AcDbEntity
  8
Layer 1
 62
     7
370
    18
100
AcDbVertex
100
AcDb2dVertex
 10
5.467575073242188
 20
5.399159749348958
 30
0.0
  0
VERTEX
  5
22F
330
22B
100
AcDbEntity
  8
Layer 1
 62
     7
370
    18
100
AcDbVertex
100
AcDb2dVertex
 10
5.470982021755642
 20
5.42504162258572
 30
0.0
  0
SEQEND
  5
230
330
22B
100
AcDbEntity
  8
Layer 1
 62
     7
370
    18
  0
POLYLINE
  5
231
330
1F
100
AcDbEntity
  8
Layer 1
 62
     7
370
    18
100
AcDb2dPolyline
 66
     1
 10
0.0
 20
0.0
 30
0.0
  0
VERTEX
  5
232
330
231
100
AcDbEntity
  8
Layer 1
 62
     7
370
    18
100
AcDbVertex
100
AcDb2dVertex
 10
5.482743157280816
 20
5.468934800889756
 30
0.0
  0
VERTEX
  5
233
330
231
100
AcDbEntity
  8
Layer 1
 62
     7
370
    18
100
AcDbVertex
100
AcDb2dVertex
 10
5.496554056803385
 20
5.505629221598307
 30
0.0
  0
VERTEX
  5
234
330
231
100
AcDbEntity
  8
Layer 1
 62
     7
370
    18
100
AcDbVertex
100
AcDb2dVertex
 10
5.517258538140191
 20
5.53892347547743
 30
0.0
  0
VERTEX
  5
235
330
231
100
AcDbEntity
  8
Layer 1
 62
     7
370
    18
100
AcDbVertex
100
AcDb2dVertex
 10
5.544059753417969
 20
5.567538791232638
 30
0.0
  0
VERTEX
  5
236
330
231
100
AcDbEntity
  8
Layer 1
 62
     7
370
    18
100
AcDbVertex
100
AcDb2dVertex
 10
5.575927734375
 20
5.590376536051432
 30
0.0
  0
SEQEND
  5
237
330
231
100
AcDbEntity
  8
Layer 1
 62
     7
370
    18
  0
POLYLINE
  5
238
330
1F
100
AcDbEntity
  8
Layer 1
 62
     7
370
    18
100
AcDb2dPolyline
 66
     1
 10
0.0
 20
0.0
 30
0.0
  0
VERTEX
  5
239
330
238
100
AcDbEntity
  8
Layer 1
 62
     7
370
    18
100
AcDbVertex
100
AcDb2dVertex
 10
5.470982021755642
 20
5.42504162258572
 30
0.0
  0
VERTEX
  5
23A
330
238
100
AcDbEntity
  8
Layer 1
 62
     7
370
    18
100
AcDbVertex
100
AcDb2dVertex
 10
5.482743157280816
 20
5.468934800889756
 30
0.0
  0
SEQEND
  5
23B
330
238
100
AcDbEntity
  8
Layer 1
 62
     7
370
    18
  0
POLYLINE
  5
23C
330
1F
100
AcDbEntity
  8
Layer 1
 62
     7
370
    18
100
AcDb2dPolyline
 66
     1
 10
0.0
 20
0.0
 30
0.0
  0
VERTEX
  5
23D
330
23C
100
AcDbEntity
  8
Layer 1
 62
     7
370
    18
100
AcDbVertex
100
AcDb2dVertex
 10
6.355044470893012
 20
6.272059546576606
 30
0.0
  0
VERTEX
  5
23E
330
23C
100
AcDbEntity
  8
Layer 1
 62
     7
370
    18
100
AcDbVertex
100
AcDb2dVertex
 10
6.512023501925998
 20
6.277542961968315
 30
0.0
  0
SEQEND
  5
23F
330
23C
100
AcDbEntity
  8
Layer 1
 62
     7
370
    18
  0
POLYLINE
  5
240
330
1F
100
AcDbEntity
  8
Layer 1
 62
     7
370
    18
100
AcDb2dPolyline
 66
     1
 10
0.0
 20
0.0
 30
0.0
  0
VERTEX
  5
241
330
240
100
AcDbEntity
  8
Layer 1
 62
     7
370
    18
100
AcDbVertex
100
AcDb2dVertex
 10
6.162023756239149
 20
6.044229295518663
 30
0.0
  0
VERTEX
  5
242
330
240
100
AcDbEntity
  8
Layer 1
 62
     7
370
    18
100
AcDbVertex
100
AcDb2dVertex
 10
6.162023756239149
 20
6.072182125515408
 30
0.0
  0
SEQEND
  5
243
330
240
100
AcDbEntity
  8
Layer 1
 62
     7
370
    18
  0
POLYLINE
  5
244
330
1F
100
AcDbEntity
  8
Layer 1
 62
     7
370
    18
100
AcDb2dPolyline
 66
     1
 10
0.0
 20
0.0
 30
0.0
  0
VERTEX
  5
245
330
244
100
AcDbEntity
  8
Layer 1
 62
     7
370
    18
100
AcDbVertex
100
AcDb2dVertex
 10
5.575927734375
 20
5.590376536051432
 30
0.0
  0
VERTEX
  5
246
330
244
100
AcDbEntity
  8
Layer 1
 62
     7
370
    18
100
AcDbVertex
100
AcDb2dVertex
 10
6.062023586697048
 20
5.871023813883463
 30
0.0
  0
SEQEND
  5
247
330
244
100
AcDbEntity
  8
Layer 1
 62
     7
370
    18
  0
POLYLINE
  5
248
330
1F
100
AcDbEntity
  8
Layer 1
 62
     7
370
    18
100
AcDb2dPolyline
 66
     1
 10
0.0
 20
0.0
 30
0.0
  0
VERTEX
  5
249
330
248
100
AcDbEntity
  8
Layer 1
 62
     7
370
    18
100
AcDbVertex
100
AcDb2dVertex
 10
5.818751441107856
 20
4.764109717475043
 30
0.0
  0
VERTEX
  5
24A
330
248
100
AcDbEntity
  8
Layer 1
 62
     7
370
    18
100
AcDbVertex
100
AcDb2dVertex
 10
5.480972290039062
 20
5.349159664577908
 30
0.0
  0
SEQEND
  5
24B
330
248
100
AcDbEntity
  8
Layer 1
 62
     7
370
    18
  0
POLYLINE
  5
24C
330
1F
100
AcDbEntity
  8
Layer 1
 62
     7
370
    18
100
AcDb2dPolyline
 66
     1
 10
0.0
 20
0.0
 30
0.0
  0
VERTEX
  5
24D
330
24C
100
AcDbEntity
  8
Layer 1
 62
     7
370
    18
100
AcDbVertex
100
AcDb2dVertex
 10
6.512023501925998
 20
4.584292941623263
 30
0.0
  0
VERTEX
  5
24E
330
24C
100
AcDbEntity
  8
Layer 1
 62
     7
370
    18
100
AcDbVertex
100
AcDb2dVertex
 10
6.215801239013672
 20
4.594637552897135
 30
0.0
  0
SEQEND
  5
24F
330
24C
100
AcDbEntity
  8
Layer 1
 62
     7
370
    18
  0
POLYLINE
  5
250
330
1F
100
AcDbEntity
  8
Layer 1
 62
     7
370
    18
100
AcDb2dPolyline
 66
     1
 10
0.0
 20
0.0
 30
0.0
  0
VERTEX
  5
251
330
250
100
AcDbEntity
  8
Layer 1
 62
     7
370
    18
100
AcDbVertex
100
AcDb2dVertex
 10
6.138972388373481
 20
4.682372199164496
 30
0.0
  0
VERTEX
  5
252
330
250
100
AcDbEntity
  8
Layer 1
 62
     7
370
    18
100
AcDbVertex
100
AcDb2dVertex
 10
5.943419562445746
 20
4.689201354980469
 30
0.0
  0
SEQEND
  5
253
330
250
100
AcDbEntity
  8
Layer 1
 62
     7
370
    18
  0
POLYLINE
  5
254
330
1F
100
AcDbEntity
  8
Layer 1
 62
     7
370
    18
100
AcDb2dPolyline
 66
     1
 10
0.0
 20
0.0
 30
0.0
  0
VERTEX
  5
255
330
254
100
AcDbEntity
  8
Layer 1
 62
     7
370
    18
100
AcDbVertex
100
AcDb2dVertex
 10
6.846634758843315
 20
4.828763749864366
 30
0.0
  0
VERTEX
  5
256
330
254
100
AcDbEntity
  8
Layer 1
 62
     7
370
    18
100
AcDbVertex
100
AcDb2dVertex
 10
6.879797193739149
 20
4.828184763590494
 30
0.0
  0
VERTEX
  5
257
330
254
100
AcDbEntity
  8
Layer 1
 62
     7
370
    18
100
AcDbVertex
100
AcDb2dVertex
 10
6.911206987169053
 20
4.827637566460504
 30
0.0
  0
VERTEX
  5
258
330
254
100
AcDbEntity
  8
Layer 1
 62
     7
370
    18
100
AcDbVertex
100
AcDb2dVertex
 10
6.939325120713975
 20
4.827147165934244
 30
0.0
  0
VERTEX
  5
259
330
254
100
AcDbEntity
  8
Layer 1
 62
     7
370
    18
100
AcDbVertex
100
AcDb2dVertex
 10
6.962769402398003
 20
4.826737297905816
 30
0.0
  0
VERTEX
  5
25A
330
254
100
AcDbEntity
  8
Layer 1
 62
     7
370
    18
100
AcDbVertex
100
AcDb2dVertex
 10
6.980389065212673
 20
4.826429155137803
 30
0.0
  0
VERTEX
  5
25B
330
254
100
AcDbEntity
  8
Layer 1
 62
     7
370
    18
100
AcDbVertex
100
AcDb2dVertex
 10
6.9913207160102
 20
4.826238844129774
 30
0.0
  0
VERTEX
  5
25C
330
254
100
AcDbEntity
  8
Layer 1
 62
     7
370
    18
100
AcDbVertex
100
AcDb2dVertex
 10
6.995023515489366
 20
4.826173570421006
 30
0.0
  0
SEQEND
  5
25D
330
254
100
AcDbEntity
  8
Layer 1
 62
     7
370
    18
  0
POLYLINE
  5
25E
330
1F
100
AcDbEntity
  8
Layer 1
 62
     7
370
    18
100
AcDb2dPolyline
 66
     1
 10
0.0
 20
0.0
 30
0.0
  0
VERTEX
  5
25F
330
25E
100
AcDbEntity
  8
Layer 1
 62
     7
370
    18
100
AcDbVertex
100
AcDb2dVertex
 10
6.581583234998915
 20
4.833390129937066
 30
0.0
  0
VERTEX
  5
260
330
25E
100
AcDbEntity
  8
Layer 1
 62
     7
370
    18
100
AcDbVertex
100
AcDb2dVertex
 10
6.846634758843315
 20
4.828763749864366
 30
0.0
  0
SEQEND
  5
261
330
25E
100
AcDbEntity
  8
Layer 1
 62
     7
370
    18
  0
POLYLINE
  5
262
330
1F
100
AcDbEntity
  8
Layer 1
 62
     7
370
    18
100
AcDb2dPolyline
 66
     1
 10
0.0
 20
0.0
 30
0.0
  0
VERTEX
  5
263
330
262
100
AcDbEntity
  8
Layer 1
 62
     7
370
    18
100
AcDbVertex
100
AcDb2dVertex
 10
6.512023501925998
 20
6.192594316270616
 30
0.0
  0
VERTEX
  5
264
330
262
100
AcDbEntity
  8
Layer 1
 62
     7
370
    18
100
AcDbVertex
100
AcDb2dVertex
 10
6.512023501925998
 20
4.669241587320963
 30
0.0
  0
SEQEND
  5
265
330
262
100
AcDbEntity
  8
Layer 1
 62
     7
370
    18
  0
POLYLINE
  5
266
330
1F
100
AcDbEntity
  8
Layer 1
 62
     7
370
    18
100
AcDb2dPolyline
 66
     1
 10
0.0
 20
0.0
 30
0.0
  0
VERTEX
  5
267
330
266
100
AcDbEntity
  8
Layer 1
 62
     7
370
    18
100
AcDbVertex
100
AcDb2dVertex
 10
6.512023501925998
 20
4.669241587320963
 30
0.0
  0
VERTEX
  5
268
330
266
100
AcDbEntity
  8
Layer 1
 62
     7
370
    18
100
AcDbVertex
100
AcDb2dVertex
 10
6.512023501925998
 20
4.64298333062066
 30
0.0
  0
VERTEX
  5
269
330
266
100
AcDbEntity
  8
Layer 1
 62
     7
370
    18
100
AcDbVertex
100
AcDb2dVertex
 10
6.512023501925998
 20
4.619302961561415
 30
0.0
  0
VERTEX
  5
26A
330
266
100
AcDbEntity
  8
Layer 1
 62
     7
370
    18
100
AcDbVertex
100
AcDb2dVertex
 10
6.512023501925998
 20
4.60051261054145
 30
0.0
  0
VERTEX
  5
26B
330
266
100
AcDbEntity
  8
Layer 1
 62
     7
370
    18
100
AcDbVertex
100
AcDb2dVertex
 10
6.512023501925998
 20
4.588450113932291
 30
0.0
  0
VERTEX
  5
26C
330
266
100
AcDbEntity
  8
Layer 1
 62
     7
370
    18
100
AcDbVertex
100
AcDb2dVertex
 10
6.512023501925998
 20
4.584292941623263
 30
0.0
  0
SEQEND
  5
26D
330
266
100
AcDbEntity
  8
Layer 1
 62
     7
370
    18
  0
POLYLINE
  5
26E
330
1F
100
AcDbEntity
  8
Layer 1
 62
     7
370
    18
100
AcDb2dPolyline
 66
     1
 10
0.0
 20
0.0
 30
0.0
  0
VERTEX
  5
26F
330
26E
100
AcDbEntity
  8
Layer 1
 62
     7
370
    18
100
AcDbVertex
100
AcDb2dVertex
 10
6.512023501925998
 20
6.277542961968315
 30
0.0
  0
VERTEX
  5
270
330
26E
100
AcDbEntity
  8
Layer 1
 62
     7
370
    18
100
AcDbVertex
100
AcDb2dVertex
 10
6.512023501925998
 20
6.27338621351454
 30
0.0
  0
VERTEX
  5
271
330
26E
100
AcDbEntity
  8
Layer 1
 62
     7
370
    18
100
AcDbVertex
100
AcDb2dVertex
 10
6.512023501925998
 20
6.261323716905381
 30
0.0
  0
VERTEX
  5
272
330
26E
100
AcDbEntity
  8
Layer 1
 62
     7
370
    18
100
AcDbVertex
100
AcDb2dVertex
 10
6.512023501925998
 20
6.242533365885416
 30
0.0
  0
VERTEX
  5
273
330
26E
100
AcDbEntity
  8
Layer 1
 62
     7
370
    18
100
AcDbVertex
100
AcDb2dVertex
 10
6.512023501925998
 20
6.218851301405165
 30
0.0
  0
VERTEX
  5
274
330
26E
100
AcDbEntity
  8
Layer 1
 62
     7
370
    18
100
AcDbVertex
100
AcDb2dVertex
 10
6.512023501925998
 20
6.192594316270616
 30
0.0
  0
SEQEND
  5
275
330
26E
100
AcDbEntity
  8
Layer 1
 62
     7
370
    18
  0
POLYLINE
  5
276
330
1F
100
AcDbEntity
  8
Layer 1
 62
     7
370
    18
100
AcDb2dPolyline
 66
     1
 10
0.0
 20
0.0
 30
0.0
  0
VERTEX
  5
277
330
276
100
AcDbEntity
  8
Layer 1
 62
     7
370
    18
100
AcDbVertex
100
AcDb2dVertex
 10
3.484693103366428
 20
4.59468756781684
 30
0.0
  0
VERTEX
  5
278
330
276
100
AcDbEntity
  8
Layer 1
 62
     7
370
    18
100
AcDbVertex
100
AcDb2dVertex
 10
3.481844372219509
 20
4.594637552897135
 30
0.0
  0
SEQEND
  5
279
330
276
100
AcDbEntity
  8
Layer 1
 62
     7
370
    18
  0
POLYLINE
  5
27A
330
1F
100
AcDbEntity
  8
Layer 1
 62
     7
370
    18
100
AcDb2dPolyline
 66
     1
 10
0.0
 20
0.0
 30
0.0
  0
VERTEX
  5
27B
330
27A
100
AcDbEntity
  8
Layer 1
 62
     7
370
    18
100
AcDbVertex
100
AcDb2dVertex
 10
3.568138970269097
 20
4.678238762749566
 30
0.0
  0
VERTEX
  5
27C
330
27A
100
AcDbEntity
  8
Layer 1
 62
     7
370
    18
100
AcDbVertex
100
AcDb2dVertex
 10
3.568133460150825
 20
4.677892896864149
 30
0.0
  0
VERTEX
  5
27D
330
27A
100
AcDbEntity
  8
Layer 1
 62
     7
370
    18
100
AcDbVertex
100
AcDb2dVertex
 10
3.568131764729817
 20
4.677825080023871
 30
0.0
  0
VERTEX
  5
27E
330
27A
100
AcDbEntity
  8
Layer 1
 62
     7
370
    18
100
AcDbVertex
100
AcDb2dVertex
 10
3.568130493164062
 20
4.677742852105035
 30
0.0
  0
VERTEX
  5
27F
330
27A
100
AcDbEntity
  8
Layer 1
 62
     7
370
    18
100
AcDbVertex
100
AcDb2dVertex
 10
3.568120744493272
 20
4.677332136366102
 30
0.0
  0
VERTEX
  5
280
330
27A
100
AcDbEntity
  8
Layer 1
 62
     7
370
    18
100
AcDbVertex
100
AcDb2dVertex
 10
3.568097432454427
 20
4.676579369439019
 30
0.0
  0
VERTEX
  5
281
330
27A
100
AcDbEntity
  8
Layer 1
 62
     7
370
    18
100
AcDbVertex
100
AcDb2dVertex
 10
3.568038940429688
 20
4.675201416015625
 30
0.0
  0
VERTEX
  5
282
330
27A
100
AcDbEntity
  8
Layer 1
 62
     7
370
    18
100
AcDbVertex
100
AcDb2dVertex
 10
3.567870669894748
 20
4.672691769070095
 30
0.0
  0
VERTEX
  5
283
330
27A
100
AcDbEntity
  8
Layer 1
 62
     7
370
    18
100
AcDbVertex
100
AcDb2dVertex
 10
3.567366706000434
 20
4.668123457166883
 30
0.0
  0
VERTEX
  5
284
330
27A
100
AcDbEntity
  8
Layer 1
 62
     7
370
    18
100
AcDbVertex
100
AcDb2dVertex
 10
3.565783182779948
 20
4.659822252061631
 30
0.0
  0
VERTEX
  5
285
330
27A
100
AcDbEntity
  8
Layer 1
 62
     7
370
    18
100
AcDbVertex
100
AcDb2dVertex
 10
3.56043455335829
 20
4.644535912407769
 30
0.0
  0
VERTEX
  5
286
330
27A
100
AcDbEntity
  8
Layer 1
 62
     7
370
    18
100
AcDbVertex
100
AcDb2dVertex
 10
3.557718065049913
 20
4.639177958170572
 30
0.0
  0
VERTEX
  5
287
330
27A
100
AcDbEntity
  8
Layer 1
 62
     7
370
    18
100
AcDbVertex
100
AcDb2dVertex
 10
3.538741641574436
 20
4.615822262234158
 30
0.0
  0
VERTEX
  5
288
330
27A
100
AcDbEntity
  8
Layer 1
 62
     7
370
    18
100
AcDbVertex
100
AcDb2dVertex
 10
3.527419408162435
 20
4.607547336154513
 30
0.0
  0
VERTEX
  5
289
330
27A
100
AcDbEntity
  8
Layer 1
 62
     7
370
    18
100
AcDbVertex
100
AcDb2dVertex
 10
3.507272296481662
 20
4.598462422688802
 30
0.0
  0
VERTEX
  5
28A
330
27A
100
AcDbEntity
  8
Layer 1
 62
     7
370
    18
100
AcDbVertex
100
AcDb2dVertex
 10
3.484693103366428
 20
4.59468756781684
 30
0.0
  0
SEQEND
  5
28B
330
27A
100
AcDbEntity
  8
Layer 1
 62
     7
370
    18
  0
POLYLINE
  5
28C
330
1F
100
AcDbEntity
  8
Layer 1
 62
     7
370
    18
100
AcDb2dPolyline
 66
     1
 10
0.0
 20
0.0
 30
0.0
  0
VERTEX
  5
28D
330
28C
100
AcDbEntity
  8
Layer 1
 62
     7
370
    18
100
AcDbVertex
100
AcDb2dVertex
 10
3.545827865600586
 20
5.516763899061415
 30
0.0
  0
VERTEX
  5
28E
330
28C
100
AcDbEntity
  8
Layer 1
 62
     7
370
    18
100
AcDbVertex
100
AcDb2dVertex
 10
3.541308297051323
 20
5.539271036783854
 30
0.0
  0
VERTEX
  5
28F
330
28C
100
AcDbEntity
  8
Layer 1
 62
     7
370
    18
100
AcDbVertex
100
AcDb2dVertex
 10
3.529088973999023
 20
5.559622022840712
 30
0.0
  0
VERTEX
  5
290
330
28C
100
AcDbEntity
  8
Layer 1
 62
     7
370
    18
100
AcDbVertex
100
AcDb2dVertex
 10
3.510337405734592
 20
5.575870937771267
 30
0.0
  0
VERTEX
  5
291
330
28C
100
AcDbEntity
  8
Layer 1
 62
     7
370
    18
100
AcDbVertex
100
AcDb2dVertex
 10
3.486852857801649
 20
5.586459689670138
 30
0.0
  0
VERTEX
  5
292
330
28C
100
AcDbEntity
  8
Layer 1
 62
     7
370
    18
100
AcDbVertex
100
AcDb2dVertex
 10
3.460879219902886
 20
5.590376536051432
 30
0.0
  0
SEQEND
  5
293
330
28C
100
AcDbEntity
  8
Layer 1
 62
     7
370
    18
  0
POLYLINE
  5
294
330
1F
100
AcDbEntity
  8
Layer 1
 62
     7
370
    18
100
AcDb2dPolyline
 66
     1
 10
0.0
 20
0.0
 30
0.0
  0
VERTEX
  5
295
330
294
100
AcDbEntity
  8
Layer 1
 62
     7
370
    18
100
AcDbVertex
100
AcDb2dVertex
 10
3.483352873060438
 20
4.638518015543619
 30
0.0
  0
VERTEX
  5
296
330
294
100
AcDbEntity
  8
Layer 1
 62
     7
370
    18
100
AcDbVertex
100
AcDb2dVertex
 10
3.484048631456163
 20
4.617366790771484
 30
0.0
  0
VERTEX
  5
297
330
294
100
AcDbEntity
  8
Layer 1
 62
     7
370
    18
100
AcDbVertex
100
AcDb2dVertex
 10
3.484541575113932
 20
4.601201375325521
 30
0.0
  0
VERTEX
  5
298
330
294
100
AcDbEntity
  8
Layer 1
 62
     7
370
    18
100
AcDbVertex
100
AcDb2dVertex
 10
3.484693103366428
 20
4.59468756781684
 30
0.0
  0
SEQEND
  5
299
330
294
100
AcDbEntity
  8
Layer 1
 62
     7
370
    18
  0
POLYLINE
  5
29A
330
1F
100
AcDbEntity
  8
Layer 1
 62
     7
370
    18
100
AcDb2dPolyline
 66
     1
 10
0.0
 20
0.0
 30
0.0
  0
VERTEX
  5
29B
330
29A
100
AcDbEntity
  8
Layer 1
 62
     7
370
    18
100
AcDbVertex
100
AcDb2dVertex
 10
3.568138970269097
 20
4.678238762749566
 30
0.0
  0
VERTEX
  5
29C
330
29A
100
AcDbEntity
  8
Layer 1
 62
     7
370
    18
100
AcDbVertex
100
AcDb2dVertex
 10
3.568127950032552
 20
4.678011152479383
 30
0.0
  0
VERTEX
  5
29D
330
29A
100
AcDbEntity
  8
Layer 1
 62
     7
370
    18
100
AcDbVertex
100
AcDb2dVertex
 10
3.56812498304579
 20
4.677966647677951
 30
0.0
  0
VERTEX
  5
29E
330
29A
100
AcDbEntity
  8
Layer 1
 62
     7
370
    18
100
AcDbVertex
100
AcDb2dVertex
 10
3.568110995822483
 20
4.677700042724609
 30
0.0
  0
VERTEX
  5
29F
330
29A
100
AcDbEntity
  8
Layer 1
 62
     7
370
    18
100
AcDbVertex
100
AcDb2dVertex
 10
3.568080478244358
 20
4.677251180013021
 30
0.0
  0
VERTEX
  5
2A0
330
29A
100
AcDbEntity
  8
Layer 1
 62
     7
370
    18
100
AcDbVertex
100
AcDb2dVertex
 10
3.568009694417317
 20
4.67643059624566
 30
0.0
  0
VERTEX
  5
2A1
330
29A
100
AcDbEntity
  8
Layer 1
 62
     7
370
    18
100
AcDbVertex
100
AcDb2dVertex
 10
3.567829132080078
 20
4.674925062391493
 30
0.0
  0
VERTEX
  5
2A2
330
29A
100
AcDbEntity
  8
Layer 1
 62
     7
370
    18
100
AcDbVertex
100
AcDb2dVertex
 10
3.567317962646484
 20
4.672169579399957
 30
0.0
  0
VERTEX
  5
2A3
330
29A
100
AcDbEntity
  8
Layer 1
 62
     7
370
    18
100
AcDbVertex
100
AcDb2dVertex
 10
3.565708160400391
 20
4.667111290825738
 30
0.0
  0
VERTEX
  5
2A4
330
29A
100
AcDbEntity
  8
Layer 1
 62
     7
370
    18
100
AcDbVertex
100
AcDb2dVertex
 10
3.55990007188585
 20
4.657876332600911
 30
0.0
  0
VERTEX
  5
2A5
330
29A
100
AcDbEntity
  8
Layer 1
 62
     7
370
    18
100
AcDbVertex
100
AcDb2dVertex
 10
3.556190066867404
 20
4.654262542724609
 30
0.0
  0
VERTEX
  5
2A6
330
29A
100
AcDbEntity
  8
Layer 1
 62
     7
370
    18
100
AcDbVertex
100
AcDb2dVertex
 10
3.537737528483073
 20
4.644582112630208
 30
0.0
  0
VERTEX
  5
2A7
330
29A
100
AcDbEntity
  8
Layer 1
 62
     7
370
    18
100
AcDbVertex
100
AcDb2dVertex
 10
3.52628050910102
 20
4.64174567328559
 30
0.0
  0
VERTEX
  5
2A8
330
29A
100
AcDbEntity
  8
Layer 1
 62
     7
370
    18
100
AcDbVertex
100
AcDb2dVertex
 10
3.505990346272786
 20
4.639298756917317
 30
0.0
  0
VERTEX
  5
2A9
330
29A
100
AcDbEntity
  8
Layer 1
 62
     7
370
    18
100
AcDbVertex
100
AcDb2dVertex
 10
3.483352873060438
 20
4.638518015543619
 30
0.0
  0
SEQEND
  5
2AA
330
29A
100
AcDbEntity
  8
Layer 1
 62
     7
370
    18
  0
POLYLINE
  5
2AB
330
1F
100
AcDbEntity
  8
Layer 1
 62
     7
370
    18
100
AcDb2dPolyline
 66
     1
 10
0.0
 20
0.0
 30
0.0
  0
VERTEX
  5
2AC
330
2AB
100
AcDbEntity
  8
Layer 1
 62
     7
370
    18
100
AcDbVertex
100
AcDb2dVertex
 10
3.562802632649739
 20
5.797411176893446
 30
0.0
  0
VERTEX
  5
2AD
330
2AB
100
AcDbEntity
  8
Layer 1
 62
     7
370
    18
100
AcDbVertex
100
AcDb2dVertex
 10
3.558283487955729
 20
5.819917890760633
 30
0.0
  0
VERTEX
  5
2AE
330
2AB
100
AcDbEntity
  8
Layer 1
 62
     7
370
    18
100
AcDbVertex
100
AcDb2dVertex
 10
3.546063952975803
 20
5.840269300672743
 30
0.0
  0
VERTEX
  5
2AF
330
2AB
100
AcDbEntity
  8
Layer 1
 62
     7
370
    18
100
AcDbVertex
100
AcDb2dVertex
 10
3.527312596638997
 20
5.856518215603298
 30
0.0
  0
VERTEX
  5
2B0
330
2AB
100
AcDbEntity
  8
Layer 1
 62
     7
370
    18
100
AcDbVertex
100
AcDb2dVertex
 10
3.503826353285048
 20
5.86710696750217
 30
0.0
  0
VERTEX
  5
2B1
330
2AB
100
AcDbEntity
  8
Layer 1
 62
     7
370
    18
100
AcDbVertex
100
AcDb2dVertex
 10
3.477855470445421
 20
5.871023813883463
 30
0.0
  0
SEQEND
  5
2B2
330
2AB
100
AcDbEntity
  8
Layer 1
 62
     7
370
    18
  0
POLYLINE
  5
2B3
330
1F
100
AcDbEntity
  8
Layer 1
 62
     7
370
    18
100
AcDb2dPolyline
 66
     1
 10
0.0
 20
0.0
 30
0.0
  0
VERTEX
  5
2B4
330
2B3
100
AcDbEntity
  8
Layer 1
 62
     7
370
    18
100
AcDbVertex
100
AcDb2dVertex
 10
3.564109802246094
 20
4.767320844862196
 30
0.0
  0
VERTEX
  5
2B5
330
2B3
100
AcDbEntity
  8
Layer 1
 62
     7
370
    18
100
AcDbVertex
100
AcDb2dVertex
 10
3.559926350911458
 20
4.741090138753255
 30
0.0
  0
VERTEX
  5
2B6
330
2B3
100
AcDbEntity
  8
Layer 1
 62
     7
370
    18
100
AcDbVertex
100
AcDb2dVertex
 10
3.547850079006619
 20
4.71742206149631
 30
0.0
  0
VERTEX
  5
2B7
330
2B3
100
AcDbEntity
  8
Layer 1
 62
     7
370
    18
100
AcDbVertex
100
AcDb2dVertex
 10
3.529059727986653
 20
4.698632134331597
 30
0.0
  0
VERTEX
  5
2B8
330
2B3
100
AcDbEntity
  8
Layer 1
 62
     7
370
    18
100
AcDbVertex
100
AcDb2dVertex
 10
3.505391650729709
 20
4.686555650499131
 30
0.0
  0
VERTEX
  5
2B9
330
2B3
100
AcDbEntity
  8
Layer 1
 62
     7
370
    18
100
AcDbVertex
100
AcDb2dVertex
 10
3.479161156548394
 20
4.682372199164496
 30
0.0
  0
SEQEND
  5
2BA
330
2B3
100
AcDbEntity
  8
Layer 1
 62
     7
370
    18
  0
POLYLINE
  5
2BB
330
1F
100
AcDbEntity
  8
Layer 1
 62
     7
370
    18
100
AcDb2dPolyline
 66
     1
 10
0.0
 20
0.0
 30
0.0
  0
VERTEX
  5
2BC
330
2BB
100
AcDbEntity
  8
Layer 1
 62
     7
370
    18
100
AcDbVertex
100
AcDb2dVertex
 10
3.557280646430121
 20
4.774150000678168
 30
0.0
  0
VERTEX
  5
2BD
330
2BB
100
AcDbEntity
  8
Layer 1
 62
     7
370
    18
100
AcDbVertex
100
AcDb2dVertex
 10
3.553097195095486
 20
4.747918023003472
 30
0.0
  0
VERTEX
  5
2BE
330
2BB
100
AcDbEntity
  8
Layer 1
 62
     7
370
    18
100
AcDbVertex
100
AcDb2dVertex
 10
3.541020923190647
 20
4.724251217312283
 30
0.0
  0
VERTEX
  5
2BF
330
2BB
100
AcDbEntity
  8
Layer 1
 62
     7
370
    18
100
AcDbVertex
100
AcDb2dVertex
 10
3.522230572170681
 20
4.705461290147569
 30
0.0
  0
VERTEX
  5
2C0
330
2BB
100
AcDbEntity
  8
Layer 1
 62
     7
370
    18
100
AcDbVertex
100
AcDb2dVertex
 10
3.498563978407118
 20
4.693384806315104
 30
0.0
  0
VERTEX
  5
2C1
330
2BB
100
AcDbEntity
  8
Layer 1
 62
     7
370
    18
100
AcDbVertex
100
AcDb2dVertex
 10
3.472332000732422
 20
4.689201354980469
 30
0.0
  0
SEQEND
  5
2C2
330
2BB
100
AcDbEntity
  8
Layer 1
 62
     7
370
    18
  0
POLYLINE
  5
2C3
330
1F
100
AcDbEntity
  8
Layer 1
 62
     7
370
    18
100
AcDb2dPolyline
 66
     1
 10
0.0
 20
0.0
 30
0.0
  0
VERTEX
  5
2C4
330
2C3
100
AcDbEntity
  8
Layer 1
 62
     7
370
    18
100
AcDbVertex
100
AcDb2dVertex
 10
3.555394490559896
 20
4.806609683566623
 30
0.0
  0
VERTEX
  5
2C5
330
2C3
100
AcDbEntity
  8
Layer 1
 62
     7
370
    18
100
AcDbVertex
100
AcDb2dVertex
 10
3.550615310668945
 20
4.793715159098307
 30
0.0
  0
VERTEX
  5
2C6
330
2C3
100
AcDbEntity
  8
Layer 1
 62
     7
370
    18
100
AcDbVertex
100
AcDb2dVertex
 10
3.538284725613064
 20
4.782034556070963
 30
0.0
  0
VERTEX
  5
2C7
330
2C3
100
AcDbEntity
  8
Layer 1
 62
     7
370
    18
100
AcDbVertex
100
AcDb2dVertex
 10
3.519565370347765
 20
4.772669474283854
 30
0.0
  0
VERTEX
  5
2C8
330
2C3
100
AcDbEntity
  8
Layer 1
 62
     7
370
    18
100
AcDbVertex
100
AcDb2dVertex
 10
3.49621942308214
 20
4.76650153266059
 30
0.0
  0
VERTEX
  5
2C9
330
2C3
100
AcDbEntity
  8
Layer 1
 62
     7
370
    18
100
AcDbVertex
100
AcDb2dVertex
 10
3.470445844862196
 20
4.764109717475043
 30
0.0
  0
SEQEND
  5
2CA
330
2C3
100
AcDbEntity
  8
Layer 1
 62
     7
370
    18
  0
POLYLINE
  5
2CB
330
1F
100
AcDbEntity
  8
Layer 1
 62
     7
370
    18
100
AcDb2dPolyline
 66
     1
 10
0.0
 20
0.0
 30
0.0
  0
VERTEX
  5
2CC
330
2CB
100
AcDbEntity
  8
Layer 1
 62
     7
370
    18
100
AcDbVertex
100
AcDb2dVertex
 10
3.543598598904079
 20
5.391659630669488
 30
0.0
  0
VERTEX
  5
2CD
330
2CB
100
AcDbEntity
  8
Layer 1
 62
     7
370
    18
100
AcDbVertex
100
AcDb2dVertex
 10
3.538819419013129
 20
5.378765106201172
 30
0.0
  0
VERTEX
  5
2CE
330
2CB
100
AcDbEntity
  8
Layer 1
 62
     7
370
    18
100
AcDbVertex
100
AcDb2dVertex
 10
3.526488833957248
 20
5.367086198594834
 30
0.0
  0
VERTEX
  5
2CF
330
2CB
100
AcDbEntity
  8
Layer 1
 62
     7
370
    18
100
AcDbVertex
100
AcDb2dVertex
 10
3.507769478691948
 20
5.357719421386719
 30
0.0
  0
VERTEX
  5
2D0
330
2CB
100
AcDbEntity
  8
Layer 1
 62
     7
370
    18
100
AcDbVertex
100
AcDb2dVertex
 10
3.484423531426323
 20
5.351551479763454
 30
0.0
  0
VERTEX
  5
2D1
330
2CB
100
AcDbEntity
  8
Layer 1
 62
     7
370
    18
100
AcDbVertex
100
AcDb2dVertex
 10
3.45864995320638
 20
5.349159664577908
 30
0.0
  0
SEQEND
  5
2D2
330
2CB
100
AcDbEntity
  8
Layer 1
 62
     7
370
    18
  0
POLYLINE
  5
2D3
330
1F
100
AcDbEntity
  8
Layer 1
 62
     7
370
    18
100
AcDb2dPolyline
 66
     1
 10
0.0
 20
0.0
 30
0.0
  0
VERTEX
  5
2D4
330
2D3
100
AcDbEntity
  8
Layer 1
 62
     7
370
    18
100
AcDbVertex
100
AcDb2dVertex
 10
3.543545828925239
 20
5.403041839599609
 30
0.0
  0
VERTEX
  5
2D5
330
2D3
100
AcDbEntity
  8
Layer 1
 62
     7
370
    18
100
AcDbVertex
100
AcDb2dVertex
 10
3.538697136773003
 20
5.409702724880642
 30
0.0
  0
VERTEX
  5
2D6
330
2D3
100
AcDbEntity
  8
Layer 1
 62
     7
370
    18
100
AcDbVertex
100
AcDb2dVertex
 10
3.526337517632378
 20
5.415738847520616
 30
0.0
  0
VERTEX
  5
2D7
330
2D3
100
AcDbEntity
  8
Layer 1
 62
     7
370
    18
100
AcDbVertex
100
AcDb2dVertex
 10
3.507626427544488
 20
5.420584784613715
 30
0.0
  0
VERTEX
  5
2D8
330
2D3
100
AcDbEntity
  8
Layer 1
 62
     7
370
    18
100
AcDbVertex
100
AcDb2dVertex
 10
3.484317991468641
 20
5.423786163330078
 30
0.0
  0
VERTEX
  5
2D9
330
2D3
100
AcDbEntity
  8
Layer 1
 62
     7
370
    18
100
AcDbVertex
100
AcDb2dVertex
 10
3.45859866672092
 20
5.42504162258572
 30
0.0
  0
SEQEND
  5
2DA
330
2D3
100
AcDbEntity
  8
Layer 1
 62
     7
370
    18
  0
POLYLINE
  5
2DB
330
1F
100
AcDbEntity
  8
Layer 1
 62
     7
370
    18
100
AcDb2dPolyline
 66
     1
 10
0.0
 20
0.0
 30
0.0
  0
VERTEX
  5
2DC
330
2DB
100
AcDbEntity
  8
Layer 1
 62
     7
370
    18
100
AcDbVertex
100
AcDb2dVertex
 10
3.543956968519423
 20
5.446934594048394
 30
0.0
  0
VERTEX
  5
2DD
330
2DB
100
AcDbEntity
  8
Layer 1
 62
     7
370
    18
100
AcDbVertex
100
AcDb2dVertex
 10
3.539107004801432
 20
5.453595903184678
 30
0.0
  0
VERTEX
  5
2DE
330
2DB
100
AcDbEntity
  8
Layer 1
 62
     7
370
    18
100
AcDbVertex
100
AcDb2dVertex
 10
3.526747173733181
 20
5.459632025824653
 30
0.0
  0
VERTEX
  5
2DF
330
2DB
100
AcDbEntity
  8
Layer 1
 62
     7
370
    18
100
AcDbVertex
100
AcDb2dVertex
 10
3.508037567138672
 20
5.464477962917751
 30
0.0
  0
VERTEX
  5
2E0
330
2DB
100
AcDbEntity
  8
Layer 1
 62
     7
370
    18
100
AcDbVertex
100
AcDb2dVertex
 10
3.484729131062825
 20
5.467679341634114
 30
0.0
  0
VERTEX
  5
2E1
330
2DB
100
AcDbEntity
  8
Layer 1
 62
     7
370
    18
100
AcDbVertex
100
AcDb2dVertex
 10
3.459008322821723
 20
5.468934800889756
 30
0.0
  0
SEQEND
  5
2E2
330
2DB
100
AcDbEntity
  8
Layer 1
 62
     7
370
    18
  0
POLYLINE
  5
2E3
330
1F
100
AcDbEntity
  8
Layer 1
 62
     7
370
    18
100
AcDb2dPolyline
 66
     1
 10
0.0
 20
0.0
 30
0.0
  0
VERTEX
  5
2E4
330
2E3
100
AcDbEntity
  8
Layer 1
 62
     7
370
    18
100
AcDbVertex
100
AcDb2dVertex
 10
3.567779117160373
 20
6.044229295518663
 30
0.0
  0
VERTEX
  5
2E5
330
2E3
100
AcDbEntity
  8
Layer 1
 62
     7
370
    18
100
AcDbVertex
100
AcDb2dVertex
 10
3.562905629475911
 20
6.044229295518663
 30
0.0
  0
VERTEX
  5
2E6
330
2E3
100
AcDbEntity
  8
Layer 1
 62
     7
370
    18
100
AcDbVertex
100
AcDb2dVertex
 10
3.55053604973687
 20
6.044229295518663
 30
0.0
  0
VERTEX
  5
2E7
330
2E3
100
AcDbEntity
  8
Layer 1
 62
     7
370
    18
100
AcDbVertex
100
AcDb2dVertex
 10
3.531827714708116
 20
6.044229295518663
 30
0.0
  0
VERTEX
  5
2E8
330
2E3
100
AcDbEntity
  8
Layer 1
 62
     7
370
    18
100
AcDbVertex
100
AcDb2dVertex
 10
3.508531994289822
 20
6.044229295518663
 30
0.0
  0
VERTEX
  5
2E9
330
2E3
100
AcDbEntity
  8
Layer 1
 62
     7
370
    18
100
AcDbVertex
100
AcDb2dVertex
 10
3.482830471462673
 20
6.044229295518663
 30
0.0
  0
SEQEND
  5
2EA
330
2E3
100
AcDbEntity
  8
Layer 1
 62
     7
370
    18
  0
POLYLINE
  5
2EB
330
1F
100
AcDbEntity
  8
Layer 1
 62
     7
370
    18
100
AcDb2dPolyline
 66
     1
 10
0.0
 20
0.0
 30
0.0
  0
VERTEX
  5
2EC
330
2EB
100
AcDbEntity
  8
Layer 1
 62
     7
370
    18
100
AcDbVertex
100
AcDb2dVertex
 10
3.567779117160373
 20
6.072182125515408
 30
0.0
  0
VERTEX
  5
2ED
330
2EB
100
AcDbEntity
  8
Layer 1
 62
     7
370
    18
100
AcDbVertex
100
AcDb2dVertex
 10
3.562905629475911
 20
6.072182125515408
 30
0.0
  0
VERTEX
  5
2EE
330
2EB
100
AcDbEntity
  8
Layer 1
 62
     7
370
    18
100
AcDbVertex
100
AcDb2dVertex
 10
3.55053604973687
 20
6.072182125515408
 30
0.0
  0
VERTEX
  5
2EF
330
2EB
100
AcDbEntity
  8
Layer 1
 62
     7
370
    18
100
AcDbVertex
100
AcDb2dVertex
 10
3.531827714708116
 20
6.072182125515408
 30
0.0
  0
VERTEX
  5
2F0
330
2EB
100
AcDbEntity
  8
Layer 1
 62
     7
370
    18
100
AcDbVertex
100
AcDb2dVertex
 10
3.508531994289822
 20
6.072182125515408
 30
0.0
  0
VERTEX
  5
2F1
330
2EB
100
AcDbEntity
  8
Layer 1
 62
     7
370
    18
100
AcDbVertex
100
AcDb2dVertex
 10
3.482830471462673
 20
6.072182125515408
 30
0.0
  0
SEQEND
  5
2F2
330
2EB
100
AcDbEntity
  8
Layer 1
 62
     7
370
    18
  0
POLYLINE
  5
2F3
330
1F
100
AcDbEntity
  8
Layer 1
 62
     7
370
    18
100
AcDb2dPolyline
 66
     1
 10
0.0
 20
0.0
 30
0.0
  0
VERTEX
  5
2F4
330
2F3
100
AcDbEntity
  8
Layer 1
 62
     7
370
    18
100
AcDbVertex
100
AcDb2dVertex
 10
3.571655697292751
 20
6.187112596299913
 30
0.0
  0
VERTEX
  5
2F5
330
2F3
100
AcDbEntity
  8
Layer 1
 62
     7
370
    18
100
AcDbVertex
100
AcDb2dVertex
 10
3.567472245958116
 20
6.213342878553602
 30
0.0
  0
VERTEX
  5
2F6
330
2F3
100
AcDbEntity
  8
Layer 1
 62
     7
370
    18
100
AcDbVertex
100
AcDb2dVertex
 10
3.555394490559896
 20
6.237009684244791
 30
0.0
  0
VERTEX
  5
2F7
330
2F3
100
AcDbEntity
  8
Layer 1
 62
     7
370
    18
100
AcDbVertex
100
AcDb2dVertex
 10
3.53660413953993
 20
6.255800035264756
 30
0.0
  0
VERTEX
  5
2F8
330
2F3
100
AcDbEntity
  8
Layer 1
 62
     7
370
    18
100
AcDbVertex
100
AcDb2dVertex
 10
3.512937545776367
 20
6.267877790662977
 30
0.0
  0
VERTEX
  5
2F9
330
2F3
100
AcDbEntity
  8
Layer 1
 62
     7
370
    18
100
AcDbVertex
100
AcDb2dVertex
 10
3.486706839667426
 20
6.272059546576606
 30
0.0
  0
SEQEND
  5
2FA
330
2F3
100
AcDbEntity
  8
Layer 1
 62
     7
370
    18
  0
POLYLINE
  5
2FB
330
1F
100
AcDbEntity
  8
Layer 1
 62
     7
370
    18
100
AcDb2dPolyline
 66
     1
 10
0.0
 20
0.0
 30
0.0
  0
VERTEX
  5
2FC
330
2FB
100
AcDbEntity
  8
Layer 1
 62
     7
370
    18
100
AcDbVertex
100
AcDb2dVertex
 10
3.562802632649739
 20
5.797411176893446
 30
0.0
  0
VERTEX
  5
2FD
330
2FB
100
AcDbEntity
  8
Layer 1
 62
     7
370
    18
100
AcDbVertex
100
AcDb2dVertex
 10
3.545827865600586
 20
5.516763899061415
 30
0.0
  0
SEQEND
  5
2FE
330
2FB
100
AcDbEntity
  8
Layer 1
 62
     7
370
    18
  0
POLYLINE
  5
2FF
330
1F
100
AcDbEntity
  8
Layer 1
 62
     7
370
    18
100
AcDb2dPolyline
 66
     1
 10
0.0
 20
0.0
 30
0.0
  0
VERTEX
  5
300
330
2FF
100
AcDbEntity
  8
Layer 1
 62
     7
370
    18
100
AcDbVertex
100
AcDb2dVertex
 10
3.543598598904079
 20
5.391659630669488
 30
0.0
  0
VERTEX
  5
301
330
2FF
100
AcDbEntity
  8
Layer 1
 62
     7
370
    18
100
AcDbVertex
100
AcDb2dVertex
 10
3.555394490559896
 20
4.806609683566623
 30
0.0
  0
SEQEND
  5
302
330
2FF
100
AcDbEntity
  8
Layer 1
 62
     7
370
    18
  0
POLYLINE
  5
303
330
1F
100
AcDbEntity
  8
Layer 1
 62
     7
370
    18
100
AcDb2dPolyline
 66
     1
 10
0.0
 20
0.0
 30
0.0
  0
VERTEX
  5
304
330
303
100
AcDbEntity
  8
Layer 1
 62
     7
370
    18
100
AcDbVertex
100
AcDb2dVertex
 10
3.568138970269097
 20
4.678238762749566
 30
0.0
  0
VERTEX
  5
305
330
303
100
AcDbEntity
  8
Layer 1
 62
     7
370
    18
100
AcDbVertex
100
AcDb2dVertex
 10
3.5771361456977
 20
4.669241587320963
 30
0.0
  0
SEQEND
  5
306
330
303
100
AcDbEntity
  8
Layer 1
 62
     7
370
    18
  0
POLYLINE
  5
307
330
1F
100
AcDbEntity
  8
Layer 1
 62
     7
370
    18
100
AcDb2dPolyline
 66
     1
 10
0.0
 20
0.0
 30
0.0
  0
VERTEX
  5
308
330
307
100
AcDbEntity
  8
Layer 1
 62
     7
370
    18
100
AcDbVertex
100
AcDb2dVertex
 10
3.564109802246094
 20
4.767320844862196
 30
0.0
  0
VERTEX
  5
309
330
307
100
AcDbEntity
  8
Layer 1
 62
     7
370
    18
100
AcDbVertex
100
AcDb2dVertex
 10
3.565180460611979
 20
4.762391832139756
 30
0.0
  0
VERTEX
  5
30A
330
307
100
AcDbEntity
  8
Layer 1
 62
     7
370
    18
100
AcDbVertex
100
AcDb2dVertex
 10
3.566174825032552
 20
4.75006103515625
 30
0.0
  0
VERTEX
  5
30B
330
307
100
AcDbEntity
  8
Layer 1
 62
     7
370
    18
100
AcDbVertex
100
AcDb2dVertex
 10
3.567033131917317
 20
4.73108885023329
 30
0.0
  0
VERTEX
  5
30C
330
307
100
AcDbEntity
  8
Layer 1
 62
     7
370
    18
100
AcDbVertex
100
AcDb2dVertex
 10
3.567701551649305
 20
4.706645965576172
 30
0.0
  0
VERTEX
  5
30D
330
307
100
AcDbEntity
  8
Layer 1
 62
     7
370
    18
100
AcDbVertex
100
AcDb2dVertex
 10
3.568138970269097
 20
4.678238762749566
 30
0.0
  0
SEQEND
  5
30E
330
307
100
AcDbEntity
  8
Layer 1
 62
     7
370
    18
  0
POLYLINE
  5
30F
330
1F
100
AcDbEntity
  8
Layer 1
 62
     7
370
    18
100
AcDb2dPolyline
 66
     1
 10
0.0
 20
0.0
 30
0.0
  0
VERTEX
  5
310
330
30F
100
AcDbEntity
  8
Layer 1
 62
     7
370
    18
100
AcDbVertex
100
AcDb2dVertex
 10
3.557280646430121
 20
4.774150000678168
 30
0.0
  0
VERTEX
  5
311
330
30F
100
AcDbEntity
  8
Layer 1
 62
     7
370
    18
100
AcDbVertex
100
AcDb2dVertex
 10
3.564109802246094
 20
4.767320844862196
 30
0.0
  0
SEQEND
  5
312
330
30F
100
AcDbEntity
  8
Layer 1
 62
     7
370
    18
  0
POLYLINE
  5
313
330
1F
100
AcDbEntity
  8
Layer 1
 62
     7
370
    18
100
AcDb2dPolyline
 66
     1
 10
0.0
 20
0.0
 30
0.0
  0
VERTEX
  5
314
330
313
100
AcDbEntity
  8
Layer 1
 62
     7
370
    18
100
AcDbVertex
100
AcDb2dVertex
 10
3.555394490559896
 20
4.806609683566623
 30
0.0
  0
VERTEX
  5
315
330
313
100
AcDbEntity
  8
Layer 1
 62
     7
370
    18
100
AcDbVertex
100
AcDb2dVertex
 10
3.555880652533637
 20
4.789806789822048
 30
0.0
  0
VERTEX
  5
316
330
313
100
AcDbEntity
  8
Layer 1
 62
     7
370
    18
100
AcDbVertex
100
AcDb2dVertex
 10
3.556534661187066
 20
4.778564029269748
 30
0.0
  0
VERTEX
  5
317
330
313
100
AcDbEntity
  8
Layer 1
 62
     7
370
    18
100
AcDbVertex
100
AcDb2dVertex
 10
3.557280646430121
 20
4.774150000678168
 30
0.0
  0
SEQEND
  5
318
330
313
100
AcDbEntity
  8
Layer 1
 62
     7
370
    18
  0
POLYLINE
  5
319
330
1F
100
AcDbEntity
  8
Layer 1
 62
     7
370
    18
100
AcDb2dPolyline
 66
     1
 10
0.0
 20
0.0
 30
0.0
  0
VERTEX
  5
31A
330
319
100
AcDbEntity
  8
Layer 1
 62
     7
370
    18
100
AcDbVertex
100
AcDb2dVertex
 10
3.571655697292751
 20
6.187112596299913
 30
0.0
  0
VERTEX
  5
31B
330
319
100
AcDbEntity
  8
Layer 1
 62
     7
370
    18
100
AcDbVertex
100
AcDb2dVertex
 10
3.570643107096354
 20
6.182351430257161
 30
0.0
  0
VERTEX
  5
31C
330
319
100
AcDbEntity
  8
Layer 1
 62
     7
370
    18
100
AcDbVertex
100
AcDb2dVertex
 10
3.569706810845269
 20
6.170409732394748
 30
0.0
  0
VERTEX
  5
31D
330
319
100
AcDbEntity
  8
Layer 1
 62
     7
370
    18
100
AcDbVertex
100
AcDb2dVertex
 10
3.568906995985243
 20
6.152068244086371
 30
0.0
  0
VERTEX
  5
31E
330
319
100
AcDbEntity
  8
Layer 1
 62
     7
370
    18
100
AcDbVertex
100
AcDb2dVertex
 10
3.568294525146484
 20
6.128519270155165
 30
0.0
  0
VERTEX
  5
31F
330
319
100
AcDbEntity
  8
Layer 1
 62
     7
370
    18
100
AcDbVertex
100
AcDb2dVertex
 10
3.567909664577908
 20
6.101300133599175
 30
0.0
  0
VERTEX
  5
320
330
319
100
AcDbEntity
  8
Layer 1
 62
     7
370
    18
100
AcDbVertex
100
AcDb2dVertex
 10
3.567779117160373
 20
6.072182125515408
 30
0.0
  0
SEQEND
  5
321
330
319
100
AcDbEntity
  8
Layer 1
 62
     7
370
    18
  0
POLYLINE
  5
322
330
1F
100
AcDbEntity
  8
Layer 1
 62
     7
370
    18
100
AcDb2dPolyline
 66
     1
 10
0.0
 20
0.0
 30
0.0
  0
VERTEX
  5
323
330
322
100
AcDbEntity
  8
Layer 1
 62
     7
370
    18
100
AcDbVertex
100
AcDb2dVertex
 10
3.543545828925239
 20
5.403041839599609
 30
0.0
  0
VERTEX
  5
324
330
322
100
AcDbEntity
  8
Layer 1
 62
     7
370
    18
100
AcDbVertex
100
AcDb2dVertex
 10
3.543598598904079
 20
5.391659630669488
 30
0.0
  0
SEQEND
  5
325
330
322
100
AcDbEntity
  8
Layer 1
 62
     7
370
    18
  0
POLYLINE
  5
326
330
1F
100
AcDbEntity
  8
Layer 1
 62
     7
370
    18
100
AcDb2dPolyline
 66
     1
 10
0.0
 20
0.0
 30
0.0
  0
VERTEX
  5
327
330
326
100
AcDbEntity
  8
Layer 1
 62
     7
370
    18
100
AcDbVertex
100
AcDb2dVertex
 10
3.543956968519423
 20
5.446934594048394
 30
0.0
  0
VERTEX
  5
328
330
326
100
AcDbEntity
  8
Layer 1
 62
     7
370
    18
100
AcDbVertex
100
AcDb2dVertex
 10
3.543545828925239
 20
5.403041839599609
 30
0.0
  0
SEQEND
  5
329
330
326
100
AcDbEntity
  8
Layer 1
 62
     7
370
    18
  0
POLYLINE
  5
32A
330
1F
100
AcDbEntity
  8
Layer 1
 62
     7
370
    18
100
AcDb2dPolyline
 66
     1
 10
0.0
 20
0.0
 30
0.0
  0
VERTEX
  5
32B
330
32A
100
AcDbEntity
  8
Layer 1
 62
     7
370
    18
100
AcDbVertex
100
AcDb2dVertex
 10
3.545827865600586
 20
5.516763899061415
 30
0.0
  0
VERTEX
  5
32C
330
32A
100
AcDbEntity
  8
Layer 1
 62
     7
370
    18
100
AcDbVertex
100
AcDb2dVertex
 10
3.544995837741428
 20
5.49848895602756
 30
0.0
  0
VERTEX
  5
32D
330
32A
100
AcDbEntity
  8
Layer 1
 62
     7
370
    18
100
AcDbVertex
100
AcDb2dVertex
 10
3.544358359442817
 20
5.474670834011501
 30
0.0
  0
VERTEX
  5
32E
330
32A
100
AcDbEntity
  8
Layer 1
 62
     7
370
    18
100
AcDbVertex
100
AcDb2dVertex
 10
3.543956968519423
 20
5.446934594048394
 30
0.0
  0
SEQEND
  5
32F
330
32A
100
AcDbEntity
  8
Layer 1
 62
     7
370
    18
  0
POLYLINE
  5
330
330
1F
100
AcDbEntity
  8
Layer 1
 62
     7
370
    18
100
AcDb2dPolyline
 66
     1
 10
0.0
 20
0.0
 30
0.0
  0
VERTEX
  5
331
330
330
100
AcDbEntity
  8
Layer 1
 62
     7
370
    18
100
AcDbVertex
100
AcDb2dVertex
 10
3.567779117160373
 20
6.044229295518663
 30
0.0
  0
VERTEX
  5
332
330
330
100
AcDbEntity
  8
Layer 1
 62
     7
370
    18
100
AcDbVertex
100
AcDb2dVertex
 10
3.567627800835503
 20
5.9947386847602
 30
0.0
  0
VERTEX
  5
333
330
330
100
AcDbEntity
  8
Layer 1
 62
     7
370
    18
100
AcDbVertex
100
AcDb2dVertex
 10
3.567179361979167
 20
5.946752760145399
 30
0.0
  0
VERTEX
  5
334
330
330
100
AcDbEntity
  8
Layer 1
 62
     7
370
    18
100
AcDbVertex
100
AcDb2dVertex
 10
3.566445668538411
 20
5.901729159884982
 30
0.0
  0
VERTEX
  5
335
330
330
100
AcDbEntity
  8
Layer 1
 62
     7
370
    18
100
AcDbVertex
100
AcDb2dVertex
 10
3.565451304117838
 20
5.861034817165798
 30
0.0
  0
VERTEX
  5
336
330
330
100
AcDbEntity
  8
Layer 1
 62
     7
370
    18
100
AcDbVertex
100
AcDb2dVertex
 10
3.564223819308811
 20
5.825906965467665
 30
0.0
  0
VERTEX
  5
337
330
330
100
AcDbEntity
  8
Layer 1
 62
     7
370
    18
100
AcDbVertex
100
AcDb2dVertex
 10
3.562802632649739
 20
5.797411176893446
 30
0.0
  0
SEQEND
  5
338
330
330
100
AcDbEntity
  8
Layer 1
 62
     7
370
    18
  0
POLYLINE
  5
339
330
1F
100
AcDbEntity
  8
Layer 1
 62
     7
370
    18
100
AcDb2dPolyline
 66
     1
 10
0.0
 20
0.0
 30
0.0
  0
VERTEX
  5
33A
330
339
100
AcDbEntity
  8
Layer 1
 62
     7
370
    18
100
AcDbVertex
100
AcDb2dVertex
 10
3.567779117160373
 20
6.072182125515408
 30
0.0
  0
VERTEX
  5
33B
330
339
100
AcDbEntity
  8
Layer 1
 62
     7
370
    18
100
AcDbVertex
100
AcDb2dVertex
 10
3.567779117160373
 20
6.044229295518663
 30
0.0
  0
SEQEND
  5
33C
330
339
100
AcDbEntity
  8
Layer 1
 62
     7
370
    18
  0
POLYLINE
  5
33D
330
1F
100
AcDbEntity
  8
Layer 1
 62
     7
370
    18
100
AcDb2dPolyline
 66
     1
 10
0.0
 20
0.0
 30
0.0
  0
VERTEX
  5
33E
330
33D
100
AcDbEntity
  8
Layer 1
 62
     7
370
    18
100
AcDbVertex
100
AcDb2dVertex
 10
3.5771361456977
 20
6.192594316270616
 30
0.0
  0
VERTEX
  5
33F
330
33D
100
AcDbEntity
  8
Layer 1
 62
     7
370
    18
100
AcDbVertex
100
AcDb2dVertex
 10
3.571655697292751
 20
6.187112596299913
 30
0.0
  0
SEQEND
  5
340
330
33D
100
AcDbEntity
  8
Layer 1
 62
     7
370
    18
  0
POLYLINE
  5
341
330
1F
100
AcDbEntity
  8
Layer 1
 62
     7
370
    18
100
AcDb2dPolyline
 66
     1
 10
0.0
 20
0.0
 30
0.0
  0
VERTEX
  5
342
330
341
100
AcDbEntity
  8
Layer 1
 62
     7
370
    18
100
AcDbVertex
100
AcDb2dVertex
 10
3.082776387532552
 20
4.844412485758463
 30
0.0
  0
VERTEX
  5
343
330
341
100
AcDbEntity
  8
Layer 1
 62
     7
370
    18
100
AcDbVertex
100
AcDb2dVertex
 10
3.081266615125868
 20
4.827546013726129
 30
0.0
  0
SEQEND
  5
344
330
341
100
AcDbEntity
  8
Layer 1
 62
     7
370
    18
  0
POLYLINE
  5
345
330
1F
100
AcDbEntity
  8
Layer 1
 62
     7
370
    18
100
AcDb2dPolyline
 66
     1
 10
0.0
 20
0.0
 30
0.0
  0
VERTEX
  5
346
330
345
100
AcDbEntity
  8
Layer 1
 62
     7
370
    18
100
AcDbVertex
100
AcDb2dVertex
 10
3.240875032212999
 20
4.827151404486762
 30
0.0
  0
VERTEX
  5
347
330
345
100
AcDbEntity
  8
Layer 1
 62
     7
370
    18
100
AcDbVertex
100
AcDb2dVertex
 10
3.240868038601345
 20
4.824633280436197
 30
0.0
  0
VERTEX
  5
348
330
345
100
AcDbEntity
  8
Layer 1
 62
     7
370
    18
100
AcDbVertex
100
AcDb2dVertex
 10
3.240107006496853
 20
4.819651285807291
 30
0.0
  0
SEQEND
  5
349
330
345
100
AcDbEntity
  8
Layer 1
 62
     7
370
    18
  0
POLYLINE
  5
34A
330
1F
100
AcDbEntity
  8
Layer 1
 62
     7
370
    18
100
AcDb2dPolyline
 66
     1
 10
0.0
 20
0.0
 30
0.0
  0
VERTEX
  5
34B
330
34A
100
AcDbEntity
  8
Layer 1
 62
     7
370
    18
100
AcDbVertex
100
AcDb2dVertex
 10
3.241908391316731
 20
4.857843187120225
 30
0.0
  0
VERTEX
  5
34C
330
34A
100
AcDbEntity
  8
Layer 1
 62
     7
370
    18
100
AcDbVertex
100
AcDb2dVertex
 10
3.241908391316731
 20
4.828498416476779
 30
0.0
  0
SEQEND
  5
34D
330
34A
100
AcDbEntity
  8
Layer 1
 62
     7
370
    18
  0
POLYLINE
  5
34E
330
1F
100
AcDbEntity
  8
Layer 1
 62
     7
370
    18
100
AcDb2dPolyline
 66
     1
 10
0.0
 20
0.0
 30
0.0
  0
VERTEX
  5
34F
330
34E
100
AcDbEntity
  8
Layer 1
 62
     7
370
    18
100
AcDbVertex
100
AcDb2dVertex
 10
3.242282019721137
 20
4.86175537109375
 30
0.0
  0
VERTEX
  5
350
330
34E
100
AcDbEntity
  8
Layer 1
 62
     7
370
    18
100
AcDbVertex
100
AcDb2dVertex
 10
3.242282019721137
 20
4.841755761040582
 30
0.0
  0
SEQEND
  5
351
330
34E
100
AcDbEntity
  8
Layer 1
 62
     7
370
    18
  0
POLYLINE
  5
352
330
1F
100
AcDbEntity
  8
Layer 1
 62
     7
370
    18
100
AcDb2dPolyline
 66
     1
 10
0.0
 20
0.0
 30
0.0
  0
VERTEX
  5
353
330
352
100
AcDbEntity
  8
Layer 1
 62
     7
370
    18
100
AcDbVertex
100
AcDb2dVertex
 10
3.235437605116102
 20
4.844412485758463
 30
0.0
  0
VERTEX
  5
354
330
352
100
AcDbEntity
  8
Layer 1
 62
     7
370
    18
100
AcDbVertex
100
AcDb2dVertex
 10
3.23694716559516
 20
4.827546013726129
 30
0.0
  0
SEQEND
  5
355
330
352
100
AcDbEntity
  8
Layer 1
 62
     7
370
    18
  0
POLYLINE
  5
356
330
1F
100
AcDbEntity
  8
Layer 1
 62
     7
370
    18
100
AcDb2dPolyline
 66
     1
 10
0.0
 20
0.0
 30
0.0
  0
VERTEX
  5
357
330
356
100
AcDbEntity
  8
Layer 1
 62
     7
370
    18
100
AcDbVertex
100
AcDb2dVertex
 10
3.450106938680013
 20
4.783629099527994
 30
0.0
  0
VERTEX
  5
358
330
356
100
AcDbEntity
  8
Layer 1
 62
     7
370
    18
100
AcDbVertex
100
AcDb2dVertex
 10
2.868106842041016
 20
4.783629099527994
 30
0.0
  0
SEQEND
  5
359
330
356
100
AcDbEntity
  8
Layer 1
 62
     7
370
    18
  0
POLYLINE
  5
35A
330
1F
100
AcDbEntity
  8
Layer 1
 62
     7
370
    18
100
AcDb2dPolyline
 66
     1
 10
0.0
 20
0.0
 30
0.0
  0
VERTEX
  5
35B
330
35A
100
AcDbEntity
  8
Layer 1
 62
     7
370
    18
100
AcDbVertex
100
AcDb2dVertex
 10
3.078106986151801
 20
4.819651285807291
 30
0.0
  0
VERTEX
  5
35C
330
35A
100
AcDbEntity
  8
Layer 1
 62
     7
370
    18
100
AcDbVertex
100
AcDb2dVertex
 10
3.077345742119683
 20
4.824633280436197
 30
0.0
  0
VERTEX
  5
35D
330
35A
100
AcDbEntity
  8
Layer 1
 62
     7
370
    18
100
AcDbVertex
100
AcDb2dVertex
 10
3.07734023200141
 20
4.827151404486762
 30
0.0
  0
SEQEND
  5
35E
330
35A
100
AcDbEntity
  8
Layer 1
 62
     7
370
    18
  0
POLYLINE
  5
35F
330
1F
100
AcDbEntity
  8
Layer 1
 62
     7
370
    18
100
AcDb2dPolyline
 66
     1
 10
0.0
 20
0.0
 30
0.0
  0
VERTEX
  5
360
330
35F
100
AcDbEntity
  8
Layer 1
 62
     7
370
    18
100
AcDbVertex
100
AcDb2dVertex
 10
3.450106938680013
 20
4.830827924940321
 30
0.0
  0
VERTEX
  5
361
330
35F
100
AcDbEntity
  8
Layer 1
 62
     7
370
    18
100
AcDbVertex
100
AcDb2dVertex
 10
3.242001427544488
 20
4.830827924940321
 30
0.0
  0
SEQEND
  5
362
330
35F
100
AcDbEntity
  8
Layer 1
 62
     7
370
    18
  0
POLYLINE
  5
363
330
1F
100
AcDbEntity
  8
Layer 1
 62
     7
370
    18
100
AcDb2dPolyline
 66
     1
 10
0.0
 20
0.0
 30
0.0
  0
VERTEX
  5
364
330
363
100
AcDbEntity
  8
Layer 1
 62
     7
370
    18
100
AcDbVertex
100
AcDb2dVertex
 10
3.241908391316731
 20
4.828498416476779
 30
0.0
  0
VERTEX
  5
365
330
363
100
AcDbEntity
  8
Layer 1
 62
     7
370
    18
100
AcDbVertex
100
AcDb2dVertex
 10
3.240107006496853
 20
4.819651285807291
 30
0.0
  0
SEQEND
  5
366
330
363
100
AcDbEntity
  8
Layer 1
 62
     7
370
    18
  0
POLYLINE
  5
367
330
1F
100
AcDbEntity
  8
Layer 1
 62
     7
370
    18
100
AcDb2dPolyline
 66
     1
 10
0.0
 20
0.0
 30
0.0
  0
VERTEX
  5
368
330
367
100
AcDbEntity
  8
Layer 1
 62
     7
370
    18
100
AcDbVertex
100
AcDb2dVertex
 10
3.241908391316731
 20
4.828498416476779
 30
0.0
  0
VERTEX
  5
369
330
367
100
AcDbEntity
  8
Layer 1
 62
     7
370
    18
100
AcDbVertex
100
AcDb2dVertex
 10
3.242001427544488
 20
4.830827924940321
 30
0.0
  0
SEQEND
  5
36A
330
367
100
AcDbEntity
  8
Layer 1
 62
     7
370
    18
  0
POLYLINE
  5
36B
330
1F
100
AcDbEntity
  8
Layer 1
 62
     7
370
    18
100
AcDb2dPolyline
 66
     1
 10
0.0
 20
0.0
 30
0.0
  0
VERTEX
  5
36C
330
36B
100
AcDbEntity
  8
Layer 1
 62
     7
370
    18
100
AcDbVertex
100
AcDb2dVertex
 10
3.081266615125868
 20
4.827546013726129
 30
0.0
  0
VERTEX
  5
36D
330
36B
100
AcDbEntity
  8
Layer 1
 62
     7
370
    18
100
AcDbVertex
100
AcDb2dVertex
 10
3.07734023200141
 20
4.827151404486762
 30
0.0
  0
SEQEND
  5
36E
330
36B
100
AcDbEntity
  8
Layer 1
 62
     7
370
    18
  0
POLYLINE
  5
36F
330
1F
100
AcDbEntity
  8
Layer 1
 62
     7
370
    18
100
AcDb2dPolyline
 66
     1
 10
0.0
 20
0.0
 30
0.0
  0
VERTEX
  5
370
330
36F
100
AcDbEntity
  8
Layer 1
 62
     7
370
    18
100
AcDbVertex
100
AcDb2dVertex
 10
3.078106986151801
 20
4.819651285807291
 30
0.0
  0
VERTEX
  5
371
330
36F
100
AcDbEntity
  8
Layer 1
 62
     7
370
    18
100
AcDbVertex
100
AcDb2dVertex
 10
3.076305601331923
 20
4.828498416476779
 30
0.0
  0
SEQEND
  5
372
330
36F
100
AcDbEntity
  8
Layer 1
 62
     7
370
    18
  0
POLYLINE
  5
373
330
1F
100
AcDbEntity
  8
Layer 1
 62
     7
370
    18
100
AcDb2dPolyline
 66
     1
 10
0.0
 20
0.0
 30
0.0
  0
VERTEX
  5
374
330
373
100
AcDbEntity
  8
Layer 1
 62
     7
370
    18
100
AcDbVertex
100
AcDb2dVertex
 10
3.240107006496853
 20
4.819651285807291
 30
0.0
  0
VERTEX
  5
375
330
373
100
AcDbEntity
  8
Layer 1
 62
     7
370
    18
100
AcDbVertex
100
AcDb2dVertex
 10
3.078106986151801
 20
4.819651285807291
 30
0.0
  0
SEQEND
  5
376
330
373
100
AcDbEntity
  8
Layer 1
 62
     7
370
    18
  0
POLYLINE
  5
377
330
1F
100
AcDbEntity
  8
Layer 1
 62
     7
370
    18
100
AcDb2dPolyline
 66
     1
 10
0.0
 20
0.0
 30
0.0
  0
VERTEX
  5
378
330
377
100
AcDbEntity
  8
Layer 1
 62
     7
370
    18
100
AcDbVertex
100
AcDb2dVertex
 10
3.242001427544488
 20
4.830827924940321
 30
0.0
  0
VERTEX
  5
379
330
377
100
AcDbEntity
  8
Layer 1
 62
     7
370
    18
100
AcDbVertex
100
AcDb2dVertex
 10
3.242200003729926
 20
4.836898803710938
 30
0.0
  0
VERTEX
  5
37A
330
377
100
AcDbEntity
  8
Layer 1
 62
     7
370
    18
100
AcDbVertex
100
AcDb2dVertex
 10
3.242282019721137
 20
4.841755761040582
 30
0.0
  0
SEQEND
  5
37B
330
377
100
AcDbEntity
  8
Layer 1
 62
     7
370
    18
  0
POLYLINE
  5
37C
330
1F
100
AcDbEntity
  8
Layer 1
 62
     7
370
    18
100
AcDb2dPolyline
 66
     1
 10
0.0
 20
0.0
 30
0.0
  0
VERTEX
  5
37D
330
37C
100
AcDbEntity
  8
Layer 1
 62
     7
370
    18
100
AcDbVertex
100
AcDb2dVertex
 10
3.242282019721137
 20
4.841755761040582
 30
0.0
  0
VERTEX
  5
37E
330
37C
100
AcDbEntity
  8
Layer 1
 62
     7
370
    18
100
AcDbVertex
100
AcDb2dVertex
 10
3.450106938680013
 20
4.841755761040582
 30
0.0
  0
SEQEND
  5
37F
330
37C
100
AcDbEntity
  8
Layer 1
 62
     7
370
    18
  0
POLYLINE
  5
380
330
1F
100
AcDbEntity
  8
Layer 1
 62
     7
370
    18
100
AcDb2dPolyline
 66
     1
 10
0.0
 20
0.0
 30
0.0
  0
VERTEX
  5
381
330
380
100
AcDbEntity
  8
Layer 1
 62
     7
370
    18
100
AcDbVertex
100
AcDb2dVertex
 10
3.076305601331923
 20
4.828498416476779
 30
0.0
  0
VERTEX
  5
382
330
380
100
AcDbEntity
  8
Layer 1
 62
     7
370
    18
100
AcDbVertex
100
AcDb2dVertex
 10
3.076212565104167
 20
4.830827924940321
 30
0.0
  0
SEQEND
  5
383
330
380
100
AcDbEntity
  8
Layer 1
 62
     7
370
    18
  0
POLYLINE
  5
384
330
1F
100
AcDbEntity
  8
Layer 1
 62
     7
370
    18
100
AcDb2dPolyline
 66
     1
 10
0.0
 20
0.0
 30
0.0
  0
VERTEX
  5
385
330
384
100
AcDbEntity
  8
Layer 1
 62
     7
370
    18
100
AcDbVertex
100
AcDb2dVertex
 10
3.076305601331923
 20
4.857843187120225
 30
0.0
  0
VERTEX
  5
386
330
384
100
AcDbEntity
  8
Layer 1
 62
     7
370
    18
100
AcDbVertex
100
AcDb2dVertex
 10
3.076305601331923
 20
4.828498416476779
 30
0.0
  0
SEQEND
  5
387
330
384
100
AcDbEntity
  8
Layer 1
 62
     7
370
    18
  0
POLYLINE
  5
388
330
1F
100
AcDbEntity
  8
Layer 1
 62
     7
370
    18
100
AcDb2dPolyline
 66
     1
 10
0.0
 20
0.0
 30
0.0
  0
VERTEX
  5
389
330
388
100
AcDbEntity
  8
Layer 1
 62
     7
370
    18
100
AcDbVertex
100
AcDb2dVertex
 10
3.075931972927517
 20
4.86175537109375
 30
0.0
  0
VERTEX
  5
38A
330
388
100
AcDbEntity
  8
Layer 1
 62
     7
370
    18
100
AcDbVertex
100
AcDb2dVertex
 10
3.075931972927517
 20
4.841755761040582
 30
0.0
  0
SEQEND
  5
38B
330
388
100
AcDbEntity
  8
Layer 1
 62
     7
370
    18
  0
POLYLINE
  5
38C
330
1F
100
AcDbEntity
  8
Layer 1
 62
     7
370
    18
100
AcDb2dPolyline
 66
     1
 10
0.0
 20
0.0
 30
0.0
  0
VERTEX
  5
38D
330
38C
100
AcDbEntity
  8
Layer 1
 62
     7
370
    18
100
AcDbVertex
100
AcDb2dVertex
 10
3.07734023200141
 20
4.827151404486762
 30
0.0
  0
VERTEX
  5
38E
330
38C
100
AcDbEntity
  8
Layer 1
 62
     7
370
    18
100
AcDbVertex
100
AcDb2dVertex
 10
3.240875032212999
 20
4.827151404486762
 30
0.0
  0
SEQEND
  5
38F
330
38C
100
AcDbEntity
  8
Layer 1
 62
     7
370
    18
  0
POLYLINE
  5
390
330
1F
100
AcDbEntity
  8
Layer 1
 62
     7
370
    18
100
AcDb2dPolyline
 66
     1
 10
0.0
 20
0.0
 30
0.0
  0
VERTEX
  5
391
330
390
100
AcDbEntity
  8
Layer 1
 62
     7
370
    18
100
AcDbVertex
100
AcDb2dVertex
 10
3.240875032212999
 20
4.827151404486762
 30
0.0
  0
VERTEX
  5
392
330
390
100
AcDbEntity
  8
Layer 1
 62
     7
370
    18
100
AcDbVertex
100
AcDb2dVertex
 10
3.23694716559516
 20
4.827546013726129
 30
0.0
  0
SEQEND
  5
393
330
390
100
AcDbEntity
  8
Layer 1
 62
     7
370
    18
  0
POLYLINE
  5
394
330
1F
100
AcDbEntity
  8
Layer 1
 62
     7
370
    18
100
AcDb2dPolyline
 66
     1
 10
0.0
 20
0.0
 30
0.0
  0
VERTEX
  5
395
330
394
100
AcDbEntity
  8
Layer 1
 62
     7
370
    18
100
AcDbVertex
100
AcDb2dVertex
 10
3.23694716559516
 20
4.827546013726129
 30
0.0
  0
VERTEX
  5
396
330
394
100
AcDbEntity
  8
Layer 1
 62
     7
370
    18
100
AcDbVertex
100
AcDb2dVertex
 10
3.081266615125868
 20
4.827546013726129
 30
0.0
  0
SEQEND
  5
397
330
394
100
AcDbEntity
  8
Layer 1
 62
     7
370
    18
  0
POLYLINE
  5
398
330
1F
100
AcDbEntity
  8
Layer 1
 62
     7
370
    18
100
AcDb2dPolyline
 66
     1
 10
0.0
 20
0.0
 30
0.0
  0
VERTEX
  5
399
330
398
100
AcDbEntity
  8
Layer 1
 62
     7
370
    18
100
AcDbVertex
100
AcDb2dVertex
 10
2.580437554253472
 20
4.844412485758463
 30
0.0
  0
VERTEX
  5
39A
330
398
100
AcDbEntity
  8
Layer 1
 62
     7
370
    18
100
AcDbVertex
100
AcDb2dVertex
 10
2.581947326660156
 20
4.827546013726129
 30
0.0
  0
SEQEND
  5
39B
330
398
100
AcDbEntity
  8
Layer 1
 62
     7
370
    18
  0
POLYLINE
  5
39C
330
1F
100
AcDbEntity
  8
Layer 1
 62
     7
370
    18
100
AcDb2dPolyline
 66
     1
 10
0.0
 20
0.0
 30
0.0
  0
VERTEX
  5
39D
330
39C
100
AcDbEntity
  8
Layer 1
 62
     7
370
    18
100
AcDbVertex
100
AcDb2dVertex
 10
2.585874981350369
 20
4.827151404486762
 30
0.0
  0
VERTEX
  5
39E
330
39C
100
AcDbEntity
  8
Layer 1
 62
     7
370
    18
100
AcDbVertex
100
AcDb2dVertex
 10
2.585867987738715
 20
4.824633280436197
 30
0.0
  0
VERTEX
  5
39F
330
39C
100
AcDbEntity
  8
Layer 1
 62
     7
370
    18
100
AcDbVertex
100
AcDb2dVertex
 10
2.585106955634223
 20
4.819651285807291
 30
0.0
  0
SEQEND
  5
3A0
330
39C
100
AcDbEntity
  8
Layer 1
 62
     7
370
    18
  0
POLYLINE
  5
3A1
330
1F
100
AcDbEntity
  8
Layer 1
 62
     7
370
    18
100
AcDb2dPolyline
 66
     1
 10
0.0
 20
0.0
 30
0.0
  0
VERTEX
  5
3A2
330
3A1
100
AcDbEntity
  8
Layer 1
 62
     7
370
    18
100
AcDbVertex
100
AcDb2dVertex
 10
2.586908340454102
 20
4.857843187120225
 30
0.0
  0
VERTEX
  5
3A3
330
3A1
100
AcDbEntity
  8
Layer 1
 62
     7
370
    18
100
AcDbVertex
100
AcDb2dVertex
 10
2.586908340454102
 20
4.828498416476779
 30
0.0
  0
SEQEND
  5
3A4
330
3A1
100
AcDbEntity
  8
Layer 1
 62
     7
370
    18
  0
POLYLINE
  5
3A5
330
1F
100
AcDbEntity
  8
Layer 1
 62
     7
370
    18
100
AcDb2dPolyline
 66
     1
 10
0.0
 20
0.0
 30
0.0
  0
VERTEX
  5
3A6
330
3A5
100
AcDbEntity
  8
Layer 1
 62
     7
370
    18
100
AcDbVertex
100
AcDb2dVertex
 10
2.587281968858507
 20
4.86175537109375
 30
0.0
  0
VERTEX
  5
3A7
330
3A5
100
AcDbEntity
  8
Layer 1
 62
     7
370
    18
100
AcDbVertex
100
AcDb2dVertex
 10
2.587281968858507
 20
4.841755761040582
 30
0.0
  0
SEQEND
  5
3A8
330
3A5
100
AcDbEntity
  8
Layer 1
 62
     7
370
    18
  0
POLYLINE
  5
3A9
330
1F
100
AcDbEntity
  8
Layer 1
 62
     7
370
    18
100
AcDb2dPolyline
 66
     1
 10
0.0
 20
0.0
 30
0.0
  0
VERTEX
  5
3AA
330
3A9
100
AcDbEntity
  8
Layer 1
 62
     7
370
    18
100
AcDbVertex
100
AcDb2dVertex
 10
2.423106935289171
 20
4.819651285807291
 30
0.0
  0
VERTEX
  5
3AB
330
3A9
100
AcDbEntity
  8
Layer 1
 62
     7
370
    18
100
AcDbVertex
100
AcDb2dVertex
 10
2.422345903184679
 20
4.824633280436197
 30
0.0
  0
VERTEX
  5
3AC
330
3A9
100
AcDbEntity
  8
Layer 1
 62
     7
370
    18
100
AcDbVertex
100
AcDb2dVertex
 10
2.42234018113878
 20
4.827151404486762
 30
0.0
  0
SEQEND
  5
3AD
330
3A9
100
AcDbEntity
  8
Layer 1
 62
     7
370
    18
  0
POLYLINE
  5
3AE
330
1F
100
AcDbEntity
  8
Layer 1
 62
     7
370
    18
100
AcDb2dPolyline
 66
     1
 10
0.0
 20
0.0
 30
0.0
  0
VERTEX
  5
3AF
330
3AE
100
AcDbEntity
  8
Layer 1
 62
     7
370
    18
100
AcDbVertex
100
AcDb2dVertex
 10
2.427776336669922
 20
4.844412485758463
 30
0.0
  0
VERTEX
  5
3B0
330
3AE
100
AcDbEntity
  8
Layer 1
 62
     7
370
    18
100
AcDbVertex
100
AcDb2dVertex
 10
2.426266564263238
 20
4.827546013726129
 30
0.0
  0
SEQEND
  5
3B1
330
3AE
100
AcDbEntity
  8
Layer 1
 62
     7
370
    18
  0
POLYLINE
  5
3B2
330
1F
100
AcDbEntity
  8
Layer 1
 62
     7
370
    18
100
AcDb2dPolyline
 66
     1
 10
0.0
 20
0.0
 30
0.0
  0
VERTEX
  5
3B3
330
3B2
100
AcDbEntity
  8
Layer 1
 62
     7
370
    18
100
AcDbVertex
100
AcDb2dVertex
 10
2.42234018113878
 20
4.827151404486762
 30
0.0
  0
VERTEX
  5
3B4
330
3B2
100
AcDbEntity
  8
Layer 1
 62
     7
370
    18
100
AcDbVertex
100
AcDb2dVertex
 10
2.585874981350369
 20
4.827151404486762
 30
0.0
  0
SEQEND
  5
3B5
330
3B2
100
AcDbEntity
  8
Layer 1
 62
     7
370
    18
  0
POLYLINE
  5
3B6
330
1F
100
AcDbEntity
  8
Layer 1
 62
     7
370
    18
100
AcDb2dPolyline
 66
     1
 10
0.0
 20
0.0
 30
0.0
  0
VERTEX
  5
3B7
330
3B6
100
AcDbEntity
  8
Layer 1
 62
     7
370
    18
100
AcDbVertex
100
AcDb2dVertex
 10
2.586908340454102
 20
4.828498416476779
 30
0.0
  0
VERTEX
  5
3B8
330
3B6
100
AcDbEntity
  8
Layer 1
 62
     7
370
    18
100
AcDbVertex
100
AcDb2dVertex
 10
2.587001376681858
 20
4.830827924940321
 30
0.0
  0
SEQEND
  5
3B9
330
3B6
100
AcDbEntity
  8
Layer 1
 62
     7
370
    18
  0
POLYLINE
  5
3BA
330
1F
100
AcDbEntity
  8
Layer 1
 62
     7
370
    18
100
AcDb2dPolyline
 66
     1
 10
0.0
 20
0.0
 30
0.0
  0
VERTEX
  5
3BB
330
3BA
100
AcDbEntity
  8
Layer 1
 62
     7
370
    18
100
AcDbVertex
100
AcDb2dVertex
 10
2.586908340454102
 20
4.828498416476779
 30
0.0
  0
VERTEX
  5
3BC
330
3BA
100
AcDbEntity
  8
Layer 1
 62
     7
370
    18
100
AcDbVertex
100
AcDb2dVertex
 10
2.585106955634223
 20
4.819651285807291
 30
0.0
  0
SEQEND
  5
3BD
330
3BA
100
AcDbEntity
  8
Layer 1
 62
     7
370
    18
  0
POLYLINE
  5
3BE
330
1F
100
AcDbEntity
  8
Layer 1
 62
     7
370
    18
100
AcDb2dPolyline
 66
     1
 10
0.0
 20
0.0
 30
0.0
  0
VERTEX
  5
3BF
330
3BE
100
AcDbEntity
  8
Layer 1
 62
     7
370
    18
100
AcDbVertex
100
AcDb2dVertex
 10
2.795106887817383
 20
4.783629099527994
 30
0.0
  0
VERTEX
  5
3C0
330
3BE
100
AcDbEntity
  8
Layer 1
 62
     7
370
    18
100
AcDbVertex
100
AcDb2dVertex
 10
2.213107003106011
 20
4.783629099527994
 30
0.0
  0
SEQEND
  5
3C1
330
3BE
100
AcDbEntity
  8
Layer 1
 62
     7
370
    18
  0
POLYLINE
  5
3C2
330
1F
100
AcDbEntity
  8
Layer 1
 62
     7
370
    18
100
AcDb2dPolyline
 66
     1
 10
0.0
 20
0.0
 30
0.0
  0
VERTEX
  5
3C3
330
3C2
100
AcDbEntity
  8
Layer 1
 62
     7
370
    18
100
AcDbVertex
100
AcDb2dVertex
 10
2.423106935289171
 20
4.819651285807291
 30
0.0
  0
VERTEX
  5
3C4
330
3C2
100
AcDbEntity
  8
Layer 1
 62
     7
370
    18
100
AcDbVertex
100
AcDb2dVertex
 10
2.421305550469292
 20
4.828498416476779
 30
0.0
  0
SEQEND
  5
3C5
330
3C2
100
AcDbEntity
  8
Layer 1
 62
     7
370
    18
  0
POLYLINE
  5
3C6
330
1F
100
AcDbEntity
  8
Layer 1
 62
     7
370
    18
100
AcDb2dPolyline
 66
     1
 10
0.0
 20
0.0
 30
0.0
  0
VERTEX
  5
3C7
330
3C6
100
AcDbEntity
  8
Layer 1
 62
     7
370
    18
100
AcDbVertex
100
AcDb2dVertex
 10
2.585106955634223
 20
4.819651285807291
 30
0.0
  0
VERTEX
  5
3C8
330
3C6
100
AcDbEntity
  8
Layer 1
 62
     7
370
    18
100
AcDbVertex
100
AcDb2dVertex
 10
2.423106935289171
 20
4.819651285807291
 30
0.0
  0
SEQEND
  5
3C9
330
3C6
100
AcDbEntity
  8
Layer 1
 62
     7
370
    18
  0
POLYLINE
  5
3CA
330
1F
100
AcDbEntity
  8
Layer 1
 62
     7
370
    18
100
AcDb2dPolyline
 66
     1
 10
0.0
 20
0.0
 30
0.0
  0
VERTEX
  5
3CB
330
3CA
100
AcDbEntity
  8
Layer 1
 62
     7
370
    18
100
AcDbVertex
100
AcDb2dVertex
 10
2.795106887817383
 20
4.830827924940321
 30
0.0
  0
VERTEX
  5
3CC
330
3CA
100
AcDbEntity
  8
Layer 1
 62
     7
370
    18
100
AcDbVertex
100
AcDb2dVertex
 10
2.587001376681858
 20
4.830827924940321
 30
0.0
  0
SEQEND
  5
3CD
330
3CA
100
AcDbEntity
  8
Layer 1
 62
     7
370
    18
  0
POLYLINE
  5
3CE
330
1F
100
AcDbEntity
  8
Layer 1
 62
     7
370
    18
100
AcDb2dPolyline
 66
     1
 10
0.0
 20
0.0
 30
0.0
  0
VERTEX
  5
3CF
330
3CE
100
AcDbEntity
  8
Layer 1
 62
     7
370
    18
100
AcDbVertex
100
AcDb2dVertex
 10
2.587001376681858
 20
4.830827924940321
 30
0.0
  0
VERTEX
  5
3D0
330
3CE
100
AcDbEntity
  8
Layer 1
 62
     7
370
    18
100
AcDbVertex
100
AcDb2dVertex
 10
2.587199952867296
 20
4.836898803710938
 30
0.0
  0
VERTEX
  5
3D1
330
3CE
100
AcDbEntity
  8
Layer 1
 62
     7
370
    18
100
AcDbVertex
100
AcDb2dVertex
 10
2.587281968858507
 20
4.841755761040582
 30
0.0
  0
SEQEND
  5
3D2
330
3CE
100
AcDbEntity
  8
Layer 1
 62
     7
370
    18
  0
POLYLINE
  5
3D3
330
1F
100
AcDbEntity
  8
Layer 1
 62
     7
370
    18
100
AcDb2dPolyline
 66
     1
 10
0.0
 20
0.0
 30
0.0
  0
VERTEX
  5
3D4
330
3D3
100
AcDbEntity
  8
Layer 1
 62
     7
370
    18
100
AcDbVertex
100
AcDb2dVertex
 10
2.587281968858507
 20
4.841755761040582
 30
0.0
  0
VERTEX
  5
3D5
330
3D3
100
AcDbEntity
  8
Layer 1
 62
     7
370
    18
100
AcDbVertex
100
AcDb2dVertex
 10
2.795106887817383
 20
4.841755761040582
 30
0.0
  0
SEQEND
  5
3D6
330
3D3
100
AcDbEntity
  8
Layer 1
 62
     7
370
    18
  0
POLYLINE
  5
3D7
330
1F
100
AcDbEntity
  8
Layer 1
 62
     7
370
    18
100
AcDb2dPolyline
 66
     1
 10
0.0
 20
0.0
 30
0.0
  0
VERTEX
  5
3D8
330
3D7
100
AcDbEntity
  8
Layer 1
 62
     7
370
    18
100
AcDbVertex
100
AcDb2dVertex
 10
2.421305550469292
 20
4.828498416476779
 30
0.0
  0
VERTEX
  5
3D9
330
3D7
100
AcDbEntity
  8
Layer 1
 62
     7
370
    18
100
AcDbVertex
100
AcDb2dVertex
 10
2.421212514241536
 20
4.830827924940321
 30
0.0
  0
SEQEND
  5
3DA
330
3D7
100
AcDbEntity
  8
Layer 1
 62
     7
370
    18
  0
POLYLINE
  5
3DB
330
1F
100
AcDbEntity
  8
Layer 1
 62
     7
370
    18
100
AcDb2dPolyline
 66
     1
 10
0.0
 20
0.0
 30
0.0
  0
VERTEX
  5
3DC
330
3DB
100
AcDbEntity
  8
Layer 1
 62
     7
370
    18
100
AcDbVertex
100
AcDb2dVertex
 10
2.420931922064887
 20
4.86175537109375
 30
0.0
  0
VERTEX
  5
3DD
330
3DB
100
AcDbEntity
  8
Layer 1
 62
     7
370
    18
100
AcDbVertex
100
AcDb2dVertex
 10
2.420931922064887
 20
4.841755761040582
 30
0.0
  0
SEQEND
  5
3DE
330
3DB
100
AcDbEntity
  8
Layer 1
 62
     7
370
    18
  0
POLYLINE
  5
3DF
330
1F
100
AcDbEntity
  8
Layer 1
 62
     7
370
    18
100
AcDb2dPolyline
 66
     1
 10
0.0
 20
0.0
 30
0.0
  0
VERTEX
  5
3E0
330
3DF
100
AcDbEntity
  8
Layer 1
 62
     7
370
    18
100
AcDbVertex
100
AcDb2dVertex
 10
2.421305550469292
 20
4.857843187120225
 30
0.0
  0
VERTEX
  5
3E1
330
3DF
100
AcDbEntity
  8
Layer 1
 62
     7
370
    18
100
AcDbVertex
100
AcDb2dVertex
 10
2.421305550469292
 20
4.828498416476779
 30
0.0
  0
SEQEND
  5
3E2
330
3DF
100
AcDbEntity
  8
Layer 1
 62
     7
370
    18
  0
POLYLINE
  5
3E3
330
1F
100
AcDbEntity
  8
Layer 1
 62
     7
370
    18
100
AcDb2dPolyline
 66
     1
 10
0.0
 20
0.0
 30
0.0
  0
VERTEX
  5
3E4
330
3E3
100
AcDbEntity
  8
Layer 1
 62
     7
370
    18
100
AcDbVertex
100
AcDb2dVertex
 10
2.581947326660156
 20
4.827546013726129
 30
0.0
  0
VERTEX
  5
3E5
330
3E3
100
AcDbEntity
  8
Layer 1
 62
     7
370
    18
100
AcDbVertex
100
AcDb2dVertex
 10
2.426266564263238
 20
4.827546013726129
 30
0.0
  0
SEQEND
  5
3E6
330
3E3
100
AcDbEntity
  8
Layer 1
 62
     7
370
    18
  0
POLYLINE
  5
3E7
330
1F
100
AcDbEntity
  8
Layer 1
 62
     7
370
    18
100
AcDb2dPolyline
 66
     1
 10
0.0
 20
0.0
 30
0.0
  0
VERTEX
  5
3E8
330
3E7
100
AcDbEntity
  8
Layer 1
 62
     7
370
    18
100
AcDbVertex
100
AcDb2dVertex
 10
2.426266564263238
 20
4.827546013726129
 30
0.0
  0
VERTEX
  5
3E9
330
3E7
100
AcDbEntity
  8
Layer 1
 62
     7
370
    18
100
AcDbVertex
100
AcDb2dVertex
 10
2.42234018113878
 20
4.827151404486762
 30
0.0
  0
SEQEND
  5
3EA
330
3E7
100
AcDbEntity
  8
Layer 1
 62
     7
370
    18
  0
POLYLINE
  5
3EB
330
1F
100
AcDbEntity
  8
Layer 1
 62
     7
370
    18
100
AcDb2dPolyline
 66
     1
 10
0.0
 20
0.0
 30
0.0
  0
VERTEX
  5
3EC
330
3EB
100
AcDbEntity
  8
Layer 1
 62
     7
370
    18
100
AcDbVertex
100
AcDb2dVertex
 10
2.585874981350369
 20
4.827151404486762
 30
0.0
  0
VERTEX
  5
3ED
330
3EB
100
AcDbEntity
  8
Layer 1
 62
     7
370
    18
100
AcDbVertex
100
AcDb2dVertex
 10
2.581947326660156
 20
4.827546013726129
 30
0.0
  0
SEQEND
  5
3EE
330
3EB
100
AcDbEntity
  8
Layer 1
 62
     7
370
    18
  0
POLYLINE
  5
3EF
330
1F
100
AcDbEntity
  8
Layer 1
 62
     7
370
    18
100
AcDb2dPolyline
 66
     1
 10
0.0
 20
0.0
 30
0.0
  0
VERTEX
  5
3F0
330
3EF
100
AcDbEntity
  8
Layer 1
 62
     7
370
    18
100
AcDbVertex
100
AcDb2dVertex
 10
2.421212514241536
 20
4.830827924940321
 30
0.0
  0
VERTEX
  5
3F1
330
3EF
100
AcDbEntity
  8
Layer 1
 62
     7
370
    18
100
AcDbVertex
100
AcDb2dVertex
 10
2.421013938056098
 20
4.836898803710938
 30
0.0
  0
VERTEX
  5
3F2
330
3EF
100
AcDbEntity
  8
Layer 1
 62
     7
370
    18
100
AcDbVertex
100
AcDb2dVertex
 10
2.420931922064887
 20
4.841755761040582
 30
0.0
  0
SEQEND
  5
3F3
330
3EF
100
AcDbEntity
  8
Layer 1
 62
     7
370
    18
  0
POLYLINE
  5
3F4
330
1F
100
AcDbEntity
  8
Layer 1
 62
     7
370
    18
100
AcDb2dPolyline
 66
     1
 10
0.0
 20
0.0
 30
0.0
  0
VERTEX
  5
3F5
330
3F4
100
AcDbEntity
  8
Layer 1
 62
     7
370
    18
100
AcDbVertex
100
AcDb2dVertex
 10
2.421212514241536
 20
4.830827924940321
 30
0.0
  0
VERTEX
  5
3F6
330
3F4
100
AcDbEntity
  8
Layer 1
 62
     7
370
    18
100
AcDbVertex
100
AcDb2dVertex
 10
2.213107003106011
 20
4.830827924940321
 30
0.0
  0
SEQEND
  5
3F7
330
3F4
100
AcDbEntity
  8
Layer 1
 62
     7
370
    18
  0
POLYLINE
  5
3F8
330
1F
100
AcDbEntity
  8
Layer 1
 62
     7
370
    18
100
AcDb2dPolyline
 66
     1
 10
0.0
 20
0.0
 30
0.0
  0
VERTEX
  5
3F9
330
3F8
100
AcDbEntity
  8
Layer 1
 62
     7
370
    18
100
AcDbVertex
100
AcDb2dVertex
 10
2.868106842041016
 20
4.841755761040582
 30
0.0
  0
VERTEX
  5
3FA
330
3F8
100
AcDbEntity
  8
Layer 1
 62
     7
370
    18
100
AcDbVertex
100
AcDb2dVertex
 10
3.075931972927517
 20
4.841755761040582
 30
0.0
  0
SEQEND
  5
3FB
330
3F8
100
AcDbEntity
  8
Layer 1
 62
     7
370
    18
  0
POLYLINE
  5
3FC
330
1F
100
AcDbEntity
  8
Layer 1
 62
     7
370
    18
100
AcDb2dPolyline
 66
     1
 10
0.0
 20
0.0
 30
0.0
  0
VERTEX
  5
3FD
330
3FC
100
AcDbEntity
  8
Layer 1
 62
     7
370
    18
100
AcDbVertex
100
AcDb2dVertex
 10
2.213107003106011
 20
4.841755761040582
 30
0.0
  0
VERTEX
  5
3FE
330
3FC
100
AcDbEntity
  8
Layer 1
 62
     7
370
    18
100
AcDbVertex
100
AcDb2dVertex
 10
2.420931922064887
 20
4.841755761040582
 30
0.0
  0
SEQEND
  5
3FF
330
3FC
100
AcDbEntity
  8
Layer 1
 62
     7
370
    18
  0
POLYLINE
  5
400
330
1F
100
AcDbEntity
  8
Layer 1
 62
     7
370
    18
100
AcDb2dPolyline
 66
     1
 10
0.0
 20
0.0
 30
0.0
  0
VERTEX
  5
401
330
400
100
AcDbEntity
  8
Layer 1
 62
     7
370
    18
100
AcDbVertex
100
AcDb2dVertex
 10
3.076212565104167
 20
4.830827924940321
 30
0.0
  0
VERTEX
  5
402
330
400
100
AcDbEntity
  8
Layer 1
 62
     7
370
    18
100
AcDbVertex
100
AcDb2dVertex
 10
2.868106842041016
 20
4.830827924940321
 30
0.0
  0
SEQEND
  5
403
330
400
100
AcDbEntity
  8
Layer 1
 62
     7
370
    18
  0
POLYLINE
  5
404
330
1F
100
AcDbEntity
  8
Layer 1
 62
     7
370
    18
100
AcDb2dPolyline
 66
     1
 10
0.0
 20
0.0
 30
0.0
  0
VERTEX
  5
405
330
404
100
AcDbEntity
  8
Layer 1
 62
     7
370
    18
100
AcDbVertex
100
AcDb2dVertex
 10
3.076212565104167
 20
4.830827924940321
 30
0.0
  0
VERTEX
  5
406
330
404
100
AcDbEntity
  8
Layer 1
 62
     7
370
    18
100
AcDbVertex
100
AcDb2dVertex
 10
3.076013988918728
 20
4.836898803710938
 30
0.0
  0
VERTEX
  5
407
330
404
100
AcDbEntity
  8
Layer 1
 62
     7
370
    18
100
AcDbVertex
100
AcDb2dVertex
 10
3.075931972927517
 20
4.841755761040582
 30
0.0
  0
SEQEND
  5
408
330
404
100
AcDbEntity
  8
Layer 1
 62
     7
370
    18
  0
POLYLINE
  5
409
330
1F
100
AcDbEntity
  8
Layer 1
 62
     7
370
    18
100
AcDb2dPolyline
 66
     1
 10
0.0
 20
0.0
 30
0.0
  0
VERTEX
  5
40A
330
409
100
AcDbEntity
  8
Layer 1
 62
     7
370
    18
100
AcDbVertex
100
AcDb2dVertex
 10
2.388873630099826
 20
4.471962398952908
 30
0.0
  0
VERTEX
  5
40B
330
409
100
AcDbEntity
  8
Layer 1
 62
     7
370
    18
100
AcDbVertex
100
AcDb2dVertex
 10
2.390995873345269
 20
4.593501196967231
 30
0.0
  0
SEQEND
  5
40C
330
409
100
AcDbEntity
  8
Layer 1
 62
     7
370
    18
  0
POLYLINE
  5
40D
330
1F
100
AcDbEntity
  8
Layer 1
 62
     7
370
    18
100
AcDb2dPolyline
 66
     1
 10
0.0
 20
0.0
 30
0.0
  0
VERTEX
  5
40E
330
40D
100
AcDbEntity
  8
Layer 1
 62
     7
370
    18
100
AcDbVertex
100
AcDb2dVertex
 10
1.964340209960938
 20
4.471962398952908
 30
0.0
  0
VERTEX
  5
40F
330
40D
100
AcDbEntity
  8
Layer 1
 62
     7
370
    18
100
AcDbVertex
100
AcDb2dVertex
 10
2.388873630099826
 20
4.471962398952908
 30
0.0
  0
SEQEND
  5
410
330
40D
100
AcDbEntity
  8
Layer 1
 62
     7
370
    18
  0
POLYLINE
  5
411
330
1F
100
AcDbEntity
  8
Layer 1
 62
     7
370
    18
100
AcDb2dPolyline
 66
     1
 10
0.0
 20
0.0
 30
0.0
  0
VERTEX
  5
412
330
411
100
AcDbEntity
  8
Layer 1
 62
     7
370
    18
100
AcDbVertex
100
AcDb2dVertex
 10
3.481844372219509
 20
4.638504028320312
 30
0.0
  0
VERTEX
  5
413
330
411
100
AcDbEntity
  8
Layer 1
 62
     7
370
    18
100
AcDbVertex
100
AcDb2dVertex
 10
3.483352873060438
 20
4.638518015543619
 30
0.0
  0
SEQEND
  5
414
330
411
100
AcDbEntity
  8
Layer 1
 62
     7
370
    18
  0
POLYLINE
  5
415
330
1F
100
AcDbEntity
  8
Layer 1
 62
     7
370
    18
100
AcDb2dPolyline
 66
     1
 10
0.0
 20
0.0
 30
0.0
  0
VERTEX
  5
416
330
415
100
AcDbEntity
  8
Layer 1
 62
     7
370
    18
100
AcDbVertex
100
AcDb2dVertex
 10
0.8713694678412542
 20
4.594637552897135
 30
0.0
  0
VERTEX
  5
417
330
415
100
AcDbEntity
  8
Layer 1
 62
     7
370
    18
100
AcDbVertex
100
AcDb2dVertex
 10
0.8685208426581488
 20
4.59468756781684
 30
0.0
  0
SEQEND
  5
418
330
415
100
AcDbEntity
  8
Layer 1
 62
     7
370
    18
  0
POLYLINE
  5
419
330
1F
100
AcDbEntity
  8
Layer 1
 62
     7
370
    18
100
AcDb2dPolyline
 66
     1
 10
0.0
 20
0.0
 30
0.0
  0
VERTEX
  5
41A
330
419
100
AcDbEntity
  8
Layer 1
 62
     7
370
    18
100
AcDbVertex
100
AcDb2dVertex
 10
0.8685208426581488
 20
4.59468756781684
 30
0.0
  0
VERTEX
  5
41B
330
419
100
AcDbEntity
  8
Layer 1
 62
     7
370
    18
100
AcDbVertex
100
AcDb2dVertex
 10
0.8459416495429144
 20
4.598462422688802
 30
0.0
  0
VERTEX
  5
41C
330
419
100
AcDbEntity
  8
Layer 1
 62
     7
370
    18
100
AcDbVertex
100
AcDb2dVertex
 10
0.8257944318983289
 20
4.607547336154513
 30
0.0
  0
VERTEX
  5
41D
330
419
100
AcDbEntity
  8
Layer 1
 62
     7
370
    18
100
AcDbVertex
100
AcDb2dVertex
 10
0.8144721984863281
 20
4.615822262234158
 30
0.0
  0
VERTEX
  5
41E
330
419
100
AcDbEntity
  8
Layer 1
 62
     7
370
    18
100
AcDbVertex
100
AcDb2dVertex
 10
0.7954958279927571
 20
4.639177958170572
 30
0.0
  0
VERTEX
  5
41F
330
419
100
AcDbEntity
  8
Layer 1
 62
     7
370
    18
100
AcDbVertex
100
AcDb2dVertex
 10
0.7927791807386609
 20
4.644535912407769
 30
0.0
  0
VERTEX
  5
420
330
419
100
AcDbEntity
  8
Layer 1
 62
     7
370
    18
100
AcDbVertex
100
AcDb2dVertex
 10
0.787430551317003
 20
4.659822252061631
 30
0.0
  0
VERTEX
  5
421
330
419
100
AcDbEntity
  8
Layer 1
 62
     7
370
    18
100
AcDbVertex
100
AcDb2dVertex
 10
0.7858472400241427
 20
4.668123457166883
 30
0.0
  0
VERTEX
  5
422
330
419
100
AcDbEntity
  8
Layer 1
 62
     7
370
    18
100
AcDbVertex
100
AcDb2dVertex
 10
0.7853430642022027
 20
4.672691769070095
 30
0.0
  0
VERTEX
  5
423
330
419
100
AcDbEntity
  8
Layer 1
 62
     7
370
    18
100
AcDbVertex
100
AcDb2dVertex
 10
0.7851750055948893
 20
4.675201416015625
 30
0.0
  0
VERTEX
  5
424
330
419
100
AcDbEntity
  8
Layer 1
 62
     7
370
    18
100
AcDbVertex
100
AcDb2dVertex
 10
0.7851166725158691
 20
4.676579369439019
 30
0.0
  0
VERTEX
  5
425
330
419
100
AcDbEntity
  8
Layer 1
 62
     7
370
    18
100
AcDbVertex
100
AcDb2dVertex
 10
0.7850930425855848
 20
4.677332136366102
 30
0.0
  0
VERTEX
  5
426
330
419
100
AcDbEntity
  8
Layer 1
 62
     7
370
    18
100
AcDbVertex
100
AcDb2dVertex
 10
0.7850833468967013
 20
4.677742852105035
 30
0.0
  0
VERTEX
  5
427
330
419
100
AcDbEntity
  8
Layer 1
 62
     7
370
    18
100
AcDbVertex
100
AcDb2dVertex
 10
0.7850819693671331
 20
4.677825080023871
 30
0.0
  0
VERTEX
  5
428
330
419
100
AcDbEntity
  8
Layer 1
 62
     7
370
    18
100
AcDbVertex
100
AcDb2dVertex
 10
0.7850805388556585
 20
4.677892896864149
 30
0.0
  0
VERTEX
  5
429
330
419
100
AcDbEntity
  8
Layer 1
 62
     7
370
    18
100
AcDbVertex
100
AcDb2dVertex
 10
0.7850749757554796
 20
4.678238762749566
 30
0.0
  0
SEQEND
  5
42A
330
419
100
AcDbEntity
  8
Layer 1
 62
     7
370
    18
  0
POLYLINE
  5
42B
330
1F
100
AcDbEntity
  8
Layer 1
 62
     7
370
    18
100
AcDb2dPolyline
 66
     1
 10
0.0
 20
0.0
 30
0.0
  0
VERTEX
  5
42C
330
42B
100
AcDbEntity
  8
Layer 1
 62
     7
370
    18
100
AcDbVertex
100
AcDb2dVertex
 10
0.8942055172390407
 20
5.468934800889756
 30
0.0
  0
VERTEX
  5
42D
330
42B
100
AcDbEntity
  8
Layer 1
 62
     7
370
    18
100
AcDbVertex
100
AcDb2dVertex
 10
0.8684860865275065
 20
5.467679341634114
 30
0.0
  0
VERTEX
  5
42E
330
42B
100
AcDbEntity
  8
Layer 1
 62
     7
370
    18
100
AcDbVertex
100
AcDb2dVertex
 10
0.845177756415473
 20
5.464477962917751
 30
0.0
  0
VERTEX
  5
42F
330
42B
100
AcDbEntity
  8
Layer 1
 62
     7
370
    18
100
AcDbVertex
100
AcDb2dVertex
 10
0.8264666663275824
 20
5.459632025824653
 30
0.0
  0
VERTEX
  5
430
330
42B
100
AcDbEntity
  8
Layer 1
 62
     7
370
    18
100
AcDbVertex
100
AcDb2dVertex
 10
0.8141069412231445
 20
5.453595903184678
 30
0.0
  0
VERTEX
  5
431
330
42B
100
AcDbEntity
  8
Layer 1
 62
     7
370
    18
100
AcDbVertex
100
AcDb2dVertex
 10
0.8092569245232476
 20
5.446934594048394
 30
0.0
  0
SEQEND
  5
432
330
42B
100
AcDbEntity
  8
Layer 1
 62
     7
370
    18
  0
POLYLINE
  5
433
330
1F
100
AcDbEntity
  8
Layer 1
 62
     7
370
    18
100
AcDb2dPolyline
 66
     1
 10
0.0
 20
0.0
 30
0.0
  0
VERTEX
  5
434
330
433
100
AcDbEntity
  8
Layer 1
 62
     7
370
    18
100
AcDbVertex
100
AcDb2dVertex
 10
0.8698611259460449
 20
4.638518015543619
 30
0.0
  0
VERTEX
  5
435
330
433
100
AcDbEntity
  8
Layer 1
 62
     7
370
    18
100
AcDbVertex
100
AcDb2dVertex
 10
0.8691652615865071
 20
4.617366790771484
 30
0.0
  0
VERTEX
  5
436
330
433
100
AcDbEntity
  8
Layer 1
 62
     7
370
    18
100
AcDbVertex
100
AcDb2dVertex
 10
0.8686722119649251
 20
4.601201375325521
 30
0.0
  0
VERTEX
  5
437
330
433
100
AcDbEntity
  8
Layer 1
 62
     7
370
    18
100
AcDbVertex
100
AcDb2dVertex
 10
0.8685208426581488
 20
4.59468756781684
 30
0.0
  0
SEQEND
  5
438
330
433
100
AcDbEntity
  8
Layer 1
 62
     7
370
    18
  0
POLYLINE
  5
439
330
1F
100
AcDbEntity
  8
Layer 1
 62
     7
370
    18
100
AcDb2dPolyline
 66
     1
 10
0.0
 20
0.0
 30
0.0
  0
VERTEX
  5
43A
330
439
100
AcDbEntity
  8
Layer 1
 62
     7
370
    18
100
AcDbVertex
100
AcDb2dVertex
 10
0.8698611259460449
 20
4.638518015543619
 30
0.0
  0
VERTEX
  5
43B
330
439
100
AcDbEntity
  8
Layer 1
 62
     7
370
    18
100
AcDbVertex
100
AcDb2dVertex
 10
0.8472235997517903
 20
4.639298756917317
 30
0.0
  0
VERTEX
  5
43C
330
439
100
AcDbEntity
  8
Layer 1
 62
     7
370
    18
100
AcDbVertex
100
AcDb2dVertex
 10
0.8269333309597439
 20
4.64174567328559
 30
0.0
  0
VERTEX
  5
43D
330
439
100
AcDbEntity
  8
Layer 1
 62
     7
370
    18
100
AcDbVertex
100
AcDb2dVertex
 10
0.8154763645595974
 20
4.644582112630208
 30
0.0
  0
VERTEX
  5
43E
330
439
100
AcDbEntity
  8
Layer 1
 62
     7
370
    18
100
AcDbVertex
100
AcDb2dVertex
 10
0.7970236142476399
 20
4.654262542724609
 30
0.0
  0
VERTEX
  5
43F
330
439
100
AcDbEntity
  8
Layer 1
 62
     7
370
    18
100
AcDbVertex
100
AcDb2dVertex
 10
0.7933138741387261
 20
4.657876332600911
 30
0.0
  0
VERTEX
  5
440
330
439
100
AcDbEntity
  8
Layer 1
 62
     7
370
    18
100
AcDbVertex
100
AcDb2dVertex
 10
0.7875055736965603
 20
4.667111290825738
 30
0.0
  0
VERTEX
  5
441
330
439
100
AcDbEntity
  8
Layer 1
 62
     7
370
    18
100
AcDbVertex
100
AcDb2dVertex
 10
0.785895824432373
 20
4.672169579399957
 30
0.0
  0
VERTEX
  5
442
330
439
100
AcDbEntity
  8
Layer 1
 62
     7
370
    18
100
AcDbVertex
100
AcDb2dVertex
 10
0.7853847079806857
 20
4.674925062391493
 30
0.0
  0
VERTEX
  5
443
330
439
100
AcDbEntity
  8
Layer 1
 62
     7
370
    18
100
AcDbVertex
100
AcDb2dVertex
 10
0.7852041456434461
 20
4.67643059624566
 30
0.0
  0
VERTEX
  5
444
330
439
100
AcDbEntity
  8
Layer 1
 62
     7
370
    18
100
AcDbVertex
100
AcDb2dVertex
 10
0.7851333088344997
 20
4.677251180013021
 30
0.0
  0
VERTEX
  5
445
330
439
100
AcDbEntity
  8
Layer 1
 62
     7
370
    18
100
AcDbVertex
100
AcDb2dVertex
 10
0.7851041687859429
 20
4.677700042724609
 30
0.0
  0
VERTEX
  5
446
330
439
100
AcDbEntity
  8
Layer 1
 62
     7
370
    18
100
AcDbVertex
100
AcDb2dVertex
 10
0.7850889099968804
 20
4.677966647677951
 30
0.0
  0
VERTEX
  5
447
330
439
100
AcDbEntity
  8
Layer 1
 62
     7
370
    18
100
AcDbVertex
100
AcDb2dVertex
 10
0.7850861019558376
 20
4.678011152479383
 30
0.0
  0
VERTEX
  5
448
330
439
100
AcDbEntity
  8
Layer 1
 62
     7
370
    18
100
AcDbVertex
100
AcDb2dVertex
 10
0.7850749757554796
 20
4.678238762749566
 30
0.0
  0
SEQEND
  5
449
330
439
100
AcDbEntity
  8
Layer 1
 62
     7
370
    18
  0
POLYLINE
  5
44A
330
1F
100
AcDbEntity
  8
Layer 1
 62
     7
370
    18
100
AcDb2dPolyline
 66
     1
 10
0.0
 20
0.0
 30
0.0
  0
VERTEX
  5
44B
330
44A
100
AcDbEntity
  8
Layer 1
 62
     7
370
    18
100
AcDbVertex
100
AcDb2dVertex
 10
0.8740527894761827
 20
4.682372199164496
 30
0.0
  0
VERTEX
  5
44C
330
44A
100
AcDbEntity
  8
Layer 1
 62
     7
370
    18
100
AcDbVertex
100
AcDb2dVertex
 10
0.8478222423129611
 20
4.686555650499131
 30
0.0
  0
VERTEX
  5
44D
330
44A
100
AcDbEntity
  8
Layer 1
 62
     7
370
    18
100
AcDbVertex
100
AcDb2dVertex
 10
0.8241541650560167
 20
4.698632134331597
 30
0.0
  0
VERTEX
  5
44E
330
44A
100
AcDbEntity
  8
Layer 1
 62
     7
370
    18
100
AcDbVertex
100
AcDb2dVertex
 10
0.8053638670179578
 20
4.71742206149631
 30
0.0
  0
VERTEX
  5
44F
330
44A
100
AcDbEntity
  8
Layer 1
 62
     7
370
    18
100
AcDbVertex
100
AcDb2dVertex
 10
0.7932874891493055
 20
4.741090138753255
 30
0.0
  0
VERTEX
  5
450
330
44A
100
AcDbEntity
  8
Layer 1
 62
     7
370
    18
100
AcDbVertex
100
AcDb2dVertex
 10
0.789104143778483
 20
4.767320844862196
 30
0.0
  0
SEQEND
  5
451
330
44A
100
AcDbEntity
  8
Layer 1
 62
     7
370
    18
  0
POLYLINE
  5
452
330
1F
100
AcDbEntity
  8
Layer 1
 62
     7
370
    18
100
AcDb2dPolyline
 66
     1
 10
0.0
 20
0.0
 30
0.0
  0
VERTEX
  5
453
330
452
100
AcDbEntity
  8
Layer 1
 62
     7
370
    18
100
AcDbVertex
100
AcDb2dVertex
 10
0.8808819452921549
 20
4.689201354980469
 30
0.0
  0
VERTEX
  5
454
330
452
100
AcDbEntity
  8
Layer 1
 62
     7
370
    18
100
AcDbVertex
100
AcDb2dVertex
 10
0.8546513981289333
 20
4.693384806315104
 30
0.0
  0
VERTEX
  5
455
330
452
100
AcDbEntity
  8
Layer 1
 62
     7
370
    18
100
AcDbVertex
100
AcDb2dVertex
 10
0.8309833208719889
 20
4.705461290147569
 30
0.0
  0
VERTEX
  5
456
330
452
100
AcDbEntity
  8
Layer 1
 62
     7
370
    18
100
AcDbVertex
100
AcDb2dVertex
 10
0.8121930758158366
 20
4.724251217312283
 30
0.0
  0
VERTEX
  5
457
330
452
100
AcDbEntity
  8
Layer 1
 62
     7
370
    18
100
AcDbVertex
100
AcDb2dVertex
 10
0.8001166449652777
 20
4.747918023003472
 30
0.0
  0
VERTEX
  5
458
330
452
100
AcDbEntity
  8
Layer 1
 62
     7
370
    18
100
AcDbVertex
100
AcDb2dVertex
 10
0.7959333525763617
 20
4.774150000678168
 30
0.0
  0
SEQEND
  5
459
330
452
100
AcDbEntity
  8
Layer 1
 62
     7
370
    18
  0
POLYLINE
  5
45A
330
1F
100
AcDbEntity
  8
Layer 1
 62
     7
370
    18
100
AcDb2dPolyline
 66
     1
 10
0.0
 20
0.0
 30
0.0
  0
VERTEX
  5
45B
330
45A
100
AcDbEntity
  8
Layer 1
 62
     7
370
    18
100
AcDbVertex
100
AcDb2dVertex
 10
0.8827680481804742
 20
4.764109717475043
 30
0.0
  0
VERTEX
  5
45C
330
45A
100
AcDbEntity
  8
Layer 1
 62
     7
370
    18
100
AcDbVertex
100
AcDb2dVertex
 10
0.8569944699605305
 20
4.76650153266059
 30
0.0
  0
VERTEX
  5
45D
330
45A
100
AcDbEntity
  8
Layer 1
 62
     7
370
    18
100
AcDbVertex
100
AcDb2dVertex
 10
0.8336486286587185
 20
4.772669474283854
 30
0.0
  0
VERTEX
  5
45E
330
45A
100
AcDbEntity
  8
Layer 1
 62
     7
370
    18
100
AcDbVertex
100
AcDb2dVertex
 10
0.8149291674296061
 20
4.782034556070963
 30
0.0
  0
VERTEX
  5
45F
330
45A
100
AcDbEntity
  8
Layer 1
 62
     7
370
    18
100
AcDbVertex
100
AcDb2dVertex
 10
0.8025986353556315
 20
4.793715159098307
 30
0.0
  0
VERTEX
  5
460
330
45A
100
AcDbEntity
  8
Layer 1
 62
     7
370
    18
100
AcDbVertex
100
AcDb2dVertex
 10
0.7978194554646809
 20
4.806609683566623
 30
0.0
  0
SEQEND
  5
461
330
45A
100
AcDbEntity
  8
Layer 1
 62
     7
370
    18
  0
POLYLINE
  5
462
330
1F
100
AcDbEntity
  8
Layer 1
 62
     7
370
    18
100
AcDb2dPolyline
 66
     1
 10
0.0
 20
0.0
 30
0.0
  0
VERTEX
  5
463
330
462
100
AcDbEntity
  8
Layer 1
 62
     7
370
    18
100
AcDbVertex
100
AcDb2dVertex
 10
0.8945638868543836
 20
5.349159664577908
 30
0.0
  0
VERTEX
  5
464
330
462
100
AcDbEntity
  8
Layer 1
 62
     7
370
    18
100
AcDbVertex
100
AcDb2dVertex
 10
0.8687902556525335
 20
5.351551479763454
 30
0.0
  0
VERTEX
  5
465
330
462
100
AcDbEntity
  8
Layer 1
 62
     7
370
    18
100
AcDbVertex
100
AcDb2dVertex
 10
0.845444467332628
 20
5.357719421386719
 30
0.0
  0
VERTEX
  5
466
330
462
100
AcDbEntity
  8
Layer 1
 62
     7
370
    18
100
AcDbVertex
100
AcDb2dVertex
 10
0.8267250061035156
 20
5.367086198594834
 30
0.0
  0
VERTEX
  5
467
330
462
100
AcDbEntity
  8
Layer 1
 62
     7
370
    18
100
AcDbVertex
100
AcDb2dVertex
 10
0.8143944210476345
 20
5.378765106201172
 30
0.0
  0
VERTEX
  5
468
330
462
100
AcDbEntity
  8
Layer 1
 62
     7
370
    18
100
AcDbVertex
100
AcDb2dVertex
 10
0.8096152941385905
 20
5.391659630669488
 30
0.0
  0
SEQEND
  5
469
330
462
100
AcDbEntity
  8
Layer 1
 62
     7
370
    18
  0
POLYLINE
  5
46A
330
1F
100
AcDbEntity
  8
Layer 1
 62
     7
370
    18
100
AcDb2dPolyline
 66
     1
 10
0.0
 20
0.0
 30
0.0
  0
VERTEX
  5
46B
330
46A
100
AcDbEntity
  8
Layer 1
 62
     7
370
    18
100
AcDbVertex
100
AcDb2dVertex
 10
0.8946152793036566
 20
5.42504162258572
 30
0.0
  0
VERTEX
  5
46C
330
46A
100
AcDbEntity
  8
Layer 1
 62
     7
370
    18
100
AcDbVertex
100
AcDb2dVertex
 10
0.8688958485921223
 20
5.423786163330078
 30
0.0
  0
VERTEX
  5
46D
330
46A
100
AcDbEntity
  8
Layer 1
 62
     7
370
    18
100
AcDbVertex
100
AcDb2dVertex
 10
0.845587518480089
 20
5.420584784613715
 30
0.0
  0
VERTEX
  5
46E
330
46A
100
AcDbEntity
  8
Layer 1
 62
     7
370
    18
100
AcDbVertex
100
AcDb2dVertex
 10
0.8268763754102918
 20
5.415738847520616
 30
0.0
  0
VERTEX
  5
46F
330
46A
100
AcDbEntity
  8
Layer 1
 62
     7
370
    18
100
AcDbVertex
100
AcDb2dVertex
 10
0.8145166503058539
 20
5.409702724880642
 30
0.0
  0
VERTEX
  5
470
330
46A
100
AcDbEntity
  8
Layer 1
 62
     7
370
    18
100
AcDbVertex
100
AcDb2dVertex
 10
0.8096680641174316
 20
5.403041839599609
 30
0.0
  0
SEQEND
  5
471
330
46A
100
AcDbEntity
  8
Layer 1
 62
     7
370
    18
  0
POLYLINE
  5
472
330
1F
100
AcDbEntity
  8
Layer 1
 62
     7
370
    18
100
AcDb2dPolyline
 66
     1
 10
0.0
 20
0.0
 30
0.0
  0
VERTEX
  5
473
330
472
100
AcDbEntity
  8
Layer 1
 62
     7
370
    18
100
AcDbVertex
100
AcDb2dVertex
 10
3.483352873060438
 20
4.638518015543619
 30
0.0
  0
VERTEX
  5
474
330
472
100
AcDbEntity
  8
Layer 1
 62
     7
370
    18
100
AcDbVertex
100
AcDb2dVertex
 10
3.483163833618164
 20
4.654641469319661
 30
0.0
  0
VERTEX
  5
475
330
472
100
AcDbEntity
  8
Layer 1
 62
     7
370
    18
100
AcDbVertex
100
AcDb2dVertex
 10
3.482293023003472
 20
4.668752882215712
 30
0.0
  0
VERTEX
  5
476
330
472
100
AcDbEntity
  8
Layer 1
 62
     7
370
    18
100
AcDbVertex
100
AcDb2dVertex
 10
3.480880525377061
 20
4.678532070583767
 30
0.0
  0
VERTEX
  5
477
330
472
100
AcDbEntity
  8
Layer 1
 62
     7
370
    18
100
AcDbVertex
100
AcDb2dVertex
 10
3.479161156548394
 20
4.682372199164496
 30
0.0
  0
SEQEND
  5
478
330
472
100
AcDbEntity
  8
Layer 1
 62
     7
370
    18
  0
POLYLINE
  5
479
330
1F
100
AcDbEntity
  8
Layer 1
 62
     7
370
    18
100
AcDb2dPolyline
 66
     1
 10
0.0
 20
0.0
 30
0.0
  0
VERTEX
  5
47A
330
479
100
AcDbEntity
  8
Layer 1
 62
     7
370
    18
100
AcDbVertex
100
AcDb2dVertex
 10
0.8923333485921223
 20
5.590376536051432
 30
0.0
  0
VERTEX
  5
47B
330
479
100
AcDbEntity
  8
Layer 1
 62
     7
370
    18
100
AcDbVertex
100
AcDb2dVertex
 10
0.8663610882229275
 20
5.586459689670138
 30
0.0
  0
VERTEX
  5
47C
330
479
100
AcDbEntity
  8
Layer 1
 62
     7
370
    18
100
AcDbVertex
100
AcDb2dVertex
 10
0.8428763813442653
 20
5.575870937771267
 30
0.0
  0
VERTEX
  5
47D
330
479
100
AcDbEntity
  8
Layer 1
 62
     7
370
    18
100
AcDbVertex
100
AcDb2dVertex
 10
0.8241250250074598
 20
5.559622022840712
 30
0.0
  0
VERTEX
  5
47E
330
479
100
AcDbEntity
  8
Layer 1
 62
     7
370
    18
100
AcDbVertex
100
AcDb2dVertex
 10
0.8119055430094401
 20
5.539271036783854
 30
0.0
  0
VERTEX
  5
47F
330
479
100
AcDbEntity
  8
Layer 1
 62
     7
370
    18
100
AcDbVertex
100
AcDb2dVertex
 10
0.8073861334058973
 20
5.516763899061415
 30
0.0
  0
SEQEND
  5
480
330
479
100
AcDbEntity
  8
Layer 1
 62
     7
370
    18
  0
POLYLINE
  5
481
330
1F
100
AcDbEntity
  8
Layer 1
 62
     7
370
    18
100
AcDb2dPolyline
 66
     1
 10
0.0
 20
0.0
 30
0.0
  0
VERTEX
  5
482
330
481
100
AcDbEntity
  8
Layer 1
 62
     7
370
    18
100
AcDbVertex
100
AcDb2dVertex
 10
0.8753597471449109
 20
5.871023813883463
 30
0.0
  0
VERTEX
  5
483
330
481
100
AcDbEntity
  8
Layer 1
 62
     7
370
    18
100
AcDbVertex
100
AcDb2dVertex
 10
0.8493874867757161
 20
5.86710696750217
 30
0.0
  0
VERTEX
  5
484
330
481
100
AcDbEntity
  8
Layer 1
 62
     7
370
    18
100
AcDbVertex
100
AcDb2dVertex
 10
0.8259014023674859
 20
5.856518215603298
 30
0.0
  0
VERTEX
  5
485
330
481
100
AcDbEntity
  8
Layer 1
 62
     7
370
    18
100
AcDbVertex
100
AcDb2dVertex
 10
0.807151370578342
 20
5.840269300672743
 30
0.0
  0
VERTEX
  5
486
330
481
100
AcDbEntity
  8
Layer 1
 62
     7
370
    18
100
AcDbVertex
100
AcDb2dVertex
 10
0.7949305640326605
 20
5.819917890760633
 30
0.0
  0
VERTEX
  5
487
330
481
100
AcDbEntity
  8
Layer 1
 62
     7
370
    18
100
AcDbVertex
100
AcDb2dVertex
 10
0.7904111014472113
 20
5.797411176893446
 30
0.0
  0
SEQEND
  5
488
330
481
100
AcDbEntity
  8
Layer 1
 62
     7
370
    18
  0
POLYLINE
  5
489
330
1F
100
AcDbEntity
  8
Layer 1
 62
     7
370
    18
100
AcDb2dPolyline
 66
     1
 10
0.0
 20
0.0
 30
0.0
  0
VERTEX
  5
48A
330
489
100
AcDbEntity
  8
Layer 1
 62
     7
370
    18
100
AcDbVertex
100
AcDb2dVertex
 10
0.8703833156161838
 20
6.044229295518663
 30
0.0
  0
VERTEX
  5
48B
330
489
100
AcDbEntity
  8
Layer 1
 62
     7
370
    18
100
AcDbVertex
100
AcDb2dVertex
 10
0.8446819517347547
 20
6.044229295518663
 30
0.0
  0
VERTEX
  5
48C
330
489
100
AcDbEntity
  8
Layer 1
 62
     7
370
    18
100
AcDbVertex
100
AcDb2dVertex
 10
0.8213861253526475
 20
6.044229295518663
 30
0.0
  0
VERTEX
  5
48D
330
489
100
AcDbEntity
  8
Layer 1
 62
     7
370
    18
100
AcDbVertex
100
AcDb2dVertex
 10
0.8026777903238932
 20
6.044229295518663
 30
0.0
  0
VERTEX
  5
48E
330
489
100
AcDbEntity
  8
Layer 1
 62
     7
370
    18
100
AcDbVertex
100
AcDb2dVertex
 10
0.7903083165486653
 20
6.044229295518663
 30
0.0
  0
VERTEX
  5
48F
330
489
100
AcDbEntity
  8
Layer 1
 62
     7
370
    18
100
AcDbVertex
100
AcDb2dVertex
 10
0.7854347229003906
 20
6.044229295518663
 30
0.0
  0
SEQEND
  5
490
330
489
100
AcDbEntity
  8
Layer 1
 62
     7
370
    18
  0
POLYLINE
  5
491
330
1F
100
AcDbEntity
  8
Layer 1
 62
     7
370
    18
100
AcDb2dPolyline
 66
     1
 10
0.0
 20
0.0
 30
0.0
  0
VERTEX
  5
492
330
491
100
AcDbEntity
  8
Layer 1
 62
     7
370
    18
100
AcDbVertex
100
AcDb2dVertex
 10
0.8703833156161838
 20
6.072182125515408
 30
0.0
  0
VERTEX
  5
493
330
491
100
AcDbEntity
  8
Layer 1
 62
     7
370
    18
100
AcDbVertex
100
AcDb2dVertex
 10
0.8446819517347547
 20
6.072182125515408
 30
0.0
  0
VERTEX
  5
494
330
491
100
AcDbEntity
  8
Layer 1
 62
     7
370
    18
100
AcDbVertex
100
AcDb2dVertex
 10
0.8213861253526475
 20
6.072182125515408
 30
0.0
  0
VERTEX
  5
495
330
491
100
AcDbEntity
  8
Layer 1
 62
     7
370
    18
100
AcDbVertex
100
AcDb2dVertex
 10
0.8026777903238932
 20
6.072182125515408
 30
0.0
  0
VERTEX
  5
496
330
491
100
AcDbEntity
  8
Layer 1
 62
     7
370
    18
100
AcDbVertex
100
AcDb2dVertex
 10
0.7903083165486653
 20
6.072182125515408
 30
0.0
  0
VERTEX
  5
497
330
491
100
AcDbEntity
  8
Layer 1
 62
     7
370
    18
100
AcDbVertex
100
AcDb2dVertex
 10
0.7854347229003906
 20
6.072182125515408
 30
0.0
  0
SEQEND
  5
498
330
491
100
AcDbEntity
  8
Layer 1
 62
     7
370
    18
  0
POLYLINE
  5
499
330
1F
100
AcDbEntity
  8
Layer 1
 62
     7
370
    18
100
AcDb2dPolyline
 66
     1
 10
0.0
 20
0.0
 30
0.0
  0
VERTEX
  5
49A
330
499
100
AcDbEntity
  8
Layer 1
 62
     7
370
    18
100
AcDbVertex
100
AcDb2dVertex
 10
0.8665069474114312
 20
6.272059546576606
 30
0.0
  0
VERTEX
  5
49B
330
499
100
AcDbEntity
  8
Layer 1
 62
     7
370
    18
100
AcDbVertex
100
AcDb2dVertex
 10
0.8402764002482096
 20
6.267877790662977
 30
0.0
  0
VERTEX
  5
49C
330
499
100
AcDbEntity
  8
Layer 1
 62
     7
370
    18
100
AcDbVertex
100
AcDb2dVertex
 10
0.8166097005208333
 20
6.255800035264756
 30
0.0
  0
VERTEX
  5
49D
330
499
100
AcDbEntity
  8
Layer 1
 62
     7
370
    18
100
AcDbVertex
100
AcDb2dVertex
 10
0.7978194554646809
 20
6.237009684244791
 30
0.0
  0
VERTEX
  5
49E
330
499
100
AcDbEntity
  8
Layer 1
 62
     7
370
    18
100
AcDbVertex
100
AcDb2dVertex
 10
0.785741647084554
 20
6.213342878553602
 30
0.0
  0
VERTEX
  5
49F
330
499
100
AcDbEntity
  8
Layer 1
 62
     7
370
    18
100
AcDbVertex
100
AcDb2dVertex
 10
0.781558354695638
 20
6.187112596299913
 30
0.0
  0
SEQEND
  5
4A0
330
499
100
AcDbEntity
  8
Layer 1
 62
     7
370
    18
  0
POLYLINE
  5
4A1
330
1F
100
AcDbEntity
  8
Layer 1
 62
     7
370
    18
100
AcDb2dPolyline
 66
     1
 10
0.0
 20
0.0
 30
0.0
  0
VERTEX
  5
4A2
330
4A1
100
AcDbEntity
  8
Layer 1
 62
     7
370
    18
100
AcDbVertex
100
AcDb2dVertex
 10
0.8698611259460449
 20
4.638518015543619
 30
0.0
  0
VERTEX
  5
4A3
330
4A1
100
AcDbEntity
  8
Layer 1
 62
     7
370
    18
100
AcDbVertex
100
AcDb2dVertex
 10
0.8713694678412542
 20
4.638504028320312
 30
0.0
  0
SEQEND
  5
4A4
330
4A1
100
AcDbEntity
  8
Layer 1
 62
     7
370
    18
  0
POLYLINE
  5
4A5
330
1F
100
AcDbEntity
  8
Layer 1
 62
     7
370
    18
100
AcDb2dPolyline
 66
     1
 10
0.0
 20
0.0
 30
0.0
  0
VERTEX
  5
4A6
330
4A5
100
AcDbEntity
  8
Layer 1
 62
     7
370
    18
100
AcDbVertex
100
AcDb2dVertex
 10
3.481844372219509
 20
4.594637552897135
 30
0.0
  0
VERTEX
  5
4A7
330
4A5
100
AcDbEntity
  8
Layer 1
 62
     7
370
    18
100
AcDbVertex
100
AcDb2dVertex
 10
3.481844372219509
 20
4.601140340169271
 30
0.0
  0
VERTEX
  5
4A8
330
4A5
100
AcDbEntity
  8
Layer 1
 62
     7
370
    18
100
AcDbVertex
100
AcDb2dVertex
 10
3.481844372219509
 20
4.617322285970052
 30
0.0
  0
VERTEX
  5
4A9
330
4A5
100
AcDbEntity
  8
Layer 1
 62
     7
370
    18
100
AcDbVertex
100
AcDb2dVertex
 10
3.481844372219509
 20
4.638504028320312
 30
0.0
  0
SEQEND
  5
4AA
330
4A5
100
AcDbEntity
  8
Layer 1
 62
     7
370
    18
  0
POLYLINE
  5
4AB
330
1F
100
AcDbEntity
  8
Layer 1
 62
     7
370
    18
100
AcDb2dPolyline
 66
     1
 10
0.0
 20
0.0
 30
0.0
  0
VERTEX
  5
4AC
330
4AB
100
AcDbEntity
  8
Layer 1
 62
     7
370
    18
100
AcDbVertex
100
AcDb2dVertex
 10
0.8740527894761827
 20
4.682372199164496
 30
0.0
  0
VERTEX
  5
4AD
330
4AB
100
AcDbEntity
  8
Layer 1
 62
     7
370
    18
100
AcDbVertex
100
AcDb2dVertex
 10
0.8723333146837022
 20
4.678532070583767
 30
0.0
  0
VERTEX
  5
4AE
330
4AB
100
AcDbEntity
  8
Layer 1
 62
     7
370
    18
100
AcDbVertex
100
AcDb2dVertex
 10
0.8709208170572916
 20
4.668752882215712
 30
0.0
  0
VERTEX
  5
4AF
330
4AB
100
AcDbEntity
  8
Layer 1
 62
     7
370
    18
100
AcDbVertex
100
AcDb2dVertex
 10
0.8700500064425998
 20
4.654641469319661
 30
0.0
  0
VERTEX
  5
4B0
330
4AB
100
AcDbEntity
  8
Layer 1
 62
     7
370
    18
100
AcDbVertex
100
AcDb2dVertex
 10
0.8698611259460449
 20
4.638518015543619
 30
0.0
  0
SEQEND
  5
4B1
330
4AB
100
AcDbEntity
  8
Layer 1
 62
     7
370
    18
  0
POLYLINE
  5
4B2
330
1F
100
AcDbEntity
  8
Layer 1
 62
     7
370
    18
100
AcDb2dPolyline
 66
     1
 10
0.0
 20
0.0
 30
0.0
  0
VERTEX
  5
4B3
330
4B2
100
AcDbEntity
  8
Layer 1
 62
     7
370
    18
100
AcDbVertex
100
AcDb2dVertex
 10
3.477855470445421
 20
5.871023813883463
 30
0.0
  0
VERTEX
  5
4B4
330
4B2
100
AcDbEntity
  8
Layer 1
 62
     7
370
    18
100
AcDbVertex
100
AcDb2dVertex
 10
3.479537540011936
 20
5.895599789089626
 30
0.0
  0
VERTEX
  5
4B5
330
4B2
100
AcDbEntity
  8
Layer 1
 62
     7
370
    18
100
AcDbVertex
100
AcDb2dVertex
 10
3.480930540296766
 20
5.926672193739149
 30
0.0
  0
VERTEX
  5
4B6
330
4B2
100
AcDbEntity
  8
Layer 1
 62
     7
370
    18
100
AcDbVertex
100
AcDb2dVertex
 10
3.481970893012153
 20
5.962882147894965
 30
0.0
  0
VERTEX
  5
4B7
330
4B2
100
AcDbEntity
  8
Layer 1
 62
     7
370
    18
100
AcDbVertex
100
AcDb2dVertex
 10
3.482613881429036
 20
6.002647399902344
 30
0.0
  0
VERTEX
  5
4B8
330
4B2
100
AcDbEntity
  8
Layer 1
 62
     7
370
    18
100
AcDbVertex
100
AcDb2dVertex
 10
3.482830471462673
 20
6.044229295518663
 30
0.0
  0
SEQEND
  5
4B9
330
4B2
100
AcDbEntity
  8
Layer 1
 62
     7
370
    18
  0
POLYLINE
  5
4BA
330
1F
100
AcDbEntity
  8
Layer 1
 62
     7
370
    18
100
AcDb2dPolyline
 66
     1
 10
0.0
 20
0.0
 30
0.0
  0
VERTEX
  5
4BB
330
4BA
100
AcDbEntity
  8
Layer 1
 62
     7
370
    18
100
AcDbVertex
100
AcDb2dVertex
 10
0.8713694678412542
 20
4.638504028320312
 30
0.0
  0
VERTEX
  5
4BC
330
4BA
100
AcDbEntity
  8
Layer 1
 62
     7
370
    18
100
AcDbVertex
100
AcDb2dVertex
 10
0.8713694678412542
 20
4.617322285970052
 30
0.0
  0
VERTEX
  5
4BD
330
4BA
100
AcDbEntity
  8
Layer 1
 62
     7
370
    18
100
AcDbVertex
100
AcDb2dVertex
 10
0.8713694678412542
 20
4.601140340169271
 30
0.0
  0
VERTEX
  5
4BE
330
4BA
100
AcDbEntity
  8
Layer 1
 62
     7
370
    18
100
AcDbVertex
100
AcDb2dVertex
 10
0.8713694678412542
 20
4.594637552897135
 30
0.0
  0
SEQEND
  5
4BF
330
4BA
100
AcDbEntity
  8
Layer 1
 62
     7
370
    18
  0
POLYLINE
  5
4C0
330
1F
100
AcDbEntity
  8
Layer 1
 62
     7
370
    18
100
AcDb2dPolyline
 66
     1
 10
0.0
 20
0.0
 30
0.0
  0
VERTEX
  5
4C1
330
4C0
100
AcDbEntity
  8
Layer 1
 62
     7
370
    18
100
AcDbVertex
100
AcDb2dVertex
 10
0.8713694678412542
 20
4.638504028320312
 30
0.0
  0
VERTEX
  5
4C2
330
4C0
100
AcDbEntity
  8
Layer 1
 62
     7
370
    18
100
AcDbVertex
100
AcDb2dVertex
 10
3.481844372219509
 20
4.638504028320312
 30
0.0
  0
SEQEND
  5
4C3
330
4C0
100
AcDbEntity
  8
Layer 1
 62
     7
370
    18
  0
POLYLINE
  5
4C4
330
1F
100
AcDbEntity
  8
Layer 1
 62
     7
370
    18
100
AcDb2dPolyline
 66
     1
 10
0.0
 20
0.0
 30
0.0
  0
VERTEX
  5
4C5
330
4C4
100
AcDbEntity
  8
Layer 1
 62
     7
370
    18
100
AcDbVertex
100
AcDb2dVertex
 10
0.8665069474114312
 20
6.272059546576606
 30
0.0
  0
VERTEX
  5
4C6
330
4C4
100
AcDbEntity
  8
Layer 1
 62
     7
370
    18
100
AcDbVertex
100
AcDb2dVertex
 10
0.8672708405388726
 20
6.267056783040364
 30
0.0
  0
VERTEX
  5
4C7
330
4C4
100
AcDbEntity
  8
Layer 1
 62
     7
370
    18
100
AcDbVertex
100
AcDb2dVertex
 10
0.8679999775356716
 20
6.254891713460286
 30
0.0
  0
VERTEX
  5
4C8
330
4C4
100
AcDbEntity
  8
Layer 1
 62
     7
370
    18
100
AcDbVertex
100
AcDb2dVertex
 10
0.868670834435357
 20
6.236012352837456
 30
0.0
  0
VERTEX
  5
4C9
330
4C4
100
AcDbEntity
  8
Layer 1
 62
     7
370
    18
100
AcDbVertex
100
AcDb2dVertex
 10
0.869255542755127
 20
6.211113823784722
 30
0.0
  0
VERTEX
  5
4CA
330
4C4
100
AcDbEntity
  8
Layer 1
 62
     7
370
    18
100
AcDbVertex
100
AcDb2dVertex
 10
0.8697347111172146
 20
6.181109534369575
 30
0.0
  0
VERTEX
  5
4CB
330
4C4
100
AcDbEntity
  8
Layer 1
 62
     7
370
    18
100
AcDbVertex
100
AcDb2dVertex
 10
0.8700902726915147
 20
6.147102779812283
 30
0.0
  0
VERTEX
  5
4CC
330
4C4
100
AcDbEntity
  8
Layer 1
 62
     7
370
    18
100
AcDbVertex
100
AcDb2dVertex
 10
0.8703097237481011
 20
6.11034435696072
 30
0.0
  0
VERTEX
  5
4CD
330
4C4
100
AcDbEntity
  8
Layer 1
 62
     7
370
    18
100
AcDbVertex
100
AcDb2dVertex
 10
0.8703833156161838
 20
6.072182125515408
 30
0.0
  0
SEQEND
  5
4CE
330
4C4
100
AcDbEntity
  8
Layer 1
 62
     7
370
    18
  0
POLYLINE
  5
4CF
330
1F
100
AcDbEntity
  8
Layer 1
 62
     7
370
    18
100
AcDb2dPolyline
 66
     1
 10
0.0
 20
0.0
 30
0.0
  0
VERTEX
  5
4D0
330
4CF
100
AcDbEntity
  8
Layer 1
 62
     7
370
    18
100
AcDbVertex
100
AcDb2dVertex
 10
0.8827680481804742
 20
4.764109717475043
 30
0.0
  0
VERTEX
  5
4D1
330
4CF
100
AcDbEntity
  8
Layer 1
 62
     7
370
    18
100
AcDbVertex
100
AcDb2dVertex
 10
0.8824208577473958
 20
4.733973609076606
 30
0.0
  0
VERTEX
  5
4D2
330
4CF
100
AcDbEntity
  8
Layer 1
 62
     7
370
    18
100
AcDbVertex
100
AcDb2dVertex
 10
0.881970829433865
 20
4.71053483751085
 30
0.0
  0
VERTEX
  5
4D3
330
4CF
100
AcDbEntity
  8
Layer 1
 62
     7
370
    18
100
AcDbVertex
100
AcDb2dVertex
 10
0.8814472092522515
 20
4.695286220974392
 30
0.0
  0
VERTEX
  5
4D4
330
4CF
100
AcDbEntity
  8
Layer 1
 62
     7
370
    18
100
AcDbVertex
100
AcDb2dVertex
 10
0.8808819452921549
 20
4.689201354980469
 30
0.0
  0
SEQEND
  5
4D5
330
4CF
100
AcDbEntity
  8
Layer 1
 62
     7
370
    18
  0
POLYLINE
  5
4D6
330
1F
100
AcDbEntity
  8
Layer 1
 62
     7
370
    18
100
AcDb2dPolyline
 66
     1
 10
0.0
 20
0.0
 30
0.0
  0
VERTEX
  5
4D7
330
4D6
100
AcDbEntity
  8
Layer 1
 62
     7
370
    18
100
AcDbVertex
100
AcDb2dVertex
 10
3.472332000732422
 20
4.689201354980469
 30
0.0
  0
VERTEX
  5
4D8
330
4D6
100
AcDbEntity
  8
Layer 1
 62
     7
370
    18
100
AcDbVertex
100
AcDb2dVertex
 10
3.471766577826606
 20
4.695286220974392
 30
0.0
  0
VERTEX
  5
4D9
330
4D6
100
AcDbEntity
  8
Layer 1
 62
     7
370
    18
100
AcDbVertex
100
AcDb2dVertex
 10
3.471243116590712
 20
4.71053483751085
 30
0.0
  0
VERTEX
  5
4DA
330
4D6
100
AcDbEntity
  8
Layer 1
 62
     7
370
    18
100
AcDbVertex
100
AcDb2dVertex
 10
3.470792982313368
 20
4.733973609076606
 30
0.0
  0
VERTEX
  5
4DB
330
4D6
100
AcDbEntity
  8
Layer 1
 62
     7
370
    18
100
AcDbVertex
100
AcDb2dVertex
 10
3.470445844862196
 20
4.764109717475043
 30
0.0
  0
SEQEND
  5
4DC
330
4D6
100
AcDbEntity
  8
Layer 1
 62
     7
370
    18
  0
POLYLINE
  5
4DD
330
1F
100
AcDbEntity
  8
Layer 1
 62
     7
370
    18
100
AcDb2dPolyline
 66
     1
 10
0.0
 20
0.0
 30
0.0
  0
VERTEX
  5
4DE
330
4DD
100
AcDbEntity
  8
Layer 1
 62
     7
370
    18
100
AcDbVertex
100
AcDb2dVertex
 10
0.8703833156161838
 20
6.044229295518663
 30
0.0
  0
VERTEX
  5
4DF
330
4DD
100
AcDbEntity
  8
Layer 1
 62
     7
370
    18
100
AcDbVertex
100
AcDb2dVertex
 10
0.8706000116136339
 20
6.002647399902344
 30
0.0
  0
VERTEX
  5
4E0
330
4DD
100
AcDbEntity
  8
Layer 1
 62
     7
370
    18
100
AcDbVertex
100
AcDb2dVertex
 10
0.871243053012424
 20
5.962882147894965
 30
0.0
  0
VERTEX
  5
4E1
330
4DD
100
AcDbEntity
  8
Layer 1
 62
     7
370
    18
100
AcDbVertex
100
AcDb2dVertex
 10
0.8722833527459039
 20
5.926672193739149
 30
0.0
  0
VERTEX
  5
4E2
330
4DD
100
AcDbEntity
  8
Layer 1
 62
     7
370
    18
100
AcDbVertex
100
AcDb2dVertex
 10
0.873676406012641
 20
5.895599789089626
 30
0.0
  0
VERTEX
  5
4E3
330
4DD
100
AcDbEntity
  8
Layer 1
 62
     7
370
    18
100
AcDbVertex
100
AcDb2dVertex
 10
0.8753597471449109
 20
5.871023813883463
 30
0.0
  0
SEQEND
  5
4E4
330
4DD
100
AcDbEntity
  8
Layer 1
 62
     7
370
    18
  0
POLYLINE
  5
4E5
330
1F
100
AcDbEntity
  8
Layer 1
 62
     7
370
    18
100
AcDb2dPolyline
 66
     1
 10
0.0
 20
0.0
 30
0.0
  0
VERTEX
  5
4E6
330
4E5
100
AcDbEntity
  8
Layer 1
 62
     7
370
    18
100
AcDbVertex
100
AcDb2dVertex
 10
3.482830471462673
 20
6.072182125515408
 30
0.0
  0
VERTEX
  5
4E7
330
4E5
100
AcDbEntity
  8
Layer 1
 62
     7
370
    18
100
AcDbVertex
100
AcDb2dVertex
 10
3.482905493842231
 20
6.11034435696072
 30
0.0
  0
VERTEX
  5
4E8
330
4E5
100
AcDbEntity
  8
Layer 1
 62
     7
370
    18
100
AcDbVertex
100
AcDb2dVertex
 10
3.483123567369249
 20
6.147102779812283
 30
0.0
  0
VERTEX
  5
4E9
330
4E5
100
AcDbEntity
  8
Layer 1
 62
     7
370
    18
100
AcDbVertex
100
AcDb2dVertex
 10
3.483479181925456
 20
6.181109534369575
 30
0.0
  0
VERTEX
  5
4EA
330
4E5
100
AcDbEntity
  8
Layer 1
 62
     7
370
    18
100
AcDbVertex
100
AcDb2dVertex
 10
3.483958350287543
 20
6.211113823784722
 30
0.0
  0
VERTEX
  5
4EB
330
4E5
100
AcDbEntity
  8
Layer 1
 62
     7
370
    18
100
AcDbVertex
100
AcDb2dVertex
 10
3.484543058607313
 20
6.236012352837456
 30
0.0
  0
VERTEX
  5
4EC
330
4E5
100
AcDbEntity
  8
Layer 1
 62
     7
370
    18
100
AcDbVertex
100
AcDb2dVertex
 10
3.485213809543186
 20
6.254891713460286
 30
0.0
  0
VERTEX
  5
4ED
330
4E5
100
AcDbEntity
  8
Layer 1
 62
     7
370
    18
100
AcDbVertex
100
AcDb2dVertex
 10
3.485943052503798
 20
6.267056783040364
 30
0.0
  0
VERTEX
  5
4EE
330
4E5
100
AcDbEntity
  8
Layer 1
 62
     7
370
    18
100
AcDbVertex
100
AcDb2dVertex
 10
3.486706839667426
 20
6.272059546576606
 30
0.0
  0
SEQEND
  5
4EF
330
4E5
100
AcDbEntity
  8
Layer 1
 62
     7
370
    18
  0
POLYLINE
  5
4F0
330
1F
100
AcDbEntity
  8
Layer 1
 62
     7
370
    18
100
AcDb2dPolyline
 66
     1
 10
0.0
 20
0.0
 30
0.0
  0
VERTEX
  5
4F1
330
4F0
100
AcDbEntity
  8
Layer 1
 62
     7
370
    18
100
AcDbVertex
100
AcDb2dVertex
 10
3.459008322821723
 20
5.468934800889756
 30
0.0
  0
VERTEX
  5
4F2
330
4F0
100
AcDbEntity
  8
Layer 1
 62
     7
370
    18
100
AcDbVertex
100
AcDb2dVertex
 10
3.459286159939236
 20
5.505629221598307
 30
0.0
  0
VERTEX
  5
4F3
330
4F0
100
AcDbEntity
  8
Layer 1
 62
     7
370
    18
100
AcDbVertex
100
AcDb2dVertex
 10
3.459701326158311
 20
5.53892347547743
 30
0.0
  0
VERTEX
  5
4F4
330
4F0
100
AcDbEntity
  8
Layer 1
 62
     7
370
    18
100
AcDbVertex
100
AcDb2dVertex
 10
3.460240258110894
 20
5.567538791232638
 30
0.0
  0
VERTEX
  5
4F5
330
4F0
100
AcDbEntity
  8
Layer 1
 62
     7
370
    18
100
AcDbVertex
100
AcDb2dVertex
 10
3.460879219902886
 20
5.590376536051432
 30
0.0
  0
SEQEND
  5
4F6
330
4F0
100
AcDbEntity
  8
Layer 1
 62
     7
370
    18
  0
POLYLINE
  5
4F7
330
1F
100
AcDbEntity
  8
Layer 1
 62
     7
370
    18
100
AcDb2dPolyline
 66
     1
 10
0.0
 20
0.0
 30
0.0
  0
VERTEX
  5
4F8
330
4F7
100
AcDbEntity
  8
Layer 1
 62
     7
370
    18
100
AcDbVertex
100
AcDb2dVertex
 10
3.45859866672092
 20
5.42504162258572
 30
0.0
  0
VERTEX
  5
4F9
330
4F7
100
AcDbEntity
  8
Layer 1
 62
     7
370
    18
100
AcDbVertex
100
AcDb2dVertex
 10
3.459008322821723
 20
5.468934800889756
 30
0.0
  0
SEQEND
  5
4FA
330
4F7
100
AcDbEntity
  8
Layer 1
 62
     7
370
    18
  0
POLYLINE
  5
4FB
330
1F
100
AcDbEntity
  8
Layer 1
 62
     7
370
    18
100
AcDb2dPolyline
 66
     1
 10
0.0
 20
0.0
 30
0.0
  0
VERTEX
  5
4FC
330
4FB
100
AcDbEntity
  8
Layer 1
 62
     7
370
    18
100
AcDbVertex
100
AcDb2dVertex
 10
0.8946152793036566
 20
5.42504162258572
 30
0.0
  0
VERTEX
  5
4FD
330
4FB
100
AcDbEntity
  8
Layer 1
 62
     7
370
    18
100
AcDbVertex
100
AcDb2dVertex
 10
0.8946332931518555
 20
5.399159749348958
 30
0.0
  0
VERTEX
  5
4FE
330
4FB
100
AcDbEntity
  8
Layer 1
 62
     7
370
    18
100
AcDbVertex
100
AcDb2dVertex
 10
0.8946152793036566
 20
5.373277876112196
 30
0.0
  0
VERTEX
  5
4FF
330
4FB
100
AcDbEntity
  8
Layer 1
 62
     7
370
    18
100
AcDbVertex
100
AcDb2dVertex
 10
0.8945638868543836
 20
5.349159664577908
 30
0.0
  0
SEQEND
  5
500
330
4FB
100
AcDbEntity
  8
Layer 1
 62
     7
370
    18
  0
POLYLINE
  5
501
330
1F
100
AcDbEntity
  8
Layer 1
 62
     7
370
    18
100
AcDb2dPolyline
 66
     1
 10
0.0
 20
0.0
 30
0.0
  0
VERTEX
  5
502
330
501
100
AcDbEntity
  8
Layer 1
 62
     7
370
    18
100
AcDbVertex
100
AcDb2dVertex
 10
3.45864995320638
 20
5.349159664577908
 30
0.0
  0
VERTEX
  5
503
330
501
100
AcDbEntity
  8
Layer 1
 62
     7
370
    18
100
AcDbVertex
100
AcDb2dVertex
 10
3.45859866672092
 20
5.373277876112196
 30
0.0
  0
VERTEX
  5
504
330
501
100
AcDbEntity
  8
Layer 1
 62
     7
370
    18
100
AcDbVertex
100
AcDb2dVertex
 10
3.458580652872721
 20
5.399159749348958
 30
0.0
  0
VERTEX
  5
505
330
501
100
AcDbEntity
  8
Layer 1
 62
     7
370
    18
100
AcDbVertex
100
AcDb2dVertex
 10
3.45859866672092
 20
5.42504162258572
 30
0.0
  0
SEQEND
  5
506
330
501
100
AcDbEntity
  8
Layer 1
 62
     7
370
    18
  0
POLYLINE
  5
507
330
1F
100
AcDbEntity
  8
Layer 1
 62
     7
370
    18
100
AcDb2dPolyline
 66
     1
 10
0.0
 20
0.0
 30
0.0
  0
VERTEX
  5
508
330
507
100
AcDbEntity
  8
Layer 1
 62
     7
370
    18
100
AcDbVertex
100
AcDb2dVertex
 10
0.8923333485921223
 20
5.590376536051432
 30
0.0
  0
VERTEX
  5
509
330
507
100
AcDbEntity
  8
Layer 1
 62
     7
370
    18
100
AcDbVertex
100
AcDb2dVertex
 10
0.8929735819498698
 20
5.567538791232638
 30
0.0
  0
VERTEX
  5
50A
330
507
100
AcDbEntity
  8
Layer 1
 62
     7
370
    18
100
AcDbVertex
100
AcDb2dVertex
 10
0.8935125139024522
 20
5.53892347547743
 30
0.0
  0
VERTEX
  5
50B
330
507
100
AcDbEntity
  8
Layer 1
 62
     7
370
    18
100
AcDbVertex
100
AcDb2dVertex
 10
0.8939277860853406
 20
5.505629221598307
 30
0.0
  0
VERTEX
  5
50C
330
507
100
AcDbEntity
  8
Layer 1
 62
     7
370
    18
100
AcDbVertex
100
AcDb2dVertex
 10
0.8942055172390407
 20
5.468934800889756
 30
0.0
  0
SEQEND
  5
50D
330
507
100
AcDbEntity
  8
Layer 1
 62
     7
370
    18
  0
POLYLINE
  5
50E
330
1F
100
AcDbEntity
  8
Layer 1
 62
     7
370
    18
100
AcDb2dPolyline
 66
     1
 10
0.0
 20
0.0
 30
0.0
  0
VERTEX
  5
50F
330
50E
100
AcDbEntity
  8
Layer 1
 62
     7
370
    18
100
AcDbVertex
100
AcDb2dVertex
 10
0.8942055172390407
 20
5.468934800889756
 30
0.0
  0
VERTEX
  5
510
330
50E
100
AcDbEntity
  8
Layer 1
 62
     7
370
    18
100
AcDbVertex
100
AcDb2dVertex
 10
0.8946152793036566
 20
5.42504162258572
 30
0.0
  0
SEQEND
  5
511
330
50E
100
AcDbEntity
  8
Layer 1
 62
     7
370
    18
  0
POLYLINE
  5
512
330
1F
100
AcDbEntity
  8
Layer 1
 62
     7
370
    18
100
AcDb2dPolyline
 66
     1
 10
0.0
 20
0.0
 30
0.0
  0
VERTEX
  5
513
330
512
100
AcDbEntity
  8
Layer 1
 62
     7
370
    18
100
AcDbVertex
100
AcDb2dVertex
 10
3.459008322821723
 20
5.468934800889756
 30
0.0
  0
VERTEX
  5
514
330
512
100
AcDbEntity
  8
Layer 1
 62
     7
370
    18
100
AcDbVertex
100
AcDb2dVertex
 10
0.8942055172390407
 20
5.468934800889756
 30
0.0
  0
SEQEND
  5
515
330
512
100
AcDbEntity
  8
Layer 1
 62
     7
370
    18
  0
POLYLINE
  5
516
330
1F
100
AcDbEntity
  8
Layer 1
 62
     7
370
    18
100
AcDb2dPolyline
 66
     1
 10
0.0
 20
0.0
 30
0.0
  0
VERTEX
  5
517
330
516
100
AcDbEntity
  8
Layer 1
 62
     7
370
    18
100
AcDbVertex
100
AcDb2dVertex
 10
0.8946152793036566
 20
5.42504162258572
 30
0.0
  0
VERTEX
  5
518
330
516
100
AcDbEntity
  8
Layer 1
 62
     7
370
    18
100
AcDbVertex
100
AcDb2dVertex
 10
3.45859866672092
 20
5.42504162258572
 30
0.0
  0
SEQEND
  5
519
330
516
100
AcDbEntity
  8
Layer 1
 62
     7
370
    18
  0
POLYLINE
  5
51A
330
1F
100
AcDbEntity
  8
Layer 1
 62
     7
370
    18
100
AcDb2dPolyline
 66
     1
 10
0.0
 20
0.0
 30
0.0
  0
VERTEX
  5
51B
330
51A
100
AcDbEntity
  8
Layer 1
 62
     7
370
    18
100
AcDbVertex
100
AcDb2dVertex
 10
0.7850749757554796
 20
4.678238762749566
 30
0.0
  0
VERTEX
  5
51C
330
51A
100
AcDbEntity
  8
Layer 1
 62
     7
370
    18
100
AcDbVertex
100
AcDb2dVertex
 10
0.7855125003390842
 20
4.706645965576172
 30
0.0
  0
VERTEX
  5
51D
330
51A
100
AcDbEntity
  8
Layer 1
 62
     7
370
    18
100
AcDbVertex
100
AcDb2dVertex
 10
0.7861805491977267
 20
4.73108885023329
 30
0.0
  0
VERTEX
  5
51E
330
51A
100
AcDbEntity
  8
Layer 1
 62
     7
370
    18
100
AcDbVertex
100
AcDb2dVertex
 10
0.7870389090643988
 20
4.75006103515625
 30
0.0
  0
VERTEX
  5
51F
330
51A
100
AcDbEntity
  8
Layer 1
 62
     7
370
    18
100
AcDbVertex
100
AcDb2dVertex
 10
0.7880333264668782
 20
4.762391832139756
 30
0.0
  0
VERTEX
  5
520
330
51A
100
AcDbEntity
  8
Layer 1
 62
     7
370
    18
100
AcDbVertex
100
AcDb2dVertex
 10
0.789104143778483
 20
4.767320844862196
 30
0.0
  0
SEQEND
  5
521
330
51A
100
AcDbEntity
  8
Layer 1
 62
     7
370
    18
  0
POLYLINE
  5
522
330
1F
100
AcDbEntity
  8
Layer 1
 62
     7
370
    18
100
AcDb2dPolyline
 66
     1
 10
0.0
 20
0.0
 30
0.0
  0
VERTEX
  5
523
330
522
100
AcDbEntity
  8
Layer 1
 62
     7
370
    18
100
AcDbVertex
100
AcDb2dVertex
 10
0.8092569245232476
 20
5.446934594048394
 30
0.0
  0
VERTEX
  5
524
330
522
100
AcDbEntity
  8
Layer 1
 62
     7
370
    18
100
AcDbVertex
100
AcDb2dVertex
 10
0.8088555335998535
 20
5.474670834011501
 30
0.0
  0
VERTEX
  5
525
330
522
100
AcDbEntity
  8
Layer 1
 62
     7
370
    18
100
AcDbVertex
100
AcDb2dVertex
 10
0.8082180553012424
 20
5.49848895602756
 30
0.0
  0
VERTEX
  5
526
330
522
100
AcDbEntity
  8
Layer 1
 62
     7
370
    18
100
AcDbVertex
100
AcDb2dVertex
 10
0.8073861334058973
 20
5.516763899061415
 30
0.0
  0
SEQEND
  5
527
330
522
100
AcDbEntity
  8
Layer 1
 62
     7
370
    18
  0
POLYLINE
  5
528
330
1F
100
AcDbEntity
  8
Layer 1
 62
     7
370
    18
100
AcDb2dPolyline
 66
     1
 10
0.0
 20
0.0
 30
0.0
  0
VERTEX
  5
529
330
528
100
AcDbEntity
  8
Layer 1
 62
     7
370
    18
100
AcDbVertex
100
AcDb2dVertex
 10
0.781558354695638
 20
6.187112596299913
 30
0.0
  0
VERTEX
  5
52A
330
528
100
AcDbEntity
  8
Layer 1
 62
     7
370
    18
100
AcDbVertex
100
AcDb2dVertex
 10
0.7760778003268771
 20
6.192594316270616
 30
0.0
  0
SEQEND
  5
52B
330
528
100
AcDbEntity
  8
Layer 1
 62
     7
370
    18
  0
POLYLINE
  5
52C
330
1F
100
AcDbEntity
  8
Layer 1
 62
     7
370
    18
100
AcDb2dPolyline
 66
     1
 10
0.0
 20
0.0
 30
0.0
  0
VERTEX
  5
52D
330
52C
100
AcDbEntity
  8
Layer 1
 62
     7
370
    18
100
AcDbVertex
100
AcDb2dVertex
 10
0.7854347229003906
 20
6.072182125515408
 30
0.0
  0
VERTEX
  5
52E
330
52C
100
AcDbEntity
  8
Layer 1
 62
     7
370
    18
100
AcDbVertex
100
AcDb2dVertex
 10
0.7853041754828558
 20
6.101300133599175
 30
0.0
  0
VERTEX
  5
52F
330
52C
100
AcDbEntity
  8
Layer 1
 62
     7
370
    18
100
AcDbVertex
100
AcDb2dVertex
 10
0.7849194208780924
 20
6.128519270155165
 30
0.0
  0
VERTEX
  5
530
330
52C
100
AcDbEntity
  8
Layer 1
 62
     7
370
    18
100
AcDbVertex
100
AcDb2dVertex
 10
0.7843083275689019
 20
6.152068244086371
 30
0.0
  0
VERTEX
  5
531
330
52C
100
AcDbEntity
  8
Layer 1
 62
     7
370
    18
100
AcDbVertex
100
AcDb2dVertex
 10
0.7835069232516818
 20
6.170409732394748
 30
0.0
  0
VERTEX
  5
532
330
52C
100
AcDbEntity
  8
Layer 1
 62
     7
370
    18
100
AcDbVertex
100
AcDb2dVertex
 10
0.7825708389282227
 20
6.182351430257161
 30
0.0
  0
VERTEX
  5
533
330
52C
100
AcDbEntity
  8
Layer 1
 62
     7
370
    18
100
AcDbVertex
100
AcDb2dVertex
 10
0.781558354695638
 20
6.187112596299913
 30
0.0
  0
SEQEND
  5
534
330
52C
100
AcDbEntity
  8
Layer 1
 62
     7
370
    18
  0
POLYLINE
  5
535
330
1F
100
AcDbEntity
  8
Layer 1
 62
     7
370
    18
100
AcDb2dPolyline
 66
     1
 10
0.0
 20
0.0
 30
0.0
  0
VERTEX
  5
536
330
535
100
AcDbEntity
  8
Layer 1
 62
     7
370
    18
100
AcDbVertex
100
AcDb2dVertex
 10
0.7854347229003906
 20
6.044229295518663
 30
0.0
  0
VERTEX
  5
537
330
535
100
AcDbEntity
  8
Layer 1
 62
     7
370
    18
100
AcDbVertex
100
AcDb2dVertex
 10
0.7854347229003906
 20
6.072182125515408
 30
0.0
  0
SEQEND
  5
538
330
535
100
AcDbEntity
  8
Layer 1
 62
     7
370
    18
  0
POLYLINE
  5
539
330
1F
100
AcDbEntity
  8
Layer 1
 62
     7
370
    18
100
AcDb2dPolyline
 66
     1
 10
0.0
 20
0.0
 30
0.0
  0
VERTEX
  5
53A
330
539
100
AcDbEntity
  8
Layer 1
 62
     7
370
    18
100
AcDbVertex
100
AcDb2dVertex
 10
0.7904111014472113
 20
5.797411176893446
 30
0.0
  0
VERTEX
  5
53B
330
539
100
AcDbEntity
  8
Layer 1
 62
     7
370
    18
100
AcDbVertex
100
AcDb2dVertex
 10
0.7889902856614854
 20
5.825906965467665
 30
0.0
  0
VERTEX
  5
53C
330
539
100
AcDbEntity
  8
Layer 1
 62
     7
370
    18
100
AcDbVertex
100
AcDb2dVertex
 10
0.7877624829610188
 20
5.861034817165798
 30
0.0
  0
VERTEX
  5
53D
330
539
100
AcDbEntity
  8
Layer 1
 62
     7
370
    18
100
AcDbVertex
100
AcDb2dVertex
 10
0.7867680655585394
 20
5.901729159884982
 30
0.0
  0
VERTEX
  5
53E
330
539
100
AcDbEntity
  8
Layer 1
 62
     7
370
    18
100
AcDbVertex
100
AcDb2dVertex
 10
0.7860347429911295
 20
5.946752760145399
 30
0.0
  0
VERTEX
  5
53F
330
539
100
AcDbEntity
  8
Layer 1
 62
     7
370
    18
100
AcDbVertex
100
AcDb2dVertex
 10
0.7855860922071668
 20
5.9947386847602
 30
0.0
  0
VERTEX
  5
540
330
539
100
AcDbEntity
  8
Layer 1
 62
     7
370
    18
100
AcDbVertex
100
AcDb2dVertex
 10
0.7854347229003906
 20
6.044229295518663
 30
0.0
  0
SEQEND
  5
541
330
539
100
AcDbEntity
  8
Layer 1
 62
     7
370
    18
  0
POLYLINE
  5
542
330
1F
100
AcDbEntity
  8
Layer 1
 62
     7
370
    18
100
AcDb2dPolyline
 66
     1
 10
0.0
 20
0.0
 30
0.0
  0
VERTEX
  5
543
330
542
100
AcDbEntity
  8
Layer 1
 62
     7
370
    18
100
AcDbVertex
100
AcDb2dVertex
 10
0.8073861334058973
 20
5.516763899061415
 30
0.0
  0
VERTEX
  5
544
330
542
100
AcDbEntity
  8
Layer 1
 62
     7
370
    18
100
AcDbVertex
100
AcDb2dVertex
 10
0.7904111014472113
 20
5.797411176893446
 30
0.0
  0
SEQEND
  5
545
330
542
100
AcDbEntity
  8
Layer 1
 62
     7
370
    18
  0
POLYLINE
  5
546
330
1F
100
AcDbEntity
  8
Layer 1
 62
     7
370
    18
100
AcDb2dPolyline
 66
     1
 10
0.0
 20
0.0
 30
0.0
  0
VERTEX
  5
547
330
546
100
AcDbEntity
  8
Layer 1
 62
     7
370
    18
100
AcDbVertex
100
AcDb2dVertex
 10
0.8096152941385905
 20
5.391659630669488
 30
0.0
  0
VERTEX
  5
548
330
546
100
AcDbEntity
  8
Layer 1
 62
     7
370
    18
100
AcDbVertex
100
AcDb2dVertex
 10
0.8096680641174316
 20
5.403041839599609
 30
0.0
  0
SEQEND
  5
549
330
546
100
AcDbEntity
  8
Layer 1
 62
     7
370
    18
  0
POLYLINE
  5
54A
330
1F
100
AcDbEntity
  8
Layer 1
 62
     7
370
    18
100
AcDb2dPolyline
 66
     1
 10
0.0
 20
0.0
 30
0.0
  0
VERTEX
  5
54B
330
54A
100
AcDbEntity
  8
Layer 1
 62
     7
370
    18
100
AcDbVertex
100
AcDb2dVertex
 10
0.8096680641174316
 20
5.403041839599609
 30
0.0
  0
VERTEX
  5
54C
330
54A
100
AcDbEntity
  8
Layer 1
 62
     7
370
    18
100
AcDbVertex
100
AcDb2dVertex
 10
0.8092569245232476
 20
5.446934594048394
 30
0.0
  0
SEQEND
  5
54D
330
54A
100
AcDbEntity
  8
Layer 1
 62
     7
370
    18
  0
POLYLINE
  5
54E
330
1F
100
AcDbEntity
  8
Layer 1
 62
     7
370
    18
100
AcDb2dPolyline
 66
     1
 10
0.0
 20
0.0
 30
0.0
  0
VERTEX
  5
54F
330
54E
100
AcDbEntity
  8
Layer 1
 62
     7
370
    18
100
AcDbVertex
100
AcDb2dVertex
 10
0.789104143778483
 20
4.767320844862196
 30
0.0
  0
VERTEX
  5
550
330
54E
100
AcDbEntity
  8
Layer 1
 62
     7
370
    18
100
AcDbVertex
100
AcDb2dVertex
 10
0.7959333525763617
 20
4.774150000678168
 30
0.0
  0
SEQEND
  5
551
330
54E
100
AcDbEntity
  8
Layer 1
 62
     7
370
    18
  0
POLYLINE
  5
552
330
1F
100
AcDbEntity
  8
Layer 1
 62
     7
370
    18
100
AcDb2dPolyline
 66
     1
 10
0.0
 20
0.0
 30
0.0
  0
VERTEX
  5
553
330
552
100
AcDbEntity
  8
Layer 1
 62
     7
370
    18
100
AcDbVertex
100
AcDb2dVertex
 10
0.7978194554646809
 20
4.806609683566623
 30
0.0
  0
VERTEX
  5
554
330
552
100
AcDbEntity
  8
Layer 1
 62
     7
370
    18
100
AcDbVertex
100
AcDb2dVertex
 10
0.8096152941385905
 20
5.391659630669488
 30
0.0
  0
SEQEND
  5
555
330
552
100
AcDbEntity
  8
Layer 1
 62
     7
370
    18
  0
POLYLINE
  5
556
330
1F
100
AcDbEntity
  8
Layer 1
 62
     7
370
    18
100
AcDb2dPolyline
 66
     1
 10
0.0
 20
0.0
 30
0.0
  0
VERTEX
  5
557
330
556
100
AcDbEntity
  8
Layer 1
 62
     7
370
    18
100
AcDbVertex
100
AcDb2dVertex
 10
0.7959333525763617
 20
4.774150000678168
 30
0.0
  0
VERTEX
  5
558
330
556
100
AcDbEntity
  8
Layer 1
 62
     7
370
    18
100
AcDbVertex
100
AcDb2dVertex
 10
0.7966791788736979
 20
4.778564029269748
 30
0.0
  0
VERTEX
  5
559
330
556
100
AcDbEntity
  8
Layer 1
 62
     7
370
    18
100
AcDbVertex
100
AcDb2dVertex
 10
0.797333346472846
 20
4.789806789822048
 30
0.0
  0
VERTEX
  5
55A
330
556
100
AcDbEntity
  8
Layer 1
 62
     7
370
    18
100
AcDbVertex
100
AcDb2dVertex
 10
0.7978194554646809
 20
4.806609683566623
 30
0.0
  0
SEQEND
  5
55B
330
556
100
AcDbEntity
  8
Layer 1
 62
     7
370
    18
  0
POLYLINE
  5
55C
330
1F
100
AcDbEntity
  8
Layer 1
 62
     7
370
    18
100
AcDb2dPolyline
 66
     1
 10
0.0
 20
0.0
 30
0.0
  0
VERTEX
  5
55D
330
55C
100
AcDbEntity
  8
Layer 1
 62
     7
370
    18
100
AcDbVertex
100
AcDb2dVertex
 10
0.7760778003268771
 20
4.669241587320963
 30
0.0
  0
VERTEX
  5
55E
330
55C
100
AcDbEntity
  8
Layer 1
 62
     7
370
    18
100
AcDbVertex
100
AcDb2dVertex
 10
0.7850749757554796
 20
4.678238762749566
 30
0.0
  0
SEQEND
  5
55F
330
55C
100
AcDbEntity
  8
Layer 1
 62
     7
370
    18
  0
POLYLINE
  5
560
330
1F
100
AcDbEntity
  8
Layer 1
 62
     7
370
    18
100
AcDb2dPolyline
 66
     1
 10
0.0
 20
0.0
 30
0.0
  0
VERTEX
  5
561
330
560
100
AcDbEntity
  8
Layer 1
 62
     7
370
    18
100
AcDbVertex
100
AcDb2dVertex
 10
1.485106892055935
 20
4.783629099527994
 30
0.0
  0
VERTEX
  5
562
330
560
100
AcDbEntity
  8
Layer 1
 62
     7
370
    18
100
AcDbVertex
100
AcDb2dVertex
 10
0.9031069013807508
 20
4.783629099527994
 30
0.0
  0
SEQEND
  5
563
330
560
100
AcDbEntity
  8
Layer 1
 62
     7
370
    18
  0
POLYLINE
  5
564
330
1F
100
AcDbEntity
  8
Layer 1
 62
     7
370
    18
100
AcDb2dPolyline
 66
     1
 10
0.0
 20
0.0
 30
0.0
  0
VERTEX
  5
565
330
564
100
AcDbEntity
  8
Layer 1
 62
     7
370
    18
100
AcDbVertex
100
AcDb2dVertex
 10
1.271947224934896
 20
4.827546013726129
 30
0.0
  0
VERTEX
  5
566
330
564
100
AcDbEntity
  8
Layer 1
 62
     7
370
    18
100
AcDbVertex
100
AcDb2dVertex
 10
1.270437452528212
 20
4.844412485758463
 30
0.0
  0
SEQEND
  5
567
330
564
100
AcDbEntity
  8
Layer 1
 62
     7
370
    18
  0
POLYLINE
  5
568
330
1F
100
AcDbEntity
  8
Layer 1
 62
     7
370
    18
100
AcDb2dPolyline
 66
     1
 10
0.0
 20
0.0
 30
0.0
  0
VERTEX
  5
569
330
568
100
AcDbEntity
  8
Layer 1
 62
     7
370
    18
100
AcDbVertex
100
AcDb2dVertex
 10
1.113106939527724
 20
4.819651285807291
 30
0.0
  0
VERTEX
  5
56A
330
568
100
AcDbEntity
  8
Layer 1
 62
     7
370
    18
100
AcDbVertex
100
AcDb2dVertex
 10
1.112345801459418
 20
4.824633280436197
 30
0.0
  0
VERTEX
  5
56B
330
568
100
AcDbEntity
  8
Layer 1
 62
     7
370
    18
100
AcDbVertex
100
AcDb2dVertex
 10
1.112340291341146
 20
4.827151404486762
 30
0.0
  0
SEQEND
  5
56C
330
568
100
AcDbEntity
  8
Layer 1
 62
     7
370
    18
  0
POLYLINE
  5
56D
330
1F
100
AcDbEntity
  8
Layer 1
 62
     7
370
    18
100
AcDb2dPolyline
 66
     1
 10
0.0
 20
0.0
 30
0.0
  0
VERTEX
  5
56E
330
56D
100
AcDbEntity
  8
Layer 1
 62
     7
370
    18
100
AcDbVertex
100
AcDb2dVertex
 10
1.111305554707845
 20
4.828498416476779
 30
0.0
  0
VERTEX
  5
56F
330
56D
100
AcDbEntity
  8
Layer 1
 62
     7
370
    18
100
AcDbVertex
100
AcDb2dVertex
 10
1.111305554707845
 20
4.857843187120225
 30
0.0
  0
SEQEND
  5
570
330
56D
100
AcDbEntity
  8
Layer 1
 62
     7
370
    18
  0
POLYLINE
  5
571
330
1F
100
AcDbEntity
  8
Layer 1
 62
     7
370
    18
100
AcDb2dPolyline
 66
     1
 10
0.0
 20
0.0
 30
0.0
  0
VERTEX
  5
572
330
571
100
AcDbEntity
  8
Layer 1
 62
     7
370
    18
100
AcDbVertex
100
AcDb2dVertex
 10
1.11093192630344
 20
4.841755761040582
 30
0.0
  0
VERTEX
  5
573
330
571
100
AcDbEntity
  8
Layer 1
 62
     7
370
    18
100
AcDbVertex
100
AcDb2dVertex
 10
1.11093192630344
 20
4.86175537109375
 30
0.0
  0
SEQEND
  5
574
330
571
100
AcDbEntity
  8
Layer 1
 62
     7
370
    18
  0
POLYLINE
  5
575
330
1F
100
AcDbEntity
  8
Layer 1
 62
     7
370
    18
100
AcDb2dPolyline
 66
     1
 10
0.0
 20
0.0
 30
0.0
  0
VERTEX
  5
576
330
575
100
AcDbEntity
  8
Layer 1
 62
     7
370
    18
100
AcDbVertex
100
AcDb2dVertex
 10
1.116266674465603
 20
4.827546013726129
 30
0.0
  0
VERTEX
  5
577
330
575
100
AcDbEntity
  8
Layer 1
 62
     7
370
    18
100
AcDbVertex
100
AcDb2dVertex
 10
1.117776340908474
 20
4.844412485758463
 30
0.0
  0
SEQEND
  5
578
330
575
100
AcDbEntity
  8
Layer 1
 62
     7
370
    18
  0
POLYLINE
  5
579
330
1F
100
AcDbEntity
  8
Layer 1
 62
     7
370
    18
100
AcDb2dPolyline
 66
     1
 10
0.0
 20
0.0
 30
0.0
  0
VERTEX
  5
57A
330
579
100
AcDbEntity
  8
Layer 1
 62
     7
370
    18
100
AcDbVertex
100
AcDb2dVertex
 10
1.275873608059353
 20
4.827151404486762
 30
0.0
  0
VERTEX
  5
57B
330
579
100
AcDbEntity
  8
Layer 1
 62
     7
370
    18
100
AcDbVertex
100
AcDb2dVertex
 10
1.275868097941081
 20
4.824633280436197
 30
0.0
  0
VERTEX
  5
57C
330
579
100
AcDbEntity
  8
Layer 1
 62
     7
370
    18
100
AcDbVertex
100
AcDb2dVertex
 10
1.275106959872776
 20
4.819651285807291
 30
0.0
  0
SEQEND
  5
57D
330
579
100
AcDbEntity
  8
Layer 1
 62
     7
370
    18
  0
POLYLINE
  5
57E
330
1F
100
AcDbEntity
  8
Layer 1
 62
     7
370
    18
100
AcDb2dPolyline
 66
     1
 10
0.0
 20
0.0
 30
0.0
  0
VERTEX
  5
57F
330
57E
100
AcDbEntity
  8
Layer 1
 62
     7
370
    18
100
AcDbVertex
100
AcDb2dVertex
 10
0.9031069013807508
 20
4.841755761040582
 30
0.0
  0
VERTEX
  5
580
330
57E
100
AcDbEntity
  8
Layer 1
 62
     7
370
    18
100
AcDbVertex
100
AcDb2dVertex
 10
1.11093192630344
 20
4.841755761040582
 30
0.0
  0
SEQEND
  5
581
330
57E
100
AcDbEntity
  8
Layer 1
 62
     7
370
    18
  0
POLYLINE
  5
582
330
1F
100
AcDbEntity
  8
Layer 1
 62
     7
370
    18
100
AcDb2dPolyline
 66
     1
 10
0.0
 20
0.0
 30
0.0
  0
VERTEX
  5
583
330
582
100
AcDbEntity
  8
Layer 1
 62
     7
370
    18
100
AcDbVertex
100
AcDb2dVertex
 10
1.276908344692654
 20
4.828498416476779
 30
0.0
  0
VERTEX
  5
584
330
582
100
AcDbEntity
  8
Layer 1
 62
     7
370
    18
100
AcDbVertex
100
AcDb2dVertex
 10
1.275106959872776
 20
4.819651285807291
 30
0.0
  0
SEQEND
  5
585
330
582
100
AcDbEntity
  8
Layer 1
 62
     7
370
    18
  0
POLYLINE
  5
586
330
1F
100
AcDbEntity
  8
Layer 1
 62
     7
370
    18
100
AcDb2dPolyline
 66
     1
 10
0.0
 20
0.0
 30
0.0
  0
VERTEX
  5
587
330
586
100
AcDbEntity
  8
Layer 1
 62
     7
370
    18
100
AcDbVertex
100
AcDb2dVertex
 10
1.111212518480089
 20
4.830827924940321
 30
0.0
  0
VERTEX
  5
588
330
586
100
AcDbEntity
  8
Layer 1
 62
     7
370
    18
100
AcDbVertex
100
AcDb2dVertex
 10
0.9031069013807508
 20
4.830827924940321
 30
0.0
  0
SEQEND
  5
589
330
586
100
AcDbEntity
  8
Layer 1
 62
     7
370
    18
  0
POLYLINE
  5
58A
330
1F
100
AcDbEntity
  8
Layer 1
 62
     7
370
    18
100
AcDb2dPolyline
 66
     1
 10
0.0
 20
0.0
 30
0.0
  0
VERTEX
  5
58B
330
58A
100
AcDbEntity
  8
Layer 1
 62
     7
370
    18
100
AcDbVertex
100
AcDb2dVertex
 10
1.111212518480089
 20
4.830827924940321
 30
0.0
  0
VERTEX
  5
58C
330
58A
100
AcDbEntity
  8
Layer 1
 62
     7
370
    18
100
AcDbVertex
100
AcDb2dVertex
 10
1.111305554707845
 20
4.828498416476779
 30
0.0
  0
SEQEND
  5
58D
330
58A
100
AcDbEntity
  8
Layer 1
 62
     7
370
    18
  0
POLYLINE
  5
58E
330
1F
100
AcDbEntity
  8
Layer 1
 62
     7
370
    18
100
AcDb2dPolyline
 66
     1
 10
0.0
 20
0.0
 30
0.0
  0
VERTEX
  5
58F
330
58E
100
AcDbEntity
  8
Layer 1
 62
     7
370
    18
100
AcDbVertex
100
AcDb2dVertex
 10
1.113106939527724
 20
4.819651285807291
 30
0.0
  0
VERTEX
  5
590
330
58E
100
AcDbEntity
  8
Layer 1
 62
     7
370
    18
100
AcDbVertex
100
AcDb2dVertex
 10
1.111305554707845
 20
4.828498416476779
 30
0.0
  0
SEQEND
  5
591
330
58E
100
AcDbEntity
  8
Layer 1
 62
     7
370
    18
  0
POLYLINE
  5
592
330
1F
100
AcDbEntity
  8
Layer 1
 62
     7
370
    18
100
AcDb2dPolyline
 66
     1
 10
0.0
 20
0.0
 30
0.0
  0
VERTEX
  5
593
330
592
100
AcDbEntity
  8
Layer 1
 62
     7
370
    18
100
AcDbVertex
100
AcDb2dVertex
 10
1.275106959872776
 20
4.819651285807291
 30
0.0
  0
VERTEX
  5
594
330
592
100
AcDbEntity
  8
Layer 1
 62
     7
370
    18
100
AcDbVertex
100
AcDb2dVertex
 10
1.113106939527724
 20
4.819651285807291
 30
0.0
  0
SEQEND
  5
595
330
592
100
AcDbEntity
  8
Layer 1
 62
     7
370
    18
  0
POLYLINE
  5
596
330
1F
100
AcDbEntity
  8
Layer 1
 62
     7
370
    18
100
AcDb2dPolyline
 66
     1
 10
0.0
 20
0.0
 30
0.0
  0
VERTEX
  5
597
330
596
100
AcDbEntity
  8
Layer 1
 62
     7
370
    18
100
AcDbVertex
100
AcDb2dVertex
 10
1.11093192630344
 20
4.841755761040582
 30
0.0
  0
VERTEX
  5
598
330
596
100
AcDbEntity
  8
Layer 1
 62
     7
370
    18
100
AcDbVertex
100
AcDb2dVertex
 10
1.111013836330838
 20
4.836898803710938
 30
0.0
  0
VERTEX
  5
599
330
596
100
AcDbEntity
  8
Layer 1
 62
     7
370
    18
100
AcDbVertex
100
AcDb2dVertex
 10
1.111212518480089
 20
4.830827924940321
 30
0.0
  0
SEQEND
  5
59A
330
596
100
AcDbEntity
  8
Layer 1
 62
     7
370
    18
  0
POLYLINE
  5
59B
330
1F
100
AcDbEntity
  8
Layer 1
 62
     7
370
    18
100
AcDb2dPolyline
 66
     1
 10
0.0
 20
0.0
 30
0.0
  0
VERTEX
  5
59C
330
59B
100
AcDbEntity
  8
Layer 1
 62
     7
370
    18
100
AcDbVertex
100
AcDb2dVertex
 10
1.271947224934896
 20
4.827546013726129
 30
0.0
  0
VERTEX
  5
59D
330
59B
100
AcDbEntity
  8
Layer 1
 62
     7
370
    18
100
AcDbVertex
100
AcDb2dVertex
 10
1.116266674465603
 20
4.827546013726129
 30
0.0
  0
SEQEND
  5
59E
330
59B
100
AcDbEntity
  8
Layer 1
 62
     7
370
    18
  0
POLYLINE
  5
59F
330
1F
100
AcDbEntity
  8
Layer 1
 62
     7
370
    18
100
AcDb2dPolyline
 66
     1
 10
0.0
 20
0.0
 30
0.0
  0
VERTEX
  5
5A0
330
59F
100
AcDbEntity
  8
Layer 1
 62
     7
370
    18
100
AcDbVertex
100
AcDb2dVertex
 10
1.277281973097059
 20
4.841755761040582
 30
0.0
  0
VERTEX
  5
5A1
330
59F
100
AcDbEntity
  8
Layer 1
 62
     7
370
    18
100
AcDbVertex
100
AcDb2dVertex
 10
1.277281973097059
 20
4.86175537109375
 30
0.0
  0
SEQEND
  5
5A2
330
59F
100
AcDbEntity
  8
Layer 1
 62
     7
370
    18
  0
POLYLINE
  5
5A3
330
1F
100
AcDbEntity
  8
Layer 1
 62
     7
370
    18
100
AcDb2dPolyline
 66
     1
 10
0.0
 20
0.0
 30
0.0
  0
VERTEX
  5
5A4
330
5A3
100
AcDbEntity
  8
Layer 1
 62
     7
370
    18
100
AcDbVertex
100
AcDb2dVertex
 10
1.277002758449978
 20
4.830827924940321
 30
0.0
  0
VERTEX
  5
5A5
330
5A3
100
AcDbEntity
  8
Layer 1
 62
     7
370
    18
100
AcDbVertex
100
AcDb2dVertex
 10
1.276908344692654
 20
4.828498416476779
 30
0.0
  0
SEQEND
  5
5A6
330
5A3
100
AcDbEntity
  8
Layer 1
 62
     7
370
    18
  0
POLYLINE
  5
5A7
330
1F
100
AcDbEntity
  8
Layer 1
 62
     7
370
    18
100
AcDb2dPolyline
 66
     1
 10
0.0
 20
0.0
 30
0.0
  0
VERTEX
  5
5A8
330
5A7
100
AcDbEntity
  8
Layer 1
 62
     7
370
    18
100
AcDbVertex
100
AcDb2dVertex
 10
1.276908344692654
 20
4.828498416476779
 30
0.0
  0
VERTEX
  5
5A9
330
5A7
100
AcDbEntity
  8
Layer 1
 62
     7
370
    18
100
AcDbVertex
100
AcDb2dVertex
 10
1.276908344692654
 20
4.857843187120225
 30
0.0
  0
SEQEND
  5
5AA
330
5A7
100
AcDbEntity
  8
Layer 1
 62
     7
370
    18
  0
POLYLINE
  5
5AB
330
1F
100
AcDbEntity
  8
Layer 1
 62
     7
370
    18
100
AcDb2dPolyline
 66
     1
 10
0.0
 20
0.0
 30
0.0
  0
VERTEX
  5
5AC
330
5AB
100
AcDbEntity
  8
Layer 1
 62
     7
370
    18
100
AcDbVertex
100
AcDb2dVertex
 10
1.275873608059353
 20
4.827151404486762
 30
0.0
  0
VERTEX
  5
5AD
330
5AB
100
AcDbEntity
  8
Layer 1
 62
     7
370
    18
100
AcDbVertex
100
AcDb2dVertex
 10
1.271947224934896
 20
4.827546013726129
 30
0.0
  0
SEQEND
  5
5AE
330
5AB
100
AcDbEntity
  8
Layer 1
 62
     7
370
    18
  0
POLYLINE
  5
5AF
330
1F
100
AcDbEntity
  8
Layer 1
 62
     7
370
    18
100
AcDb2dPolyline
 66
     1
 10
0.0
 20
0.0
 30
0.0
  0
VERTEX
  5
5B0
330
5AF
100
AcDbEntity
  8
Layer 1
 62
     7
370
    18
100
AcDbVertex
100
AcDb2dVertex
 10
1.112340291341146
 20
4.827151404486762
 30
0.0
  0
VERTEX
  5
5B1
330
5AF
100
AcDbEntity
  8
Layer 1
 62
     7
370
    18
100
AcDbVertex
100
AcDb2dVertex
 10
1.275873608059353
 20
4.827151404486762
 30
0.0
  0
SEQEND
  5
5B2
330
5AF
100
AcDbEntity
  8
Layer 1
 62
     7
370
    18
  0
POLYLINE
  5
5B3
330
1F
100
AcDbEntity
  8
Layer 1
 62
     7
370
    18
100
AcDb2dPolyline
 66
     1
 10
0.0
 20
0.0
 30
0.0
  0
VERTEX
  5
5B4
330
5B3
100
AcDbEntity
  8
Layer 1
 62
     7
370
    18
100
AcDbVertex
100
AcDb2dVertex
 10
1.116266674465603
 20
4.827546013726129
 30
0.0
  0
VERTEX
  5
5B5
330
5B3
100
AcDbEntity
  8
Layer 1
 62
     7
370
    18
100
AcDbVertex
100
AcDb2dVertex
 10
1.112340291341146
 20
4.827151404486762
 30
0.0
  0
SEQEND
  5
5B6
330
5B3
100
AcDbEntity
  8
Layer 1
 62
     7
370
    18
  0
POLYLINE
  5
5B7
330
1F
100
AcDbEntity
  8
Layer 1
 62
     7
370
    18
100
AcDb2dPolyline
 66
     1
 10
0.0
 20
0.0
 30
0.0
  0
VERTEX
  5
5B8
330
5B7
100
AcDbEntity
  8
Layer 1
 62
     7
370
    18
100
AcDbVertex
100
AcDb2dVertex
 10
1.76593197716607
 20
4.841755761040582
 30
0.0
  0
VERTEX
  5
5B9
330
5B7
100
AcDbEntity
  8
Layer 1
 62
     7
370
    18
100
AcDbVertex
100
AcDb2dVertex
 10
1.76593197716607
 20
4.86175537109375
 30
0.0
  0
SEQEND
  5
5BA
330
5B7
100
AcDbEntity
  8
Layer 1
 62
     7
370
    18
  0
POLYLINE
  5
5BB
330
1F
100
AcDbEntity
  8
Layer 1
 62
     7
370
    18
100
AcDb2dPolyline
 66
     1
 10
0.0
 20
0.0
 30
0.0
  0
VERTEX
  5
5BC
330
5BB
100
AcDbEntity
  8
Layer 1
 62
     7
370
    18
100
AcDbVertex
100
AcDb2dVertex
 10
1.768106990390354
 20
4.819651285807291
 30
0.0
  0
VERTEX
  5
5BD
330
5BB
100
AcDbEntity
  8
Layer 1
 62
     7
370
    18
100
AcDbVertex
100
AcDb2dVertex
 10
1.767345852322048
 20
4.824633280436197
 30
0.0
  0
VERTEX
  5
5BE
330
5BB
100
AcDbEntity
  8
Layer 1
 62
     7
370
    18
100
AcDbVertex
100
AcDb2dVertex
 10
1.767340236239963
 20
4.827151404486762
 30
0.0
  0
SEQEND
  5
5BF
330
5BB
100
AcDbEntity
  8
Layer 1
 62
     7
370
    18
  0
POLYLINE
  5
5C0
330
1F
100
AcDbEntity
  8
Layer 1
 62
     7
370
    18
100
AcDb2dPolyline
 66
     1
 10
0.0
 20
0.0
 30
0.0
  0
VERTEX
  5
5C1
330
5C0
100
AcDbEntity
  8
Layer 1
 62
     7
370
    18
100
AcDbVertex
100
AcDb2dVertex
 10
1.766305605570475
 20
4.828498416476779
 30
0.0
  0
VERTEX
  5
5C2
330
5C0
100
AcDbEntity
  8
Layer 1
 62
     7
370
    18
100
AcDbVertex
100
AcDb2dVertex
 10
1.766305605570475
 20
4.857843187120225
 30
0.0
  0
SEQEND
  5
5C3
330
5C0
100
AcDbEntity
  8
Layer 1
 62
     7
370
    18
  0
POLYLINE
  5
5C4
330
1F
100
AcDbEntity
  8
Layer 1
 62
     7
370
    18
100
AcDb2dPolyline
 66
     1
 10
0.0
 20
0.0
 30
0.0
  0
VERTEX
  5
5C5
330
5C4
100
AcDbEntity
  8
Layer 1
 62
     7
370
    18
100
AcDbVertex
100
AcDb2dVertex
 10
1.930873658921983
 20
4.827151404486762
 30
0.0
  0
VERTEX
  5
5C6
330
5C4
100
AcDbEntity
  8
Layer 1
 62
     7
370
    18
100
AcDbVertex
100
AcDb2dVertex
 10
1.930868148803711
 20
4.824633280436197
 30
0.0
  0
VERTEX
  5
5C7
330
5C4
100
AcDbEntity
  8
Layer 1
 62
     7
370
    18
100
AcDbVertex
100
AcDb2dVertex
 10
1.930106904771593
 20
4.819651285807291
 30
0.0
  0
SEQEND
  5
5C8
330
5C4
100
AcDbEntity
  8
Layer 1
 62
     7
370
    18
  0
POLYLINE
  5
5C9
330
1F
100
AcDbEntity
  8
Layer 1
 62
     7
370
    18
100
AcDb2dPolyline
 66
     1
 10
0.0
 20
0.0
 30
0.0
  0
VERTEX
  5
5CA
330
5C9
100
AcDbEntity
  8
Layer 1
 62
     7
370
    18
100
AcDbVertex
100
AcDb2dVertex
 10
2.140107048882379
 20
4.783629099527994
 30
0.0
  0
VERTEX
  5
5CB
330
5C9
100
AcDbEntity
  8
Layer 1
 62
     7
370
    18
100
AcDbVertex
100
AcDb2dVertex
 10
1.558106952243381
 20
4.783629099527994
 30
0.0
  0
SEQEND
  5
5CC
330
5C9
100
AcDbEntity
  8
Layer 1
 62
     7
370
    18
  0
POLYLINE
  5
5CD
330
1F
100
AcDbEntity
  8
Layer 1
 62
     7
370
    18
100
AcDb2dPolyline
 66
     1
 10
0.0
 20
0.0
 30
0.0
  0
VERTEX
  5
5CE
330
5CD
100
AcDbEntity
  8
Layer 1
 62
     7
370
    18
100
AcDbVertex
100
AcDb2dVertex
 10
1.77126661936442
 20
4.827546013726129
 30
0.0
  0
VERTEX
  5
5CF
330
5CD
100
AcDbEntity
  8
Layer 1
 62
     7
370
    18
100
AcDbVertex
100
AcDb2dVertex
 10
1.772776391771105
 20
4.844412485758463
 30
0.0
  0
SEQEND
  5
5D0
330
5CD
100
AcDbEntity
  8
Layer 1
 62
     7
370
    18
  0
POLYLINE
  5
5D1
330
1F
100
AcDbEntity
  8
Layer 1
 62
     7
370
    18
100
AcDb2dPolyline
 66
     1
 10
0.0
 20
0.0
 30
0.0
  0
VERTEX
  5
5D2
330
5D1
100
AcDbEntity
  8
Layer 1
 62
     7
370
    18
100
AcDbVertex
100
AcDb2dVertex
 10
1.926947275797526
 20
4.827546013726129
 30
0.0
  0
VERTEX
  5
5D3
330
5D1
100
AcDbEntity
  8
Layer 1
 62
     7
370
    18
100
AcDbVertex
100
AcDb2dVertex
 10
1.925437503390842
 20
4.844412485758463
 30
0.0
  0
SEQEND
  5
5D4
330
5D1
100
AcDbEntity
  8
Layer 1
 62
     7
370
    18
  0
POLYLINE
  5
5D5
330
1F
100
AcDbEntity
  8
Layer 1
 62
     7
370
    18
100
AcDb2dPolyline
 66
     1
 10
0.0
 20
0.0
 30
0.0
  0
VERTEX
  5
5D6
330
5D5
100
AcDbEntity
  8
Layer 1
 62
     7
370
    18
100
AcDbVertex
100
AcDb2dVertex
 10
1.558106952243381
 20
4.841755761040582
 30
0.0
  0
VERTEX
  5
5D7
330
5D5
100
AcDbEntity
  8
Layer 1
 62
     7
370
    18
100
AcDbVertex
100
AcDb2dVertex
 10
1.76593197716607
 20
4.841755761040582
 30
0.0
  0
SEQEND
  5
5D8
330
5D5
100
AcDbEntity
  8
Layer 1
 62
     7
370
    18
  0
POLYLINE
  5
5D9
330
1F
100
AcDbEntity
  8
Layer 1
 62
     7
370
    18
100
AcDb2dPolyline
 66
     1
 10
0.0
 20
0.0
 30
0.0
  0
VERTEX
  5
5DA
330
5D9
100
AcDbEntity
  8
Layer 1
 62
     7
370
    18
100
AcDbVertex
100
AcDb2dVertex
 10
1.931908289591471
 20
4.828498416476779
 30
0.0
  0
VERTEX
  5
5DB
330
5D9
100
AcDbEntity
  8
Layer 1
 62
     7
370
    18
100
AcDbVertex
100
AcDb2dVertex
 10
1.930106904771593
 20
4.819651285807291
 30
0.0
  0
SEQEND
  5
5DC
330
5D9
100
AcDbEntity
  8
Layer 1
 62
     7
370
    18
  0
POLYLINE
  5
5DD
330
1F
100
AcDbEntity
  8
Layer 1
 62
     7
370
    18
100
AcDb2dPolyline
 66
     1
 10
0.0
 20
0.0
 30
0.0
  0
VERTEX
  5
5DE
330
5DD
100
AcDbEntity
  8
Layer 1
 62
     7
370
    18
100
AcDbVertex
100
AcDb2dVertex
 10
1.768106990390354
 20
4.819651285807291
 30
0.0
  0
VERTEX
  5
5DF
330
5DD
100
AcDbEntity
  8
Layer 1
 62
     7
370
    18
100
AcDbVertex
100
AcDb2dVertex
 10
1.766305605570475
 20
4.828498416476779
 30
0.0
  0
SEQEND
  5
5E0
330
5DD
100
AcDbEntity
  8
Layer 1
 62
     7
370
    18
  0
POLYLINE
  5
5E1
330
1F
100
AcDbEntity
  8
Layer 1
 62
     7
370
    18
100
AcDb2dPolyline
 66
     1
 10
0.0
 20
0.0
 30
0.0
  0
VERTEX
  5
5E2
330
5E1
100
AcDbEntity
  8
Layer 1
 62
     7
370
    18
100
AcDbVertex
100
AcDb2dVertex
 10
1.766212463378906
 20
4.830827924940321
 30
0.0
  0
VERTEX
  5
5E3
330
5E1
100
AcDbEntity
  8
Layer 1
 62
     7
370
    18
100
AcDbVertex
100
AcDb2dVertex
 10
1.766305605570475
 20
4.828498416476779
 30
0.0
  0
SEQEND
  5
5E4
330
5E1
100
AcDbEntity
  8
Layer 1
 62
     7
370
    18
  0
POLYLINE
  5
5E5
330
1F
100
AcDbEntity
  8
Layer 1
 62
     7
370
    18
100
AcDb2dPolyline
 66
     1
 10
0.0
 20
0.0
 30
0.0
  0
VERTEX
  5
5E6
330
5E5
100
AcDbEntity
  8
Layer 1
 62
     7
370
    18
100
AcDbVertex
100
AcDb2dVertex
 10
1.77126661936442
 20
4.827546013726129
 30
0.0
  0
VERTEX
  5
5E7
330
5E5
100
AcDbEntity
  8
Layer 1
 62
     7
370
    18
100
AcDbVertex
100
AcDb2dVertex
 10
1.767340236239963
 20
4.827151404486762
 30
0.0
  0
SEQEND
  5
5E8
330
5E5
100
AcDbEntity
  8
Layer 1
 62
     7
370
    18
  0
POLYLINE
  5
5E9
330
1F
100
AcDbEntity
  8
Layer 1
 62
     7
370
    18
100
AcDb2dPolyline
 66
     1
 10
0.0
 20
0.0
 30
0.0
  0
VERTEX
  5
5EA
330
5E9
100
AcDbEntity
  8
Layer 1
 62
     7
370
    18
100
AcDbVertex
100
AcDb2dVertex
 10
1.930106904771593
 20
4.819651285807291
 30
0.0
  0
VERTEX
  5
5EB
330
5E9
100
AcDbEntity
  8
Layer 1
 62
     7
370
    18
100
AcDbVertex
100
AcDb2dVertex
 10
1.768106990390354
 20
4.819651285807291
 30
0.0
  0
SEQEND
  5
5EC
330
5E9
100
AcDbEntity
  8
Layer 1
 62
     7
370
    18
  0
POLYLINE
  5
5ED
330
1F
100
AcDbEntity
  8
Layer 1
 62
     7
370
    18
100
AcDb2dPolyline
 66
     1
 10
0.0
 20
0.0
 30
0.0
  0
VERTEX
  5
5EE
330
5ED
100
AcDbEntity
  8
Layer 1
 62
     7
370
    18
100
AcDbVertex
100
AcDb2dVertex
 10
1.767340236239963
 20
4.827151404486762
 30
0.0
  0
VERTEX
  5
5EF
330
5ED
100
AcDbEntity
  8
Layer 1
 62
     7
370
    18
100
AcDbVertex
100
AcDb2dVertex
 10
1.930873658921983
 20
4.827151404486762
 30
0.0
  0
SEQEND
  5
5F0
330
5ED
100
AcDbEntity
  8
Layer 1
 62
     7
370
    18
  0
POLYLINE
  5
5F1
330
1F
100
AcDbEntity
  8
Layer 1
 62
     7
370
    18
100
AcDb2dPolyline
 66
     1
 10
0.0
 20
0.0
 30
0.0
  0
VERTEX
  5
5F2
330
5F1
100
AcDbEntity
  8
Layer 1
 62
     7
370
    18
100
AcDbVertex
100
AcDb2dVertex
 10
1.76593197716607
 20
4.841755761040582
 30
0.0
  0
VERTEX
  5
5F3
330
5F1
100
AcDbEntity
  8
Layer 1
 62
     7
370
    18
100
AcDbVertex
100
AcDb2dVertex
 10
1.766013887193468
 20
4.836898803710938
 30
0.0
  0
VERTEX
  5
5F4
330
5F1
100
AcDbEntity
  8
Layer 1
 62
     7
370
    18
100
AcDbVertex
100
AcDb2dVertex
 10
1.766212463378906
 20
4.830827924940321
 30
0.0
  0
SEQEND
  5
5F5
330
5F1
100
AcDbEntity
  8
Layer 1
 62
     7
370
    18
  0
POLYLINE
  5
5F6
330
1F
100
AcDbEntity
  8
Layer 1
 62
     7
370
    18
100
AcDb2dPolyline
 66
     1
 10
0.0
 20
0.0
 30
0.0
  0
VERTEX
  5
5F7
330
5F6
100
AcDbEntity
  8
Layer 1
 62
     7
370
    18
100
AcDbVertex
100
AcDb2dVertex
 10
1.766212463378906
 20
4.830827924940321
 30
0.0
  0
VERTEX
  5
5F8
330
5F6
100
AcDbEntity
  8
Layer 1
 62
     7
370
    18
100
AcDbVertex
100
AcDb2dVertex
 10
1.558106952243381
 20
4.830827924940321
 30
0.0
  0
SEQEND
  5
5F9
330
5F6
100
AcDbEntity
  8
Layer 1
 62
     7
370
    18
  0
POLYLINE
  5
5FA
330
1F
100
AcDbEntity
  8
Layer 1
 62
     7
370
    18
100
AcDb2dPolyline
 66
     1
 10
0.0
 20
0.0
 30
0.0
  0
VERTEX
  5
5FB
330
5FA
100
AcDbEntity
  8
Layer 1
 62
     7
370
    18
100
AcDbVertex
100
AcDb2dVertex
 10
1.932281917995877
 20
4.841755761040582
 30
0.0
  0
VERTEX
  5
5FC
330
5FA
100
AcDbEntity
  8
Layer 1
 62
     7
370
    18
100
AcDbVertex
100
AcDb2dVertex
 10
1.932281917995877
 20
4.86175537109375
 30
0.0
  0
SEQEND
  5
5FD
330
5FA
100
AcDbEntity
  8
Layer 1
 62
     7
370
    18
  0
POLYLINE
  5
5FE
330
1F
100
AcDbEntity
  8
Layer 1
 62
     7
370
    18
100
AcDb2dPolyline
 66
     1
 10
0.0
 20
0.0
 30
0.0
  0
VERTEX
  5
5FF
330
5FE
100
AcDbEntity
  8
Layer 1
 62
     7
370
    18
100
AcDbVertex
100
AcDb2dVertex
 10
1.932001325819227
 20
4.830827924940321
 30
0.0
  0
VERTEX
  5
600
330
5FE
100
AcDbEntity
  8
Layer 1
 62
     7
370
    18
100
AcDbVertex
100
AcDb2dVertex
 10
1.931908289591471
 20
4.828498416476779
 30
0.0
  0
SEQEND
  5
601
330
5FE
100
AcDbEntity
  8
Layer 1
 62
     7
370
    18
  0
POLYLINE
  5
602
330
1F
100
AcDbEntity
  8
Layer 1
 62
     7
370
    18
100
AcDb2dPolyline
 66
     1
 10
0.0
 20
0.0
 30
0.0
  0
VERTEX
  5
603
330
602
100
AcDbEntity
  8
Layer 1
 62
     7
370
    18
100
AcDbVertex
100
AcDb2dVertex
 10
1.931908289591471
 20
4.828498416476779
 30
0.0
  0
VERTEX
  5
604
330
602
100
AcDbEntity
  8
Layer 1
 62
     7
370
    18
100
AcDbVertex
100
AcDb2dVertex
 10
1.931908289591471
 20
4.857843187120225
 30
0.0
  0
SEQEND
  5
605
330
602
100
AcDbEntity
  8
Layer 1
 62
     7
370
    18
  0
POLYLINE
  5
606
330
1F
100
AcDbEntity
  8
Layer 1
 62
     7
370
    18
100
AcDb2dPolyline
 66
     1
 10
0.0
 20
0.0
 30
0.0
  0
VERTEX
  5
607
330
606
100
AcDbEntity
  8
Layer 1
 62
     7
370
    18
100
AcDbVertex
100
AcDb2dVertex
 10
1.926947275797526
 20
4.827546013726129
 30
0.0
  0
VERTEX
  5
608
330
606
100
AcDbEntity
  8
Layer 1
 62
     7
370
    18
100
AcDbVertex
100
AcDb2dVertex
 10
1.77126661936442
 20
4.827546013726129
 30
0.0
  0
SEQEND
  5
609
330
606
100
AcDbEntity
  8
Layer 1
 62
     7
370
    18
  0
POLYLINE
  5
60A
330
1F
100
AcDbEntity
  8
Layer 1
 62
     7
370
    18
100
AcDb2dPolyline
 66
     1
 10
0.0
 20
0.0
 30
0.0
  0
VERTEX
  5
60B
330
60A
100
AcDbEntity
  8
Layer 1
 62
     7
370
    18
100
AcDbVertex
100
AcDb2dVertex
 10
1.930873658921983
 20
4.827151404486762
 30
0.0
  0
VERTEX
  5
60C
330
60A
100
AcDbEntity
  8
Layer 1
 62
     7
370
    18
100
AcDbVertex
100
AcDb2dVertex
 10
1.926947275797526
 20
4.827546013726129
 30
0.0
  0
SEQEND
  5
60D
330
60A
100
AcDbEntity
  8
Layer 1
 62
     7
370
    18
  0
POLYLINE
  5
60E
330
1F
100
AcDbEntity
  8
Layer 1
 62
     7
370
    18
100
AcDb2dPolyline
 66
     1
 10
0.0
 20
0.0
 30
0.0
  0
VERTEX
  5
60F
330
60E
100
AcDbEntity
  8
Layer 1
 62
     7
370
    18
100
AcDbVertex
100
AcDb2dVertex
 10
0.8703833156161838
 20
6.072182125515408
 30
0.0
  0
VERTEX
  5
610
330
60E
100
AcDbEntity
  8
Layer 1
 62
     7
370
    18
100
AcDbVertex
100
AcDb2dVertex
 10
0.8703833156161838
 20
6.044229295518663
 30
0.0
  0
SEQEND
  5
611
330
60E
100
AcDbEntity
  8
Layer 1
 62
     7
370
    18
  0
POLYLINE
  5
612
330
1F
100
AcDbEntity
  8
Layer 1
 62
     7
370
    18
100
AcDb2dPolyline
 66
     1
 10
0.0
 20
0.0
 30
0.0
  0
VERTEX
  5
613
330
612
100
AcDbEntity
  8
Layer 1
 62
     7
370
    18
100
AcDbVertex
100
AcDb2dVertex
 10
0.8610250155131022
 20
6.277542961968315
 30
0.0
  0
VERTEX
  5
614
330
612
100
AcDbEntity
  8
Layer 1
 62
     7
370
    18
100
AcDbVertex
100
AcDb2dVertex
 10
0.8665069474114312
 20
6.272059546576606
 30
0.0
  0
SEQEND
  5
615
330
612
100
AcDbEntity
  8
Layer 1
 62
     7
370
    18
  0
POLYLINE
  5
616
330
1F
100
AcDbEntity
  8
Layer 1
 62
     7
370
    18
100
AcDb2dPolyline
 66
     1
 10
0.0
 20
0.0
 30
0.0
  0
VERTEX
  5
617
330
616
100
AcDbEntity
  8
Layer 1
 62
     7
370
    18
100
AcDbVertex
100
AcDb2dVertex
 10
3.486706839667426
 20
6.272059546576606
 30
0.0
  0
VERTEX
  5
618
330
616
100
AcDbEntity
  8
Layer 1
 62
     7
370
    18
100
AcDbVertex
100
AcDb2dVertex
 10
3.492188983493381
 20
6.277542961968315
 30
0.0
  0
SEQEND
  5
619
330
616
100
AcDbEntity
  8
Layer 1
 62
     7
370
    18
  0
POLYLINE
  5
61A
330
1F
100
AcDbEntity
  8
Layer 1
 62
     7
370
    18
100
AcDb2dPolyline
 66
     1
 10
0.0
 20
0.0
 30
0.0
  0
VERTEX
  5
61B
330
61A
100
AcDbEntity
  8
Layer 1
 62
     7
370
    18
100
AcDbVertex
100
AcDb2dVertex
 10
0.8665069474114312
 20
6.272059546576606
 30
0.0
  0
VERTEX
  5
61C
330
61A
100
AcDbEntity
  8
Layer 1
 62
     7
370
    18
100
AcDbVertex
100
AcDb2dVertex
 10
3.486706839667426
 20
6.272059546576606
 30
0.0
  0
SEQEND
  5
61D
330
61A
100
AcDbEntity
  8
Layer 1
 62
     7
370
    18
  0
POLYLINE
  5
61E
330
1F
100
AcDbEntity
  8
Layer 1
 62
     7
370
    18
100
AcDb2dPolyline
 66
     1
 10
0.0
 20
0.0
 30
0.0
  0
VERTEX
  5
61F
330
61E
100
AcDbEntity
  8
Layer 1
 62
     7
370
    18
100
AcDbVertex
100
AcDb2dVertex
 10
3.450106938680013
 20
5.338168250189887
 30
0.0
  0
VERTEX
  5
620
330
61E
100
AcDbEntity
  8
Layer 1
 62
     7
370
    18
100
AcDbVertex
100
AcDb2dVertex
 10
3.450106938680013
 20
4.778448740641275
 30
0.0
  0
SEQEND
  5
621
330
61E
100
AcDbEntity
  8
Layer 1
 62
     7
370
    18
  0
POLYLINE
  5
622
330
1F
100
AcDbEntity
  8
Layer 1
 62
     7
370
    18
100
AcDb2dPolyline
 66
     1
 10
0.0
 20
0.0
 30
0.0
  0
VERTEX
  5
623
330
622
100
AcDbEntity
  8
Layer 1
 62
     7
370
    18
100
AcDbVertex
100
AcDb2dVertex
 10
3.482830471462673
 20
6.072182125515408
 30
0.0
  0
VERTEX
  5
624
330
622
100
AcDbEntity
  8
Layer 1
 62
     7
370
    18
100
AcDbVertex
100
AcDb2dVertex
 10
0.8703833156161838
 20
6.072182125515408
 30
0.0
  0
SEQEND
  5
625
330
622
100
AcDbEntity
  8
Layer 1
 62
     7
370
    18
  0
POLYLINE
  5
626
330
1F
100
AcDbEntity
  8
Layer 1
 62
     7
370
    18
100
AcDb2dPolyline
 66
     1
 10
0.0
 20
0.0
 30
0.0
  0
VERTEX
  5
627
330
626
100
AcDbEntity
  8
Layer 1
 62
     7
370
    18
100
AcDbVertex
100
AcDb2dVertex
 10
3.482830471462673
 20
6.044229295518663
 30
0.0
  0
VERTEX
  5
628
330
626
100
AcDbEntity
  8
Layer 1
 62
     7
370
    18
100
AcDbVertex
100
AcDb2dVertex
 10
3.482830471462673
 20
6.072182125515408
 30
0.0
  0
SEQEND
  5
629
330
626
100
AcDbEntity
  8
Layer 1
 62
     7
370
    18
  0
POLYLINE
  5
62A
330
1F
100
AcDbEntity
  8
Layer 1
 62
     7
370
    18
100
AcDb2dPolyline
 66
     1
 10
0.0
 20
0.0
 30
0.0
  0
VERTEX
  5
62B
330
62A
100
AcDbEntity
  8
Layer 1
 62
     7
370
    18
100
AcDbVertex
100
AcDb2dVertex
 10
0.8753597471449109
 20
5.871023813883463
 30
0.0
  0
VERTEX
  5
62C
330
62A
100
AcDbEntity
  8
Layer 1
 62
     7
370
    18
100
AcDbVertex
100
AcDb2dVertex
 10
0.8923333485921223
 20
5.590376536051432
 30
0.0
  0
SEQEND
  5
62D
330
62A
100
AcDbEntity
  8
Layer 1
 62
     7
370
    18
  0
POLYLINE
  5
62E
330
1F
100
AcDbEntity
  8
Layer 1
 62
     7
370
    18
100
AcDb2dPolyline
 66
     1
 10
0.0
 20
0.0
 30
0.0
  0
VERTEX
  5
62F
330
62E
100
AcDbEntity
  8
Layer 1
 62
     7
370
    18
100
AcDbVertex
100
AcDb2dVertex
 10
0.8703833156161838
 20
6.044229295518663
 30
0.0
  0
VERTEX
  5
630
330
62E
100
AcDbEntity
  8
Layer 1
 62
     7
370
    18
100
AcDbVertex
100
AcDb2dVertex
 10
3.482830471462673
 20
6.044229295518663
 30
0.0
  0
SEQEND
  5
631
330
62E
100
AcDbEntity
  8
Layer 1
 62
     7
370
    18
  0
POLYLINE
  5
632
330
1F
100
AcDbEntity
  8
Layer 1
 62
     7
370
    18
100
AcDb2dPolyline
 66
     1
 10
0.0
 20
0.0
 30
0.0
  0
VERTEX
  5
633
330
632
100
AcDbEntity
  8
Layer 1
 62
     7
370
    18
100
AcDbVertex
100
AcDb2dVertex
 10
3.477855470445421
 20
5.871023813883463
 30
0.0
  0
VERTEX
  5
634
330
632
100
AcDbEntity
  8
Layer 1
 62
     7
370
    18
100
AcDbVertex
100
AcDb2dVertex
 10
0.8753597471449109
 20
5.871023813883463
 30
0.0
  0
SEQEND
  5
635
330
632
100
AcDbEntity
  8
Layer 1
 62
     7
370
    18
  0
POLYLINE
  5
636
330
1F
100
AcDbEntity
  8
Layer 1
 62
     7
370
    18
100
AcDb2dPolyline
 66
     1
 10
0.0
 20
0.0
 30
0.0
  0
VERTEX
  5
637
330
636
100
AcDbEntity
  8
Layer 1
 62
     7
370
    18
100
AcDbVertex
100
AcDb2dVertex
 10
3.460879219902886
 20
5.590376536051432
 30
0.0
  0
VERTEX
  5
638
330
636
100
AcDbEntity
  8
Layer 1
 62
     7
370
    18
100
AcDbVertex
100
AcDb2dVertex
 10
3.477855470445421
 20
5.871023813883463
 30
0.0
  0
SEQEND
  5
639
330
636
100
AcDbEntity
  8
Layer 1
 62
     7
370
    18
  0
POLYLINE
  5
63A
330
1F
100
AcDbEntity
  8
Layer 1
 62
     7
370
    18
100
AcDb2dPolyline
 66
     1
 10
0.0
 20
0.0
 30
0.0
  0
VERTEX
  5
63B
330
63A
100
AcDbEntity
  8
Layer 1
 62
     7
370
    18
100
AcDbVertex
100
AcDb2dVertex
 10
2.795106887817383
 20
5.338168250189887
 30
0.0
  0
VERTEX
  5
63C
330
63A
100
AcDbEntity
  8
Layer 1
 62
     7
370
    18
100
AcDbVertex
100
AcDb2dVertex
 10
2.795106887817383
 20
4.778448740641275
 30
0.0
  0
SEQEND
  5
63D
330
63A
100
AcDbEntity
  8
Layer 1
 62
     7
370
    18
  0
POLYLINE
  5
63E
330
1F
100
AcDbEntity
  8
Layer 1
 62
     7
370
    18
100
AcDb2dPolyline
 66
     1
 10
0.0
 20
0.0
 30
0.0
  0
VERTEX
  5
63F
330
63E
100
AcDbEntity
  8
Layer 1
 62
     7
370
    18
100
AcDbVertex
100
AcDb2dVertex
 10
0.8923333485921223
 20
5.590376536051432
 30
0.0
  0
VERTEX
  5
640
330
63E
100
AcDbEntity
  8
Layer 1
 62
     7
370
    18
100
AcDbVertex
100
AcDb2dVertex
 10
3.460879219902886
 20
5.590376536051432
 30
0.0
  0
SEQEND
  5
641
330
63E
100
AcDbEntity
  8
Layer 1
 62
     7
370
    18
  0
POLYLINE
  5
642
330
1F
100
AcDbEntity
  8
Layer 1
 62
     7
370
    18
100
AcDb2dPolyline
 66
     1
 10
0.0
 20
0.0
 30
0.0
  0
VERTEX
  5
643
330
642
100
AcDbEntity
  8
Layer 1
 62
     7
370
    18
100
AcDbVertex
100
AcDb2dVertex
 10
3.450106938680013
 20
4.778448740641275
 30
0.0
  0
VERTEX
  5
644
330
642
100
AcDbEntity
  8
Layer 1
 62
     7
370
    18
100
AcDbVertex
100
AcDb2dVertex
 10
2.868106842041016
 20
4.778448740641275
 30
0.0
  0
SEQEND
  5
645
330
642
100
AcDbEntity
  8
Layer 1
 62
     7
370
    18
  0
POLYLINE
  5
646
330
1F
100
AcDbEntity
  8
Layer 1
 62
     7
370
    18
100
AcDb2dPolyline
 66
     1
 10
0.0
 20
0.0
 30
0.0
  0
VERTEX
  5
647
330
646
100
AcDbEntity
  8
Layer 1
 62
     7
370
    18
100
AcDbVertex
100
AcDb2dVertex
 10
3.450106938680013
 20
5.338168250189887
 30
0.0
  0
VERTEX
  5
648
330
646
100
AcDbEntity
  8
Layer 1
 62
     7
370
    18
100
AcDbVertex
100
AcDb2dVertex
 10
2.868106842041016
 20
5.338168250189887
 30
0.0
  0
SEQEND
  5
649
330
646
100
AcDbEntity
  8
Layer 1
 62
     7
370
    18
  0
POLYLINE
  5
64A
330
1F
100
AcDbEntity
  8
Layer 1
 62
     7
370
    18
100
AcDb2dPolyline
 66
     1
 10
0.0
 20
0.0
 30
0.0
  0
VERTEX
  5
64B
330
64A
100
AcDbEntity
  8
Layer 1
 62
     7
370
    18
100
AcDbVertex
100
AcDb2dVertex
 10
1.558106952243381
 20
4.778448740641275
 30
0.0
  0
VERTEX
  5
64C
330
64A
100
AcDbEntity
  8
Layer 1
 62
     7
370
    18
100
AcDbVertex
100
AcDb2dVertex
 10
1.558106952243381
 20
5.338168250189887
 30
0.0
  0
SEQEND
  5
64D
330
64A
100
AcDbEntity
  8
Layer 1
 62
     7
370
    18
  0
POLYLINE
  5
64E
330
1F
100
AcDbEntity
  8
Layer 1
 62
     7
370
    18
100
AcDb2dPolyline
 66
     1
 10
0.0
 20
0.0
 30
0.0
  0
VERTEX
  5
64F
330
64E
100
AcDbEntity
  8
Layer 1
 62
     7
370
    18
100
AcDbVertex
100
AcDb2dVertex
 10
2.868106842041016
 20
4.778448740641275
 30
0.0
  0
VERTEX
  5
650
330
64E
100
AcDbEntity
  8
Layer 1
 62
     7
370
    18
100
AcDbVertex
100
AcDb2dVertex
 10
2.868106842041016
 20
5.338168250189887
 30
0.0
  0
SEQEND
  5
651
330
64E
100
AcDbEntity
  8
Layer 1
 62
     7
370
    18
  0
POLYLINE
  5
652
330
1F
100
AcDbEntity
  8
Layer 1
 62
     7
370
    18
100
AcDb2dPolyline
 66
     1
 10
0.0
 20
0.0
 30
0.0
  0
VERTEX
  5
653
330
652
100
AcDbEntity
  8
Layer 1
 62
     7
370
    18
100
AcDbVertex
100
AcDb2dVertex
 10
2.795106887817383
 20
4.778448740641275
 30
0.0
  0
VERTEX
  5
654
330
652
100
AcDbEntity
  8
Layer 1
 62
     7
370
    18
100
AcDbVertex
100
AcDb2dVertex
 10
2.213107003106011
 20
4.778448740641275
 30
0.0
  0
SEQEND
  5
655
330
652
100
AcDbEntity
  8
Layer 1
 62
     7
370
    18
  0
POLYLINE
  5
656
330
1F
100
AcDbEntity
  8
Layer 1
 62
     7
370
    18
100
AcDb2dPolyline
 66
     1
 10
0.0
 20
0.0
 30
0.0
  0
VERTEX
  5
657
330
656
100
AcDbEntity
  8
Layer 1
 62
     7
370
    18
100
AcDbVertex
100
AcDb2dVertex
 10
2.795106887817383
 20
5.338168250189887
 30
0.0
  0
VERTEX
  5
658
330
656
100
AcDbEntity
  8
Layer 1
 62
     7
370
    18
100
AcDbVertex
100
AcDb2dVertex
 10
2.213107003106011
 20
5.338168250189887
 30
0.0
  0
SEQEND
  5
659
330
656
100
AcDbEntity
  8
Layer 1
 62
     7
370
    18
  0
POLYLINE
  5
65A
330
1F
100
AcDbEntity
  8
Layer 1
 62
     7
370
    18
100
AcDb2dPolyline
 66
     1
 10
0.0
 20
0.0
 30
0.0
  0
VERTEX
  5
65B
330
65A
100
AcDbEntity
  8
Layer 1
 62
     7
370
    18
100
AcDbVertex
100
AcDb2dVertex
 10
2.213107003106011
 20
5.338168250189887
 30
0.0
  0
VERTEX
  5
65C
330
65A
100
AcDbEntity
  8
Layer 1
 62
     7
370
    18
100
AcDbVertex
100
AcDb2dVertex
 10
2.213107003106011
 20
4.778448740641275
 30
0.0
  0
SEQEND
  5
65D
330
65A
100
AcDbEntity
  8
Layer 1
 62
     7
370
    18
  0
POLYLINE
  5
65E
330
1F
100
AcDbEntity
  8
Layer 1
 62
     7
370
    18
100
AcDb2dPolyline
 66
     1
 10
0.0
 20
0.0
 30
0.0
  0
VERTEX
  5
65F
330
65E
100
AcDbEntity
  8
Layer 1
 62
     7
370
    18
100
AcDbVertex
100
AcDb2dVertex
 10
1.485106892055935
 20
5.338168250189887
 30
0.0
  0
VERTEX
  5
660
330
65E
100
AcDbEntity
  8
Layer 1
 62
     7
370
    18
100
AcDbVertex
100
AcDb2dVertex
 10
0.9031069013807508
 20
5.338168250189887
 30
0.0
  0
SEQEND
  5
661
330
65E
100
AcDbEntity
  8
Layer 1
 62
     7
370
    18
  0
POLYLINE
  5
662
330
1F
100
AcDbEntity
  8
Layer 1
 62
     7
370
    18
100
AcDb2dPolyline
 66
     1
 10
0.0
 20
0.0
 30
0.0
  0
VERTEX
  5
663
330
662
100
AcDbEntity
  8
Layer 1
 62
     7
370
    18
100
AcDbVertex
100
AcDb2dVertex
 10
1.485106892055935
 20
4.778448740641275
 30
0.0
  0
VERTEX
  5
664
330
662
100
AcDbEntity
  8
Layer 1
 62
     7
370
    18
100
AcDbVertex
100
AcDb2dVertex
 10
0.9031069013807508
 20
4.778448740641275
 30
0.0
  0
SEQEND
  5
665
330
662
100
AcDbEntity
  8
Layer 1
 62
     7
370
    18
  0
POLYLINE
  5
666
330
1F
100
AcDbEntity
  8
Layer 1
 62
     7
370
    18
100
AcDb2dPolyline
 66
     1
 10
0.0
 20
0.0
 30
0.0
  0
VERTEX
  5
667
330
666
100
AcDbEntity
  8
Layer 1
 62
     7
370
    18
100
AcDbVertex
100
AcDb2dVertex
 10
1.925437503390842
 20
4.844412485758463
 30
0.0
  0
VERTEX
  5
668
330
666
100
AcDbEntity
  8
Layer 1
 62
     7
370
    18
100
AcDbVertex
100
AcDb2dVertex
 10
1.772776391771105
 20
4.844412485758463
 30
0.0
  0
SEQEND
  5
669
330
666
100
AcDbEntity
  8
Layer 1
 62
     7
370
    18
  0
POLYLINE
  5
66A
330
1F
100
AcDbEntity
  8
Layer 1
 62
     7
370
    18
100
AcDb2dPolyline
 66
     1
 10
0.0
 20
0.0
 30
0.0
  0
VERTEX
  5
66B
330
66A
100
AcDbEntity
  8
Layer 1
 62
     7
370
    18
100
AcDbVertex
100
AcDb2dVertex
 10
1.485106892055935
 20
5.338168250189887
 30
0.0
  0
VERTEX
  5
66C
330
66A
100
AcDbEntity
  8
Layer 1
 62
     7
370
    18
100
AcDbVertex
100
AcDb2dVertex
 10
1.485106892055935
 20
4.778448740641275
 30
0.0
  0
SEQEND
  5
66D
330
66A
100
AcDbEntity
  8
Layer 1
 62
     7
370
    18
  0
POLYLINE
  5
66E
330
1F
100
AcDbEntity
  8
Layer 1
 62
     7
370
    18
100
AcDb2dPolyline
 66
     1
 10
0.0
 20
0.0
 30
0.0
  0
VERTEX
  5
66F
330
66E
100
AcDbEntity
  8
Layer 1
 62
     7
370
    18
100
AcDbVertex
100
AcDb2dVertex
 10
0.8945638868543836
 20
5.349159664577908
 30
0.0
  0
VERTEX
  5
670
330
66E
100
AcDbEntity
  8
Layer 1
 62
     7
370
    18
100
AcDbVertex
100
AcDb2dVertex
 10
0.8827680481804742
 20
4.764109717475043
 30
0.0
  0
SEQEND
  5
671
330
66E
100
AcDbEntity
  8
Layer 1
 62
     7
370
    18
  0
POLYLINE
  5
672
330
1F
100
AcDbEntity
  8
Layer 1
 62
     7
370
    18
100
AcDb2dPolyline
 66
     1
 10
0.0
 20
0.0
 30
0.0
  0
VERTEX
  5
673
330
672
100
AcDbEntity
  8
Layer 1
 62
     7
370
    18
100
AcDbVertex
100
AcDb2dVertex
 10
3.45864995320638
 20
5.349159664577908
 30
0.0
  0
VERTEX
  5
674
330
672
100
AcDbEntity
  8
Layer 1
 62
     7
370
    18
100
AcDbVertex
100
AcDb2dVertex
 10
0.8945638868543836
 20
5.349159664577908
 30
0.0
  0
SEQEND
  5
675
330
672
100
AcDbEntity
  8
Layer 1
 62
     7
370
    18
  0
POLYLINE
  5
676
330
1F
100
AcDbEntity
  8
Layer 1
 62
     7
370
    18
100
AcDb2dPolyline
 66
     1
 10
0.0
 20
0.0
 30
0.0
  0
VERTEX
  5
677
330
676
100
AcDbEntity
  8
Layer 1
 62
     7
370
    18
100
AcDbVertex
100
AcDb2dVertex
 10
3.470445844862196
 20
4.764109717475043
 30
0.0
  0
VERTEX
  5
678
330
676
100
AcDbEntity
  8
Layer 1
 62
     7
370
    18
100
AcDbVertex
100
AcDb2dVertex
 10
3.45864995320638
 20
5.349159664577908
 30
0.0
  0
SEQEND
  5
679
330
676
100
AcDbEntity
  8
Layer 1
 62
     7
370
    18
  0
POLYLINE
  5
67A
330
1F
100
AcDbEntity
  8
Layer 1
 62
     7
370
    18
100
AcDb2dPolyline
 66
     1
 10
0.0
 20
0.0
 30
0.0
  0
VERTEX
  5
67B
330
67A
100
AcDbEntity
  8
Layer 1
 62
     7
370
    18
100
AcDbVertex
100
AcDb2dVertex
 10
0.8827680481804742
 20
4.764109717475043
 30
0.0
  0
VERTEX
  5
67C
330
67A
100
AcDbEntity
  8
Layer 1
 62
     7
370
    18
100
AcDbVertex
100
AcDb2dVertex
 10
3.470445844862196
 20
4.764109717475043
 30
0.0
  0
SEQEND
  5
67D
330
67A
100
AcDbEntity
  8
Layer 1
 62
     7
370
    18
  0
POLYLINE
  5
67E
330
1F
100
AcDbEntity
  8
Layer 1
 62
     7
370
    18
100
AcDb2dPolyline
 66
     1
 10
0.0
 20
0.0
 30
0.0
  0
VERTEX
  5
67F
330
67E
100
AcDbEntity
  8
Layer 1
 62
     7
370
    18
100
AcDbVertex
100
AcDb2dVertex
 10
2.140107048882379
 20
5.338168250189887
 30
0.0
  0
VERTEX
  5
680
330
67E
100
AcDbEntity
  8
Layer 1
 62
     7
370
    18
100
AcDbVertex
100
AcDb2dVertex
 10
1.558106952243381
 20
5.338168250189887
 30
0.0
  0
SEQEND
  5
681
330
67E
100
AcDbEntity
  8
Layer 1
 62
     7
370
    18
  0
POLYLINE
  5
682
330
1F
100
AcDbEntity
  8
Layer 1
 62
     7
370
    18
100
AcDb2dPolyline
 66
     1
 10
0.0
 20
0.0
 30
0.0
  0
VERTEX
  5
683
330
682
100
AcDbEntity
  8
Layer 1
 62
     7
370
    18
100
AcDbVertex
100
AcDb2dVertex
 10
1.270437452528212
 20
4.844412485758463
 30
0.0
  0
VERTEX
  5
684
330
682
100
AcDbEntity
  8
Layer 1
 62
     7
370
    18
100
AcDbVertex
100
AcDb2dVertex
 10
1.276908344692654
 20
4.857843187120225
 30
0.0
  0
SEQEND
  5
685
330
682
100
AcDbEntity
  8
Layer 1
 62
     7
370
    18
  0
POLYLINE
  5
686
330
1F
100
AcDbEntity
  8
Layer 1
 62
     7
370
    18
100
AcDb2dPolyline
 66
     1
 10
0.0
 20
0.0
 30
0.0
  0
VERTEX
  5
687
330
686
100
AcDbEntity
  8
Layer 1
 62
     7
370
    18
100
AcDbVertex
100
AcDb2dVertex
 10
2.140107048882379
 20
4.778448740641275
 30
0.0
  0
VERTEX
  5
688
330
686
100
AcDbEntity
  8
Layer 1
 62
     7
370
    18
100
AcDbVertex
100
AcDb2dVertex
 10
1.558106952243381
 20
4.778448740641275
 30
0.0
  0
SEQEND
  5
689
330
686
100
AcDbEntity
  8
Layer 1
 62
     7
370
    18
  0
POLYLINE
  5
68A
330
1F
100
AcDbEntity
  8
Layer 1
 62
     7
370
    18
100
AcDb2dPolyline
 66
     1
 10
0.0
 20
0.0
 30
0.0
  0
VERTEX
  5
68B
330
68A
100
AcDbEntity
  8
Layer 1
 62
     7
370
    18
100
AcDbVertex
100
AcDb2dVertex
 10
2.140107048882379
 20
4.86175537109375
 30
0.0
  0
VERTEX
  5
68C
330
68A
100
AcDbEntity
  8
Layer 1
 62
     7
370
    18
100
AcDbVertex
100
AcDb2dVertex
 10
1.932281917995877
 20
4.86175537109375
 30
0.0
  0
SEQEND
  5
68D
330
68A
100
AcDbEntity
  8
Layer 1
 62
     7
370
    18
  0
POLYLINE
  5
68E
330
1F
100
AcDbEntity
  8
Layer 1
 62
     7
370
    18
100
AcDb2dPolyline
 66
     1
 10
0.0
 20
0.0
 30
0.0
  0
VERTEX
  5
68F
330
68E
100
AcDbEntity
  8
Layer 1
 62
     7
370
    18
100
AcDbVertex
100
AcDb2dVertex
 10
1.931908289591471
 20
4.857843187120225
 30
0.0
  0
VERTEX
  5
690
330
68E
100
AcDbEntity
  8
Layer 1
 62
     7
370
    18
100
AcDbVertex
100
AcDb2dVertex
 10
1.932281917995877
 20
4.86175537109375
 30
0.0
  0
SEQEND
  5
691
330
68E
100
AcDbEntity
  8
Layer 1
 62
     7
370
    18
  0
POLYLINE
  5
692
330
1F
100
AcDbEntity
  8
Layer 1
 62
     7
370
    18
100
AcDb2dPolyline
 66
     1
 10
0.0
 20
0.0
 30
0.0
  0
VERTEX
  5
693
330
692
100
AcDbEntity
  8
Layer 1
 62
     7
370
    18
100
AcDbVertex
100
AcDb2dVertex
 10
1.925437503390842
 20
4.844412485758463
 30
0.0
  0
VERTEX
  5
694
330
692
100
AcDbEntity
  8
Layer 1
 62
     7
370
    18
100
AcDbVertex
100
AcDb2dVertex
 10
1.931908289591471
 20
4.857843187120225
 30
0.0
  0
SEQEND
  5
695
330
692
100
AcDbEntity
  8
Layer 1
 62
     7
370
    18
  0
POLYLINE
  5
696
330
1F
100
AcDbEntity
  8
Layer 1
 62
     7
370
    18
100
AcDb2dPolyline
 66
     1
 10
0.0
 20
0.0
 30
0.0
  0
VERTEX
  5
697
330
696
100
AcDbEntity
  8
Layer 1
 62
     7
370
    18
100
AcDbVertex
100
AcDb2dVertex
 10
1.270437452528212
 20
4.844412485758463
 30
0.0
  0
VERTEX
  5
698
330
696
100
AcDbEntity
  8
Layer 1
 62
     7
370
    18
100
AcDbVertex
100
AcDb2dVertex
 10
1.117776340908474
 20
4.844412485758463
 30
0.0
  0
SEQEND
  5
699
330
696
100
AcDbEntity
  8
Layer 1
 62
     7
370
    18
  0
POLYLINE
  5
69A
330
1F
100
AcDbEntity
  8
Layer 1
 62
     7
370
    18
100
AcDb2dPolyline
 66
     1
 10
0.0
 20
0.0
 30
0.0
  0
VERTEX
  5
69B
330
69A
100
AcDbEntity
  8
Layer 1
 62
     7
370
    18
100
AcDbVertex
100
AcDb2dVertex
 10
1.772776391771105
 20
4.844412485758463
 30
0.0
  0
VERTEX
  5
69C
330
69A
100
AcDbEntity
  8
Layer 1
 62
     7
370
    18
100
AcDbVertex
100
AcDb2dVertex
 10
1.766305605570475
 20
4.857843187120225
 30
0.0
  0
SEQEND
  5
69D
330
69A
100
AcDbEntity
  8
Layer 1
 62
     7
370
    18
  0
POLYLINE
  5
69E
330
1F
100
AcDbEntity
  8
Layer 1
 62
     7
370
    18
100
AcDb2dPolyline
 66
     1
 10
0.0
 20
0.0
 30
0.0
  0
VERTEX
  5
69F
330
69E
100
AcDbEntity
  8
Layer 1
 62
     7
370
    18
100
AcDbVertex
100
AcDb2dVertex
 10
1.76593197716607
 20
4.86175537109375
 30
0.0
  0
VERTEX
  5
6A0
330
69E
100
AcDbEntity
  8
Layer 1
 62
     7
370
    18
100
AcDbVertex
100
AcDb2dVertex
 10
1.766305605570475
 20
4.857843187120225
 30
0.0
  0
SEQEND
  5
6A1
330
69E
100
AcDbEntity
  8
Layer 1
 62
     7
370
    18
  0
POLYLINE
  5
6A2
330
1F
100
AcDbEntity
  8
Layer 1
 62
     7
370
    18
100
AcDb2dPolyline
 66
     1
 10
0.0
 20
0.0
 30
0.0
  0
VERTEX
  5
6A3
330
6A2
100
AcDbEntity
  8
Layer 1
 62
     7
370
    18
100
AcDbVertex
100
AcDb2dVertex
 10
1.485106892055935
 20
4.86175537109375
 30
0.0
  0
VERTEX
  5
6A4
330
6A2
100
AcDbEntity
  8
Layer 1
 62
     7
370
    18
100
AcDbVertex
100
AcDb2dVertex
 10
1.277281973097059
 20
4.86175537109375
 30
0.0
  0
SEQEND
  5
6A5
330
6A2
100
AcDbEntity
  8
Layer 1
 62
     7
370
    18
  0
POLYLINE
  5
6A6
330
1F
100
AcDbEntity
  8
Layer 1
 62
     7
370
    18
100
AcDb2dPolyline
 66
     1
 10
0.0
 20
0.0
 30
0.0
  0
VERTEX
  5
6A7
330
6A6
100
AcDbEntity
  8
Layer 1
 62
     7
370
    18
100
AcDbVertex
100
AcDb2dVertex
 10
1.76593197716607
 20
4.86175537109375
 30
0.0
  0
VERTEX
  5
6A8
330
6A6
100
AcDbEntity
  8
Layer 1
 62
     7
370
    18
100
AcDbVertex
100
AcDb2dVertex
 10
1.558106952243381
 20
4.86175537109375
 30
0.0
  0
SEQEND
  5
6A9
330
6A6
100
AcDbEntity
  8
Layer 1
 62
     7
370
    18
  0
POLYLINE
  5
6AA
330
1F
100
AcDbEntity
  8
Layer 1
 62
     7
370
    18
100
AcDb2dPolyline
 66
     1
 10
0.0
 20
0.0
 30
0.0
  0
VERTEX
  5
6AB
330
6AA
100
AcDbEntity
  8
Layer 1
 62
     7
370
    18
100
AcDbVertex
100
AcDb2dVertex
 10
1.276908344692654
 20
4.857843187120225
 30
0.0
  0
VERTEX
  5
6AC
330
6AA
100
AcDbEntity
  8
Layer 1
 62
     7
370
    18
100
AcDbVertex
100
AcDb2dVertex
 10
1.277281973097059
 20
4.86175537109375
 30
0.0
  0
SEQEND
  5
6AD
330
6AA
100
AcDbEntity
  8
Layer 1
 62
     7
370
    18
  0
POLYLINE
  5
6AE
330
1F
100
AcDbEntity
  8
Layer 1
 62
     7
370
    18
100
AcDb2dPolyline
 66
     1
 10
0.0
 20
0.0
 30
0.0
  0
VERTEX
  5
6AF
330
6AE
100
AcDbEntity
  8
Layer 1
 62
     7
370
    18
100
AcDbVertex
100
AcDb2dVertex
 10
3.235437605116102
 20
4.844412485758463
 30
0.0
  0
VERTEX
  5
6B0
330
6AE
100
AcDbEntity
  8
Layer 1
 62
     7
370
    18
100
AcDbVertex
100
AcDb2dVertex
 10
3.082776387532552
 20
4.844412485758463
 30
0.0
  0
SEQEND
  5
6B1
330
6AE
100
AcDbEntity
  8
Layer 1
 62
     7
370
    18
  0
POLYLINE
  5
6B2
330
1F
100
AcDbEntity
  8
Layer 1
 62
     7
370
    18
100
AcDb2dPolyline
 66
     1
 10
0.0
 20
0.0
 30
0.0
  0
VERTEX
  5
6B3
330
6B2
100
AcDbEntity
  8
Layer 1
 62
     7
370
    18
100
AcDbVertex
100
AcDb2dVertex
 10
1.11093192630344
 20
4.86175537109375
 30
0.0
  0
VERTEX
  5
6B4
330
6B2
100
AcDbEntity
  8
Layer 1
 62
     7
370
    18
100
AcDbVertex
100
AcDb2dVertex
 10
1.111305554707845
 20
4.857843187120225
 30
0.0
  0
SEQEND
  5
6B5
330
6B2
100
AcDbEntity
  8
Layer 1
 62
     7
370
    18
  0
POLYLINE
  5
6B6
330
1F
100
AcDbEntity
  8
Layer 1
 62
     7
370
    18
100
AcDb2dPolyline
 66
     1
 10
0.0
 20
0.0
 30
0.0
  0
VERTEX
  5
6B7
330
6B6
100
AcDbEntity
  8
Layer 1
 62
     7
370
    18
100
AcDbVertex
100
AcDb2dVertex
 10
1.117776340908474
 20
4.844412485758463
 30
0.0
  0
VERTEX
  5
6B8
330
6B6
100
AcDbEntity
  8
Layer 1
 62
     7
370
    18
100
AcDbVertex
100
AcDb2dVertex
 10
1.111305554707845
 20
4.857843187120225
 30
0.0
  0
SEQEND
  5
6B9
330
6B6
100
AcDbEntity
  8
Layer 1
 62
     7
370
    18
  0
POLYLINE
  5
6BA
330
1F
100
AcDbEntity
  8
Layer 1
 62
     7
370
    18
100
AcDb2dPolyline
 66
     1
 10
0.0
 20
0.0
 30
0.0
  0
VERTEX
  5
6BB
330
6BA
100
AcDbEntity
  8
Layer 1
 62
     7
370
    18
100
AcDbVertex
100
AcDb2dVertex
 10
1.11093192630344
 20
4.86175537109375
 30
0.0
  0
VERTEX
  5
6BC
330
6BA
100
AcDbEntity
  8
Layer 1
 62
     7
370
    18
100
AcDbVertex
100
AcDb2dVertex
 10
0.9031069013807508
 20
4.86175537109375
 30
0.0
  0
SEQEND
  5
6BD
330
6BA
100
AcDbEntity
  8
Layer 1
 62
     7
370
    18
  0
POLYLINE
  5
6BE
330
1F
100
AcDbEntity
  8
Layer 1
 62
     7
370
    18
100
AcDb2dPolyline
 66
     1
 10
0.0
 20
0.0
 30
0.0
  0
VERTEX
  5
6BF
330
6BE
100
AcDbEntity
  8
Layer 1
 62
     7
370
    18
100
AcDbVertex
100
AcDb2dVertex
 10
2.586908340454102
 20
4.857843187120225
 30
0.0
  0
VERTEX
  5
6C0
330
6BE
100
AcDbEntity
  8
Layer 1
 62
     7
370
    18
100
AcDbVertex
100
AcDb2dVertex
 10
2.587281968858507
 20
4.86175537109375
 30
0.0
  0
SEQEND
  5
6C1
330
6BE
100
AcDbEntity
  8
Layer 1
 62
     7
370
    18
  0
POLYLINE
  5
6C2
330
1F
100
AcDbEntity
  8
Layer 1
 62
     7
370
    18
100
AcDb2dPolyline
 66
     1
 10
0.0
 20
0.0
 30
0.0
  0
VERTEX
  5
6C3
330
6C2
100
AcDbEntity
  8
Layer 1
 62
     7
370
    18
100
AcDbVertex
100
AcDb2dVertex
 10
3.450106938680013
 20
4.86175537109375
 30
0.0
  0
VERTEX
  5
6C4
330
6C2
100
AcDbEntity
  8
Layer 1
 62
     7
370
    18
100
AcDbVertex
100
AcDb2dVertex
 10
3.242282019721137
 20
4.86175537109375
 30
0.0
  0
SEQEND
  5
6C5
330
6C2
100
AcDbEntity
  8
Layer 1
 62
     7
370
    18
  0
POLYLINE
  5
6C6
330
1F
100
AcDbEntity
  8
Layer 1
 62
     7
370
    18
100
AcDb2dPolyline
 66
     1
 10
0.0
 20
0.0
 30
0.0
  0
VERTEX
  5
6C7
330
6C6
100
AcDbEntity
  8
Layer 1
 62
     7
370
    18
100
AcDbVertex
100
AcDb2dVertex
 10
3.241908391316731
 20
4.857843187120225
 30
0.0
  0
VERTEX
  5
6C8
330
6C6
100
AcDbEntity
  8
Layer 1
 62
     7
370
    18
100
AcDbVertex
100
AcDb2dVertex
 10
3.242282019721137
 20
4.86175537109375
 30
0.0
  0
SEQEND
  5
6C9
330
6C6
100
AcDbEntity
  8
Layer 1
 62
     7
370
    18
  0
POLYLINE
  5
6CA
330
1F
100
AcDbEntity
  8
Layer 1
 62
     7
370
    18
100
AcDb2dPolyline
 66
     1
 10
0.0
 20
0.0
 30
0.0
  0
VERTEX
  5
6CB
330
6CA
100
AcDbEntity
  8
Layer 1
 62
     7
370
    18
100
AcDbVertex
100
AcDb2dVertex
 10
3.241908391316731
 20
4.857843187120225
 30
0.0
  0
VERTEX
  5
6CC
330
6CA
100
AcDbEntity
  8
Layer 1
 62
     7
370
    18
100
AcDbVertex
100
AcDb2dVertex
 10
3.235437605116102
 20
4.844412485758463
 30
0.0
  0
SEQEND
  5
6CD
330
6CA
100
AcDbEntity
  8
Layer 1
 62
     7
370
    18
  0
POLYLINE
  5
6CE
330
1F
100
AcDbEntity
  8
Layer 1
 62
     7
370
    18
100
AcDb2dPolyline
 66
     1
 10
0.0
 20
0.0
 30
0.0
  0
VERTEX
  5
6CF
330
6CE
100
AcDbEntity
  8
Layer 1
 62
     7
370
    18
100
AcDbVertex
100
AcDb2dVertex
 10
2.420931922064887
 20
4.86175537109375
 30
0.0
  0
VERTEX
  5
6D0
330
6CE
100
AcDbEntity
  8
Layer 1
 62
     7
370
    18
100
AcDbVertex
100
AcDb2dVertex
 10
2.421305550469292
 20
4.857843187120225
 30
0.0
  0
SEQEND
  5
6D1
330
6CE
100
AcDbEntity
  8
Layer 1
 62
     7
370
    18
  0
POLYLINE
  5
6D2
330
1F
100
AcDbEntity
  8
Layer 1
 62
     7
370
    18
100
AcDb2dPolyline
 66
     1
 10
0.0
 20
0.0
 30
0.0
  0
VERTEX
  5
6D3
330
6D2
100
AcDbEntity
  8
Layer 1
 62
     7
370
    18
100
AcDbVertex
100
AcDb2dVertex
 10
3.076305601331923
 20
4.857843187120225
 30
0.0
  0
VERTEX
  5
6D4
330
6D2
100
AcDbEntity
  8
Layer 1
 62
     7
370
    18
100
AcDbVertex
100
AcDb2dVertex
 10
3.082776387532552
 20
4.844412485758463
 30
0.0
  0
SEQEND
  5
6D5
330
6D2
100
AcDbEntity
  8
Layer 1
 62
     7
370
    18
  0
POLYLINE
  5
6D6
330
1F
100
AcDbEntity
  8
Layer 1
 62
     7
370
    18
100
AcDb2dPolyline
 66
     1
 10
0.0
 20
0.0
 30
0.0
  0
VERTEX
  5
6D7
330
6D6
100
AcDbEntity
  8
Layer 1
 62
     7
370
    18
100
AcDbVertex
100
AcDb2dVertex
 10
3.075931972927517
 20
4.86175537109375
 30
0.0
  0
VERTEX
  5
6D8
330
6D6
100
AcDbEntity
  8
Layer 1
 62
     7
370
    18
100
AcDbVertex
100
AcDb2dVertex
 10
3.076305601331923
 20
4.857843187120225
 30
0.0
  0
SEQEND
  5
6D9
330
6D6
100
AcDbEntity
  8
Layer 1
 62
     7
370
    18
  0
POLYLINE
  5
6DA
330
1F
100
AcDbEntity
  8
Layer 1
 62
     7
370
    18
100
AcDb2dPolyline
 66
     1
 10
0.0
 20
0.0
 30
0.0
  0
VERTEX
  5
6DB
330
6DA
100
AcDbEntity
  8
Layer 1
 62
     7
370
    18
100
AcDbVertex
100
AcDb2dVertex
 10
3.075931972927517
 20
4.86175537109375
 30
0.0
  0
VERTEX
  5
6DC
330
6DA
100
AcDbEntity
  8
Layer 1
 62
     7
370
    18
100
AcDbVertex
100
AcDb2dVertex
 10
2.868106842041016
 20
4.86175537109375
 30
0.0
  0
SEQEND
  5
6DD
330
6DA
100
AcDbEntity
  8
Layer 1
 62
     7
370
    18
  0
POLYLINE
  5
6DE
330
1F
100
AcDbEntity
  8
Layer 1
 62
     7
370
    18
100
AcDb2dPolyline
 66
     1
 10
0.0
 20
0.0
 30
0.0
  0
VERTEX
  5
6DF
330
6DE
100
AcDbEntity
  8
Layer 1
 62
     7
370
    18
100
AcDbVertex
100
AcDb2dVertex
 10
2.795106887817383
 20
4.86175537109375
 30
0.0
  0
VERTEX
  5
6E0
330
6DE
100
AcDbEntity
  8
Layer 1
 62
     7
370
    18
100
AcDbVertex
100
AcDb2dVertex
 10
2.587281968858507
 20
4.86175537109375
 30
0.0
  0
SEQEND
  5
6E1
330
6DE
100
AcDbEntity
  8
Layer 1
 62
     7
370
    18
  0
POLYLINE
  5
6E2
330
1F
100
AcDbEntity
  8
Layer 1
 62
     7
370
    18
100
AcDb2dPolyline
 66
     1
 10
0.0
 20
0.0
 30
0.0
  0
VERTEX
  5
6E3
330
6E2
100
AcDbEntity
  8
Layer 1
 62
     7
370
    18
100
AcDbVertex
100
AcDb2dVertex
 10
2.420931922064887
 20
4.86175537109375
 30
0.0
  0
VERTEX
  5
6E4
330
6E2
100
AcDbEntity
  8
Layer 1
 62
     7
370
    18
100
AcDbVertex
100
AcDb2dVertex
 10
2.213107003106011
 20
4.86175537109375
 30
0.0
  0
SEQEND
  5
6E5
330
6E2
100
AcDbEntity
  8
Layer 1
 62
     7
370
    18
  0
POLYLINE
  5
6E6
330
1F
100
AcDbEntity
  8
Layer 1
 62
     7
370
    18
100
AcDb2dPolyline
 66
     1
 10
0.0
 20
0.0
 30
0.0
  0
VERTEX
  5
6E7
330
6E6
100
AcDbEntity
  8
Layer 1
 62
     7
370
    18
100
AcDbVertex
100
AcDb2dVertex
 10
2.586908340454102
 20
4.857843187120225
 30
0.0
  0
VERTEX
  5
6E8
330
6E6
100
AcDbEntity
  8
Layer 1
 62
     7
370
    18
100
AcDbVertex
100
AcDb2dVertex
 10
2.580437554253472
 20
4.844412485758463
 30
0.0
  0
SEQEND
  5
6E9
330
6E6
100
AcDbEntity
  8
Layer 1
 62
     7
370
    18
  0
POLYLINE
  5
6EA
330
1F
100
AcDbEntity
  8
Layer 1
 62
     7
370
    18
100
AcDb2dPolyline
 66
     1
 10
0.0
 20
0.0
 30
0.0
  0
VERTEX
  5
6EB
330
6EA
100
AcDbEntity
  8
Layer 1
 62
     7
370
    18
100
AcDbVertex
100
AcDb2dVertex
 10
2.580437554253472
 20
4.844412485758463
 30
0.0
  0
VERTEX
  5
6EC
330
6EA
100
AcDbEntity
  8
Layer 1
 62
     7
370
    18
100
AcDbVertex
100
AcDb2dVertex
 10
2.427776336669922
 20
4.844412485758463
 30
0.0
  0
SEQEND
  5
6ED
330
6EA
100
AcDbEntity
  8
Layer 1
 62
     7
370
    18
  0
POLYLINE
  5
6EE
330
1F
100
AcDbEntity
  8
Layer 1
 62
     7
370
    18
100
AcDb2dPolyline
 66
     1
 10
0.0
 20
0.0
 30
0.0
  0
VERTEX
  5
6EF
330
6EE
100
AcDbEntity
  8
Layer 1
 62
     7
370
    18
100
AcDbVertex
100
AcDb2dVertex
 10
2.421305550469292
 20
4.857843187120225
 30
0.0
  0
VERTEX
  5
6F0
330
6EE
100
AcDbEntity
  8
Layer 1
 62
     7
370
    18
100
AcDbVertex
100
AcDb2dVertex
 10
2.427776336669922
 20
4.844412485758463
 30
0.0
  0
SEQEND
  5
6F1
330
6EE
100
AcDbEntity
  8
Layer 1
 62
     7
370
    18
  0
POLYLINE
  5
6F2
330
1F
100
AcDbEntity
  8
Layer 1
 62
     7
370
    18
100
AcDb2dPolyline
 66
     1
 10
0.0
 20
0.0
 30
0.0
  0
VERTEX
  5
6F3
330
6F2
100
AcDbEntity
  8
Layer 1
 62
     7
370
    18
100
AcDbVertex
100
AcDb2dVertex
 10
2.593925052218967
 20
4.585166507297092
 30
0.0
  0
VERTEX
  5
6F4
330
6F2
100
AcDbEntity
  8
Layer 1
 62
     7
370
    18
100
AcDbVertex
100
AcDb2dVertex
 10
2.597301483154297
 20
4.5847290886773
 30
0.0
  0
VERTEX
  5
6F5
330
6F2
100
AcDbEntity
  8
Layer 1
 62
     7
370
    18
100
AcDbVertex
100
AcDb2dVertex
 10
2.606481975979275
 20
4.584409925672743
 30
0.0
  0
VERTEX
  5
6F6
330
6F2
100
AcDbEntity
  8
Layer 1
 62
     7
370
    18
100
AcDbVertex
100
AcDb2dVertex
 10
2.619004143608941
 20
4.584292941623263
 30
0.0
  0
SEQEND
  5
6F7
330
6F2
100
AcDbEntity
  8
Layer 1
 62
     7
370
    18
  0
POLYLINE
  5
6F8
330
1F
100
AcDbEntity
  8
Layer 1
 62
     7
370
    18
100
AcDb2dPolyline
 66
     1
 10
0.0
 20
0.0
 30
0.0
  0
VERTEX
  5
6F9
330
6F8
100
AcDbEntity
  8
Layer 1
 62
     7
370
    18
100
AcDbVertex
100
AcDb2dVertex
 10
1.734209696451823
 20
4.584292941623263
 30
0.0
  0
VERTEX
  5
6FA
330
6F8
100
AcDbEntity
  8
Layer 1
 62
     7
370
    18
100
AcDbVertex
100
AcDb2dVertex
 10
1.746731970045301
 20
4.584409925672743
 30
0.0
  0
VERTEX
  5
6FB
330
6F8
100
AcDbEntity
  8
Layer 1
 62
     7
370
    18
100
AcDbVertex
100
AcDb2dVertex
 10
1.75591246287028
 20
4.5847290886773
 30
0.0
  0
VERTEX
  5
6FC
330
6F8
100
AcDbEntity
  8
Layer 1
 62
     7
370
    18
100
AcDbVertex
100
AcDb2dVertex
 10
1.75928889380561
 20
4.585166507297092
 30
0.0
  0
SEQEND
  5
6FD
330
6F8
100
AcDbEntity
  8
Layer 1
 62
     7
370
    18
  0
POLYLINE
  5
6FE
330
1F
100
AcDbEntity
  8
Layer 1
 62
     7
370
    18
100
AcDb2dPolyline
 66
     1
 10
0.0
 20
0.0
 30
0.0
  0
VERTEX
  5
6FF
330
6FE
100
AcDbEntity
  8
Layer 1
 62
     7
370
    18
100
AcDbVertex
100
AcDb2dVertex
 10
0.8713694678412542
 20
4.594637552897135
 30
0.0
  0
VERTEX
  5
700
330
6FE
100
AcDbEntity
  8
Layer 1
 62
     7
370
    18
100
AcDbVertex
100
AcDb2dVertex
 10
0.8610250155131022
 20
4.584292941623263
 30
0.0
  0
SEQEND
  5
701
330
6FE
100
AcDbEntity
  8
Layer 1
 62
     7
370
    18
  0
POLYLINE
  5
702
330
1F
100
AcDbEntity
  8
Layer 1
 62
     7
370
    18
100
AcDb2dPolyline
 66
     1
 10
0.0
 20
0.0
 30
0.0
  0
VERTEX
  5
703
330
702
100
AcDbEntity
  8
Layer 1
 62
     7
370
    18
100
AcDbVertex
100
AcDb2dVertex
 10
3.492188983493381
 20
4.584292941623263
 30
0.0
  0
VERTEX
  5
704
330
702
100
AcDbEntity
  8
Layer 1
 62
     7
370
    18
100
AcDbVertex
100
AcDb2dVertex
 10
3.481844372219509
 20
4.594637552897135
 30
0.0
  0
SEQEND
  5
705
330
702
100
AcDbEntity
  8
Layer 1
 62
     7
370
    18
  0
POLYLINE
  5
706
330
1F
100
AcDbEntity
  8
Layer 1
 62
     7
370
    18
100
AcDb2dPolyline
 66
     1
 10
0.0
 20
0.0
 30
0.0
  0
VERTEX
  5
707
330
706
100
AcDbEntity
  8
Layer 1
 62
     7
370
    18
100
AcDbVertex
100
AcDb2dVertex
 10
3.481844372219509
 20
4.594637552897135
 30
0.0
  0
VERTEX
  5
708
330
706
100
AcDbEntity
  8
Layer 1
 62
     7
370
    18
100
AcDbVertex
100
AcDb2dVertex
 10
0.8713694678412542
 20
4.594637552897135
 30
0.0
  0
SEQEND
  5
709
330
706
100
AcDbEntity
  8
Layer 1
 62
     7
370
    18
  0
POLYLINE
  5
70A
330
1F
100
AcDbEntity
  8
Layer 1
 62
     7
370
    18
100
AcDb2dPolyline
 66
     1
 10
0.0
 20
0.0
 30
0.0
  0
VERTEX
  5
70B
330
70A
100
AcDbEntity
  8
Layer 1
 62
     7
370
    18
100
AcDbVertex
100
AcDb2dVertex
 10
2.593925052218967
 20
4.585166507297092
 30
0.0
  0
VERTEX
  5
70C
330
70A
100
AcDbEntity
  8
Layer 1
 62
     7
370
    18
100
AcDbVertex
100
AcDb2dVertex
 10
2.593487421671549
 20
4.593497382269965
 30
0.0
  0
SEQEND
  5
70D
330
70A
100
AcDbEntity
  8
Layer 1
 62
     7
370
    18
  0
POLYLINE
  5
70E
330
1F
100
AcDbEntity
  8
Layer 1
 62
     7
370
    18
100
AcDb2dPolyline
 66
     1
 10
0.0
 20
0.0
 30
0.0
  0
VERTEX
  5
70F
330
70E
100
AcDbEntity
  8
Layer 1
 62
     7
370
    18
100
AcDbVertex
100
AcDb2dVertex
 10
2.140107048882379
 20
4.778448740641275
 30
0.0
  0
VERTEX
  5
710
330
70E
100
AcDbEntity
  8
Layer 1
 62
     7
370
    18
100
AcDbVertex
100
AcDb2dVertex
 10
2.140107048882379
 20
5.338168250189887
 30
0.0
  0
SEQEND
  5
711
330
70E
100
AcDbEntity
  8
Layer 1
 62
     7
370
    18
  0
POLYLINE
  5
712
330
1F
100
AcDbEntity
  8
Layer 1
 62
     7
370
    18
100
AcDb2dPolyline
 66
     1
 10
0.0
 20
0.0
 30
0.0
  0
VERTEX
  5
713
330
712
100
AcDbEntity
  8
Layer 1
 62
     7
370
    18
100
AcDbVertex
100
AcDb2dVertex
 10
0.9031069013807508
 20
4.778448740641275
 30
0.0
  0
VERTEX
  5
714
330
712
100
AcDbEntity
  8
Layer 1
 62
     7
370
    18
100
AcDbVertex
100
AcDb2dVertex
 10
0.9031069013807508
 20
5.338168250189887
 30
0.0
  0
SEQEND
  5
715
330
712
100
AcDbEntity
  8
Layer 1
 62
     7
370
    18
  0
POLYLINE
  5
716
330
1F
100
AcDbEntity
  8
Layer 1
 62
     7
370
    18
100
AcDb2dPolyline
 66
     1
 10
0.0
 20
0.0
 30
0.0
  0
VERTEX
  5
717
330
716
100
AcDbEntity
  8
Layer 1
 62
     7
370
    18
100
AcDbVertex
100
AcDb2dVertex
 10
2.140107048882379
 20
4.830827924940321
 30
0.0
  0
VERTEX
  5
718
330
716
100
AcDbEntity
  8
Layer 1
 62
     7
370
    18
100
AcDbVertex
100
AcDb2dVertex
 10
1.932001325819227
 20
4.830827924940321
 30
0.0
  0
SEQEND
  5
719
330
716
100
AcDbEntity
  8
Layer 1
 62
     7
370
    18
  0
POLYLINE
  5
71A
330
1F
100
AcDbEntity
  8
Layer 1
 62
     7
370
    18
100
AcDb2dPolyline
 66
     1
 10
0.0
 20
0.0
 30
0.0
  0
VERTEX
  5
71B
330
71A
100
AcDbEntity
  8
Layer 1
 62
     7
370
    18
100
AcDbVertex
100
AcDb2dVertex
 10
1.277281973097059
 20
4.841755761040582
 30
0.0
  0
VERTEX
  5
71C
330
71A
100
AcDbEntity
  8
Layer 1
 62
     7
370
    18
100
AcDbVertex
100
AcDb2dVertex
 10
1.485106892055935
 20
4.841755761040582
 30
0.0
  0
SEQEND
  5
71D
330
71A
100
AcDbEntity
  8
Layer 1
 62
     7
370
    18
  0
POLYLINE
  5
71E
330
1F
100
AcDbEntity
  8
Layer 1
 62
     7
370
    18
100
AcDb2dPolyline
 66
     1
 10
0.0
 20
0.0
 30
0.0
  0
VERTEX
  5
71F
330
71E
100
AcDbEntity
  8
Layer 1
 62
     7
370
    18
100
AcDbVertex
100
AcDb2dVertex
 10
1.932281917995877
 20
4.841755761040582
 30
0.0
  0
VERTEX
  5
720
330
71E
100
AcDbEntity
  8
Layer 1
 62
     7
370
    18
100
AcDbVertex
100
AcDb2dVertex
 10
2.140107048882379
 20
4.841755761040582
 30
0.0
  0
SEQEND
  5
721
330
71E
100
AcDbEntity
  8
Layer 1
 62
     7
370
    18
  0
POLYLINE
  5
722
330
1F
100
AcDbEntity
  8
Layer 1
 62
     7
370
    18
100
AcDb2dPolyline
 66
     1
 10
0.0
 20
0.0
 30
0.0
  0
VERTEX
  5
723
330
722
100
AcDbEntity
  8
Layer 1
 62
     7
370
    18
100
AcDbVertex
100
AcDb2dVertex
 10
1.932281917995877
 20
4.841755761040582
 30
0.0
  0
VERTEX
  5
724
330
722
100
AcDbEntity
  8
Layer 1
 62
     7
370
    18
100
AcDbVertex
100
AcDb2dVertex
 10
1.932199902004666
 20
4.836898803710938
 30
0.0
  0
VERTEX
  5
725
330
722
100
AcDbEntity
  8
Layer 1
 62
     7
370
    18
100
AcDbVertex
100
AcDb2dVertex
 10
1.932001325819227
 20
4.830827924940321
 30
0.0
  0
SEQEND
  5
726
330
722
100
AcDbEntity
  8
Layer 1
 62
     7
370
    18
  0
POLYLINE
  5
727
330
1F
100
AcDbEntity
  8
Layer 1
 62
     7
370
    18
100
AcDb2dPolyline
 66
     1
 10
0.0
 20
0.0
 30
0.0
  0
VERTEX
  5
728
330
727
100
AcDbEntity
  8
Layer 1
 62
     7
370
    18
100
AcDbVertex
100
AcDb2dVertex
 10
1.277281973097059
 20
4.841755761040582
 30
0.0
  0
VERTEX
  5
729
330
727
100
AcDbEntity
  8
Layer 1
 62
     7
370
    18
100
AcDbVertex
100
AcDb2dVertex
 10
1.277199957105849
 20
4.836898803710938
 30
0.0
  0
VERTEX
  5
72A
330
727
100
AcDbEntity
  8
Layer 1
 62
     7
370
    18
100
AcDbVertex
100
AcDb2dVertex
 10
1.277002758449978
 20
4.830827924940321
 30
0.0
  0
SEQEND
  5
72B
330
727
100
AcDbEntity
  8
Layer 1
 62
     7
370
    18
  0
POLYLINE
  5
72C
330
1F
100
AcDbEntity
  8
Layer 1
 62
     7
370
    18
100
AcDb2dPolyline
 66
     1
 10
0.0
 20
0.0
 30
0.0
  0
VERTEX
  5
72D
330
72C
100
AcDbEntity
  8
Layer 1
 62
     7
370
    18
100
AcDbVertex
100
AcDb2dVertex
 10
1.485106892055935
 20
4.830827924940321
 30
0.0
  0
VERTEX
  5
72E
330
72C
100
AcDbEntity
  8
Layer 1
 62
     7
370
    18
100
AcDbVertex
100
AcDb2dVertex
 10
1.277002758449978
 20
4.830827924940321
 30
0.0
  0
SEQEND
  5
72F
330
72C
100
AcDbEntity
  8
Layer 1
 62
     7
370
    18
  0
POLYLINE
  5
730
330
1F
100
AcDbEntity
  8
Layer 1
 62
     7
370
    18
100
AcDb2dPolyline
 66
     1
 10
0.0
 20
0.0
 30
0.0
  0
VERTEX
  5
731
330
730
100
AcDbEntity
  8
Layer 1
 62
     7
370
    18
100
AcDbVertex
100
AcDb2dVertex
 10
0.8808819452921549
 20
4.689201354980469
 30
0.0
  0
VERTEX
  5
732
330
730
100
AcDbEntity
  8
Layer 1
 62
     7
370
    18
100
AcDbVertex
100
AcDb2dVertex
 10
0.8740527894761827
 20
4.682372199164496
 30
0.0
  0
SEQEND
  5
733
330
730
100
AcDbEntity
  8
Layer 1
 62
     7
370
    18
  0
POLYLINE
  5
734
330
1F
100
AcDbEntity
  8
Layer 1
 62
     7
370
    18
100
AcDb2dPolyline
 66
     1
 10
0.0
 20
0.0
 30
0.0
  0
VERTEX
  5
735
330
734
100
AcDbEntity
  8
Layer 1
 62
     7
370
    18
100
AcDbVertex
100
AcDb2dVertex
 10
1.759726418389214
 20
4.593497382269965
 30
0.0
  0
VERTEX
  5
736
330
734
100
AcDbEntity
  8
Layer 1
 62
     7
370
    18
100
AcDbVertex
100
AcDb2dVertex
 10
2.593487421671549
 20
4.593497382269965
 30
0.0
  0
SEQEND
  5
737
330
734
100
AcDbEntity
  8
Layer 1
 62
     7
370
    18
  0
POLYLINE
  5
738
330
1F
100
AcDbEntity
  8
Layer 1
 62
     7
370
    18
100
AcDb2dPolyline
 66
     1
 10
0.0
 20
0.0
 30
0.0
  0
VERTEX
  5
739
330
738
100
AcDbEntity
  8
Layer 1
 62
     7
370
    18
100
AcDbVertex
100
AcDb2dVertex
 10
3.479161156548394
 20
4.682372199164496
 30
0.0
  0
VERTEX
  5
73A
330
738
100
AcDbEntity
  8
Layer 1
 62
     7
370
    18
100
AcDbVertex
100
AcDb2dVertex
 10
3.472332000732422
 20
4.689201354980469
 30
0.0
  0
SEQEND
  5
73B
330
738
100
AcDbEntity
  8
Layer 1
 62
     7
370
    18
  0
POLYLINE
  5
73C
330
1F
100
AcDbEntity
  8
Layer 1
 62
     7
370
    18
100
AcDb2dPolyline
 66
     1
 10
0.0
 20
0.0
 30
0.0
  0
VERTEX
  5
73D
330
73C
100
AcDbEntity
  8
Layer 1
 62
     7
370
    18
100
AcDbVertex
100
AcDb2dVertex
 10
3.472332000732422
 20
4.689201354980469
 30
0.0
  0
VERTEX
  5
73E
330
73C
100
AcDbEntity
  8
Layer 1
 62
     7
370
    18
100
AcDbVertex
100
AcDb2dVertex
 10
0.8808819452921549
 20
4.689201354980469
 30
0.0
  0
SEQEND
  5
73F
330
73C
100
AcDbEntity
  8
Layer 1
 62
     7
370
    18
  0
POLYLINE
  5
740
330
1F
100
AcDbEntity
  8
Layer 1
 62
     7
370
    18
100
AcDb2dPolyline
 66
     1
 10
0.0
 20
0.0
 30
0.0
  0
VERTEX
  5
741
330
740
100
AcDbEntity
  8
Layer 1
 62
     7
370
    18
100
AcDbVertex
100
AcDb2dVertex
 10
0.8740527894761827
 20
4.682372199164496
 30
0.0
  0
VERTEX
  5
742
330
740
100
AcDbEntity
  8
Layer 1
 62
     7
370
    18
100
AcDbVertex
100
AcDb2dVertex
 10
3.479161156548394
 20
4.682372199164496
 30
0.0
  0
SEQEND
  5
743
330
740
100
AcDbEntity
  8
Layer 1
 62
     7
370
    18
  0
POLYLINE
  5
744
330
1F
100
AcDbEntity
  8
Layer 1
 62
     7
370
    18
100
AcDb2dPolyline
 66
     1
 10
0.0
 20
0.0
 30
0.0
  0
VERTEX
  5
745
330
744
100
AcDbEntity
  8
Layer 1
 62
     7
370
    18
100
AcDbVertex
100
AcDb2dVertex
 10
1.759726418389214
 20
4.593497382269965
 30
0.0
  0
VERTEX
  5
746
330
744
100
AcDbEntity
  8
Layer 1
 62
     7
370
    18
100
AcDbVertex
100
AcDb2dVertex
 10
1.75928889380561
 20
4.585166507297092
 30
0.0
  0
SEQEND
  5
747
330
744
100
AcDbEntity
  8
Layer 1
 62
     7
370
    18
  0
POLYLINE
  5
748
330
1F
100
AcDbEntity
  8
Layer 1
 62
     7
370
    18
100
AcDb2dPolyline
 66
     1
 10
0.0
 20
0.0
 30
0.0
  0
VERTEX
  5
749
330
748
100
AcDbEntity
  8
Layer 1
 62
     7
370
    18
100
AcDbVertex
100
AcDb2dVertex
 10
2.619004143608941
 20
4.584292941623263
 30
0.0
  0
VERTEX
  5
74A
330
748
100
AcDbEntity
  8
Layer 1
 62
     7
370
    18
100
AcDbVertex
100
AcDb2dVertex
 10
3.492188983493381
 20
4.584292941623263
 30
0.0
  0
SEQEND
  5
74B
330
748
100
AcDbEntity
  8
Layer 1
 62
     7
370
    18
  0
POLYLINE
  5
74C
330
1F
100
AcDbEntity
  8
Layer 1
 62
     7
370
    18
100
AcDb2dPolyline
 66
     1
 10
0.0
 20
0.0
 30
0.0
  0
VERTEX
  5
74D
330
74C
100
AcDbEntity
  8
Layer 1
 62
     7
370
    18
100
AcDbVertex
100
AcDb2dVertex
 10
3.5771361456977
 20
6.192594316270616
 30
0.0
  0
VERTEX
  5
74E
330
74C
100
AcDbEntity
  8
Layer 1
 62
     7
370
    18
100
AcDbVertex
100
AcDb2dVertex
 10
3.5771361456977
 20
4.669241587320963
 30
0.0
  0
SEQEND
  5
74F
330
74C
100
AcDbEntity
  8
Layer 1
 62
     7
370
    18
  0
POLYLINE
  5
750
330
1F
100
AcDbEntity
  8
Layer 1
 62
     7
370
    18
100
AcDb2dPolyline
 66
     1
 10
0.0
 20
0.0
 30
0.0
  0
VERTEX
  5
751
330
750
100
AcDbEntity
  8
Layer 1
 62
     7
370
    18
100
AcDbVertex
100
AcDb2dVertex
 10
3.5771361456977
 20
4.669241587320963
 30
0.0
  0
VERTEX
  5
752
330
750
100
AcDbEntity
  8
Layer 1
 62
     7
370
    18
100
AcDbVertex
100
AcDb2dVertex
 10
3.572980668809679
 20
4.64298333062066
 30
0.0
  0
VERTEX
  5
753
330
750
100
AcDbEntity
  8
Layer 1
 62
     7
370
    18
100
AcDbVertex
100
AcDb2dVertex
 10
3.560918172200521
 20
4.619302961561415
 30
0.0
  0
VERTEX
  5
754
330
750
100
AcDbEntity
  8
Layer 1
 62
     7
370
    18
100
AcDbVertex
100
AcDb2dVertex
 10
3.542127821180555
 20
4.60051261054145
 30
0.0
  0
VERTEX
  5
755
330
750
100
AcDbEntity
  8
Layer 1
 62
     7
370
    18
100
AcDbVertex
100
AcDb2dVertex
 10
3.518445756700304
 20
4.588450113932291
 30
0.0
  0
VERTEX
  5
756
330
750
100
AcDbEntity
  8
Layer 1
 62
     7
370
    18
100
AcDbVertex
100
AcDb2dVertex
 10
3.492188983493381
 20
4.584292941623263
 30
0.0
  0
SEQEND
  5
757
330
750
100
AcDbEntity
  8
Layer 1
 62
     7
370
    18
  0
POLYLINE
  5
758
330
1F
100
AcDbEntity
  8
Layer 1
 62
     7
370
    18
100
AcDb2dPolyline
 66
     1
 10
0.0
 20
0.0
 30
0.0
  0
VERTEX
  5
759
330
758
100
AcDbEntity
  8
Layer 1
 62
     7
370
    18
100
AcDbVertex
100
AcDb2dVertex
 10
3.492188983493381
 20
6.277542961968315
 30
0.0
  0
VERTEX
  5
75A
330
758
100
AcDbEntity
  8
Layer 1
 62
     7
370
    18
100
AcDbVertex
100
AcDb2dVertex
 10
3.518445756700304
 20
6.27338621351454
 30
0.0
  0
VERTEX
  5
75B
330
758
100
AcDbEntity
  8
Layer 1
 62
     7
370
    18
100
AcDbVertex
100
AcDb2dVertex
 10
3.542127821180555
 20
6.261323716905381
 30
0.0
  0
VERTEX
  5
75C
330
758
100
AcDbEntity
  8
Layer 1
 62
     7
370
    18
100
AcDbVertex
100
AcDb2dVertex
 10
3.560918172200521
 20
6.242533365885416
 30
0.0
  0
VERTEX
  5
75D
330
758
100
AcDbEntity
  8
Layer 1
 62
     7
370
    18
100
AcDbVertex
100
AcDb2dVertex
 10
3.572980668809679
 20
6.218851301405165
 30
0.0
  0
VERTEX
  5
75E
330
758
100
AcDbEntity
  8
Layer 1
 62
     7
370
    18
100
AcDbVertex
100
AcDb2dVertex
 10
3.5771361456977
 20
6.192594316270616
 30
0.0
  0
SEQEND
  5
75F
330
758
100
AcDbEntity
  8
Layer 1
 62
     7
370
    18
  0
POLYLINE
  5
760
330
1F
100
AcDbEntity
  8
Layer 1
 62
     7
370
    18
100
AcDb2dPolyline
 66
     1
 10
0.0
 20
0.0
 30
0.0
  0
VERTEX
  5
761
330
760
100
AcDbEntity
  8
Layer 1
 62
     7
370
    18
100
AcDbVertex
100
AcDb2dVertex
 10
0.7760778003268771
 20
6.192594316270616
 30
0.0
  0
VERTEX
  5
762
330
760
100
AcDbEntity
  8
Layer 1
 62
     7
370
    18
100
AcDbVertex
100
AcDb2dVertex
 10
0.7802333301968044
 20
6.218851301405165
 30
0.0
  0
VERTEX
  5
763
330
760
100
AcDbEntity
  8
Layer 1
 62
     7
370
    18
100
AcDbVertex
100
AcDb2dVertex
 10
0.7922958268059624
 20
6.242533365885416
 30
0.0
  0
VERTEX
  5
764
330
760
100
AcDbEntity
  8
Layer 1
 62
     7
370
    18
100
AcDbVertex
100
AcDb2dVertex
 10
0.8110861248440212
 20
6.261323716905381
 30
0.0
  0
VERTEX
  5
765
330
760
100
AcDbEntity
  8
Layer 1
 62
     7
370
    18
100
AcDbVertex
100
AcDb2dVertex
 10
0.8347680303785535
 20
6.27338621351454
 30
0.0
  0
VERTEX
  5
766
330
760
100
AcDbEntity
  8
Layer 1
 62
     7
370
    18
100
AcDbVertex
100
AcDb2dVertex
 10
0.8610250155131022
 20
6.277542961968315
 30
0.0
  0
SEQEND
  5
767
330
760
100
AcDbEntity
  8
Layer 1
 62
     7
370
    18
  0
POLYLINE
  5
768
330
1F
100
AcDbEntity
  8
Layer 1
 62
     7
370
    18
100
AcDb2dPolyline
 66
     1
 10
0.0
 20
0.0
 30
0.0
  0
VERTEX
  5
769
330
768
100
AcDbEntity
  8
Layer 1
 62
     7
370
    18
100
AcDbVertex
100
AcDb2dVertex
 10
0.8610250155131022
 20
6.277542961968315
 30
0.0
  0
VERTEX
  5
76A
330
768
100
AcDbEntity
  8
Layer 1
 62
     7
370
    18
100
AcDbVertex
100
AcDb2dVertex
 10
3.492188983493381
 20
6.277542961968315
 30
0.0
  0
SEQEND
  5
76B
330
768
100
AcDbEntity
  8
Layer 1
 62
     7
370
    18
  0
POLYLINE
  5
76C
330
1F
100
AcDbEntity
  8
Layer 1
 62
     7
370
    18
100
AcDb2dPolyline
 66
     1
 10
0.0
 20
0.0
 30
0.0
  0
VERTEX
  5
76D
330
76C
100
AcDbEntity
  8
Layer 1
 62
     7
370
    18
100
AcDbVertex
100
AcDb2dVertex
 10
0.7760778003268771
 20
4.669241587320963
 30
0.0
  0
VERTEX
  5
76E
330
76C
100
AcDbEntity
  8
Layer 1
 62
     7
370
    18
100
AcDbVertex
100
AcDb2dVertex
 10
0.7760778003268771
 20
6.192594316270616
 30
0.0
  0
SEQEND
  5
76F
330
76C
100
AcDbEntity
  8
Layer 1
 62
     7
370
    18
  0
POLYLINE
  5
770
330
1F
100
AcDbEntity
  8
Layer 1
 62
     7
370
    18
100
AcDb2dPolyline
 66
     1
 10
0.0
 20
0.0
 30
0.0
  0
VERTEX
  5
771
330
770
100
AcDbEntity
  8
Layer 1
 62
     7
370
    18
100
AcDbVertex
100
AcDb2dVertex
 10
0.8610250155131022
 20
4.584292941623263
 30
0.0
  0
VERTEX
  5
772
330
770
100
AcDbEntity
  8
Layer 1
 62
     7
370
    18
100
AcDbVertex
100
AcDb2dVertex
 10
0.8347680303785535
 20
4.588450113932291
 30
0.0
  0
VERTEX
  5
773
330
770
100
AcDbEntity
  8
Layer 1
 62
     7
370
    18
100
AcDbVertex
100
AcDb2dVertex
 10
0.8110861248440212
 20
4.60051261054145
 30
0.0
  0
VERTEX
  5
774
330
770
100
AcDbEntity
  8
Layer 1
 62
     7
370
    18
100
AcDbVertex
100
AcDb2dVertex
 10
0.7922958268059624
 20
4.619302961561415
 30
0.0
  0
VERTEX
  5
775
330
770
100
AcDbEntity
  8
Layer 1
 62
     7
370
    18
100
AcDbVertex
100
AcDb2dVertex
 10
0.7802333301968044
 20
4.64298333062066
 30
0.0
  0
VERTEX
  5
776
330
770
100
AcDbEntity
  8
Layer 1
 62
     7
370
    18
100
AcDbVertex
100
AcDb2dVertex
 10
0.7760778003268771
 20
4.669241587320963
 30
0.0
  0
SEQEND
  5
777
330
770
100
AcDbEntity
  8
Layer 1
 62
     7
370
    18
  0
POLYLINE
  5
778
330
1F
100
AcDbEntity
  8
Layer 1
 62
     7
370
    18
100
AcDb2dPolyline
 66
     1
 10
0.0
 20
0.0
 30
0.0
  0
VERTEX
  5
779
330
778
100
AcDbEntity
  8
Layer 1
 62
     7
370
    18
100
AcDbVertex
100
AcDb2dVertex
 10
0.8610250155131022
 20
4.584292941623263
 30
0.0
  0
VERTEX
  5
77A
330
778
100
AcDbEntity
  8
Layer 1
 62
     7
370
    18
100
AcDbVertex
100
AcDb2dVertex
 10
1.734209696451823
 20
4.584292941623263
 30
0.0
  0
SEQEND
  5
77B
330
778
100
AcDbEntity
  8
Layer 1
 62
     7
370
    18
  0
POLYLINE
  5
77C
330
1F
100
AcDbEntity
  8
Layer 1
 62
     7
370
    18
100
AcDb2dPolyline
 66
     1
 10
0.0
 20
0.0
 30
0.0
  0
VERTEX
  5
77D
330
77C
100
AcDbEntity
  8
Layer 1
 62
     7
370
    18
100
AcDbVertex
100
AcDb2dVertex
 10
1.962217966715495
 20
4.593501196967231
 30
0.0
  0
VERTEX
  5
77E
330
77C
100
AcDbEntity
  8
Layer 1
 62
     7
370
    18
100
AcDbVertex
100
AcDb2dVertex
 10
1.964340209960938
 20
4.471962398952908
 30
0.0
  0
SEQEND
  5
77F
330
77C
100
AcDbEntity
  8
Layer 1
 62
     7
370
    18
  0
ENDSEC
  0
SECTION
  2
OBJECTS
  0
DICTIONARY
  5
C
330
0
100
AcDbDictionary
281
     1
  3
ACAD_GROUP
350
D
  3
ACAD_LAYOUT
350
1A
  3
ACAD_MATERIAL
350
3B
  3
ACAD_MLEADERSTYLE
350
781
  3
ACAD_MLINESTYLE
350
17
  3
ACAD_PLOTSETTINGS
350
19
  3
ACAD_PLOTSTYLENAME
350
E
  3
ACAD_TABLESTYLE
350
780
  3
ACAD_VISUALSTYLE
350
2A
  0
SUN
  5
3F
330
29
100
AcDbSun
 90
        1
290
     0
 63
     7
421
 16777215
 40
1.0
291
     1
 91
  2455826
 92
 54000000
292
     0
 70
     2
 71
   256
280
     1
  0
DICTIONARY
  5
D
102
{ACAD_REACTORS
330
C
102
}
330
C
100
AcDbDictionary
281
     1
  0
DICTIONARY
  5
1A
102
{ACAD_REACTORS
330
C
102
}
330
C
100
AcDbDictionary
281
     1
  3
Layout1
350
1E
  3
Layout2
350
26
  3
Model
350
22
  0
DICTIONARY
  5
3B
102
{ACAD_REACTORS
330
C
102
}
330
C
100
AcDbDictionary
281
     1
  3
ByBlock
350
3D
  3
ByLayer
350
3C
  3
Global
350
3E
  0
DICTIONARY
  5
781
102
{ACAD_REACTORS
330
C
102
}
330
C
100
AcDbDictionary
281
     1
  0
DICTIONARY
  5
17
102
{ACAD_REACTORS
330
C
102
}
330
C
100
AcDbDictionary
281
     1
  3
Standard
350
18
  0
DICTIONARY
  5
19
102
{ACAD_REACTORS
330
C
102
}
330
C
100
AcDbDictionary
281
     1
  0
ACDBDICTIONARYWDFLT
  5
E
102
{ACAD_REACTORS
330
C
102
}
330
C
100
AcDbDictionary
281
     1
  3
Normal
350
F
100
AcDbDictionaryWithDefault
340
F
  0
DICTIONARY
  5
780
102
{ACAD_REACTORS
330
C
102
}
330
C
100
AcDbDictionary
281
     1
  0
DICTIONARY
  5
2A
102
{ACAD_REACTORS
330
C
102
}
330
C
100
AcDbDictionary
281
     1
  3
2dWireframe
350
2F
  3
3D Hidden
350
31
  3
3dWireframe
350
30
  3
Basic
350
32
  3
Brighten
350
36
  3
ColorChange
350
3A
  3
Conceptual
350
34
  3
Dim
350
35
  3
Facepattern
350
39
  3
Flat
350
2B
  3
FlatWithEdges
350
2C
  3
Gouraud
350
2D
  3
GouraudWithEdges
350
2E
  3
Linepattern
350
38
  3
Realistic
350
33
  3
Thicken
350
37
  0
LAYOUT
  5
1E
102
{ACAD_REACTORS
330
1A
102
}
330
1A
100
AcDbPlotSettings
  1

  2
none_device
  4

  6

 40
0.0
 41
0.0
 42
0.0
 43
0.0
 44
0.0
 45
0.0
 46
0.0
 47
0.0
 48
0.0
 49
0.0
140
0.0
141
0.0
142
1.0
143
1.0
 70
   688
 72
     0
 73
     0
 74
     5
  7

 75
    16
 76
     0
 77
     2
 78
   300
147
1.0
148
0.0
149
0.0
100
AcDbLayout
  1
Layout1
 70
     1
 71
     1
 10
0.0
 20
0.0
 11
12.0
 21
9.0
 12
0.0
 22
0.0
 32
0.0
 14
1.000000000000000E+20
 24
1.000000000000000E+20
 34
1.000000000000000E+20
 15
-1.000000000000000E+20
 25
-1.000000000000000E+20
 35
-1.000000000000000E+20
146
0.0
 13
0.0
 23
0.0
 33
0.0
 16
1.0
 26
0.0
 36
0.0
 17
0.0
 27
1.0
 37
0.0
 76
     0
330
1B
  0
LAYOUT
  5
26
102
{ACAD_REACTORS
330
1A
102
}
330
1A
100
AcDbPlotSettings
  1

  2
none_device
  4

  6

 40
0.0
 41
0.0
 42
0.0
 43
0.0
 44
0.0
 45
0.0
 46
0.0
 47
0.0
 48
0.0
 49
0.0
140
0.0
141
0.0
142
1.0
143
1.0
 70
   688
 72
     0
 73
     0
 74
     5
  7

 75
    16
 76
     0
 77
     2
 78
   300
147
1.0
148
0.0
149
0.0
100
AcDbLayout
  1
Layout2
 70
     1
 71
     2
 10
0.0
 20
0.0
 11
0.0
 21
0.0
 12
0.0
 22
0.0
 32
0.0
 14
0.0
 24
0.0
 34
0.0
 15
0.0
 25
0.0
 35
0.0
146
0.0
 13
0.0
 23
0.0
 33
0.0
 16
1.0
 26
0.0
 36
0.0
 17
0.0
 27
1.0
 37
0.0
 76
     0
330
23
  0
LAYOUT
  5
22
102
{ACAD_REACTORS
330
1A
102
}
330
1A
100
AcDbPlotSettings
  1

  2
none_device
  4

  6

 40
0.0
 41
0.0
 42
0.0
 43
0.0
 44
0.0
 45
0.0
 46
0.0
 47
0.0
 48
0.0
 49
0.0
140
0.0
141
0.0
142
1.0
143
1.0
 70
  1712
 72
     0
 73
     0
 74
     0
  7

 75
     0
 76
     0
 77
     2
 78
   300
147
1.0
148
0.0
149
0.0
100
AcDbLayout
  1
Model
 70
     1
 71
     0
 10
0.0
 20
0.0
 11
12.0
 21
9.0
 12
0.0
 22
0.0
 32
0.0
 14
1.000000000000000E+20
 24
1.000000000000000E+20
 34
1.000000000000000E+20
 15
-1.000000000000000E+20
 25
-1.000000000000000E+20
 35
-1.000000000000000E+20
146
0.0
 13
0.0
 23
0.0
 33
0.0
 16
1.0
 26
0.0
 36
0.0
 17
0.0
 27
1.0
 37
0.0
 76
     0
330
1F
331
29
  0
MATERIAL
  5
3D
102
{ACAD_REACTORS
330
3B
102
}
330
3B
100
AcDbMaterial
  1
ByBlock
 72
     1
 94
      127
  0
MATERIAL
  5
3C
102
{ACAD_REACTORS
330
3B
102
}
330
3B
100
AcDbMaterial
  1
ByLayer
 72
     1
 94
      127
  0
MATERIAL
  5
3E
102
{ACAD_REACTORS
330
3B
102
}
330
3B
100
AcDbMaterial
  1
Global
 72
     1
 94
      127
  0
MLINESTYLE
  5
18
102
{ACAD_REACTORS
330
17
102
}
330
17
100
AcDbMlineStyle
  2
Standard
 70
     0
  3

 62
   256
 51
90.0
 52
90.0
 71
     2
 49
0.5
 62
   256
  6
BYLAYER
 49
-0.5
 62
   256
  6
BYLAYER
  0
ACDBPLACEHOLDER
  5
F
102
{ACAD_REACTORS
330
E
102
}
330
E
  0
VISUALSTYLE
  5
2F
102
{ACAD_REACTORS
330
2A
102
}
330
2A
100
AcDbVisualStyle
  2
2dWireframe
 70
     4
177
     2
291
     0
 71
     0
176
     1
 72
     2
176
     1
 73
     0
176
     1
 90
        0
176
     1
 40
-0.6
176
     1
 41
-30.0
176
     1
 62
     5
 63
     7
421
 16777215
176
     1
 74
     1
176
     1
 91
        4
176
     1
 64
     7
176
     1
 65
   257
176
     1
 75
     1
176
     1
175
     1
176
     1
 42
1.0
176
     1
 92
        0
176
     1
 66
   257
176
     1
 43
1.0
176
     1
 76
     1
176
     1
 77
     6
176
     1
 78
     2
176
     1
 67
     7
176
     1
 79
     5
176
     1
170
     0
176
     1
171
     0
176
     1
290
     0
176
     1
 93
        1
176
     1
 44
0.0
176
     1
173
     0
176
     1
  0
VISUALSTYLE
  5
31
102
{ACAD_REACTORS
330
2A
102
}
330
2A
100
AcDbVisualStyle
  2
3D Hidden
 70
     6
177
     2
291
     0
 71
     1
176
     1
 72
     2
176
     1
 73
     2
176
     1
 90
        0
176
     1
 40
-0.6
176
     1
 41
-30.0
176
     1
 62
     5
 63
     7
421
 16777215
176
     1
 74
     2
176
     1
 91
        2
176
     1
 64
     7
176
     1
 65
   257
176
     1
 75
     2
176
     1
175
     1
176
     1
 42
40.0
176
     1
 92
        0
176
     1
 66
   257
176
     1
 43
1.0
176
     1
 76
     1
176
     1
 77
     6
176
     1
 78
     2
176
     1
 67
     7
176
     1
 79
     3
176
     1
170
     0
176
     1
171
     0
176
     1
290
     0
176
     1
 93
        1
176
     1
 44
0.0
176
     1
173
     0
176
     1
  0
VISUALSTYLE
  5
30
102
{ACAD_REACTORS
330
2A
102
}
330
2A
100
AcDbVisualStyle
  2
3dWireframe
 70
     5
177
     2
291
     0
 71
     0
176
     1
 72
     2
176
     1
 73
     0
176
     1
 90
        0
176
     1
 40
-0.6
176
     1
 41
-30.0
176
     1
 62
     5
 63
     7
421
 16777215
176
     1
 74
     1
176
     1
 91
        4
176
     1
 64
     7
176
     1
 65
   257
176
     1
 75
     1
176
     1
175
     1
176
     1
 42
1.0
176
     1
 92
        0
176
     1
 66
   257
176
     1
 43
1.0
176
     1
 76
     1
176
     1
 77
     6
176
     1
 78
     2
176
     1
 67
     7
176
     1
 79
     5
176
     1
170
     0
176
     1
171
     0
176
     1
290
     0
176
     1
 93
        1
176
     1
 44
0.0
176
     1
173
     0
176
     1
  0
VISUALSTYLE
  5
32
102
{ACAD_REACTORS
330
2A
102
}
330
2A
100
AcDbVisualStyle
  2
Basic
 70
     7
177
     2
291
     1
 71
     1
176
     1
 72
     0
176
     1
 73
     1
176
     1
 90
        0
176
     1
 40
-0.6
176
     1
 41
-30.0
176
     1
 62
     5
 63
     7
421
 16777215
176
     1
 74
     0
176
     1
 91
        4
176
     1
 64
     7
176
     1
 65
   257
176
     1
 75
     1
176
     1
175
     1
176
     1
 42
1.0
176
     1
 92
        8
176
     1
 66
     7
176
     1
 43
1.0
176
     1
 76
     1
176
     1
 77
     6
176
     1
 78
     2
176
     1
 67
     7
176
     1
 79
     5
176
     1
170
     0
176
     1
171
     0
176
     1
290
     0
176
     1
 93
        1
176
     1
 44
0.0
176
     1
173
     0
176
     1
  0
VISUALSTYLE
  5
36
102
{ACAD_REACTORS
330
2A
102
}
330
2A
100
AcDbVisualStyle
  2
Brighten
 70
    12
177
     2
291
     1
 71
     2
176
     1
 72
     2
176
     1
 73
     0
176
     1
 90
        0
176
     1
 40
-0.6
176
     1
 41
-30.0
176
     1
 62
     5
 63
     7
421
 16777215
176
     1
 74
     1
176
     1
 91
        4
176
     1
 64
     7
176
     1
 65
   257
176
     1
 75
     1
176
     1
175
     1
176
     1
 42
1.0
176
     1
 92
        8
176
     1
 66
     7
176
     1
 43
1.0
176
     1
 76
     1
176
     1
 77
     6
176
     1
 78
     2
176
     1
 67
     7
176
     1
 79
     5
176
     1
170
     0
176
     1
171
     0
176
     1
290
     0
176
     1
 93
        1
176
     1
 44
50.0
176
     1
173
     0
176
     1
  0
VISUALSTYLE
  5
3A
102
{ACAD_REACTORS
330
2A
102
}
330
2A
100
AcDbVisualStyle
  2
ColorChange
 70
    16
177
     2
291
     1
 71
     2
176
     1
 72
     2
176
     1
 73
     3
176
     1
 90
        0
176
     1
 40
-0.6
176
     1
 41
-30.0
176
     1
 62
     5
 63
     8
421
  8421504
176
     1
 74
     1
176
     1
 91
        4
176
     1
 64
     7
176
     1
 65
   257
176
     1
 75
     1
176
     1
175
     1
176
     1
 42
1.0
176
     1
 92
        8
176
     1
 66
     8
424
  8421504
176
     1
 43
1.0
176
     1
 76
     1
176
     1
 77
     6
176
     1
 78
     2
176
     1
 67
     7
176
     1
 79
     5
176
     1
170
     0
176
     1
171
     0
176
     1
290
     0
176
     1
 93
        1
176
     1
 44
0.0
176
     1
173
     0
176
     1
  0
VISUALSTYLE
  5
34
102
{ACAD_REACTORS
330
2A
102
}
330
2A
100
AcDbVisualStyle
  2
Conceptual
 70
     9
177
     2
291
     0
 71
     3
176
     1
 72
     2
176
     1
 73
     0
176
     1
 90
        0
176
     1
 40
-0.6
176
     1
 41
-30.0
176
     1
 62
     5
 63
     7
421
 16777215
176
     1
 74
     2
176
     1
 91
        2
176
     1
 64
     7
176
     1
 65
   257
176
     1
 75
     1
176
     1
175
     1
176
     1
 42
40.0
176
     1
 92
        8
176
     1
 66
     7
176
     1
 43
1.0
176
     1
 76
     1
176
     1
 77
     6
176
     1
 78
     2
176
     1
 67
     7
176
     1
 79
     3
176
     1
170
     0
176
     1
171
     0
176
     1
290
     0
176
     1
 93
        1
176
     1
 44
0.0
176
     1
173
     0
176
     1
  0
VISUALSTYLE
  5
35
102
{ACAD_REACTORS
330
2A
102
}
330
2A
100
AcDbVisualStyle
  2
Dim
 70
    11
177
     2
291
     1
 71
     2
176
     1
 72
     2
176
     1
 73
     0
176
     1
 90
        0
176
     1
 40
-0.6
176
     1
 41
-30.0
176
     1
 62
     5
 63
     7
421
 16777215
176
     1
 74
     1
176
     1
 91
        4
176
     1
 64
     7
176
     1
 65
   257
176
     1
 75
     1
176
     1
175
     1
176
     1
 42
1.0
176
     1
 92
        8
176
     1
 66
     7
176
     1
 43
1.0
176
     1
 76
     1
176
     1
 77
     6
176
     1
 78
     2
176
     1
 67
     7
176
     1
 79
     5
176
     1
170
     0
176
     1
171
     0
176
     1
290
     0
176
     1
 93
        1
176
     1
 44
-50.0
176
     1
173
     0
176
     1
  0
VISUALSTYLE
  5
39
102
{ACAD_REACTORS
330
2A
102
}
330
2A
100
AcDbVisualStyle
  2
Facepattern
 70
    15
177
     2
291
     1
 71
     2
176
     1
 72
     2
176
     1
 73
     0
176
     1
 90
        0
176
     1
 40
-0.6
176
     1
 41
-30.0
176
     1
 62
     5
 63
     7
421
 16777215
176
     1
 74
     1
176
     1
 91
        4
176
     1
 64
     7
176
     1
 65
   257
176
     1
 75
     1
176
     1
175
     1
176
     1
 42
1.0
176
     1
 92
        8
176
     1
 66
     7
176
     1
 43
1.0
176
     1
 76
     1
176
     1
 77
     6
176
     1
 78
     2
176
     1
 67
     7
176
     1
 79
     5
176
     1
170
     0
176
     1
171
     0
176
     1
290
     0
176
     1
 93
        1
176
     1
 44
0.0
176
     1
173
     0
176
     1
  0
VISUALSTYLE
  5
2B
102
{ACAD_REACTORS
330
2A
102
}
330
2A
100
AcDbVisualStyle
  2
Flat
 70
     0
177
     2
291
     1
 71
     2
176
     1
 72
     1
176
     1
 73
     1
176
     1
 90
        2
176
     1
 40
-0.6
176
     1
 41
30.0
176
     1
 62
     5
 63
     7
421
 16777215
176
     1
 74
     0
176
     1
 91
        4
176
     1
 64
     7
176
     1
 65
   257
176
     1
 75
     1
176
     1
175
     1
176
     1
 42
1.0
176
     1
 92
        8
176
     1
 66
     7
176
     1
 43
1.0
176
     1
 76
     1
176
     1
 77
     6
176
     1
 78
     2
176
     1
 67
     7
176
     1
 79
     5
176
     1
170
     0
176
     1
171
     0
176
     1
290
     0
176
     1
 93
       13
176
     1
 44
0.0
176
     1
173
     0
176
     1
  0
VISUALSTYLE
  5
2C
102
{ACAD_REACTORS
330
2A
102
}
330
2A
100
AcDbVisualStyle
  2
FlatWithEdges
 70
     1
177
     2
291
     1
 71
     2
176
     1
 72
     1
176
     1
 73
     1
176
     1
 90
        2
176
     1
 40
-0.6
176
     1
 41
30.0
176
     1
 62
     5
 63
     7
421
 16777215
176
     1
 74
     1
176
     1
 91
        4
176
     1
 64
     7
176
     1
 65
   257
176
     1
 75
     1
176
     1
175
     1
176
     1
 42
1.0
176
     1
 92
        0
176
     1
 66
   257
176
     1
 43
1.0
176
     1
 76
     1
176
     1
 77
     6
176
     1
 78
     2
176
     1
 67
     7
176
     1
 79
     5
176
     1
170
     0
176
     1
171
     0
176
     1
290
     0
176
     1
 93
       13
176
     1
 44
0.0
176
     1
173
     0
176
     1
  0
VISUALSTYLE
  5
2D
102
{ACAD_REACTORS
330
2A
102
}
330
2A
100
AcDbVisualStyle
  2
Gouraud
 70
     2
177
     2
291
     1
 71
     2
176
     1
 72
     2
176
     1
 73
     1
176
     1
 90
        2
176
     1
 40
-0.6
176
     1
 41
30.0
176
     1
 62
     5
 63
     7
421
 16777215
176
     1
 74
     0
176
     1
 91
        4
176
     1
 64
     7
176
     1
 65
   257
176
     1
 75
     1
176
     1
175
     1
176
     1
 42
1.0
176
     1
 92
        0
176
     1
 66
     7
176
     1
 43
1.0
176
     1
 76
     1
176
     1
 77
     6
176
     1
 78
     2
176
     1
 67
     7
176
     1
 79
     5
176
     1
170
     0
176
     1
171
     0
176
     1
290
     0
176
     1
 93
       13
176
     1
 44
0.0
176
     1
173
     0
176
     1
  0
VISUALSTYLE
  5
2E
102
{ACAD_REACTORS
330
2A
102
}
330
2A
100
AcDbVisualStyle
  2
GouraudWithEdges
 70
     3
177
     2
291
     1
 71
     2
176
     1
 72
     2
176
     1
 73
     1
176
     1
 90
        2
176
     1
 40
-0.6
176
     1
 41
30.0
176
     1
 62
     5
 63
     7
421
 16777215
176
     1
 74
     1
176
     1
 91
        4
176
     1
 64
     7
176
     1
 65
   257
176
     1
 75
     1
176
     1
175
     1
176
     1
 42
1.0
176
     1
 92
        0
176
     1
 66
   257
176
     1
 43
1.0
176
     1
 76
     1
176
     1
 77
     6
176
     1
 78
     2
176
     1
 67
     7
176
     1
 79
     5
176
     1
170
     0
176
     1
171
     0
176
     1
290
     0
176
     1
 93
       13
176
     1
 44
0.0
176
     1
173
     0
176
     1
  0
VISUALSTYLE
  5
38
102
{ACAD_REACTORS
330
2A
102
}
330
2A
100
AcDbVisualStyle
  2
Linepattern
 70
    14
177
     2
291
     1
 71
     2
176
     1
 72
     2
176
     1
 73
     0
176
     1
 90
        0
176
     1
 40
-0.6
176
     1
 41
-30.0
176
     1
 62
     5
 63
     7
421
 16777215
176
     1
 74
     1
176
     1
 91
        4
176
     1
 64
     7
176
     1
 65
   257
176
     1
 75
     7
176
     1
175
     7
176
     1
 42
1.0
176
     1
 92
        8
176
     1
 66
     7
176
     1
 43
1.0
176
     1
 76
     1
176
     1
 77
     6
176
     1
 78
     2
176
     1
 67
     7
176
     1
 79
     5
176
     1
170
     0
176
     1
171
     0
176
     1
290
     0
176
     1
 93
        1
176
     1
 44
0.0
176
     1
173
     0
176
     1
  0
VISUALSTYLE
  5
33
102
{ACAD_REACTORS
330
2A
102
}
330
2A
100
AcDbVisualStyle
  2
Realistic
 70
     8
177
     2
291
     0
 71
     2
176
     1
 72
     2
176
     1
 73
     0
176
     1
 90
        0
176
     1
 40
-0.6
176
     1
 41
-30.0
176
     1
 62
     5
 63
     7
421
 16777215
176
     1
 74
     1
176
     1
 91
        0
176
     1
 64
     7
176
     1
 65
   257
176
     1
 75
     1
176
     1
175
     1
176
     1
 42
1.0
176
     1
 92
        8
176
     1
 66
     8
424
  7895160
176
     1
 43
1.0
176
     1
 76
     1
176
     1
 77
     6
176
     1
 78
     2
176
     1
 67
     7
176
     1
 79
     5
176
     1
170
     0
176
     1
171
     0
176
     1
290
     0
176
     1
 93
       13
176
     1
 44
0.0
176
     1
173
     0
176
     1
  0
VISUALSTYLE
  5
37
102
{ACAD_REACTORS
330
2A
102
}
330
2A
100
AcDbVisualStyle
  2
Thicken
 70
    13
177
     2
291
     1
 71
     2
176
     1
 72
     2
176
     1
 73
     0
176
     1
 90
        0
176
     1
 40
-0.6
176
     1
 41
-30.0
176
     1
 62
     5
 63
     7
421
 16777215
176
     1
 74
     1
176
     1
 91
        4
176
     1
 64
     7
176
     1
 65
   257
176
     1
 75
     1
176
     1
175
     1
176
     1
 42
1.0
176
     1
 92
       12
176
     1
 66
     7
176
     1
 43
1.0
176
     1
 76
     1
176
     1
 77
     6
176
     1
 78
     2
176
     1
 67
     7
176
     1
 79
     5
176
     1
170
     0
176
     1
171
     0
176
     1
290
     0
176
     1
 93
        1
176
     1
 44
0.0
176
     1
173
     0
176
     1
  0
ENDSEC
  0
EOF
