  0
SECTION
  2
HEADER
  9
$ACADVER
  1
AC1012
  9
$DWGCODEPAGE
  3
ANSI_1252
  9
$INSBASE
 10
0.0
 20
0.0
 30
0.0
  9
$EXTMIN
 10
1.188903837917493
 20
1.78500368514215
 30
-0.0015258207003583
  9
$EXTMAX
 10
7.640625022864696
 20
8.287536641219091
 30
0.0000000349246037
  9
$LIMMIN
 10
0.0
 20
0.0
  9
$LIMMAX
 10
12.0
 20
9.0
  9
$ORTHOMODE
 70
     0
  9
$REGENMODE
 70
     1
  9
$FILLMODE
 70
     1
  9
$QTEXTMODE
 70
     0
  9
$MIRRTEXT
 70
     1
  9
$DRAGMODE
 70
     2
  9
$LTSCALE
 40
1.0
  9
$OSMODE
 70
    37
  9
$ATTMODE
 70
     1
  9
$TEXTSIZE
 40
0.2
  9
$TRACEWID
 40
0.05
  9
$TEXTSTYLE
  7
STANDARD
  9
$CLAYER
  8
0
  9
$CELTYPE
  6
BYLAYER
  9
$CECOLOR
 62
   256
  9
$CELTSCALE
 40
1.0
  9
$DELOBJ
 70
     1
  9
$DISPSILH
 70
     0
  9
$DIMSCALE
 40
1.0
  9
$DIMASZ
 40
0.18
  9
$DIMEXO
 40
0.0625
  9
$DIMDLI
 40
0.38
  9
$DIMRND
 40
0.0
  9
$DIMDLE
 40
0.0
  9
$DIMEXE
 40
0.18
  9
$DIMTP
 40
0.0
  9
$DIMTM
 40
0.0
  9
$DIMTXT
 40
0.18
  9
$DIMCEN
 40
0.09
  9
$DIMTSZ
 40
0.0
  9
$DIMTOL
 70
     0
  9
$DIMLIM
 70
     0
  9
$DIMTIH
 70
     1
  9
$DIMTOH
 70
     1
  9
$DIMSE1
 70
     0
  9
$DIMSE2
 70
     0
  9
$DIMTAD
 70
     0
  9
$DIMZIN
 70
     0
  9
$DIMBLK
  1

  9
$DIMASO
 70
     1
  9
$DIMSHO
 70
     1
  9
$DIMPOST
  1

  9
$DIMAPOST
  1

  9
$DIMALT
 70
     0
  9
$DIMALTD
 70
     2
  9
$DIMALTF
 40
25.4
  9
$DIMLFAC
 40
1.0
  9
$DIMTOFL
 70
     0
  9
$DIMTVP
 40
0.0
  9
$DIMTIX
 70
     0
  9
$DIMSOXD
 70
     0
  9
$DIMSAH
 70
     0
  9
$DIMBLK1
  1

  9
$DIMBLK2
  1

  9
$DIMSTYLE
  2
STANDARD
  9
$DIMCLRD
 70
     0
  9
$DIMCLRE
 70
     0
  9
$DIMCLRT
 70
     0
  9
$DIMTFAC
 40
1.0
  9
$DIMGAP
 40
0.09
  9
$DIMJUST
 70
     0
  9
$DIMSD1
 70
     0
  9
$DIMSD2
 70
     0
  9
$DIMTOLJ
 70
     1
  9
$DIMTZIN
 70
     0
  9
$DIMALTZ
 70
     0
  9
$DIMALTTZ
 70
     0
  9
$DIMFIT
 70
     5
  9
$DIMUPT
 70
     0
  9
$DIMUNIT
 70
     2
  9
$DIMDEC
 70
     4
  9
$DIMTDEC
 70
     4
  9
$DIMALTU
 70
     2
  9
$DIMALTTD
 70
     2
  9
$DIMTXSTY
  7
STANDARD
  9
$DIMAUNIT
 70
     0
  9
$LUNITS
 70
     2
  9
$LUPREC
 70
     4
  9
$SKETCHINC
 40
0.1
  9
$FILLETRAD
 40
0.0
  9
$AUNITS
 70
     0
  9
$AUPREC
 70
     0
  9
$MENU
  1
acad
  9
$ELEVATION
 40
0.0
  9
$PELEVATION
 40
0.0
  9
$THICKNESS
 40
0.0
  9
$LIMCHECK
 70
     0
  9
$BLIPMODE
 70
     0
  9
$CHAMFERA
 40
0.0
  9
$CHAMFERB
 40
0.0
  9
$CHAMFERC
 40
0.0
  9
$CHAMFERD
 40
0.0
  9
$SKPOLY
 70
     0
  9
$TDCREATE
 40
2454223.657939814
  9
$TDUPDATE
 40
2454225.301610034
  9
$TDINDWG
 40
0.0019065856
  9
$TDUSRTIMER
 40
0.0019065856
  9
$USRTIMER
 70
     1
  9
$ANGBASE
 50
0.0
  9
$ANGDIR
 70
     0
  9
$PDMODE
 70
     0
  9
$PDSIZE
 40
0.0
  9
$PLINEWID
 40
0.0
  9
$COORDS
 70
     1
  9
$SPLFRAME
 70
     0
  9
$SPLINETYPE
 70
     6
  9
$SPLINESEGS
 70
     8
  9
$ATTDIA
 70
     0
  9
$ATTREQ
 70
     1
  9
$HANDLING
 70
  4097
  9
$HANDSEED
  5
B63
  9
$SURFTAB1
 70
     6
  9
$SURFTAB2
 70
     6
  9
$SURFTYPE
 70
     6
  9
$SURFU
 70
     6
  9
$SURFV
 70
     6
  9
$UCSNAME
  2

  9
$UCSORG
 10
0.0
 20
0.0
 30
0.0
  9
$UCSXDIR
 10
1.0
 20
0.0
 30
0.0
  9
$UCSYDIR
 10
0.0
 20
1.0
 30
0.0
  9
$PUCSNAME
  2

  9
$PUCSORG
 10
0.0
 20
0.0
 30
0.0
  9
$PUCSXDIR
 10
1.0
 20
0.0
 30
0.0
  9
$PUCSYDIR
 10
0.0
 20
1.0
 30
0.0
  9
$USERI1
 70
     0
  9
$USERI2
 70
     0
  9
$USERI3
 70
     0
  9
$USERI4
 70
     0
  9
$USERI5
 70
     0
  9
$USERR1
 40
0.0
  9
$USERR2
 40
0.0
  9
$USERR3
 40
0.0
  9
$USERR4
 40
0.0
  9
$USERR5
 40
0.0
  9
$WORLDVIEW
 70
     1
  9
$SHADEDGE
 70
     3
  9
$SHADEDIF
 70
    70
  9
$TILEMODE
 70
     1
  9
$MAXACTVP
 70
    16
  9
$PINSBASE
 10
0.0
 20
0.0
 30
0.0
  9
$PLIMCHECK
 70
     0
  9
$PEXTMIN
 10
1.000000000000000E+20
 20
1.000000000000000E+20
 30
1.000000000000000E+20
  9
$PEXTMAX
 10
-1.000000000000000E+20
 20
-1.000000000000000E+20
 30
-1.000000000000000E+20
  9
$PLIMMIN
 10
0.0
 20
0.0
  9
$PLIMMAX
 10
12.0
 20
9.0
  9
$UNITMODE
 70
     0
  9
$VISRETAIN
 70
     0
  9
$PLINEGEN
 70
     0
  9
$PSLTSCALE
 70
     1
  9
$TREEDEPTH
 70
  3020
  9
$PICKSTYLE
 70
     1
  9
$CMLSTYLE
  2
STANDARD
  9
$CMLJUST
 70
     0
  9
$CMLSCALE
 40
1.0
  9
$SAVEIMAGES
 70
     1
  0
ENDSEC
  0
SECTION
  2
CLASSES
  0
CLASS
  1
ACDBDICTIONARYWDFLT
  2
AcDbDictionaryWithDefault
  3
AutoCAD 2000
 90
    32768
280
     0
281
     0
  0
CLASS
  1
ACDBPLACEHOLDER
  2
AcDbPlaceHolder
  3
AutoCAD 2000
 90
    32768
280
     0
281
     0
  0
CLASS
  1
LAYOUT
  2
AcDbLayout
  3
AutoCAD 2000
 90
    32768
280
     0
281
     0
  0
CLASS
  1
LONG_TRANSACTION
  2
AcDbLongTransaction
  3
AutoCAD 2000
 90
    32768
280
     0
281
     0
  0
CLASS
  1
LWPOLYLINE
  2
AcDbPolyline
  3
AutoCAD 2000
 90
    32768
280
     0
281
     1
  0
CLASS
  1
HATCH
  2
AcDbHatch
  3
AutoCAD 2000
 90
    32768
280
     0
281
     1
  0
CLASS
  1
XRECORD
  2
AcDbXrecord
  3
AutoCAD 2000
 90
    32768
280
     0
281
     0
  0
ENDSEC
  0
SECTION
  2
TABLES
  0
TABLE
  2
VPORT
  5
8
330
0
100
AcDbSymbolTable
 70
     3
  0
VPORT
  5
74B
330
8
100
AcDbSymbolTableRecord
100
AcDbViewportTableRecord
  2
*ACTIVE
 70
     0
 10
0.0
 20
0.0
 11
1.0
 21
1.0
 12
4.414764430391095
 22
5.036270163180621
 13
0.0
 23
0.0
 14
1.0
 24
1.0
 15
0.0
 25
0.0
 16
0.0
 26
0.0
 36
1.0
 17
0.0
 27
0.0
 37
0.0
 40
6.58025247348025
 41
1.838323353293413
 42
50.0
 43
0.0
 44
0.0
 50
0.0
 51
0.0
 71
     0
 72
   100
 73
     1
 74
     1
 75
     0
 76
     0
 77
     0
 78
     0
  0
ENDTAB
  0
TABLE
  2
LTYPE
  5
5
330
0
100
AcDbSymbolTable
 70
    25
  0
LTYPE
  5
13
330
5
100
AcDbSymbolTableRecord
100
AcDbLinetypeTableRecord
  2
BYBLOCK
 70
     0
  3

 72
    65
 73
     0
 40
0.0
  0
LTYPE
  5
14
330
5
100
AcDbSymbolTableRecord
100
AcDbLinetypeTableRecord
  2
BYLAYER
 70
     0
  3

 72
    65
 73
     0
 40
0.0
  0
LTYPE
  5
15
330
5
100
AcDbSymbolTableRecord
100
AcDbLinetypeTableRecord
  2
CONTINUOUS
 70
     0
  3
Solid line
 72
    65
 73
     0
 40
0.0
  0
LTYPE
  5
22
330
5
100
AcDbSymbolTableRecord
100
AcDbLinetypeTableRecord
  2
BORDER
 70
     0
  3
__ __ . __ __ . __ __ . __ __ . __ __ . __ __ .
 72
    65
 73
     6
 40
1.75
 49
0.5
 74
     0
 49
-0.25
 74
     0
 49
0.5
 74
     0
 49
-0.25
 74
     0
 49
0.5
 74
     0
 49
-0.25
 74
     0
  0
LTYPE
  5
23
330
5
100
AcDbSymbolTableRecord
100
AcDbLinetypeTableRecord
  2
BORDER2
 70
     0
  3
__.__.__.__.__.__.__.__.
 72
    65
 73
     6
 40
0.875
 49
0.25
 74
     0
 49
-0.125
 74
     0
 49
0.25
 74
     0
 49
-0.125
 74
     0
 49
0.25
 74
     0
 49
-0.125
 74
     0
  0
LTYPE
  5
24
330
5
100
AcDbSymbolTableRecord
100
AcDbLinetypeTableRecord
  2
BORDERX2
 70
     0
  3
____  ____  .  
 72
    65
 73
     6
 40
3.5
 49
1.0
 74
     0
 49
-0.5
 74
     0
 49
1.0
 74
     0
 49
-0.5
 74
     0
 49
1.0
 74
     0
 49
-0.5
 74
     0
  0
LTYPE
  5
25
330
5
100
AcDbSymbolTableRecord
100
AcDbLinetypeTableRecord
  2
CENTER
 70
     0
  3
____ _ ____ _ ____ _ 
 72
    65
 73
     4
 40
2.0
 49
1.25
 74
     0
 49
-0.25
 74
     0
 49
0.25
 74
     0
 49
-0.25
 74
     0
  0
LTYPE
  5
26
330
5
100
AcDbSymbolTableRecord
100
AcDbLinetypeTableRecord
  2
CENTER2
 70
     0
  3
____ _ ____ _ ____ _ 
 72
    65
 73
     4
 40
1.125
 49
0.75
 74
     0
 49
-0.125
 74
     0
 49
0.125
 74
     0
 49
-0.125
 74
     0
  0
LTYPE
  5
27
330
5
100
AcDbSymbolTableRecord
100
AcDbLinetypeTableRecord
  2
CENTERX2
 70
     0
  3
________  __  
 72
    65
 73
     4
 40
4.0
 49
2.5
 74
     0
 49
-0.5
 74
     0
 49
0.5
 74
     0
 49
-0.5
 74
     0
  0
LTYPE
  5
28
330
5
100
AcDbSymbolTableRecord
100
AcDbLinetypeTableRecord
  2
DASHDOT
 70
     0
  3
__ . __ . __ . __ . 
 72
    65
 73
     4
 40
1.0
 49
0.5
 74
     0
 49
-0.25
 74
     0
 49
0.0
 74
     0
 49
-0.25
 74
     0
  0
LTYPE
  5
29
330
5
100
AcDbSymbolTableRecord
100
AcDbLinetypeTableRecord
  2
DASHDOT2
 70
     0
  3
_._._._._._._._._.
 72
    65
 73
     4
 40
0.5
 49
0.25
 74
     0
 49
-0.125
 74
     0
 49
0.0
 74
     0
 49
-0.125
 74
     0
  0
LTYPE
  5
2A
330
5
100
AcDbSymbolTableRecord
100
AcDbLinetypeTableRecord
  2
DASHDOTX2
 70
     0
  3
____  .  ____  .  
 72
    65
 73
     4
 40
2.0
 49
1.0
 74
     0
 49
-0.5
 74
     0
 49
0.0
 74
     0
 49
-0.5
 74
     0
  0
LTYPE
  5
2B
330
5
100
AcDbSymbolTableRecord
100
AcDbLinetypeTableRecord
  2
DASHED
 70
     0
  3
__ __ __ __ __ __ __ 
 72
    65
 73
     2
 40
0.75
 49
0.5
 74
     0
 49
-0.25
 74
     0
  0
LTYPE
  5
2C
330
5
100
AcDbSymbolTableRecord
100
AcDbLinetypeTableRecord
  2
DASHED2
 70
     0
  3
_ _ _ _ _ _ _ _ _ _ 
 72
    65
 73
     2
 40
0.375
 49
0.25
 74
     0
 49
-0.125
 74
     0
  0
LTYPE
  5
2D
330
5
100
AcDbSymbolTableRecord
100
AcDbLinetypeTableRecord
  2
DASHEDX2
 70
     0
  3
____  ____  ____  
 72
    65
 73
     2
 40
1.5
 49
1.0
 74
     0
 49
-0.5
 74
     0
  0
LTYPE
  5
2E
330
5
100
AcDbSymbolTableRecord
100
AcDbLinetypeTableRecord
  2
DIVIDE
 70
     0
  3
____ . . ____ . . 
 72
    65
 73
     6
 40
1.25
 49
0.5
 74
     0
 49
-0.25
 74
     0
 49
0.0
 74
     0
 49
-0.25
 74
     0
 49
0.0
 74
     0
 49
-0.25
 74
     0
  0
LTYPE
  5
2F
330
5
100
AcDbSymbolTableRecord
100
AcDbLinetypeTableRecord
  2
DIVIDE2
 70
     0
  3
__..__..__..__..__..
 72
    65
 73
     6
 40
0.625
 49
0.25
 74
     0
 49
-0.125
 74
     0
 49
0.0
 74
     0
 49
-0.125
 74
     0
 49
0.0
 74
     0
 49
-0.125
 74
     0
  0
LTYPE
  5
30
330
5
100
AcDbSymbolTableRecord
100
AcDbLinetypeTableRecord
  2
DIVIDEX2
 70
     0
  3
________  .  .  
 72
    65
 73
     6
 40
2.5
 49
1.0
 74
     0
 49
-0.5
 74
     0
 49
0.0
 74
     0
 49
-0.5
 74
     0
 49
0.0
 74
     0
 49
-0.5
 74
     0
  0
LTYPE
  5
31
330
5
100
AcDbSymbolTableRecord
100
AcDbLinetypeTableRecord
  2
DOT
 70
     0
  3
. . . . . . . . . 
 72
    65
 73
     2
 40
0.25
 49
0.0
 74
     0
 49
-0.25
 74
     0
  0
LTYPE
  5
32
330
5
100
AcDbSymbolTableRecord
100
AcDbLinetypeTableRecord
  2
DOT2
 70
     0
  3
..................
 72
    65
 73
     2
 40
0.125
 49
0.0
 74
     0
 49
-0.125
 74
     0
  0
LTYPE
  5
33
330
5
100
AcDbSymbolTableRecord
100
AcDbLinetypeTableRecord
  2
DOTX2
 70
     0
  3
.  .  .  .  .  .  
 72
    65
 73
     2
 40
0.5
 49
0.0
 74
     0
 49
-0.5
 74
     0
  0
LTYPE
  5
34
330
5
100
AcDbSymbolTableRecord
100
AcDbLinetypeTableRecord
  2
HIDDEN
 70
     0
  3
__ __ __ __ __ __ 
 72
    65
 73
     2
 40
0.375
 49
0.25
 74
     0
 49
-0.125
 74
     0
  0
LTYPE
  5
35
330
5
100
AcDbSymbolTableRecord
100
AcDbLinetypeTableRecord
  2
HIDDEN2
 70
     0
  3
_ _ _ _ _ _ _ _ _ 
 72
    65
 73
     2
 40
0.1875
 49
0.125
 74
     0
 49
-0.0625
 74
     0
  0
LTYPE
  5
36
330
5
100
AcDbSymbolTableRecord
100
AcDbLinetypeTableRecord
  2
HIDDENX2
 70
     0
  3
____ ____ ____ ____ 
 72
    65
 73
     2
 40
0.75
 49
0.5
 74
     0
 49
-0.25
 74
     0
  0
LTYPE
  5
37
330
5
100
AcDbSymbolTableRecord
100
AcDbLinetypeTableRecord
  2
PHANTOM
 70
     0
  3
______  __  __  
 72
    65
 73
     6
 40
2.5
 49
1.25
 74
     0
 49
-0.25
 74
     0
 49
0.25
 74
     0
 49
-0.25
 74
     0
 49
0.25
 74
     0
 49
-0.25
 74
     0
  0
LTYPE
  5
38
330
5
100
AcDbSymbolTableRecord
100
AcDbLinetypeTableRecord
  2
PHANTOM2
 70
     0
  3
___ _ _ ___ _ _ 
 72
    65
 73
     6
 40
1.25
 49
0.625
 74
     0
 49
-0.125
 74
     0
 49
0.125
 74
     0
 49
-0.125
 74
     0
 49
0.125
 74
     0
 49
-0.125
 74
     0
  0
LTYPE
  5
39
330
5
100
AcDbSymbolTableRecord
100
AcDbLinetypeTableRecord
  2
PHANTOMX2
 70
     0
  3
___ _ _ ___ _ _ 
 72
    65
 73
     6
 40
5.0
 49
2.5
 74
     0
 49
-0.5
 74
     0
 49
0.5
 74
     0
 49
-0.5
 74
     0
 49
0.5
 74
     0
 49
-0.5
 74
     0
  0
ENDTAB
  0
TABLE
  2
LAYER
  5
2
330
0
100
AcDbSymbolTable
 70
   257
  0
LAYER
  5
10
330
2
100
AcDbSymbolTableRecord
100
AcDbLayerTableRecord
  2
0
 70
     0
 62
     7
  6
CONTINUOUS
  0
LAYER
  5
3A
330
2
100
AcDbSymbolTableRecord
100
AcDbLayerTableRecord
  2
1
 70
     0
 62
     1
  6
CONTINUOUS
  0
LAYER
  5
3B
330
2
100
AcDbSymbolTableRecord
100
AcDbLayerTableRecord
  2
2
 70
     0
 62
     2
  6
CONTINUOUS
  0
LAYER
  5
3C
330
2
100
AcDbSymbolTableRecord
100
AcDbLayerTableRecord
  2
3
 70
     0
 62
     3
  6
CONTINUOUS
  0
LAYER
  5
3D
330
2
100
AcDbSymbolTableRecord
100
AcDbLayerTableRecord
  2
4
 70
     0
 62
     4
  6
CONTINUOUS
  0
LAYER
  5
3E
330
2
100
AcDbSymbolTableRecord
100
AcDbLayerTableRecord
  2
5
 70
     0
 62
     5
  6
CONTINUOUS
  0
LAYER
  5
3F
330
2
100
AcDbSymbolTableRecord
100
AcDbLayerTableRecord
  2
6
 70
     0
 62
     6
  6
CONTINUOUS
  0
LAYER
  5
40
330
2
100
AcDbSymbolTableRecord
100
AcDbLayerTableRecord
  2
7
 70
     0
 62
     7
  6
CONTINUOUS
  0
LAYER
  5
41
330
2
100
AcDbSymbolTableRecord
100
AcDbLayerTableRecord
  2
8
 70
     0
 62
     8
  6
CONTINUOUS
  0
LAYER
  5
42
330
2
100
AcDbSymbolTableRecord
100
AcDbLayerTableRecord
  2
9
 70
     0
 62
     9
  6
CONTINUOUS
  0
LAYER
  5
43
330
2
100
AcDbSymbolTableRecord
100
AcDbLayerTableRecord
  2
10
 70
     0
 62
    10
  6
CONTINUOUS
  0
LAYER
  5
44
330
2
100
AcDbSymbolTableRecord
100
AcDbLayerTableRecord
  2
11
 70
     0
 62
    11
  6
CONTINUOUS
  0
LAYER
  5
45
330
2
100
AcDbSymbolTableRecord
100
AcDbLayerTableRecord
  2
12
 70
     0
 62
    12
  6
CONTINUOUS
  0
LAYER
  5
46
330
2
100
AcDbSymbolTableRecord
100
AcDbLayerTableRecord
  2
13
 70
     0
 62
    13
  6
CONTINUOUS
  0
LAYER
  5
47
330
2
100
AcDbSymbolTableRecord
100
AcDbLayerTableRecord
  2
14
 70
     0
 62
    14
  6
CONTINUOUS
  0
LAYER
  5
48
330
2
100
AcDbSymbolTableRecord
100
AcDbLayerTableRecord
  2
15
 70
     0
 62
    15
  6
CONTINUOUS
  0
LAYER
  5
49
330
2
100
AcDbSymbolTableRecord
100
AcDbLayerTableRecord
  2
16
 70
     0
 62
    16
  6
CONTINUOUS
  0
LAYER
  5
4A
330
2
100
AcDbSymbolTableRecord
100
AcDbLayerTableRecord
  2
17
 70
     0
 62
    17
  6
CONTINUOUS
  0
LAYER
  5
4B
330
2
100
AcDbSymbolTableRecord
100
AcDbLayerTableRecord
  2
18
 70
     0
 62
    18
  6
CONTINUOUS
  0
LAYER
  5
4C
330
2
100
AcDbSymbolTableRecord
100
AcDbLayerTableRecord
  2
19
 70
     0
 62
    19
  6
CONTINUOUS
  0
LAYER
  5
4D
330
2
100
AcDbSymbolTableRecord
100
AcDbLayerTableRecord
  2
20
 70
     0
 62
    20
  6
CONTINUOUS
  0
LAYER
  5
4E
330
2
100
AcDbSymbolTableRecord
100
AcDbLayerTableRecord
  2
21
 70
     0
 62
    21
  6
CONTINUOUS
  0
LAYER
  5
4F
330
2
100
AcDbSymbolTableRecord
100
AcDbLayerTableRecord
  2
22
 70
     0
 62
    22
  6
CONTINUOUS
  0
LAYER
  5
50
330
2
100
AcDbSymbolTableRecord
100
AcDbLayerTableRecord
  2
23
 70
     0
 62
    23
  6
CONTINUOUS
  0
LAYER
  5
51
330
2
100
AcDbSymbolTableRecord
100
AcDbLayerTableRecord
  2
24
 70
     0
 62
    24
  6
CONTINUOUS
  0
LAYER
  5
52
330
2
100
AcDbSymbolTableRecord
100
AcDbLayerTableRecord
  2
25
 70
     0
 62
    25
  6
CONTINUOUS
  0
LAYER
  5
53
330
2
100
AcDbSymbolTableRecord
100
AcDbLayerTableRecord
  2
26
 70
     0
 62
    26
  6
CONTINUOUS
  0
LAYER
  5
54
330
2
100
AcDbSymbolTableRecord
100
AcDbLayerTableRecord
  2
27
 70
     0
 62
    27
  6
CONTINUOUS
  0
LAYER
  5
55
330
2
100
AcDbSymbolTableRecord
100
AcDbLayerTableRecord
  2
28
 70
     0
 62
    28
  6
CONTINUOUS
  0
LAYER
  5
56
330
2
100
AcDbSymbolTableRecord
100
AcDbLayerTableRecord
  2
29
 70
     0
 62
    29
  6
CONTINUOUS
  0
LAYER
  5
57
330
2
100
AcDbSymbolTableRecord
100
AcDbLayerTableRecord
  2
30
 70
     0
 62
    30
  6
CONTINUOUS
  0
LAYER
  5
58
330
2
100
AcDbSymbolTableRecord
100
AcDbLayerTableRecord
  2
31
 70
     0
 62
    31
  6
CONTINUOUS
  0
LAYER
  5
59
330
2
100
AcDbSymbolTableRecord
100
AcDbLayerTableRecord
  2
32
 70
     0
 62
    32
  6
CONTINUOUS
  0
LAYER
  5
5A
330
2
100
AcDbSymbolTableRecord
100
AcDbLayerTableRecord
  2
33
 70
     0
 62
    33
  6
CONTINUOUS
  0
LAYER
  5
5B
330
2
100
AcDbSymbolTableRecord
100
AcDbLayerTableRecord
  2
34
 70
     0
 62
    34
  6
CONTINUOUS
  0
LAYER
  5
5C
330
2
100
AcDbSymbolTableRecord
100
AcDbLayerTableRecord
  2
35
 70
     0
 62
    35
  6
CONTINUOUS
  0
LAYER
  5
5D
330
2
100
AcDbSymbolTableRecord
100
AcDbLayerTableRecord
  2
36
 70
     0
 62
    36
  6
CONTINUOUS
  0
LAYER
  5
5E
330
2
100
AcDbSymbolTableRecord
100
AcDbLayerTableRecord
  2
37
 70
     0
 62
    37
  6
CONTINUOUS
  0
LAYER
  5
5F
330
2
100
AcDbSymbolTableRecord
100
AcDbLayerTableRecord
  2
38
 70
     0
 62
    38
  6
CONTINUOUS
  0
LAYER
  5
60
330
2
100
AcDbSymbolTableRecord
100
AcDbLayerTableRecord
  2
39
 70
     0
 62
    39
  6
CONTINUOUS
  0
LAYER
  5
61
330
2
100
AcDbSymbolTableRecord
100
AcDbLayerTableRecord
  2
40
 70
     0
 62
    40
  6
CONTINUOUS
  0
LAYER
  5
62
330
2
100
AcDbSymbolTableRecord
100
AcDbLayerTableRecord
  2
41
 70
     0
 62
    41
  6
CONTINUOUS
  0
LAYER
  5
63
330
2
100
AcDbSymbolTableRecord
100
AcDbLayerTableRecord
  2
42
 70
     0
 62
    42
  6
CONTINUOUS
  0
LAYER
  5
64
330
2
100
AcDbSymbolTableRecord
100
AcDbLayerTableRecord
  2
43
 70
     0
 62
    43
  6
CONTINUOUS
  0
LAYER
  5
65
330
2
100
AcDbSymbolTableRecord
100
AcDbLayerTableRecord
  2
44
 70
     0
 62
    44
  6
CONTINUOUS
  0
LAYER
  5
66
330
2
100
AcDbSymbolTableRecord
100
AcDbLayerTableRecord
  2
45
 70
     0
 62
    45
  6
CONTINUOUS
  0
LAYER
  5
67
330
2
100
AcDbSymbolTableRecord
100
AcDbLayerTableRecord
  2
46
 70
     0
 62
    46
  6
CONTINUOUS
  0
LAYER
  5
68
330
2
100
AcDbSymbolTableRecord
100
AcDbLayerTableRecord
  2
47
 70
     0
 62
    47
  6
CONTINUOUS
  0
LAYER
  5
69
330
2
100
AcDbSymbolTableRecord
100
AcDbLayerTableRecord
  2
48
 70
     0
 62
    48
  6
CONTINUOUS
  0
LAYER
  5
6A
330
2
100
AcDbSymbolTableRecord
100
AcDbLayerTableRecord
  2
49
 70
     0
 62
    49
  6
CONTINUOUS
  0
LAYER
  5
6B
330
2
100
AcDbSymbolTableRecord
100
AcDbLayerTableRecord
  2
50
 70
     0
 62
    50
  6
CONTINUOUS
  0
LAYER
  5
6C
330
2
100
AcDbSymbolTableRecord
100
AcDbLayerTableRecord
  2
51
 70
     0
 62
    51
  6
CONTINUOUS
  0
LAYER
  5
6D
330
2
100
AcDbSymbolTableRecord
100
AcDbLayerTableRecord
  2
52
 70
     0
 62
    52
  6
CONTINUOUS
  0
LAYER
  5
6E
330
2
100
AcDbSymbolTableRecord
100
AcDbLayerTableRecord
  2
53
 70
     0
 62
    53
  6
CONTINUOUS
  0
LAYER
  5
6F
330
2
100
AcDbSymbolTableRecord
100
AcDbLayerTableRecord
  2
54
 70
     0
 62
    54
  6
CONTINUOUS
  0
LAYER
  5
70
330
2
100
AcDbSymbolTableRecord
100
AcDbLayerTableRecord
  2
55
 70
     0
 62
    55
  6
CONTINUOUS
  0
LAYER
  5
71
330
2
100
AcDbSymbolTableRecord
100
AcDbLayerTableRecord
  2
56
 70
     0
 62
    56
  6
CONTINUOUS
  0
LAYER
  5
72
330
2
100
AcDbSymbolTableRecord
100
AcDbLayerTableRecord
  2
57
 70
     0
 62
    57
  6
CONTINUOUS
  0
LAYER
  5
73
330
2
100
AcDbSymbolTableRecord
100
AcDbLayerTableRecord
  2
58
 70
     0
 62
    58
  6
CONTINUOUS
  0
LAYER
  5
74
330
2
100
AcDbSymbolTableRecord
100
AcDbLayerTableRecord
  2
59
 70
     0
 62
    59
  6
CONTINUOUS
  0
LAYER
  5
75
330
2
100
AcDbSymbolTableRecord
100
AcDbLayerTableRecord
  2
60
 70
     0
 62
    60
  6
CONTINUOUS
  0
LAYER
  5
76
330
2
100
AcDbSymbolTableRecord
100
AcDbLayerTableRecord
  2
61
 70
     0
 62
    61
  6
CONTINUOUS
  0
LAYER
  5
77
330
2
100
AcDbSymbolTableRecord
100
AcDbLayerTableRecord
  2
62
 70
     0
 62
    62
  6
CONTINUOUS
  0
LAYER
  5
78
330
2
100
AcDbSymbolTableRecord
100
AcDbLayerTableRecord
  2
63
 70
     0
 62
    63
  6
CONTINUOUS
  0
LAYER
  5
79
330
2
100
AcDbSymbolTableRecord
100
AcDbLayerTableRecord
  2
64
 70
     0
 62
    64
  6
CONTINUOUS
  0
LAYER
  5
7A
330
2
100
AcDbSymbolTableRecord
100
AcDbLayerTableRecord
  2
65
 70
     0
 62
    65
  6
CONTINUOUS
  0
LAYER
  5
7B
330
2
100
AcDbSymbolTableRecord
100
AcDbLayerTableRecord
  2
66
 70
     0
 62
    66
  6
CONTINUOUS
  0
LAYER
  5
7C
330
2
100
AcDbSymbolTableRecord
100
AcDbLayerTableRecord
  2
67
 70
     0
 62
    67
  6
CONTINUOUS
  0
LAYER
  5
7D
330
2
100
AcDbSymbolTableRecord
100
AcDbLayerTableRecord
  2
68
 70
     0
 62
    68
  6
CONTINUOUS
  0
LAYER
  5
7E
330
2
100
AcDbSymbolTableRecord
100
AcDbLayerTableRecord
  2
69
 70
     0
 62
    69
  6
CONTINUOUS
  0
LAYER
  5
7F
330
2
100
AcDbSymbolTableRecord
100
AcDbLayerTableRecord
  2
70
 70
     0
 62
    70
  6
CONTINUOUS
  0
LAYER
  5
80
330
2
100
AcDbSymbolTableRecord
100
AcDbLayerTableRecord
  2
71
 70
     0
 62
    71
  6
CONTINUOUS
  0
LAYER
  5
81
330
2
100
AcDbSymbolTableRecord
100
AcDbLayerTableRecord
  2
72
 70
     0
 62
    72
  6
CONTINUOUS
  0
LAYER
  5
82
330
2
100
AcDbSymbolTableRecord
100
AcDbLayerTableRecord
  2
73
 70
     0
 62
    73
  6
CONTINUOUS
  0
LAYER
  5
83
330
2
100
AcDbSymbolTableRecord
100
AcDbLayerTableRecord
  2
74
 70
     0
 62
    74
  6
CONTINUOUS
  0
LAYER
  5
84
330
2
100
AcDbSymbolTableRecord
100
AcDbLayerTableRecord
  2
75
 70
     0
 62
    75
  6
CONTINUOUS
  0
LAYER
  5
85
330
2
100
AcDbSymbolTableRecord
100
AcDbLayerTableRecord
  2
76
 70
     0
 62
    76
  6
CONTINUOUS
  0
LAYER
  5
86
330
2
100
AcDbSymbolTableRecord
100
AcDbLayerTableRecord
  2
77
 70
     0
 62
    77
  6
CONTINUOUS
  0
LAYER
  5
87
330
2
100
AcDbSymbolTableRecord
100
AcDbLayerTableRecord
  2
78
 70
     0
 62
    78
  6
CONTINUOUS
  0
LAYER
  5
88
330
2
100
AcDbSymbolTableRecord
100
AcDbLayerTableRecord
  2
79
 70
     0
 62
    79
  6
CONTINUOUS
  0
LAYER
  5
89
330
2
100
AcDbSymbolTableRecord
100
AcDbLayerTableRecord
  2
80
 70
     0
 62
    80
  6
CONTINUOUS
  0
LAYER
  5
8A
330
2
100
AcDbSymbolTableRecord
100
AcDbLayerTableRecord
  2
81
 70
     0
 62
    81
  6
CONTINUOUS
  0
LAYER
  5
8B
330
2
100
AcDbSymbolTableRecord
100
AcDbLayerTableRecord
  2
82
 70
     0
 62
    82
  6
CONTINUOUS
  0
LAYER
  5
8C
330
2
100
AcDbSymbolTableRecord
100
AcDbLayerTableRecord
  2
83
 70
     0
 62
    83
  6
CONTINUOUS
  0
LAYER
  5
8D
330
2
100
AcDbSymbolTableRecord
100
AcDbLayerTableRecord
  2
84
 70
     0
 62
    84
  6
CONTINUOUS
  0
LAYER
  5
8E
330
2
100
AcDbSymbolTableRecord
100
AcDbLayerTableRecord
  2
85
 70
     0
 62
    85
  6
CONTINUOUS
  0
LAYER
  5
8F
330
2
100
AcDbSymbolTableRecord
100
AcDbLayerTableRecord
  2
86
 70
     0
 62
    86
  6
CONTINUOUS
  0
LAYER
  5
90
330
2
100
AcDbSymbolTableRecord
100
AcDbLayerTableRecord
  2
87
 70
     0
 62
    87
  6
CONTINUOUS
  0
LAYER
  5
91
330
2
100
AcDbSymbolTableRecord
100
AcDbLayerTableRecord
  2
88
 70
     0
 62
    88
  6
CONTINUOUS
  0
LAYER
  5
92
330
2
100
AcDbSymbolTableRecord
100
AcDbLayerTableRecord
  2
89
 70
     0
 62
    89
  6
CONTINUOUS
  0
LAYER
  5
93
330
2
100
AcDbSymbolTableRecord
100
AcDbLayerTableRecord
  2
90
 70
     0
 62
    90
  6
CONTINUOUS
  0
LAYER
  5
94
330
2
100
AcDbSymbolTableRecord
100
AcDbLayerTableRecord
  2
91
 70
     0
 62
    91
  6
CONTINUOUS
  0
LAYER
  5
95
330
2
100
AcDbSymbolTableRecord
100
AcDbLayerTableRecord
  2
92
 70
     0
 62
    92
  6
CONTINUOUS
  0
LAYER
  5
96
330
2
100
AcDbSymbolTableRecord
100
AcDbLayerTableRecord
  2
93
 70
     0
 62
    93
  6
CONTINUOUS
  0
LAYER
  5
97
330
2
100
AcDbSymbolTableRecord
100
AcDbLayerTableRecord
  2
94
 70
     0
 62
    94
  6
CONTINUOUS
  0
LAYER
  5
98
330
2
100
AcDbSymbolTableRecord
100
AcDbLayerTableRecord
  2
95
 70
     0
 62
    95
  6
CONTINUOUS
  0
LAYER
  5
99
330
2
100
AcDbSymbolTableRecord
100
AcDbLayerTableRecord
  2
96
 70
     0
 62
    96
  6
CONTINUOUS
  0
LAYER
  5
9A
330
2
100
AcDbSymbolTableRecord
100
AcDbLayerTableRecord
  2
97
 70
     0
 62
    97
  6
CONTINUOUS
  0
LAYER
  5
9B
330
2
100
AcDbSymbolTableRecord
100
AcDbLayerTableRecord
  2
98
 70
     0
 62
    98
  6
CONTINUOUS
  0
LAYER
  5
9C
330
2
100
AcDbSymbolTableRecord
100
AcDbLayerTableRecord
  2
99
 70
     0
 62
    99
  6
CONTINUOUS
  0
LAYER
  5
9D
330
2
100
AcDbSymbolTableRecord
100
AcDbLayerTableRecord
  2
100
 70
     0
 62
   100
  6
CONTINUOUS
  0
LAYER
  5
9E
330
2
100
AcDbSymbolTableRecord
100
AcDbLayerTableRecord
  2
101
 70
     0
 62
   101
  6
CONTINUOUS
  0
LAYER
  5
9F
330
2
100
AcDbSymbolTableRecord
100
AcDbLayerTableRecord
  2
102
 70
     0
 62
   102
  6
CONTINUOUS
  0
LAYER
  5
A0
330
2
100
AcDbSymbolTableRecord
100
AcDbLayerTableRecord
  2
103
 70
     0
 62
   103
  6
CONTINUOUS
  0
LAYER
  5
A1
330
2
100
AcDbSymbolTableRecord
100
AcDbLayerTableRecord
  2
104
 70
     0
 62
   104
  6
CONTINUOUS
  0
LAYER
  5
A2
330
2
100
AcDbSymbolTableRecord
100
AcDbLayerTableRecord
  2
105
 70
     0
 62
   105
  6
CONTINUOUS
  0
LAYER
  5
A3
330
2
100
AcDbSymbolTableRecord
100
AcDbLayerTableRecord
  2
106
 70
     0
 62
   106
  6
CONTINUOUS
  0
LAYER
  5
A4
330
2
100
AcDbSymbolTableRecord
100
AcDbLayerTableRecord
  2
107
 70
     0
 62
   107
  6
CONTINUOUS
  0
LAYER
  5
A5
330
2
100
AcDbSymbolTableRecord
100
AcDbLayerTableRecord
  2
108
 70
     0
 62
   108
  6
CONTINUOUS
  0
LAYER
  5
A6
330
2
100
AcDbSymbolTableRecord
100
AcDbLayerTableRecord
  2
109
 70
     0
 62
   109
  6
CONTINUOUS
  0
LAYER
  5
A7
330
2
100
AcDbSymbolTableRecord
100
AcDbLayerTableRecord
  2
110
 70
     0
 62
   110
  6
CONTINUOUS
  0
LAYER
  5
A8
330
2
100
AcDbSymbolTableRecord
100
AcDbLayerTableRecord
  2
111
 70
     0
 62
   111
  6
CONTINUOUS
  0
LAYER
  5
A9
330
2
100
AcDbSymbolTableRecord
100
AcDbLayerTableRecord
  2
112
 70
     0
 62
   112
  6
CONTINUOUS
  0
LAYER
  5
AA
330
2
100
AcDbSymbolTableRecord
100
AcDbLayerTableRecord
  2
113
 70
     0
 62
   113
  6
CONTINUOUS
  0
LAYER
  5
AB
330
2
100
AcDbSymbolTableRecord
100
AcDbLayerTableRecord
  2
114
 70
     0
 62
   114
  6
CONTINUOUS
  0
LAYER
  5
AC
330
2
100
AcDbSymbolTableRecord
100
AcDbLayerTableRecord
  2
115
 70
     0
 62
   115
  6
CONTINUOUS
  0
LAYER
  5
AD
330
2
100
AcDbSymbolTableRecord
100
AcDbLayerTableRecord
  2
116
 70
     0
 62
   116
  6
CONTINUOUS
  0
LAYER
  5
AE
330
2
100
AcDbSymbolTableRecord
100
AcDbLayerTableRecord
  2
117
 70
     0
 62
   117
  6
CONTINUOUS
  0
LAYER
  5
AF
330
2
100
AcDbSymbolTableRecord
100
AcDbLayerTableRecord
  2
118
 70
     0
 62
   118
  6
CONTINUOUS
  0
LAYER
  5
B0
330
2
100
AcDbSymbolTableRecord
100
AcDbLayerTableRecord
  2
119
 70
     0
 62
   119
  6
CONTINUOUS
  0
LAYER
  5
B1
330
2
100
AcDbSymbolTableRecord
100
AcDbLayerTableRecord
  2
120
 70
     0
 62
   120
  6
CONTINUOUS
  0
LAYER
  5
B2
330
2
100
AcDbSymbolTableRecord
100
AcDbLayerTableRecord
  2
121
 70
     0
 62
   121
  6
CONTINUOUS
  0
LAYER
  5
B3
330
2
100
AcDbSymbolTableRecord
100
AcDbLayerTableRecord
  2
122
 70
     0
 62
   122
  6
CONTINUOUS
  0
LAYER
  5
B4
330
2
100
AcDbSymbolTableRecord
100
AcDbLayerTableRecord
  2
123
 70
     0
 62
   123
  6
CONTINUOUS
  0
LAYER
  5
B5
330
2
100
AcDbSymbolTableRecord
100
AcDbLayerTableRecord
  2
124
 70
     0
 62
   124
  6
CONTINUOUS
  0
LAYER
  5
B6
330
2
100
AcDbSymbolTableRecord
100
AcDbLayerTableRecord
  2
125
 70
     0
 62
   125
  6
CONTINUOUS
  0
LAYER
  5
B7
330
2
100
AcDbSymbolTableRecord
100
AcDbLayerTableRecord
  2
126
 70
     0
 62
   126
  6
CONTINUOUS
  0
LAYER
  5
B8
330
2
100
AcDbSymbolTableRecord
100
AcDbLayerTableRecord
  2
127
 70
     0
 62
   127
  6
CONTINUOUS
  0
LAYER
  5
B9
330
2
100
AcDbSymbolTableRecord
100
AcDbLayerTableRecord
  2
128
 70
     0
 62
   128
  6
CONTINUOUS
  0
LAYER
  5
BA
330
2
100
AcDbSymbolTableRecord
100
AcDbLayerTableRecord
  2
129
 70
     0
 62
   129
  6
CONTINUOUS
  0
LAYER
  5
BB
330
2
100
AcDbSymbolTableRecord
100
AcDbLayerTableRecord
  2
130
 70
     0
 62
   130
  6
CONTINUOUS
  0
LAYER
  5
BC
330
2
100
AcDbSymbolTableRecord
100
AcDbLayerTableRecord
  2
131
 70
     0
 62
   131
  6
CONTINUOUS
  0
LAYER
  5
BD
330
2
100
AcDbSymbolTableRecord
100
AcDbLayerTableRecord
  2
132
 70
     0
 62
   132
  6
CONTINUOUS
  0
LAYER
  5
BE
330
2
100
AcDbSymbolTableRecord
100
AcDbLayerTableRecord
  2
133
 70
     0
 62
   133
  6
CONTINUOUS
  0
LAYER
  5
BF
330
2
100
AcDbSymbolTableRecord
100
AcDbLayerTableRecord
  2
134
 70
     0
 62
   134
  6
CONTINUOUS
  0
LAYER
  5
C0
330
2
100
AcDbSymbolTableRecord
100
AcDbLayerTableRecord
  2
135
 70
     0
 62
   135
  6
CONTINUOUS
  0
LAYER
  5
C1
330
2
100
AcDbSymbolTableRecord
100
AcDbLayerTableRecord
  2
136
 70
     0
 62
   136
  6
CONTINUOUS
  0
LAYER
  5
C2
330
2
100
AcDbSymbolTableRecord
100
AcDbLayerTableRecord
  2
137
 70
     0
 62
   137
  6
CONTINUOUS
  0
LAYER
  5
C3
330
2
100
AcDbSymbolTableRecord
100
AcDbLayerTableRecord
  2
138
 70
     0
 62
   138
  6
CONTINUOUS
  0
LAYER
  5
C4
330
2
100
AcDbSymbolTableRecord
100
AcDbLayerTableRecord
  2
139
 70
     0
 62
   139
  6
CONTINUOUS
  0
LAYER
  5
C5
330
2
100
AcDbSymbolTableRecord
100
AcDbLayerTableRecord
  2
140
 70
     0
 62
   140
  6
CONTINUOUS
  0
LAYER
  5
C6
330
2
100
AcDbSymbolTableRecord
100
AcDbLayerTableRecord
  2
141
 70
     0
 62
   141
  6
CONTINUOUS
  0
LAYER
  5
C7
330
2
100
AcDbSymbolTableRecord
100
AcDbLayerTableRecord
  2
142
 70
     0
 62
   142
  6
CONTINUOUS
  0
LAYER
  5
C8
330
2
100
AcDbSymbolTableRecord
100
AcDbLayerTableRecord
  2
143
 70
     0
 62
   143
  6
CONTINUOUS
  0
LAYER
  5
C9
330
2
100
AcDbSymbolTableRecord
100
AcDbLayerTableRecord
  2
144
 70
     0
 62
   144
  6
CONTINUOUS
  0
LAYER
  5
CA
330
2
100
AcDbSymbolTableRecord
100
AcDbLayerTableRecord
  2
145
 70
     0
 62
   145
  6
CONTINUOUS
  0
LAYER
  5
CB
330
2
100
AcDbSymbolTableRecord
100
AcDbLayerTableRecord
  2
146
 70
     0
 62
   146
  6
CONTINUOUS
  0
LAYER
  5
CC
330
2
100
AcDbSymbolTableRecord
100
AcDbLayerTableRecord
  2
147
 70
     0
 62
   147
  6
CONTINUOUS
  0
LAYER
  5
CD
330
2
100
AcDbSymbolTableRecord
100
AcDbLayerTableRecord
  2
148
 70
     0
 62
   148
  6
CONTINUOUS
  0
LAYER
  5
CE
330
2
100
AcDbSymbolTableRecord
100
AcDbLayerTableRecord
  2
149
 70
     0
 62
   149
  6
CONTINUOUS
  0
LAYER
  5
CF
330
2
100
AcDbSymbolTableRecord
100
AcDbLayerTableRecord
  2
150
 70
     0
 62
   150
  6
CONTINUOUS
  0
LAYER
  5
D0
330
2
100
AcDbSymbolTableRecord
100
AcDbLayerTableRecord
  2
151
 70
     0
 62
   151
  6
CONTINUOUS
  0
LAYER
  5
D1
330
2
100
AcDbSymbolTableRecord
100
AcDbLayerTableRecord
  2
152
 70
     0
 62
   152
  6
CONTINUOUS
  0
LAYER
  5
D2
330
2
100
AcDbSymbolTableRecord
100
AcDbLayerTableRecord
  2
153
 70
     0
 62
   153
  6
CONTINUOUS
  0
LAYER
  5
D3
330
2
100
AcDbSymbolTableRecord
100
AcDbLayerTableRecord
  2
154
 70
     0
 62
   154
  6
CONTINUOUS
  0
LAYER
  5
D4
330
2
100
AcDbSymbolTableRecord
100
AcDbLayerTableRecord
  2
155
 70
     0
 62
   155
  6
CONTINUOUS
  0
LAYER
  5
D5
330
2
100
AcDbSymbolTableRecord
100
AcDbLayerTableRecord
  2
156
 70
     0
 62
   156
  6
CONTINUOUS
  0
LAYER
  5
D6
330
2
100
AcDbSymbolTableRecord
100
AcDbLayerTableRecord
  2
157
 70
     0
 62
   157
  6
CONTINUOUS
  0
LAYER
  5
D7
330
2
100
AcDbSymbolTableRecord
100
AcDbLayerTableRecord
  2
158
 70
     0
 62
   158
  6
CONTINUOUS
  0
LAYER
  5
D8
330
2
100
AcDbSymbolTableRecord
100
AcDbLayerTableRecord
  2
159
 70
     0
 62
   159
  6
CONTINUOUS
  0
LAYER
  5
D9
330
2
100
AcDbSymbolTableRecord
100
AcDbLayerTableRecord
  2
160
 70
     0
 62
   160
  6
CONTINUOUS
  0
LAYER
  5
DA
330
2
100
AcDbSymbolTableRecord
100
AcDbLayerTableRecord
  2
161
 70
     0
 62
   161
  6
CONTINUOUS
  0
LAYER
  5
DB
330
2
100
AcDbSymbolTableRecord
100
AcDbLayerTableRecord
  2
162
 70
     0
 62
   162
  6
CONTINUOUS
  0
LAYER
  5
DC
330
2
100
AcDbSymbolTableRecord
100
AcDbLayerTableRecord
  2
163
 70
     0
 62
   163
  6
CONTINUOUS
  0
LAYER
  5
DD
330
2
100
AcDbSymbolTableRecord
100
AcDbLayerTableRecord
  2
164
 70
     0
 62
   164
  6
CONTINUOUS
  0
LAYER
  5
DE
330
2
100
AcDbSymbolTableRecord
100
AcDbLayerTableRecord
  2
165
 70
     0
 62
   165
  6
CONTINUOUS
  0
LAYER
  5
DF
330
2
100
AcDbSymbolTableRecord
100
AcDbLayerTableRecord
  2
166
 70
     0
 62
   166
  6
CONTINUOUS
  0
LAYER
  5
E0
330
2
100
AcDbSymbolTableRecord
100
AcDbLayerTableRecord
  2
167
 70
     0
 62
   167
  6
CONTINUOUS
  0
LAYER
  5
E1
330
2
100
AcDbSymbolTableRecord
100
AcDbLayerTableRecord
  2
168
 70
     0
 62
   168
  6
CONTINUOUS
  0
LAYER
  5
E2
330
2
100
AcDbSymbolTableRecord
100
AcDbLayerTableRecord
  2
169
 70
     0
 62
   169
  6
CONTINUOUS
  0
LAYER
  5
E3
330
2
100
AcDbSymbolTableRecord
100
AcDbLayerTableRecord
  2
170
 70
     0
 62
   170
  6
CONTINUOUS
  0
LAYER
  5
E4
330
2
100
AcDbSymbolTableRecord
100
AcDbLayerTableRecord
  2
171
 70
     0
 62
   171
  6
CONTINUOUS
  0
LAYER
  5
E5
330
2
100
AcDbSymbolTableRecord
100
AcDbLayerTableRecord
  2
172
 70
     0
 62
   172
  6
CONTINUOUS
  0
LAYER
  5
E6
330
2
100
AcDbSymbolTableRecord
100
AcDbLayerTableRecord
  2
173
 70
     0
 62
   173
  6
CONTINUOUS
  0
LAYER
  5
E7
330
2
100
AcDbSymbolTableRecord
100
AcDbLayerTableRecord
  2
174
 70
     0
 62
   174
  6
CONTINUOUS
  0
LAYER
  5
E8
330
2
100
AcDbSymbolTableRecord
100
AcDbLayerTableRecord
  2
175
 70
     0
 62
   175
  6
CONTINUOUS
  0
LAYER
  5
E9
330
2
100
AcDbSymbolTableRecord
100
AcDbLayerTableRecord
  2
176
 70
     0
 62
   176
  6
CONTINUOUS
  0
LAYER
  5
EA
330
2
100
AcDbSymbolTableRecord
100
AcDbLayerTableRecord
  2
177
 70
     0
 62
   177
  6
CONTINUOUS
  0
LAYER
  5
EB
330
2
100
AcDbSymbolTableRecord
100
AcDbLayerTableRecord
  2
178
 70
     0
 62
   178
  6
CONTINUOUS
  0
LAYER
  5
EC
330
2
100
AcDbSymbolTableRecord
100
AcDbLayerTableRecord
  2
179
 70
     0
 62
   179
  6
CONTINUOUS
  0
LAYER
  5
ED
330
2
100
AcDbSymbolTableRecord
100
AcDbLayerTableRecord
  2
180
 70
     0
 62
   180
  6
CONTINUOUS
  0
LAYER
  5
EE
330
2
100
AcDbSymbolTableRecord
100
AcDbLayerTableRecord
  2
181
 70
     0
 62
   181
  6
CONTINUOUS
  0
LAYER
  5
EF
330
2
100
AcDbSymbolTableRecord
100
AcDbLayerTableRecord
  2
182
 70
     0
 62
   182
  6
CONTINUOUS
  0
LAYER
  5
F0
330
2
100
AcDbSymbolTableRecord
100
AcDbLayerTableRecord
  2
183
 70
     0
 62
   183
  6
CONTINUOUS
  0
LAYER
  5
F1
330
2
100
AcDbSymbolTableRecord
100
AcDbLayerTableRecord
  2
184
 70
     0
 62
   184
  6
CONTINUOUS
  0
LAYER
  5
F2
330
2
100
AcDbSymbolTableRecord
100
AcDbLayerTableRecord
  2
185
 70
     0
 62
   185
  6
CONTINUOUS
  0
LAYER
  5
F3
330
2
100
AcDbSymbolTableRecord
100
AcDbLayerTableRecord
  2
186
 70
     0
 62
   186
  6
CONTINUOUS
  0
LAYER
  5
F4
330
2
100
AcDbSymbolTableRecord
100
AcDbLayerTableRecord
  2
187
 70
     0
 62
   187
  6
CONTINUOUS
  0
LAYER
  5
F5
330
2
100
AcDbSymbolTableRecord
100
AcDbLayerTableRecord
  2
188
 70
     0
 62
   188
  6
CONTINUOUS
  0
LAYER
  5
F6
330
2
100
AcDbSymbolTableRecord
100
AcDbLayerTableRecord
  2
189
 70
     0
 62
   189
  6
CONTINUOUS
  0
LAYER
  5
F7
330
2
100
AcDbSymbolTableRecord
100
AcDbLayerTableRecord
  2
190
 70
     0
 62
   190
  6
CONTINUOUS
  0
LAYER
  5
F8
330
2
100
AcDbSymbolTableRecord
100
AcDbLayerTableRecord
  2
191
 70
     0
 62
   191
  6
CONTINUOUS
  0
LAYER
  5
F9
330
2
100
AcDbSymbolTableRecord
100
AcDbLayerTableRecord
  2
192
 70
     0
 62
   192
  6
CONTINUOUS
  0
LAYER
  5
FA
330
2
100
AcDbSymbolTableRecord
100
AcDbLayerTableRecord
  2
193
 70
     0
 62
   193
  6
CONTINUOUS
  0
LAYER
  5
FB
330
2
100
AcDbSymbolTableRecord
100
AcDbLayerTableRecord
  2
194
 70
     0
 62
   194
  6
CONTINUOUS
  0
LAYER
  5
FC
330
2
100
AcDbSymbolTableRecord
100
AcDbLayerTableRecord
  2
195
 70
     0
 62
   195
  6
CONTINUOUS
  0
LAYER
  5
FD
330
2
100
AcDbSymbolTableRecord
100
AcDbLayerTableRecord
  2
196
 70
     0
 62
   196
  6
CONTINUOUS
  0
LAYER
  5
FE
330
2
100
AcDbSymbolTableRecord
100
AcDbLayerTableRecord
  2
197
 70
     0
 62
   197
  6
CONTINUOUS
  0
LAYER
  5
FF
330
2
100
AcDbSymbolTableRecord
100
AcDbLayerTableRecord
  2
198
 70
     0
 62
   198
  6
CONTINUOUS
  0
LAYER
  5
100
330
2
100
AcDbSymbolTableRecord
100
AcDbLayerTableRecord
  2
199
 70
     0
 62
   199
  6
CONTINUOUS
  0
LAYER
  5
101
330
2
100
AcDbSymbolTableRecord
100
AcDbLayerTableRecord
  2
200
 70
     0
 62
   200
  6
CONTINUOUS
  0
LAYER
  5
102
330
2
100
AcDbSymbolTableRecord
100
AcDbLayerTableRecord
  2
201
 70
     0
 62
   201
  6
CONTINUOUS
  0
LAYER
  5
103
330
2
100
AcDbSymbolTableRecord
100
AcDbLayerTableRecord
  2
202
 70
     0
 62
   202
  6
CONTINUOUS
  0
LAYER
  5
104
330
2
100
AcDbSymbolTableRecord
100
AcDbLayerTableRecord
  2
203
 70
     0
 62
   203
  6
CONTINUOUS
  0
LAYER
  5
105
330
2
100
AcDbSymbolTableRecord
100
AcDbLayerTableRecord
  2
204
 70
     0
 62
   204
  6
CONTINUOUS
  0
LAYER
  5
106
330
2
100
AcDbSymbolTableRecord
100
AcDbLayerTableRecord
  2
205
 70
     0
 62
   205
  6
CONTINUOUS
  0
LAYER
  5
107
330
2
100
AcDbSymbolTableRecord
100
AcDbLayerTableRecord
  2
206
 70
     0
 62
   206
  6
CONTINUOUS
  0
LAYER
  5
108
330
2
100
AcDbSymbolTableRecord
100
AcDbLayerTableRecord
  2
207
 70
     0
 62
   207
  6
CONTINUOUS
  0
LAYER
  5
109
330
2
100
AcDbSymbolTableRecord
100
AcDbLayerTableRecord
  2
208
 70
     0
 62
   208
  6
CONTINUOUS
  0
LAYER
  5
10A
330
2
100
AcDbSymbolTableRecord
100
AcDbLayerTableRecord
  2
209
 70
     0
 62
   209
  6
CONTINUOUS
  0
LAYER
  5
10B
330
2
100
AcDbSymbolTableRecord
100
AcDbLayerTableRecord
  2
210
 70
     0
 62
   210
  6
CONTINUOUS
  0
LAYER
  5
10C
330
2
100
AcDbSymbolTableRecord
100
AcDbLayerTableRecord
  2
211
 70
     0
 62
   211
  6
CONTINUOUS
  0
LAYER
  5
10D
330
2
100
AcDbSymbolTableRecord
100
AcDbLayerTableRecord
  2
212
 70
     0
 62
   212
  6
CONTINUOUS
  0
LAYER
  5
10E
330
2
100
AcDbSymbolTableRecord
100
AcDbLayerTableRecord
  2
213
 70
     0
 62
   213
  6
CONTINUOUS
  0
LAYER
  5
10F
330
2
100
AcDbSymbolTableRecord
100
AcDbLayerTableRecord
  2
214
 70
     0
 62
   214
  6
CONTINUOUS
  0
LAYER
  5
110
330
2
100
AcDbSymbolTableRecord
100
AcDbLayerTableRecord
  2
215
 70
     0
 62
   215
  6
CONTINUOUS
  0
LAYER
  5
111
330
2
100
AcDbSymbolTableRecord
100
AcDbLayerTableRecord
  2
216
 70
     0
 62
   216
  6
CONTINUOUS
  0
LAYER
  5
112
330
2
100
AcDbSymbolTableRecord
100
AcDbLayerTableRecord
  2
217
 70
     0
 62
   217
  6
CONTINUOUS
  0
LAYER
  5
113
330
2
100
AcDbSymbolTableRecord
100
AcDbLayerTableRecord
  2
218
 70
     0
 62
   218
  6
CONTINUOUS
  0
LAYER
  5
114
330
2
100
AcDbSymbolTableRecord
100
AcDbLayerTableRecord
  2
219
 70
     0
 62
   219
  6
CONTINUOUS
  0
LAYER
  5
115
330
2
100
AcDbSymbolTableRecord
100
AcDbLayerTableRecord
  2
220
 70
     0
 62
   220
  6
CONTINUOUS
  0
LAYER
  5
116
330
2
100
AcDbSymbolTableRecord
100
AcDbLayerTableRecord
  2
221
 70
     0
 62
   221
  6
CONTINUOUS
  0
LAYER
  5
117
330
2
100
AcDbSymbolTableRecord
100
AcDbLayerTableRecord
  2
222
 70
     0
 62
   222
  6
CONTINUOUS
  0
LAYER
  5
118
330
2
100
AcDbSymbolTableRecord
100
AcDbLayerTableRecord
  2
223
 70
     0
 62
   223
  6
CONTINUOUS
  0
LAYER
  5
119
330
2
100
AcDbSymbolTableRecord
100
AcDbLayerTableRecord
  2
224
 70
     0
 62
   224
  6
CONTINUOUS
  0
LAYER
  5
11A
330
2
100
AcDbSymbolTableRecord
100
AcDbLayerTableRecord
  2
225
 70
     0
 62
   225
  6
CONTINUOUS
  0
LAYER
  5
11B
330
2
100
AcDbSymbolTableRecord
100
AcDbLayerTableRecord
  2
226
 70
     0
 62
   226
  6
CONTINUOUS
  0
LAYER
  5
11C
330
2
100
AcDbSymbolTableRecord
100
AcDbLayerTableRecord
  2
227
 70
     0
 62
   227
  6
CONTINUOUS
  0
LAYER
  5
11D
330
2
100
AcDbSymbolTableRecord
100
AcDbLayerTableRecord
  2
228
 70
     0
 62
   228
  6
CONTINUOUS
  0
LAYER
  5
11E
330
2
100
AcDbSymbolTableRecord
100
AcDbLayerTableRecord
  2
229
 70
     0
 62
   229
  6
CONTINUOUS
  0
LAYER
  5
11F
330
2
100
AcDbSymbolTableRecord
100
AcDbLayerTableRecord
  2
230
 70
     0
 62
   230
  6
CONTINUOUS
  0
LAYER
  5
120
330
2
100
AcDbSymbolTableRecord
100
AcDbLayerTableRecord
  2
231
 70
     0
 62
   231
  6
CONTINUOUS
  0
LAYER
  5
121
330
2
100
AcDbSymbolTableRecord
100
AcDbLayerTableRecord
  2
232
 70
     0
 62
   232
  6
CONTINUOUS
  0
LAYER
  5
122
330
2
100
AcDbSymbolTableRecord
100
AcDbLayerTableRecord
  2
233
 70
     0
 62
   233
  6
CONTINUOUS
  0
LAYER
  5
123
330
2
100
AcDbSymbolTableRecord
100
AcDbLayerTableRecord
  2
234
 70
     0
 62
   234
  6
CONTINUOUS
  0
LAYER
  5
124
330
2
100
AcDbSymbolTableRecord
100
AcDbLayerTableRecord
  2
235
 70
     0
 62
   235
  6
CONTINUOUS
  0
LAYER
  5
125
330
2
100
AcDbSymbolTableRecord
100
AcDbLayerTableRecord
  2
236
 70
     0
 62
   236
  6
CONTINUOUS
  0
LAYER
  5
126
330
2
100
AcDbSymbolTableRecord
100
AcDbLayerTableRecord
  2
237
 70
     0
 62
   237
  6
CONTINUOUS
  0
LAYER
  5
127
330
2
100
AcDbSymbolTableRecord
100
AcDbLayerTableRecord
  2
238
 70
     0
 62
   238
  6
CONTINUOUS
  0
LAYER
  5
128
330
2
100
AcDbSymbolTableRecord
100
AcDbLayerTableRecord
  2
239
 70
     0
 62
   239
  6
CONTINUOUS
  0
LAYER
  5
129
330
2
100
AcDbSymbolTableRecord
100
AcDbLayerTableRecord
  2
240
 70
     0
 62
   240
  6
CONTINUOUS
  0
LAYER
  5
12A
330
2
100
AcDbSymbolTableRecord
100
AcDbLayerTableRecord
  2
241
 70
     0
 62
   241
  6
CONTINUOUS
  0
LAYER
  5
12B
330
2
100
AcDbSymbolTableRecord
100
AcDbLayerTableRecord
  2
242
 70
     0
 62
   242
  6
CONTINUOUS
  0
LAYER
  5
12C
330
2
100
AcDbSymbolTableRecord
100
AcDbLayerTableRecord
  2
243
 70
     0
 62
   243
  6
CONTINUOUS
  0
LAYER
  5
12D
330
2
100
AcDbSymbolTableRecord
100
AcDbLayerTableRecord
  2
244
 70
     0
 62
   244
  6
CONTINUOUS
  0
LAYER
  5
12E
330
2
100
AcDbSymbolTableRecord
100
AcDbLayerTableRecord
  2
245
 70
     0
 62
   245
  6
CONTINUOUS
  0
LAYER
  5
12F
330
2
100
AcDbSymbolTableRecord
100
AcDbLayerTableRecord
  2
246
 70
     0
 62
   246
  6
CONTINUOUS
  0
LAYER
  5
130
330
2
100
AcDbSymbolTableRecord
100
AcDbLayerTableRecord
  2
247
 70
     0
 62
   247
  6
CONTINUOUS
  0
LAYER
  5
131
330
2
100
AcDbSymbolTableRecord
100
AcDbLayerTableRecord
  2
248
 70
     0
 62
   248
  6
CONTINUOUS
  0
LAYER
  5
132
330
2
100
AcDbSymbolTableRecord
100
AcDbLayerTableRecord
  2
249
 70
     0
 62
   249
  6
CONTINUOUS
  0
LAYER
  5
133
330
2
100
AcDbSymbolTableRecord
100
AcDbLayerTableRecord
  2
250
 70
     0
 62
   250
  6
CONTINUOUS
  0
LAYER
  5
134
330
2
100
AcDbSymbolTableRecord
100
AcDbLayerTableRecord
  2
251
 70
     0
 62
   251
  6
CONTINUOUS
  0
LAYER
  5
135
330
2
100
AcDbSymbolTableRecord
100
AcDbLayerTableRecord
  2
252
 70
     0
 62
   252
  6
CONTINUOUS
  0
LAYER
  5
136
330
2
100
AcDbSymbolTableRecord
100
AcDbLayerTableRecord
  2
253
 70
     0
 62
   253
  6
CONTINUOUS
  0
LAYER
  5
137
330
2
100
AcDbSymbolTableRecord
100
AcDbLayerTableRecord
  2
254
 70
     0
 62
   254
  6
CONTINUOUS
  0
LAYER
  5
138
330
2
100
AcDbSymbolTableRecord
100
AcDbLayerTableRecord
  2
255
 70
     0
 62
   255
  6
CONTINUOUS
  0
LAYER
  5
710
330
2
100
AcDbSymbolTableRecord
100
AcDbLayerTableRecord
  2
DEFPOINTS
 70
     0
 62
     7
  6
CONTINUOUS
  0
ENDTAB
  0
TABLE
  2
STYLE
  5
3
330
0
100
AcDbSymbolTable
 70
     1
  0
STYLE
  5
11
330
3
100
AcDbSymbolTableRecord
100
AcDbTextStyleTableRecord
  2
STANDARD
 70
     0
 40
0.0
 41
1.0
 50
0.0
 71
     0
 42
0.2
  3
txt
  4

  0
ENDTAB
  0
TABLE
  2
VIEW
  5
6
330
0
100
AcDbSymbolTable
 70
     0
  0
ENDTAB
  0
TABLE
  2
UCS
  5
7
330
0
100
AcDbSymbolTable
 70
     0
  0
ENDTAB
  0
TABLE
  2
APPID
  5
9
330
0
100
AcDbSymbolTable
 70
     1
  0
APPID
  5
12
330
9
100
AcDbSymbolTableRecord
100
AcDbRegAppTableRecord
  2
ACAD
 70
     0
  0
ENDTAB
  0
TABLE
  2
DIMSTYLE
  5
A
330
0
100
AcDbSymbolTable
 70
     1
  0
DIMSTYLE
105
70C
102
{ACAD_REACTORS
330
70F
330
728
102
}
330
A
100
AcDbSymbolTableRecord
100
AcDbDimStyleTableRecord
  2
STANDARD
 70
     0
  3

  4

  5

  6

  7

 40
1.0
 41
0.18
 42
0.0625
 43
0.38
 44
0.18
 45
0.0
 46
0.0
 47
0.0
 48
0.0
140
0.18
141
0.09
142
0.0
143
25.4
144
1.0
145
0.0
146
1.0
147
0.09
 71
     0
 72
     0
 73
     1
 74
     1
 75
     0
 76
     0
 77
     0
 78
     0
170
     0
171
     2
172
     0
173
     0
174
     0
175
     0
176
     0
177
     0
178
     0
270
     2
271
     4
272
     4
273
     2
274
     2
340
11
275
     0
280
     0
281
     0
282
     0
283
     1
284
     0
285
     0
286
     0
287
     3
288
     0
  0
ENDTAB
  0
TABLE
  2
BLOCK_RECORD
  5
1
330
0
100
AcDbSymbolTable
 70
     2
  0
BLOCK_RECORD
  5
1E
102
{ACAD_XDICTIONARY
360
74E
102
}
330
1
100
AcDbSymbolTableRecord
100
AcDbBlockTableRecord
  2
*MODEL_SPACE
  0
BLOCK_RECORD
  5
1A
102
{ACAD_XDICTIONARY
360
74C
102
}
330
1
100
AcDbSymbolTableRecord
100
AcDbBlockTableRecord
  2
*PAPER_SPACE
  0
BLOCK_RECORD
  5
711
330
1
100
AcDbSymbolTableRecord
100
AcDbBlockTableRecord
  2
*D0
  0
BLOCK_RECORD
  5
729
330
1
100
AcDbSymbolTableRecord
100
AcDbBlockTableRecord
  2
*D1
  0
ENDTAB
  0
ENDSEC
  0
SECTION
  2
BLOCKS
  0
BLOCK
  5
13B
330
1E
100
AcDbEntity
  8
0
100
AcDbBlockBegin
  2
*MODEL_SPACE
 70
     0
 10
0.0
 20
0.0
 30
0.0
  3
*MODEL_SPACE
  1

  0
ENDBLK
  5
13C
330
1E
100
AcDbEntity
  8
0
100
AcDbBlockEnd
  0
BLOCK
  5
139
330
1A
100
AcDbEntity
 67
     1
  8
0
100
AcDbBlockBegin
  2
*PAPER_SPACE
 70
     0
 10
0.0
 20
0.0
 30
0.0
  3
*PAPER_SPACE
  1

  0
ENDBLK
  5
13A
330
1A
100
AcDbEntity
 67
     1
  8
0
100
AcDbBlockEnd
  0
BLOCK
  5
71C
330
711
100
AcDbEntity
  8
0
100
AcDbBlockBegin
  2
*D0
 70
     1
 10
0.0
 20
0.0
 30
0.0
  3
*D0
  1

  0
LINE
  5
740
330
711
100
AcDbEntity
  8
0
 62
     0
100
AcDbLine
 10
1.189737032204385
 20
3.714378277089584
 30
0.0
 11
1.189737032204385
 21
3.158802801867569
 31
0.0
  0
LINE
  5
741
330
711
100
AcDbEntity
  8
0
 62
     0
100
AcDbLine
 10
4.449427552794936
 20
3.714378277089584
 30
0.0
 11
4.449427552794936
 21
3.158802801867569
 31
0.0
  0
LINE
  5
742
330
711
100
AcDbEntity
  8
0
 62
     0
100
AcDbLine
 10
1.369737032204385
 20
3.338802801867569
 30
0.0
 11
2.27958229249966
 21
3.338802801867569
 31
0.0
  0
LINE
  5
743
330
711
100
AcDbEntity
  8
0
 62
     0
100
AcDbLine
 10
4.269427552794936
 20
3.338802801867569
 30
0.0
 11
3.359582292499661
 21
3.338802801867569
 31
0.0
  0
SOLID
  5
744
330
711
100
AcDbEntity
  8
0
 62
     0
100
AcDbTrace
 10
1.369737032204385
 20
3.368802801867568
 30
0.0
 11
1.369737032204385
 21
3.308802801867569
 31
0.0
 12
1.189737032204385
 22
3.338802801867569
 32
0.0
 13
1.189737032204385
 23
3.338802801867569
 33
0.0
  0
SOLID
  5
745
330
711
100
AcDbEntity
  8
0
 62
     0
100
AcDbTrace
 10
4.269427552794936
 20
3.368802801867568
 30
0.0
 11
4.269427552794936
 21
3.308802801867569
 31
0.0
 12
4.449427552794936
 22
3.338802801867569
 32
0.0
 13
4.449427552794936
 23
3.338802801867569
 33
0.0
  0
MTEXT
  5
746
330
711
100
AcDbEntity
  8
0
 62
     0
100
AcDbMText
 10
2.81958229249966
 20
3.338802801867569
 30
0.0
 40
0.18
 41
0.0
 71
     5
 72
     1
  1
\A1;3.2597
1001
ACAD
1000
MTEXTBEGIN
1070
    73
1070
     1
1070
    44
1040
1.0
1070
    74
1070
     0
1000
MTEXTEND
  0
POINT
  5
747
330
711
100
AcDbEntity
  8
DEFPOINTS
 62
     0
100
AcDbPoint
 10
1.189737032204385
 20
3.776878277089584
 30
0.0
  0
POINT
  5
748
330
711
100
AcDbEntity
  8
DEFPOINTS
 62
     0
100
AcDbPoint
 10
4.449427552794936
 20
3.776878277089584
 30
0.0
  0
POINT
  5
749
330
711
100
AcDbEntity
  8
DEFPOINTS
 62
     0
100
AcDbPoint
 10
4.449427552794936
 20
3.338802801867569
 30
0.0
  0
ENDBLK
  5
71D
330
711
100
AcDbEntity
  8
0
100
AcDbBlockEnd
  0
BLOCK
  5
734
330
729
100
AcDbEntity
  8
0
100
AcDbBlockBegin
  2
*D1
 70
     1
 10
0.0
 20
0.0
 30
0.0
  3
*D1
  1

  0
LINE
  5
736
330
729
100
AcDbEntity
  8
0
 62
     0
100
AcDbLine
 10
1.189737032204385
 20
1.722957872050213
 30
0.0
 11
1.189737032204385
 21
1.21622735970208
 31
0.0
  0
LINE
  5
737
330
729
100
AcDbEntity
  8
0
 62
     0
100
AcDbLine
 10
4.449427552794936
 20
1.722957872050213
 30
0.0
 11
4.449427552794936
 21
1.21622735970208
 31
0.0
  0
LINE
  5
738
330
729
100
AcDbEntity
  8
0
 62
     0
100
AcDbLine
 10
1.369737032204385
 20
1.39622735970208
 30
0.0
 11
2.27958229249966
 21
1.39622735970208
 31
0.0
  0
LINE
  5
739
330
729
100
AcDbEntity
  8
0
 62
     0
100
AcDbLine
 10
4.269427552794936
 20
1.39622735970208
 30
0.0
 11
3.359582292499661
 21
1.39622735970208
 31
0.0
  0
SOLID
  5
73A
330
729
100
AcDbEntity
  8
0
 62
     0
100
AcDbTrace
 10
1.369737032204385
 20
1.42622735970208
 30
0.0
 11
1.369737032204385
 21
1.36622735970208
 31
0.0
 12
1.189737032204385
 22
1.39622735970208
 32
0.0
 13
1.189737032204385
 23
1.39622735970208
 33
0.0
  0
SOLID
  5
73B
330
729
100
AcDbEntity
  8
0
 62
     0
100
AcDbTrace
 10
4.269427552794936
 20
1.42622735970208
 30
0.0
 11
4.269427552794936
 21
1.36622735970208
 31
0.0
 12
4.449427552794936
 22
1.39622735970208
 32
0.0
 13
4.449427552794936
 23
1.39622735970208
 33
0.0
  0
MTEXT
  5
73C
330
729
100
AcDbEntity
  8
0
 62
     0
100
AcDbMText
 10
2.81958229249966
 20
1.39622735970208
 30
0.0
 40
0.18
 41
0.0
 71
     5
 72
     1
  1
\A1;3.2597
1001
ACAD
1000
MTEXTBEGIN
1070
    73
1070
     1
1070
    44
1040
1.0
1070
    74
1070
     0
1000
MTEXTEND
  0
POINT
  5
73D
330
729
100
AcDbEntity
  8
DEFPOINTS
 62
     0
100
AcDbPoint
 10
1.189737032204385
 20
1.785457872050213
 30
0.0
  0
POINT
  5
73E
330
729
100
AcDbEntity
  8
DEFPOINTS
 62
     0
100
AcDbPoint
 10
4.449427552794936
 20
1.785457872050213
 30
0.0
  0
POINT
  5
73F
330
729
100
AcDbEntity
  8
DEFPOINTS
 62
     0
100
AcDbPoint
 10
4.449427552794936
 20
1.39622735970208
 30
0.0
  0
ENDBLK
  5
735
330
729
100
AcDbEntity
  8
0
100
AcDbBlockEnd
  0
ENDSEC
  0
SECTION
  2
ENTITIES
  0
POLYLINE
  5
149
330
1E
100
AcDbEntity
  8
0
100
AcDb2dPolyline
 66
     1
 10
0.0
 20
0.0
 30
0.0
  0
VERTEX
  5
750
330
149
100
AcDbEntity
  8
0
100
AcDbVertex
100
AcDb2dVertex
 10
2.754199423188636
 20
7.153155118861239
 30
0.0
  0
VERTEX
  5
751
330
149
100
AcDbEntity
  8
0
100
AcDbVertex
100
AcDb2dVertex
 10
2.762076877322495
 20
7.181513953743127
 30
0.0
  0
VERTEX
  5
752
330
149
100
AcDbEntity
  8
0
100
AcDbVertex
100
AcDb2dVertex
 10
2.780982767243755
 20
7.203570825317931
 30
0.0
  0
VERTEX
  5
753
330
149
100
AcDbEntity
  8
0
100
AcDbVertex
100
AcDb2dVertex
 10
2.809341602125645
 20
7.214599261105332
 30
0.0
  0
VERTEX
  5
754
330
149
100
AcDbEntity
  8
0
100
AcDbVertex
100
AcDb2dVertex
 10
2.837700437007535
 20
7.209872788625018
 30
0.0
  0
VERTEX
  5
755
330
149
100
AcDbEntity
  8
0
100
AcDbVertex
100
AcDb2dVertex
 10
2.862908290235882
 20
7.194117880357301
 30
0.0
  0
VERTEX
  5
756
330
149
100
AcDbEntity
  8
0
100
AcDbVertex
100
AcDb2dVertex
 10
2.877087707676825
 20
7.167334536302183
 30
0.0
  0
VERTEX
  5
757
330
149
100
AcDbEntity
  8
0
100
AcDbVertex
100
AcDb2dVertex
 10
2.877087707676825
 20
7.13740021059352
 30
0.0
  0
VERTEX
  5
758
330
149
100
AcDbEntity
  8
0
100
AcDbVertex
100
AcDb2dVertex
 10
2.862908290235882
 20
7.112192357365175
 30
0.0
  0
VERTEX
  5
759
330
149
100
AcDbEntity
  8
0
100
AcDbVertex
100
AcDb2dVertex
 10
2.837700437007535
 20
7.094861958270686
 30
0.0
  0
VERTEX
  5
75A
330
149
100
AcDbEntity
  8
0
100
AcDbVertex
100
AcDb2dVertex
 10
2.809341602125645
 20
7.091710976617143
 30
0.0
  0
VERTEX
  5
75B
330
149
100
AcDbEntity
  8
0
100
AcDbVertex
100
AcDb2dVertex
 10
2.780982767243755
 20
7.101163921577772
 30
0.0
  0
VERTEX
  5
75C
330
149
100
AcDbEntity
  8
0
100
AcDbVertex
100
AcDb2dVertex
 10
2.762076877322495
 20
7.124796283979349
 30
0.0
  0
VERTEX
  5
75D
330
149
100
AcDbEntity
  8
0
100
AcDbVertex
100
AcDb2dVertex
 10
2.754199423188636
 20
7.153155118861239
 30
0.0
  0
SEQEND
  5
75E
330
149
100
AcDbEntity
  8
0
  0
LINE
  5
159
330
1E
100
AcDbEntity
  8
0
100
AcDbLine
 10
3.708946864212259
 20
6.946765820554151
 30
0.0
 11
3.708946864212259
 21
7.359544417168324
 31
0.0
  0
LINE
  5
15A
330
1E
100
AcDbEntity
  8
0
100
AcDbLine
 10
1.923915757479976
 20
6.946765820554151
 30
0.0
 11
1.923915757479976
 21
7.359544417168324
 31
0.0
  0
LINE
  5
15B
330
1E
100
AcDbEntity
  8
0
100
AcDbLine
 10
1.922340266653204
 20
7.359544417168324
 30
0.0
 11
1.922340266653204
 21
6.946765820554151
 31
0.0
  0
POLYLINE
  5
15C
330
1E
100
AcDbEntity
  8
0
100
AcDb2dPolyline
 66
     1
 10
0.0
 20
0.0
 30
0.0
  0
VERTEX
  5
75F
330
15C
100
AcDbEntity
  8
0
100
AcDbVertex
100
AcDb2dVertex
 10
2.870785744369739
 20
7.153155118861239
 30
0.0
  0
VERTEX
  5
760
330
15C
100
AcDbEntity
  8
0
100
AcDbVertex
100
AcDb2dVertex
 10
2.864483781062652
 20
7.178362972089584
 30
0.0
  0
VERTEX
  5
761
330
15C
100
AcDbEntity
  8
0
100
AcDbVertex
100
AcDb2dVertex
 10
2.847153381968164
 20
7.198844352837617
 30
0.0
  0
VERTEX
  5
762
330
15C
100
AcDbEntity
  8
0
100
AcDbVertex
100
AcDb2dVertex
 10
2.823521019566589
 20
7.206721806971474
 30
0.0
  0
VERTEX
  5
763
330
15C
100
AcDbEntity
  8
0
100
AcDbVertex
100
AcDb2dVertex
 10
2.796737675511472
 20
7.203570825317931
 30
0.0
  0
VERTEX
  5
764
330
15C
100
AcDbEntity
  8
0
100
AcDbVertex
100
AcDb2dVertex
 10
2.774680803936668
 20
7.189391407876986
 30
0.0
  0
VERTEX
  5
765
330
15C
100
AcDbEntity
  8
0
100
AcDbVertex
100
AcDb2dVertex
 10
2.762076877322495
 20
7.165759045475413
 30
0.0
  0
VERTEX
  5
766
330
15C
100
AcDbEntity
  8
0
100
AcDbVertex
100
AcDb2dVertex
 10
2.762076877322495
 20
7.138975701420292
 30
0.0
  0
VERTEX
  5
767
330
15C
100
AcDbEntity
  8
0
100
AcDbVertex
100
AcDb2dVertex
 10
2.774680803936668
 20
7.11691882984549
 30
0.0
  0
VERTEX
  5
768
330
15C
100
AcDbEntity
  8
0
100
AcDbVertex
100
AcDb2dVertex
 10
2.796737675511472
 20
7.101163921577772
 30
0.0
  0
VERTEX
  5
769
330
15C
100
AcDbEntity
  8
0
100
AcDbVertex
100
AcDb2dVertex
 10
2.823521019566589
 20
7.09801293992423
 30
0.0
  0
VERTEX
  5
76A
330
15C
100
AcDbEntity
  8
0
100
AcDbVertex
100
AcDb2dVertex
 10
2.847153381968164
 20
7.107465884884859
 30
0.0
  0
VERTEX
  5
76B
330
15C
100
AcDbEntity
  8
0
100
AcDbVertex
100
AcDb2dVertex
 10
2.864483781062652
 20
7.126371774806119
 30
0.0
  0
VERTEX
  5
76C
330
15C
100
AcDbEntity
  8
0
100
AcDbVertex
100
AcDb2dVertex
 10
2.870785744369739
 20
7.153155118861239
 30
0.0
  0
SEQEND
  5
76D
330
15C
100
AcDbEntity
  8
0
  0
LINE
  5
16C
330
1E
100
AcDbEntity
  8
0
100
AcDbLine
 10
1.191312523031156
 20
4.503179548231316
 30
0.0
 11
1.197614486338243
 21
4.511057002365174
 31
0.0
  0
LINE
  5
16D
330
1E
100
AcDbEntity
  8
0
100
AcDbLine
 10
1.1944635046847
 20
4.503179548231316
 30
0.0
 11
1.191312523031156
 21
4.503179548231316
 31
0.0
  0
LINE
  5
16E
330
1E
100
AcDbEntity
  8
0
100
AcDbLine
 10
1.199189977165015
 20
4.511057002365174
 30
0.0
 11
1.197614486338243
 21
4.511057002365174
 31
0.0
  0
LINE
  5
16F
330
1E
100
AcDbEntity
  8
0
100
AcDbLine
 10
1.191312523031156
 20
4.752107098861238
 30
0.0
 11
1.197614486338243
 21
4.744229644727378
 31
0.0
  0
LINE
  5
170
330
1E
100
AcDbEntity
  8
0
100
AcDbLine
 10
1.191312523031156
 20
4.752107098861238
 30
0.0
 11
1.191312523031156
 21
4.503179548231316
 31
0.0
  0
LINE
  5
171
330
1E
100
AcDbEntity
  8
0
100
AcDbLine
 10
1.197614486338243
 20
4.744229644727378
 30
0.0
 11
1.197614486338243
 21
4.511057002365174
 31
0.0
  0
LINE
  5
172
330
1E
100
AcDbEntity
  8
0
100
AcDbLine
 10
1.197614486338243
 20
4.752107098861238
 30
0.0
 11
1.191312523031156
 21
4.752107098861238
 31
0.0
  0
LINE
  5
173
330
1E
100
AcDbEntity
  8
0
100
AcDbLine
 10
1.199189977165015
 20
4.744229644727378
 30
0.0
 11
1.197614486338243
 21
4.744229644727378
 31
0.0
  0
LINE
  5
174
330
1E
100
AcDbEntity
  8
0
100
AcDbLine
 10
1.433938110353991
 20
3.797359657837615
 30
0.0
 11
2.124003092479976
 21
3.797359657837615
 31
0.0
  0
LINE
  5
175
330
1E
100
AcDbEntity
  8
0
100
AcDbLine
 10
2.124003092479976
 20
3.843048891813993
 30
0.0
 11
2.124003092479976
 21
3.797359657837615
 31
0.0
  0
LINE
  5
176
330
1E
100
AcDbEntity
  8
0
100
AcDbLine
 10
2.191749198031156
 20
3.843048891813993
 30
0.0
 11
2.130305055787062
 21
3.843048891813993
 31
0.0
  0
LINE
  5
177
330
1E
100
AcDbEntity
  8
0
100
AcDbLine
 10
2.191749198031156
 20
3.843048891813993
 30
0.0
 11
2.191749198031156
 21
3.843048891813993
 31
0.0
  0
LINE
  5
178
330
1E
100
AcDbEntity
  8
0
100
AcDbLine
 10
2.130305055787062
 20
3.843048891813993
 30
0.0
 11
2.130305055787062
 21
3.843048891813993
 31
0.0
  0
LINE
  5
179
330
1E
100
AcDbEntity
  8
0
100
AcDbLine
 10
2.198051161338243
 20
3.843048891813993
 30
0.0
 11
2.198051161338243
 21
3.797359657837615
 31
0.0
  0
LINE
  5
17A
330
1E
100
AcDbEntity
  8
0
100
AcDbLine
 10
2.191749198031156
 20
3.843048891813993
 30
0.0
 11
2.198051161338243
 21
3.797359657837615
 31
0.0
  0
LINE
  5
17B
330
1E
100
AcDbEntity
  8
0
100
AcDbLine
 10
2.198051161338243
 20
3.797359657837615
 30
0.0
 11
2.779407276416983
 21
3.797359657837615
 31
0.0
  0
LINE
  5
17C
330
1E
100
AcDbEntity
  8
0
100
AcDbLine
 10
2.779407276416983
 20
3.843048891813993
 30
0.0
 11
2.779407276416983
 21
3.797359657837615
 31
0.0
  0
LINE
  5
17D
330
1E
100
AcDbEntity
  8
0
100
AcDbLine
 10
2.78570923972407
 20
3.843048891813993
 30
0.0
 11
2.779407276416983
 21
3.797359657837615
 31
0.0
  0
LINE
  5
17E
330
1E
100
AcDbEntity
  8
0
100
AcDbLine
 10
2.78570923972407
 20
3.843048891813993
 30
0.0
 11
2.78570923972407
 21
3.843048891813993
 31
0.0
  0
LINE
  5
17F
330
1E
100
AcDbEntity
  8
0
100
AcDbLine
 10
2.847153381968165
 20
3.843048891813993
 30
0.0
 11
2.78570923972407
 21
3.843048891813993
 31
0.0
  0
LINE
  5
180
330
1E
100
AcDbEntity
  8
0
100
AcDbLine
 10
2.847153381968165
 20
3.843048891813993
 30
0.0
 11
2.847153381968165
 21
3.843048891813993
 31
0.0
  0
LINE
  5
181
330
1E
100
AcDbEntity
  8
0
100
AcDbLine
 10
2.853455345275251
 20
3.843048891813993
 30
0.0
 11
2.853455345275251
 21
3.797359657837615
 31
0.0
  0
LINE
  5
182
330
1E
100
AcDbEntity
  8
0
100
AcDbLine
 10
2.847153381968165
 20
3.843048891813993
 30
0.0
 11
2.853455345275251
 21
3.797359657837615
 31
0.0
  0
LINE
  5
183
330
1E
100
AcDbEntity
  8
0
100
AcDbLine
 10
2.853455345275251
 20
3.797359657837615
 30
0.0
 11
3.434811460353992
 21
3.797359657837615
 31
0.0
  0
LINE
  5
184
330
1E
100
AcDbEntity
  8
0
100
AcDbLine
 10
3.434811460353992
 20
3.843048891813993
 30
0.0
 11
3.434811460353992
 21
3.797359657837615
 31
0.0
  0
LINE
  5
185
330
1E
100
AcDbEntity
  8
0
100
AcDbLine
 10
3.441113423661078
 20
3.843048891813993
 30
0.0
 11
3.434811460353992
 21
3.797359657837615
 31
0.0
  0
LINE
  5
186
330
1E
100
AcDbEntity
  8
0
100
AcDbLine
 10
3.441113423661078
 20
3.843048891813993
 30
0.0
 11
3.441113423661078
 21
3.843048891813993
 31
0.0
  0
LINE
  5
187
330
1E
100
AcDbEntity
  8
0
100
AcDbLine
 10
3.502557565905172
 20
3.843048891813993
 30
0.0
 11
3.441113423661078
 21
3.843048891813993
 31
0.0
  0
LINE
  5
188
330
1E
100
AcDbEntity
  8
0
100
AcDbLine
 10
3.502557565905172
 20
3.843048891813993
 30
0.0
 11
3.502557565905172
 21
3.843048891813993
 31
0.0
  0
LINE
  5
189
330
1E
100
AcDbEntity
  8
0
100
AcDbLine
 10
3.507284038385487
 20
3.843048891813993
 30
0.0
 11
3.507284038385487
 21
3.797359657837615
 31
0.0
  0
LINE
  5
18A
330
1E
100
AcDbEntity
  8
0
100
AcDbLine
 10
3.502557565905172
 20
3.843048891813993
 30
0.0
 11
3.507284038385487
 21
3.797359657837615
 31
0.0
  0
LINE
  5
18B
330
1E
100
AcDbEntity
  8
0
100
AcDbLine
 10
3.507284038385487
 20
3.797359657837615
 30
0.0
 11
4.198924511338244
 21
3.797359657837615
 31
0.0
  0
LINE
  5
18C
330
1E
100
AcDbEntity
  8
0
100
AcDbLine
 10
4.198924511338244
 20
3.797359657837615
 30
0.0
 11
4.198924511338244
 21
3.797359657837615
 31
0.0
  0
LINE
  5
18D
330
1E
100
AcDbEntity
  8
0
100
AcDbLine
 10
2.130305055787062
 20
3.843048891813993
 30
0.0
 11
2.124003092479976
 21
3.797359657837615
 31
0.0
  0
LINE
  5
18E
330
1E
100
AcDbEntity
  8
0
100
AcDbLine
 10
1.429211637873676
 20
3.776878277089585
 30
0.0
 11
1.433938110353991
 21
3.797359657837615
 31
0.0
  0
LINE
  5
18F
330
1E
100
AcDbEntity
  8
0
100
AcDbLine
 10
1.429211637873676
 20
3.776878277089585
 30
0.0
 11
4.203650983818558
 21
3.776878277089585
 31
0.0
  0
LINE
  5
190
330
1E
100
AcDbEntity
  8
0
100
AcDbLine
 10
4.203650983818558
 20
3.776878277089585
 30
0.0
 11
4.198924511338244
 21
3.797359657837615
 31
0.0
  0
LINE
  5
191
330
1E
100
AcDbEntity
  8
0
100
AcDbLine
 10
3.841288093661078
 20
8.205582991144703
 30
0.0
 11
4.17686763976344
 21
8.205582991144703
 31
0.0
  0
LINE
  5
192
330
1E
100
AcDbEntity
  8
0
100
AcDbLine
 10
4.17686763976344
 20
8.205582991144703
 30
0.0
 11
4.227283346220133
 21
8.199281027837615
 31
0.0
  0
LINE
  5
193
330
1E
100
AcDbEntity
  8
0
100
AcDbLine
 10
4.441550098661078
 20
4.507906020711631
 30
0.0
 11
4.441550098661078
 21
4.750531608034465
 31
0.0
  0
LINE
  5
194
330
1E
100
AcDbEntity
  8
0
100
AcDbLine
 10
4.203650983818558
 20
3.797359657837615
 30
0.0
 11
4.203650983818558
 21
3.776878277089585
 31
0.0
  0
LINE
  5
195
330
1E
100
AcDbEntity
  8
0
100
AcDbLine
 10
3.710522355039031
 20
7.359544417168324
 30
0.0
 11
3.710522355039031
 21
6.946765820554151
 31
0.0
  0
LINE
  5
196
330
1E
100
AcDbEntity
  8
0
100
AcDbLine
 10
1.189737032204385
 20
4.759984552995096
 30
0.0
 11
1.189737032204385
 21
8.014948601105333
 31
0.0
  0
POLYLINE
  5
197
330
1E
100
AcDbEntity
  8
0
100
AcDb2dPolyline
 66
     1
 10
0.0
 20
0.0
 30
0.0
  0
VERTEX
  5
76E
330
197
100
AcDbEntity
  8
0
100
AcDbVertex
100
AcDb2dVertex
 10
1.189737032204385
 20
8.014948601105333
 30
0.0
  0
VERTEX
  5
76F
330
197
100
AcDbEntity
  8
0
100
AcDbVertex
100
AcDb2dVertex
 10
1.197614486338244
 20
8.073241761695882
 30
0.0
  0
VERTEX
  5
770
330
197
100
AcDbEntity
  8
0
100
AcDbVertex
100
AcDb2dVertex
 10
1.216520376259504
 20
8.129959431459663
 30
0.0
  0
VERTEX
  5
771
330
197
100
AcDbEntity
  8
0
100
AcDbVertex
100
AcDb2dVertex
 10
1.248030192794936
 20
8.180375137916357
 30
0.0
  0
VERTEX
  5
772
330
197
100
AcDbEntity
  8
0
100
AcDbVertex
100
AcDb2dVertex
 10
1.290568445117771
 20
8.221337899412418
 30
0.0
  0
VERTEX
  5
773
330
197
100
AcDbEntity
  8
0
100
AcDbVertex
100
AcDb2dVertex
 10
1.339408660747692
 20
8.252847715947853
 30
0.0
  0
VERTEX
  5
774
330
197
100
AcDbEntity
  8
0
100
AcDbVertex
100
AcDb2dVertex
 10
1.396126330511472
 20
8.273329096695885
 30
0.0
  0
VERTEX
  5
775
330
197
100
AcDbEntity
  8
0
100
AcDbVertex
100
AcDb2dVertex
 10
1.454419491102023
 20
8.279631060002969
 30
0.0
  0
SEQEND
  5
776
330
197
100
AcDbEntity
  8
0
  0
LINE
  5
1A1
330
1E
100
AcDbEntity
  8
0
100
AcDbLine
 10
4.184745093897299
 20
8.279631060002969
 30
0.0
 11
1.454419491102023
 21
8.279631060002969
 31
0.0
  0
POLYLINE
  5
1A2
330
1E
100
AcDbEntity
  8
0
100
AcDb2dPolyline
 66
     1
 10
0.0
 20
0.0
 30
0.0
  0
VERTEX
  5
777
330
1A2
100
AcDbEntity
  8
0
100
AcDbVertex
100
AcDb2dVertex
 10
4.184745093897299
 20
8.279631060002969
 30
0.0
  0
VERTEX
  5
778
330
1A2
100
AcDbEntity
  8
0
100
AcDbVertex
100
AcDb2dVertex
 10
4.244613745314621
 20
8.273329096695885
 30
0.0
  0
VERTEX
  5
779
330
1A2
100
AcDbEntity
  8
0
100
AcDbVertex
100
AcDb2dVertex
 10
4.29975592425163
 20
8.252847715947853
 30
0.0
  0
VERTEX
  5
77A
330
1A2
100
AcDbEntity
  8
0
100
AcDbVertex
100
AcDb2dVertex
 10
4.350171630708322
 20
8.221337899412418
 30
0.0
  0
VERTEX
  5
77B
330
1A2
100
AcDbEntity
  8
0
100
AcDbVertex
100
AcDb2dVertex
 10
4.392709883031157
 20
8.180375137916357
 30
0.0
  0
VERTEX
  5
77C
330
1A2
100
AcDbEntity
  8
0
100
AcDbVertex
100
AcDb2dVertex
 10
4.424219699566589
 20
8.129959431459663
 30
0.0
  0
VERTEX
  5
77D
330
1A2
100
AcDbEntity
  8
0
100
AcDbVertex
100
AcDb2dVertex
 10
4.443125589487849
 20
8.073241761695882
 30
0.0
  0
VERTEX
  5
77E
330
1A2
100
AcDbEntity
  8
0
100
AcDbVertex
100
AcDb2dVertex
 10
4.449427552794936
 20
8.014948601105333
 30
0.0
  0
SEQEND
  5
77F
330
1A2
100
AcDbEntity
  8
0
  0
LINE
  5
1AC
330
1E
100
AcDbEntity
  8
0
100
AcDbLine
 10
4.449427552794936
 20
8.014948601105333
 30
0.0
 11
4.449427552794936
 21
4.759984552995096
 31
0.0
  0
POLYLINE
  5
1AD
330
1E
100
AcDbEntity
  8
0
100
AcDb2dPolyline
 66
     1
 10
0.0
 20
0.0
 30
0.0
  0
VERTEX
  5
780
330
1AD
100
AcDbEntity
  8
0
100
AcDbVertex
100
AcDb2dVertex
 10
4.228858837046905
 20
3.857228309254937
 30
0.0
  0
VERTEX
  5
781
330
1AD
100
AcDbEntity
  8
0
100
AcDbVertex
100
AcDb2dVertex
 10
3.877524382676826
 20
3.85880380008171
 30
0.0
  0
VERTEX
  5
782
330
1AD
100
AcDbEntity
  8
0
100
AcDbVertex
100
AcDb2dVertex
 10
3.526189928306747
 20
3.861954781735253
 30
0.0
  0
VERTEX
  5
783
330
1AD
100
AcDbEntity
  8
0
100
AcDbVertex
100
AcDb2dVertex
 10
3.173279983109897
 20
3.863530272562023
 30
0.0
  0
VERTEX
  5
784
330
1AD
100
AcDbEntity
  8
0
100
AcDbVertex
100
AcDb2dVertex
 10
2.820370037913046
 20
3.863530272562023
 30
0.0
  0
VERTEX
  5
785
330
1AD
100
AcDbEntity
  8
0
100
AcDbVertex
100
AcDb2dVertex
 10
2.467460092716196
 20
3.863530272562023
 30
0.0
  0
VERTEX
  5
786
330
1AD
100
AcDbEntity
  8
0
100
AcDbVertex
100
AcDb2dVertex
 10
2.114550147519346
 20
3.861954781735253
 30
0.0
  0
VERTEX
  5
787
330
1AD
100
AcDbEntity
  8
0
100
AcDbVertex
100
AcDb2dVertex
 10
1.763215693149267
 20
3.85880380008171
 30
0.0
  0
VERTEX
  5
788
330
1AD
100
AcDbEntity
  8
0
100
AcDbVertex
100
AcDb2dVertex
 10
1.411881238779189
 20
3.857228309254937
 30
0.0
  0
SEQEND
  5
789
330
1AD
100
AcDbEntity
  8
0
  0
LINE
  5
1B8
330
1E
100
AcDbEntity
  8
0
100
AcDbLine
 10
4.228858837046905
 20
3.857228309254937
 30
0.0
 11
4.228858837046905
 21
6.529260751459663
 31
0.0
  0
POLYLINE
  5
1B9
330
1E
100
AcDbEntity
  8
0
100
AcDb2dPolyline
 66
     1
 10
0.0
 20
0.0
 30
0.0
  0
VERTEX
  5
78A
330
1B9
100
AcDbEntity
  8
0
100
AcDbVertex
100
AcDb2dVertex
 10
1.411881238779189
 20
6.529260751459664
 30
0.0
  0
VERTEX
  5
78B
330
1B9
100
AcDbEntity
  8
0
100
AcDbVertex
100
AcDb2dVertex
 10
1.812055908779188
 20
6.529260751459664
 30
0.0
  0
VERTEX
  5
78C
330
1B9
100
AcDbEntity
  8
0
100
AcDbVertex
100
AcDb2dVertex
 10
2.215381560432732
 20
6.529260751459664
 30
0.0
  0
VERTEX
  5
78D
330
1B9
100
AcDbEntity
  8
0
100
AcDbVertex
100
AcDb2dVertex
 10
2.618707212086275
 20
6.529260751459664
 30
0.0
  0
VERTEX
  5
78E
330
1B9
100
AcDbEntity
  8
0
100
AcDbVertex
100
AcDb2dVertex
 10
3.022032863739819
 20
6.529260751459664
 30
0.0
  0
VERTEX
  5
78F
330
1B9
100
AcDbEntity
  8
0
100
AcDbVertex
100
AcDb2dVertex
 10
3.425358515393362
 20
6.529260751459664
 30
0.0
  0
VERTEX
  5
790
330
1B9
100
AcDbEntity
  8
0
100
AcDbVertex
100
AcDb2dVertex
 10
3.827108676220133
 20
6.529260751459664
 30
0.0
  0
VERTEX
  5
791
330
1B9
100
AcDbEntity
  8
0
100
AcDbVertex
100
AcDb2dVertex
 10
4.228858837046905
 20
6.529260751459664
 30
0.0
  0
SEQEND
  5
792
330
1B9
100
AcDbEntity
  8
0
  0
LINE
  5
1C3
330
1E
100
AcDbEntity
  8
0
100
AcDbLine
 10
1.411881238779189
 20
6.529260751459663
 30
0.0
 11
1.411881238779189
 21
3.857228309254937
 31
0.0
  0
LINE
  5
1C4
330
1E
100
AcDbEntity
  8
0
100
AcDbLine
 10
4.090215644290999
 20
3.843048891813993
 30
0.0
 11
1.548948940708322
 21
3.843048891813993
 31
0.0
  0
LINE
  5
1C5
330
1E
100
AcDbEntity
  8
0
100
AcDbLine
 10
4.449427552794936
 20
3.776878277089585
 30
0.0
 11
4.381681447243756
 21
3.844624382640764
 31
0.0
  0
POLYLINE
  5
1C6
330
1E
100
AcDbEntity
  8
0
100
AcDb2dPolyline
 66
     1
 10
0.0
 20
0.0
 30
0.0
  0
VERTEX
  5
793
330
1C6
100
AcDbEntity
  8
0
100
AcDbVertex
100
AcDb2dVertex
 10
4.381681447243756
 20
3.844624382640764
 30
0.0
  0
VERTEX
  5
794
330
1C6
100
AcDbEntity
  8
0
100
AcDbVertex
100
AcDb2dVertex
 10
4.372228502283125
 20
3.847775364294308
 30
0.0
  0
VERTEX
  5
795
330
1C6
100
AcDbEntity
  8
0
100
AcDbVertex
100
AcDb2dVertex
 10
4.350171630708322
 20
3.85092634594785
 30
0.0
  0
VERTEX
  5
796
330
1C6
100
AcDbEntity
  8
0
100
AcDbVertex
100
AcDb2dVertex
 10
4.317086323346117
 20
3.854077327601395
 30
0.0
  0
VERTEX
  5
797
330
1C6
100
AcDbEntity
  8
0
100
AcDbVertex
100
AcDb2dVertex
 10
4.274548071023283
 20
3.855652818428166
 30
0.0
  0
VERTEX
  5
798
330
1C6
100
AcDbEntity
  8
0
100
AcDbVertex
100
AcDb2dVertex
 10
4.228858837046905
 20
3.857228309254937
 30
0.0
  0
SEQEND
  5
799
330
1C6
100
AcDbEntity
  8
0
  0
POLYLINE
  5
1CE
330
1E
100
AcDbEntity
  8
0
100
AcDb2dPolyline
 66
     1
 10
0.0
 20
0.0
 30
0.0
  0
VERTEX
  5
79A
330
1CE
100
AcDbEntity
  8
0
100
AcDbVertex
100
AcDb2dVertex
 10
1.411881238779189
 20
3.857228309254937
 30
0.0
  0
VERTEX
  5
79B
330
1CE
100
AcDbEntity
  8
0
100
AcDbVertex
100
AcDb2dVertex
 10
1.364616513976038
 20
3.855652818428166
 30
0.0
  0
VERTEX
  5
79C
330
1CE
100
AcDbEntity
  8
0
100
AcDbVertex
100
AcDb2dVertex
 10
1.323653752479976
 20
3.854077327601395
 30
0.0
  0
VERTEX
  5
79D
330
1CE
100
AcDbEntity
  8
0
100
AcDbVertex
100
AcDb2dVertex
 10
1.290568445117771
 20
3.85092634594785
 30
0.0
  0
VERTEX
  5
79E
330
1CE
100
AcDbEntity
  8
0
100
AcDbVertex
100
AcDb2dVertex
 10
1.268511573542968
 20
3.847775364294308
 30
0.0
  0
VERTEX
  5
79F
330
1CE
100
AcDbEntity
  8
0
100
AcDbVertex
100
AcDb2dVertex
 10
1.257483137755566
 20
3.844624382640764
 30
0.0
  0
SEQEND
  5
7A0
330
1CE
100
AcDbEntity
  8
0
  0
LINE
  5
1D6
330
1E
100
AcDbEntity
  8
0
100
AcDbLine
 10
1.189737032204385
 20
3.776878277089585
 30
0.0
 11
1.257483137755566
 21
3.844624382640764
 31
0.0
  0
LINE
  5
1D7
330
1E
100
AcDbEntity
  8
0
100
AcDbLine
 10
1.189737032204385
 20
3.776878277089585
 30
0.0
 11
1.429211637873676
 21
3.776878277089585
 31
0.0
  0
LINE
  5
1D8
330
1E
100
AcDbEntity
  8
0
100
AcDbLine
 10
1.429211637873676
 20
3.776878277089585
 30
0.0
 11
1.433938110353991
 21
3.797359657837615
 31
0.0
  0
LINE
  5
1D9
330
1E
100
AcDbEntity
  8
0
100
AcDbLine
 10
1.433938110353991
 20
3.797359657837615
 30
0.0
 11
1.544222468228007
 21
3.797359657837615
 31
0.0
  0
LINE
  5
1DA
330
1E
100
AcDbEntity
  8
0
100
AcDbLine
 10
1.544222468228007
 20
3.797359657837615
 30
0.0
 11
1.548948940708322
 21
3.843048891813993
 31
0.0
  0
LINE
  5
1DB
330
1E
100
AcDbEntity
  8
0
100
AcDbLine
 10
4.096517607598086
 20
3.797359657837615
 30
0.0
 11
4.090215644290999
 21
3.843048891813993
 31
0.0
  0
LINE
  5
1DC
330
1E
100
AcDbEntity
  8
0
100
AcDbLine
 10
4.205226474645329
 20
3.797359657837615
 30
0.0
 11
4.096517607598086
 21
3.797359657837615
 31
0.0
  0
LINE
  5
1DD
330
1E
100
AcDbEntity
  8
0
100
AcDbLine
 10
4.211528437952417
 20
3.776878277089585
 30
0.0
 11
4.205226474645329
 21
3.797359657837615
 31
0.0
  0
LINE
  5
1DE
330
1E
100
AcDbEntity
  8
0
100
AcDbLine
 10
4.211528437952417
 20
3.776878277089585
 30
0.0
 11
4.449427552794936
 21
3.776878277089585
 31
0.0
  0
POLYLINE
  5
1DF
330
1E
100
AcDbEntity
  8
0
100
AcDb2dPolyline
 66
     1
 10
0.0
 20
0.0
 30
0.0
  0
VERTEX
  5
7A1
330
1DF
100
AcDbEntity
  8
0
100
AcDbVertex
100
AcDb2dVertex
 10
4.228858837046905
 20
6.529260751459664
 30
0.0
  0
VERTEX
  5
7A2
330
1DF
100
AcDbEntity
  8
0
100
AcDbVertex
100
AcDb2dVertex
 10
4.228858837046905
 20
6.893199132443916
 30
0.0
  0
VERTEX
  5
7A3
330
1DF
100
AcDbEntity
  8
0
100
AcDbVertex
100
AcDb2dVertex
 10
4.230434327873676
 20
7.257137513428167
 30
0.0
  0
VERTEX
  5
7A4
330
1DF
100
AcDbEntity
  8
0
100
AcDbVertex
100
AcDb2dVertex
 10
4.232009818700448
 20
7.619500403585647
 30
0.0
  0
VERTEX
  5
7A5
330
1DF
100
AcDbEntity
  8
0
100
AcDbVertex
100
AcDb2dVertex
 10
4.235160800353992
 20
7.980287802916357
 30
0.0
  0
SEQEND
  5
7A6
330
1DF
100
AcDbEntity
  8
0
  0
POLYLINE
  5
1E6
330
1E
100
AcDbEntity
  8
0
100
AcDb2dPolyline
 66
     1
 10
0.0
 20
0.0
 30
0.0
  0
VERTEX
  5
7A7
330
1E6
100
AcDbEntity
  8
0
100
AcDbVertex
100
AcDb2dVertex
 10
4.235160800353992
 20
7.980287802916357
 30
0.0
  0
VERTEX
  5
7A8
330
1E6
100
AcDbEntity
  8
0
100
AcDbVertex
100
AcDb2dVertex
 10
4.230434327873676
 20
8.008646637798245
 30
0.0
  0
VERTEX
  5
7A9
330
1E6
100
AcDbEntity
  8
0
100
AcDbVertex
100
AcDb2dVertex
 10
4.217830401259503
 20
8.035429981853365
 30
0.0
  0
VERTEX
  5
7AA
330
1E6
100
AcDbEntity
  8
0
100
AcDbVertex
100
AcDb2dVertex
 10
4.197349020511472
 20
8.054335871774624
 30
0.0
  0
VERTEX
  5
7AB
330
1E6
100
AcDbEntity
  8
0
100
AcDbVertex
100
AcDb2dVertex
 10
4.170565676456353
 20
8.065364307562024
 30
0.0
  0
VERTEX
  5
7AC
330
1E6
100
AcDbEntity
  8
0
100
AcDbVertex
100
AcDb2dVertex
 10
4.150084295708323
 20
8.066939798388798
 30
0.0
  0
SEQEND
  5
7AD
330
1E6
100
AcDbEntity
  8
0
  0
POLYLINE
  5
1EE
330
1E
100
AcDbEntity
  8
0
100
AcDb2dPolyline
 66
     1
 10
0.0
 20
0.0
 30
0.0
  0
VERTEX
  5
7AE
330
1EE
100
AcDbEntity
  8
0
100
AcDbVertex
100
AcDb2dVertex
 10
4.150084295708323
 20
8.066939798388798
 30
0.0
  0
VERTEX
  5
7AF
330
1EE
100
AcDbEntity
  8
0
100
AcDbVertex
100
AcDb2dVertex
 10
3.770391006456354
 20
8.063788816735252
 30
0.0
  0
VERTEX
  5
7B0
330
1EE
100
AcDbEntity
  8
0
100
AcDbVertex
100
AcDb2dVertex
 10
3.390697717204385
 20
8.062213325908482
 30
0.0
  0
VERTEX
  5
7B1
330
1EE
100
AcDbEntity
  8
0
100
AcDbVertex
100
AcDb2dVertex
 10
3.011004427952416
 20
8.060637835081712
 30
0.0
  0
VERTEX
  5
7B2
330
1EE
100
AcDbEntity
  8
0
100
AcDbVertex
100
AcDb2dVertex
 10
2.629735647873677
 20
8.060637835081712
 30
0.0
  0
VERTEX
  5
7B3
330
1EE
100
AcDbEntity
  8
0
100
AcDbVertex
100
AcDb2dVertex
 10
2.248466867794936
 20
8.062213325908482
 30
0.0
  0
VERTEX
  5
7B4
330
1EE
100
AcDbEntity
  8
0
100
AcDbVertex
100
AcDb2dVertex
 10
1.868773578542968
 20
8.063788816735252
 30
0.0
  0
VERTEX
  5
7B5
330
1EE
100
AcDbEntity
  8
0
100
AcDbVertex
100
AcDb2dVertex
 10
1.490655780117771
 20
8.066939798388798
 30
0.0
  0
SEQEND
  5
7B6
330
1EE
100
AcDbEntity
  8
0
  0
POLYLINE
  5
1F8
330
1E
100
AcDbEntity
  8
0
100
AcDb2dPolyline
 66
     1
 10
0.0
 20
0.0
 30
0.0
  0
VERTEX
  5
7B7
330
1F8
100
AcDbEntity
  8
0
100
AcDbVertex
100
AcDb2dVertex
 10
1.490655780117771
 20
8.066939798388798
 30
0.0
  0
VERTEX
  5
7B8
330
1F8
100
AcDbEntity
  8
0
100
AcDbVertex
100
AcDb2dVertex
 10
1.462296945235881
 20
8.063788816735252
 30
0.0
  0
VERTEX
  5
7B9
330
1F8
100
AcDbEntity
  8
0
100
AcDbVertex
100
AcDb2dVertex
 10
1.437089092007535
 20
8.049609399294309
 30
0.0
  0
VERTEX
  5
7BA
330
1F8
100
AcDbEntity
  8
0
100
AcDbVertex
100
AcDb2dVertex
 10
1.418183202086275
 20
8.029128018546277
 30
0.0
  0
VERTEX
  5
7BB
330
1F8
100
AcDbEntity
  8
0
100
AcDbVertex
100
AcDb2dVertex
 10
1.407154766298873
 20
8.00392016531793
 30
0.0
  0
VERTEX
  5
7BC
330
1F8
100
AcDbEntity
  8
0
100
AcDbVertex
100
AcDb2dVertex
 10
1.40400378464533
 20
7.980287802916357
 30
0.0
  0
SEQEND
  5
7BD
330
1F8
100
AcDbEntity
  8
0
  0
POLYLINE
  5
200
330
1E
100
AcDbEntity
  8
0
100
AcDb2dPolyline
 66
     1
 10
0.0
 20
0.0
 30
0.0
  0
VERTEX
  5
7BE
330
200
100
AcDbEntity
  8
0
100
AcDbVertex
100
AcDb2dVertex
 10
1.40400378464533
 20
7.980287802916357
 30
0.0
  0
VERTEX
  5
7BF
330
200
100
AcDbEntity
  8
0
100
AcDbVertex
100
AcDb2dVertex
 10
1.408730257125645
 20
7.619500403585647
 30
0.0
  0
VERTEX
  5
7C0
330
200
100
AcDbEntity
  8
0
100
AcDbVertex
100
AcDb2dVertex
 10
1.410305747952417
 20
7.257137513428167
 30
0.0
  0
VERTEX
  5
7C1
330
200
100
AcDbEntity
  8
0
100
AcDbVertex
100
AcDb2dVertex
 10
1.411881238779189
 20
6.893199132443916
 30
0.0
  0
VERTEX
  5
7C2
330
200
100
AcDbEntity
  8
0
100
AcDbVertex
100
AcDb2dVertex
 10
1.411881238779189
 20
6.529260751459664
 30
0.0
  0
SEQEND
  5
7C3
330
200
100
AcDbEntity
  8
0
  0
POLYLINE
  5
207
330
1E
100
AcDbEntity
  8
0
100
AcDb2dPolyline
 66
     1
 10
0.0
 20
0.0
 30
0.0
  0
VERTEX
  5
7C4
330
207
100
AcDbEntity
  8
0
100
AcDbVertex
100
AcDb2dVertex
 10
3.75778707984218
 20
6.945190329727379
 30
0.0
  0
VERTEX
  5
7C5
330
207
100
AcDbEntity
  8
0
100
AcDbVertex
100
AcDb2dVertex
 10
3.75778707984218
 20
7.13740021059352
 30
0.0
  0
VERTEX
  5
7C6
330
207
100
AcDbEntity
  8
0
100
AcDbVertex
100
AcDb2dVertex
 10
3.75778707984218
 20
7.329610091459663
 30
0.0
  0
SEQEND
  5
7C7
330
207
100
AcDbEntity
  8
0
  0
POLYLINE
  5
20C
330
1E
100
AcDbEntity
  8
0
100
AcDb2dPolyline
 66
     1
 10
0.0
 20
0.0
 30
0.0
  0
VERTEX
  5
7C8
330
20C
100
AcDbEntity
  8
0
100
AcDbVertex
100
AcDb2dVertex
 10
1.882952995983912
 20
6.945190329727379
 30
0.0
  0
VERTEX
  5
7C9
330
20C
100
AcDbEntity
  8
0
100
AcDbVertex
100
AcDb2dVertex
 10
2.256344321928794
 20
6.945190329727379
 30
0.0
  0
VERTEX
  5
7CA
330
20C
100
AcDbEntity
  8
0
100
AcDbVertex
100
AcDb2dVertex
 10
2.632886629527219
 20
6.943614838900607
 30
0.0
  0
VERTEX
  5
7CB
330
20C
100
AcDbEntity
  8
0
100
AcDbVertex
100
AcDb2dVertex
 10
3.007853446298873
 20
6.943614838900607
 30
0.0
  0
VERTEX
  5
7CC
330
20C
100
AcDbEntity
  8
0
100
AcDbVertex
100
AcDb2dVertex
 10
3.382820263070526
 20
6.945190329727379
 30
0.0
  0
VERTEX
  5
7CD
330
20C
100
AcDbEntity
  8
0
100
AcDbVertex
100
AcDb2dVertex
 10
3.75778707984218
 20
6.945190329727379
 30
0.0
  0
SEQEND
  5
7CE
330
20C
100
AcDbEntity
  8
0
  0
POLYLINE
  5
214
330
1E
100
AcDbEntity
  8
0
100
AcDb2dPolyline
 66
     1
 10
0.0
 20
0.0
 30
0.0
  0
VERTEX
  5
7CF
330
214
100
AcDbEntity
  8
0
100
AcDbVertex
100
AcDb2dVertex
 10
1.882952995983912
 20
6.945190329727379
 30
0.0
  0
VERTEX
  5
7D0
330
214
100
AcDbEntity
  8
0
100
AcDbVertex
100
AcDb2dVertex
 10
1.882952995983912
 20
7.13740021059352
 30
0.0
  0
VERTEX
  5
7D1
330
214
100
AcDbEntity
  8
0
100
AcDbVertex
100
AcDb2dVertex
 10
1.882952995983912
 20
7.329610091459663
 30
0.0
  0
SEQEND
  5
7D2
330
214
100
AcDbEntity
  8
0
  0
POLYLINE
  5
219
330
1E
100
AcDbEntity
  8
0
100
AcDb2dPolyline
 66
     1
 10
0.0
 20
0.0
 30
0.0
  0
VERTEX
  5
7D3
330
219
100
AcDbEntity
  8
0
100
AcDbVertex
100
AcDb2dVertex
 10
1.914462812519346
 20
7.359544417168326
 30
0.0
  0
VERTEX
  5
7D4
330
219
100
AcDbEntity
  8
0
100
AcDbVertex
100
AcDb2dVertex
 10
1.905009867558716
 20
7.359544417168326
 30
0.0
  0
VERTEX
  5
7D5
330
219
100
AcDbEntity
  8
0
100
AcDbVertex
100
AcDb2dVertex
 10
1.895556922598086
 20
7.35481794468801
 30
0.0
  0
VERTEX
  5
7D6
330
219
100
AcDbEntity
  8
0
100
AcDbVertex
100
AcDb2dVertex
 10
1.889254959290999
 20
7.346940490554152
 30
0.0
  0
VERTEX
  5
7D7
330
219
100
AcDbEntity
  8
0
100
AcDbVertex
100
AcDb2dVertex
 10
1.884528486810684
 20
7.337487545593521
 30
0.0
  0
VERTEX
  5
7D8
330
219
100
AcDbEntity
  8
0
100
AcDbVertex
100
AcDb2dVertex
 10
1.882952995983912
 20
7.329610091459663
 30
0.0
  0
SEQEND
  5
7D9
330
219
100
AcDbEntity
  8
0
  0
POLYLINE
  5
221
330
1E
100
AcDbEntity
  8
0
100
AcDb2dPolyline
 66
     1
 10
0.0
 20
0.0
 30
0.0
  0
VERTEX
  5
7DA
330
221
100
AcDbEntity
  8
0
100
AcDbVertex
100
AcDb2dVertex
 10
3.726277263306747
 20
7.359544417168326
 30
0.0
  0
VERTEX
  5
7DB
330
221
100
AcDbEntity
  8
0
100
AcDbVertex
100
AcDb2dVertex
 10
3.363914373149266
 20
7.361119907995096
 30
0.0
  0
VERTEX
  5
7DC
330
221
100
AcDbEntity
  8
0
100
AcDbVertex
100
AcDb2dVertex
 10
3.001551482991787
 20
7.362695398821868
 30
0.0
  0
VERTEX
  5
7DD
330
221
100
AcDbEntity
  8
0
100
AcDbVertex
100
AcDb2dVertex
 10
2.639188592834306
 20
7.362695398821868
 30
0.0
  0
VERTEX
  5
7DE
330
221
100
AcDbEntity
  8
0
100
AcDbVertex
100
AcDb2dVertex
 10
2.276825702676826
 20
7.361119907995096
 30
0.0
  0
VERTEX
  5
7DF
330
221
100
AcDbEntity
  8
0
100
AcDbVertex
100
AcDb2dVertex
 10
1.914462812519346
 20
7.359544417168326
 30
0.0
  0
SEQEND
  5
7E0
330
221
100
AcDbEntity
  8
0
  0
POLYLINE
  5
229
330
1E
100
AcDbEntity
  8
0
100
AcDb2dPolyline
 66
     1
 10
0.0
 20
0.0
 30
0.0
  0
VERTEX
  5
7E1
330
229
100
AcDbEntity
  8
0
100
AcDbVertex
100
AcDb2dVertex
 10
3.75778707984218
 20
7.329610091459663
 30
0.0
  0
VERTEX
  5
7E2
330
229
100
AcDbEntity
  8
0
100
AcDbVertex
100
AcDb2dVertex
 10
3.756211589015408
 20
7.339063036420293
 30
0.0
  0
VERTEX
  5
7E3
330
229
100
AcDbEntity
  8
0
100
AcDbVertex
100
AcDb2dVertex
 10
3.751485116535094
 20
7.348515981380923
 30
0.0
  0
VERTEX
  5
7E4
330
229
100
AcDbEntity
  8
0
100
AcDbVertex
100
AcDb2dVertex
 10
3.743607662401236
 20
7.35481794468801
 30
0.0
  0
VERTEX
  5
7E5
330
229
100
AcDbEntity
  8
0
100
AcDbVertex
100
AcDb2dVertex
 10
3.732579226613834
 20
7.359544417168326
 30
0.0
  0
VERTEX
  5
7E6
330
229
100
AcDbEntity
  8
0
100
AcDbVertex
100
AcDb2dVertex
 10
3.726277263306747
 20
7.359544417168326
 30
0.0
  0
SEQEND
  5
7E7
330
229
100
AcDbEntity
  8
0
  0
LINE
  5
231
330
1E
100
AcDbEntity
  8
0
100
AcDbLine
 10
1.454419491102023
 20
8.279631060002969
 30
0.0
 11
1.514288142519346
 21
8.219762408585646
 31
0.0
  0
POLYLINE
  5
232
330
1E
100
AcDbEntity
  8
0
100
AcDb2dPolyline
 66
     1
 10
0.0
 20
0.0
 30
0.0
  0
VERTEX
  5
7E8
330
232
100
AcDbEntity
  8
0
100
AcDbVertex
100
AcDb2dVertex
 10
1.514288142519346
 20
8.219762408585648
 30
0.0
  0
VERTEX
  5
7E9
330
232
100
AcDbEntity
  8
0
100
AcDbVertex
100
AcDb2dVertex
 10
1.886103977637456
 20
8.216611426932104
 30
0.0
  0
VERTEX
  5
7EA
330
232
100
AcDbEntity
  8
0
100
AcDbVertex
100
AcDb2dVertex
 10
2.259495303582338
 20
8.21503593610533
 30
0.0
  0
VERTEX
  5
7EB
330
232
100
AcDbEntity
  8
0
100
AcDbVertex
100
AcDb2dVertex
 10
2.632886629527219
 20
8.21346044527856
 30
0.0
  0
VERTEX
  5
7EC
330
232
100
AcDbEntity
  8
0
100
AcDbVertex
100
AcDb2dVertex
 10
3.007853446298873
 20
8.21346044527856
 30
0.0
  0
VERTEX
  5
7ED
330
232
100
AcDbEntity
  8
0
100
AcDbVertex
100
AcDb2dVertex
 10
3.381244772243755
 20
8.21503593610533
 30
0.0
  0
VERTEX
  5
7EE
330
232
100
AcDbEntity
  8
0
100
AcDbVertex
100
AcDb2dVertex
 10
3.754636098188637
 20
8.216611426932104
 30
0.0
  0
VERTEX
  5
7EF
330
232
100
AcDbEntity
  8
0
100
AcDbVertex
100
AcDb2dVertex
 10
4.124876442479975
 20
8.219762408585648
 30
0.0
  0
SEQEND
  5
7F0
330
232
100
AcDbEntity
  8
0
  0
LINE
  5
23C
330
1E
100
AcDbEntity
  8
0
100
AcDbLine
 10
4.124876442479976
 20
8.219762408585646
 30
0.0
 11
4.184745093897299
 21
8.279631060002969
 31
0.0
  0
POLYLINE
  5
23D
330
1E
100
AcDbEntity
  8
0
100
AcDb2dPolyline
 66
     1
 10
0.0
 20
0.0
 30
0.0
  0
VERTEX
  5
7F1
330
23D
100
AcDbEntity
  8
0
100
AcDbVertex
100
AcDb2dVertex
 10
4.030346992873676
 20
3.898191070751001
 30
0.0
  0
VERTEX
  5
7F2
330
23D
100
AcDbEntity
  8
0
100
AcDbVertex
100
AcDb2dVertex
 10
3.628596832046905
 20
3.898191070751001
 30
0.0
  0
VERTEX
  5
7F3
330
23D
100
AcDbEntity
  8
0
100
AcDbVertex
100
AcDb2dVertex
 10
3.225271180393361
 20
3.898191070751001
 30
0.0
  0
VERTEX
  5
7F4
330
23D
100
AcDbEntity
  8
0
100
AcDbVertex
100
AcDb2dVertex
 10
2.820370037913046
 20
3.898191070751001
 30
0.0
  0
VERTEX
  5
7F5
330
23D
100
AcDbEntity
  8
0
100
AcDbVertex
100
AcDb2dVertex
 10
2.415468895432731
 20
3.898191070751001
 30
0.0
  0
VERTEX
  5
7F6
330
23D
100
AcDbEntity
  8
0
100
AcDbVertex
100
AcDb2dVertex
 10
2.012143243779188
 20
3.898191070751001
 30
0.0
  0
VERTEX
  5
7F7
330
23D
100
AcDbEntity
  8
0
100
AcDbVertex
100
AcDb2dVertex
 10
1.610393082952417
 20
3.898191070751001
 30
0.0
  0
SEQEND
  5
7F8
330
23D
100
AcDbEntity
  8
0
  0
POLYLINE
  5
246
330
1E
100
AcDbEntity
  8
0
100
AcDb2dPolyline
 66
     1
 10
0.0
 20
0.0
 30
0.0
  0
VERTEX
  5
7F9
330
246
100
AcDbEntity
  8
0
100
AcDbVertex
100
AcDb2dVertex
 10
4.030346992873676
 20
3.898191070751001
 30
0.0
  0
VERTEX
  5
7FA
330
246
100
AcDbEntity
  8
0
100
AcDbVertex
100
AcDb2dVertex
 10
4.031922483700448
 20
3.898191070751001
 30
0.0
  0
VERTEX
  5
7FB
330
246
100
AcDbEntity
  8
0
100
AcDbVertex
100
AcDb2dVertex
 10
4.036648956180763
 20
3.899766561577772
 30
0.0
  0
VERTEX
  5
7FC
330
246
100
AcDbEntity
  8
0
100
AcDbVertex
100
AcDb2dVertex
 10
4.041375428661077
 20
3.901342052404545
 30
0.0
  0
VERTEX
  5
7FD
330
246
100
AcDbEntity
  8
0
100
AcDbVertex
100
AcDb2dVertex
 10
4.044526410314621
 20
3.906068524884858
 30
0.0
  0
VERTEX
  5
7FE
330
246
100
AcDbEntity
  8
0
100
AcDbVertex
100
AcDb2dVertex
 10
4.046101901141392
 20
3.910794997365174
 30
0.0
  0
VERTEX
  5
7FF
330
246
100
AcDbEntity
  8
0
100
AcDbVertex
100
AcDb2dVertex
 10
4.044526410314621
 20
3.91552146984549
 30
0.0
  0
VERTEX
  5
800
330
246
100
AcDbEntity
  8
0
100
AcDbVertex
100
AcDb2dVertex
 10
4.042950919487849
 20
3.920247942325804
 30
0.0
  0
VERTEX
  5
801
330
246
100
AcDbEntity
  8
0
100
AcDbVertex
100
AcDb2dVertex
 10
4.039799937834305
 20
3.924974414806118
 30
0.0
  0
VERTEX
  5
802
330
246
100
AcDbEntity
  8
0
100
AcDbVertex
100
AcDb2dVertex
 10
4.035073465353992
 20
3.926549905632891
 30
0.0
  0
VERTEX
  5
803
330
246
100
AcDbEntity
  8
0
100
AcDbVertex
100
AcDb2dVertex
 10
4.030346992873676
 20
3.928125396459663
 30
0.0
  0
SEQEND
  5
804
330
246
100
AcDbEntity
  8
0
  0
POLYLINE
  5
253
330
1E
100
AcDbEntity
  8
0
100
AcDb2dPolyline
 66
     1
 10
0.0
 20
0.0
 30
0.0
  0
VERTEX
  5
805
330
253
100
AcDbEntity
  8
0
100
AcDbVertex
100
AcDb2dVertex
 10
4.030346992873676
 20
3.928125396459663
 30
0.0
  0
VERTEX
  5
806
330
253
100
AcDbEntity
  8
0
100
AcDbVertex
100
AcDb2dVertex
 10
3.76724002480281
 20
3.928125396459663
 30
0.0
  0
VERTEX
  5
807
330
253
100
AcDbEntity
  8
0
100
AcDbVertex
100
AcDb2dVertex
 10
3.500982075078401
 20
3.928125396459663
 30
0.0
  0
SEQEND
  5
808
330
253
100
AcDbEntity
  8
0
  0
POLYLINE
  5
258
330
1E
100
AcDbEntity
  8
0
100
AcDb2dPolyline
 66
     1
 10
0.0
 20
0.0
 30
0.0
  0
VERTEX
  5
809
330
258
100
AcDbEntity
  8
0
100
AcDbVertex
100
AcDb2dVertex
 10
3.500982075078401
 20
3.928125396459663
 30
0.0
  0
VERTEX
  5
80A
330
258
100
AcDbEntity
  8
0
100
AcDbVertex
100
AcDb2dVertex
 10
3.491529130117771
 20
3.929700887286434
 30
0.0
  0
VERTEX
  5
80B
330
258
100
AcDbEntity
  8
0
100
AcDbVertex
100
AcDb2dVertex
 10
3.482076185157141
 20
3.93442735976675
 30
0.0
  0
VERTEX
  5
80C
330
258
100
AcDbEntity
  8
0
100
AcDbVertex
100
AcDb2dVertex
 10
3.475774221850054
 20
3.942304813900607
 30
0.0
  0
VERTEX
  5
80D
330
258
100
AcDbEntity
  8
0
100
AcDbVertex
100
AcDb2dVertex
 10
3.47104774936974
 20
3.951757758861237
 30
0.0
  0
VERTEX
  5
80E
330
258
100
AcDbEntity
  8
0
100
AcDbVertex
100
AcDb2dVertex
 10
3.47104774936974
 20
3.958059722168324
 30
0.0
  0
SEQEND
  5
80F
330
258
100
AcDbEntity
  8
0
  0
LINE
  5
260
330
1E
100
AcDbEntity
  8
0
100
AcDbLine
 10
3.47104774936974
 20
3.972239139609269
 30
0.0
 11
3.47104774936974
 21
3.958059722168324
 31
0.0
  0
POLYLINE
  5
261
330
1E
100
AcDbEntity
  8
0
100
AcDb2dPolyline
 66
     1
 10
0.0
 20
0.0
 30
0.0
  0
VERTEX
  5
810
330
261
100
AcDbEntity
  8
0
100
AcDbVertex
100
AcDb2dVertex
 10
3.47104774936974
 20
3.972239139609269
 30
0.0
  0
VERTEX
  5
811
330
261
100
AcDbEntity
  8
0
100
AcDbVertex
100
AcDb2dVertex
 10
3.469472258542968
 20
3.975390121262811
 30
0.0
  0
VERTEX
  5
812
330
261
100
AcDbEntity
  8
0
100
AcDbVertex
100
AcDb2dVertex
 10
3.467896767716196
 20
3.980116593743127
 30
0.0
  0
VERTEX
  5
813
330
261
100
AcDbEntity
  8
0
100
AcDbVertex
100
AcDb2dVertex
 10
3.464745786062653
 20
3.984843066223442
 30
0.0
  0
VERTEX
  5
814
330
261
100
AcDbEntity
  8
0
100
AcDbVertex
100
AcDb2dVertex
 10
3.460019313582338
 20
3.986418557050214
 30
0.0
  0
VERTEX
  5
815
330
261
100
AcDbEntity
  8
0
100
AcDbVertex
100
AcDb2dVertex
 10
3.455292841102022
 20
3.987994047876984
 30
0.0
  0
VERTEX
  5
816
330
261
100
AcDbEntity
  8
0
100
AcDbVertex
100
AcDb2dVertex
 10
3.450566368621708
 20
3.986418557050214
 30
0.0
  0
VERTEX
  5
817
330
261
100
AcDbEntity
  8
0
100
AcDbVertex
100
AcDb2dVertex
 10
3.445839896141393
 20
3.984843066223442
 30
0.0
  0
VERTEX
  5
818
330
261
100
AcDbEntity
  8
0
100
AcDbVertex
100
AcDb2dVertex
 10
3.442688914487849
 20
3.980116593743127
 30
0.0
  0
VERTEX
  5
819
330
261
100
AcDbEntity
  8
0
100
AcDbVertex
100
AcDb2dVertex
 10
3.441113423661078
 20
3.975390121262811
 30
0.0
  0
VERTEX
  5
81A
330
261
100
AcDbEntity
  8
0
100
AcDbVertex
100
AcDb2dVertex
 10
3.441113423661078
 20
3.972239139609269
 30
0.0
  0
SEQEND
  5
81B
330
261
100
AcDbEntity
  8
0
  0
LINE
  5
26E
330
1E
100
AcDbEntity
  8
0
100
AcDbLine
 10
3.441113423661078
 20
3.958059722168324
 30
0.0
 11
3.441113423661078
 21
3.972239139609269
 31
0.0
  0
POLYLINE
  5
26F
330
1E
100
AcDbEntity
  8
0
100
AcDb2dPolyline
 66
     1
 10
0.0
 20
0.0
 30
0.0
  0
VERTEX
  5
81C
330
26F
100
AcDbEntity
  8
0
100
AcDbVertex
100
AcDb2dVertex
 10
3.441113423661078
 20
3.958059722168324
 30
0.0
  0
VERTEX
  5
81D
330
26F
100
AcDbEntity
  8
0
100
AcDbVertex
100
AcDb2dVertex
 10
3.439537932834306
 20
3.95490874051478
 30
0.0
  0
VERTEX
  5
81E
330
26F
100
AcDbEntity
  8
0
100
AcDbVertex
100
AcDb2dVertex
 10
3.437962442007534
 20
3.945455795554151
 30
0.0
  0
VERTEX
  5
81F
330
26F
100
AcDbEntity
  8
0
100
AcDbVertex
100
AcDb2dVertex
 10
3.431660478700448
 20
3.936002850593521
 30
0.0
  0
VERTEX
  5
820
330
26F
100
AcDbEntity
  8
0
100
AcDbVertex
100
AcDb2dVertex
 10
3.422207533739818
 20
3.931276378113205
 30
0.0
  0
VERTEX
  5
821
330
26F
100
AcDbEntity
  8
0
100
AcDbVertex
100
AcDb2dVertex
 10
3.412754588779189
 20
3.928125396459663
 30
0.0
  0
VERTEX
  5
822
330
26F
100
AcDbEntity
  8
0
100
AcDbVertex
100
AcDb2dVertex
 10
3.409603607125645
 20
3.928125396459663
 30
0.0
  0
SEQEND
  5
823
330
26F
100
AcDbEntity
  8
0
  0
POLYLINE
  5
278
330
1E
100
AcDbEntity
  8
0
100
AcDb2dPolyline
 66
     1
 10
0.0
 20
0.0
 30
0.0
  0
VERTEX
  5
824
330
278
100
AcDbEntity
  8
0
100
AcDbVertex
100
AcDb2dVertex
 10
2.866059271889424
 20
3.928125396459663
 30
0.0
  0
VERTEX
  5
825
330
278
100
AcDbEntity
  8
0
100
AcDbVertex
100
AcDb2dVertex
 10
3.13861918492092
 20
3.928125396459663
 30
0.0
  0
VERTEX
  5
826
330
278
100
AcDbEntity
  8
0
100
AcDbVertex
100
AcDb2dVertex
 10
3.409603607125645
 20
3.928125396459663
 30
0.0
  0
SEQEND
  5
827
330
278
100
AcDbEntity
  8
0
  0
POLYLINE
  5
27D
330
1E
100
AcDbEntity
  8
0
100
AcDb2dPolyline
 66
     1
 10
0.0
 20
0.0
 30
0.0
  0
VERTEX
  5
828
330
27D
100
AcDbEntity
  8
0
100
AcDbVertex
100
AcDb2dVertex
 10
2.866059271889424
 20
3.928125396459663
 30
0.0
  0
VERTEX
  5
829
330
27D
100
AcDbEntity
  8
0
100
AcDbVertex
100
AcDb2dVertex
 10
2.856606326928795
 20
3.929700887286434
 30
0.0
  0
VERTEX
  5
82A
330
27D
100
AcDbEntity
  8
0
100
AcDbVertex
100
AcDb2dVertex
 10
2.847153381968164
 20
3.93442735976675
 30
0.0
  0
VERTEX
  5
82B
330
27D
100
AcDbEntity
  8
0
100
AcDbVertex
100
AcDb2dVertex
 10
2.840851418661078
 20
3.942304813900607
 30
0.0
  0
VERTEX
  5
82C
330
27D
100
AcDbEntity
  8
0
100
AcDbVertex
100
AcDb2dVertex
 10
2.836124946180763
 20
3.951757758861237
 30
0.0
  0
VERTEX
  5
82D
330
27D
100
AcDbEntity
  8
0
100
AcDbVertex
100
AcDb2dVertex
 10
2.834549455353991
 20
3.958059722168324
 30
0.0
  0
SEQEND
  5
82E
330
27D
100
AcDbEntity
  8
0
  0
LINE
  5
285
330
1E
100
AcDbEntity
  8
0
100
AcDbLine
 10
2.834549455353991
 20
3.972239139609269
 30
0.0
 11
2.834549455353991
 21
3.958059722168324
 31
0.0
  0
POLYLINE
  5
286
330
1E
100
AcDbEntity
  8
0
100
AcDb2dPolyline
 66
     1
 10
0.0
 20
0.0
 30
0.0
  0
VERTEX
  5
82F
330
286
100
AcDbEntity
  8
0
100
AcDbVertex
100
AcDb2dVertex
 10
2.834549455353991
 20
3.972239139609269
 30
0.0
  0
VERTEX
  5
830
330
286
100
AcDbEntity
  8
0
100
AcDbVertex
100
AcDb2dVertex
 10
2.834549455353991
 20
3.975390121262811
 30
0.0
  0
VERTEX
  5
831
330
286
100
AcDbEntity
  8
0
100
AcDbVertex
100
AcDb2dVertex
 10
2.832973964527219
 20
3.980116593743127
 30
0.0
  0
VERTEX
  5
832
330
286
100
AcDbEntity
  8
0
100
AcDbVertex
100
AcDb2dVertex
 10
2.829822982873676
 20
3.984843066223442
 30
0.0
  0
VERTEX
  5
833
330
286
100
AcDbEntity
  8
0
100
AcDbVertex
100
AcDb2dVertex
 10
2.825096510393361
 20
3.986418557050214
 30
0.0
  0
VERTEX
  5
834
330
286
100
AcDbEntity
  8
0
100
AcDbVertex
100
AcDb2dVertex
 10
2.820370037913046
 20
3.987994047876984
 30
0.0
  0
VERTEX
  5
835
330
286
100
AcDbEntity
  8
0
100
AcDbVertex
100
AcDb2dVertex
 10
2.815643565432732
 20
3.986418557050214
 30
0.0
  0
VERTEX
  5
836
330
286
100
AcDbEntity
  8
0
100
AcDbVertex
100
AcDb2dVertex
 10
2.810917092952416
 20
3.984843066223442
 30
0.0
  0
VERTEX
  5
837
330
286
100
AcDbEntity
  8
0
100
AcDbVertex
100
AcDb2dVertex
 10
2.807766111298873
 20
3.980116593743127
 30
0.0
  0
VERTEX
  5
838
330
286
100
AcDbEntity
  8
0
100
AcDbVertex
100
AcDb2dVertex
 10
2.806190620472102
 20
3.975390121262811
 30
0.0
  0
VERTEX
  5
839
330
286
100
AcDbEntity
  8
0
100
AcDbVertex
100
AcDb2dVertex
 10
2.80461512964533
 20
3.972239139609269
 30
0.0
  0
SEQEND
  5
83A
330
286
100
AcDbEntity
  8
0
  0
LINE
  5
293
330
1E
100
AcDbEntity
  8
0
100
AcDbLine
 10
2.80461512964533
 20
3.958059722168324
 30
0.0
 11
2.80461512964533
 21
3.972239139609269
 31
0.0
  0
POLYLINE
  5
294
330
1E
100
AcDbEntity
  8
0
100
AcDb2dPolyline
 66
     1
 10
0.0
 20
0.0
 30
0.0
  0
VERTEX
  5
83B
330
294
100
AcDbEntity
  8
0
100
AcDbVertex
100
AcDb2dVertex
 10
2.80461512964533
 20
3.958059722168324
 30
0.0
  0
VERTEX
  5
83C
330
294
100
AcDbEntity
  8
0
100
AcDbVertex
100
AcDb2dVertex
 10
2.80461512964533
 20
3.95490874051478
 30
0.0
  0
VERTEX
  5
83D
330
294
100
AcDbEntity
  8
0
100
AcDbVertex
100
AcDb2dVertex
 10
2.801464147991786
 20
3.945455795554151
 30
0.0
  0
VERTEX
  5
83E
330
294
100
AcDbEntity
  8
0
100
AcDbVertex
100
AcDb2dVertex
 10
2.796737675511472
 20
3.936002850593521
 30
0.0
  0
VERTEX
  5
83F
330
294
100
AcDbEntity
  8
0
100
AcDbVertex
100
AcDb2dVertex
 10
2.787284730550842
 20
3.931276378113205
 30
0.0
  0
VERTEX
  5
840
330
294
100
AcDbEntity
  8
0
100
AcDbVertex
100
AcDb2dVertex
 10
2.777831785590212
 20
3.928125396459663
 30
0.0
  0
VERTEX
  5
841
330
294
100
AcDbEntity
  8
0
100
AcDbVertex
100
AcDb2dVertex
 10
2.773105313109896
 20
3.928125396459663
 30
0.0
  0
SEQEND
  5
842
330
294
100
AcDbEntity
  8
0
  0
POLYLINE
  5
29D
330
1E
100
AcDbEntity
  8
0
100
AcDb2dPolyline
 66
     1
 10
0.0
 20
0.0
 30
0.0
  0
VERTEX
  5
843
330
29D
100
AcDbEntity
  8
0
100
AcDbVertex
100
AcDb2dVertex
 10
2.231136468700448
 20
3.928125396459663
 30
0.0
  0
VERTEX
  5
844
330
29D
100
AcDbEntity
  8
0
100
AcDbVertex
100
AcDb2dVertex
 10
2.502120890905171
 20
3.928125396459663
 30
0.0
  0
VERTEX
  5
845
330
29D
100
AcDbEntity
  8
0
100
AcDbVertex
100
AcDb2dVertex
 10
2.773105313109896
 20
3.928125396459663
 30
0.0
  0
SEQEND
  5
846
330
29D
100
AcDbEntity
  8
0
  0
POLYLINE
  5
2A2
330
1E
100
AcDbEntity
  8
0
100
AcDb2dPolyline
 66
     1
 10
0.0
 20
0.0
 30
0.0
  0
VERTEX
  5
847
330
2A2
100
AcDbEntity
  8
0
100
AcDbVertex
100
AcDb2dVertex
 10
2.231136468700448
 20
3.928125396459663
 30
0.0
  0
VERTEX
  5
848
330
2A2
100
AcDbEntity
  8
0
100
AcDbVertex
100
AcDb2dVertex
 10
2.221683523739818
 20
3.929700887286434
 30
0.0
  0
VERTEX
  5
849
330
2A2
100
AcDbEntity
  8
0
100
AcDbVertex
100
AcDb2dVertex
 10
2.212230578779188
 20
3.93442735976675
 30
0.0
  0
VERTEX
  5
84A
330
2A2
100
AcDbEntity
  8
0
100
AcDbVertex
100
AcDb2dVertex
 10
2.20435312464533
 20
3.942304813900607
 30
0.0
  0
VERTEX
  5
84B
330
2A2
100
AcDbEntity
  8
0
100
AcDbVertex
100
AcDb2dVertex
 10
2.201202142991786
 20
3.951757758861237
 30
0.0
  0
VERTEX
  5
84C
330
2A2
100
AcDbEntity
  8
0
100
AcDbVertex
100
AcDb2dVertex
 10
2.199626652165016
 20
3.958059722168324
 30
0.0
  0
SEQEND
  5
84D
330
2A2
100
AcDbEntity
  8
0
  0
LINE
  5
2AA
330
1E
100
AcDbEntity
  8
0
100
AcDbLine
 10
2.199626652165015
 20
3.972239139609269
 30
0.0
 11
2.199626652165015
 21
3.958059722168324
 31
0.0
  0
POLYLINE
  5
2AB
330
1E
100
AcDbEntity
  8
0
100
AcDb2dPolyline
 66
     1
 10
0.0
 20
0.0
 30
0.0
  0
VERTEX
  5
84E
330
2AB
100
AcDbEntity
  8
0
100
AcDbVertex
100
AcDb2dVertex
 10
2.199626652165016
 20
3.972239139609269
 30
0.0
  0
VERTEX
  5
84F
330
2AB
100
AcDbEntity
  8
0
100
AcDbVertex
100
AcDb2dVertex
 10
2.199626652165016
 20
3.975390121262811
 30
0.0
  0
VERTEX
  5
850
330
2AB
100
AcDbEntity
  8
0
100
AcDbVertex
100
AcDb2dVertex
 10
2.198051161338244
 20
3.980116593743127
 30
0.0
  0
VERTEX
  5
851
330
2AB
100
AcDbEntity
  8
0
100
AcDbVertex
100
AcDb2dVertex
 10
2.1949001796847
 20
3.984843066223442
 30
0.0
  0
VERTEX
  5
852
330
2AB
100
AcDbEntity
  8
0
100
AcDbVertex
100
AcDb2dVertex
 10
2.190173707204385
 20
3.986418557050214
 30
0.0
  0
VERTEX
  5
853
330
2AB
100
AcDbEntity
  8
0
100
AcDbVertex
100
AcDb2dVertex
 10
2.18544723472407
 20
3.987994047876984
 30
0.0
  0
VERTEX
  5
854
330
2AB
100
AcDbEntity
  8
0
100
AcDbVertex
100
AcDb2dVertex
 10
2.179145271416984
 20
3.986418557050214
 30
0.0
  0
VERTEX
  5
855
330
2AB
100
AcDbEntity
  8
0
100
AcDbVertex
100
AcDb2dVertex
 10
2.17599428976344
 20
3.984843066223442
 30
0.0
  0
VERTEX
  5
856
330
2AB
100
AcDbEntity
  8
0
100
AcDbVertex
100
AcDb2dVertex
 10
2.171267817283126
 20
3.980116593743127
 30
0.0
  0
VERTEX
  5
857
330
2AB
100
AcDbEntity
  8
0
100
AcDbVertex
100
AcDb2dVertex
 10
2.169692326456353
 20
3.975390121262811
 30
0.0
  0
VERTEX
  5
858
330
2AB
100
AcDbEntity
  8
0
100
AcDbVertex
100
AcDb2dVertex
 10
2.169692326456353
 20
3.972239139609269
 30
0.0
  0
SEQEND
  5
859
330
2AB
100
AcDbEntity
  8
0
  0
LINE
  5
2B8
330
1E
100
AcDbEntity
  8
0
100
AcDbLine
 10
2.169692326456353
 20
3.958059722168324
 30
0.0
 11
2.169692326456353
 21
3.972239139609269
 31
0.0
  0
POLYLINE
  5
2B9
330
1E
100
AcDbEntity
  8
0
100
AcDb2dPolyline
 66
     1
 10
0.0
 20
0.0
 30
0.0
  0
VERTEX
  5
85A
330
2B9
100
AcDbEntity
  8
0
100
AcDbVertex
100
AcDb2dVertex
 10
2.169692326456353
 20
3.958059722168324
 30
0.0
  0
VERTEX
  5
85B
330
2B9
100
AcDbEntity
  8
0
100
AcDbVertex
100
AcDb2dVertex
 10
2.169692326456353
 20
3.95490874051478
 30
0.0
  0
VERTEX
  5
85C
330
2B9
100
AcDbEntity
  8
0
100
AcDbVertex
100
AcDb2dVertex
 10
2.16654134480281
 20
3.945455795554151
 30
0.0
  0
VERTEX
  5
85D
330
2B9
100
AcDbEntity
  8
0
100
AcDbVertex
100
AcDb2dVertex
 10
2.160239381495724
 20
3.936002850593521
 30
0.0
  0
VERTEX
  5
85E
330
2B9
100
AcDbEntity
  8
0
100
AcDbVertex
100
AcDb2dVertex
 10
2.152361927361866
 20
3.931276378113205
 30
0.0
  0
VERTEX
  5
85F
330
2B9
100
AcDbEntity
  8
0
100
AcDbVertex
100
AcDb2dVertex
 10
2.142908982401236
 20
3.928125396459663
 30
0.0
  0
VERTEX
  5
860
330
2B9
100
AcDbEntity
  8
0
100
AcDbVertex
100
AcDb2dVertex
 10
2.138182509920921
 20
3.928125396459663
 30
0.0
  0
SEQEND
  5
861
330
2B9
100
AcDbEntity
  8
0
  0
POLYLINE
  5
2C2
330
1E
100
AcDbEntity
  8
0
100
AcDb2dPolyline
 66
     1
 10
0.0
 20
0.0
 30
0.0
  0
VERTEX
  5
862
330
2C2
100
AcDbEntity
  8
0
100
AcDbVertex
100
AcDb2dVertex
 10
1.610393082952417
 20
3.928125396459663
 30
0.0
  0
VERTEX
  5
863
330
2C2
100
AcDbEntity
  8
0
100
AcDbVertex
100
AcDb2dVertex
 10
1.873500051023282
 20
3.928125396459663
 30
0.0
  0
VERTEX
  5
864
330
2C2
100
AcDbEntity
  8
0
100
AcDbVertex
100
AcDb2dVertex
 10
2.138182509920921
 20
3.928125396459663
 30
0.0
  0
SEQEND
  5
865
330
2C2
100
AcDbEntity
  8
0
  0
POLYLINE
  5
2C7
330
1E
100
AcDbEntity
  8
0
100
AcDb2dPolyline
 66
     1
 10
0.0
 20
0.0
 30
0.0
  0
VERTEX
  5
866
330
2C7
100
AcDbEntity
  8
0
100
AcDbVertex
100
AcDb2dVertex
 10
1.610393082952417
 20
3.928125396459663
 30
0.0
  0
VERTEX
  5
867
330
2C7
100
AcDbEntity
  8
0
100
AcDbVertex
100
AcDb2dVertex
 10
1.607242101298873
 20
3.928125396459663
 30
0.0
  0
VERTEX
  5
868
330
2C7
100
AcDbEntity
  8
0
100
AcDbVertex
100
AcDb2dVertex
 10
1.602515628818558
 20
3.926549905632891
 30
0.0
  0
VERTEX
  5
869
330
2C7
100
AcDbEntity
  8
0
100
AcDbVertex
100
AcDb2dVertex
 10
1.599364647165015
 20
3.923398923979347
 30
0.0
  0
VERTEX
  5
86A
330
2C7
100
AcDbEntity
  8
0
100
AcDbVertex
100
AcDb2dVertex
 10
1.596213665511472
 20
3.918672451499031
 30
0.0
  0
VERTEX
  5
86B
330
2C7
100
AcDbEntity
  8
0
100
AcDbVertex
100
AcDb2dVertex
 10
1.5946381746847
 20
3.913945979018718
 30
0.0
  0
VERTEX
  5
86C
330
2C7
100
AcDbEntity
  8
0
100
AcDbVertex
100
AcDb2dVertex
 10
1.5946381746847
 20
3.909219506538403
 30
0.0
  0
VERTEX
  5
86D
330
2C7
100
AcDbEntity
  8
0
100
AcDbVertex
100
AcDb2dVertex
 10
1.596213665511472
 20
3.904493034058087
 30
0.0
  0
VERTEX
  5
86E
330
2C7
100
AcDbEntity
  8
0
100
AcDbVertex
100
AcDb2dVertex
 10
1.600940137991787
 20
3.901342052404545
 30
0.0
  0
VERTEX
  5
86F
330
2C7
100
AcDbEntity
  8
0
100
AcDbVertex
100
AcDb2dVertex
 10
1.60409111964533
 20
3.898191070751001
 30
0.0
  0
VERTEX
  5
870
330
2C7
100
AcDbEntity
  8
0
100
AcDbVertex
100
AcDb2dVertex
 10
1.610393082952417
 20
3.898191070751001
 30
0.0
  0
SEQEND
  5
871
330
2C7
100
AcDbEntity
  8
0
  0
LINE
  5
2D4
330
1E
100
AcDbEntity
  8
0
100
AcDbLine
 10
1.199189977165015
 20
4.509481511538403
 30
0.0
 11
1.189737032204385
 21
4.498453075751001
 31
0.0
  0
LINE
  5
2D5
330
1E
100
AcDbEntity
  8
0
100
AcDbLine
 10
1.199189977165015
 20
4.750531608034465
 30
0.0
 11
1.199189977165015
 21
4.509481511538403
 31
0.0
  0
LINE
  5
2D6
330
1E
100
AcDbEntity
  8
0
100
AcDbLine
 10
1.189737032204385
 20
4.759984552995096
 30
0.0
 11
1.199189977165015
 21
4.750531608034465
 31
0.0
  0
LINE
  5
2D7
330
1E
100
AcDbEntity
  8
0
100
AcDbLine
 10
1.189737032204385
 20
3.776878277089585
 30
0.0
 11
1.189737032204385
 21
4.498453075751001
 31
0.0
  0
LINE
  5
2D8
330
1E
100
AcDbEntity
  8
0
100
AcDbLine
 10
1.257483137755566
 20
3.844624382640764
 30
0.0
 11
1.257483137755566
 21
6.529260751459663
 31
0.0
  0
POLYLINE
  5
2D9
330
1E
100
AcDbEntity
  8
0
100
AcDb2dPolyline
 66
     1
 10
0.0
 20
0.0
 30
0.0
  0
VERTEX
  5
872
330
2D9
100
AcDbEntity
  8
0
100
AcDbVertex
100
AcDb2dVertex
 10
1.257483137755566
 20
6.529260751459664
 30
0.0
  0
VERTEX
  5
873
330
2D9
100
AcDbEntity
  8
0
100
AcDbVertex
100
AcDb2dVertex
 10
1.257483137755566
 20
6.886897169136828
 30
0.0
  0
VERTEX
  5
874
330
2D9
100
AcDbEntity
  8
0
100
AcDbVertex
100
AcDb2dVertex
 10
1.255907646928794
 20
7.242958095987222
 30
0.0
  0
VERTEX
  5
875
330
2D9
100
AcDbEntity
  8
0
100
AcDbVertex
100
AcDb2dVertex
 10
1.254332156102023
 20
7.600594513664386
 30
0.0
  0
VERTEX
  5
876
330
2D9
100
AcDbEntity
  8
0
100
AcDbVertex
100
AcDb2dVertex
 10
1.25118117444848
 20
7.955079949688011
 30
0.0
  0
SEQEND
  5
877
330
2D9
100
AcDbEntity
  8
0
  0
LINE
  5
2E0
330
1E
100
AcDbEntity
  8
0
100
AcDbLine
 10
1.251181174448479
 20
7.955079949688009
 30
0.0
 11
1.189737032204385
 21
8.014948601105333
 31
0.0
  0
POLYLINE
  5
2E1
330
1E
100
AcDbEntity
  8
0
100
AcDb2dPolyline
 66
     1
 10
0.0
 20
0.0
 30
0.0
  0
VERTEX
  5
878
330
2E1
100
AcDbEntity
  8
0
100
AcDbVertex
100
AcDb2dVertex
 10
1.25118117444848
 20
7.955079949688011
 30
0.0
  0
VERTEX
  5
879
330
2E1
100
AcDbEntity
  8
0
100
AcDbVertex
100
AcDb2dVertex
 10
1.254332156102023
 20
7.999193692837617
 30
0.0
  0
VERTEX
  5
87A
330
2E1
100
AcDbEntity
  8
0
100
AcDbVertex
100
AcDb2dVertex
 10
1.265360591889424
 20
8.043307435987221
 30
0.0
  0
VERTEX
  5
87B
330
2E1
100
AcDbEntity
  8
0
100
AcDbVertex
100
AcDb2dVertex
 10
1.284266481810684
 20
8.082694706656514
 30
0.0
  0
VERTEX
  5
87C
330
2E1
100
AcDbEntity
  8
0
100
AcDbVertex
100
AcDb2dVertex
 10
1.307898844212259
 20
8.120506486499031
 30
0.0
  0
VERTEX
  5
87D
330
2E1
100
AcDbEntity
  8
0
100
AcDbVertex
100
AcDb2dVertex
 10
1.339408660747692
 20
8.152016303034466
 30
0.0
  0
VERTEX
  5
87E
330
2E1
100
AcDbEntity
  8
0
100
AcDbVertex
100
AcDb2dVertex
 10
1.374069458936668
 20
8.178799647089583
 30
0.0
  0
VERTEX
  5
87F
330
2E1
100
AcDbEntity
  8
0
100
AcDbVertex
100
AcDb2dVertex
 10
1.415032220432731
 20
8.199281027837615
 30
0.0
  0
VERTEX
  5
880
330
2E1
100
AcDbEntity
  8
0
100
AcDbVertex
100
AcDb2dVertex
 10
1.455994981928795
 20
8.21346044527856
 30
0.0
  0
VERTEX
  5
881
330
2E1
100
AcDbEntity
  8
0
100
AcDbVertex
100
AcDb2dVertex
 10
1.514288142519346
 20
8.219762408585648
 30
0.0
  0
SEQEND
  5
882
330
2E1
100
AcDbEntity
  8
0
  0
LINE
  5
2ED
330
1E
100
AcDbEntity
  8
0
100
AcDbLine
 10
4.439974607834306
 20
4.750531608034465
 30
0.0
 11
4.439974607834306
 21
4.509481511538403
 31
0.0
  0
LINE
  5
2EE
330
1E
100
AcDbEntity
  8
0
100
AcDbLine
 10
4.439974607834306
 20
4.509481511538403
 30
0.0
 11
4.449427552794936
 21
4.498453075751001
 31
0.0
  0
LINE
  5
2EF
330
1E
100
AcDbEntity
  8
0
100
AcDbLine
 10
4.449427552794936
 20
4.759984552995096
 30
0.0
 11
4.439974607834306
 21
4.750531608034465
 31
0.0
  0
LINE
  5
2F0
330
1E
100
AcDbEntity
  8
0
100
AcDbLine
 10
4.449427552794936
 20
4.498453075751001
 30
0.0
 11
4.449427552794936
 21
3.776878277089585
 31
0.0
  0
POLYLINE
  5
2F1
330
1E
100
AcDbEntity
  8
0
100
AcDb2dPolyline
 66
     1
 10
0.0
 20
0.0
 30
0.0
  0
VERTEX
  5
883
330
2F1
100
AcDbEntity
  8
0
100
AcDbVertex
100
AcDb2dVertex
 10
4.389558901377613
 20
7.955079949688011
 30
0.0
  0
VERTEX
  5
884
330
2F1
100
AcDbEntity
  8
0
100
AcDbVertex
100
AcDb2dVertex
 10
4.38640791972407
 20
7.600594513664386
 30
0.0
  0
VERTEX
  5
885
330
2F1
100
AcDbEntity
  8
0
100
AcDbVertex
100
AcDb2dVertex
 10
4.384832428897299
 20
7.242958095987222
 30
0.0
  0
VERTEX
  5
886
330
2F1
100
AcDbEntity
  8
0
100
AcDbVertex
100
AcDb2dVertex
 10
4.383256938070527
 20
6.886897169136828
 30
0.0
  0
VERTEX
  5
887
330
2F1
100
AcDbEntity
  8
0
100
AcDbVertex
100
AcDb2dVertex
 10
4.381681447243756
 20
6.529260751459664
 30
0.0
  0
SEQEND
  5
888
330
2F1
100
AcDbEntity
  8
0
  0
LINE
  5
2F8
330
1E
100
AcDbEntity
  8
0
100
AcDbLine
 10
4.381681447243756
 20
6.529260751459663
 30
0.0
 11
4.381681447243756
 21
3.844624382640764
 31
0.0
  0
LINE
  5
2F9
330
1E
100
AcDbEntity
  8
0
100
AcDbLine
 10
4.449427552794936
 20
8.014948601105333
 30
0.0
 11
4.389558901377613
 21
7.955079949688009
 31
0.0
  0
POLYLINE
  5
2FA
330
1E
100
AcDbEntity
  8
0
100
AcDb2dPolyline
 66
     1
 10
0.0
 20
0.0
 30
0.0
  0
VERTEX
  5
889
330
2FA
100
AcDbEntity
  8
0
100
AcDbVertex
100
AcDb2dVertex
 10
4.124876442479975
 20
8.219762408585648
 30
0.0
  0
VERTEX
  5
88A
330
2FA
100
AcDbEntity
  8
0
100
AcDbVertex
100
AcDb2dVertex
 10
4.170565676456353
 20
8.21503593610533
 30
0.0
  0
VERTEX
  5
88B
330
2FA
100
AcDbEntity
  8
0
100
AcDbVertex
100
AcDb2dVertex
 10
4.213103928779188
 20
8.20400750031793
 30
0.0
  0
VERTEX
  5
88C
330
2FA
100
AcDbEntity
  8
0
100
AcDbVertex
100
AcDb2dVertex
 10
4.254066690275251
 20
8.186677101223445
 30
0.0
  0
VERTEX
  5
88D
330
2FA
100
AcDbEntity
  8
0
100
AcDbVertex
100
AcDb2dVertex
 10
4.290302979290999
 20
8.161469247995098
 30
0.0
  0
VERTEX
  5
88E
330
2FA
100
AcDbEntity
  8
0
100
AcDbVertex
100
AcDb2dVertex
 10
4.323388286653204
 20
8.129959431459663
 30
0.0
  0
VERTEX
  5
88F
330
2FA
100
AcDbEntity
  8
0
100
AcDbVertex
100
AcDb2dVertex
 10
4.350171630708322
 20
8.095298633270685
 30
0.0
  0
VERTEX
  5
890
330
2FA
100
AcDbEntity
  8
0
100
AcDbVertex
100
AcDb2dVertex
 10
4.370653011456353
 20
8.055911362601394
 30
0.0
  0
VERTEX
  5
891
330
2FA
100
AcDbEntity
  8
0
100
AcDbVertex
100
AcDb2dVertex
 10
4.383256938070527
 20
8.013373110278562
 30
0.0
  0
VERTEX
  5
892
330
2FA
100
AcDbEntity
  8
0
100
AcDbVertex
100
AcDb2dVertex
 10
4.389558901377613
 20
7.955079949688011
 30
0.0
  0
SEQEND
  5
893
330
2FA
100
AcDbEntity
  8
0
  0
POLYLINE
  5
306
330
1E
100
AcDbEntity
  8
0
100
AcDb2dPolyline
 66
     1
 10
0.0
 20
0.0
 30
0.0
  0
VERTEX
  5
894
330
306
100
AcDbEntity
  8
0
100
AcDbVertex
100
AcDb2dVertex
 10
1.257483137755566
 20
6.529260751459664
 30
0.0
  0
VERTEX
  5
895
330
306
100
AcDbEntity
  8
0
100
AcDbVertex
100
AcDb2dVertex
 10
1.268511573542968
 20
6.529260751459664
 30
0.0
  0
VERTEX
  5
896
330
306
100
AcDbEntity
  8
0
100
AcDbVertex
100
AcDb2dVertex
 10
1.290568445117771
 20
6.529260751459664
 30
0.0
  0
VERTEX
  5
897
330
306
100
AcDbEntity
  8
0
100
AcDbVertex
100
AcDb2dVertex
 10
1.323653752479976
 20
6.529260751459664
 30
0.0
  0
VERTEX
  5
898
330
306
100
AcDbEntity
  8
0
100
AcDbVertex
100
AcDb2dVertex
 10
1.364616513976038
 20
6.529260751459664
 30
0.0
  0
VERTEX
  5
899
330
306
100
AcDbEntity
  8
0
100
AcDbVertex
100
AcDb2dVertex
 10
1.411881238779189
 20
6.529260751459664
 30
0.0
  0
SEQEND
  5
89A
330
306
100
AcDbEntity
  8
0
  0
POLYLINE
  5
30E
330
1E
100
AcDbEntity
  8
0
100
AcDb2dPolyline
 66
     1
 10
0.0
 20
0.0
 30
0.0
  0
VERTEX
  5
89B
330
30E
100
AcDbEntity
  8
0
100
AcDbVertex
100
AcDb2dVertex
 10
1.25118117444848
 20
7.955079949688011
 30
0.0
  0
VERTEX
  5
89C
330
30E
100
AcDbEntity
  8
0
100
AcDbVertex
100
AcDb2dVertex
 10
1.260634119409109
 20
7.961381912995095
 30
0.0
  0
VERTEX
  5
89D
330
30E
100
AcDbEntity
  8
0
100
AcDbVertex
100
AcDb2dVertex
 10
1.282690990983913
 20
7.969259367128953
 30
0.0
  0
VERTEX
  5
89E
330
30E
100
AcDbEntity
  8
0
100
AcDbVertex
100
AcDb2dVertex
 10
1.315776298346118
 20
7.97398583960927
 30
0.0
  0
VERTEX
  5
89F
330
30E
100
AcDbEntity
  8
0
100
AcDbVertex
100
AcDb2dVertex
 10
1.358314550668952
 20
7.978712312089585
 30
0.0
  0
VERTEX
  5
8A0
330
30E
100
AcDbEntity
  8
0
100
AcDbVertex
100
AcDb2dVertex
 10
1.40400378464533
 20
7.980287802916357
 30
0.0
  0
SEQEND
  5
8A1
330
30E
100
AcDbEntity
  8
0
  0
POLYLINE
  5
316
330
1E
100
AcDbEntity
  8
0
100
AcDb2dPolyline
 66
     1
 10
0.0
 20
0.0
 30
0.0
  0
VERTEX
  5
8A2
330
316
100
AcDbEntity
  8
0
100
AcDbVertex
100
AcDb2dVertex
 10
1.514288142519346
 20
8.219762408585648
 30
0.0
  0
VERTEX
  5
8A3
330
316
100
AcDbEntity
  8
0
100
AcDbVertex
100
AcDb2dVertex
 10
1.507986179212259
 20
8.210309463625016
 30
0.0
  0
VERTEX
  5
8A4
330
316
100
AcDbEntity
  8
0
100
AcDbVertex
100
AcDb2dVertex
 10
1.501684215905173
 20
8.188252592050213
 30
0.0
  0
VERTEX
  5
8A5
330
316
100
AcDbEntity
  8
0
100
AcDbVertex
100
AcDb2dVertex
 10
1.496957743424857
 20
8.15516728468801
 30
0.0
  0
VERTEX
  5
8A6
330
316
100
AcDbEntity
  8
0
100
AcDbVertex
100
AcDb2dVertex
 10
1.493806761771314
 20
8.114204523191945
 30
0.0
  0
VERTEX
  5
8A7
330
316
100
AcDbEntity
  8
0
100
AcDbVertex
100
AcDb2dVertex
 10
1.490655780117771
 20
8.066939798388798
 30
0.0
  0
SEQEND
  5
8A8
330
316
100
AcDbEntity
  8
0
  0
POLYLINE
  5
31E
330
1E
100
AcDbEntity
  8
0
100
AcDb2dPolyline
 66
     1
 10
0.0
 20
0.0
 30
0.0
  0
VERTEX
  5
8A9
330
31E
100
AcDbEntity
  8
0
100
AcDbVertex
100
AcDb2dVertex
 10
4.124876442479975
 20
8.219762408585648
 30
0.0
  0
VERTEX
  5
8AA
330
31E
100
AcDbEntity
  8
0
100
AcDbVertex
100
AcDb2dVertex
 10
4.131178405787062
 20
8.210309463625016
 30
0.0
  0
VERTEX
  5
8AB
330
31E
100
AcDbEntity
  8
0
100
AcDbVertex
100
AcDb2dVertex
 10
4.137480369094149
 20
8.188252592050213
 30
0.0
  0
VERTEX
  5
8AC
330
31E
100
AcDbEntity
  8
0
100
AcDbVertex
100
AcDb2dVertex
 10
4.143782332401236
 20
8.15516728468801
 30
0.0
  0
VERTEX
  5
8AD
330
31E
100
AcDbEntity
  8
0
100
AcDbVertex
100
AcDb2dVertex
 10
4.146933314054779
 20
8.114204523191945
 30
0.0
  0
VERTEX
  5
8AE
330
31E
100
AcDbEntity
  8
0
100
AcDbVertex
100
AcDb2dVertex
 10
4.150084295708323
 20
8.066939798388798
 30
0.0
  0
SEQEND
  5
8AF
330
31E
100
AcDbEntity
  8
0
  0
POLYLINE
  5
326
330
1E
100
AcDbEntity
  8
0
100
AcDb2dPolyline
 66
     1
 10
0.0
 20
0.0
 30
0.0
  0
VERTEX
  5
8B0
330
326
100
AcDbEntity
  8
0
100
AcDbVertex
100
AcDb2dVertex
 10
4.389558901377613
 20
7.955079949688011
 30
0.0
  0
VERTEX
  5
8B1
330
326
100
AcDbEntity
  8
0
100
AcDbVertex
100
AcDb2dVertex
 10
4.380105956416984
 20
7.961381912995095
 30
0.0
  0
VERTEX
  5
8B2
330
326
100
AcDbEntity
  8
0
100
AcDbVertex
100
AcDb2dVertex
 10
4.35804908484218
 20
7.969259367128953
 30
0.0
  0
VERTEX
  5
8B3
330
326
100
AcDbEntity
  8
0
100
AcDbVertex
100
AcDb2dVertex
 10
4.324963777479975
 20
7.97398583960927
 30
0.0
  0
VERTEX
  5
8B4
330
326
100
AcDbEntity
  8
0
100
AcDbVertex
100
AcDb2dVertex
 10
4.282425525157141
 20
7.978712312089585
 30
0.0
  0
VERTEX
  5
8B5
330
326
100
AcDbEntity
  8
0
100
AcDbVertex
100
AcDb2dVertex
 10
4.235160800353992
 20
7.980287802916357
 30
0.0
  0
SEQEND
  5
8B6
330
326
100
AcDbEntity
  8
0
  0
POLYLINE
  5
32E
330
1E
100
AcDbEntity
  8
0
100
AcDb2dPolyline
 66
     1
 10
0.0
 20
0.0
 30
0.0
  0
VERTEX
  5
8B7
330
32E
100
AcDbEntity
  8
0
100
AcDbVertex
100
AcDb2dVertex
 10
4.381681447243756
 20
6.529260751459664
 30
0.0
  0
VERTEX
  5
8B8
330
32E
100
AcDbEntity
  8
0
100
AcDbVertex
100
AcDb2dVertex
 10
4.372228502283125
 20
6.529260751459664
 30
0.0
  0
VERTEX
  5
8B9
330
32E
100
AcDbEntity
  8
0
100
AcDbVertex
100
AcDb2dVertex
 10
4.350171630708322
 20
6.529260751459664
 30
0.0
  0
VERTEX
  5
8BA
330
32E
100
AcDbEntity
  8
0
100
AcDbVertex
100
AcDb2dVertex
 10
4.317086323346117
 20
6.529260751459664
 30
0.0
  0
VERTEX
  5
8BB
330
32E
100
AcDbEntity
  8
0
100
AcDbVertex
100
AcDb2dVertex
 10
4.274548071023283
 20
6.529260751459664
 30
0.0
  0
VERTEX
  5
8BC
330
32E
100
AcDbEntity
  8
0
100
AcDbVertex
100
AcDb2dVertex
 10
4.228858837046905
 20
6.529260751459664
 30
0.0
  0
SEQEND
  5
8BD
330
32E
100
AcDbEntity
  8
0
  0
LINE
  5
336
330
1E
100
AcDbEntity
  8
0
100
AcDbLine
 10
3.75778707984218
 20
6.945190329727378
 30
0.0
 11
3.756211589015409
 21
6.946765820554151
 31
0.0
  0
LINE
  5
337
330
1E
100
AcDbEntity
  8
0
100
AcDbLine
 10
3.701069410078401
 20
6.946765820554151
 30
0.0
 11
3.756211589015409
 21
6.946765820554151
 31
0.0
  0
LINE
  5
338
330
1E
100
AcDbEntity
  8
0
100
AcDbLine
 10
3.701069410078401
 20
6.946765820554151
 30
0.0
 11
3.699493919251629
 21
6.948341311380922
 31
0.0
  0
LINE
  5
339
330
1E
100
AcDbEntity
  8
0
100
AcDbLine
 10
1.941246156574464
 20
6.948341311380922
 30
0.0
 11
3.699493919251629
 21
6.948341311380922
 31
0.0
  0
LINE
  5
33A
330
1E
100
AcDbEntity
  8
0
100
AcDbLine
 10
1.941246156574464
 20
6.948341311380922
 30
0.0
 11
1.93809517492092
 21
6.946765820554151
 31
0.0
  0
LINE
  5
33B
330
1E
100
AcDbEntity
  8
0
100
AcDbLine
 10
1.884528486810684
 20
6.946765820554151
 30
0.0
 11
1.93809517492092
 21
6.946765820554151
 31
0.0
  0
LINE
  5
33C
330
1E
100
AcDbEntity
  8
0
100
AcDbLine
 10
1.882952995983912
 20
6.945190329727378
 30
0.0
 11
1.884528486810684
 21
6.946765820554151
 31
0.0
  0
LINE
  5
33D
330
1E
100
AcDbEntity
  8
0
100
AcDbLine
 10
1.916038303346117
 20
7.359544417168324
 30
0.0
 11
1.914462812519346
 21
7.359544417168324
 31
0.0
  0
LINE
  5
33E
330
1E
100
AcDbEntity
  8
0
100
AcDbLine
 10
1.939670665747692
 20
7.359544417168324
 30
0.0
 11
1.916038303346117
 21
7.359544417168324
 31
0.0
  0
LINE
  5
33F
330
1E
100
AcDbEntity
  8
0
100
AcDbLine
 10
1.939670665747692
 20
7.359544417168324
 30
0.0
 11
1.942821647401236
 21
7.357968926341552
 31
0.0
  0
LINE
  5
340
330
1E
100
AcDbEntity
  8
0
100
AcDbLine
 10
3.697918428424858
 20
7.357968926341552
 30
0.0
 11
1.942821647401236
 21
7.357968926341552
 31
0.0
  0
LINE
  5
341
330
1E
100
AcDbEntity
  8
0
100
AcDbLine
 10
3.697918428424858
 20
7.357968926341552
 30
0.0
 11
3.701069410078401
 21
7.359544417168324
 31
0.0
  0
LINE
  5
342
330
1E
100
AcDbEntity
  8
0
100
AcDbLine
 10
3.724701772479976
 20
7.359544417168324
 30
0.0
 11
3.701069410078401
 21
7.359544417168324
 31
0.0
  0
LINE
  5
343
330
1E
100
AcDbEntity
  8
0
100
AcDbLine
 10
3.726277263306747
 20
7.359544417168324
 30
0.0
 11
3.724701772479976
 21
7.359544417168324
 31
0.0
  0
POLYLINE
  5
344
330
1E
100
AcDbEntity
  8
0
100
AcDb2dPolyline
 66
     1
 10
0.0
 20
0.0
 30
0.0
  0
VERTEX
  5
8BE
330
344
100
AcDbEntity
  8
0
100
AcDbVertex
100
AcDb2dVertex
 10
3.756211589015408
 20
7.328034600632891
 30
0.0
  0
VERTEX
  5
8BF
330
344
100
AcDbEntity
  8
0
100
AcDbVertex
100
AcDb2dVertex
 10
3.746758644054779
 20
7.350091472207695
 30
0.0
  0
VERTEX
  5
8C0
330
344
100
AcDbEntity
  8
0
100
AcDbVertex
100
AcDb2dVertex
 10
3.724701772479976
 20
7.359544417168326
 30
0.0
  0
SEQEND
  5
8C1
330
344
100
AcDbEntity
  8
0
  0
LINE
  5
349
330
1E
100
AcDbEntity
  8
0
100
AcDbLine
 10
3.756211589015409
 20
7.328034600632892
 30
0.0
 11
3.75778707984218
 21
7.329610091459663
 31
0.0
  0
LINE
  5
34A
330
1E
100
AcDbEntity
  8
0
100
AcDbLine
 10
3.756211589015409
 20
6.946765820554151
 30
0.0
 11
3.756211589015409
 21
7.328034600632892
 31
0.0
  0
LINE
  5
34B
330
1E
100
AcDbEntity
  8
0
100
AcDbLine
 10
1.882952995983912
 20
7.329610091459663
 30
0.0
 11
1.884528486810684
 21
7.328034600632892
 31
0.0
  0
POLYLINE
  5
34C
330
1E
100
AcDbEntity
  8
0
100
AcDb2dPolyline
 66
     1
 10
0.0
 20
0.0
 30
0.0
  0
VERTEX
  5
8C2
330
34C
100
AcDbEntity
  8
0
100
AcDbVertex
100
AcDb2dVertex
 10
1.916038303346117
 20
7.359544417168326
 30
0.0
  0
VERTEX
  5
8C3
330
34C
100
AcDbEntity
  8
0
100
AcDbVertex
100
AcDb2dVertex
 10
1.893981431771314
 20
7.350091472207695
 30
0.0
  0
VERTEX
  5
8C4
330
34C
100
AcDbEntity
  8
0
100
AcDbVertex
100
AcDb2dVertex
 10
1.884528486810684
 20
7.328034600632891
 30
0.0
  0
SEQEND
  5
8C5
330
34C
100
AcDbEntity
  8
0
  0
LINE
  5
351
330
1E
100
AcDbEntity
  8
0
100
AcDbLine
 10
1.884528486810684
 20
6.946765820554151
 30
0.0
 11
1.884528486810684
 21
7.328034600632892
 31
0.0
  0
LINE
  5
352
330
1E
100
AcDbEntity
  8
0
100
AcDbLine
 10
1.941246156574464
 20
6.948341311380922
 30
0.0
 11
1.942821647401236
 21
7.357968926341552
 31
0.0
  0
LINE
  5
353
330
1E
100
AcDbEntity
  8
0
100
AcDbLine
 10
3.697918428424858
 20
7.357968926341552
 30
0.0
 11
3.699493919251629
 21
6.948341311380922
 31
0.0
  0
CIRCLE
  5
354
330
1E
100
AcDbEntity
  8
0
100
AcDbCircle
 10
2.820370037913046
 20
7.152367373447852
 30
0.0
 40
0.1614878097440945
  0
CIRCLE
  5
355
330
1E
100
AcDbEntity
  8
0
100
AcDbCircle
 10
2.821157783326432
 20
7.152367373447852
 30
0.0
 40
0.1520369055609942
  0
POLYLINE
  5
356
330
1E
100
AcDbEntity
  8
0
100
AcDb2dPolyline
 66
     1
 10
0.0
 20
0.0
 30
0.0
  0
VERTEX
  5
8C6
330
356
100
AcDbEntity
  8
0
100
AcDbVertex
100
AcDb2dVertex
 10
2.741595496574463
 20
7.153155118861239
 30
0.0
  0
VERTEX
  5
8C7
330
356
100
AcDbEntity
  8
0
100
AcDbVertex
100
AcDb2dVertex
 10
2.749472950708323
 20
7.184664935396671
 30
0.0
  0
VERTEX
  5
8C8
330
356
100
AcDbEntity
  8
0
100
AcDbVertex
100
AcDb2dVertex
 10
2.768378840629582
 20
7.21144827945179
 30
0.0
  0
VERTEX
  5
8C9
330
356
100
AcDbEntity
  8
0
100
AcDbVertex
100
AcDb2dVertex
 10
2.796737675511472
 20
7.227203187719505
 30
0.0
  0
VERTEX
  5
8CA
330
356
100
AcDbEntity
  8
0
100
AcDbVertex
100
AcDb2dVertex
 10
2.828247492046904
 20
7.230354169373049
 30
0.0
  0
VERTEX
  5
8CB
330
356
100
AcDbEntity
  8
0
100
AcDbVertex
100
AcDb2dVertex
 10
2.859757308582338
 20
7.220901224412417
 30
0.0
  0
VERTEX
  5
8CC
330
356
100
AcDbEntity
  8
0
100
AcDbVertex
100
AcDb2dVertex
 10
2.883389670983912
 20
7.198844352837617
 30
0.0
  0
VERTEX
  5
8CD
330
356
100
AcDbEntity
  8
0
100
AcDbVertex
100
AcDb2dVertex
 10
2.895993597598085
 20
7.168910027128954
 30
0.0
  0
VERTEX
  5
8CE
330
356
100
AcDbEntity
  8
0
100
AcDbVertex
100
AcDb2dVertex
 10
2.895993597598085
 20
7.13582471976675
 30
0.0
  0
VERTEX
  5
8CF
330
356
100
AcDbEntity
  8
0
100
AcDbVertex
100
AcDb2dVertex
 10
2.883389670983912
 20
7.107465884884859
 30
0.0
  0
VERTEX
  5
8D0
330
356
100
AcDbEntity
  8
0
100
AcDbVertex
100
AcDb2dVertex
 10
2.859757308582338
 20
7.085409013310057
 30
0.0
  0
VERTEX
  5
8D1
330
356
100
AcDbEntity
  8
0
100
AcDbVertex
100
AcDb2dVertex
 10
2.828247492046904
 20
7.074380577522656
 30
0.0
  0
VERTEX
  5
8D2
330
356
100
AcDbEntity
  8
0
100
AcDbVertex
100
AcDb2dVertex
 10
2.796737675511472
 20
7.079107050002972
 30
0.0
  0
VERTEX
  5
8D3
330
356
100
AcDbEntity
  8
0
100
AcDbVertex
100
AcDb2dVertex
 10
2.768378840629582
 20
7.094861958270686
 30
0.0
  0
VERTEX
  5
8D4
330
356
100
AcDbEntity
  8
0
100
AcDbVertex
100
AcDb2dVertex
 10
2.749472950708323
 20
7.121645302325805
 30
0.0
  0
VERTEX
  5
8D5
330
356
100
AcDbEntity
  8
0
100
AcDbVertex
100
AcDb2dVertex
 10
2.741595496574463
 20
7.153155118861239
 30
0.0
  0
SEQEND
  5
8D6
330
356
100
AcDbEntity
  8
0
  0
POLYLINE
  5
368
330
1E
100
AcDbEntity
  8
0
100
AcDb2dPolyline
 66
     1
 10
0.0
 20
0.0
 30
0.0
  0
VERTEX
  5
8D7
330
368
100
AcDbEntity
  8
0
100
AcDbVertex
100
AcDb2dVertex
 10
2.900720070078401
 20
7.153155118861239
 30
0.0
  0
VERTEX
  5
8D8
330
368
100
AcDbEntity
  8
0
100
AcDbVertex
100
AcDb2dVertex
 10
2.892842615944542
 20
7.184664935396671
 30
0.0
  0
VERTEX
  5
8D9
330
368
100
AcDbEntity
  8
0
100
AcDbVertex
100
AcDb2dVertex
 10
2.873936726023282
 20
7.21302377027856
 30
0.0
  0
VERTEX
  5
8DA
330
368
100
AcDbEntity
  8
0
100
AcDbVertex
100
AcDb2dVertex
 10
2.845577891141393
 20
7.228778678546277
 30
0.0
  0
VERTEX
  5
8DB
330
368
100
AcDbEntity
  8
0
100
AcDbVertex
100
AcDb2dVertex
 10
2.812492583779188
 20
7.231929660199821
 30
0.0
  0
VERTEX
  5
8DC
330
368
100
AcDbEntity
  8
0
100
AcDbVertex
100
AcDb2dVertex
 10
2.779407276416983
 20
7.222476715239191
 30
0.0
  0
VERTEX
  5
8DD
330
368
100
AcDbEntity
  8
0
100
AcDbVertex
100
AcDb2dVertex
 10
2.755774914015408
 20
7.200419843664387
 30
0.0
  0
VERTEX
  5
8DE
330
368
100
AcDbEntity
  8
0
100
AcDbVertex
100
AcDb2dVertex
 10
2.741595496574463
 20
7.168910027128954
 30
0.0
  0
VERTEX
  5
8DF
330
368
100
AcDbEntity
  8
0
100
AcDbVertex
100
AcDb2dVertex
 10
2.741595496574463
 20
7.13582471976675
 30
0.0
  0
VERTEX
  5
8E0
330
368
100
AcDbEntity
  8
0
100
AcDbVertex
100
AcDb2dVertex
 10
2.755774914015408
 20
7.105890394058088
 30
0.0
  0
VERTEX
  5
8E1
330
368
100
AcDbEntity
  8
0
100
AcDbVertex
100
AcDb2dVertex
 10
2.779407276416983
 20
7.083833522483283
 30
0.0
  0
VERTEX
  5
8E2
330
368
100
AcDbEntity
  8
0
100
AcDbVertex
100
AcDb2dVertex
 10
2.812492583779188
 20
7.072805086695884
 30
0.0
  0
VERTEX
  5
8E3
330
368
100
AcDbEntity
  8
0
100
AcDbVertex
100
AcDb2dVertex
 10
2.845577891141393
 20
7.075956068349426
 30
0.0
  0
VERTEX
  5
8E4
330
368
100
AcDbEntity
  8
0
100
AcDbVertex
100
AcDb2dVertex
 10
2.873936726023282
 20
7.093286467443915
 30
0.0
  0
VERTEX
  5
8E5
330
368
100
AcDbEntity
  8
0
100
AcDbVertex
100
AcDb2dVertex
 10
2.892842615944542
 20
7.120069811499033
 30
0.0
  0
VERTEX
  5
8E6
330
368
100
AcDbEntity
  8
0
100
AcDbVertex
100
AcDb2dVertex
 10
2.900720070078401
 20
7.153155118861239
 30
0.0
  0
SEQEND
  5
8E7
330
368
100
AcDbEntity
  8
0
  0
LINE
  5
37A
330
1E
100
AcDbEntity
  8
0
100
AcDbLine
 10
6.409338141298874
 20
3.904493034058087
 30
0.0
 11
6.409338141298874
 21
3.871407726695883
 31
0.0
  0
LINE
  5
37B
330
1E
100
AcDbEntity
  8
0
100
AcDbLine
 10
6.409338141298874
 20
6.535562714766749
 30
0.0
 11
6.409338141298874
 21
3.994296011184071
 31
0.0
  0
LINE
  5
37C
330
1E
100
AcDbEntity
  8
0
100
AcDbLine
 10
6.399885196338242
 20
3.994296011184071
 30
0.0
 11
6.399885196338242
 21
3.904493034058087
 31
0.0
  0
LINE
  5
37D
330
1E
100
AcDbEntity
  8
0
100
AcDbLine
 10
6.429819522046905
 20
3.994296011184071
 30
0.0
 11
6.420366577086275
 21
3.994296011184071
 31
0.0
  0
LINE
  5
37E
330
1E
100
AcDbEntity
  8
0
100
AcDbLine
 10
6.409338141298874
 20
3.994296011184071
 30
0.0
 11
6.399885196338242
 21
3.994296011184071
 31
0.0
  0
POLYLINE
  5
37F
330
1E
100
AcDbEntity
  8
0
100
AcDb2dPolyline
 66
     1
 10
0.0
 20
0.0
 30
0.0
  0
VERTEX
  5
8E8
330
37F
100
AcDbEntity
  8
0
100
AcDbVertex
100
AcDb2dVertex
 10
6.418791086259503
 20
6.951492293034465
 30
0.0
  0
VERTEX
  5
8E9
330
37F
100
AcDbEntity
  8
0
100
AcDbVertex
100
AcDb2dVertex
 10
6.412489122952417
 20
6.743527503900608
 30
0.0
  0
VERTEX
  5
8EA
330
37F
100
AcDbEntity
  8
0
100
AcDbVertex
100
AcDb2dVertex
 10
6.409338141298873
 20
6.53556271476675
 30
0.0
  0
SEQEND
  5
8EB
330
37F
100
AcDbEntity
  8
0
  0
POLYLINE
  5
384
330
1E
100
AcDbEntity
  8
0
100
AcDb2dPolyline
 66
     1
 10
0.0
 20
0.0
 30
0.0
  0
VERTEX
  5
8EC
330
384
100
AcDbEntity
  8
0
100
AcDbVertex
100
AcDb2dVertex
 10
6.527499953306747
 20
8.068515289215568
 30
0.0
  0
VERTEX
  5
8ED
330
384
100
AcDbEntity
  8
0
100
AcDbVertex
100
AcDb2dVertex
 10
6.480235228503597
 20
7.720331816499032
 30
0.0
  0
VERTEX
  5
8EE
330
384
100
AcDbEntity
  8
0
100
AcDbVertex
100
AcDb2dVertex
 10
6.445574430314621
 20
7.370572852955725
 30
0.0
  0
SEQEND
  5
8EF
330
384
100
AcDbEntity
  8
0
  0
POLYLINE
  5
389
330
1E
100
AcDbEntity
  8
0
100
AcDb2dPolyline
 66
     1
 10
0.0
 20
0.0
 30
0.0
  0
VERTEX
  5
8F0
330
389
100
AcDbEntity
  8
0
100
AcDbVertex
100
AcDb2dVertex
 10
6.692926490117772
 20
8.221337899412418
 30
0.0
  0
VERTEX
  5
8F1
330
389
100
AcDbEntity
  8
0
100
AcDbVertex
100
AcDb2dVertex
 10
6.645661765314621
 20
8.210309463625016
 30
0.0
  0
VERTEX
  5
8F2
330
389
100
AcDbEntity
  8
0
100
AcDbVertex
100
AcDb2dVertex
 10
6.603123512991786
 20
8.188252592050213
 30
0.0
  0
VERTEX
  5
8F3
330
389
100
AcDbEntity
  8
0
100
AcDbVertex
100
AcDb2dVertex
 10
6.566887223976038
 20
8.15674277551478
 30
0.0
  0
VERTEX
  5
8F4
330
389
100
AcDbEntity
  8
0
100
AcDbVertex
100
AcDb2dVertex
 10
6.541679370747692
 20
8.114204523191945
 30
0.0
  0
VERTEX
  5
8F5
330
389
100
AcDbEntity
  8
0
100
AcDbVertex
100
AcDb2dVertex
 10
6.527499953306747
 20
8.068515289215568
 30
0.0
  0
SEQEND
  5
8F6
330
389
100
AcDbEntity
  8
0
  0
LINE
  5
392
330
1E
100
AcDbEntity
  8
0
100
AcDbLine
 10
7.639796477007535
 20
7.948777986380923
 30
0.0
 11
7.639796477007535
 21
7.910966206538404
 31
0.0
  0
LINE
  5
393
330
1E
100
AcDbEntity
  8
0
100
AcDbLine
 10
7.639796477007535
 20
7.836918137680136
 30
0.0
 11
7.639796477007535
 21
7.761294577995096
 31
0.0
  0
LINE
  5
394
330
1E
100
AcDbEntity
  8
0
100
AcDbLine
 10
7.639796477007535
 20
7.685671018310056
 30
0.0
 11
7.639796477007535
 21
7.611622949451788
 31
0.0
  0
LINE
  5
395
330
1E
100
AcDbEntity
  8
0
100
AcDbLine
 10
7.639796477007535
 20
7.535999389766749
 30
0.0
 11
7.639796477007535
 21
7.46037583008171
 31
0.0
  0
LINE
  5
396
330
1E
100
AcDbEntity
  8
0
100
AcDbLine
 10
7.639796477007535
 20
7.386327761223443
 30
0.0
 11
7.639796477007535
 21
7.310704201538403
 31
0.0
  0
LINE
  5
397
330
1E
100
AcDbEntity
  8
0
100
AcDbLine
 10
7.639796477007535
 20
7.236656132680135
 30
0.0
 11
7.639796477007535
 21
7.198844352837616
 31
0.0
  0
LINE
  5
398
330
1E
100
AcDbEntity
  8
0
100
AcDbLine
 10
7.639796477007535
 20
7.948777986380923
 30
0.0
 11
7.639796477007535
 21
7.910966206538404
 31
0.0
  0
LINE
  5
399
330
1E
100
AcDbEntity
  8
0
100
AcDbLine
 10
7.639796477007535
 20
7.836918137680136
 30
0.0
 11
7.639796477007535
 21
7.761294577995096
 31
0.0
  0
LINE
  5
39A
330
1E
100
AcDbEntity
  8
0
100
AcDbLine
 10
7.639796477007535
 20
7.685671018310056
 30
0.0
 11
7.639796477007535
 21
7.611622949451788
 31
0.0
  0
LINE
  5
39B
330
1E
100
AcDbEntity
  8
0
100
AcDbLine
 10
7.639796477007535
 20
7.535999389766749
 30
0.0
 11
7.639796477007535
 21
7.46037583008171
 31
0.0
  0
LINE
  5
39C
330
1E
100
AcDbEntity
  8
0
100
AcDbLine
 10
7.639796477007535
 20
7.386327761223443
 30
0.0
 11
7.639796477007535
 21
7.310704201538403
 31
0.0
  0
LINE
  5
39D
330
1E
100
AcDbEntity
  8
0
100
AcDbLine
 10
7.639796477007535
 20
7.236656132680135
 30
0.0
 11
7.639796477007535
 21
7.198844352837616
 31
0.0
  0
LINE
  5
39E
330
1E
100
AcDbEntity
  8
0
100
AcDbLine
 10
7.639796477007535
 20
4.759984552995096
 30
0.0
 11
7.639796477007535
 21
4.767862007128953
 31
0.0
  0
LINE
  5
39F
330
1E
100
AcDbEntity
  8
0
100
AcDbLine
 10
7.639796477007535
 20
4.509481511538403
 30
0.0
 11
7.639796477007535
 21
4.759984552995096
 31
0.0
  0
LINE
  5
3A0
330
1E
100
AcDbEntity
  8
0
100
AcDbLine
 10
7.639796477007535
 20
4.506330529884859
 30
0.0
 11
7.639796477007535
 21
4.509481511538403
 31
0.0
  0
LINE
  5
3A1
330
1E
100
AcDbEntity
  8
0
100
AcDbLine
 10
7.54999349988155
 20
4.517358965672261
 30
0.0
 11
7.54999349988155
 21
4.752107098861238
 31
0.0
  0
LINE
  5
3A2
330
1E
100
AcDbEntity
  8
0
100
AcDbLine
 10
7.639796477007535
 20
4.509481511538403
 30
0.0
 11
7.54999349988155
 21
4.517358965672261
 31
0.0
  0
LINE
  5
3A3
330
1E
100
AcDbEntity
  8
0
100
AcDbLine
 10
7.639796477007535
 20
4.759984552995096
 30
0.0
 11
7.54999349988155
 21
4.752107098861238
 31
0.0
  0
POLYLINE
  5
3A4
330
1E
100
AcDbEntity
  8
0
100
AcDb2dPolyline
 66
     1
 10
0.0
 20
0.0
 30
0.0
  0
VERTEX
  5
8F7
330
3A4
100
AcDbEntity
  8
0
100
AcDbVertex
100
AcDb2dVertex
 10
7.639796477007535
 20
8.287508514136826
 30
0.0
  0
VERTEX
  5
8F8
330
3A4
100
AcDbEntity
  8
0
100
AcDbVertex
100
AcDb2dVertex
 10
7.639796477007535
 20
8.279631060002969
 30
0.0
  0
VERTEX
  5
8F9
330
3A4
100
AcDbEntity
  8
0
100
AcDbVertex
100
AcDb2dVertex
 10
7.639796477007535
 20
8.260725170081709
 30
0.0
  0
VERTEX
  5
8FA
330
3A4
100
AcDbEntity
  8
0
100
AcDbVertex
100
AcDb2dVertex
 10
7.639796477007535
 20
8.229215353546276
 30
0.0
  0
VERTEX
  5
8FB
330
3A4
100
AcDbEntity
  8
0
100
AcDbVertex
100
AcDb2dVertex
 10
7.639796477007535
 20
8.186677101223445
 30
0.0
  0
VERTEX
  5
8FC
330
3A4
100
AcDbEntity
  8
0
100
AcDbVertex
100
AcDb2dVertex
 10
7.639796477007535
 20
8.137836885593522
 30
0.0
  0
VERTEX
  5
8FD
330
3A4
100
AcDbEntity
  8
0
100
AcDbVertex
100
AcDb2dVertex
 10
7.639796477007535
 20
8.08111921582974
 30
0.0
  0
VERTEX
  5
8FE
330
3A4
100
AcDbEntity
  8
0
100
AcDbVertex
100
AcDb2dVertex
 10
7.639796477007535
 20
8.022826055239189
 30
0.0
  0
SEQEND
  5
8FF
330
3A4
100
AcDbEntity
  8
0
  0
LINE
  5
3AE
330
1E
100
AcDbEntity
  8
0
100
AcDbLine
 10
7.639796477007535
 20
8.022826055239191
 30
0.0
 11
7.639796477007535
 21
4.767862007128953
 31
0.0
  0
POLYLINE
  5
3AF
330
1E
100
AcDbEntity
  8
0
100
AcDb2dPolyline
 66
     1
 10
0.0
 20
0.0
 30
0.0
  0
VERTEX
  5
900
330
3AF
100
AcDbEntity
  8
0
100
AcDbVertex
100
AcDb2dVertex
 10
6.51016955421226
 20
3.863530272562023
 30
0.0
  0
VERTEX
  5
901
330
3AF
100
AcDbEntity
  8
0
100
AcDbVertex
100
AcDb2dVertex
 10
6.466055811062654
 20
3.866681254215567
 30
0.0
  0
VERTEX
  5
902
330
3AF
100
AcDbEntity
  8
0
100
AcDbVertex
100
AcDb2dVertex
 10
6.43454599452722
 20
3.86983223586911
 30
0.0
  0
VERTEX
  5
903
330
3AF
100
AcDbEntity
  8
0
100
AcDbVertex
100
AcDb2dVertex
 10
6.415640104605961
 20
3.86983223586911
 30
0.0
  0
VERTEX
  5
904
330
3AF
100
AcDbEntity
  8
0
100
AcDbVertex
100
AcDb2dVertex
 10
6.409338141298873
 20
3.871407726695883
 30
0.0
  0
SEQEND
  5
905
330
3AF
100
AcDbEntity
  8
0
  0
LINE
  5
3B6
330
1E
100
AcDbEntity
  8
0
100
AcDbLine
 10
6.510169554212259
 20
3.863530272562024
 30
0.0
 11
6.510169554212259
 21
6.535562714766749
 31
0.0
  0
POLYLINE
  5
3B7
330
1E
100
AcDbEntity
  8
0
100
AcDb2dPolyline
 66
     1
 10
0.0
 20
0.0
 30
0.0
  0
VERTEX
  5
906
330
3B7
100
AcDbEntity
  8
0
100
AcDbVertex
100
AcDb2dVertex
 10
6.409338141298873
 20
6.53556271476675
 30
0.0
  0
VERTEX
  5
907
330
3B7
100
AcDbEntity
  8
0
100
AcDbVertex
100
AcDb2dVertex
 10
6.420366577086275
 20
6.53556271476675
 30
0.0
  0
VERTEX
  5
908
330
3B7
100
AcDbEntity
  8
0
100
AcDbVertex
100
AcDb2dVertex
 10
6.455027375275251
 20
6.53556271476675
 30
0.0
  0
VERTEX
  5
909
330
3B7
100
AcDbEntity
  8
0
100
AcDbVertex
100
AcDb2dVertex
 10
6.51016955421226
 20
6.53556271476675
 30
0.0
  0
SEQEND
  5
90A
330
3B7
100
AcDbEntity
  8
0
  0
POLYLINE
  5
3BD
330
1E
100
AcDbEntity
  8
0
100
AcDb2dPolyline
 66
     1
 10
0.0
 20
0.0
 30
0.0
  0
VERTEX
  5
90B
330
3BD
100
AcDbEntity
  8
0
100
AcDbVertex
100
AcDb2dVertex
 10
6.483386210157141
 20
3.93442735976675
 30
0.0
  0
VERTEX
  5
90C
330
3BD
100
AcDbEntity
  8
0
100
AcDbVertex
100
AcDb2dVertex
 10
6.484961700983913
 20
3.932851868939978
 30
0.0
  0
VERTEX
  5
90D
330
3BD
100
AcDbEntity
  8
0
100
AcDbVertex
100
AcDb2dVertex
 10
6.484961700983913
 20
3.929700887286434
 30
0.0
  0
VERTEX
  5
90E
330
3BD
100
AcDbEntity
  8
0
100
AcDbVertex
100
AcDb2dVertex
 10
6.484961700983913
 20
3.926549905632891
 30
0.0
  0
VERTEX
  5
90F
330
3BD
100
AcDbEntity
  8
0
100
AcDbVertex
100
AcDb2dVertex
 10
6.484961700983913
 20
3.921823433152576
 30
0.0
  0
VERTEX
  5
910
330
3BD
100
AcDbEntity
  8
0
100
AcDbVertex
100
AcDb2dVertex
 10
6.484961700983913
 20
3.917096960672261
 30
0.0
  0
VERTEX
  5
911
330
3BD
100
AcDbEntity
  8
0
100
AcDbVertex
100
AcDb2dVertex
 10
6.484961700983913
 20
3.912370488191945
 30
0.0
  0
VERTEX
  5
912
330
3BD
100
AcDbEntity
  8
0
100
AcDbVertex
100
AcDb2dVertex
 10
6.484961700983913
 20
3.907644015711631
 30
0.0
  0
VERTEX
  5
913
330
3BD
100
AcDbEntity
  8
0
100
AcDbVertex
100
AcDb2dVertex
 10
6.483386210157141
 20
3.906068524884858
 30
0.0
  0
VERTEX
  5
914
330
3BD
100
AcDbEntity
  8
0
100
AcDbVertex
100
AcDb2dVertex
 10
6.483386210157141
 20
3.904493034058087
 30
0.0
  0
SEQEND
  5
915
330
3BD
100
AcDbEntity
  8
0
  0
POLYLINE
  5
3C9
330
1E
100
AcDbEntity
  8
0
100
AcDb2dPolyline
 66
     1
 10
0.0
 20
0.0
 30
0.0
  0
VERTEX
  5
916
330
3C9
100
AcDbEntity
  8
0
100
AcDbVertex
100
AcDb2dVertex
 10
6.409338141298873
 20
3.994296011184071
 30
0.0
  0
VERTEX
  5
917
330
3C9
100
AcDbEntity
  8
0
100
AcDbVertex
100
AcDb2dVertex
 10
6.409338141298873
 20
3.992720520357299
 30
0.0
  0
VERTEX
  5
918
330
3C9
100
AcDbEntity
  8
0
100
AcDbVertex
100
AcDb2dVertex
 10
6.409338141298873
 20
3.989569538703758
 30
0.0
  0
VERTEX
  5
919
330
3C9
100
AcDbEntity
  8
0
100
AcDbVertex
100
AcDb2dVertex
 10
6.409338141298873
 20
3.984843066223442
 30
0.0
  0
VERTEX
  5
91A
330
3C9
100
AcDbEntity
  8
0
100
AcDbVertex
100
AcDb2dVertex
 10
6.409338141298873
 20
3.980116593743127
 30
0.0
  0
SEQEND
  5
91B
330
3C9
100
AcDbEntity
  8
0
  0
LINE
  5
3D0
330
1E
100
AcDbEntity
  8
0
100
AcDbLine
 10
6.409338141298874
 20
3.980116593743127
 30
0.0
 11
6.409338141298874
 21
3.965937176302182
 31
0.0
  0
POLYLINE
  5
3D1
330
1E
100
AcDbEntity
  8
0
100
AcDb2dPolyline
 66
     1
 10
0.0
 20
0.0
 30
0.0
  0
VERTEX
  5
91C
330
3D1
100
AcDbEntity
  8
0
100
AcDbVertex
100
AcDb2dVertex
 10
6.409338141298873
 20
3.93442735976675
 30
0.0
  0
VERTEX
  5
91D
330
3D1
100
AcDbEntity
  8
0
100
AcDbVertex
100
AcDb2dVertex
 10
6.409338141298873
 20
3.936002850593521
 30
0.0
  0
VERTEX
  5
91E
330
3D1
100
AcDbEntity
  8
0
100
AcDbVertex
100
AcDb2dVertex
 10
6.409338141298873
 20
3.942304813900607
 30
0.0
  0
VERTEX
  5
91F
330
3D1
100
AcDbEntity
  8
0
100
AcDbVertex
100
AcDb2dVertex
 10
6.409338141298873
 20
3.948606777207694
 30
0.0
  0
VERTEX
  5
920
330
3D1
100
AcDbEntity
  8
0
100
AcDbVertex
100
AcDb2dVertex
 10
6.409338141298873
 20
3.959635212995095
 30
0.0
  0
VERTEX
  5
921
330
3D1
100
AcDbEntity
  8
0
100
AcDbVertex
100
AcDb2dVertex
 10
6.409338141298873
 20
3.965937176302182
 30
0.0
  0
SEQEND
  5
922
330
3D1
100
AcDbEntity
  8
0
  0
POLYLINE
  5
3D9
330
1E
100
AcDbEntity
  8
0
100
AcDb2dPolyline
 66
     1
 10
0.0
 20
0.0
 30
0.0
  0
VERTEX
  5
923
330
3D9
100
AcDbEntity
  8
0
100
AcDbVertex
100
AcDb2dVertex
 10
6.429819522046904
 20
3.994296011184071
 30
0.0
  0
VERTEX
  5
924
330
3D9
100
AcDbEntity
  8
0
100
AcDbVertex
100
AcDb2dVertex
 10
6.431395012873676
 20
3.992720520357299
 30
0.0
  0
VERTEX
  5
925
330
3D9
100
AcDbEntity
  8
0
100
AcDbVertex
100
AcDb2dVertex
 10
6.431395012873676
 20
3.991145029530528
 30
0.0
  0
VERTEX
  5
926
330
3D9
100
AcDbEntity
  8
0
100
AcDbVertex
100
AcDb2dVertex
 10
6.431395012873676
 20
3.986418557050214
 30
0.0
  0
VERTEX
  5
927
330
3D9
100
AcDbEntity
  8
0
100
AcDbVertex
100
AcDb2dVertex
 10
6.431395012873676
 20
3.981692084569898
 30
0.0
  0
VERTEX
  5
928
330
3D9
100
AcDbEntity
  8
0
100
AcDbVertex
100
AcDb2dVertex
 10
6.431395012873676
 20
3.980116593743127
 30
0.0
  0
SEQEND
  5
929
330
3D9
100
AcDbEntity
  8
0
  0
LINE
  5
3E1
330
1E
100
AcDbEntity
  8
0
100
AcDbLine
 10
6.431395012873677
 20
3.980116593743127
 30
0.0
 11
6.431395012873677
 21
3.965937176302182
 31
0.0
  0
POLYLINE
  5
3E2
330
1E
100
AcDbEntity
  8
0
100
AcDb2dPolyline
 66
     1
 10
0.0
 20
0.0
 30
0.0
  0
VERTEX
  5
92A
330
3E2
100
AcDbEntity
  8
0
100
AcDbVertex
100
AcDb2dVertex
 10
6.431395012873676
 20
3.965937176302182
 30
0.0
  0
VERTEX
  5
92B
330
3E2
100
AcDbEntity
  8
0
100
AcDbVertex
100
AcDb2dVertex
 10
6.431395012873676
 20
3.962786194648638
 30
0.0
  0
VERTEX
  5
92C
330
3E2
100
AcDbEntity
  8
0
100
AcDbVertex
100
AcDb2dVertex
 10
6.431395012873676
 20
3.953333249688009
 30
0.0
  0
VERTEX
  5
92D
330
3E2
100
AcDbEntity
  8
0
100
AcDbVertex
100
AcDb2dVertex
 10
6.431395012873676
 20
3.943880304727378
 30
0.0
  0
VERTEX
  5
92E
330
3E2
100
AcDbEntity
  8
0
100
AcDbVertex
100
AcDb2dVertex
 10
6.432970503700448
 20
3.937578341420291
 30
0.0
  0
VERTEX
  5
92F
330
3E2
100
AcDbEntity
  8
0
100
AcDbVertex
100
AcDb2dVertex
 10
6.432970503700448
 20
3.93442735976675
 30
0.0
  0
SEQEND
  5
930
330
3E2
100
AcDbEntity
  8
0
  0
LINE
  5
3EA
330
1E
100
AcDbEntity
  8
0
100
AcDbLine
 10
7.639796477007535
 20
3.784755731223442
 30
0.0
 11
6.675596091023283
 21
3.852501836774623
 31
0.0
  0
POLYLINE
  5
3EB
330
1E
100
AcDbEntity
  8
0
100
AcDb2dPolyline
 66
     1
 10
0.0
 20
0.0
 30
0.0
  0
VERTEX
  5
931
330
3EB
100
AcDbEntity
  8
0
100
AcDbVertex
100
AcDb2dVertex
 10
6.675596091023282
 20
3.852501836774623
 30
0.0
  0
VERTEX
  5
932
330
3EB
100
AcDbEntity
  8
0
100
AcDbVertex
100
AcDb2dVertex
 10
6.626755875393361
 20
3.855652818428166
 30
0.0
  0
VERTEX
  5
933
330
3EB
100
AcDbEntity
  8
0
100
AcDbVertex
100
AcDb2dVertex
 10
6.584217623070528
 20
3.85880380008171
 30
0.0
  0
VERTEX
  5
934
330
3EB
100
AcDbEntity
  8
0
100
AcDbVertex
100
AcDb2dVertex
 10
6.54798133405478
 20
3.861954781735253
 30
0.0
  0
VERTEX
  5
935
330
3EB
100
AcDbEntity
  8
0
100
AcDbVertex
100
AcDb2dVertex
 10
6.522773480826433
 20
3.863530272562023
 30
0.0
  0
VERTEX
  5
936
330
3EB
100
AcDbEntity
  8
0
100
AcDbVertex
100
AcDb2dVertex
 10
6.51016955421226
 20
3.863530272562023
 30
0.0
  0
SEQEND
  5
937
330
3EB
100
AcDbEntity
  8
0
  0
POLYLINE
  5
3F3
330
1E
100
AcDbEntity
  8
0
100
AcDb2dPolyline
 66
     1
 10
0.0
 20
0.0
 30
0.0
  0
VERTEX
  5
938
330
3F3
100
AcDbEntity
  8
0
100
AcDbVertex
100
AcDb2dVertex
 10
6.51016955421226
 20
6.53556271476675
 30
0.0
  0
VERTEX
  5
939
330
3F3
100
AcDbEntity
  8
0
100
AcDbVertex
100
AcDb2dVertex
 10
6.516471517519345
 20
6.901076586577773
 30
0.0
  0
VERTEX
  5
93A
330
3F3
100
AcDbEntity
  8
0
100
AcDbVertex
100
AcDb2dVertex
 10
6.536952898267379
 20
7.265014967562025
 30
0.0
  0
VERTEX
  5
93B
330
3F3
100
AcDbEntity
  8
0
100
AcDbVertex
100
AcDb2dVertex
 10
6.570038205629582
 20
7.627377857719505
 30
0.0
  0
VERTEX
  5
93C
330
3F3
100
AcDbEntity
  8
0
100
AcDbVertex
100
AcDb2dVertex
 10
6.617302930432732
 20
7.988165257050216
 30
0.0
  0
SEQEND
  5
93D
330
3F3
100
AcDbEntity
  8
0
  0
POLYLINE
  5
3FA
330
1E
100
AcDbEntity
  8
0
100
AcDb2dPolyline
 66
     1
 10
0.0
 20
0.0
 30
0.0
  0
VERTEX
  5
93E
330
3FA
100
AcDbEntity
  8
0
100
AcDbVertex
100
AcDb2dVertex
 10
6.617302930432732
 20
7.988165257050216
 30
0.0
  0
VERTEX
  5
93F
330
3FA
100
AcDbEntity
  8
0
100
AcDbVertex
100
AcDb2dVertex
 10
6.622029402913048
 20
8.016524091932105
 30
0.0
  0
VERTEX
  5
940
330
3FA
100
AcDbEntity
  8
0
100
AcDbVertex
100
AcDb2dVertex
 10
6.62360489373982
 20
8.041731945160451
 30
0.0
  0
VERTEX
  5
941
330
3FA
100
AcDbEntity
  8
0
100
AcDbVertex
100
AcDb2dVertex
 10
6.62360489373982
 20
8.060637835081712
 30
0.0
  0
VERTEX
  5
942
330
3FA
100
AcDbEntity
  8
0
100
AcDbVertex
100
AcDb2dVertex
 10
6.622029402913048
 20
8.071666270869112
 30
0.0
  0
VERTEX
  5
943
330
3FA
100
AcDbEntity
  8
0
100
AcDbVertex
100
AcDb2dVertex
 10
6.618878421259504
 20
8.074817252522656
 30
0.0
  0
SEQEND
  5
944
330
3FA
100
AcDbEntity
  8
0
  0
POLYLINE
  5
402
330
1E
100
AcDbEntity
  8
0
100
AcDb2dPolyline
 66
     1
 10
0.0
 20
0.0
 30
0.0
  0
VERTEX
  5
945
330
402
100
AcDbEntity
  8
0
100
AcDbVertex
100
AcDb2dVertex
 10
6.618878421259504
 20
8.074817252522656
 30
0.0
  0
VERTEX
  5
946
330
402
100
AcDbEntity
  8
0
100
AcDbVertex
100
AcDb2dVertex
 10
6.56846271480281
 20
8.071666270869112
 30
0.0
  0
VERTEX
  5
947
330
402
100
AcDbEntity
  8
0
100
AcDbVertex
100
AcDb2dVertex
 10
6.538528389094149
 20
8.068515289215568
 30
0.0
  0
VERTEX
  5
948
330
402
100
AcDbEntity
  8
0
100
AcDbVertex
100
AcDb2dVertex
 10
6.527499953306747
 20
8.068515289215568
 30
0.0
  0
SEQEND
  5
949
330
402
100
AcDbEntity
  8
0
  0
POLYLINE
  5
408
330
1E
100
AcDbEntity
  8
0
100
AcDb2dPolyline
 66
     1
 10
0.0
 20
0.0
 30
0.0
  0
VERTEX
  5
94A
330
408
100
AcDbEntity
  8
0
100
AcDbVertex
100
AcDb2dVertex
 10
6.462904829409109
 20
6.953067783861238
 30
0.0
  0
VERTEX
  5
94B
330
408
100
AcDbEntity
  8
0
100
AcDbVertex
100
AcDb2dVertex
 10
6.47235777436974
 20
7.145277664727379
 30
0.0
  0
VERTEX
  5
94C
330
408
100
AcDbEntity
  8
0
100
AcDbVertex
100
AcDb2dVertex
 10
6.486537191810685
 20
7.335912054766749
 30
0.0
  0
SEQEND
  5
94D
330
408
100
AcDbEntity
  8
0
  0
POLYLINE
  5
40D
330
1E
100
AcDbEntity
  8
0
100
AcDb2dPolyline
 66
     1
 10
0.0
 20
0.0
 30
0.0
  0
VERTEX
  5
94E
330
40D
100
AcDbEntity
  8
0
100
AcDbVertex
100
AcDb2dVertex
 10
6.418791086259503
 20
6.951492293034465
 30
0.0
  0
VERTEX
  5
94F
330
40D
100
AcDbEntity
  8
0
100
AcDbVertex
100
AcDb2dVertex
 10
6.429819522046904
 20
6.951492293034465
 30
0.0
  0
VERTEX
  5
950
330
40D
100
AcDbEntity
  8
0
100
AcDbVertex
100
AcDb2dVertex
 10
6.462904829409109
 20
6.953067783861238
 30
0.0
  0
SEQEND
  5
951
330
40D
100
AcDbEntity
  8
0
  0
POLYLINE
  5
412
330
1E
100
AcDbEntity
  8
0
100
AcDb2dPolyline
 66
     1
 10
0.0
 20
0.0
 30
0.0
  0
VERTEX
  5
952
330
412
100
AcDbEntity
  8
0
100
AcDbVertex
100
AcDb2dVertex
 10
6.486537191810685
 20
7.367421871302183
 30
0.0
  0
VERTEX
  5
953
330
412
100
AcDbEntity
  8
0
100
AcDbVertex
100
AcDb2dVertex
 10
6.455027375275251
 20
7.368997362128953
 30
0.0
  0
VERTEX
  5
954
330
412
100
AcDbEntity
  8
0
100
AcDbVertex
100
AcDb2dVertex
 10
6.445574430314621
 20
7.370572852955725
 30
0.0
  0
SEQEND
  5
955
330
412
100
AcDbEntity
  8
0
  0
POLYLINE
  5
417
330
1E
100
AcDbEntity
  8
0
100
AcDb2dPolyline
 66
     1
 10
0.0
 20
0.0
 30
0.0
  0
VERTEX
  5
956
330
417
100
AcDbEntity
  8
0
100
AcDbVertex
100
AcDb2dVertex
 10
6.486537191810685
 20
7.335912054766749
 30
0.0
  0
VERTEX
  5
957
330
417
100
AcDbEntity
  8
0
100
AcDbVertex
100
AcDb2dVertex
 10
6.486537191810685
 20
7.346940490554152
 30
0.0
  0
VERTEX
  5
958
330
417
100
AcDbEntity
  8
0
100
AcDbVertex
100
AcDb2dVertex
 10
6.486537191810685
 20
7.35481794468801
 30
0.0
  0
VERTEX
  5
959
330
417
100
AcDbEntity
  8
0
100
AcDbVertex
100
AcDb2dVertex
 10
6.486537191810685
 20
7.362695398821868
 30
0.0
  0
VERTEX
  5
95A
330
417
100
AcDbEntity
  8
0
100
AcDbVertex
100
AcDb2dVertex
 10
6.486537191810685
 20
7.367421871302183
 30
0.0
  0
SEQEND
  5
95B
330
417
100
AcDbEntity
  8
0
  0
POLYLINE
  5
41E
330
1E
100
AcDbEntity
  8
0
100
AcDb2dPolyline
 66
     1
 10
0.0
 20
0.0
 30
0.0
  0
VERTEX
  5
95C
330
41E
100
AcDbEntity
  8
0
100
AcDbVertex
100
AcDb2dVertex
 10
6.692926490117772
 20
8.221337899412418
 30
0.0
  0
VERTEX
  5
95D
330
41E
100
AcDbEntity
  8
0
100
AcDbVertex
100
AcDb2dVertex
 10
6.703954925905173
 20
8.221337899412418
 30
0.0
  0
VERTEX
  5
95E
330
41E
100
AcDbEntity
  8
0
100
AcDbVertex
100
AcDb2dVertex
 10
6.733889251613834
 20
8.222913390239192
 30
0.0
  0
VERTEX
  5
95F
330
41E
100
AcDbEntity
  8
0
100
AcDbVertex
100
AcDb2dVertex
 10
6.782729467243755
 20
8.226064371892732
 30
0.0
  0
SEQEND
  5
960
330
41E
100
AcDbEntity
  8
0
  0
LINE
  5
424
330
1E
100
AcDbEntity
  8
0
100
AcDbLine
 10
6.782729467243754
 20
8.226064371892732
 30
0.0
 11
7.639796477007535
 21
8.287508514136828
 31
0.0
  0
LINE
  5
425
330
1E
100
AcDbEntity
  8
0
100
AcDbLine
 10
6.48338621015714
 20
3.904493034058087
 30
0.0
 11
6.47393326519651
 21
3.904493034058087
 31
0.0
  0
POLYLINE
  5
426
330
1E
100
AcDbEntity
  8
0
100
AcDb2dPolyline
 66
     1
 10
0.0
 20
0.0
 30
0.0
  0
VERTEX
  5
961
330
426
100
AcDbEntity
  8
0
100
AcDbVertex
100
AcDb2dVertex
 10
6.473933265196512
 20
3.904493034058087
 30
0.0
  0
VERTEX
  5
962
330
426
100
AcDbEntity
  8
0
100
AcDbVertex
100
AcDb2dVertex
 10
6.432970503700448
 20
3.904493034058087
 30
0.0
  0
VERTEX
  5
963
330
426
100
AcDbEntity
  8
0
100
AcDbVertex
100
AcDb2dVertex
 10
6.407762650472101
 20
3.904493034058087
 30
0.0
  0
VERTEX
  5
964
330
426
100
AcDbEntity
  8
0
100
AcDbVertex
100
AcDb2dVertex
 10
6.399885196338244
 20
3.904493034058087
 30
0.0
  0
SEQEND
  5
965
330
426
100
AcDbEntity
  8
0
  0
POLYLINE
  5
42C
330
1E
100
AcDbEntity
  8
0
100
AcDb2dPolyline
 66
     1
 10
0.0
 20
0.0
 30
0.0
  0
VERTEX
  5
966
330
42C
100
AcDbEntity
  8
0
100
AcDbVertex
100
AcDb2dVertex
 10
6.473933265196512
 20
3.904493034058087
 30
0.0
  0
VERTEX
  5
967
330
42C
100
AcDbEntity
  8
0
100
AcDbVertex
100
AcDb2dVertex
 10
6.473933265196512
 20
3.906068524884858
 30
0.0
  0
VERTEX
  5
968
330
42C
100
AcDbEntity
  8
0
100
AcDbVertex
100
AcDb2dVertex
 10
6.475508756023282
 20
3.909219506538403
 30
0.0
  0
VERTEX
  5
969
330
42C
100
AcDbEntity
  8
0
100
AcDbVertex
100
AcDb2dVertex
 10
6.475508756023282
 20
3.913945979018718
 30
0.0
  0
VERTEX
  5
96A
330
42C
100
AcDbEntity
  8
0
100
AcDbVertex
100
AcDb2dVertex
 10
6.475508756023282
 20
3.918672451499031
 30
0.0
  0
VERTEX
  5
96B
330
42C
100
AcDbEntity
  8
0
100
AcDbVertex
100
AcDb2dVertex
 10
6.475508756023282
 20
3.923398923979347
 30
0.0
  0
VERTEX
  5
96C
330
42C
100
AcDbEntity
  8
0
100
AcDbVertex
100
AcDb2dVertex
 10
6.475508756023282
 20
3.928125396459663
 30
0.0
  0
VERTEX
  5
96D
330
42C
100
AcDbEntity
  8
0
100
AcDbVertex
100
AcDb2dVertex
 10
6.473933265196512
 20
3.931276378113205
 30
0.0
  0
VERTEX
  5
96E
330
42C
100
AcDbEntity
  8
0
100
AcDbVertex
100
AcDb2dVertex
 10
6.473933265196512
 20
3.93442735976675
 30
0.0
  0
SEQEND
  5
96F
330
42C
100
AcDbEntity
  8
0
  0
POLYLINE
  5
437
330
1E
100
AcDbEntity
  8
0
100
AcDb2dPolyline
 66
     1
 10
0.0
 20
0.0
 30
0.0
  0
VERTEX
  5
970
330
437
100
AcDbEntity
  8
0
100
AcDbVertex
100
AcDb2dVertex
 10
6.473933265196512
 20
3.93442735976675
 30
0.0
  0
VERTEX
  5
971
330
437
100
AcDbEntity
  8
0
100
AcDbVertex
100
AcDb2dVertex
 10
6.445574430314621
 20
3.93442735976675
 30
0.0
  0
VERTEX
  5
972
330
437
100
AcDbEntity
  8
0
100
AcDbVertex
100
AcDb2dVertex
 10
6.423517558739819
 20
3.93442735976675
 30
0.0
  0
SEQEND
  5
973
330
437
100
AcDbEntity
  8
0
  0
POLYLINE
  5
43C
330
1E
100
AcDbEntity
  8
0
100
AcDb2dPolyline
 66
     1
 10
0.0
 20
0.0
 30
0.0
  0
VERTEX
  5
974
330
43C
100
AcDbEntity
  8
0
100
AcDbVertex
100
AcDb2dVertex
 10
6.423517558739819
 20
3.93442735976675
 30
0.0
  0
VERTEX
  5
975
330
43C
100
AcDbEntity
  8
0
100
AcDbVertex
100
AcDb2dVertex
 10
6.421942067913047
 20
3.936002850593521
 30
0.0
  0
VERTEX
  5
976
330
43C
100
AcDbEntity
  8
0
100
AcDbVertex
100
AcDb2dVertex
 10
6.421942067913047
 20
3.942304813900607
 30
0.0
  0
VERTEX
  5
977
330
43C
100
AcDbEntity
  8
0
100
AcDbVertex
100
AcDb2dVertex
 10
6.421942067913047
 20
3.948606777207694
 30
0.0
  0
VERTEX
  5
978
330
43C
100
AcDbEntity
  8
0
100
AcDbVertex
100
AcDb2dVertex
 10
6.421942067913047
 20
3.959635212995095
 30
0.0
  0
VERTEX
  5
979
330
43C
100
AcDbEntity
  8
0
100
AcDbVertex
100
AcDb2dVertex
 10
6.420366577086275
 20
3.965937176302182
 30
0.0
  0
SEQEND
  5
97A
330
43C
100
AcDbEntity
  8
0
  0
LINE
  5
444
330
1E
100
AcDbEntity
  8
0
100
AcDbLine
 10
6.420366577086275
 20
3.980116593743127
 30
0.0
 11
6.420366577086275
 21
3.965937176302182
 31
0.0
  0
POLYLINE
  5
445
330
1E
100
AcDbEntity
  8
0
100
AcDb2dPolyline
 66
     1
 10
0.0
 20
0.0
 30
0.0
  0
VERTEX
  5
97B
330
445
100
AcDbEntity
  8
0
100
AcDbVertex
100
AcDb2dVertex
 10
6.420366577086275
 20
3.980116593743127
 30
0.0
  0
VERTEX
  5
97C
330
445
100
AcDbEntity
  8
0
100
AcDbVertex
100
AcDb2dVertex
 10
6.420366577086275
 20
3.983267575396671
 30
0.0
  0
VERTEX
  5
97D
330
445
100
AcDbEntity
  8
0
100
AcDbVertex
100
AcDb2dVertex
 10
6.420366577086275
 20
3.987994047876984
 30
0.0
  0
VERTEX
  5
97E
330
445
100
AcDbEntity
  8
0
100
AcDbVertex
100
AcDb2dVertex
 10
6.420366577086275
 20
3.991145029530528
 30
0.0
  0
VERTEX
  5
97F
330
445
100
AcDbEntity
  8
0
100
AcDbVertex
100
AcDb2dVertex
 10
6.420366577086275
 20
3.994296011184071
 30
0.0
  0
VERTEX
  5
980
330
445
100
AcDbEntity
  8
0
100
AcDbVertex
100
AcDb2dVertex
 10
6.420366577086275
 20
3.991145029530528
 30
0.0
  0
VERTEX
  5
981
330
445
100
AcDbEntity
  8
0
100
AcDbVertex
100
AcDb2dVertex
 10
6.418791086259503
 20
3.987994047876984
 30
0.0
  0
VERTEX
  5
982
330
445
100
AcDbEntity
  8
0
100
AcDbVertex
100
AcDb2dVertex
 10
6.418791086259503
 20
3.983267575396671
 30
0.0
  0
VERTEX
  5
983
330
445
100
AcDbEntity
  8
0
100
AcDbVertex
100
AcDb2dVertex
 10
6.418791086259503
 20
3.980116593743127
 30
0.0
  0
SEQEND
  5
984
330
445
100
AcDbEntity
  8
0
  0
LINE
  5
450
330
1E
100
AcDbEntity
  8
0
100
AcDbLine
 10
6.418791086259504
 20
3.965937176302182
 30
0.0
 11
6.418791086259504
 21
3.980116593743127
 31
0.0
  0
POLYLINE
  5
451
330
1E
100
AcDbEntity
  8
0
100
AcDb2dPolyline
 66
     1
 10
0.0
 20
0.0
 30
0.0
  0
VERTEX
  5
985
330
451
100
AcDbEntity
  8
0
100
AcDbVertex
100
AcDb2dVertex
 10
6.418791086259503
 20
3.965937176302182
 30
0.0
  0
VERTEX
  5
986
330
451
100
AcDbEntity
  8
0
100
AcDbVertex
100
AcDb2dVertex
 10
6.418791086259503
 20
3.962786194648638
 30
0.0
  0
VERTEX
  5
987
330
451
100
AcDbEntity
  8
0
100
AcDbVertex
100
AcDb2dVertex
 10
6.418791086259503
 20
3.953333249688009
 30
0.0
  0
VERTEX
  5
988
330
451
100
AcDbEntity
  8
0
100
AcDbVertex
100
AcDb2dVertex
 10
6.418791086259503
 20
3.943880304727378
 30
0.0
  0
VERTEX
  5
989
330
451
100
AcDbEntity
  8
0
100
AcDbVertex
100
AcDb2dVertex
 10
6.418791086259503
 20
3.937578341420291
 30
0.0
  0
VERTEX
  5
98A
330
451
100
AcDbEntity
  8
0
100
AcDbVertex
100
AcDb2dVertex
 10
6.417215595432731
 20
3.93442735976675
 30
0.0
  0
SEQEND
  5
98B
330
451
100
AcDbEntity
  8
0
  0
POLYLINE
  5
459
330
1E
100
AcDbEntity
  8
0
100
AcDb2dPolyline
 66
     1
 10
0.0
 20
0.0
 30
0.0
  0
VERTEX
  5
98C
330
459
100
AcDbEntity
  8
0
100
AcDbVertex
100
AcDb2dVertex
 10
6.399885196338244
 20
3.93442735976675
 30
0.0
  0
VERTEX
  5
98D
330
459
100
AcDbEntity
  8
0
100
AcDbVertex
100
AcDb2dVertex
 10
6.404611668818559
 20
3.93442735976675
 30
0.0
  0
VERTEX
  5
98E
330
459
100
AcDbEntity
  8
0
100
AcDbVertex
100
AcDb2dVertex
 10
6.417215595432731
 20
3.93442735976675
 30
0.0
  0
SEQEND
  5
98F
330
459
100
AcDbEntity
  8
0
  0
POLYLINE
  5
45E
330
1E
100
AcDbEntity
  8
0
100
AcDb2dPolyline
 66
     1
 10
0.0
 20
0.0
 30
0.0
  0
VERTEX
  5
990
330
45E
100
AcDbEntity
  8
0
100
AcDbVertex
100
AcDb2dVertex
 10
6.399885196338244
 20
3.93442735976675
 30
0.0
  0
VERTEX
  5
991
330
45E
100
AcDbEntity
  8
0
100
AcDbVertex
100
AcDb2dVertex
 10
6.399885196338244
 20
3.936002850593521
 30
0.0
  0
VERTEX
  5
992
330
45E
100
AcDbEntity
  8
0
100
AcDbVertex
100
AcDb2dVertex
 10
6.399885196338244
 20
3.942304813900607
 30
0.0
  0
VERTEX
  5
993
330
45E
100
AcDbEntity
  8
0
100
AcDbVertex
100
AcDb2dVertex
 10
6.399885196338244
 20
3.948606777207694
 30
0.0
  0
VERTEX
  5
994
330
45E
100
AcDbEntity
  8
0
100
AcDbVertex
100
AcDb2dVertex
 10
6.399885196338244
 20
3.959635212995095
 30
0.0
  0
VERTEX
  5
995
330
45E
100
AcDbEntity
  8
0
100
AcDbVertex
100
AcDb2dVertex
 10
6.399885196338244
 20
3.965937176302182
 30
0.0
  0
SEQEND
  5
996
330
45E
100
AcDbEntity
  8
0
  0
LINE
  5
466
330
1E
100
AcDbEntity
  8
0
100
AcDbLine
 10
6.399885196338242
 20
3.980116593743127
 30
0.0
 11
6.399885196338242
 21
3.965937176302182
 31
0.0
  0
POLYLINE
  5
467
330
1E
100
AcDbEntity
  8
0
100
AcDb2dPolyline
 66
     1
 10
0.0
 20
0.0
 30
0.0
  0
VERTEX
  5
997
330
467
100
AcDbEntity
  8
0
100
AcDbVertex
100
AcDb2dVertex
 10
6.399885196338244
 20
3.980116593743127
 30
0.0
  0
VERTEX
  5
998
330
467
100
AcDbEntity
  8
0
100
AcDbVertex
100
AcDb2dVertex
 10
6.399885196338244
 20
3.983267575396671
 30
0.0
  0
VERTEX
  5
999
330
467
100
AcDbEntity
  8
0
100
AcDbVertex
100
AcDb2dVertex
 10
6.399885196338244
 20
3.987994047876984
 30
0.0
  0
VERTEX
  5
99A
330
467
100
AcDbEntity
  8
0
100
AcDbVertex
100
AcDb2dVertex
 10
6.399885196338244
 20
3.991145029530528
 30
0.0
  0
VERTEX
  5
99B
330
467
100
AcDbEntity
  8
0
100
AcDbVertex
100
AcDb2dVertex
 10
6.399885196338244
 20
3.994296011184071
 30
0.0
  0
SEQEND
  5
99C
330
467
100
AcDbEntity
  8
0
  0
LINE
  5
46E
330
1E
100
AcDbEntity
  8
0
100
AcDbLine
 10
6.47393326519651
 20
3.93442735976675
 30
0.0
 11
6.48338621015714
 21
3.93442735976675
 31
0.0
  0
LINE
  5
46F
330
1E
100
AcDbEntity
  8
0
100
AcDbLine
 10
6.399885196338242
 20
3.965937176302182
 30
0.0
 11
6.409338141298874
 21
3.965937176302182
 31
0.0
  0
LINE
  5
470
330
1E
100
AcDbEntity
  8
0
100
AcDbLine
 10
6.420366577086275
 20
3.965937176302182
 30
0.0
 11
6.431395012873677
 21
3.965937176302182
 31
0.0
  0
LINE
  5
471
330
1E
100
AcDbEntity
  8
0
100
AcDbLine
 10
6.409338141298874
 20
3.980116593743127
 30
0.0
 11
6.399885196338242
 21
3.980116593743127
 31
0.0
  0
LINE
  5
472
330
1E
100
AcDbEntity
  8
0
100
AcDbLine
 10
6.431395012873677
 20
3.980116593743127
 30
0.0
 11
6.420366577086275
 21
3.980116593743127
 31
0.0
  0
LINE
  5
473
330
1E
100
AcDbEntity
  8
0
100
AcDbLine
 10
7.509030738385487
 20
4.758409062168325
 30
0.0
 11
7.509030738385487
 21
4.515783474845489
 31
0.0
  0
LINE
  5
474
330
1E
100
AcDbEntity
  8
0
100
AcDbLine
 10
7.509030738385487
 20
4.515783474845489
 30
0.0
 11
7.639796477007535
 21
4.506330529884859
 31
0.0
  0
LINE
  5
475
330
1E
100
AcDbEntity
  8
0
100
AcDbLine
 10
7.639796477007535
 20
4.767862007128953
 30
0.0
 11
7.509030738385487
 21
4.758409062168325
 31
0.0
  0
LINE
  5
476
330
1E
100
AcDbEntity
  8
0
100
AcDbLine
 10
7.639796477007535
 20
4.506330529884859
 30
0.0
 11
7.639796477007535
 21
3.784755731223442
 31
0.0
  0
POLYLINE
  5
477
330
1E
100
AcDbEntity
  8
0
100
AcDb2dPolyline
 66
     1
 10
0.0
 20
0.0
 30
0.0
  0
VERTEX
  5
99D
330
477
100
AcDbEntity
  8
0
100
AcDbVertex
100
AcDb2dVertex
 10
6.781153976416983
 20
7.962957403821869
 30
0.0
  0
VERTEX
  5
99E
330
477
100
AcDbEntity
  8
0
100
AcDbVertex
100
AcDb2dVertex
 10
6.735464742440605
 20
7.606896476971474
 30
0.0
  0
VERTEX
  5
99F
330
477
100
AcDbEntity
  8
0
100
AcDbVertex
100
AcDb2dVertex
 10
6.702379435078401
 20
7.25083555012108
 30
0.0
  0
VERTEX
  5
9A0
330
477
100
AcDbEntity
  8
0
100
AcDbVertex
100
AcDb2dVertex
 10
6.681898054330368
 20
6.893199132443916
 30
0.0
  0
VERTEX
  5
9A1
330
477
100
AcDbEntity
  8
0
100
AcDbVertex
100
AcDb2dVertex
 10
6.675596091023282
 20
6.53556271476675
 30
0.0
  0
SEQEND
  5
9A2
330
477
100
AcDbEntity
  8
0
  0
LINE
  5
47E
330
1E
100
AcDbEntity
  8
0
100
AcDbLine
 10
6.675596091023283
 20
6.535562714766749
 30
0.0
 11
6.675596091023283
 21
3.852501836774623
 31
0.0
  0
LINE
  5
47F
330
1E
100
AcDbEntity
  8
0
100
AcDbLine
 10
7.639796477007535
 20
8.022826055239191
 30
0.0
 11
6.781153976416984
 21
7.962957403821867
 31
0.0
  0
POLYLINE
  5
480
330
1E
100
AcDbEntity
  8
0
100
AcDb2dPolyline
 66
     1
 10
0.0
 20
0.0
 30
0.0
  0
VERTEX
  5
9A3
330
480
100
AcDbEntity
  8
0
100
AcDbVertex
100
AcDb2dVertex
 10
6.782729467243755
 20
8.226064371892732
 30
0.0
  0
VERTEX
  5
9A4
330
480
100
AcDbEntity
  8
0
100
AcDbVertex
100
AcDb2dVertex
 10
6.782729467243755
 20
8.222913390239192
 30
0.0
  0
VERTEX
  5
9A5
330
480
100
AcDbEntity
  8
0
100
AcDbVertex
100
AcDb2dVertex
 10
6.782729467243755
 20
8.211884954451786
 30
0.0
  0
VERTEX
  5
9A6
330
480
100
AcDbEntity
  8
0
100
AcDbVertex
100
AcDb2dVertex
 10
6.782729467243755
 20
8.192979064530527
 30
0.0
  0
VERTEX
  5
9A7
330
480
100
AcDbEntity
  8
0
100
AcDbVertex
100
AcDb2dVertex
 10
6.782729467243755
 20
8.169346702128954
 30
0.0
  0
VERTEX
  5
9A8
330
480
100
AcDbEntity
  8
0
100
AcDbVertex
100
AcDb2dVertex
 10
6.782729467243755
 20
8.137836885593522
 30
0.0
  0
VERTEX
  5
9A9
330
480
100
AcDbEntity
  8
0
100
AcDbVertex
100
AcDb2dVertex
 10
6.781153976416983
 20
8.103176087404543
 30
0.0
  0
VERTEX
  5
9AA
330
480
100
AcDbEntity
  8
0
100
AcDbVertex
100
AcDb2dVertex
 10
6.781153976416983
 20
8.062213325908482
 30
0.0
  0
VERTEX
  5
9AB
330
480
100
AcDbEntity
  8
0
100
AcDbVertex
100
AcDb2dVertex
 10
6.781153976416983
 20
8.021250564412419
 30
0.0
  0
VERTEX
  5
9AC
330
480
100
AcDbEntity
  8
0
100
AcDbVertex
100
AcDb2dVertex
 10
6.781153976416983
 20
7.962957403821869
 30
0.0
  0
SEQEND
  5
9AD
330
480
100
AcDbEntity
  8
0
  0
POLYLINE
  5
48C
330
1E
100
AcDbEntity
  8
0
100
AcDb2dPolyline
 66
     1
 10
0.0
 20
0.0
 30
0.0
  0
VERTEX
  5
9AE
330
48C
100
AcDbEntity
  8
0
100
AcDbVertex
100
AcDb2dVertex
 10
6.782729467243755
 20
8.226064371892732
 30
0.0
  0
VERTEX
  5
9AF
330
48C
100
AcDbEntity
  8
0
100
AcDbVertex
100
AcDb2dVertex
 10
6.735464742440605
 20
8.216611426932104
 30
0.0
  0
VERTEX
  5
9B0
330
48C
100
AcDbEntity
  8
0
100
AcDbVertex
100
AcDb2dVertex
 10
6.692926490117772
 20
8.194554555357301
 30
0.0
  0
VERTEX
  5
9B1
330
48C
100
AcDbEntity
  8
0
100
AcDbVertex
100
AcDb2dVertex
 10
6.658265691928794
 20
8.163044738821868
 30
0.0
  0
VERTEX
  5
9B2
330
48C
100
AcDbEntity
  8
0
100
AcDbVertex
100
AcDb2dVertex
 10
6.633057838700447
 20
8.120506486499031
 30
0.0
  0
VERTEX
  5
9B3
330
48C
100
AcDbEntity
  8
0
100
AcDbVertex
100
AcDb2dVertex
 10
6.618878421259504
 20
8.074817252522656
 30
0.0
  0
SEQEND
  5
9B4
330
48C
100
AcDbEntity
  8
0
  0
POLYLINE
  5
494
330
1E
100
AcDbEntity
  8
0
100
AcDb2dPolyline
 66
     1
 10
0.0
 20
0.0
 30
0.0
  0
VERTEX
  5
9B5
330
494
100
AcDbEntity
  8
0
100
AcDbVertex
100
AcDb2dVertex
 10
6.781153976416983
 20
7.962957403821869
 30
0.0
  0
VERTEX
  5
9B6
330
494
100
AcDbEntity
  8
0
100
AcDbVertex
100
AcDb2dVertex
 10
6.733889251613834
 20
7.969259367128953
 30
0.0
  0
VERTEX
  5
9B7
330
494
100
AcDbEntity
  8
0
100
AcDbVertex
100
AcDb2dVertex
 10
6.691350999291
 20
7.975561330436041
 30
0.0
  0
VERTEX
  5
9B8
330
494
100
AcDbEntity
  8
0
100
AcDbVertex
100
AcDb2dVertex
 10
6.656690201102024
 20
7.981863293743128
 30
0.0
  0
VERTEX
  5
9B9
330
494
100
AcDbEntity
  8
0
100
AcDbVertex
100
AcDb2dVertex
 10
6.631482347873677
 20
7.986589766223442
 30
0.0
  0
VERTEX
  5
9BA
330
494
100
AcDbEntity
  8
0
100
AcDbVertex
100
AcDb2dVertex
 10
6.617302930432732
 20
7.988165257050216
 30
0.0
  0
SEQEND
  5
9BB
330
494
100
AcDbEntity
  8
0
  0
POLYLINE
  5
49C
330
1E
100
AcDbEntity
  8
0
100
AcDb2dPolyline
 66
     1
 10
0.0
 20
0.0
 30
0.0
  0
VERTEX
  5
9BC
330
49C
100
AcDbEntity
  8
0
100
AcDbVertex
100
AcDb2dVertex
 10
6.675596091023282
 20
6.53556271476675
 30
0.0
  0
VERTEX
  5
9BD
330
49C
100
AcDbEntity
  8
0
100
AcDbVertex
100
AcDb2dVertex
 10
6.626755875393361
 20
6.53556271476675
 30
0.0
  0
VERTEX
  5
9BE
330
49C
100
AcDbEntity
  8
0
100
AcDbVertex
100
AcDb2dVertex
 10
6.584217623070528
 20
6.53556271476675
 30
0.0
  0
VERTEX
  5
9BF
330
49C
100
AcDbEntity
  8
0
100
AcDbVertex
100
AcDb2dVertex
 10
6.54798133405478
 20
6.53556271476675
 30
0.0
  0
VERTEX
  5
9C0
330
49C
100
AcDbEntity
  8
0
100
AcDbVertex
100
AcDb2dVertex
 10
6.522773480826433
 20
6.53556271476675
 30
0.0
  0
VERTEX
  5
9C1
330
49C
100
AcDbEntity
  8
0
100
AcDbVertex
100
AcDb2dVertex
 10
6.51016955421226
 20
6.53556271476675
 30
0.0
  0
SEQEND
  5
9C2
330
49C
100
AcDbEntity
  8
0
  0
LINE
  5
4A4
330
1E
100
AcDbEntity
  8
0
100
AcDbLine
 10
4.046101901141392
 20
2.940292648073836
 30
0.0
 11
4.046101901141392
 21
2.951321083861237
 31
0.0
  0
LINE
  5
4A5
330
1E
100
AcDbEntity
  8
0
100
AcDbLine
 10
1.5946381746847
 20
2.951321083861237
 30
0.0
 11
1.5946381746847
 21
2.940292648073836
 31
0.0
  0
LINE
  5
4A6
330
1E
100
AcDbEntity
  8
0
100
AcDbLine
 10
2.569866996456354
 20
2.721299423152576
 30
0.0
 11
2.57616895976344
 21
2.559023867995096
 31
0.0
  0
LINE
  5
4A7
330
1E
100
AcDbEntity
  8
0
100
AcDbLine
 10
3.064571116062653
 20
2.559023867995096
 30
0.0
 11
3.069297588542968
 21
2.721299423152576
 31
0.0
  0
LINE
  5
4A8
330
1E
100
AcDbEntity
  8
0
100
AcDbLine
 10
2.97634362976344
 20
2.07692367500297
 30
0.0
 11
2.968466175629582
 21
2.549570923034465
 31
0.0
  0
LINE
  5
4A9
330
1E
100
AcDbEntity
  8
0
100
AcDbLine
 10
2.664396446062653
 20
2.549570923034465
 30
0.0
 11
2.656518991928795
 21
2.07692367500297
 31
0.0
  0
LINE
  5
4AA
330
1E
100
AcDbEntity
  8
0
100
AcDbLine
 10
1.853018670275251
 20
2.07692367500297
 30
0.0
 11
1.846716706968165
 21
2.376266932089583
 31
0.0
  0
LINE
  5
4AB
330
1E
100
AcDbEntity
  8
0
100
AcDbLine
 10
3.78614591472407
 20
2.376266932089583
 30
0.0
 11
3.779843951416983
 21
2.07692367500297
 31
0.0
  0
LINE
  5
4AC
330
1E
100
AcDbEntity
  8
0
100
AcDbLine
 10
1.689167624290999
 20
2.376266932089583
 30
0.0
 11
1.681290170157141
 21
2.07692367500297
 31
0.0
  0
LINE
  5
4AD
330
1E
100
AcDbEntity
  8
0
100
AcDbLine
 10
3.951572451535094
 20
2.07692367500297
 30
0.0
 11
3.943694997401236
 21
2.376266932089583
 31
0.0
  0
POLYLINE
  5
4AF
330
1E
100
AcDbEntity
  8
0
100
AcDb2dPolyline
 66
     1
 10
0.0
 20
0.0
 30
0.0
  0
VERTEX
  5
9C3
330
4AF
100
AcDbEntity
  8
0
100
AcDbVertex
100
AcDb2dVertex
 10
2.664396446062653
 20
2.549570923034466
 30
0.0
  0
VERTEX
  5
9C4
330
4AF
100
AcDbEntity
  8
0
100
AcDbVertex
100
AcDb2dVertex
 10
2.672273900196511
 20
2.549570923034466
 30
0.0
  0
VERTEX
  5
9C5
330
4AF
100
AcDbEntity
  8
0
100
AcDbVertex
100
AcDb2dVertex
 10
2.697481753424858
 20
2.549570923034466
 30
0.0
  0
VERTEX
  5
9C6
330
4AF
100
AcDbEntity
  8
0
100
AcDbVertex
100
AcDb2dVertex
 10
2.735293533267376
 20
2.549570923034466
 30
0.0
  0
VERTEX
  5
9C7
330
4AF
100
AcDbEntity
  8
0
100
AcDbVertex
100
AcDb2dVertex
 10
2.782558258070527
 20
2.549570923034466
 30
0.0
  0
SEQEND
  5
9C8
330
4AF
100
AcDbEntity
  8
0
  0
POLYLINE
  5
4B6
330
1E
100
AcDbEntity
  8
0
100
AcDb2dPolyline
 66
     1
 10
0.0
 20
0.0
 30
0.0
  0
VERTEX
  5
9C9
330
4B6
100
AcDbEntity
  8
0
100
AcDbVertex
100
AcDb2dVertex
 10
2.850304363621708
 20
2.549570923034466
 30
0.0
  0
VERTEX
  5
9CA
330
4B6
100
AcDbEntity
  8
0
100
AcDbVertex
100
AcDb2dVertex
 10
2.897569088424857
 20
2.549570923034466
 30
0.0
  0
VERTEX
  5
9CB
330
4B6
100
AcDbEntity
  8
0
100
AcDbVertex
100
AcDb2dVertex
 10
2.935380868267377
 20
2.549570923034466
 30
0.0
  0
VERTEX
  5
9CC
330
4B6
100
AcDbEntity
  8
0
100
AcDbVertex
100
AcDb2dVertex
 10
2.959013230668952
 20
2.549570923034466
 30
0.0
  0
VERTEX
  5
9CD
330
4B6
100
AcDbEntity
  8
0
100
AcDbVertex
100
AcDb2dVertex
 10
2.968466175629582
 20
2.549570923034466
 30
0.0
  0
SEQEND
  5
9CE
330
4B6
100
AcDbEntity
  8
0
  0
POLYLINE
  5
4BD
330
1E
100
AcDbEntity
  8
0
100
AcDb2dPolyline
 66
     1
 10
0.0
 20
0.0
 30
0.0
  0
VERTEX
  5
9CF
330
4BD
100
AcDbEntity
  8
0
100
AcDbVertex
100
AcDb2dVertex
 10
1.7947255096847
 20
2.376266932089583
 30
0.0
  0
VERTEX
  5
9D0
330
4BD
100
AcDbEntity
  8
0
100
AcDbVertex
100
AcDb2dVertex
 10
1.750611766535094
 20
2.376266932089583
 30
0.0
  0
VERTEX
  5
9D1
330
4BD
100
AcDbEntity
  8
0
100
AcDbVertex
100
AcDb2dVertex
 10
1.692318605944542
 20
2.376266932089583
 30
0.0
  0
SEQEND
  5
9D2
330
4BD
100
AcDbEntity
  8
0
  0
POLYLINE
  5
4C2
330
1E
100
AcDbEntity
  8
0
100
AcDb2dPolyline
 66
     1
 10
0.0
 20
0.0
 30
0.0
  0
VERTEX
  5
9D3
330
4C2
100
AcDbEntity
  8
0
100
AcDbVertex
100
AcDb2dVertex
 10
1.7947255096847
 20
2.376266932089583
 30
0.0
  0
VERTEX
  5
9D4
330
4C2
100
AcDbEntity
  8
0
100
AcDbVertex
100
AcDb2dVertex
 10
1.799451982165015
 20
2.376266932089583
 30
0.0
  0
VERTEX
  5
9D5
330
4C2
100
AcDbEntity
  8
0
100
AcDbVertex
100
AcDb2dVertex
 10
1.80417845464533
 20
2.376266932089583
 30
0.0
  0
VERTEX
  5
9D6
330
4C2
100
AcDbEntity
  8
0
100
AcDbVertex
100
AcDb2dVertex
 10
1.810480417952416
 20
2.376266932089583
 30
0.0
  0
VERTEX
  5
9D7
330
4C2
100
AcDbEntity
  8
0
100
AcDbVertex
100
AcDb2dVertex
 10
1.816782381259503
 20
2.376266932089583
 30
0.0
  0
VERTEX
  5
9D8
330
4C2
100
AcDbEntity
  8
0
100
AcDbVertex
100
AcDb2dVertex
 10
1.82308434456659
 20
2.376266932089583
 30
0.0
  0
SEQEND
  5
9D9
330
4C2
100
AcDbEntity
  8
0
  0
LINE
  5
4CA
330
1E
100
AcDbEntity
  8
0
100
AcDbLine
 10
1.835688271180763
 20
2.376266932089583
 30
0.0
 11
1.823084344566589
 21
2.376266932089583
 31
0.0
  0
POLYLINE
  5
4CB
330
1E
100
AcDbEntity
  8
0
100
AcDb2dPolyline
 66
     1
 10
0.0
 20
0.0
 30
0.0
  0
VERTEX
  5
9DA
330
4CB
100
AcDbEntity
  8
0
100
AcDbVertex
100
AcDb2dVertex
 10
1.835688271180763
 20
2.376266932089583
 30
0.0
  0
VERTEX
  5
9DB
330
4CB
100
AcDbEntity
  8
0
100
AcDbVertex
100
AcDb2dVertex
 10
1.841990234487849
 20
2.376266932089583
 30
0.0
  0
VERTEX
  5
9DC
330
4CB
100
AcDbEntity
  8
0
100
AcDbVertex
100
AcDb2dVertex
 10
1.845141216141392
 20
2.376266932089583
 30
0.0
  0
VERTEX
  5
9DD
330
4CB
100
AcDbEntity
  8
0
100
AcDbVertex
100
AcDb2dVertex
 10
1.846716706968165
 20
2.376266932089583
 30
0.0
  0
SEQEND
  5
9DE
330
4CB
100
AcDbEntity
  8
0
  0
LINE
  5
4D1
330
1E
100
AcDbEntity
  8
0
100
AcDbLine
 10
1.689167624290999
 20
2.376266932089583
 30
0.0
 11
1.692318605944542
 21
2.376266932089583
 31
0.0
  0
LINE
  5
4D2
330
1E
100
AcDbEntity
  8
0
100
AcDbLine
 10
1.823084344566589
 20
2.376266932089583
 30
0.0
 11
1.821508853739818
 21
2.07692367500297
 31
0.0
  0
LINE
  5
4D3
330
1E
100
AcDbEntity
  8
0
100
AcDbLine
 10
1.841990234487849
 20
2.07692367500297
 30
0.0
 11
1.835688271180763
 21
2.376266932089583
 31
0.0
  0
LINE
  5
4D4
330
1E
100
AcDbEntity
  8
0
100
AcDbLine
 10
1.793150018857929
 20
2.07692367500297
 30
0.0
 11
1.7947255096847
 21
2.376266932089583
 31
0.0
  0
POLYLINE
  5
4D5
330
1E
100
AcDbEntity
  8
0
100
AcDb2dPolyline
 66
     1
 10
0.0
 20
0.0
 30
0.0
  0
VERTEX
  5
9DF
330
4D5
100
AcDbEntity
  8
0
100
AcDbVertex
100
AcDb2dVertex
 10
1.692318605944542
 20
2.376266932089583
 30
0.0
  0
VERTEX
  5
9E0
330
4D5
100
AcDbEntity
  8
0
100
AcDbVertex
100
AcDb2dVertex
 10
1.692318605944542
 20
2.336879661420293
 30
0.0
  0
VERTEX
  5
9E1
330
4D5
100
AcDbEntity
  8
0
100
AcDbVertex
100
AcDb2dVertex
 10
1.684441151810684
 20
2.076923675002969
 30
0.0
  0
SEQEND
  5
9E2
330
4D5
100
AcDbEntity
  8
0
  0
LINE
  5
4DA
330
1E
100
AcDbEntity
  8
0
100
AcDbLine
 10
3.437962442007535
 20
2.464494418388796
 30
0.0
 11
3.434811460353992
 21
2.721299423152576
 31
0.0
  0
LINE
  5
4DB
330
1E
100
AcDbEntity
  8
0
100
AcDbLine
 10
3.504133056731944
 20
2.464494418388796
 30
0.0
 11
3.508859529212259
 21
2.721299423152576
 31
0.0
  0
LINE
  5
4DC
330
1E
100
AcDbEntity
  8
0
100
AcDbLine
 10
2.848728872794936
 20
2.464494418388796
 30
0.0
 11
2.853455345275251
 21
2.721299423152576
 31
0.0
  0
LINE
  5
4DD
330
1E
100
AcDbEntity
  8
0
100
AcDbLine
 10
2.782558258070527
 20
2.464494418388796
 30
0.0
 11
2.779407276416983
 21
2.721299423152576
 31
0.0
  0
LINE
  5
4DE
330
1E
100
AcDbEntity
  8
0
100
AcDbLine
 10
2.193324688857929
 20
2.464494418388796
 30
0.0
 11
2.198051161338243
 21
2.721299423152576
 31
0.0
  0
LINE
  5
4DF
330
1E
100
AcDbEntity
  8
0
100
AcDbLine
 10
1.531618541613834
 20
2.07692367500297
 30
0.0
 11
1.531618541613834
 21
2.080074656656513
 31
0.0
  0
LINE
  5
4E0
330
1E
100
AcDbEntity
  8
0
100
AcDbLine
 10
2.12872956496029
 20
2.464494418388796
 30
0.0
 11
2.124003092479976
 21
2.721299423152576
 31
0.0
  0
LINE
  5
4E1
330
1E
100
AcDbEntity
  8
0
100
AcDbLine
 10
1.433938110353991
 20
2.07692367500297
 30
0.0
 11
2.124003092479976
 21
2.07692367500297
 31
0.0
  0
LINE
  5
4E2
330
1E
100
AcDbEntity
  8
0
100
AcDbLine
 10
2.191749198031156
 20
2.716572950672261
 30
0.0
 11
2.130305055787062
 21
2.716572950672261
 31
0.0
  0
LINE
  5
4E3
330
1E
100
AcDbEntity
  8
0
100
AcDbLine
 10
2.191749198031156
 20
2.716572950672261
 30
0.0
 11
2.198051161338243
 21
2.07692367500297
 31
0.0
  0
LINE
  5
4E4
330
1E
100
AcDbEntity
  8
0
100
AcDbLine
 10
2.198051161338243
 20
2.07692367500297
 30
0.0
 11
2.779407276416983
 21
2.07692367500297
 31
0.0
  0
LINE
  5
4E5
330
1E
100
AcDbEntity
  8
0
100
AcDbLine
 10
2.78570923972407
 20
2.716572950672261
 30
0.0
 11
2.779407276416983
 21
2.07692367500297
 31
0.0
  0
LINE
  5
4E6
330
1E
100
AcDbEntity
  8
0
100
AcDbLine
 10
2.847153381968165
 20
2.716572950672261
 30
0.0
 11
2.78570923972407
 21
2.716572950672261
 31
0.0
  0
LINE
  5
4E7
330
1E
100
AcDbEntity
  8
0
100
AcDbLine
 10
2.847153381968165
 20
2.716572950672261
 30
0.0
 11
2.853455345275251
 21
2.07692367500297
 31
0.0
  0
LINE
  5
4E8
330
1E
100
AcDbEntity
  8
0
100
AcDbLine
 10
2.853455345275251
 20
2.07692367500297
 30
0.0
 11
3.434811460353992
 21
2.07692367500297
 31
0.0
  0
LINE
  5
4E9
330
1E
100
AcDbEntity
  8
0
100
AcDbLine
 10
3.441113423661078
 20
2.716572950672261
 30
0.0
 11
3.434811460353992
 21
2.07692367500297
 31
0.0
  0
LINE
  5
4EA
330
1E
100
AcDbEntity
  8
0
100
AcDbLine
 10
3.502557565905172
 20
2.716572950672261
 30
0.0
 11
3.441113423661078
 21
2.716572950672261
 31
0.0
  0
LINE
  5
4EB
330
1E
100
AcDbEntity
  8
0
100
AcDbLine
 10
3.502557565905172
 20
2.716572950672261
 30
0.0
 11
3.507284038385487
 21
2.07692367500297
 31
0.0
  0
LINE
  5
4EC
330
1E
100
AcDbEntity
  8
0
100
AcDbLine
 10
3.507284038385487
 20
2.07692367500297
 30
0.0
 11
4.198924511338244
 21
2.07692367500297
 31
0.0
  0
LINE
  5
4ED
330
1E
100
AcDbEntity
  8
0
100
AcDbLine
 10
1.542646977401235
 20
2.07692367500297
 30
0.0
 11
1.542646977401235
 21
2.080074656656513
 31
0.0
  0
LINE
  5
4EE
330
1E
100
AcDbEntity
  8
0
100
AcDbLine
 10
1.470174399369739
 20
2.080074656656513
 30
0.0
 11
1.470174399369739
 21
2.07692367500297
 31
0.0
  0
LINE
  5
4EF
330
1E
100
AcDbEntity
  8
0
100
AcDbLine
 10
2.130305055787062
 20
2.716572950672261
 30
0.0
 11
2.124003092479976
 21
2.07692367500297
 31
0.0
  0
LINE
  5
4F0
330
1E
100
AcDbEntity
  8
0
100
AcDbLine
 10
4.208377456298873
 20
1.955610881341552
 30
0.0
 11
4.200500002165016
 21
1.955610881341552
 31
0.0
  0
LINE
  5
4F1
330
1E
100
AcDbEntity
  8
0
100
AcDbLine
 10
1.429211637873676
 20
1.785457872050213
 30
0.0
 11
1.433938110353991
 21
2.07692367500297
 31
0.0
  0
LINE
  5
4F2
330
1E
100
AcDbEntity
  8
0
100
AcDbLine
 10
1.429211637873676
 20
1.785457872050213
 30
0.0
 11
4.203650983818558
 21
1.785457872050213
 31
0.0
  0
LINE
  5
4F3
330
1E
100
AcDbEntity
  8
0
100
AcDbLine
 10
4.203650983818558
 20
1.785457872050213
 30
0.0
 11
4.198924511338244
 21
2.07692367500297
 31
0.0
  0
LINE
  5
4F4
330
1E
100
AcDbEntity
  8
0
100
AcDbLine
 10
4.203650983818558
 20
1.785457872050213
 30
0.0
 11
4.211528437952417
 21
1.785457872050213
 31
0.0
  0
POLYLINE
  5
4F5
330
1E
100
AcDbEntity
  8
0
100
AcDb2dPolyline
 66
     1
 10
0.0
 20
0.0
 30
0.0
  0
VERTEX
  5
9E3
330
4F5
100
AcDbEntity
  8
0
100
AcDbVertex
100
AcDb2dVertex
 10
3.838137112007535
 20
2.376266932089583
 30
0.0
  0
VERTEX
  5
9E4
330
4F5
100
AcDbEntity
  8
0
100
AcDbVertex
100
AcDb2dVertex
 10
3.88225085515714
 20
2.376266932089583
 30
0.0
  0
VERTEX
  5
9E5
330
4F5
100
AcDbEntity
  8
0
100
AcDbVertex
100
AcDb2dVertex
 10
3.940544015747692
 20
2.376266932089583
 30
0.0
  0
SEQEND
  5
9E6
330
4F5
100
AcDbEntity
  8
0
  0
LINE
  5
4FA
330
1E
100
AcDbEntity
  8
0
100
AcDbLine
 10
3.943694997401236
 20
2.376266932089583
 30
0.0
 11
3.940544015747692
 21
2.376266932089583
 31
0.0
  0
POLYLINE
  5
4FB
330
1E
100
AcDbEntity
  8
0
100
AcDb2dPolyline
 66
     1
 10
0.0
 20
0.0
 30
0.0
  0
VERTEX
  5
9E7
330
4FB
100
AcDbEntity
  8
0
100
AcDbVertex
100
AcDb2dVertex
 10
3.795598859684699
 20
2.376266932089583
 30
0.0
  0
VERTEX
  5
9E8
330
4FB
100
AcDbEntity
  8
0
100
AcDbVertex
100
AcDb2dVertex
 10
3.790872387204386
 20
2.376266932089583
 30
0.0
  0
VERTEX
  5
9E9
330
4FB
100
AcDbEntity
  8
0
100
AcDbVertex
100
AcDb2dVertex
 10
3.787721405550842
 20
2.376266932089583
 30
0.0
  0
VERTEX
  5
9EA
330
4FB
100
AcDbEntity
  8
0
100
AcDbVertex
100
AcDb2dVertex
 10
3.78614591472407
 20
2.376266932089583
 30
0.0
  0
SEQEND
  5
9EB
330
4FB
100
AcDbEntity
  8
0
  0
LINE
  5
501
330
1E
100
AcDbEntity
  8
0
100
AcDbLine
 10
3.7955988596847
 20
2.376266932089583
 30
0.0
 11
3.808202786298873
 21
2.376266932089583
 31
0.0
  0
POLYLINE
  5
502
330
1E
100
AcDbEntity
  8
0
100
AcDb2dPolyline
 66
     1
 10
0.0
 20
0.0
 30
0.0
  0
VERTEX
  5
9EC
330
502
100
AcDbEntity
  8
0
100
AcDbVertex
100
AcDb2dVertex
 10
3.838137112007535
 20
2.376266932089583
 30
0.0
  0
VERTEX
  5
9ED
330
502
100
AcDbEntity
  8
0
100
AcDbVertex
100
AcDb2dVertex
 10
3.833410639527219
 20
2.376266932089583
 30
0.0
  0
VERTEX
  5
9EE
330
502
100
AcDbEntity
  8
0
100
AcDbVertex
100
AcDb2dVertex
 10
3.828684167046905
 20
2.376266932089583
 30
0.0
  0
VERTEX
  5
9EF
330
502
100
AcDbEntity
  8
0
100
AcDbVertex
100
AcDb2dVertex
 10
3.822382203739818
 20
2.376266932089583
 30
0.0
  0
VERTEX
  5
9F0
330
502
100
AcDbEntity
  8
0
100
AcDbVertex
100
AcDb2dVertex
 10
3.816080240432731
 20
2.376266932089583
 30
0.0
  0
VERTEX
  5
9F1
330
502
100
AcDbEntity
  8
0
100
AcDbVertex
100
AcDb2dVertex
 10
3.808202786298873
 20
2.376266932089583
 30
0.0
  0
SEQEND
  5
9F2
330
502
100
AcDbEntity
  8
0
  0
POLYLINE
  5
50A
330
1E
100
AcDbEntity
  8
0
100
AcDb2dPolyline
 66
     1
 10
0.0
 20
0.0
 30
0.0
  0
VERTEX
  5
9F3
330
50A
100
AcDbEntity
  8
0
100
AcDbVertex
100
AcDb2dVertex
 10
3.940544015747692
 20
2.376266932089583
 30
0.0
  0
VERTEX
  5
9F4
330
50A
100
AcDbEntity
  8
0
100
AcDbVertex
100
AcDb2dVertex
 10
3.940544015747692
 20
2.336879661420293
 30
0.0
  0
VERTEX
  5
9F5
330
50A
100
AcDbEntity
  8
0
100
AcDbVertex
100
AcDb2dVertex
 10
3.946845979054779
 20
2.076923675002969
 30
0.0
  0
SEQEND
  5
9F6
330
50A
100
AcDbEntity
  8
0
  0
LINE
  5
50F
330
1E
100
AcDbEntity
  8
0
100
AcDbLine
 10
3.839712602834306
 20
2.07692367500297
 30
0.0
 11
3.838137112007535
 21
2.376266932089583
 31
0.0
  0
LINE
  5
510
330
1E
100
AcDbEntity
  8
0
100
AcDbLine
 10
3.789296896377614
 20
2.07692367500297
 30
0.0
 11
3.7955988596847
 21
2.376266932089583
 31
0.0
  0
LINE
  5
511
330
1E
100
AcDbEntity
  8
0
100
AcDbLine
 10
3.808202786298873
 20
2.376266932089583
 30
0.0
 11
3.811353767952416
 21
2.07692367500297
 31
0.0
  0
LINE
  5
512
330
1E
100
AcDbEntity
  8
0
100
AcDbLine
 10
4.090215644290999
 20
2.07692367500297
 30
0.0
 11
4.093366625944542
 21
2.412503221105332
 31
0.0
  0
LINE
  5
513
330
1E
100
AcDbEntity
  8
0
100
AcDbLine
 10
4.101244080078402
 20
2.07692367500297
 30
0.0
 11
4.101244080078402
 21
2.080074656656513
 31
0.0
  0
LINE
  5
514
330
1E
100
AcDbEntity
  8
0
100
AcDbLine
 10
4.09179113511777
 20
2.568476812955725
 30
0.0
 11
4.088640153464228
 21
2.721299423152576
 31
0.0
  0
LINE
  5
515
330
1E
100
AcDbEntity
  8
0
100
AcDbLine
 10
4.162688222322496
 20
2.07692367500297
 30
0.0
 11
4.162688222322496
 21
2.080074656656513
 31
0.0
  0
LINE
  5
516
330
1E
100
AcDbEntity
  8
0
100
AcDbLine
 10
3.789296896377614
 20
2.680336661656513
 30
0.0
 11
3.790872387204386
 21
2.376266932089583
 31
0.0
  0
POLYLINE
  5
517
330
1E
100
AcDbEntity
  8
0
100
AcDb2dPolyline
 66
     1
 10
0.0
 20
0.0
 30
0.0
  0
VERTEX
  5
9F7
330
517
100
AcDbEntity
  8
0
100
AcDbVertex
100
AcDb2dVertex
 10
3.789296896377614
 20
2.680336661656513
 30
0.0
  0
VERTEX
  5
9F8
330
517
100
AcDbEntity
  8
0
100
AcDbVertex
100
AcDb2dVertex
 10
3.771966497283126
 20
2.681912152483284
 30
0.0
  0
VERTEX
  5
9F9
330
517
100
AcDbEntity
  8
0
100
AcDbVertex
100
AcDb2dVertex
 10
3.754636098188637
 20
2.683487643310056
 30
0.0
  0
SEQEND
  5
9FA
330
517
100
AcDbEntity
  8
0
  0
LINE
  5
51C
330
1E
100
AcDbEntity
  8
0
100
AcDbLine
 10
3.753060607361866
 20
2.07692367500297
 30
0.0
 11
3.754636098188637
 21
2.683487643310057
 31
0.0
  0
LINE
  5
51D
330
1E
100
AcDbEntity
  8
0
100
AcDbLine
 10
3.699493919251629
 20
2.688214115790371
 30
0.0
 11
3.701069410078401
 21
2.07692367500297
 31
0.0
  0
POLYLINE
  5
51E
330
1E
100
AcDbEntity
  8
0
100
AcDb2dPolyline
 66
     1
 10
0.0
 20
0.0
 30
0.0
  0
VERTEX
  5
9FB
330
51E
100
AcDbEntity
  8
0
100
AcDbVertex
100
AcDb2dVertex
 10
3.699493919251629
 20
2.688214115790371
 30
0.0
  0
VERTEX
  5
9FC
330
51E
100
AcDbEntity
  8
0
100
AcDbVertex
100
AcDb2dVertex
 10
3.603388978818558
 20
2.697667060751001
 30
0.0
  0
VERTEX
  5
9FD
330
51E
100
AcDbEntity
  8
0
100
AcDbVertex
100
AcDb2dVertex
 10
3.508859529212259
 20
2.703969024058087
 30
0.0
  0
SEQEND
  5
9FE
330
51E
100
AcDbEntity
  8
0
  0
POLYLINE
  5
523
330
1E
100
AcDbEntity
  8
0
100
AcDb2dPolyline
 66
     1
 10
0.0
 20
0.0
 30
0.0
  0
VERTEX
  5
9FF
330
523
100
AcDbEntity
  8
0
100
AcDbVertex
100
AcDb2dVertex
 10
3.434811460353992
 20
2.708695496538403
 30
0.0
  0
VERTEX
  5
A00
330
523
100
AcDbEntity
  8
0
100
AcDbVertex
100
AcDb2dVertex
 10
3.313498666692574
 20
2.716572950672261
 30
0.0
  0
VERTEX
  5
A01
330
523
100
AcDbEntity
  8
0
100
AcDbVertex
100
AcDb2dVertex
 10
3.193761363857929
 20
2.721299423152576
 30
0.0
  0
SEQEND
  5
A02
330
523
100
AcDbEntity
  8
0
  0
POLYLINE
  5
528
330
1E
100
AcDbEntity
  8
0
100
AcDb2dPolyline
 66
     1
 10
0.0
 20
0.0
 30
0.0
  0
VERTEX
  5
A03
330
528
100
AcDbEntity
  8
0
100
AcDbVertex
100
AcDb2dVertex
 10
2.446978711968164
 20
2.721299423152576
 30
0.0
  0
VERTEX
  5
A04
330
528
100
AcDbEntity
  8
0
100
AcDbVertex
100
AcDb2dVertex
 10
2.322514936653204
 20
2.716572950672261
 30
0.0
  0
VERTEX
  5
A05
330
528
100
AcDbEntity
  8
0
100
AcDbVertex
100
AcDb2dVertex
 10
2.198051161338244
 20
2.708695496538403
 30
0.0
  0
SEQEND
  5
A06
330
528
100
AcDbEntity
  8
0
  0
POLYLINE
  5
52D
330
1E
100
AcDbEntity
  8
0
100
AcDb2dPolyline
 66
     1
 10
0.0
 20
0.0
 30
0.0
  0
VERTEX
  5
A07
330
52D
100
AcDbEntity
  8
0
100
AcDbVertex
100
AcDb2dVertex
 10
2.124003092479976
 20
2.703969024058087
 30
0.0
  0
VERTEX
  5
A08
330
52D
100
AcDbEntity
  8
0
100
AcDbVertex
100
AcDb2dVertex
 10
2.032624624527219
 20
2.69609156992423
 30
0.0
  0
VERTEX
  5
A09
330
52D
100
AcDbEntity
  8
0
100
AcDbVertex
100
AcDb2dVertex
 10
1.941246156574464
 20
2.688214115790371
 30
0.0
  0
SEQEND
  5
A0A
330
52D
100
AcDbEntity
  8
0
  0
LINE
  5
532
330
1E
100
AcDbEntity
  8
0
100
AcDbLine
 10
1.939670665747692
 20
2.07692367500297
 30
0.0
 11
1.941246156574464
 21
2.688214115790371
 31
0.0
  0
LINE
  5
533
330
1E
100
AcDbEntity
  8
0
100
AcDbLine
 10
1.886103977637455
 20
2.683487643310057
 30
0.0
 11
1.887679468464227
 21
2.07692367500297
 31
0.0
  0
POLYLINE
  5
534
330
1E
100
AcDbEntity
  8
0
100
AcDb2dPolyline
 66
     1
 10
0.0
 20
0.0
 30
0.0
  0
VERTEX
  5
A0B
330
534
100
AcDbEntity
  8
0
100
AcDbVertex
100
AcDb2dVertex
 10
1.886103977637456
 20
2.683487643310056
 30
0.0
  0
VERTEX
  5
A0C
330
534
100
AcDbEntity
  8
0
100
AcDbVertex
100
AcDb2dVertex
 10
1.868773578542968
 20
2.681912152483284
 30
0.0
  0
VERTEX
  5
A0D
330
534
100
AcDbEntity
  8
0
100
AcDbVertex
100
AcDb2dVertex
 10
1.851443179448479
 20
2.680336661656513
 30
0.0
  0
SEQEND
  5
A0E
330
534
100
AcDbEntity
  8
0
  0
LINE
  5
539
330
1E
100
AcDbEntity
  8
0
100
AcDbLine
 10
1.849867688621708
 20
2.22029334023919
 30
0.0
 11
1.851443179448479
 21
2.680336661656513
 31
0.0
  0
LINE
  5
53A
330
1E
100
AcDbEntity
  8
0
100
AcDbLine
 10
1.796301000511472
 20
2.674034698349426
 30
0.0
 11
1.796301000511472
 21
2.376266932089583
 31
0.0
  0
POLYLINE
  5
53B
330
1E
100
AcDbEntity
  8
0
100
AcDb2dPolyline
 66
     1
 10
0.0
 20
0.0
 30
0.0
  0
VERTEX
  5
A0F
330
53B
100
AcDbEntity
  8
0
100
AcDbVertex
100
AcDb2dVertex
 10
1.796301000511472
 20
2.674034698349426
 30
0.0
  0
VERTEX
  5
A10
330
53B
100
AcDbEntity
  8
0
100
AcDbVertex
100
AcDb2dVertex
 10
1.671837225196511
 20
2.659855280908481
 30
0.0
  0
VERTEX
  5
A11
330
53B
100
AcDbEntity
  8
0
100
AcDbVertex
100
AcDb2dVertex
 10
1.548948940708322
 20
2.644100372640765
 30
0.0
  0
SEQEND
  5
A12
330
53B
100
AcDbEntity
  8
0
  0
POLYLINE
  5
540
330
1E
100
AcDbEntity
  8
0
100
AcDb2dPolyline
 66
     1
 10
0.0
 20
0.0
 30
0.0
  0
VERTEX
  5
A13
330
540
100
AcDbEntity
  8
0
100
AcDbVertex
100
AcDb2dVertex
 10
2.064134441062653
 20
2.076923675002969
 30
0.0
  0
VERTEX
  5
A14
330
540
100
AcDbEntity
  8
0
100
AcDbVertex
100
AcDb2dVertex
 10
2.070436404369738
 20
2.248652175121079
 30
0.0
  0
VERTEX
  5
A15
330
540
100
AcDbEntity
  8
0
100
AcDbVertex
100
AcDb2dVertex
 10
2.078313858503598
 20
2.510183652365174
 30
0.0
  0
SEQEND
  5
A16
330
540
100
AcDbEntity
  8
0
  0
POLYLINE
  5
545
330
1E
100
AcDbEntity
  8
0
100
AcDb2dPolyline
 66
     1
 10
0.0
 20
0.0
 30
0.0
  0
VERTEX
  5
A17
330
545
100
AcDbEntity
  8
0
100
AcDbVertex
100
AcDb2dVertex
 10
2.078313858503598
 20
2.510183652365174
 30
0.0
  0
VERTEX
  5
A18
330
545
100
AcDbEntity
  8
0
100
AcDbVertex
100
AcDb2dVertex
 10
2.087766803464227
 20
2.560599358821866
 30
0.0
  0
VERTEX
  5
A19
330
545
100
AcDbEntity
  8
0
100
AcDbVertex
100
AcDb2dVertex
 10
2.125578583306747
 20
2.626769973546276
 30
0.0
  0
SEQEND
  5
A1A
330
545
100
AcDbEntity
  8
0
  0
POLYLINE
  5
54A
330
1E
100
AcDbEntity
  8
0
100
AcDb2dPolyline
 66
     1
 10
0.0
 20
0.0
 30
0.0
  0
VERTEX
  5
A1B
330
54A
100
AcDbEntity
  8
0
100
AcDbVertex
100
AcDb2dVertex
 10
2.198051161338244
 20
2.678761170829741
 30
0.0
  0
VERTEX
  5
A1C
330
54A
100
AcDbEntity
  8
0
100
AcDbVertex
100
AcDb2dVertex
 10
2.216957051259504
 20
2.686638624963599
 30
0.0
  0
VERTEX
  5
A1D
330
54A
100
AcDbEntity
  8
0
100
AcDbVertex
100
AcDb2dVertex
 10
2.270523739369739
 20
2.694516079097458
 30
0.0
  0
SEQEND
  5
A1E
330
54A
100
AcDbEntity
  8
0
  0
LINE
  5
54F
330
1E
100
AcDbEntity
  8
0
100
AcDbLine
 10
2.270523739369739
 20
2.694516079097458
 30
0.0
 11
2.571442487283126
 21
2.694516079097458
 31
0.0
  0
LINE
  5
550
330
1E
100
AcDbEntity
  8
0
100
AcDbLine
 10
3.069297588542968
 20
2.694516079097458
 30
0.0
 11
3.370216336456353
 21
2.694516079097458
 31
0.0
  0
POLYLINE
  5
551
330
1E
100
AcDbEntity
  8
0
100
AcDb2dPolyline
 66
     1
 10
0.0
 20
0.0
 30
0.0
  0
VERTEX
  5
A1F
330
551
100
AcDbEntity
  8
0
100
AcDbVertex
100
AcDb2dVertex
 10
3.560850726495723
 20
2.510183652365174
 30
0.0
  0
VERTEX
  5
A20
330
551
100
AcDbEntity
  8
0
100
AcDbVertex
100
AcDb2dVertex
 10
3.552973272361866
 20
2.560599358821866
 30
0.0
  0
VERTEX
  5
A21
330
551
100
AcDbEntity
  8
0
100
AcDbVertex
100
AcDb2dVertex
 10
3.505708547558715
 20
2.634647427680135
 30
0.0
  0
SEQEND
  5
A22
330
551
100
AcDbEntity
  8
0
  0
POLYLINE
  5
556
330
1E
100
AcDbEntity
  8
0
100
AcDb2dPolyline
 66
     1
 10
0.0
 20
0.0
 30
0.0
  0
VERTEX
  5
A23
330
556
100
AcDbEntity
  8
0
100
AcDbVertex
100
AcDb2dVertex
 10
3.434811460353992
 20
2.681912152483284
 30
0.0
  0
VERTEX
  5
A24
330
556
100
AcDbEntity
  8
0
100
AcDbVertex
100
AcDb2dVertex
 10
3.422207533739818
 20
2.686638624963599
 30
0.0
  0
VERTEX
  5
A25
330
556
100
AcDbEntity
  8
0
100
AcDbVertex
100
AcDb2dVertex
 10
3.370216336456353
 20
2.694516079097458
 30
0.0
  0
SEQEND
  5
A26
330
556
100
AcDbEntity
  8
0
  0
POLYLINE
  5
55B
330
1E
100
AcDbEntity
  8
0
100
AcDb2dPolyline
 66
     1
 10
0.0
 20
0.0
 30
0.0
  0
VERTEX
  5
A27
330
55B
100
AcDbEntity
  8
0
100
AcDbVertex
100
AcDb2dVertex
 10
3.57660563476344
 20
2.076923675002969
 30
0.0
  0
VERTEX
  5
A28
330
55B
100
AcDbEntity
  8
0
100
AcDbVertex
100
AcDb2dVertex
 10
3.570303671456353
 20
2.248652175121079
 30
0.0
  0
VERTEX
  5
A29
330
55B
100
AcDbEntity
  8
0
100
AcDbVertex
100
AcDb2dVertex
 10
3.560850726495723
 20
2.510183652365174
 30
0.0
  0
SEQEND
  5
A2A
330
55B
100
AcDbEntity
  8
0
  0
POLYLINE
  5
560
330
1E
100
AcDbEntity
  8
0
100
AcDb2dPolyline
 66
     1
 10
0.0
 20
0.0
 30
0.0
  0
VERTEX
  5
A2B
330
560
100
AcDbEntity
  8
0
100
AcDbVertex
100
AcDb2dVertex
 10
4.090215644290998
 20
2.645675863467535
 30
0.0
  0
VERTEX
  5
A2C
330
560
100
AcDbEntity
  8
0
100
AcDbVertex
100
AcDb2dVertex
 10
3.96732735980281
 20
2.659855280908481
 30
0.0
  0
VERTEX
  5
A2D
330
560
100
AcDbEntity
  8
0
100
AcDbVertex
100
AcDb2dVertex
 10
3.844439075314621
 20
2.674034698349426
 30
0.0
  0
SEQEND
  5
A2E
330
560
100
AcDbEntity
  8
0
  0
LINE
  5
565
330
1E
100
AcDbEntity
  8
0
100
AcDbLine
 10
3.844439075314621
 20
2.376266932089583
 30
0.0
 11
3.844439075314621
 21
2.674034698349426
 31
0.0
  0
POLYLINE
  5
566
330
1E
100
AcDbEntity
  8
0
100
AcDb2dPolyline
 66
     1
 10
0.0
 20
0.0
 30
0.0
  0
VERTEX
  5
A2F
330
566
100
AcDbEntity
  8
0
100
AcDbVertex
100
AcDb2dVertex
 10
3.349734955708322
 20
2.076923675002969
 30
0.0
  0
VERTEX
  5
A30
330
566
100
AcDbEntity
  8
0
100
AcDbVertex
100
AcDb2dVertex
 10
3.34815946488155
 20
2.108433491538403
 30
0.0
  0
VERTEX
  5
A31
330
566
100
AcDbEntity
  8
0
100
AcDbVertex
100
AcDb2dVertex
 10
3.341857501574464
 20
2.231321776026592
 30
0.0
  0
SEQEND
  5
A32
330
566
100
AcDbEntity
  8
0
  0
POLYLINE
  5
56B
330
1E
100
AcDbEntity
  8
0
100
AcDb2dPolyline
 66
     1
 10
0.0
 20
0.0
 30
0.0
  0
VERTEX
  5
A33
330
56B
100
AcDbEntity
  8
0
100
AcDbVertex
100
AcDb2dVertex
 10
3.513586001692574
 20
2.508608161538402
 30
0.0
  0
VERTEX
  5
A34
330
56B
100
AcDbEntity
  8
0
100
AcDbVertex
100
AcDb2dVertex
 10
3.523038946653203
 20
2.221868831065961
 30
0.0
  0
VERTEX
  5
A35
330
56B
100
AcDbEntity
  8
0
100
AcDbVertex
100
AcDb2dVertex
 10
3.527765419133519
 20
2.076923675002969
 30
0.0
  0
SEQEND
  5
A36
330
56B
100
AcDbEntity
  8
0
  0
POLYLINE
  5
570
330
1E
100
AcDbEntity
  8
0
100
AcDb2dPolyline
 66
     1
 10
0.0
 20
0.0
 30
0.0
  0
VERTEX
  5
A37
330
570
100
AcDbEntity
  8
0
100
AcDbVertex
100
AcDb2dVertex
 10
3.513586001692574
 20
2.508608161538402
 30
0.0
  0
VERTEX
  5
A38
330
570
100
AcDbEntity
  8
0
100
AcDbVertex
100
AcDb2dVertex
 10
3.51043502003903
 20
2.532240523939977
 30
0.0
  0
VERTEX
  5
A39
330
570
100
AcDbEntity
  8
0
100
AcDbVertex
100
AcDb2dVertex
 10
3.505708547558715
 20
2.547995432207694
 30
0.0
  0
SEQEND
  5
A3A
330
570
100
AcDbEntity
  8
0
  0
POLYLINE
  5
575
330
1E
100
AcDbEntity
  8
0
100
AcDb2dPolyline
 66
     1
 10
0.0
 20
0.0
 30
0.0
  0
VERTEX
  5
A3B
330
575
100
AcDbEntity
  8
0
100
AcDbVertex
100
AcDb2dVertex
 10
3.436386951180762
 20
2.629920955199819
 30
0.0
  0
VERTEX
  5
A3C
330
575
100
AcDbEntity
  8
0
100
AcDbVertex
100
AcDb2dVertex
 10
3.422207533739818
 20
2.636222918506906
 30
0.0
  0
VERTEX
  5
A3D
330
575
100
AcDbEntity
  8
0
100
AcDbVertex
100
AcDb2dVertex
 10
3.400150662165015
 20
2.644100372640765
 30
0.0
  0
VERTEX
  5
A3E
330
575
100
AcDbEntity
  8
0
100
AcDbVertex
100
AcDb2dVertex
 10
3.370216336456353
 20
2.647251354294307
 30
0.0
  0
SEQEND
  5
A3F
330
575
100
AcDbEntity
  8
0
  0
LINE
  5
57B
330
1E
100
AcDbEntity
  8
0
100
AcDbLine
 10
3.370216336456353
 20
2.647251354294308
 30
0.0
 11
3.067722097716196
 21
2.647251354294308
 31
0.0
  0
LINE
  5
57C
330
1E
100
AcDbEntity
  8
0
100
AcDbLine
 10
2.573017978109897
 20
2.647251354294308
 30
0.0
 11
2.270523739369739
 21
2.647251354294308
 31
0.0
  0
LINE
  5
57D
330
1E
100
AcDbEntity
  8
0
100
AcDbLine
 10
2.127154074133519
 20
2.508608161538403
 30
0.0
 11
2.127154074133519
 21
2.511759143191946
 31
0.0
  0
POLYLINE
  5
57E
330
1E
100
AcDbEntity
  8
0
100
AcDb2dPolyline
 66
     1
 10
0.0
 20
0.0
 30
0.0
  0
VERTEX
  5
A40
330
57E
100
AcDbEntity
  8
0
100
AcDbVertex
100
AcDb2dVertex
 10
2.196475670511472
 20
2.626769973546276
 30
0.0
  0
VERTEX
  5
A41
330
57E
100
AcDbEntity
  8
0
100
AcDbVertex
100
AcDb2dVertex
 10
2.216957051259504
 20
2.636222918506906
 30
0.0
  0
VERTEX
  5
A42
330
57E
100
AcDbEntity
  8
0
100
AcDbVertex
100
AcDb2dVertex
 10
2.240589413661078
 20
2.644100372640765
 30
0.0
  0
VERTEX
  5
A43
330
57E
100
AcDbEntity
  8
0
100
AcDbVertex
100
AcDb2dVertex
 10
2.270523739369739
 20
2.647251354294307
 30
0.0
  0
SEQEND
  5
A44
330
57E
100
AcDbEntity
  8
0
  0
POLYLINE
  5
584
330
1E
100
AcDbEntity
  8
0
100
AcDb2dPolyline
 66
     1
 10
0.0
 20
0.0
 30
0.0
  0
VERTEX
  5
A45
330
584
100
AcDbEntity
  8
0
100
AcDbVertex
100
AcDb2dVertex
 10
2.127154074133519
 20
2.508608161538402
 30
0.0
  0
VERTEX
  5
A46
330
584
100
AcDbEntity
  8
0
100
AcDbVertex
100
AcDb2dVertex
 10
2.116125638346117
 20
2.221868831065961
 30
0.0
  0
VERTEX
  5
A47
330
584
100
AcDbEntity
  8
0
100
AcDbVertex
100
AcDb2dVertex
 10
2.111399165865803
 20
2.076923675002969
 30
0.0
  0
SEQEND
  5
A48
330
584
100
AcDbEntity
  8
0
  0
POLYLINE
  5
589
330
1E
100
AcDbEntity
  8
0
100
AcDb2dPolyline
 66
     1
 10
0.0
 20
0.0
 30
0.0
  0
VERTEX
  5
A49
330
589
100
AcDbEntity
  8
0
100
AcDbVertex
100
AcDb2dVertex
 10
2.291005120117771
 20
2.076923675002969
 30
0.0
  0
VERTEX
  5
A4A
330
589
100
AcDbEntity
  8
0
100
AcDbVertex
100
AcDb2dVertex
 10
2.292580610944542
 20
2.108433491538403
 30
0.0
  0
VERTEX
  5
A4B
330
589
100
AcDbEntity
  8
0
100
AcDbVertex
100
AcDb2dVertex
 10
2.298882574251629
 20
2.231321776026592
 30
0.0
  0
SEQEND
  5
A4C
330
589
100
AcDbEntity
  8
0
  0
POLYLINE
  5
58E
330
1E
100
AcDbEntity
  8
0
100
AcDb2dPolyline
 66
     1
 10
0.0
 20
0.0
 30
0.0
  0
VERTEX
  5
A4D
330
58E
100
AcDbEntity
  8
0
100
AcDbVertex
100
AcDb2dVertex
 10
2.506847363385487
 20
2.412503221105331
 30
0.0
  0
VERTEX
  5
A4E
330
58E
100
AcDbEntity
  8
0
100
AcDbVertex
100
AcDb2dVertex
 10
2.439101257834306
 20
2.401474785317929
 30
0.0
  0
VERTEX
  5
A4F
330
58E
100
AcDbEntity
  8
0
100
AcDbVertex
100
AcDb2dVertex
 10
2.377657115590212
 20
2.369964968782497
 30
0.0
  0
VERTEX
  5
A50
330
58E
100
AcDbEntity
  8
0
100
AcDbVertex
100
AcDb2dVertex
 10
2.350873771535093
 20
2.346332606380922
 30
0.0
  0
VERTEX
  5
A51
330
58E
100
AcDbEntity
  8
0
100
AcDbVertex
100
AcDb2dVertex
 10
2.32881689996029
 20
2.319549262325804
 30
0.0
  0
VERTEX
  5
A52
330
58E
100
AcDbEntity
  8
0
100
AcDbVertex
100
AcDb2dVertex
 10
2.303609046731945
 20
2.256529629254937
 30
0.0
  0
VERTEX
  5
A53
330
58E
100
AcDbEntity
  8
0
100
AcDbVertex
100
AcDb2dVertex
 10
2.298882574251629
 20
2.231321776026592
 30
0.0
  0
SEQEND
  5
A54
330
58E
100
AcDbEntity
  8
0
  0
LINE
  5
597
330
1E
100
AcDbEntity
  8
0
100
AcDbLine
 10
2.506847363385487
 20
2.412503221105332
 30
0.0
 11
2.662820955235881
 21
2.412503221105332
 31
0.0
  0
LINE
  5
598
330
1E
100
AcDbEntity
  8
0
100
AcDbLine
 10
2.970041666456353
 20
2.412503221105332
 30
0.0
 11
3.133892712440606
 21
2.412503221105332
 31
0.0
  0
POLYLINE
  5
599
330
1E
100
AcDbEntity
  8
0
100
AcDb2dPolyline
 66
     1
 10
0.0
 20
0.0
 30
0.0
  0
VERTEX
  5
A55
330
599
100
AcDbEntity
  8
0
100
AcDbVertex
100
AcDb2dVertex
 10
3.133892712440606
 20
2.412503221105331
 30
0.0
  0
VERTEX
  5
A56
330
599
100
AcDbEntity
  8
0
100
AcDbVertex
100
AcDb2dVertex
 10
3.201638817991787
 20
2.401474785317929
 30
0.0
  0
VERTEX
  5
A57
330
599
100
AcDbEntity
  8
0
100
AcDbVertex
100
AcDb2dVertex
 10
3.263082960235881
 20
2.369964968782497
 30
0.0
  0
VERTEX
  5
A58
330
599
100
AcDbEntity
  8
0
100
AcDbVertex
100
AcDb2dVertex
 10
3.289866304290999
 20
2.346332606380922
 30
0.0
  0
VERTEX
  5
A59
330
599
100
AcDbEntity
  8
0
100
AcDbVertex
100
AcDb2dVertex
 10
3.31034768503903
 20
2.319549262325804
 30
0.0
  0
VERTEX
  5
A5A
330
599
100
AcDbEntity
  8
0
100
AcDbVertex
100
AcDb2dVertex
 10
3.337131029094149
 20
2.256529629254937
 30
0.0
  0
VERTEX
  5
A5B
330
599
100
AcDbEntity
  8
0
100
AcDbVertex
100
AcDb2dVertex
 10
3.341857501574464
 20
2.231321776026592
 30
0.0
  0
SEQEND
  5
A5C
330
599
100
AcDbEntity
  8
0
  0
POLYLINE
  5
5A2
330
1E
100
AcDbEntity
  8
0
100
AcDb2dPolyline
 66
     1
 10
0.0
 20
0.0
 30
0.0
  0
VERTEX
  5
A5D
330
5A2
100
AcDbEntity
  8
0
100
AcDbVertex
100
AcDb2dVertex
 10
4.228858837046905
 20
2.91666028567226
 30
0.0
  0
VERTEX
  5
A5E
330
5A2
100
AcDbEntity
  8
0
100
AcDbVertex
100
AcDb2dVertex
 10
3.877524382676826
 20
2.960774028821867
 30
0.0
  0
VERTEX
  5
A5F
330
5A2
100
AcDbEntity
  8
0
100
AcDbVertex
100
AcDb2dVertex
 10
3.526189928306747
 20
2.990708354530528
 30
0.0
  0
VERTEX
  5
A60
330
5A2
100
AcDbEntity
  8
0
100
AcDbVertex
100
AcDb2dVertex
 10
3.173279983109897
 20
3.009614244451788
 30
0.0
  0
VERTEX
  5
A61
330
5A2
100
AcDbEntity
  8
0
100
AcDbVertex
100
AcDb2dVertex
 10
2.820370037913046
 20
3.015916207758875
 30
0.0
  0
VERTEX
  5
A62
330
5A2
100
AcDbEntity
  8
0
100
AcDbVertex
100
AcDb2dVertex
 10
2.467460092716196
 20
3.009614244451788
 30
0.0
  0
VERTEX
  5
A63
330
5A2
100
AcDbEntity
  8
0
100
AcDbVertex
100
AcDb2dVertex
 10
2.114550147519346
 20
2.990708354530528
 30
0.0
  0
VERTEX
  5
A64
330
5A2
100
AcDbEntity
  8
0
100
AcDbVertex
100
AcDb2dVertex
 10
1.763215693149267
 20
2.960774028821867
 30
0.0
  0
VERTEX
  5
A65
330
5A2
100
AcDbEntity
  8
0
100
AcDbVertex
100
AcDb2dVertex
 10
1.411881238779189
 20
2.91666028567226
 30
0.0
  0
SEQEND
  5
A66
330
5A2
100
AcDbEntity
  8
0
  0
LINE
  5
5AD
330
1E
100
AcDbEntity
  8
0
100
AcDbLine
 10
4.090215644290999
 20
2.721299423152576
 30
0.0
 11
1.548948940708322
 21
2.721299423152576
 31
0.0
  0
LINE
  5
5AE
330
1E
100
AcDbEntity
  8
0
100
AcDbLine
 10
4.449427552794936
 20
1.785457872050213
 30
0.0
 11
4.381681447243756
 21
2.751233748861237
 31
0.0
  0
POLYLINE
  5
5AF
330
1E
100
AcDbEntity
  8
0
100
AcDb2dPolyline
 66
     1
 10
0.0
 20
0.0
 30
0.0
  0
VERTEX
  5
A67
330
5AF
100
AcDbEntity
  8
0
100
AcDbVertex
100
AcDb2dVertex
 10
4.381681447243756
 20
2.751233748861237
 30
0.0
  0
VERTEX
  5
A68
330
5AF
100
AcDbEntity
  8
0
100
AcDbVertex
100
AcDb2dVertex
 10
4.372228502283125
 20
2.798498473664386
 30
0.0
  0
VERTEX
  5
A69
330
5AF
100
AcDbEntity
  8
0
100
AcDbVertex
100
AcDb2dVertex
 10
4.350171630708322
 20
2.842612216813992
 30
0.0
  0
VERTEX
  5
A6A
330
5AF
100
AcDbEntity
  8
0
100
AcDbVertex
100
AcDb2dVertex
 10
4.317086323346117
 20
2.87727301500297
 30
0.0
  0
VERTEX
  5
A6B
330
5AF
100
AcDbEntity
  8
0
100
AcDbVertex
100
AcDb2dVertex
 10
4.274548071023283
 20
2.904056359058087
 30
0.0
  0
VERTEX
  5
A6C
330
5AF
100
AcDbEntity
  8
0
100
AcDbVertex
100
AcDb2dVertex
 10
4.228858837046905
 20
2.91666028567226
 30
0.0
  0
SEQEND
  5
A6D
330
5AF
100
AcDbEntity
  8
0
  0
POLYLINE
  5
5B7
330
1E
100
AcDbEntity
  8
0
100
AcDb2dPolyline
 66
     1
 10
0.0
 20
0.0
 30
0.0
  0
VERTEX
  5
A6E
330
5B7
100
AcDbEntity
  8
0
100
AcDbVertex
100
AcDb2dVertex
 10
1.411881238779189
 20
2.91666028567226
 30
0.0
  0
VERTEX
  5
A6F
330
5B7
100
AcDbEntity
  8
0
100
AcDbVertex
100
AcDb2dVertex
 10
1.364616513976038
 20
2.904056359058087
 30
0.0
  0
VERTEX
  5
A70
330
5B7
100
AcDbEntity
  8
0
100
AcDbVertex
100
AcDb2dVertex
 10
1.323653752479976
 20
2.87727301500297
 30
0.0
  0
VERTEX
  5
A71
330
5B7
100
AcDbEntity
  8
0
100
AcDbVertex
100
AcDb2dVertex
 10
1.290568445117771
 20
2.842612216813992
 30
0.0
  0
VERTEX
  5
A72
330
5B7
100
AcDbEntity
  8
0
100
AcDbVertex
100
AcDb2dVertex
 10
1.268511573542968
 20
2.798498473664386
 30
0.0
  0
VERTEX
  5
A73
330
5B7
100
AcDbEntity
  8
0
100
AcDbVertex
100
AcDb2dVertex
 10
1.257483137755566
 20
2.751233748861237
 30
0.0
  0
SEQEND
  5
A74
330
5B7
100
AcDbEntity
  8
0
  0
LINE
  5
5BF
330
1E
100
AcDbEntity
  8
0
100
AcDbLine
 10
1.189737032204385
 20
1.785457872050213
 30
0.0
 11
1.257483137755566
 21
2.751233748861237
 31
0.0
  0
LINE
  5
5C0
330
1E
100
AcDbEntity
  8
0
100
AcDbLine
 10
1.189737032204385
 20
1.785457872050213
 30
0.0
 11
1.429211637873676
 21
1.785457872050213
 31
0.0
  0
LINE
  5
5C1
330
1E
100
AcDbEntity
  8
0
100
AcDbLine
 10
1.429211637873676
 20
1.785457872050213
 30
0.0
 11
1.433938110353991
 21
2.080074656656513
 31
0.0
  0
LINE
  5
5C2
330
1E
100
AcDbEntity
  8
0
100
AcDbLine
 10
1.433938110353991
 20
2.080074656656513
 30
0.0
 11
1.544222468228007
 21
2.080074656656513
 31
0.0
  0
LINE
  5
5C3
330
1E
100
AcDbEntity
  8
0
100
AcDbLine
 10
1.544222468228007
 20
2.080074656656513
 30
0.0
 11
1.548948940708322
 21
2.721299423152576
 31
0.0
  0
LINE
  5
5C4
330
1E
100
AcDbEntity
  8
0
100
AcDbLine
 10
4.096517607598086
 20
2.080074656656513
 30
0.0
 11
4.090215644290999
 21
2.721299423152576
 31
0.0
  0
LINE
  5
5C5
330
1E
100
AcDbEntity
  8
0
100
AcDbLine
 10
4.205226474645329
 20
2.080074656656513
 30
0.0
 11
4.096517607598086
 21
2.080074656656513
 31
0.0
  0
LINE
  5
5C6
330
1E
100
AcDbEntity
  8
0
100
AcDbLine
 10
4.211528437952417
 20
1.785457872050213
 30
0.0
 11
4.205226474645329
 21
2.080074656656513
 31
0.0
  0
LINE
  5
5C7
330
1E
100
AcDbEntity
  8
0
100
AcDbLine
 10
4.211528437952417
 20
1.785457872050213
 30
0.0
 11
4.449427552794936
 21
1.785457872050213
 31
0.0
  0
LINE
  5
5C8
330
1E
100
AcDbEntity
  8
0
100
AcDbLine
 10
4.030346992873676
 20
2.943443629727379
 30
0.0
 11
4.030346992873676
 21
2.952896574688009
 31
0.0
  0
POLYLINE
  5
5C9
330
1E
100
AcDbEntity
  8
0
100
AcDb2dPolyline
 66
     1
 10
0.0
 20
0.0
 30
0.0
  0
VERTEX
  5
A75
330
5C9
100
AcDbEntity
  8
0
100
AcDbVertex
100
AcDb2dVertex
 10
4.030346992873676
 20
2.952896574688009
 30
0.0
  0
VERTEX
  5
A76
330
5C9
100
AcDbEntity
  8
0
100
AcDbVertex
100
AcDb2dVertex
 10
3.628596832046905
 20
2.993859336184072
 30
0.0
  0
VERTEX
  5
A77
330
5C9
100
AcDbEntity
  8
0
100
AcDbVertex
100
AcDb2dVertex
 10
3.225271180393361
 20
3.017491698585646
 30
0.0
  0
VERTEX
  5
A78
330
5C9
100
AcDbEntity
  8
0
100
AcDbVertex
100
AcDb2dVertex
 10
2.820370037913046
 20
3.026944643546277
 30
0.0
  0
VERTEX
  5
A79
330
5C9
100
AcDbEntity
  8
0
100
AcDbVertex
100
AcDb2dVertex
 10
2.415468895432731
 20
3.017491698585646
 30
0.0
  0
VERTEX
  5
A7A
330
5C9
100
AcDbEntity
  8
0
100
AcDbVertex
100
AcDb2dVertex
 10
2.012143243779188
 20
2.993859336184072
 30
0.0
  0
VERTEX
  5
A7B
330
5C9
100
AcDbEntity
  8
0
100
AcDbVertex
100
AcDb2dVertex
 10
1.610393082952417
 20
2.952896574688009
 30
0.0
  0
SEQEND
  5
A7C
330
5C9
100
AcDbEntity
  8
0
  0
LINE
  5
5D2
330
1E
100
AcDbEntity
  8
0
100
AcDbLine
 10
1.610393082952417
 20
2.952896574688009
 30
0.0
 11
1.610393082952417
 21
2.943443629727379
 31
0.0
  0
POLYLINE
  5
5D3
330
1E
100
AcDbEntity
  8
0
100
AcDb2dPolyline
 66
     1
 10
0.0
 20
0.0
 30
0.0
  0
VERTEX
  5
A7D
330
5D3
100
AcDbEntity
  8
0
100
AcDbVertex
100
AcDb2dVertex
 10
4.030346992873676
 20
2.952896574688009
 30
0.0
  0
VERTEX
  5
A7E
330
5D3
100
AcDbEntity
  8
0
100
AcDbVertex
100
AcDb2dVertex
 10
4.031922483700448
 20
2.952896574688009
 30
0.0
  0
VERTEX
  5
A7F
330
5D3
100
AcDbEntity
  8
0
100
AcDbVertex
100
AcDb2dVertex
 10
4.036648956180763
 20
2.951321083861237
 30
0.0
  0
VERTEX
  5
A80
330
5D3
100
AcDbEntity
  8
0
100
AcDbVertex
100
AcDb2dVertex
 10
4.041375428661077
 20
2.951321083861237
 30
0.0
  0
VERTEX
  5
A81
330
5D3
100
AcDbEntity
  8
0
100
AcDbVertex
100
AcDb2dVertex
 10
4.044526410314621
 20
2.951321083861237
 30
0.0
  0
VERTEX
  5
A82
330
5D3
100
AcDbEntity
  8
0
100
AcDbVertex
100
AcDb2dVertex
 10
4.046101901141392
 20
2.951321083861237
 30
0.0
  0
SEQEND
  5
A83
330
5D3
100
AcDbEntity
  8
0
  0
POLYLINE
  5
5DB
330
1E
100
AcDbEntity
  8
0
100
AcDb2dPolyline
 66
     1
 10
0.0
 20
0.0
 30
0.0
  0
VERTEX
  5
A84
330
5DB
100
AcDbEntity
  8
0
100
AcDbVertex
100
AcDb2dVertex
 10
1.5946381746847
 20
2.951321083861237
 30
0.0
  0
VERTEX
  5
A85
330
5DB
100
AcDbEntity
  8
0
100
AcDbVertex
100
AcDb2dVertex
 10
1.596213665511472
 20
2.951321083861237
 30
0.0
  0
VERTEX
  5
A86
330
5DB
100
AcDbEntity
  8
0
100
AcDbVertex
100
AcDb2dVertex
 10
1.600940137991787
 20
2.951321083861237
 30
0.0
  0
VERTEX
  5
A87
330
5DB
100
AcDbEntity
  8
0
100
AcDbVertex
100
AcDb2dVertex
 10
1.60409111964533
 20
2.952896574688009
 30
0.0
  0
VERTEX
  5
A88
330
5DB
100
AcDbEntity
  8
0
100
AcDbVertex
100
AcDb2dVertex
 10
1.610393082952417
 20
2.952896574688009
 30
0.0
  0
SEQEND
  5
A89
330
5DB
100
AcDbEntity
  8
0
  0
LINE
  5
5E2
330
1E
100
AcDbEntity
  8
0
100
AcDbLine
 10
2.440676748661078
 20
2.07692367500297
 30
0.0
 11
2.443827730314621
 21
2.136792326420292
 31
0.0
  0
POLYLINE
  5
5E3
330
1E
100
AcDbEntity
  8
0
100
AcDb2dPolyline
 66
     1
 10
0.0
 20
0.0
 30
0.0
  0
VERTEX
  5
A8A
330
5E3
100
AcDbEntity
  8
0
100
AcDbVertex
100
AcDb2dVertex
 10
2.412317913779189
 20
2.150971743861237
 30
0.0
  0
VERTEX
  5
A8B
330
5E3
100
AcDbEntity
  8
0
100
AcDbVertex
100
AcDb2dVertex
 10
2.429648312873676
 20
2.143094289727379
 30
0.0
  0
VERTEX
  5
A8C
330
5E3
100
AcDbEntity
  8
0
100
AcDbVertex
100
AcDb2dVertex
 10
2.443827730314621
 20
2.136792326420292
 30
0.0
  0
SEQEND
  5
A8D
330
5E3
100
AcDbEntity
  8
0
  0
POLYLINE
  5
5E8
330
1E
100
AcDbEntity
  8
0
100
AcDb2dPolyline
 66
     1
 10
0.0
 20
0.0
 30
0.0
  0
VERTEX
  5
A8E
330
5E8
100
AcDbEntity
  8
0
100
AcDbVertex
100
AcDb2dVertex
 10
2.409166932125645
 20
2.076923675002969
 30
0.0
  0
VERTEX
  5
A8F
330
5E8
100
AcDbEntity
  8
0
100
AcDbVertex
100
AcDb2dVertex
 10
2.410742422952417
 20
2.117886436499033
 30
0.0
  0
VERTEX
  5
A90
330
5E8
100
AcDbEntity
  8
0
100
AcDbVertex
100
AcDb2dVertex
 10
2.412317913779189
 20
2.150971743861237
 30
0.0
  0
SEQEND
  5
A91
330
5E8
100
AcDbEntity
  8
0
  0
POLYLINE
  5
5ED
330
1E
100
AcDbEntity
  8
0
100
AcDb2dPolyline
 66
     1
 10
0.0
 20
0.0
 30
0.0
  0
VERTEX
  5
A92
330
5ED
100
AcDbEntity
  8
0
100
AcDbVertex
100
AcDb2dVertex
 10
2.475337546850054
 20
2.144669780554151
 30
0.0
  0
VERTEX
  5
A93
330
5ED
100
AcDbEntity
  8
0
100
AcDbVertex
100
AcDb2dVertex
 10
2.458007147755566
 20
2.139943308073836
 30
0.0
  0
VERTEX
  5
A94
330
5ED
100
AcDbEntity
  8
0
100
AcDbVertex
100
AcDb2dVertex
 10
2.443827730314621
 20
2.136792326420292
 30
0.0
  0
SEQEND
  5
A95
330
5ED
100
AcDbEntity
  8
0
  0
LINE
  5
5F2
330
1E
100
AcDbEntity
  8
0
100
AcDbLine
 10
2.475337546850054
 20
2.14466978055415
 30
0.0
 11
2.472186565196511
 21
2.07692367500297
 31
0.0
  0
POLYLINE
  5
5F3
330
1E
100
AcDbEntity
  8
0
100
AcDb2dPolyline
 66
     1
 10
0.0
 20
0.0
 30
0.0
  0
VERTEX
  5
A96
330
5F3
100
AcDbEntity
  8
0
100
AcDbVertex
100
AcDb2dVertex
 10
3.086627987637456
 20
2.240774720987221
 30
0.0
  0
VERTEX
  5
A97
330
5F3
100
AcDbEntity
  8
0
100
AcDbVertex
100
AcDb2dVertex
 10
3.086627987637456
 20
2.225019812719505
 30
0.0
  0
VERTEX
  5
A98
330
5F3
100
AcDbEntity
  8
0
100
AcDbVertex
100
AcDb2dVertex
 10
3.086627987637456
 20
2.21084039527856
 30
0.0
  0
SEQEND
  5
A99
330
5F3
100
AcDbEntity
  8
0
  0
LINE
  5
5F8
330
1E
100
AcDbEntity
  8
0
100
AcDbLine
 10
2.973192648109897
 20
2.240774720987221
 30
0.0
 11
3.086627987637456
 21
2.240774720987221
 31
0.0
  0
POLYLINE
  5
5F9
330
1E
100
AcDbEntity
  8
0
100
AcDb2dPolyline
 66
     1
 10
0.0
 20
0.0
 30
0.0
  0
VERTEX
  5
A9A
330
5F9
100
AcDbEntity
  8
0
100
AcDbVertex
100
AcDb2dVertex
 10
3.086627987637456
 20
2.21084039527856
 30
0.0
  0
VERTEX
  5
A9B
330
5F9
100
AcDbEntity
  8
0
100
AcDbVertex
100
AcDb2dVertex
 10
2.98579657472407
 20
2.21084039527856
 30
0.0
  0
VERTEX
  5
A9C
330
5F9
100
AcDbEntity
  8
0
100
AcDbVertex
100
AcDb2dVertex
 10
2.973192648109897
 20
2.21084039527856
 30
0.0
  0
SEQEND
  5
A9D
330
5F9
100
AcDbEntity
  8
0
  0
POLYLINE
  5
5FE
330
1E
100
AcDbEntity
  8
0
100
AcDb2dPolyline
 66
     1
 10
0.0
 20
0.0
 30
0.0
  0
VERTEX
  5
A9E
330
5FE
100
AcDbEntity
  8
0
100
AcDbVertex
100
AcDb2dVertex
 10
3.228422162046905
 20
2.150971743861237
 30
0.0
  0
VERTEX
  5
A9F
330
5FE
100
AcDbEntity
  8
0
100
AcDbVertex
100
AcDb2dVertex
 10
3.211091762952416
 20
2.143094289727379
 30
0.0
  0
VERTEX
  5
AA0
330
5FE
100
AcDbEntity
  8
0
100
AcDbVertex
100
AcDb2dVertex
 10
3.196912345511472
 20
2.136792326420292
 30
0.0
  0
SEQEND
  5
AA1
330
5FE
100
AcDbEntity
  8
0
  0
LINE
  5
603
330
1E
100
AcDbEntity
  8
0
100
AcDbLine
 10
3.200063327165016
 20
2.07692367500297
 30
0.0
 11
3.196912345511472
 21
2.136792326420292
 31
0.0
  0
LINE
  5
604
330
1E
100
AcDbEntity
  8
0
100
AcDbLine
 10
3.228422162046905
 20
2.150971743861237
 30
0.0
 11
3.231573143700448
 21
2.07692367500297
 31
0.0
  0
POLYLINE
  5
605
330
1E
100
AcDbEntity
  8
0
100
AcDb2dPolyline
 66
     1
 10
0.0
 20
0.0
 30
0.0
  0
VERTEX
  5
AA2
330
605
100
AcDbEntity
  8
0
100
AcDbVertex
100
AcDb2dVertex
 10
3.165402528976039
 20
2.144669780554151
 30
0.0
  0
VERTEX
  5
AA3
330
605
100
AcDbEntity
  8
0
100
AcDbVertex
100
AcDb2dVertex
 10
3.182732928070527
 20
2.139943308073836
 30
0.0
  0
VERTEX
  5
AA4
330
605
100
AcDbEntity
  8
0
100
AcDbVertex
100
AcDb2dVertex
 10
3.196912345511472
 20
2.136792326420292
 30
0.0
  0
SEQEND
  5
AA5
330
605
100
AcDbEntity
  8
0
  0
POLYLINE
  5
60A
330
1E
100
AcDbEntity
  8
0
100
AcDb2dPolyline
 66
     1
 10
0.0
 20
0.0
 30
0.0
  0
VERTEX
  5
AA6
330
60A
100
AcDbEntity
  8
0
100
AcDbVertex
100
AcDb2dVertex
 10
3.168553510629582
 20
2.076923675002969
 30
0.0
  0
VERTEX
  5
AA7
330
60A
100
AcDbEntity
  8
0
100
AcDbVertex
100
AcDb2dVertex
 10
3.16697801980281
 20
2.111584473191946
 30
0.0
  0
VERTEX
  5
AA8
330
60A
100
AcDbEntity
  8
0
100
AcDbVertex
100
AcDb2dVertex
 10
3.165402528976039
 20
2.144669780554151
 30
0.0
  0
SEQEND
  5
AA9
330
60A
100
AcDbEntity
  8
0
  0
POLYLINE
  5
60F
330
1E
100
AcDbEntity
  8
0
100
AcDb2dPolyline
 66
     1
 10
0.0
 20
0.0
 30
0.0
  0
VERTEX
  5
AAA
330
60F
100
AcDbEntity
  8
0
100
AcDbVertex
100
AcDb2dVertex
 10
3.196912345511472
 20
2.136792326420292
 30
0.0
  0
VERTEX
  5
AAB
330
60F
100
AcDbEntity
  8
0
100
AcDbVertex
100
AcDb2dVertex
 10
3.184308418897298
 20
2.18248156039667
 30
0.0
  0
VERTEX
  5
AAC
330
60F
100
AcDbEntity
  8
0
100
AcDbVertex
100
AcDb2dVertex
 10
3.155949584015409
 20
2.217142358585646
 30
0.0
  0
VERTEX
  5
AAD
330
60F
100
AcDbEntity
  8
0
100
AcDbVertex
100
AcDb2dVertex
 10
3.122864276653204
 20
2.234472757680134
 30
0.0
  0
VERTEX
  5
AAE
330
60F
100
AcDbEntity
  8
0
100
AcDbVertex
100
AcDb2dVertex
 10
3.086627987637456
 20
2.240774720987221
 30
0.0
  0
SEQEND
  5
AAF
330
60F
100
AcDbEntity
  8
0
  0
POLYLINE
  5
616
330
1E
100
AcDbEntity
  8
0
100
AcDb2dPolyline
 66
     1
 10
0.0
 20
0.0
 30
0.0
  0
VERTEX
  5
AB0
330
616
100
AcDbEntity
  8
0
100
AcDbVertex
100
AcDb2dVertex
 10
3.165402528976039
 20
2.144669780554151
 30
0.0
  0
VERTEX
  5
AB1
330
616
100
AcDbEntity
  8
0
100
AcDbVertex
100
AcDb2dVertex
 10
3.160676056495724
 20
2.16357567047541
 30
0.0
  0
VERTEX
  5
AB2
330
616
100
AcDbEntity
  8
0
100
AcDbVertex
100
AcDb2dVertex
 10
3.14807212988155
 20
2.185632542050213
 30
0.0
  0
VERTEX
  5
AB3
330
616
100
AcDbEntity
  8
0
100
AcDbVertex
100
AcDb2dVertex
 10
3.124439767479976
 20
2.202962941144701
 30
0.0
  0
VERTEX
  5
AB4
330
616
100
AcDbEntity
  8
0
100
AcDbVertex
100
AcDb2dVertex
 10
3.097656423424858
 20
2.21084039527856
 30
0.0
  0
VERTEX
  5
AB5
330
616
100
AcDbEntity
  8
0
100
AcDbVertex
100
AcDb2dVertex
 10
3.086627987637456
 20
2.21084039527856
 30
0.0
  0
SEQEND
  5
AB6
330
616
100
AcDbEntity
  8
0
  0
POLYLINE
  5
61E
330
1E
100
AcDbEntity
  8
0
100
AcDb2dPolyline
 66
     1
 10
0.0
 20
0.0
 30
0.0
  0
VERTEX
  5
AB7
330
61E
100
AcDbEntity
  8
0
100
AcDbVertex
100
AcDb2dVertex
 10
3.086627987637456
 20
2.273860028349426
 30
0.0
  0
VERTEX
  5
AB8
330
61E
100
AcDbEntity
  8
0
100
AcDbVertex
100
AcDb2dVertex
 10
3.018881882086275
 20
2.273860028349426
 30
0.0
  0
VERTEX
  5
AB9
330
61E
100
AcDbEntity
  8
0
100
AcDbVertex
100
AcDb2dVertex
 10
2.973192648109897
 20
2.273860028349426
 30
0.0
  0
SEQEND
  5
ABA
330
61E
100
AcDbEntity
  8
0
  0
POLYLINE
  5
623
330
1E
100
AcDbEntity
  8
0
100
AcDb2dPolyline
 66
     1
 10
0.0
 20
0.0
 30
0.0
  0
VERTEX
  5
ABB
330
623
100
AcDbEntity
  8
0
100
AcDbVertex
100
AcDb2dVertex
 10
3.086627987637456
 20
2.240774720987221
 30
0.0
  0
VERTEX
  5
ABC
330
623
100
AcDbEntity
  8
0
100
AcDbVertex
100
AcDb2dVertex
 10
3.086627987637456
 20
2.259680610908481
 30
0.0
  0
VERTEX
  5
ABD
330
623
100
AcDbEntity
  8
0
100
AcDbVertex
100
AcDb2dVertex
 10
3.086627987637456
 20
2.273860028349426
 30
0.0
  0
SEQEND
  5
ABE
330
623
100
AcDbEntity
  8
0
  0
POLYLINE
  5
628
330
1E
100
AcDbEntity
  8
0
100
AcDb2dPolyline
 66
     1
 10
0.0
 20
0.0
 30
0.0
  0
VERTEX
  5
ABF
330
628
100
AcDbEntity
  8
0
100
AcDbVertex
100
AcDb2dVertex
 10
3.086627987637456
 20
2.273860028349426
 30
0.0
  0
VERTEX
  5
AC0
330
628
100
AcDbEntity
  8
0
100
AcDbVertex
100
AcDb2dVertex
 10
3.13861918492092
 20
2.265982574215568
 30
0.0
  0
VERTEX
  5
AC1
330
628
100
AcDbEntity
  8
0
100
AcDbVertex
100
AcDb2dVertex
 10
3.178006455590212
 20
2.242350211813992
 30
0.0
  0
VERTEX
  5
AC2
330
628
100
AcDbEntity
  8
0
100
AcDbVertex
100
AcDb2dVertex
 10
3.207940781298873
 20
2.209264904451788
 30
0.0
  0
VERTEX
  5
AC3
330
628
100
AcDbEntity
  8
0
100
AcDbVertex
100
AcDb2dVertex
 10
3.225271180393361
 20
2.168302142955725
 30
0.0
  0
VERTEX
  5
AC4
330
628
100
AcDbEntity
  8
0
100
AcDbVertex
100
AcDb2dVertex
 10
3.228422162046905
 20
2.150971743861237
 30
0.0
  0
SEQEND
  5
AC5
330
628
100
AcDbEntity
  8
0
  0
LINE
  5
630
330
1E
100
AcDbEntity
  8
0
100
AcDbLine
 10
2.659669973582338
 20
2.240774720987221
 30
0.0
 11
2.552536597361866
 21
2.240774720987221
 31
0.0
  0
POLYLINE
  5
631
330
1E
100
AcDbEntity
  8
0
100
AcDb2dPolyline
 66
     1
 10
0.0
 20
0.0
 30
0.0
  0
VERTEX
  5
AC6
330
631
100
AcDbEntity
  8
0
100
AcDbVertex
100
AcDb2dVertex
 10
2.552536597361866
 20
2.240774720987221
 30
0.0
  0
VERTEX
  5
AC7
330
631
100
AcDbEntity
  8
0
100
AcDbVertex
100
AcDb2dVertex
 10
2.552536597361866
 20
2.225019812719505
 30
0.0
  0
VERTEX
  5
AC8
330
631
100
AcDbEntity
  8
0
100
AcDbVertex
100
AcDb2dVertex
 10
2.552536597361866
 20
2.21084039527856
 30
0.0
  0
SEQEND
  5
AC9
330
631
100
AcDbEntity
  8
0
  0
POLYLINE
  5
636
330
1E
100
AcDbEntity
  8
0
100
AcDb2dPolyline
 66
     1
 10
0.0
 20
0.0
 30
0.0
  0
VERTEX
  5
ACA
330
636
100
AcDbEntity
  8
0
100
AcDbVertex
100
AcDb2dVertex
 10
2.658094482755566
 20
2.21084039527856
 30
0.0
  0
VERTEX
  5
ACB
330
636
100
AcDbEntity
  8
0
100
AcDbVertex
100
AcDb2dVertex
 10
2.615556230432731
 20
2.21084039527856
 30
0.0
  0
VERTEX
  5
ACC
330
636
100
AcDbEntity
  8
0
100
AcDbVertex
100
AcDb2dVertex
 10
2.552536597361866
 20
2.21084039527856
 30
0.0
  0
SEQEND
  5
ACD
330
636
100
AcDbEntity
  8
0
  0
POLYLINE
  5
63B
330
1E
100
AcDbEntity
  8
0
100
AcDb2dPolyline
 66
     1
 10
0.0
 20
0.0
 30
0.0
  0
VERTEX
  5
ACE
330
63B
100
AcDbEntity
  8
0
100
AcDbVertex
100
AcDb2dVertex
 10
2.443827730314621
 20
2.136792326420292
 30
0.0
  0
VERTEX
  5
ACF
330
63B
100
AcDbEntity
  8
0
100
AcDbVertex
100
AcDb2dVertex
 10
2.454856166102022
 20
2.18248156039667
 30
0.0
  0
VERTEX
  5
AD0
330
63B
100
AcDbEntity
  8
0
100
AcDbVertex
100
AcDb2dVertex
 10
2.484790491810684
 20
2.217142358585646
 30
0.0
  0
VERTEX
  5
AD1
330
63B
100
AcDbEntity
  8
0
100
AcDbVertex
100
AcDb2dVertex
 10
2.51787579917289
 20
2.234472757680134
 30
0.0
  0
VERTEX
  5
AD2
330
63B
100
AcDbEntity
  8
0
100
AcDbVertex
100
AcDb2dVertex
 10
2.552536597361866
 20
2.240774720987221
 30
0.0
  0
SEQEND
  5
AD3
330
63B
100
AcDbEntity
  8
0
  0
POLYLINE
  5
642
330
1E
100
AcDbEntity
  8
0
100
AcDb2dPolyline
 66
     1
 10
0.0
 20
0.0
 30
0.0
  0
VERTEX
  5
AD4
330
642
100
AcDbEntity
  8
0
100
AcDbVertex
100
AcDb2dVertex
 10
2.552536597361866
 20
2.21084039527856
 30
0.0
  0
VERTEX
  5
AD5
330
642
100
AcDbEntity
  8
0
100
AcDbVertex
100
AcDb2dVertex
 10
2.536781689094149
 20
2.209264904451788
 30
0.0
  0
VERTEX
  5
AD6
330
642
100
AcDbEntity
  8
0
100
AcDbVertex
100
AcDb2dVertex
 10
2.511573835865803
 20
2.20138745031793
 30
0.0
  0
VERTEX
  5
AD7
330
642
100
AcDbEntity
  8
0
100
AcDbVertex
100
AcDb2dVertex
 10
2.494243436771314
 20
2.187208032876985
 30
0.0
  0
VERTEX
  5
AD8
330
642
100
AcDbEntity
  8
0
100
AcDbVertex
100
AcDb2dVertex
 10
2.481639510157141
 20
2.169877633782496
 30
0.0
  0
VERTEX
  5
AD9
330
642
100
AcDbEntity
  8
0
100
AcDbVertex
100
AcDb2dVertex
 10
2.476913037676826
 20
2.152547234688009
 30
0.0
  0
VERTEX
  5
ADA
330
642
100
AcDbEntity
  8
0
100
AcDbVertex
100
AcDb2dVertex
 10
2.475337546850054
 20
2.144669780554151
 30
0.0
  0
SEQEND
  5
ADB
330
642
100
AcDbEntity
  8
0
  0
LINE
  5
64B
330
1E
100
AcDbEntity
  8
0
100
AcDbLine
 10
2.659669973582338
 20
2.273860028349426
 30
0.0
 11
2.552536597361866
 21
2.273860028349426
 31
0.0
  0
POLYLINE
  5
64C
330
1E
100
AcDbEntity
  8
0
100
AcDb2dPolyline
 66
     1
 10
0.0
 20
0.0
 30
0.0
  0
VERTEX
  5
ADC
330
64C
100
AcDbEntity
  8
0
100
AcDbVertex
100
AcDb2dVertex
 10
2.552536597361866
 20
2.240774720987221
 30
0.0
  0
VERTEX
  5
ADD
330
64C
100
AcDbEntity
  8
0
100
AcDbVertex
100
AcDb2dVertex
 10
2.552536597361866
 20
2.259680610908481
 30
0.0
  0
VERTEX
  5
ADE
330
64C
100
AcDbEntity
  8
0
100
AcDbVertex
100
AcDb2dVertex
 10
2.552536597361866
 20
2.273860028349426
 30
0.0
  0
SEQEND
  5
ADF
330
64C
100
AcDbEntity
  8
0
  0
POLYLINE
  5
651
330
1E
100
AcDbEntity
  8
0
100
AcDb2dPolyline
 66
     1
 10
0.0
 20
0.0
 30
0.0
  0
VERTEX
  5
AE0
330
651
100
AcDbEntity
  8
0
100
AcDbVertex
100
AcDb2dVertex
 10
2.412317913779189
 20
2.150971743861237
 30
0.0
  0
VERTEX
  5
AE1
330
651
100
AcDbEntity
  8
0
100
AcDbVertex
100
AcDb2dVertex
 10
2.423346349566589
 20
2.193509996184072
 30
0.0
  0
VERTEX
  5
AE2
330
651
100
AcDbEntity
  8
0
100
AcDbVertex
100
AcDb2dVertex
 10
2.450129693621708
 20
2.231321776026592
 30
0.0
  0
VERTEX
  5
AE3
330
651
100
AcDbEntity
  8
0
100
AcDbVertex
100
AcDb2dVertex
 10
2.489516964290998
 20
2.259680610908481
 30
0.0
  0
VERTEX
  5
AE4
330
651
100
AcDbEntity
  8
0
100
AcDbVertex
100
AcDb2dVertex
 10
2.535206198267377
 20
2.273860028349426
 30
0.0
  0
VERTEX
  5
AE5
330
651
100
AcDbEntity
  8
0
100
AcDbVertex
100
AcDb2dVertex
 10
2.552536597361866
 20
2.273860028349426
 30
0.0
  0
SEQEND
  5
AE6
330
651
100
AcDbEntity
  8
0
  0
LINE
  5
659
330
1E
100
AcDbEntity
  8
0
100
AcDbLine
 10
3.283564340983912
 20
2.225019812719505
 30
0.0
 11
3.291441795117771
 21
2.07692367500297
 31
0.0
  0
POLYLINE
  5
65A
330
1E
100
AcDbEntity
  8
0
100
AcDb2dPolyline
 66
     1
 10
0.0
 20
0.0
 30
0.0
  0
VERTEX
  5
AE7
330
65A
100
AcDbEntity
  8
0
100
AcDbVertex
100
AcDb2dVertex
 10
3.133892712440606
 20
2.352634569688009
 30
0.0
  0
VERTEX
  5
AE8
330
65A
100
AcDbEntity
  8
0
100
AcDbVertex
100
AcDb2dVertex
 10
3.182732928070527
 20
2.346332606380922
 30
0.0
  0
VERTEX
  5
AE9
330
65A
100
AcDbEntity
  8
0
100
AcDbVertex
100
AcDb2dVertex
 10
3.226846671220133
 20
2.32427573480612
 30
0.0
  0
VERTEX
  5
AEA
330
65A
100
AcDbEntity
  8
0
100
AcDbVertex
100
AcDb2dVertex
 10
3.261507469409109
 20
2.2864639549636
 30
0.0
  0
VERTEX
  5
AEB
330
65A
100
AcDbEntity
  8
0
100
AcDbVertex
100
AcDb2dVertex
 10
3.280413359330369
 20
2.242350211813992
 30
0.0
  0
VERTEX
  5
AEC
330
65A
100
AcDbEntity
  8
0
100
AcDbVertex
100
AcDb2dVertex
 10
3.283564340983912
 20
2.225019812719505
 30
0.0
  0
SEQEND
  5
AED
330
65A
100
AcDbEntity
  8
0
  0
LINE
  5
662
330
1E
100
AcDbEntity
  8
0
100
AcDbLine
 10
3.133892712440606
 20
2.352634569688009
 30
0.0
 11
2.971617157283125
 21
2.352634569688009
 31
0.0
  0
LINE
  5
663
330
1E
100
AcDbEntity
  8
0
100
AcDbLine
 10
2.661245464409109
 20
2.352634569688009
 30
0.0
 11
2.506847363385487
 21
2.352634569688009
 31
0.0
  0
POLYLINE
  5
664
330
1E
100
AcDbEntity
  8
0
100
AcDb2dPolyline
 66
     1
 10
0.0
 20
0.0
 30
0.0
  0
VERTEX
  5
AEE
330
664
100
AcDbEntity
  8
0
100
AcDbVertex
100
AcDb2dVertex
 10
2.506847363385487
 20
2.352634569688009
 30
0.0
  0
VERTEX
  5
AEF
330
664
100
AcDbEntity
  8
0
100
AcDbVertex
100
AcDb2dVertex
 10
2.458007147755566
 20
2.346332606380922
 30
0.0
  0
VERTEX
  5
AF0
330
664
100
AcDbEntity
  8
0
100
AcDbVertex
100
AcDb2dVertex
 10
2.41389340460596
 20
2.32427573480612
 30
0.0
  0
VERTEX
  5
AF1
330
664
100
AcDbEntity
  8
0
100
AcDbVertex
100
AcDb2dVertex
 10
2.379232606416983
 20
2.2864639549636
 30
0.0
  0
VERTEX
  5
AF2
330
664
100
AcDbEntity
  8
0
100
AcDbVertex
100
AcDb2dVertex
 10
2.360326716495723
 20
2.242350211813992
 30
0.0
  0
VERTEX
  5
AF3
330
664
100
AcDbEntity
  8
0
100
AcDbVertex
100
AcDb2dVertex
 10
2.35717573484218
 20
2.225019812719505
 30
0.0
  0
SEQEND
  5
AF4
330
664
100
AcDbEntity
  8
0
  0
LINE
  5
66C
330
1E
100
AcDbEntity
  8
0
100
AcDbLine
 10
2.35717573484218
 20
2.225019812719505
 30
0.0
 11
2.349298280708322
 21
2.07692367500297
 31
0.0
  0
POLYLINE
  5
66D
330
1E
100
AcDbEntity
  8
0
100
AcDb2dPolyline
 66
     1
 10
0.0
 20
0.0
 30
0.0
  0
VERTEX
  5
AF5
330
66D
100
AcDbEntity
  8
0
100
AcDbVertex
100
AcDb2dVertex
 10
3.789296896377614
 20
2.680336661656513
 30
0.0
  0
VERTEX
  5
AF6
330
66D
100
AcDbEntity
  8
0
100
AcDbVertex
100
AcDb2dVertex
 10
3.789296896377614
 20
2.713421969018717
 30
0.0
  0
VERTEX
  5
AF7
330
66D
100
AcDbEntity
  8
0
100
AcDbVertex
100
AcDb2dVertex
 10
3.790872387204386
 20
2.721299423152576
 30
0.0
  0
SEQEND
  5
AF8
330
66D
100
AcDbEntity
  8
0
  0
LINE
  5
672
330
1E
100
AcDbEntity
  8
0
100
AcDbLine
 10
3.844439075314621
 20
2.708695496538402
 30
0.0
 11
3.844439075314621
 21
2.674034698349426
 31
0.0
  0
POLYLINE
  5
673
330
1E
100
AcDbEntity
  8
0
100
AcDb2dPolyline
 66
     1
 10
0.0
 20
0.0
 30
0.0
  0
VERTEX
  5
AF9
330
673
100
AcDbEntity
  8
0
100
AcDbVertex
100
AcDb2dVertex
 10
1.796301000511472
 20
2.674034698349426
 30
0.0
  0
VERTEX
  5
AFA
330
673
100
AcDbEntity
  8
0
100
AcDbVertex
100
AcDb2dVertex
 10
1.796301000511472
 20
2.67718568000297
 30
0.0
  0
VERTEX
  5
AFB
330
673
100
AcDbEntity
  8
0
100
AcDbVertex
100
AcDb2dVertex
 10
1.796301000511472
 20
2.708695496538403
 30
0.0
  0
SEQEND
  5
AFC
330
673
100
AcDbEntity
  8
0
  0
POLYLINE
  5
678
330
1E
100
AcDbEntity
  8
0
100
AcDb2dPolyline
 66
     1
 10
0.0
 20
0.0
 30
0.0
  0
VERTEX
  5
AFD
330
678
100
AcDbEntity
  8
0
100
AcDbVertex
100
AcDb2dVertex
 10
1.849867688621708
 20
2.721299423152576
 30
0.0
  0
VERTEX
  5
AFE
330
678
100
AcDbEntity
  8
0
100
AcDbVertex
100
AcDb2dVertex
 10
1.849867688621708
 20
2.71499745984549
 30
0.0
  0
VERTEX
  5
AFF
330
678
100
AcDbEntity
  8
0
100
AcDbVertex
100
AcDb2dVertex
 10
1.851443179448479
 20
2.680336661656513
 30
0.0
  0
SEQEND
  5
B00
330
678
100
AcDbEntity
  8
0
  0
POLYLINE
  5
67D
330
1E
100
AcDbEntity
  8
0
100
AcDb2dPolyline
 66
     1
 10
0.0
 20
0.0
 30
0.0
  0
VERTEX
  5
B01
330
67D
100
AcDbEntity
  8
0
100
AcDbVertex
100
AcDb2dVertex
 10
1.886103977637456
 20
2.683487643310056
 30
0.0
  0
VERTEX
  5
B02
330
67D
100
AcDbEntity
  8
0
100
AcDbVertex
100
AcDb2dVertex
 10
1.886103977637456
 20
2.713421969018717
 30
0.0
  0
VERTEX
  5
B03
330
67D
100
AcDbEntity
  8
0
100
AcDbVertex
100
AcDb2dVertex
 10
1.886103977637456
 20
2.721299423152576
 30
0.0
  0
SEQEND
  5
B04
330
67D
100
AcDbEntity
  8
0
  0
LINE
  5
682
330
1E
100
AcDbEntity
  8
0
100
AcDbLine
 10
1.941246156574464
 20
2.721299423152576
 30
0.0
 11
1.941246156574464
 21
2.688214115790371
 31
0.0
  0
POLYLINE
  5
683
330
1E
100
AcDbEntity
  8
0
100
AcDb2dPolyline
 66
     1
 10
0.0
 20
0.0
 30
0.0
  0
VERTEX
  5
B05
330
683
100
AcDbEntity
  8
0
100
AcDbVertex
100
AcDb2dVertex
 10
3.699493919251629
 20
2.688214115790371
 30
0.0
  0
VERTEX
  5
B06
330
683
100
AcDbEntity
  8
0
100
AcDbVertex
100
AcDb2dVertex
 10
3.699493919251629
 20
2.713421969018717
 30
0.0
  0
VERTEX
  5
B07
330
683
100
AcDbEntity
  8
0
100
AcDbVertex
100
AcDb2dVertex
 10
3.699493919251629
 20
2.721299423152576
 30
0.0
  0
SEQEND
  5
B08
330
683
100
AcDbEntity
  8
0
  0
POLYLINE
  5
688
330
1E
100
AcDbEntity
  8
0
100
AcDb2dPolyline
 66
     1
 10
0.0
 20
0.0
 30
0.0
  0
VERTEX
  5
B09
330
688
100
AcDbEntity
  8
0
100
AcDbVertex
100
AcDb2dVertex
 10
3.754636098188637
 20
2.721299423152576
 30
0.0
  0
VERTEX
  5
B0A
330
688
100
AcDbEntity
  8
0
100
AcDbVertex
100
AcDb2dVertex
 10
3.754636098188637
 20
2.718148441499033
 30
0.0
  0
VERTEX
  5
B0B
330
688
100
AcDbEntity
  8
0
100
AcDbVertex
100
AcDb2dVertex
 10
3.754636098188637
 20
2.683487643310056
 30
0.0
  0
SEQEND
  5
B0C
330
688
100
AcDbEntity
  8
0
  0
POLYLINE
  5
68D
330
1E
100
AcDbEntity
  8
0
100
AcDb2dPolyline
 66
     1
 10
0.0
 20
0.0
 30
0.0
  0
VERTEX
  5
B0D
330
68D
100
AcDbEntity
  8
0
100
AcDbVertex
100
AcDb2dVertex
 10
2.576168959763439
 20
2.559023867995095
 30
0.0
  0
VERTEX
  5
B0E
330
68D
100
AcDbEntity
  8
0
100
AcDbVertex
100
AcDb2dVertex
 10
2.582470923070526
 20
2.559023867995095
 30
0.0
  0
VERTEX
  5
B0F
330
68D
100
AcDbEntity
  8
0
100
AcDbVertex
100
AcDb2dVertex
 10
2.602952303818558
 20
2.559023867995095
 30
0.0
  0
VERTEX
  5
B10
330
68D
100
AcDbEntity
  8
0
100
AcDbVertex
100
AcDb2dVertex
 10
2.634462120353991
 20
2.559023867995095
 30
0.0
  0
VERTEX
  5
B11
330
68D
100
AcDbEntity
  8
0
100
AcDbVertex
100
AcDb2dVertex
 10
2.677000372676826
 20
2.559023867995095
 30
0.0
  0
VERTEX
  5
B12
330
68D
100
AcDbEntity
  8
0
100
AcDbVertex
100
AcDb2dVertex
 10
2.725840588306747
 20
2.559023867995095
 30
0.0
  0
VERTEX
  5
B13
330
68D
100
AcDbEntity
  8
0
100
AcDbVertex
100
AcDb2dVertex
 10
2.780982767243755
 20
2.559023867995095
 30
0.0
  0
SEQEND
  5
B14
330
68D
100
AcDbEntity
  8
0
  0
POLYLINE
  5
696
330
1E
100
AcDbEntity
  8
0
100
AcDb2dPolyline
 66
     1
 10
0.0
 20
0.0
 30
0.0
  0
VERTEX
  5
B15
330
696
100
AcDbEntity
  8
0
100
AcDbVertex
100
AcDb2dVertex
 10
2.850304363621708
 20
2.559023867995095
 30
0.0
  0
VERTEX
  5
B16
330
696
100
AcDbEntity
  8
0
100
AcDbVertex
100
AcDb2dVertex
 10
2.907022033385487
 20
2.559023867995095
 30
0.0
  0
VERTEX
  5
B17
330
696
100
AcDbEntity
  8
0
100
AcDbVertex
100
AcDb2dVertex
 10
2.959013230668952
 20
2.559023867995095
 30
0.0
  0
VERTEX
  5
B18
330
696
100
AcDbEntity
  8
0
100
AcDbVertex
100
AcDb2dVertex
 10
3.003126973818559
 20
2.559023867995095
 30
0.0
  0
VERTEX
  5
B19
330
696
100
AcDbEntity
  8
0
100
AcDbVertex
100
AcDb2dVertex
 10
3.036212281180763
 20
2.559023867995095
 30
0.0
  0
VERTEX
  5
B1A
330
696
100
AcDbEntity
  8
0
100
AcDbVertex
100
AcDb2dVertex
 10
3.056693661928794
 20
2.559023867995095
 30
0.0
  0
VERTEX
  5
B1B
330
696
100
AcDbEntity
  8
0
100
AcDbVertex
100
AcDb2dVertex
 10
3.064571116062652
 20
2.559023867995095
 30
0.0
  0
SEQEND
  5
B1C
330
696
100
AcDbEntity
  8
0
  0
LINE
  5
69F
330
1E
100
AcDbEntity
  8
0
100
AcDbLine
 10
1.819933362913046
 20
2.708695496538402
 30
0.0
 11
1.819933362913046
 21
2.721299423152576
 31
0.0
  0
LINE
  5
6A0
330
1E
100
AcDbEntity
  8
0
100
AcDbLine
 10
3.863344965235882
 20
2.708695496538402
 30
0.0
 11
3.863344965235882
 21
2.721299423152576
 31
0.0
  0
LINE
  5
6A1
330
1E
100
AcDbEntity
  8
0
100
AcDbLine
 10
3.820806712913046
 20
2.708695496538402
 30
0.0
 11
3.820806712913046
 21
2.721299423152576
 31
0.0
  0
LINE
  5
6A2
330
1E
100
AcDbEntity
  8
0
100
AcDbLine
 10
3.863344965235882
 20
2.708695496538402
 30
0.0
 11
3.820806712913046
 21
2.708695496538402
 31
0.0
  0
LINE
  5
6A3
330
1E
100
AcDbEntity
  8
0
100
AcDbLine
 10
1.777395110590212
 20
2.708695496538402
 30
0.0
 11
1.777395110590212
 21
2.721299423152576
 31
0.0
  0
LINE
  5
6A4
330
1E
100
AcDbEntity
  8
0
100
AcDbLine
 10
1.777395110590212
 20
2.708695496538402
 30
0.0
 11
1.819933362913046
 21
2.708695496538402
 31
0.0
  0
LINE
  5
6A5
330
1E
100
AcDbEntity
  8
0
100
AcDbLine
 10
3.313498666692574
 20
2.210840395278559
 30
0.0
 11
3.319800629999661
 21
2.07692367500297
 31
0.0
  0
POLYLINE
  5
6A6
330
1E
100
AcDbEntity
  8
0
100
AcDb2dPolyline
 66
     1
 10
0.0
 20
0.0
 30
0.0
  0
VERTEX
  5
B1D
330
6A6
100
AcDbEntity
  8
0
100
AcDbVertex
100
AcDb2dVertex
 10
3.283564340983912
 20
2.225019812719505
 30
0.0
  0
VERTEX
  5
B1E
330
6A6
100
AcDbEntity
  8
0
100
AcDbVertex
100
AcDb2dVertex
 10
3.299319249251629
 20
2.217142358585646
 30
0.0
  0
VERTEX
  5
B1F
330
6A6
100
AcDbEntity
  8
0
100
AcDbVertex
100
AcDb2dVertex
 10
3.313498666692574
 20
2.21084039527856
 30
0.0
  0
SEQEND
  5
B20
330
6A6
100
AcDbEntity
  8
0
  0
POLYLINE
  5
6AB
330
1E
100
AcDbEntity
  8
0
100
AcDb2dPolyline
 66
     1
 10
0.0
 20
0.0
 30
0.0
  0
VERTEX
  5
B21
330
6AB
100
AcDbEntity
  8
0
100
AcDbVertex
100
AcDb2dVertex
 10
2.327241409133519
 20
2.21084039527856
 30
0.0
  0
VERTEX
  5
B22
330
6AB
100
AcDbEntity
  8
0
100
AcDbVertex
100
AcDb2dVertex
 10
2.344571808228007
 20
2.218717849412418
 30
0.0
  0
VERTEX
  5
B23
330
6AB
100
AcDbEntity
  8
0
100
AcDbVertex
100
AcDb2dVertex
 10
2.35717573484218
 20
2.225019812719505
 30
0.0
  0
SEQEND
  5
B24
330
6AB
100
AcDbEntity
  8
0
  0
LINE
  5
6B0
330
1E
100
AcDbEntity
  8
0
100
AcDbLine
 10
2.327241409133519
 20
2.210840395278559
 30
0.0
 11
2.319363954999661
 21
2.07692367500297
 31
0.0
  0
POLYLINE
  5
6B1
330
1E
100
AcDbEntity
  8
0
100
AcDb2dPolyline
 66
     1
 10
0.0
 20
0.0
 30
0.0
  0
VERTEX
  5
B25
330
6B1
100
AcDbEntity
  8
0
100
AcDbVertex
100
AcDb2dVertex
 10
2.506847363385487
 20
2.352634569688009
 30
0.0
  0
VERTEX
  5
B26
330
6B1
100
AcDbEntity
  8
0
100
AcDbVertex
100
AcDb2dVertex
 10
2.506847363385487
 20
2.368389477955725
 30
0.0
  0
VERTEX
  5
B27
330
6B1
100
AcDbEntity
  8
0
100
AcDbVertex
100
AcDb2dVertex
 10
2.506847363385487
 20
2.380993404569898
 30
0.0
  0
SEQEND
  5
B28
330
6B1
100
AcDbEntity
  8
0
  0
POLYLINE
  5
6B6
330
1E
100
AcDbEntity
  8
0
100
AcDb2dPolyline
 66
     1
 10
0.0
 20
0.0
 30
0.0
  0
VERTEX
  5
B29
330
6B6
100
AcDbEntity
  8
0
100
AcDbVertex
100
AcDb2dVertex
 10
2.506847363385487
 20
2.380993404569898
 30
0.0
  0
VERTEX
  5
B2A
330
6B6
100
AcDbEntity
  8
0
100
AcDbVertex
100
AcDb2dVertex
 10
2.456431656928794
 20
2.374691441262811
 30
0.0
  0
VERTEX
  5
B2B
330
6B6
100
AcDbEntity
  8
0
100
AcDbVertex
100
AcDb2dVertex
 10
2.410742422952417
 20
2.352634569688009
 30
0.0
  0
VERTEX
  5
B2C
330
6B6
100
AcDbEntity
  8
0
100
AcDbVertex
100
AcDb2dVertex
 10
2.371355152283125
 20
2.319549262325804
 30
0.0
  0
VERTEX
  5
B2D
330
6B6
100
AcDbEntity
  8
0
100
AcDbVertex
100
AcDb2dVertex
 10
2.339845335747693
 20
2.269133555869111
 30
0.0
  0
VERTEX
  5
B2E
330
6B6
100
AcDbEntity
  8
0
100
AcDbVertex
100
AcDb2dVertex
 10
2.327241409133519
 20
2.21084039527856
 30
0.0
  0
SEQEND
  5
B2F
330
6B6
100
AcDbEntity
  8
0
  0
POLYLINE
  5
6BE
330
1E
100
AcDbEntity
  8
0
100
AcDb2dPolyline
 66
     1
 10
0.0
 20
0.0
 30
0.0
  0
VERTEX
  5
B30
330
6BE
100
AcDbEntity
  8
0
100
AcDbVertex
100
AcDb2dVertex
 10
3.133892712440606
 20
2.352634569688009
 30
0.0
  0
VERTEX
  5
B31
330
6BE
100
AcDbEntity
  8
0
100
AcDbVertex
100
AcDb2dVertex
 10
3.133892712440606
 20
2.368389477955725
 30
0.0
  0
VERTEX
  5
B32
330
6BE
100
AcDbEntity
  8
0
100
AcDbVertex
100
AcDb2dVertex
 10
3.133892712440606
 20
2.380993404569898
 30
0.0
  0
SEQEND
  5
B33
330
6BE
100
AcDbEntity
  8
0
  0
LINE
  5
6C3
330
1E
100
AcDbEntity
  8
0
100
AcDbLine
 10
3.133892712440606
 20
2.380993404569899
 30
0.0
 11
2.971617157283125
 21
2.380993404569899
 31
0.0
  0
LINE
  5
6C4
330
1E
100
AcDbEntity
  8
0
100
AcDbLine
 10
2.661245464409109
 20
2.380993404569899
 30
0.0
 11
2.506847363385487
 21
2.380993404569899
 31
0.0
  0
POLYLINE
  5
6C5
330
1E
100
AcDbEntity
  8
0
100
AcDb2dPolyline
 66
     1
 10
0.0
 20
0.0
 30
0.0
  0
VERTEX
  5
B34
330
6C5
100
AcDbEntity
  8
0
100
AcDbVertex
100
AcDb2dVertex
 10
3.133892712440606
 20
2.380993404569898
 30
0.0
  0
VERTEX
  5
B35
330
6C5
100
AcDbEntity
  8
0
100
AcDbVertex
100
AcDb2dVertex
 10
3.184308418897298
 20
2.374691441262811
 30
0.0
  0
VERTEX
  5
B36
330
6C5
100
AcDbEntity
  8
0
100
AcDbVertex
100
AcDb2dVertex
 10
3.229997652873676
 20
2.352634569688009
 30
0.0
  0
VERTEX
  5
B37
330
6C5
100
AcDbEntity
  8
0
100
AcDbVertex
100
AcDb2dVertex
 10
3.269384923542968
 20
2.319549262325804
 30
0.0
  0
VERTEX
  5
B38
330
6C5
100
AcDbEntity
  8
0
100
AcDbVertex
100
AcDb2dVertex
 10
3.299319249251629
 20
2.269133555869111
 30
0.0
  0
VERTEX
  5
B39
330
6C5
100
AcDbEntity
  8
0
100
AcDbVertex
100
AcDb2dVertex
 10
3.313498666692574
 20
2.21084039527856
 30
0.0
  0
SEQEND
  5
B3A
330
6C5
100
AcDbEntity
  8
0
  0
POLYLINE
  5
6CD
330
1E
100
AcDbEntity
  8
0
100
AcDb2dPolyline
 66
     1
 10
0.0
 20
0.0
 30
0.0
  0
VERTEX
  5
B3B
330
6CD
100
AcDbEntity
  8
0
100
AcDbVertex
100
AcDb2dVertex
 10
2.327241409133519
 20
2.21084039527856
 30
0.0
  0
VERTEX
  5
B3C
330
6CD
100
AcDbEntity
  8
0
100
AcDbVertex
100
AcDb2dVertex
 10
2.311486500865803
 20
2.221868831065961
 30
0.0
  0
VERTEX
  5
B3D
330
6CD
100
AcDbEntity
  8
0
100
AcDbVertex
100
AcDb2dVertex
 10
2.298882574251629
 20
2.231321776026592
 30
0.0
  0
SEQEND
  5
B3E
330
6CD
100
AcDbEntity
  8
0
  0
POLYLINE
  5
6D2
330
1E
100
AcDbEntity
  8
0
100
AcDb2dPolyline
 66
     1
 10
0.0
 20
0.0
 30
0.0
  0
VERTEX
  5
B3F
330
6D2
100
AcDbEntity
  8
0
100
AcDbVertex
100
AcDb2dVertex
 10
3.313498666692574
 20
2.21084039527856
 30
0.0
  0
VERTEX
  5
B40
330
6D2
100
AcDbEntity
  8
0
100
AcDbVertex
100
AcDb2dVertex
 10
3.32925357496029
 20
2.221868831065961
 30
0.0
  0
VERTEX
  5
B41
330
6D2
100
AcDbEntity
  8
0
100
AcDbVertex
100
AcDb2dVertex
 10
3.341857501574464
 20
2.231321776026592
 30
0.0
  0
SEQEND
  5
B42
330
6D2
100
AcDbEntity
  8
0
  0
POLYLINE
  5
6D7
330
1E
100
AcDbEntity
  8
0
100
AcDb2dPolyline
 66
     1
 10
0.0
 20
0.0
 30
0.0
  0
VERTEX
  5
B43
330
6D7
100
AcDbEntity
  8
0
100
AcDbVertex
100
AcDb2dVertex
 10
3.133892712440606
 20
2.412503221105331
 30
0.0
  0
VERTEX
  5
B44
330
6D7
100
AcDbEntity
  8
0
100
AcDbVertex
100
AcDb2dVertex
 10
3.133892712440606
 20
2.395172822010843
 30
0.0
  0
VERTEX
  5
B45
330
6D7
100
AcDbEntity
  8
0
100
AcDbVertex
100
AcDb2dVertex
 10
3.133892712440606
 20
2.380993404569898
 30
0.0
  0
SEQEND
  5
B46
330
6D7
100
AcDbEntity
  8
0
  0
POLYLINE
  5
6DC
330
1E
100
AcDbEntity
  8
0
100
AcDb2dPolyline
 66
     1
 10
0.0
 20
0.0
 30
0.0
  0
VERTEX
  5
B47
330
6DC
100
AcDbEntity
  8
0
100
AcDbVertex
100
AcDb2dVertex
 10
2.506847363385487
 20
2.412503221105331
 30
0.0
  0
VERTEX
  5
B48
330
6DC
100
AcDbEntity
  8
0
100
AcDbVertex
100
AcDb2dVertex
 10
2.506847363385487
 20
2.395172822010843
 30
0.0
  0
VERTEX
  5
B49
330
6DC
100
AcDbEntity
  8
0
100
AcDbVertex
100
AcDb2dVertex
 10
2.506847363385487
 20
2.380993404569898
 30
0.0
  0
SEQEND
  5
B4A
330
6DC
100
AcDbEntity
  8
0
  0
POLYLINE
  5
6E1
330
1E
100
AcDbEntity
  8
0
100
AcDb2dPolyline
 66
     1
 10
0.0
 20
0.0
 30
0.0
  0
VERTEX
  5
B4B
330
6E1
100
AcDbEntity
  8
0
100
AcDbVertex
100
AcDb2dVertex
 10
3.513586001692574
 20
2.508608161538402
 30
0.0
  0
VERTEX
  5
B4C
330
6E1
100
AcDbEntity
  8
0
100
AcDbVertex
100
AcDb2dVertex
 10
3.540369345747692
 20
2.508608161538402
 30
0.0
  0
VERTEX
  5
B4D
330
6E1
100
AcDbEntity
  8
0
100
AcDbVertex
100
AcDb2dVertex
 10
3.560850726495723
 20
2.510183652365174
 30
0.0
  0
SEQEND
  5
B4E
330
6E1
100
AcDbEntity
  8
0
  0
POLYLINE
  5
6E6
330
1E
100
AcDbEntity
  8
0
100
AcDb2dPolyline
 66
     1
 10
0.0
 20
0.0
 30
0.0
  0
VERTEX
  5
B4F
330
6E6
100
AcDbEntity
  8
0
100
AcDbVertex
100
AcDb2dVertex
 10
3.370216336456353
 20
2.692940588270686
 30
0.0
  0
VERTEX
  5
B50
330
6E6
100
AcDbEntity
  8
0
100
AcDbVertex
100
AcDb2dVertex
 10
3.370216336456353
 20
2.667732735042339
 30
0.0
  0
VERTEX
  5
B51
330
6E6
100
AcDbEntity
  8
0
100
AcDbVertex
100
AcDb2dVertex
 10
3.370216336456353
 20
2.647251354294307
 30
0.0
  0
SEQEND
  5
B52
330
6E6
100
AcDbEntity
  8
0
  0
LINE
  5
6EB
330
1E
100
AcDbEntity
  8
0
100
AcDbLine
 10
3.370216336456353
 20
2.692940588270686
 30
0.0
 11
3.069297588542968
 21
2.692940588270686
 31
0.0
  0
LINE
  5
6EC
330
1E
100
AcDbEntity
  8
0
100
AcDbLine
 10
2.571442487283126
 20
2.692940588270686
 30
0.0
 11
2.270523739369739
 21
2.692940588270686
 31
0.0
  0
POLYLINE
  5
6ED
330
1E
100
AcDbEntity
  8
0
100
AcDb2dPolyline
 66
     1
 10
0.0
 20
0.0
 30
0.0
  0
VERTEX
  5
B53
330
6ED
100
AcDbEntity
  8
0
100
AcDbVertex
100
AcDb2dVertex
 10
2.270523739369739
 20
2.692940588270686
 30
0.0
  0
VERTEX
  5
B54
330
6ED
100
AcDbEntity
  8
0
100
AcDbVertex
100
AcDb2dVertex
 10
2.270523739369739
 20
2.667732735042339
 30
0.0
  0
VERTEX
  5
B55
330
6ED
100
AcDbEntity
  8
0
100
AcDbVertex
100
AcDb2dVertex
 10
2.270523739369739
 20
2.647251354294307
 30
0.0
  0
SEQEND
  5
B56
330
6ED
100
AcDbEntity
  8
0
  0
POLYLINE
  5
6F2
330
1E
100
AcDbEntity
  8
0
100
AcDb2dPolyline
 66
     1
 10
0.0
 20
0.0
 30
0.0
  0
VERTEX
  5
B57
330
6F2
100
AcDbEntity
  8
0
100
AcDbVertex
100
AcDb2dVertex
 10
2.127154074133519
 20
2.508608161538402
 30
0.0
  0
VERTEX
  5
B58
330
6F2
100
AcDbEntity
  8
0
100
AcDbVertex
100
AcDb2dVertex
 10
2.100370730078401
 20
2.508608161538402
 30
0.0
  0
VERTEX
  5
B59
330
6F2
100
AcDbEntity
  8
0
100
AcDbVertex
100
AcDb2dVertex
 10
2.079889349330369
 20
2.510183652365174
 30
0.0
  0
SEQEND
  5
B5A
330
6F2
100
AcDbEntity
  8
0
  0
LINE
  5
6F7
330
1E
100
AcDbEntity
  8
0
100
AcDbLine
 10
2.079889349330369
 20
2.510183652365174
 30
0.0
 11
2.078313858503598
 21
2.510183652365174
 31
0.0
  0
LINE
  5
6F8
330
1E
100
AcDbEntity
  8
0
100
AcDbLine
 10
2.270523739369739
 20
2.694516079097458
 30
0.0
 11
2.270523739369739
 21
2.692940588270686
 31
0.0
  0
LINE
  5
6F9
330
1E
100
AcDbEntity
  8
0
100
AcDbLine
 10
3.370216336456353
 20
2.692940588270686
 30
0.0
 11
3.370216336456353
 21
2.694516079097458
 31
0.0
  0
POLYLINE
  5
6FA
330
1E
100
AcDbEntity
  8
0
100
AcDb2dPolyline
 66
     1
 10
0.0
 20
0.0
 30
0.0
  0
VERTEX
  5
B5B
330
6FA
100
AcDbEntity
  8
0
100
AcDbVertex
100
AcDb2dVertex
 10
3.575030143936669
 20
2.076923675002969
 30
0.0
  0
VERTEX
  5
B5C
330
6FA
100
AcDbEntity
  8
0
100
AcDbVertex
100
AcDb2dVertex
 10
3.571879162283126
 20
2.1919345053573
 30
0.0
  0
VERTEX
  5
B5D
330
6FA
100
AcDbEntity
  8
0
100
AcDbVertex
100
AcDb2dVertex
 10
3.560850726495723
 20
2.510183652365174
 30
0.0
  0
SEQEND
  5
B5E
330
6FA
100
AcDbEntity
  8
0
  0
POLYLINE
  5
6FF
330
1E
100
AcDbEntity
  8
0
100
AcDb2dPolyline
 66
     1
 10
0.0
 20
0.0
 30
0.0
  0
VERTEX
  5
B5F
330
6FF
100
AcDbEntity
  8
0
100
AcDbVertex
100
AcDb2dVertex
 10
2.064134441062653
 20
2.076923675002969
 30
0.0
  0
VERTEX
  5
B60
330
6FF
100
AcDbEntity
  8
0
100
AcDbVertex
100
AcDb2dVertex
 10
2.068860913542968
 20
2.1919345053573
 30
0.0
  0
VERTEX
  5
B61
330
6FF
100
AcDbEntity
  8
0
100
AcDbVertex
100
AcDb2dVertex
 10
2.079889349330369
 20
2.510183652365174
 30
0.0
  0
SEQEND
  5
B62
330
6FF
100
AcDbEntity
  8
0
  0
LINE
  5
704
330
1E
100
AcDbEntity
  8
0
100
AcDbLine
 10
1.848292197794936
 20
2.721299423152576
 30
0.0
 11
1.846716706968165
 21
2.327426716459662
 31
0.0
  0
LINE
  5
705
330
1E
100
AcDbEntity
  8
0
100
AcDbLine
 10
1.799451982165015
 20
2.376266932089583
 30
0.0
 11
1.797876491338243
 21
2.708695496538402
 31
0.0
  0
LINE
  5
706
330
1E
100
AcDbEntity
  8
0
100
AcDbLine
 10
1.939670665747692
 20
2.721299423152576
 30
0.0
 11
1.936519684094149
 21
2.07692367500297
 31
0.0
  0
LINE
  5
707
330
1E
100
AcDbEntity
  8
0
100
AcDbLine
 10
1.890830450117771
 20
2.07692367500297
 30
0.0
 11
1.887679468464227
 21
2.721299423152576
 31
0.0
  0
LINE
  5
708
330
1E
100
AcDbEntity
  8
0
100
AcDbLine
 10
3.749909625708323
 20
2.07692367500297
 30
0.0
 11
3.753060607361866
 21
2.721299423152576
 31
0.0
  0
LINE
  5
709
330
1E
100
AcDbEntity
  8
0
100
AcDbLine
 10
3.701069410078401
 20
2.721299423152576
 30
0.0
 11
3.704220391731944
 21
2.07692367500297
 31
0.0
  0
LINE
  5
70A
330
1E
100
AcDbEntity
  8
0
100
AcDbLine
 10
3.841288093661078
 20
2.376266932089583
 30
0.0
 11
3.842863584487849
 21
2.708695496538402
 31
0.0
  0
LINE
  5
70B
330
1E
100
AcDbEntity
  8
0
100
AcDbLine
 10
3.790872387204386
 20
2.721299423152576
 30
0.0
 11
3.792447878031156
 21
2.376266932089583
 31
0.0
  0
ENDSEC
  0
SECTION
  2
OBJECTS
  0
DICTIONARY
  5
C
330
0
100
AcDbDictionary
  3
ACAD_GROUP
350
D
  3
ACAD_MLINESTYLE
350
16
  3
ACAD_PLOTSETTINGS
350
18
  3
ACAD_LAYOUT
350
19
1001
ACAD
1000
TREAT_AS_HARD
1070
     0
  0
DICTIONARY
  5
74E
330
1E
100
AcDbDictionary
  3
ACAD_LAYOUTSELFREF
350
74F
  0
DICTIONARY
  5
74C
330
1A
100
AcDbDictionary
  3
ACAD_LAYOUTSELFREF
350
74D
  0
DICTIONARY
  5
D
102
{ACAD_REACTORS
330
C
102
}
330
C
100
AcDbDictionary
1001
ACAD
1000
TREAT_AS_HARD
1070
     0
  0
DICTIONARY
  5
16
102
{ACAD_REACTORS
330
C
102
}
330
C
100
AcDbDictionary
  3
STANDARD
350
17
1001
ACAD
1000
TREAT_AS_HARD
1070
     0
  0
DICTIONARY
  5
18
102
{ACAD_REACTORS
330
C
102
}
330
C
100
AcDbDictionary
1001
ACAD
1000
TREAT_AS_HARD
1070
     0
  0
DICTIONARY
  5
19
102
{ACAD_REACTORS
330
C
102
}
330
C
100
AcDbDictionary
1001
ACAD
1000
TREAT_AS_HARD
1070
     0
  0
XRECORD
  5
74F
102
{ACAD_REACTORS
330
74E
102
}
330
74E
100
AcDbXrecord
340
1E
  0
XRECORD
  5
74D
102
{ACAD_REACTORS
330
74C
102
}
330
74C
100
AcDbXrecord
340
1A
  0
MLINESTYLE
  5
17
102
{ACAD_REACTORS
330
16
102
}
330
16
100
AcDbMlineStyle
  2
STANDARD
 70
     0
  3

 62
   256
 51
90.0
 52
90.0
 71
     2
 49
0.5
 62
   256
  6
BYLAYER
 49
-0.5
 62
   256
  6
BYLAYER
  0
ENDSEC
  0
EOF
