  0
SECTION
  2
HEADER
  9
$ACADVER
  1
AC1012
  9
$DWGCODEPAGE
  3
ANSI_1252
  9
$INSBASE
 10
0.0
 20
0.0
 30
0.0
  9
$EXTMIN
 10
-3.066011462516929
 20
2.889129662990022
 30
-0.0000000000000058
  9
$EXTMAX
 10
3.933897742621269
 20
7.389404315954777
 30
0.0000000000000104
  9
$LIMMIN
 10
0.0
 20
0.0
  9
$LIMMAX
 10
12.0
 20
9.0
  9
$ORTHOMODE
 70
     0
  9
$REGENMODE
 70
     1
  9
$FILLMODE
 70
     1
  9
$QTEXTMODE
 70
     0
  9
$MIRRTEXT
 70
     1
  9
$DRAGMODE
 70
     2
  9
$LTSCALE
 40
1.0
  9
$OSMODE
 70
   547
  9
$ATTMODE
 70
     1
  9
$TEXTSIZE
 40
0.2
  9
$TRACEWID
 40
0.05
  9
$TEXTSTYLE
  7
STANDARD
  9
$CLAYER
  8
0
  9
$CELTYPE
  6
BYLAYER
  9
$CECOLOR
 62
   256
  9
$CELTSCALE
 40
1.0
  9
$DELOBJ
 70
     1
  9
$DISPSILH
 70
     0
  9
$DIMSCALE
 40
1.0
  9
$DIMASZ
 40
0.18
  9
$DIMEXO
 40
0.0625
  9
$DIMDLI
 40
0.38
  9
$DIMRND
 40
0.0
  9
$DIMDLE
 40
0.0
  9
$DIMEXE
 40
0.18
  9
$DIMTP
 40
0.0
  9
$DIMTM
 40
0.0
  9
$DIMTXT
 40
0.18
  9
$DIMCEN
 40
0.09
  9
$DIMTSZ
 40
0.0
  9
$DIMTOL
 70
     0
  9
$DIMLIM
 70
     0
  9
$DIMTIH
 70
     1
  9
$DIMTOH
 70
     1
  9
$DIMSE1
 70
     0
  9
$DIMSE2
 70
     0
  9
$DIMTAD
 70
     0
  9
$DIMZIN
 70
     0
  9
$DIMBLK
  1

  9
$DIMASO
 70
     1
  9
$DIMSHO
 70
     1
  9
$DIMPOST
  1

  9
$DIMAPOST
  1

  9
$DIMALT
 70
     0
  9
$DIMALTD
 70
     2
  9
$DIMALTF
 40
25.4
  9
$DIMLFAC
 40
1.0
  9
$DIMTOFL
 70
     0
  9
$DIMTVP
 40
0.0
  9
$DIMTIX
 70
     0
  9
$DIMSOXD
 70
     0
  9
$DIMSAH
 70
     0
  9
$DIMBLK1
  1

  9
$DIMBLK2
  1

  9
$DIMSTYLE
  2
STANDARD
  9
$DIMCLRD
 70
     0
  9
$DIMCLRE
 70
     0
  9
$DIMCLRT
 70
     0
  9
$DIMTFAC
 40
1.0
  9
$DIMGAP
 40
0.09
  9
$DIMJUST
 70
     0
  9
$DIMSD1
 70
     0
  9
$DIMSD2
 70
     0
  9
$DIMTOLJ
 70
     1
  9
$DIMTZIN
 70
     0
  9
$DIMALTZ
 70
     0
  9
$DIMALTTZ
 70
     0
  9
$DIMFIT
 70
     5
  9
$DIMUPT
 70
     0
  9
$DIMUNIT
 70
     2
  9
$DIMDEC
 70
     4
  9
$DIMTDEC
 70
     4
  9
$DIMALTU
 70
     2
  9
$DIMALTTD
 70
     2
  9
$DIMTXSTY
  7
STANDARD
  9
$DIMAUNIT
 70
     0
  9
$LUNITS
 70
     2
  9
$LUPREC
 70
     4
  9
$SKETCHINC
 40
0.1
  9
$FILLETRAD
 40
0.0
  9
$AUNITS
 70
     0
  9
$AUPREC
 70
     0
  9
$MENU
  1
acad
  9
$ELEVATION
 40
0.0
  9
$PELEVATION
 40
0.0
  9
$THICKNESS
 40
0.0
  9
$LIMCHECK
 70
     0
  9
$BLIPMODE
 70
     0
  9
$CHAMFERA
 40
0.0
  9
$CHAMFERB
 40
0.0
  9
$CHAMFERC
 40
0.0
  9
$CHAMFERD
 40
0.0
  9
$SKPOLY
 70
     0
  9
$TDCREATE
 40
2452031.318460647
  9
$TDUPDATE
 40
2453944.468971516
  9
$TDINDWG
 40
0.0019909606
  9
$TDUSRTIMER
 40
0.0019909606
  9
$USRTIMER
 70
     1
  9
$ANGBASE
 50
0.0
  9
$ANGDIR
 70
     0
  9
$PDMODE
 70
     0
  9
$PDSIZE
 40
0.0
  9
$PLINEWID
 40
0.0
  9
$COORDS
 70
     1
  9
$SPLFRAME
 70
     0
  9
$SPLINETYPE
 70
     6
  9
$SPLINESEGS
 70
     8
  9
$ATTDIA
 70
     0
  9
$ATTREQ
 70
     1
  9
$HANDLING
 70
  4097
  9
$HANDSEED
  5
34D4
  9
$SURFTAB1
 70
     6
  9
$SURFTAB2
 70
     6
  9
$SURFTYPE
 70
     6
  9
$SURFU
 70
     6
  9
$SURFV
 70
     6
  9
$UCSNAME
  2

  9
$UCSORG
 10
0.0
 20
0.0
 30
0.0
  9
$UCSXDIR
 10
1.0
 20
0.0
 30
0.0
  9
$UCSYDIR
 10
0.0
 20
1.0
 30
0.0
  9
$PUCSNAME
  2

  9
$PUCSORG
 10
0.0
 20
0.0
 30
0.0
  9
$PUCSXDIR
 10
1.0
 20
0.0
 30
0.0
  9
$PUCSYDIR
 10
0.0
 20
1.0
 30
0.0
  9
$USERI1
 70
     0
  9
$USERI2
 70
     0
  9
$USERI3
 70
     0
  9
$USERI4
 70
     0
  9
$USERI5
 70
     0
  9
$USERR1
 40
0.0
  9
$USERR2
 40
0.0
  9
$USERR3
 40
0.0
  9
$USERR4
 40
0.0
  9
$USERR5
 40
0.0
  9
$WORLDVIEW
 70
     1
  9
$SHADEDGE
 70
     3
  9
$SHADEDIF
 70
    70
  9
$TILEMODE
 70
     1
  9
$MAXACTVP
 70
    16
  9
$PINSBASE
 10
0.0
 20
0.0
 30
0.0
  9
$PLIMCHECK
 70
     0
  9
$PEXTMIN
 10
1.000000000000000E+20
 20
1.000000000000000E+20
 30
1.000000000000000E+20
  9
$PEXTMAX
 10
-1.000000000000000E+20
 20
-1.000000000000000E+20
 30
-1.000000000000000E+20
  9
$PLIMMIN
 10
0.0
 20
0.0
  9
$PLIMMAX
 10
12.0
 20
9.0
  9
$UNITMODE
 70
     0
  9
$VISRETAIN
 70
     0
  9
$PLINEGEN
 70
     0
  9
$PSLTSCALE
 70
     1
  9
$TREEDEPTH
 70
  3020
  9
$PICKSTYLE
 70
     1
  9
$CMLSTYLE
  2
STANDARD
  9
$CMLJUST
 70
     0
  9
$CMLSCALE
 40
1.0
  9
$SAVEIMAGES
 70
     1
  0
ENDSEC
  0
SECTION
  2
CLASSES
  0
CLASS
  1
ACDBDICTIONARYWDFLT
  2
AcDbDictionaryWithDefault
  3
AutoCAD 2000
 90
    32768
280
     0
281
     0
  0
CLASS
  1
ACDBPLACEHOLDER
  2
AcDbPlaceHolder
  3
AutoCAD 2000
 90
    32768
280
     0
281
     0
  0
CLASS
  1
LAYOUT
  2
AcDbLayout
  3
AutoCAD 2000
 90
    32768
280
     0
281
     0
  0
CLASS
  1
LONG_TRANSACTION
  2
AcDbLongTransaction
  3
AutoCAD 2000
 90
    32768
280
     0
281
     0
  0
CLASS
  1
LWPOLYLINE
  2
AcDbPolyline
  3
AutoCAD 2000
 90
    32768
280
     0
281
     1
  0
CLASS
  1
HATCH
  2
AcDbHatch
  3
AutoCAD 2000
 90
    32768
280
     0
281
     1
  0
CLASS
  1
XRECORD
  2
AcDbXrecord
  3
AutoCAD 2000
 90
    32768
280
     0
281
     0
  0
CLASS
  1
LONG_TRANSACTION
  2
AcDbLongTransaction
  3
AutoCAD 2000
 90
    32768
280
     0
281
     0
  0
CLASS
  1
LWPOLYLINE
  2
AcDbPolyline
  3
AutoCAD 2000
 90
    32768
280
     0
281
     1
  0
CLASS
  1
HATCH
  2
AcDbHatch
  3
AutoCAD 2000
 90
    32768
280
     0
281
     1
  0
CLASS
  1
XRECORD
  2
AcDbXrecord
  3
AutoCAD 2000
 90
    32768
280
     0
281
     0
  0
CLASS
  1
LONG_TRANSACTION
  2
AcDbLongTransaction
  3
AutoCAD 2000
 90
    32768
280
     0
281
     0
  0
CLASS
  1
LWPOLYLINE
  2
AcDbPolyline
  3
AutoCAD 2000
 90
    32768
280
     0
281
     1
  0
CLASS
  1
HATCH
  2
AcDbHatch
  3
AutoCAD 2000
 90
    32768
280
     0
281
     1
  0
CLASS
  1
XRECORD
  2
AcDbXrecord
  3
AutoCAD 2000
 90
    32768
280
     0
281
     0
  0
ENDSEC
  0
SECTION
  2
TABLES
  0
TABLE
  2
VPORT
  5
8
330
0
100
AcDbSymbolTable
 70
     3
  0
VPORT
  5
34D1
330
8
100
AcDbSymbolTableRecord
100
AcDbViewportTableRecord
  2
*ACTIVE
 70
     0
 10
0.0
 20
0.0
 11
1.0
 21
1.0
 12
0.4339431400521702
 22
5.1392669894724
 13
0.0
 23
0.0
 14
1.0
 24
1.0
 15
0.0
 25
0.0
 16
0.0
 26
0.0
 36
1.0
 17
0.0
 27
0.0
 37
0.0
 40
4.547071269806677
 41
1.647569444444444
 42
50.0
 43
0.0
 44
0.0
 50
0.0
 51
0.0
 71
     0
 72
   100
 73
     1
 74
     1
 75
     0
 76
     0
 77
     0
 78
     0
  0
ENDTAB
  0
TABLE
  2
LTYPE
  5
5
330
0
100
AcDbSymbolTable
 70
    25
  0
LTYPE
  5
13
330
5
100
AcDbSymbolTableRecord
100
AcDbLinetypeTableRecord
  2
BYBLOCK
 70
     0
  3

 72
    65
 73
     0
 40
0.0
  0
LTYPE
  5
14
330
5
100
AcDbSymbolTableRecord
100
AcDbLinetypeTableRecord
  2
BYLAYER
 70
     0
  3

 72
    65
 73
     0
 40
0.0
  0
LTYPE
  5
15
330
5
100
AcDbSymbolTableRecord
100
AcDbLinetypeTableRecord
  2
CONTINUOUS
 70
     0
  3
Solid line
 72
    65
 73
     0
 40
0.0
  0
LTYPE
  5
22
330
5
100
AcDbSymbolTableRecord
100
AcDbLinetypeTableRecord
  2
BORDER
 70
     0
  3
__ __ . __ __ . __ __ . __ __ . __ __ . __ __ .
 72
    65
 73
     6
 40
1.75
 49
0.5
 74
     0
 49
-0.25
 74
     0
 49
0.5
 74
     0
 49
-0.25
 74
     0
 49
0.5
 74
     0
 49
-0.25
 74
     0
  0
LTYPE
  5
23
330
5
100
AcDbSymbolTableRecord
100
AcDbLinetypeTableRecord
  2
BORDER2
 70
     0
  3
__.__.__.__.__.__.__.__.__.__.__.__.__.__.__.__
 72
    65
 73
     6
 40
0.875
 49
0.25
 74
     0
 49
-0.125
 74
     0
 49
0.25
 74
     0
 49
-0.125
 74
     0
 49
0.25
 74
     0
 49
-0.125
 74
     0
  0
LTYPE
  5
24
330
5
100
AcDbSymbolTableRecord
100
AcDbLinetypeTableRecord
  2
BORDERX2
 70
     0
  3
____  ____  .  ____  ____  .  
 72
    65
 73
     6
 40
3.5
 49
1.0
 74
     0
 49
-0.5
 74
     0
 49
1.0
 74
     0
 49
-0.5
 74
     0
 49
1.0
 74
     0
 49
-0.5
 74
     0
  0
LTYPE
  5
25
330
5
100
AcDbSymbolTableRecord
100
AcDbLinetypeTableRecord
  2
CENTER
 70
     0
  3
____ _ ____ _ ____ _ ____ _ ____ _ ____ _ ____
 72
    65
 73
     4
 40
2.0
 49
1.25
 74
     0
 49
-0.25
 74
     0
 49
0.25
 74
     0
 49
-0.25
 74
     0
  0
LTYPE
  5
26
330
5
100
AcDbSymbolTableRecord
100
AcDbLinetypeTableRecord
  2
CENTER2
 70
     0
  3
____ _ ____ _ ____ _ ____ _ ____ _ ____ _ ____
 72
    65
 73
     4
 40
1.125
 49
0.75
 74
     0
 49
-0.125
 74
     0
 49
0.125
 74
     0
 49
-0.125
 74
     0
  0
LTYPE
  5
27
330
5
100
AcDbSymbolTableRecord
100
AcDbLinetypeTableRecord
  2
CENTERX2
 70
     0
  3
________  __  ________  __  ________  __  
 72
    65
 73
     4
 40
4.0
 49
2.5
 74
     0
 49
-0.5
 74
     0
 49
0.5
 74
     0
 49
-0.5
 74
     0
  0
LTYPE
  5
28
330
5
100
AcDbSymbolTableRecord
100
AcDbLinetypeTableRecord
  2
DASHDOT
 70
     0
  3
__ . __ . __ . __ . __ . __ . __ . 
 72
    65
 73
     4
 40
1.0
 49
0.5
 74
     0
 49
-0.25
 74
     0
 49
0.0
 74
     0
 49
-0.25
 74
     0
  0
LTYPE
  5
29
330
5
100
AcDbSymbolTableRecord
100
AcDbLinetypeTableRecord
  2
DASHDOT2
 70
     0
  3
_._._._._._._._._._._._._._._._.
 72
    65
 73
     4
 40
0.5
 49
0.25
 74
     0
 49
-0.125
 74
     0
 49
0.0
 74
     0
 49
-0.125
 74
     0
  0
LTYPE
  5
2A
330
5
100
AcDbSymbolTableRecord
100
AcDbLinetypeTableRecord
  2
DASHDOTX2
 70
     0
  3
____  .  ____  .  ____  .  ____  .  
 72
    65
 73
     4
 40
2.0
 49
1.0
 74
     0
 49
-0.5
 74
     0
 49
0.0
 74
     0
 49
-0.5
 74
     0
  0
LTYPE
  5
2B
330
5
100
AcDbSymbolTableRecord
100
AcDbLinetypeTableRecord
  2
DASHED
 70
     0
  3
__ __ __ __ __ __ __ __ __ __ __ __ 
 72
    65
 73
     2
 40
0.75
 49
0.5
 74
     0
 49
-0.25
 74
     0
  0
LTYPE
  5
2C
330
5
100
AcDbSymbolTableRecord
100
AcDbLinetypeTableRecord
  2
DASHED2
 70
     0
  3
_ _ _ _ _ _ _ _ _ _ _ _ _ _ _ _ _ _ 
 72
    65
 73
     2
 40
0.375
 49
0.25
 74
     0
 49
-0.125
 74
     0
  0
LTYPE
  5
2D
330
5
100
AcDbSymbolTableRecord
100
AcDbLinetypeTableRecord
  2
DASHEDX2
 70
     0
  3
____  ____  ____  ____  ____  ____  
 72
    65
 73
     2
 40
1.5
 49
1.0
 74
     0
 49
-0.5
 74
     0
  0
LTYPE
  5
2E
330
5
100
AcDbSymbolTableRecord
100
AcDbLinetypeTableRecord
  2
DIVIDE
 70
     0
  3
____ . . ____ . . ____ . . ____ . . 
 72
    65
 73
     6
 40
1.25
 49
0.5
 74
     0
 49
-0.25
 74
     0
 49
0.0
 74
     0
 49
-0.25
 74
     0
 49
0.0
 74
     0
 49
-0.25
 74
     0
  0
LTYPE
  5
2F
330
5
100
AcDbSymbolTableRecord
100
AcDbLinetypeTableRecord
  2
DIVIDE2
 70
     0
  3
__..__..__..__..__..__..__..__..__..
 72
    65
 73
     6
 40
0.625
 49
0.25
 74
     0
 49
-0.125
 74
     0
 49
0.0
 74
     0
 49
-0.125
 74
     0
 49
0.0
 74
     0
 49
-0.125
 74
     0
  0
LTYPE
  5
30
330
5
100
AcDbSymbolTableRecord
100
AcDbLinetypeTableRecord
  2
DIVIDEX2
 70
     0
  3
________  .  .  ________  .  .  ________  .  . 
 72
    65
 73
     6
 40
2.5
 49
1.0
 74
     0
 49
-0.5
 74
     0
 49
0.0
 74
     0
 49
-0.5
 74
     0
 49
0.0
 74
     0
 49
-0.5
 74
     0
  0
LTYPE
  5
31
330
5
100
AcDbSymbolTableRecord
100
AcDbLinetypeTableRecord
  2
DOT
 70
     0
  3
. . . . . . . . . . . . . . . . . . 
 72
    65
 73
     2
 40
0.25
 49
0.0
 74
     0
 49
-0.25
 74
     0
  0
LTYPE
  5
32
330
5
100
AcDbSymbolTableRecord
100
AcDbLinetypeTableRecord
  2
DOT2
 70
     0
  3
....................................
 72
    65
 73
     2
 40
0.125
 49
0.0
 74
     0
 49
-0.125
 74
     0
  0
LTYPE
  5
33
330
5
100
AcDbSymbolTableRecord
100
AcDbLinetypeTableRecord
  2
DOTX2
 70
     0
  3
.  .  .  .  .  .  .  .  .  .  .  .  .  
 72
    65
 73
     2
 40
0.5
 49
0.0
 74
     0
 49
-0.5
 74
     0
  0
LTYPE
  5
34
330
5
100
AcDbSymbolTableRecord
100
AcDbLinetypeTableRecord
  2
HIDDEN
 70
     0
  3
__ __ __ __ __ __ __ __ __ __ __ __ 
 72
    65
 73
     2
 40
0.375
 49
0.25
 74
     0
 49
-0.125
 74
     0
  0
LTYPE
  5
35
330
5
100
AcDbSymbolTableRecord
100
AcDbLinetypeTableRecord
  2
HIDDEN2
 70
     0
  3
_ _ _ _ _ _ _ _ _ _ _ _ _ _ _ _ _ _ 
 72
    65
 73
     2
 40
0.1875
 49
0.125
 74
     0
 49
-0.0625
 74
     0
  0
LTYPE
  5
36
330
5
100
AcDbSymbolTableRecord
100
AcDbLinetypeTableRecord
  2
HIDDENX2
 70
     0
  3
____ ____ ____ ____ ____ ____ ____ 
 72
    65
 73
     2
 40
0.75
 49
0.5
 74
     0
 49
-0.25
 74
     0
  0
LTYPE
  5
37
330
5
100
AcDbSymbolTableRecord
100
AcDbLinetypeTableRecord
  2
PHANTOM
 70
     0
  3
______  __  __  ______  __  __  
 72
    65
 73
     6
 40
2.5
 49
1.25
 74
     0
 49
-0.25
 74
     0
 49
0.25
 74
     0
 49
-0.25
 74
     0
 49
0.25
 74
     0
 49
-0.25
 74
     0
  0
LTYPE
  5
38
330
5
100
AcDbSymbolTableRecord
100
AcDbLinetypeTableRecord
  2
PHANTOM2
 70
     0
  3
___ _ _ ___ _ _ ___ _ _ ___ _ _ 
 72
    65
 73
     6
 40
1.25
 49
0.625
 74
     0
 49
-0.125
 74
     0
 49
0.125
 74
     0
 49
-0.125
 74
     0
 49
0.125
 74
     0
 49
-0.125
 74
     0
  0
LTYPE
  5
39
330
5
100
AcDbSymbolTableRecord
100
AcDbLinetypeTableRecord
  2
PHANTOMX2
 70
     0
  3
___ _ _ ___ _ _ ___ _ _ ___ _ _ 
 72
    65
 73
     6
 40
5.0
 49
2.5
 74
     0
 49
-0.5
 74
     0
 49
0.5
 74
     0
 49
-0.5
 74
     0
 49
0.5
 74
     0
 49
-0.5
 74
     0
  0
ENDTAB
  0
TABLE
  2
LAYER
  5
2
330
0
100
AcDbSymbolTable
 70
   256
  0
LAYER
  5
10
330
2
100
AcDbSymbolTableRecord
100
AcDbLayerTableRecord
  2
0
 70
     0
 62
     7
  6
CONTINUOUS
  0
LAYER
  5
3A
330
2
100
AcDbSymbolTableRecord
100
AcDbLayerTableRecord
  2
1
 70
     0
 62
     1
  6
CONTINUOUS
  0
LAYER
  5
3B
330
2
100
AcDbSymbolTableRecord
100
AcDbLayerTableRecord
  2
2
 70
     0
 62
     2
  6
CONTINUOUS
  0
LAYER
  5
3C
330
2
100
AcDbSymbolTableRecord
100
AcDbLayerTableRecord
  2
3
 70
     0
 62
     3
  6
CONTINUOUS
  0
LAYER
  5
3D
330
2
100
AcDbSymbolTableRecord
100
AcDbLayerTableRecord
  2
4
 70
     0
 62
     4
  6
CONTINUOUS
  0
LAYER
  5
3E
330
2
100
AcDbSymbolTableRecord
100
AcDbLayerTableRecord
  2
5
 70
     0
 62
     5
  6
CONTINUOUS
  0
LAYER
  5
3F
330
2
100
AcDbSymbolTableRecord
100
AcDbLayerTableRecord
  2
6
 70
     0
 62
     6
  6
CONTINUOUS
  0
LAYER
  5
40
330
2
100
AcDbSymbolTableRecord
100
AcDbLayerTableRecord
  2
7
 70
     0
 62
     7
  6
CONTINUOUS
  0
LAYER
  5
41
330
2
100
AcDbSymbolTableRecord
100
AcDbLayerTableRecord
  2
8
 70
     0
 62
     8
  6
CONTINUOUS
  0
LAYER
  5
42
330
2
100
AcDbSymbolTableRecord
100
AcDbLayerTableRecord
  2
9
 70
     0
 62
     9
  6
CONTINUOUS
  0
LAYER
  5
43
330
2
100
AcDbSymbolTableRecord
100
AcDbLayerTableRecord
  2
10
 70
     0
 62
    10
  6
CONTINUOUS
  0
LAYER
  5
44
330
2
100
AcDbSymbolTableRecord
100
AcDbLayerTableRecord
  2
11
 70
     0
 62
    11
  6
CONTINUOUS
  0
LAYER
  5
45
330
2
100
AcDbSymbolTableRecord
100
AcDbLayerTableRecord
  2
12
 70
     0
 62
    12
  6
CONTINUOUS
  0
LAYER
  5
46
330
2
100
AcDbSymbolTableRecord
100
AcDbLayerTableRecord
  2
13
 70
     0
 62
    13
  6
CONTINUOUS
  0
LAYER
  5
47
330
2
100
AcDbSymbolTableRecord
100
AcDbLayerTableRecord
  2
14
 70
     0
 62
    14
  6
CONTINUOUS
  0
LAYER
  5
48
330
2
100
AcDbSymbolTableRecord
100
AcDbLayerTableRecord
  2
15
 70
     0
 62
    15
  6
CONTINUOUS
  0
LAYER
  5
49
330
2
100
AcDbSymbolTableRecord
100
AcDbLayerTableRecord
  2
16
 70
     0
 62
    16
  6
CONTINUOUS
  0
LAYER
  5
4A
330
2
100
AcDbSymbolTableRecord
100
AcDbLayerTableRecord
  2
17
 70
     0
 62
    17
  6
CONTINUOUS
  0
LAYER
  5
4B
330
2
100
AcDbSymbolTableRecord
100
AcDbLayerTableRecord
  2
18
 70
     0
 62
    18
  6
CONTINUOUS
  0
LAYER
  5
4C
330
2
100
AcDbSymbolTableRecord
100
AcDbLayerTableRecord
  2
19
 70
     0
 62
    19
  6
CONTINUOUS
  0
LAYER
  5
4D
330
2
100
AcDbSymbolTableRecord
100
AcDbLayerTableRecord
  2
20
 70
     0
 62
    20
  6
CONTINUOUS
  0
LAYER
  5
4E
330
2
100
AcDbSymbolTableRecord
100
AcDbLayerTableRecord
  2
21
 70
     0
 62
    21
  6
CONTINUOUS
  0
LAYER
  5
4F
330
2
100
AcDbSymbolTableRecord
100
AcDbLayerTableRecord
  2
22
 70
     0
 62
    22
  6
CONTINUOUS
  0
LAYER
  5
50
330
2
100
AcDbSymbolTableRecord
100
AcDbLayerTableRecord
  2
23
 70
     0
 62
    23
  6
CONTINUOUS
  0
LAYER
  5
51
330
2
100
AcDbSymbolTableRecord
100
AcDbLayerTableRecord
  2
24
 70
     0
 62
    24
  6
CONTINUOUS
  0
LAYER
  5
52
330
2
100
AcDbSymbolTableRecord
100
AcDbLayerTableRecord
  2
25
 70
     0
 62
    25
  6
CONTINUOUS
  0
LAYER
  5
53
330
2
100
AcDbSymbolTableRecord
100
AcDbLayerTableRecord
  2
26
 70
     0
 62
    26
  6
CONTINUOUS
  0
LAYER
  5
54
330
2
100
AcDbSymbolTableRecord
100
AcDbLayerTableRecord
  2
27
 70
     0
 62
    27
  6
CONTINUOUS
  0
LAYER
  5
55
330
2
100
AcDbSymbolTableRecord
100
AcDbLayerTableRecord
  2
28
 70
     0
 62
    28
  6
CONTINUOUS
  0
LAYER
  5
56
330
2
100
AcDbSymbolTableRecord
100
AcDbLayerTableRecord
  2
29
 70
     0
 62
    29
  6
CONTINUOUS
  0
LAYER
  5
57
330
2
100
AcDbSymbolTableRecord
100
AcDbLayerTableRecord
  2
30
 70
     0
 62
    30
  6
CONTINUOUS
  0
LAYER
  5
58
330
2
100
AcDbSymbolTableRecord
100
AcDbLayerTableRecord
  2
31
 70
     0
 62
    31
  6
CONTINUOUS
  0
LAYER
  5
59
330
2
100
AcDbSymbolTableRecord
100
AcDbLayerTableRecord
  2
32
 70
     0
 62
    32
  6
CONTINUOUS
  0
LAYER
  5
5A
330
2
100
AcDbSymbolTableRecord
100
AcDbLayerTableRecord
  2
33
 70
     0
 62
    33
  6
CONTINUOUS
  0
LAYER
  5
5B
330
2
100
AcDbSymbolTableRecord
100
AcDbLayerTableRecord
  2
34
 70
     0
 62
    34
  6
CONTINUOUS
  0
LAYER
  5
5C
330
2
100
AcDbSymbolTableRecord
100
AcDbLayerTableRecord
  2
35
 70
     0
 62
    35
  6
CONTINUOUS
  0
LAYER
  5
5D
330
2
100
AcDbSymbolTableRecord
100
AcDbLayerTableRecord
  2
36
 70
     0
 62
    36
  6
CONTINUOUS
  0
LAYER
  5
5E
330
2
100
AcDbSymbolTableRecord
100
AcDbLayerTableRecord
  2
37
 70
     0
 62
    37
  6
CONTINUOUS
  0
LAYER
  5
5F
330
2
100
AcDbSymbolTableRecord
100
AcDbLayerTableRecord
  2
38
 70
     0
 62
    38
  6
CONTINUOUS
  0
LAYER
  5
60
330
2
100
AcDbSymbolTableRecord
100
AcDbLayerTableRecord
  2
39
 70
     0
 62
    39
  6
CONTINUOUS
  0
LAYER
  5
61
330
2
100
AcDbSymbolTableRecord
100
AcDbLayerTableRecord
  2
40
 70
     0
 62
    40
  6
CONTINUOUS
  0
LAYER
  5
62
330
2
100
AcDbSymbolTableRecord
100
AcDbLayerTableRecord
  2
41
 70
     0
 62
    41
  6
CONTINUOUS
  0
LAYER
  5
63
330
2
100
AcDbSymbolTableRecord
100
AcDbLayerTableRecord
  2
42
 70
     0
 62
    42
  6
CONTINUOUS
  0
LAYER
  5
64
330
2
100
AcDbSymbolTableRecord
100
AcDbLayerTableRecord
  2
43
 70
     0
 62
    43
  6
CONTINUOUS
  0
LAYER
  5
65
330
2
100
AcDbSymbolTableRecord
100
AcDbLayerTableRecord
  2
44
 70
     0
 62
    44
  6
CONTINUOUS
  0
LAYER
  5
66
330
2
100
AcDbSymbolTableRecord
100
AcDbLayerTableRecord
  2
45
 70
     0
 62
    45
  6
CONTINUOUS
  0
LAYER
  5
67
330
2
100
AcDbSymbolTableRecord
100
AcDbLayerTableRecord
  2
46
 70
     0
 62
    46
  6
CONTINUOUS
  0
LAYER
  5
68
330
2
100
AcDbSymbolTableRecord
100
AcDbLayerTableRecord
  2
47
 70
     0
 62
    47
  6
CONTINUOUS
  0
LAYER
  5
69
330
2
100
AcDbSymbolTableRecord
100
AcDbLayerTableRecord
  2
48
 70
     0
 62
    48
  6
CONTINUOUS
  0
LAYER
  5
6A
330
2
100
AcDbSymbolTableRecord
100
AcDbLayerTableRecord
  2
49
 70
     0
 62
    49
  6
CONTINUOUS
  0
LAYER
  5
6B
330
2
100
AcDbSymbolTableRecord
100
AcDbLayerTableRecord
  2
50
 70
     0
 62
    50
  6
CONTINUOUS
  0
LAYER
  5
6C
330
2
100
AcDbSymbolTableRecord
100
AcDbLayerTableRecord
  2
51
 70
     0
 62
    51
  6
CONTINUOUS
  0
LAYER
  5
6D
330
2
100
AcDbSymbolTableRecord
100
AcDbLayerTableRecord
  2
52
 70
     0
 62
    52
  6
CONTINUOUS
  0
LAYER
  5
6E
330
2
100
AcDbSymbolTableRecord
100
AcDbLayerTableRecord
  2
53
 70
     0
 62
    53
  6
CONTINUOUS
  0
LAYER
  5
6F
330
2
100
AcDbSymbolTableRecord
100
AcDbLayerTableRecord
  2
54
 70
     0
 62
    54
  6
CONTINUOUS
  0
LAYER
  5
70
330
2
100
AcDbSymbolTableRecord
100
AcDbLayerTableRecord
  2
55
 70
     0
 62
    55
  6
CONTINUOUS
  0
LAYER
  5
71
330
2
100
AcDbSymbolTableRecord
100
AcDbLayerTableRecord
  2
56
 70
     0
 62
    56
  6
CONTINUOUS
  0
LAYER
  5
72
330
2
100
AcDbSymbolTableRecord
100
AcDbLayerTableRecord
  2
57
 70
     0
 62
    57
  6
CONTINUOUS
  0
LAYER
  5
73
330
2
100
AcDbSymbolTableRecord
100
AcDbLayerTableRecord
  2
58
 70
     0
 62
    58
  6
CONTINUOUS
  0
LAYER
  5
74
330
2
100
AcDbSymbolTableRecord
100
AcDbLayerTableRecord
  2
59
 70
     0
 62
    59
  6
CONTINUOUS
  0
LAYER
  5
75
330
2
100
AcDbSymbolTableRecord
100
AcDbLayerTableRecord
  2
60
 70
     0
 62
    60
  6
CONTINUOUS
  0
LAYER
  5
76
330
2
100
AcDbSymbolTableRecord
100
AcDbLayerTableRecord
  2
61
 70
     0
 62
    61
  6
CONTINUOUS
  0
LAYER
  5
77
330
2
100
AcDbSymbolTableRecord
100
AcDbLayerTableRecord
  2
62
 70
     0
 62
    62
  6
CONTINUOUS
  0
LAYER
  5
78
330
2
100
AcDbSymbolTableRecord
100
AcDbLayerTableRecord
  2
63
 70
     0
 62
    63
  6
CONTINUOUS
  0
LAYER
  5
79
330
2
100
AcDbSymbolTableRecord
100
AcDbLayerTableRecord
  2
64
 70
     0
 62
    64
  6
CONTINUOUS
  0
LAYER
  5
7A
330
2
100
AcDbSymbolTableRecord
100
AcDbLayerTableRecord
  2
65
 70
     0
 62
    65
  6
CONTINUOUS
  0
LAYER
  5
7B
330
2
100
AcDbSymbolTableRecord
100
AcDbLayerTableRecord
  2
66
 70
     0
 62
    66
  6
CONTINUOUS
  0
LAYER
  5
7C
330
2
100
AcDbSymbolTableRecord
100
AcDbLayerTableRecord
  2
67
 70
     0
 62
    67
  6
CONTINUOUS
  0
LAYER
  5
7D
330
2
100
AcDbSymbolTableRecord
100
AcDbLayerTableRecord
  2
68
 70
     0
 62
    68
  6
CONTINUOUS
  0
LAYER
  5
7E
330
2
100
AcDbSymbolTableRecord
100
AcDbLayerTableRecord
  2
69
 70
     0
 62
    69
  6
CONTINUOUS
  0
LAYER
  5
7F
330
2
100
AcDbSymbolTableRecord
100
AcDbLayerTableRecord
  2
70
 70
     0
 62
    70
  6
CONTINUOUS
  0
LAYER
  5
80
330
2
100
AcDbSymbolTableRecord
100
AcDbLayerTableRecord
  2
71
 70
     0
 62
    71
  6
CONTINUOUS
  0
LAYER
  5
81
330
2
100
AcDbSymbolTableRecord
100
AcDbLayerTableRecord
  2
72
 70
     0
 62
    72
  6
CONTINUOUS
  0
LAYER
  5
82
330
2
100
AcDbSymbolTableRecord
100
AcDbLayerTableRecord
  2
73
 70
     0
 62
    73
  6
CONTINUOUS
  0
LAYER
  5
83
330
2
100
AcDbSymbolTableRecord
100
AcDbLayerTableRecord
  2
74
 70
     0
 62
    74
  6
CONTINUOUS
  0
LAYER
  5
84
330
2
100
AcDbSymbolTableRecord
100
AcDbLayerTableRecord
  2
75
 70
     0
 62
    75
  6
CONTINUOUS
  0
LAYER
  5
85
330
2
100
AcDbSymbolTableRecord
100
AcDbLayerTableRecord
  2
76
 70
     0
 62
    76
  6
CONTINUOUS
  0
LAYER
  5
86
330
2
100
AcDbSymbolTableRecord
100
AcDbLayerTableRecord
  2
77
 70
     0
 62
    77
  6
CONTINUOUS
  0
LAYER
  5
87
330
2
100
AcDbSymbolTableRecord
100
AcDbLayerTableRecord
  2
78
 70
     0
 62
    78
  6
CONTINUOUS
  0
LAYER
  5
88
330
2
100
AcDbSymbolTableRecord
100
AcDbLayerTableRecord
  2
79
 70
     0
 62
    79
  6
CONTINUOUS
  0
LAYER
  5
89
330
2
100
AcDbSymbolTableRecord
100
AcDbLayerTableRecord
  2
80
 70
     0
 62
    80
  6
CONTINUOUS
  0
LAYER
  5
8A
330
2
100
AcDbSymbolTableRecord
100
AcDbLayerTableRecord
  2
81
 70
     0
 62
    81
  6
CONTINUOUS
  0
LAYER
  5
8B
330
2
100
AcDbSymbolTableRecord
100
AcDbLayerTableRecord
  2
82
 70
     0
 62
    82
  6
CONTINUOUS
  0
LAYER
  5
8C
330
2
100
AcDbSymbolTableRecord
100
AcDbLayerTableRecord
  2
83
 70
     0
 62
    83
  6
CONTINUOUS
  0
LAYER
  5
8D
330
2
100
AcDbSymbolTableRecord
100
AcDbLayerTableRecord
  2
84
 70
     0
 62
    84
  6
CONTINUOUS
  0
LAYER
  5
8E
330
2
100
AcDbSymbolTableRecord
100
AcDbLayerTableRecord
  2
85
 70
     0
 62
    85
  6
CONTINUOUS
  0
LAYER
  5
8F
330
2
100
AcDbSymbolTableRecord
100
AcDbLayerTableRecord
  2
86
 70
     0
 62
    86
  6
CONTINUOUS
  0
LAYER
  5
90
330
2
100
AcDbSymbolTableRecord
100
AcDbLayerTableRecord
  2
87
 70
     0
 62
    87
  6
CONTINUOUS
  0
LAYER
  5
91
330
2
100
AcDbSymbolTableRecord
100
AcDbLayerTableRecord
  2
88
 70
     0
 62
    88
  6
CONTINUOUS
  0
LAYER
  5
92
330
2
100
AcDbSymbolTableRecord
100
AcDbLayerTableRecord
  2
89
 70
     0
 62
    89
  6
CONTINUOUS
  0
LAYER
  5
93
330
2
100
AcDbSymbolTableRecord
100
AcDbLayerTableRecord
  2
90
 70
     0
 62
    90
  6
CONTINUOUS
  0
LAYER
  5
94
330
2
100
AcDbSymbolTableRecord
100
AcDbLayerTableRecord
  2
91
 70
     0
 62
    91
  6
CONTINUOUS
  0
LAYER
  5
95
330
2
100
AcDbSymbolTableRecord
100
AcDbLayerTableRecord
  2
92
 70
     0
 62
    92
  6
CONTINUOUS
  0
LAYER
  5
96
330
2
100
AcDbSymbolTableRecord
100
AcDbLayerTableRecord
  2
93
 70
     0
 62
    93
  6
CONTINUOUS
  0
LAYER
  5
97
330
2
100
AcDbSymbolTableRecord
100
AcDbLayerTableRecord
  2
94
 70
     0
 62
    94
  6
CONTINUOUS
  0
LAYER
  5
98
330
2
100
AcDbSymbolTableRecord
100
AcDbLayerTableRecord
  2
95
 70
     0
 62
    95
  6
CONTINUOUS
  0
LAYER
  5
99
330
2
100
AcDbSymbolTableRecord
100
AcDbLayerTableRecord
  2
96
 70
     0
 62
    96
  6
CONTINUOUS
  0
LAYER
  5
9A
330
2
100
AcDbSymbolTableRecord
100
AcDbLayerTableRecord
  2
97
 70
     0
 62
    97
  6
CONTINUOUS
  0
LAYER
  5
9B
330
2
100
AcDbSymbolTableRecord
100
AcDbLayerTableRecord
  2
98
 70
     0
 62
    98
  6
CONTINUOUS
  0
LAYER
  5
9C
330
2
100
AcDbSymbolTableRecord
100
AcDbLayerTableRecord
  2
99
 70
     0
 62
    99
  6
CONTINUOUS
  0
LAYER
  5
9D
330
2
100
AcDbSymbolTableRecord
100
AcDbLayerTableRecord
  2
100
 70
     0
 62
   100
  6
CONTINUOUS
  0
LAYER
  5
9E
330
2
100
AcDbSymbolTableRecord
100
AcDbLayerTableRecord
  2
101
 70
     0
 62
   101
  6
CONTINUOUS
  0
LAYER
  5
9F
330
2
100
AcDbSymbolTableRecord
100
AcDbLayerTableRecord
  2
102
 70
     0
 62
   102
  6
CONTINUOUS
  0
LAYER
  5
A0
330
2
100
AcDbSymbolTableRecord
100
AcDbLayerTableRecord
  2
103
 70
     0
 62
   103
  6
CONTINUOUS
  0
LAYER
  5
A1
330
2
100
AcDbSymbolTableRecord
100
AcDbLayerTableRecord
  2
104
 70
     0
 62
   104
  6
CONTINUOUS
  0
LAYER
  5
A2
330
2
100
AcDbSymbolTableRecord
100
AcDbLayerTableRecord
  2
105
 70
     0
 62
   105
  6
CONTINUOUS
  0
LAYER
  5
A3
330
2
100
AcDbSymbolTableRecord
100
AcDbLayerTableRecord
  2
106
 70
     0
 62
   106
  6
CONTINUOUS
  0
LAYER
  5
A4
330
2
100
AcDbSymbolTableRecord
100
AcDbLayerTableRecord
  2
107
 70
     0
 62
   107
  6
CONTINUOUS
  0
LAYER
  5
A5
330
2
100
AcDbSymbolTableRecord
100
AcDbLayerTableRecord
  2
108
 70
     0
 62
   108
  6
CONTINUOUS
  0
LAYER
  5
A6
330
2
100
AcDbSymbolTableRecord
100
AcDbLayerTableRecord
  2
109
 70
     0
 62
   109
  6
CONTINUOUS
  0
LAYER
  5
A7
330
2
100
AcDbSymbolTableRecord
100
AcDbLayerTableRecord
  2
110
 70
     0
 62
   110
  6
CONTINUOUS
  0
LAYER
  5
A8
330
2
100
AcDbSymbolTableRecord
100
AcDbLayerTableRecord
  2
111
 70
     0
 62
   111
  6
CONTINUOUS
  0
LAYER
  5
A9
330
2
100
AcDbSymbolTableRecord
100
AcDbLayerTableRecord
  2
112
 70
     0
 62
   112
  6
CONTINUOUS
  0
LAYER
  5
AA
330
2
100
AcDbSymbolTableRecord
100
AcDbLayerTableRecord
  2
113
 70
     0
 62
   113
  6
CONTINUOUS
  0
LAYER
  5
AB
330
2
100
AcDbSymbolTableRecord
100
AcDbLayerTableRecord
  2
114
 70
     0
 62
   114
  6
CONTINUOUS
  0
LAYER
  5
AC
330
2
100
AcDbSymbolTableRecord
100
AcDbLayerTableRecord
  2
115
 70
     0
 62
   115
  6
CONTINUOUS
  0
LAYER
  5
AD
330
2
100
AcDbSymbolTableRecord
100
AcDbLayerTableRecord
  2
116
 70
     0
 62
   116
  6
CONTINUOUS
  0
LAYER
  5
AE
330
2
100
AcDbSymbolTableRecord
100
AcDbLayerTableRecord
  2
117
 70
     0
 62
   117
  6
CONTINUOUS
  0
LAYER
  5
AF
330
2
100
AcDbSymbolTableRecord
100
AcDbLayerTableRecord
  2
118
 70
     0
 62
   118
  6
CONTINUOUS
  0
LAYER
  5
B0
330
2
100
AcDbSymbolTableRecord
100
AcDbLayerTableRecord
  2
119
 70
     0
 62
   119
  6
CONTINUOUS
  0
LAYER
  5
B1
330
2
100
AcDbSymbolTableRecord
100
AcDbLayerTableRecord
  2
120
 70
     0
 62
   120
  6
CONTINUOUS
  0
LAYER
  5
B2
330
2
100
AcDbSymbolTableRecord
100
AcDbLayerTableRecord
  2
121
 70
     0
 62
   121
  6
CONTINUOUS
  0
LAYER
  5
B3
330
2
100
AcDbSymbolTableRecord
100
AcDbLayerTableRecord
  2
122
 70
     0
 62
   122
  6
CONTINUOUS
  0
LAYER
  5
B4
330
2
100
AcDbSymbolTableRecord
100
AcDbLayerTableRecord
  2
123
 70
     0
 62
   123
  6
CONTINUOUS
  0
LAYER
  5
B5
330
2
100
AcDbSymbolTableRecord
100
AcDbLayerTableRecord
  2
124
 70
     0
 62
   124
  6
CONTINUOUS
  0
LAYER
  5
B6
330
2
100
AcDbSymbolTableRecord
100
AcDbLayerTableRecord
  2
125
 70
     0
 62
   125
  6
CONTINUOUS
  0
LAYER
  5
B7
330
2
100
AcDbSymbolTableRecord
100
AcDbLayerTableRecord
  2
126
 70
     0
 62
   126
  6
CONTINUOUS
  0
LAYER
  5
B8
330
2
100
AcDbSymbolTableRecord
100
AcDbLayerTableRecord
  2
127
 70
     0
 62
   127
  6
CONTINUOUS
  0
LAYER
  5
B9
330
2
100
AcDbSymbolTableRecord
100
AcDbLayerTableRecord
  2
128
 70
     0
 62
   128
  6
CONTINUOUS
  0
LAYER
  5
BA
330
2
100
AcDbSymbolTableRecord
100
AcDbLayerTableRecord
  2
129
 70
     0
 62
   129
  6
CONTINUOUS
  0
LAYER
  5
BB
330
2
100
AcDbSymbolTableRecord
100
AcDbLayerTableRecord
  2
130
 70
     0
 62
   130
  6
CONTINUOUS
  0
LAYER
  5
BC
330
2
100
AcDbSymbolTableRecord
100
AcDbLayerTableRecord
  2
131
 70
     0
 62
   131
  6
CONTINUOUS
  0
LAYER
  5
BD
330
2
100
AcDbSymbolTableRecord
100
AcDbLayerTableRecord
  2
132
 70
     0
 62
   132
  6
CONTINUOUS
  0
LAYER
  5
BE
330
2
100
AcDbSymbolTableRecord
100
AcDbLayerTableRecord
  2
133
 70
     0
 62
   133
  6
CONTINUOUS
  0
LAYER
  5
BF
330
2
100
AcDbSymbolTableRecord
100
AcDbLayerTableRecord
  2
134
 70
     0
 62
   134
  6
CONTINUOUS
  0
LAYER
  5
C0
330
2
100
AcDbSymbolTableRecord
100
AcDbLayerTableRecord
  2
135
 70
     0
 62
   135
  6
CONTINUOUS
  0
LAYER
  5
C1
330
2
100
AcDbSymbolTableRecord
100
AcDbLayerTableRecord
  2
136
 70
     0
 62
   136
  6
CONTINUOUS
  0
LAYER
  5
C2
330
2
100
AcDbSymbolTableRecord
100
AcDbLayerTableRecord
  2
137
 70
     0
 62
   137
  6
CONTINUOUS
  0
LAYER
  5
C3
330
2
100
AcDbSymbolTableRecord
100
AcDbLayerTableRecord
  2
138
 70
     0
 62
   138
  6
CONTINUOUS
  0
LAYER
  5
C4
330
2
100
AcDbSymbolTableRecord
100
AcDbLayerTableRecord
  2
139
 70
     0
 62
   139
  6
CONTINUOUS
  0
LAYER
  5
C5
330
2
100
AcDbSymbolTableRecord
100
AcDbLayerTableRecord
  2
140
 70
     0
 62
   140
  6
CONTINUOUS
  0
LAYER
  5
C6
330
2
100
AcDbSymbolTableRecord
100
AcDbLayerTableRecord
  2
141
 70
     0
 62
   141
  6
CONTINUOUS
  0
LAYER
  5
C7
330
2
100
AcDbSymbolTableRecord
100
AcDbLayerTableRecord
  2
142
 70
     0
 62
   142
  6
CONTINUOUS
  0
LAYER
  5
C8
330
2
100
AcDbSymbolTableRecord
100
AcDbLayerTableRecord
  2
143
 70
     0
 62
   143
  6
CONTINUOUS
  0
LAYER
  5
C9
330
2
100
AcDbSymbolTableRecord
100
AcDbLayerTableRecord
  2
144
 70
     0
 62
   144
  6
CONTINUOUS
  0
LAYER
  5
CA
330
2
100
AcDbSymbolTableRecord
100
AcDbLayerTableRecord
  2
145
 70
     0
 62
   145
  6
CONTINUOUS
  0
LAYER
  5
CB
330
2
100
AcDbSymbolTableRecord
100
AcDbLayerTableRecord
  2
146
 70
     0
 62
   146
  6
CONTINUOUS
  0
LAYER
  5
CC
330
2
100
AcDbSymbolTableRecord
100
AcDbLayerTableRecord
  2
147
 70
     0
 62
   147
  6
CONTINUOUS
  0
LAYER
  5
CD
330
2
100
AcDbSymbolTableRecord
100
AcDbLayerTableRecord
  2
148
 70
     0
 62
   148
  6
CONTINUOUS
  0
LAYER
  5
CE
330
2
100
AcDbSymbolTableRecord
100
AcDbLayerTableRecord
  2
149
 70
     0
 62
   149
  6
CONTINUOUS
  0
LAYER
  5
CF
330
2
100
AcDbSymbolTableRecord
100
AcDbLayerTableRecord
  2
150
 70
     0
 62
   150
  6
CONTINUOUS
  0
LAYER
  5
D0
330
2
100
AcDbSymbolTableRecord
100
AcDbLayerTableRecord
  2
151
 70
     0
 62
   151
  6
CONTINUOUS
  0
LAYER
  5
D1
330
2
100
AcDbSymbolTableRecord
100
AcDbLayerTableRecord
  2
152
 70
     0
 62
   152
  6
CONTINUOUS
  0
LAYER
  5
D2
330
2
100
AcDbSymbolTableRecord
100
AcDbLayerTableRecord
  2
153
 70
     0
 62
   153
  6
CONTINUOUS
  0
LAYER
  5
D3
330
2
100
AcDbSymbolTableRecord
100
AcDbLayerTableRecord
  2
154
 70
     0
 62
   154
  6
CONTINUOUS
  0
LAYER
  5
D4
330
2
100
AcDbSymbolTableRecord
100
AcDbLayerTableRecord
  2
155
 70
     0
 62
   155
  6
CONTINUOUS
  0
LAYER
  5
D5
330
2
100
AcDbSymbolTableRecord
100
AcDbLayerTableRecord
  2
156
 70
     0
 62
   156
  6
CONTINUOUS
  0
LAYER
  5
D6
330
2
100
AcDbSymbolTableRecord
100
AcDbLayerTableRecord
  2
157
 70
     0
 62
   157
  6
CONTINUOUS
  0
LAYER
  5
D7
330
2
100
AcDbSymbolTableRecord
100
AcDbLayerTableRecord
  2
158
 70
     0
 62
   158
  6
CONTINUOUS
  0
LAYER
  5
D8
330
2
100
AcDbSymbolTableRecord
100
AcDbLayerTableRecord
  2
159
 70
     0
 62
   159
  6
CONTINUOUS
  0
LAYER
  5
D9
330
2
100
AcDbSymbolTableRecord
100
AcDbLayerTableRecord
  2
160
 70
     0
 62
   160
  6
CONTINUOUS
  0
LAYER
  5
DA
330
2
100
AcDbSymbolTableRecord
100
AcDbLayerTableRecord
  2
161
 70
     0
 62
   161
  6
CONTINUOUS
  0
LAYER
  5
DB
330
2
100
AcDbSymbolTableRecord
100
AcDbLayerTableRecord
  2
162
 70
     0
 62
   162
  6
CONTINUOUS
  0
LAYER
  5
DC
330
2
100
AcDbSymbolTableRecord
100
AcDbLayerTableRecord
  2
163
 70
     0
 62
   163
  6
CONTINUOUS
  0
LAYER
  5
DD
330
2
100
AcDbSymbolTableRecord
100
AcDbLayerTableRecord
  2
164
 70
     0
 62
   164
  6
CONTINUOUS
  0
LAYER
  5
DE
330
2
100
AcDbSymbolTableRecord
100
AcDbLayerTableRecord
  2
165
 70
     0
 62
   165
  6
CONTINUOUS
  0
LAYER
  5
DF
330
2
100
AcDbSymbolTableRecord
100
AcDbLayerTableRecord
  2
166
 70
     0
 62
   166
  6
CONTINUOUS
  0
LAYER
  5
E0
330
2
100
AcDbSymbolTableRecord
100
AcDbLayerTableRecord
  2
167
 70
     0
 62
   167
  6
CONTINUOUS
  0
LAYER
  5
E1
330
2
100
AcDbSymbolTableRecord
100
AcDbLayerTableRecord
  2
168
 70
     0
 62
   168
  6
CONTINUOUS
  0
LAYER
  5
E2
330
2
100
AcDbSymbolTableRecord
100
AcDbLayerTableRecord
  2
169
 70
     0
 62
   169
  6
CONTINUOUS
  0
LAYER
  5
E3
330
2
100
AcDbSymbolTableRecord
100
AcDbLayerTableRecord
  2
170
 70
     0
 62
   170
  6
CONTINUOUS
  0
LAYER
  5
E4
330
2
100
AcDbSymbolTableRecord
100
AcDbLayerTableRecord
  2
171
 70
     0
 62
   171
  6
CONTINUOUS
  0
LAYER
  5
E5
330
2
100
AcDbSymbolTableRecord
100
AcDbLayerTableRecord
  2
172
 70
     0
 62
   172
  6
CONTINUOUS
  0
LAYER
  5
E6
330
2
100
AcDbSymbolTableRecord
100
AcDbLayerTableRecord
  2
173
 70
     0
 62
   173
  6
CONTINUOUS
  0
LAYER
  5
E7
330
2
100
AcDbSymbolTableRecord
100
AcDbLayerTableRecord
  2
174
 70
     0
 62
   174
  6
CONTINUOUS
  0
LAYER
  5
E8
330
2
100
AcDbSymbolTableRecord
100
AcDbLayerTableRecord
  2
175
 70
     0
 62
   175
  6
CONTINUOUS
  0
LAYER
  5
E9
330
2
100
AcDbSymbolTableRecord
100
AcDbLayerTableRecord
  2
176
 70
     0
 62
   176
  6
CONTINUOUS
  0
LAYER
  5
EA
330
2
100
AcDbSymbolTableRecord
100
AcDbLayerTableRecord
  2
177
 70
     0
 62
   177
  6
CONTINUOUS
  0
LAYER
  5
EB
330
2
100
AcDbSymbolTableRecord
100
AcDbLayerTableRecord
  2
178
 70
     0
 62
   178
  6
CONTINUOUS
  0
LAYER
  5
EC
330
2
100
AcDbSymbolTableRecord
100
AcDbLayerTableRecord
  2
179
 70
     0
 62
   179
  6
CONTINUOUS
  0
LAYER
  5
ED
330
2
100
AcDbSymbolTableRecord
100
AcDbLayerTableRecord
  2
180
 70
     0
 62
   180
  6
CONTINUOUS
  0
LAYER
  5
EE
330
2
100
AcDbSymbolTableRecord
100
AcDbLayerTableRecord
  2
181
 70
     0
 62
   181
  6
CONTINUOUS
  0
LAYER
  5
EF
330
2
100
AcDbSymbolTableRecord
100
AcDbLayerTableRecord
  2
182
 70
     0
 62
   182
  6
CONTINUOUS
  0
LAYER
  5
F0
330
2
100
AcDbSymbolTableRecord
100
AcDbLayerTableRecord
  2
183
 70
     0
 62
   183
  6
CONTINUOUS
  0
LAYER
  5
F1
330
2
100
AcDbSymbolTableRecord
100
AcDbLayerTableRecord
  2
184
 70
     0
 62
   184
  6
CONTINUOUS
  0
LAYER
  5
F2
330
2
100
AcDbSymbolTableRecord
100
AcDbLayerTableRecord
  2
185
 70
     0
 62
   185
  6
CONTINUOUS
  0
LAYER
  5
F3
330
2
100
AcDbSymbolTableRecord
100
AcDbLayerTableRecord
  2
186
 70
     0
 62
   186
  6
CONTINUOUS
  0
LAYER
  5
F4
330
2
100
AcDbSymbolTableRecord
100
AcDbLayerTableRecord
  2
187
 70
     0
 62
   187
  6
CONTINUOUS
  0
LAYER
  5
F5
330
2
100
AcDbSymbolTableRecord
100
AcDbLayerTableRecord
  2
188
 70
     0
 62
   188
  6
CONTINUOUS
  0
LAYER
  5
F6
330
2
100
AcDbSymbolTableRecord
100
AcDbLayerTableRecord
  2
189
 70
     0
 62
   189
  6
CONTINUOUS
  0
LAYER
  5
F7
330
2
100
AcDbSymbolTableRecord
100
AcDbLayerTableRecord
  2
190
 70
     0
 62
   190
  6
CONTINUOUS
  0
LAYER
  5
F8
330
2
100
AcDbSymbolTableRecord
100
AcDbLayerTableRecord
  2
191
 70
     0
 62
   191
  6
CONTINUOUS
  0
LAYER
  5
F9
330
2
100
AcDbSymbolTableRecord
100
AcDbLayerTableRecord
  2
192
 70
     0
 62
   192
  6
CONTINUOUS
  0
LAYER
  5
FA
330
2
100
AcDbSymbolTableRecord
100
AcDbLayerTableRecord
  2
193
 70
     0
 62
   193
  6
CONTINUOUS
  0
LAYER
  5
FB
330
2
100
AcDbSymbolTableRecord
100
AcDbLayerTableRecord
  2
194
 70
     0
 62
   194
  6
CONTINUOUS
  0
LAYER
  5
FC
330
2
100
AcDbSymbolTableRecord
100
AcDbLayerTableRecord
  2
195
 70
     0
 62
   195
  6
CONTINUOUS
  0
LAYER
  5
FD
330
2
100
AcDbSymbolTableRecord
100
AcDbLayerTableRecord
  2
196
 70
     0
 62
   196
  6
CONTINUOUS
  0
LAYER
  5
FE
330
2
100
AcDbSymbolTableRecord
100
AcDbLayerTableRecord
  2
197
 70
     0
 62
   197
  6
CONTINUOUS
  0
LAYER
  5
FF
330
2
100
AcDbSymbolTableRecord
100
AcDbLayerTableRecord
  2
198
 70
     0
 62
   198
  6
CONTINUOUS
  0
LAYER
  5
100
330
2
100
AcDbSymbolTableRecord
100
AcDbLayerTableRecord
  2
199
 70
     0
 62
   199
  6
CONTINUOUS
  0
LAYER
  5
101
330
2
100
AcDbSymbolTableRecord
100
AcDbLayerTableRecord
  2
200
 70
     0
 62
   200
  6
CONTINUOUS
  0
LAYER
  5
102
330
2
100
AcDbSymbolTableRecord
100
AcDbLayerTableRecord
  2
201
 70
     0
 62
   201
  6
CONTINUOUS
  0
LAYER
  5
103
330
2
100
AcDbSymbolTableRecord
100
AcDbLayerTableRecord
  2
202
 70
     0
 62
   202
  6
CONTINUOUS
  0
LAYER
  5
104
330
2
100
AcDbSymbolTableRecord
100
AcDbLayerTableRecord
  2
203
 70
     0
 62
   203
  6
CONTINUOUS
  0
LAYER
  5
105
330
2
100
AcDbSymbolTableRecord
100
AcDbLayerTableRecord
  2
204
 70
     0
 62
   204
  6
CONTINUOUS
  0
LAYER
  5
106
330
2
100
AcDbSymbolTableRecord
100
AcDbLayerTableRecord
  2
205
 70
     0
 62
   205
  6
CONTINUOUS
  0
LAYER
  5
107
330
2
100
AcDbSymbolTableRecord
100
AcDbLayerTableRecord
  2
206
 70
     0
 62
   206
  6
CONTINUOUS
  0
LAYER
  5
108
330
2
100
AcDbSymbolTableRecord
100
AcDbLayerTableRecord
  2
207
 70
     0
 62
   207
  6
CONTINUOUS
  0
LAYER
  5
109
330
2
100
AcDbSymbolTableRecord
100
AcDbLayerTableRecord
  2
208
 70
     0
 62
   208
  6
CONTINUOUS
  0
LAYER
  5
10A
330
2
100
AcDbSymbolTableRecord
100
AcDbLayerTableRecord
  2
209
 70
     0
 62
   209
  6
CONTINUOUS
  0
LAYER
  5
10B
330
2
100
AcDbSymbolTableRecord
100
AcDbLayerTableRecord
  2
210
 70
     0
 62
   210
  6
CONTINUOUS
  0
LAYER
  5
10C
330
2
100
AcDbSymbolTableRecord
100
AcDbLayerTableRecord
  2
211
 70
     0
 62
   211
  6
CONTINUOUS
  0
LAYER
  5
10D
330
2
100
AcDbSymbolTableRecord
100
AcDbLayerTableRecord
  2
212
 70
     0
 62
   212
  6
CONTINUOUS
  0
LAYER
  5
10E
330
2
100
AcDbSymbolTableRecord
100
AcDbLayerTableRecord
  2
213
 70
     0
 62
   213
  6
CONTINUOUS
  0
LAYER
  5
10F
330
2
100
AcDbSymbolTableRecord
100
AcDbLayerTableRecord
  2
214
 70
     0
 62
   214
  6
CONTINUOUS
  0
LAYER
  5
110
330
2
100
AcDbSymbolTableRecord
100
AcDbLayerTableRecord
  2
215
 70
     0
 62
   215
  6
CONTINUOUS
  0
LAYER
  5
111
330
2
100
AcDbSymbolTableRecord
100
AcDbLayerTableRecord
  2
216
 70
     0
 62
   216
  6
CONTINUOUS
  0
LAYER
  5
112
330
2
100
AcDbSymbolTableRecord
100
AcDbLayerTableRecord
  2
217
 70
     0
 62
   217
  6
CONTINUOUS
  0
LAYER
  5
113
330
2
100
AcDbSymbolTableRecord
100
AcDbLayerTableRecord
  2
218
 70
     0
 62
   218
  6
CONTINUOUS
  0
LAYER
  5
114
330
2
100
AcDbSymbolTableRecord
100
AcDbLayerTableRecord
  2
219
 70
     0
 62
   219
  6
CONTINUOUS
  0
LAYER
  5
115
330
2
100
AcDbSymbolTableRecord
100
AcDbLayerTableRecord
  2
220
 70
     0
 62
   220
  6
CONTINUOUS
  0
LAYER
  5
116
330
2
100
AcDbSymbolTableRecord
100
AcDbLayerTableRecord
  2
221
 70
     0
 62
   221
  6
CONTINUOUS
  0
LAYER
  5
117
330
2
100
AcDbSymbolTableRecord
100
AcDbLayerTableRecord
  2
222
 70
     0
 62
   222
  6
CONTINUOUS
  0
LAYER
  5
118
330
2
100
AcDbSymbolTableRecord
100
AcDbLayerTableRecord
  2
223
 70
     0
 62
   223
  6
CONTINUOUS
  0
LAYER
  5
119
330
2
100
AcDbSymbolTableRecord
100
AcDbLayerTableRecord
  2
224
 70
     0
 62
   224
  6
CONTINUOUS
  0
LAYER
  5
11A
330
2
100
AcDbSymbolTableRecord
100
AcDbLayerTableRecord
  2
225
 70
     0
 62
   225
  6
CONTINUOUS
  0
LAYER
  5
11B
330
2
100
AcDbSymbolTableRecord
100
AcDbLayerTableRecord
  2
226
 70
     0
 62
   226
  6
CONTINUOUS
  0
LAYER
  5
11C
330
2
100
AcDbSymbolTableRecord
100
AcDbLayerTableRecord
  2
227
 70
     0
 62
   227
  6
CONTINUOUS
  0
LAYER
  5
11D
330
2
100
AcDbSymbolTableRecord
100
AcDbLayerTableRecord
  2
228
 70
     0
 62
   228
  6
CONTINUOUS
  0
LAYER
  5
11E
330
2
100
AcDbSymbolTableRecord
100
AcDbLayerTableRecord
  2
229
 70
     0
 62
   229
  6
CONTINUOUS
  0
LAYER
  5
11F
330
2
100
AcDbSymbolTableRecord
100
AcDbLayerTableRecord
  2
230
 70
     0
 62
   230
  6
CONTINUOUS
  0
LAYER
  5
120
330
2
100
AcDbSymbolTableRecord
100
AcDbLayerTableRecord
  2
231
 70
     0
 62
   231
  6
CONTINUOUS
  0
LAYER
  5
121
330
2
100
AcDbSymbolTableRecord
100
AcDbLayerTableRecord
  2
232
 70
     0
 62
   232
  6
CONTINUOUS
  0
LAYER
  5
122
330
2
100
AcDbSymbolTableRecord
100
AcDbLayerTableRecord
  2
233
 70
     0
 62
   233
  6
CONTINUOUS
  0
LAYER
  5
123
330
2
100
AcDbSymbolTableRecord
100
AcDbLayerTableRecord
  2
234
 70
     0
 62
   234
  6
CONTINUOUS
  0
LAYER
  5
124
330
2
100
AcDbSymbolTableRecord
100
AcDbLayerTableRecord
  2
235
 70
     0
 62
   235
  6
CONTINUOUS
  0
LAYER
  5
125
330
2
100
AcDbSymbolTableRecord
100
AcDbLayerTableRecord
  2
236
 70
     0
 62
   236
  6
CONTINUOUS
  0
LAYER
  5
126
330
2
100
AcDbSymbolTableRecord
100
AcDbLayerTableRecord
  2
237
 70
     0
 62
   237
  6
CONTINUOUS
  0
LAYER
  5
127
330
2
100
AcDbSymbolTableRecord
100
AcDbLayerTableRecord
  2
238
 70
     0
 62
   238
  6
CONTINUOUS
  0
LAYER
  5
128
330
2
100
AcDbSymbolTableRecord
100
AcDbLayerTableRecord
  2
239
 70
     0
 62
   239
  6
CONTINUOUS
  0
LAYER
  5
129
330
2
100
AcDbSymbolTableRecord
100
AcDbLayerTableRecord
  2
240
 70
     0
 62
   240
  6
CONTINUOUS
  0
LAYER
  5
12A
330
2
100
AcDbSymbolTableRecord
100
AcDbLayerTableRecord
  2
241
 70
     0
 62
   241
  6
CONTINUOUS
  0
LAYER
  5
12B
330
2
100
AcDbSymbolTableRecord
100
AcDbLayerTableRecord
  2
242
 70
     0
 62
   242
  6
CONTINUOUS
  0
LAYER
  5
12C
330
2
100
AcDbSymbolTableRecord
100
AcDbLayerTableRecord
  2
243
 70
     0
 62
   243
  6
CONTINUOUS
  0
LAYER
  5
12D
330
2
100
AcDbSymbolTableRecord
100
AcDbLayerTableRecord
  2
244
 70
     0
 62
   244
  6
CONTINUOUS
  0
LAYER
  5
12E
330
2
100
AcDbSymbolTableRecord
100
AcDbLayerTableRecord
  2
245
 70
     0
 62
   245
  6
CONTINUOUS
  0
LAYER
  5
12F
330
2
100
AcDbSymbolTableRecord
100
AcDbLayerTableRecord
  2
246
 70
     0
 62
   246
  6
CONTINUOUS
  0
LAYER
  5
130
330
2
100
AcDbSymbolTableRecord
100
AcDbLayerTableRecord
  2
247
 70
     0
 62
   247
  6
CONTINUOUS
  0
LAYER
  5
131
330
2
100
AcDbSymbolTableRecord
100
AcDbLayerTableRecord
  2
248
 70
     0
 62
   248
  6
CONTINUOUS
  0
LAYER
  5
132
330
2
100
AcDbSymbolTableRecord
100
AcDbLayerTableRecord
  2
249
 70
     0
 62
   249
  6
CONTINUOUS
  0
LAYER
  5
133
330
2
100
AcDbSymbolTableRecord
100
AcDbLayerTableRecord
  2
250
 70
     0
 62
   250
  6
CONTINUOUS
  0
LAYER
  5
134
330
2
100
AcDbSymbolTableRecord
100
AcDbLayerTableRecord
  2
251
 70
     0
 62
   251
  6
CONTINUOUS
  0
LAYER
  5
135
330
2
100
AcDbSymbolTableRecord
100
AcDbLayerTableRecord
  2
252
 70
     0
 62
   252
  6
CONTINUOUS
  0
LAYER
  5
136
330
2
100
AcDbSymbolTableRecord
100
AcDbLayerTableRecord
  2
253
 70
     0
 62
   253
  6
CONTINUOUS
  0
LAYER
  5
137
330
2
100
AcDbSymbolTableRecord
100
AcDbLayerTableRecord
  2
254
 70
     0
 62
   254
  6
CONTINUOUS
  0
LAYER
  5
138
330
2
100
AcDbSymbolTableRecord
100
AcDbLayerTableRecord
  2
255
 70
     0
 62
   255
  6
CONTINUOUS
  0
ENDTAB
  0
TABLE
  2
STYLE
  5
3
330
0
100
AcDbSymbolTable
 70
     1
  0
STYLE
  5
11
330
3
100
AcDbSymbolTableRecord
100
AcDbTextStyleTableRecord
  2
STANDARD
 70
     0
 40
0.0
 41
1.0
 50
0.0
 71
     0
 42
0.2
  3
monotxt
  4

  0
ENDTAB
  0
TABLE
  2
VIEW
  5
6
330
0
100
AcDbSymbolTable
 70
     0
  0
ENDTAB
  0
TABLE
  2
UCS
  5
7
330
0
100
AcDbSymbolTable
 70
     0
  0
ENDTAB
  0
TABLE
  2
APPID
  5
9
330
0
100
AcDbSymbolTable
 70
     1
  0
APPID
  5
12
330
9
100
AcDbSymbolTableRecord
100
AcDbRegAppTableRecord
  2
ACAD
 70
     0
  0
ENDTAB
  0
TABLE
  2
DIMSTYLE
  5
A
330
0
100
AcDbSymbolTable
 70
     1
  0
DIMSTYLE
105
2ED3
330
A
100
AcDbSymbolTableRecord
100
AcDbDimStyleTableRecord
  2
STANDARD
 70
     0
  3

  4

  5

  6

  7

 40
1.0
 41
0.18
 42
0.0625
 43
0.38
 44
0.18
 45
0.0
 46
0.0
 47
0.0
 48
0.0
140
0.18
141
0.09
142
0.0
143
25.4
144
1.0
145
0.0
146
1.0
147
0.09
 71
     0
 72
     0
 73
     1
 74
     1
 75
     0
 76
     0
 77
     0
 78
     0
170
     0
171
     2
172
     0
173
     0
174
     0
175
     0
176
     0
177
     0
178
     0
270
     2
271
     4
272
     4
273
     2
274
     2
340
11
275
     0
280
     0
281
     0
282
     0
283
     1
284
     0
285
     0
286
     0
287
     3
288
     0
  0
ENDTAB
  0
TABLE
  2
BLOCK_RECORD
  5
1
330
0
100
AcDbSymbolTable
 70
     0
  0
BLOCK_RECORD
  5
1E
102
{ACAD_XDICTIONARY
360
2EDB
102
}
330
1
100
AcDbSymbolTableRecord
100
AcDbBlockTableRecord
  2
*MODEL_SPACE
  0
BLOCK_RECORD
  5
1A
102
{ACAD_XDICTIONARY
360
2EDD
102
}
330
1
100
AcDbSymbolTableRecord
100
AcDbBlockTableRecord
  2
*PAPER_SPACE
  0
ENDTAB
  0
ENDSEC
  0
SECTION
  2
BLOCKS
  0
BLOCK
  5
13B
330
1E
100
AcDbEntity
  8
0
100
AcDbBlockBegin
  2
*MODEL_SPACE
 70
     0
 10
0.0
 20
0.0
 30
0.0
  3
*MODEL_SPACE
  1

  0
ENDBLK
  5
13C
330
1E
100
AcDbEntity
  8
0
100
AcDbBlockEnd
  0
BLOCK
  5
139
330
1A
100
AcDbEntity
 67
     1
  8
0
100
AcDbBlockBegin
  2
*PAPER_SPACE
 70
     0
 10
0.0
 20
0.0
 30
0.0
  3
*PAPER_SPACE
  1

  0
ENDBLK
  5
13A
330
1A
100
AcDbEntity
 67
     1
  8
0
100
AcDbBlockEnd
  0
ENDSEC
  0
SECTION
  2
ENTITIES
  0
LINE
  5
2892
330
1E
100
AcDbEntity
  8
7
100
AcDbLine
 10
-2.836843383174022
 20
3.115529667209289
 30
0.0
 11
-0.5435362965598483
 21
3.115529667209289
 31
0.0
  0
LINE
  5
289C
330
1E
100
AcDbEntity
  8
7
100
AcDbLine
 10
-0.3781819658511871
 20
2.891120218390391
 30
0.0
 11
-3.002197713882683
 21
2.891120218390391
 31
0.0
  0
LINE
  5
28DA
330
1E
100
AcDbEntity
  8
7
100
AcDbLine
 10
-0.319126847740951
 20
2.952143840437635
 30
0.0
 11
-0.3151898398669353
 21
2.948206832563618
 31
0.0
  0
LINE
  5
28DB
330
1E
100
AcDbEntity
  8
7
100
AcDbLine
 10
-2.594717398922053
 20
3.292695021539996
 30
0.0
 11
-2.596685902859061
 21
3.292695021539996
 31
0.0
  0
LINE
  5
28E1
330
1E
100
AcDbEntity
  8
7
100
AcDbLine
 10
-2.628181965851187
 20
3.322222580595115
 30
0.0
 11
-2.626213461914179
 21
3.324191084532122
 31
0.0
  0
LINE
  5
28E7
330
1E
100
AcDbEntity
  8
7
100
AcDbLine
 10
-0.7836937768748094
 20
3.292695021539996
 30
0.0
 11
-0.7856622808118168
 21
3.292695021539996
 31
0.0
  0
LINE
  5
28E8
330
1E
100
AcDbEntity
  8
7
100
AcDbLine
 10
-0.8151898398669352
 20
3.292695021539996
 30
0.0
 11
-0.7856622808118168
 21
3.292695021539996
 31
0.0
  0
LINE
  5
28E9
330
1E
100
AcDbEntity
  8
7
100
AcDbLine
 10
-0.8171583438039426
 20
3.292695021539996
 30
0.0
 11
-0.8151898398669352
 21
3.292695021539996
 31
0.0
  0
LINE
  5
28EF
330
1E
100
AcDbEntity
  8
7
100
AcDbLine
 10
-2.594717398922053
 20
3.292695021539996
 30
0.0
 11
-2.565189839866935
 21
3.292695021539996
 31
0.0
  0
LINE
  5
28F0
330
1E
100
AcDbEntity
  8
7
100
AcDbLine
 10
-0.7836937768748094
 20
3.292695021539996
 30
0.0
 11
-2.596685902859061
 21
3.292695021539996
 31
0.0
  0
LINE
  5
28F6
330
1E
100
AcDbEntity
  8
7
100
AcDbLine
 10
-0.7541662178196909
 20
3.324191084532122
 30
0.0
 11
-0.7521977138826835
 21
3.322222580595115
 31
0.0
  0
LINE
  5
290B
330
1E
100
AcDbEntity
  8
7
100
AcDbLine
 10
-0.5435362965598483
 20
3.115529667209289
 30
0.0
 11
-0.5435362965598483
 21
7.160805257760468
 31
0.0
  0
LINE
  5
290C
330
1E
100
AcDbEntity
  8
7
100
AcDbLine
 10
-2.836843383174022
 20
7.160805257760468
 30
0.0
 11
-2.836843383174022
 21
3.115529667209289
 31
0.0
  0
LINE
  5
2922
330
1E
100
AcDbEntity
  8
7
100
AcDbLine
 10
-0.3762134619141797
 20
7.389151714453383
 30
0.0
 11
-3.0061347217567
 21
7.389151714453383
 31
0.0
  0
LINE
  5
2929
330
1E
100
AcDbEntity
  8
7
100
AcDbLine
 10
-0.7521977138826835
 20
3.672616281382516
 30
0.0
 11
-0.7521977138826835
 21
3.322222580595115
 31
0.0
  0
LINE
  5
2933
330
1E
100
AcDbEntity
  8
7
100
AcDbLine
 10
-0.5435362965598483
 20
7.160805257760468
 30
0.0
 11
-2.836843383174022
 21
7.160805257760468
 31
0.0
  0
LINE
  5
2934
330
1E
100
AcDbEntity
  8
7
100
AcDbLine
 10
-0.7836937768748094
 20
6.985608407366768
 30
0.0
 11
-2.596685902859061
 21
6.985608407366768
 31
0.0
  0
LINE
  5
293A
330
1E
100
AcDbEntity
  8
7
100
AcDbLine
 10
-0.7521977138826835
 20
6.603718643587241
 30
0.0
 11
-0.7521977138826835
 21
6.954112344374642
 31
0.0
  0
LINE
  5
2940
330
1E
100
AcDbEntity
  8
7
100
AcDbLine
 10
-2.596685902859061
 20
6.572222580595115
 30
0.0
 11
-0.7836937768748094
 21
6.572222580595115
 31
0.0
  0
LINE
  5
2946
330
1E
100
AcDbEntity
  8
7
100
AcDbLine
 10
-2.628181965851187
 20
6.954112344374642
 30
0.0
 11
-2.628181965851187
 21
6.603718643587241
 31
0.0
  0
LINE
  5
294C
330
1E
100
AcDbEntity
  8
7
100
AcDbLine
 10
-1.762040233567722
 20
5.412773761697478
 30
0.0
 11
-1.618339446166148
 21
5.412773761697478
 31
0.0
  0
LINE
  5
2954
330
1E
100
AcDbEntity
  8
7
100
AcDbLine
 10
-2.321095351677959
 20
6.076159588469131
 30
0.0
 11
-2.321095351677959
 21
5.412773761697478
 31
0.0
  0
LINE
  5
2955
330
1E
100
AcDbEntity
  8
7
100
AcDbLine
 10
-1.059284328055911
 20
6.076159588469131
 30
0.0
 11
-2.321095351677959
 21
6.076159588469131
 31
0.0
  0
LINE
  5
2956
330
1E
100
AcDbEntity
  8
7
100
AcDbLine
 10
-1.059284328055911
 20
6.076159588469131
 30
0.0
 11
-1.059284328055911
 21
5.412773761697478
 31
0.0
  0
LINE
  5
2957
330
1E
100
AcDbEntity
  8
7
100
AcDbLine
 10
-1.126213461914179
 20
5.412773761697478
 30
0.0
 11
-1.059284328055911
 21
5.412773761697478
 31
0.0
  0
LINE
  5
2958
330
1E
100
AcDbEntity
  8
7
100
AcDbLine
 10
-1.126213461914179
 20
5.347813131776216
 30
0.0
 11
-1.126213461914179
 21
5.412773761697478
 31
0.0
  0
LINE
  5
2959
330
1E
100
AcDbEntity
  8
7
100
AcDbLine
 10
-1.618339446166148
 20
5.347813131776216
 30
0.0
 11
-1.126213461914179
 21
5.347813131776216
 31
0.0
  0
LINE
  5
295A
330
1E
100
AcDbEntity
  8
7
100
AcDbLine
 10
-1.618339446166148
 20
5.412773761697478
 30
0.0
 11
-1.618339446166148
 21
5.347813131776216
 31
0.0
  0
LINE
  5
295B
330
1E
100
AcDbEntity
  8
7
100
AcDbLine
 10
-1.762040233567722
 20
4.267104470358894
 30
0.0
 11
-1.618339446166148
 21
4.267104470358894
 31
0.0
  0
LINE
  5
295C
330
1E
100
AcDbEntity
  8
7
100
AcDbLine
 10
-1.762040233567722
 20
4.267104470358894
 30
0.0
 11
-1.762040233567722
 21
4.200175336500628
 31
0.0
  0
LINE
  5
2963
330
1E
100
AcDbEntity
  8
7
100
AcDbLine
 10
-2.321095351677959
 20
4.928521793193541
 30
0.0
 11
-2.321095351677959
 21
4.267104470358894
 31
0.0
  0
LINE
  5
2964
330
1E
100
AcDbEntity
  8
7
100
AcDbLine
 10
-1.059284328055911
 20
4.928521793193541
 30
0.0
 11
-2.321095351677959
 21
4.928521793193541
 31
0.0
  0
LINE
  5
2965
330
1E
100
AcDbEntity
  8
7
100
AcDbLine
 10
-1.059284328055911
 20
4.928521793193541
 30
0.0
 11
-1.059284328055911
 21
4.267104470358894
 31
0.0
  0
LINE
  5
2966
330
1E
100
AcDbEntity
  8
7
100
AcDbLine
 10
-1.126213461914179
 20
4.267104470358894
 30
0.0
 11
-1.059284328055911
 21
4.267104470358894
 31
0.0
  0
LINE
  5
2967
330
1E
100
AcDbEntity
  8
7
100
AcDbLine
 10
-1.126213461914179
 20
4.200175336500628
 30
0.0
 11
-1.126213461914179
 21
4.267104470358894
 31
0.0
  0
LINE
  5
2968
330
1E
100
AcDbEntity
  8
7
100
AcDbLine
 10
-1.618339446166148
 20
4.200175336500628
 30
0.0
 11
-1.126213461914179
 21
4.200175336500628
 31
0.0
  0
LINE
  5
2969
330
1E
100
AcDbEntity
  8
7
100
AcDbLine
 10
-1.618339446166148
 20
4.267104470358894
 30
0.0
 11
-1.618339446166148
 21
4.200175336500628
 31
0.0
  0
LINE
  5
296A
330
1E
100
AcDbEntity
  8
7
100
AcDbLine
 10
-1.630150469788195
 20
3.648994234138422
 30
0.0
 11
-1.750229209945675
 21
3.648994234138422
 31
0.0
  0
LINE
  5
297A
330
1E
100
AcDbEntity
  8
7
100
AcDbLine
 10
-1.750229209945675
 20
3.345844627839209
 30
0.0
 11
-1.630150469788195
 21
3.345844627839209
 31
0.0
  0
LINE
  5
298A
330
1E
100
AcDbEntity
  8
7
100
AcDbLine
 10
-2.563221335929927
 20
3.702143840437635
 30
0.0
 11
-2.563221335929927
 21
3.292695021539996
 31
0.0
  0
LINE
  5
298B
330
1E
100
AcDbEntity
  8
7
100
AcDbLine
 10
-0.8171583438039426
 20
3.702143840437635
 30
0.0
 11
-0.8171583438039426
 21
3.292695021539996
 31
0.0
  0
LINE
  5
298C
330
1E
100
AcDbEntity
  8
7
100
AcDbLine
 10
-2.563221335929927
 20
3.702143840437635
 30
0.0
 11
-0.8171583438039426
 21
3.702143840437635
 31
0.0
  0
LINE
  5
2992
330
1E
100
AcDbEntity
  8
7
100
AcDbLine
 10
-3.0061347217567
 20
7.389151714453383
 30
0.0
 11
-3.002197713882683
 21
7.385214706579366
 31
0.0
  0
LINE
  5
29A8
330
1E
100
AcDbEntity
  8
7
100
AcDbLine
 10
-1.630150469788195
 20
6.627340690831335
 30
0.0
 11
-1.750229209945675
 21
6.627340690831335
 31
0.0
  0
LINE
  5
29B5
330
1E
100
AcDbEntity
  8
7
100
AcDbLine
 10
-1.750229209945675
 20
6.930490297130548
 30
0.0
 11
-1.630150469788195
 21
6.930490297130548
 31
0.0
  0
LINE
  5
29C8
330
1E
100
AcDbEntity
  8
7
100
AcDbLine
 10
-2.563221335929927
 20
6.574191084532122
 30
0.0
 11
-2.563221335929927
 21
6.983639903429761
 31
0.0
  0
LINE
  5
29C9
330
1E
100
AcDbEntity
  8
7
100
AcDbLine
 10
-0.7856622808118168
 20
6.574191084532122
 30
0.0
 11
-0.7836937768748094
 21
6.572222580595115
 31
0.0
  0
LINE
  5
29CA
330
1E
100
AcDbEntity
  8
7
100
AcDbLine
 10
-0.7856622808118168
 20
6.574191084532122
 30
0.0
 11
-0.8151898398669352
 21
6.574191084532122
 31
0.0
  0
LINE
  5
29CB
330
1E
100
AcDbEntity
  8
7
100
AcDbLine
 10
-0.8171583438039426
 20
6.574191084532122
 30
0.0
 11
-0.8151898398669352
 21
6.574191084532122
 31
0.0
  0
LINE
  5
29D1
330
1E
100
AcDbEntity
  8
7
100
AcDbLine
 10
-2.596685902859061
 20
6.572222580595115
 30
0.0
 11
-2.594717398922053
 21
6.574191084532122
 31
0.0
  0
LINE
  5
29D7
330
1E
100
AcDbEntity
  8
7
100
AcDbLine
 10
-0.7836937768748094
 20
6.985608407366768
 30
0.0
 11
-0.7856622808118168
 21
6.983639903429761
 31
0.0
  0
LINE
  5
29D8
330
1E
100
AcDbEntity
  8
7
100
AcDbLine
 10
-2.594717398922053
 20
6.983639903429761
 30
0.0
 11
-2.596685902859061
 21
6.985608407366768
 31
0.0
  0
LINE
  5
29D9
330
1E
100
AcDbEntity
  8
7
100
AcDbLine
 10
-2.594717398922053
 20
6.983639903429761
 30
0.0
 11
-2.565189839866935
 21
6.983639903429761
 31
0.0
  0
LINE
  5
29DA
330
1E
100
AcDbEntity
  8
7
100
AcDbLine
 10
-2.563221335929927
 20
6.983639903429761
 30
0.0
 11
-2.565189839866935
 21
6.983639903429761
 31
0.0
  0
LINE
  5
29DB
330
1E
100
AcDbEntity
  8
7
100
AcDbLine
 10
-3.002197713882683
 20
7.385214706579366
 30
0.0
 11
-3.031725272937801
 21
7.377340690831335
 31
0.0
  0
LINE
  5
29F2
330
1E
100
AcDbEntity
  8
7
100
AcDbLine
 10
-2.626213461914179
 20
6.603718643587241
 30
0.0
 11
-2.626213461914179
 21
6.954112344374642
 31
0.0
  0
LINE
  5
29F9
330
1E
100
AcDbEntity
  8
7
100
AcDbLine
 10
-2.628181965851187
 20
6.954112344374642
 30
0.0
 11
-2.626213461914179
 21
6.954112344374642
 31
0.0
  0
LINE
  5
29FA
330
1E
100
AcDbEntity
  8
7
100
AcDbLine
 10
-1.630150469788195
 20
6.629309194768342
 30
0.0
 11
-1.630150469788195
 21
6.627340690831335
 31
0.0
  0
LINE
  5
29FB
330
1E
100
AcDbEntity
  8
7
100
AcDbLine
 10
-1.750229209945675
 20
6.629309194768342
 30
0.0
 11
-1.630150469788195
 21
6.629309194768342
 31
0.0
  0
LINE
  5
29FC
330
1E
100
AcDbEntity
  8
7
100
AcDbLine
 10
-1.750229209945675
 20
6.627340690831335
 30
0.0
 11
-1.750229209945675
 21
6.629309194768342
 31
0.0
  0
LINE
  5
29FD
330
1E
100
AcDbEntity
  8
7
100
AcDbLine
 10
-1.750229209945675
 20
6.928521793193541
 30
0.0
 11
-1.750229209945675
 21
6.930490297130548
 31
0.0
  0
LINE
  5
29FE
330
1E
100
AcDbEntity
  8
7
100
AcDbLine
 10
-1.630150469788195
 20
6.928521793193541
 30
0.0
 11
-1.750229209945675
 21
6.928521793193541
 31
0.0
  0
LINE
  5
29FF
330
1E
100
AcDbEntity
  8
7
100
AcDbLine
 10
-1.630150469788195
 20
6.930490297130548
 30
0.0
 11
-1.630150469788195
 21
6.928521793193541
 31
0.0
  0
LINE
  5
2A18
330
1E
100
AcDbEntity
  8
7
100
AcDbLine
 10
-1.630150469788195
 20
6.702143840437635
 30
0.0
 11
-1.750229209945675
 21
6.702143840437635
 31
0.0
  0
LINE
  5
2A19
330
1E
100
AcDbEntity
  8
7
100
AcDbLine
 10
-1.750229209945675
 20
6.853718643587241
 30
0.0
 11
-1.787630784748825
 21
6.843876123902202
 31
0.0
  0
LINE
  5
2A22
330
1E
100
AcDbEntity
  8
7
100
AcDbLine
 10
-1.630150469788195
 20
6.855687147524248
 30
0.0
 11
-1.750229209945675
 21
6.855687147524248
 31
0.0
  0
LINE
  5
2A2F
330
1E
100
AcDbEntity
  8
7
100
AcDbLine
 10
-1.630150469788195
 20
6.855687147524248
 30
0.0
 11
-1.750229209945675
 21
6.855687147524248
 31
0.0
  0
LINE
  5
2A30
330
1E
100
AcDbEntity
  8
7
100
AcDbLine
 10
-1.630150469788195
 20
6.702143840437635
 30
0.0
 11
-1.750229209945675
 21
6.702143840437635
 31
0.0
  0
LINE
  5
2A31
330
1E
100
AcDbEntity
  8
7
100
AcDbLine
 10
-1.797473304433863
 20
6.839939116028185
 30
0.0
 11
-1.785662280811816
 21
6.845844627839209
 31
0.0
  0
LINE
  5
2A3C
330
1E
100
AcDbEntity
  8
7
100
AcDbLine
 10
-1.785662280811816
 20
6.711986360122674
 30
0.0
 11
-1.797473304433863
 21
6.719860375870705
 31
0.0
  0
LINE
  5
2A42
330
1E
100
AcDbEntity
  8
7
100
AcDbLine
 10
-1.594717398922052
 20
6.845844627839209
 30
0.0
 11
-1.584874879237013
 21
6.839939116028185
 31
0.0
  0
LINE
  5
2A43
330
1E
100
AcDbEntity
  8
7
100
AcDbLine
 10
-1.584874879237013
 20
6.719860375870705
 30
0.0
 11
-1.594717398922052
 21
6.711986360122674
 31
0.0
  0
LINE
  5
2A49
330
1E
100
AcDbEntity
  8
7
100
AcDbLine
 10
-1.594717398922052
 20
6.711986360122674
 30
0.0
 11
-1.785662280811816
 21
6.711986360122674
 31
0.0
  0
LINE
  5
2A4A
330
1E
100
AcDbEntity
  8
7
100
AcDbLine
 10
-1.797473304433863
 20
6.719860375870705
 30
0.0
 11
-1.584874879237013
 21
6.719860375870705
 31
0.0
  0
LINE
  5
2A4B
330
1E
100
AcDbEntity
  8
7
100
AcDbLine
 10
-1.594717398922052
 20
6.845844627839209
 30
0.0
 11
-1.785662280811816
 21
6.845844627839209
 31
0.0
  0
LINE
  5
2A4C
330
1E
100
AcDbEntity
  8
7
100
AcDbLine
 10
-1.797473304433863
 20
6.839939116028185
 30
0.0
 11
-1.584874879237013
 21
6.839939116028185
 31
0.0
  0
LINE
  5
2A4D
330
1E
100
AcDbEntity
  8
7
100
AcDbLine
 10
-0.8171583438039426
 20
3.702143840437635
 30
0.0
 11
-0.8151898398669352
 21
3.704112344374642
 31
0.0
  0
LINE
  5
2A4E
330
1E
100
AcDbEntity
  8
7
100
AcDbLine
 10
-0.7521977138826835
 20
3.672616281382516
 30
0.0
 11
-0.7541662178196909
 21
3.672616281382516
 31
0.0
  0
LINE
  5
2A4F
330
1E
100
AcDbEntity
  8
7
100
AcDbLine
 10
-0.7541662178196909
 20
3.324191084532122
 30
0.0
 11
-0.7541662178196909
 21
3.672616281382516
 31
0.0
  0
LINE
  5
2A50
330
1E
100
AcDbEntity
  8
7
100
AcDbLine
 10
-0.7856622808118168
 20
3.704112344374642
 30
0.0
 11
-0.7836937768748094
 21
3.704112344374642
 31
0.0
  0
LINE
  5
2A56
330
1E
100
AcDbEntity
  8
7
100
AcDbLine
 10
-0.7541662178196909
 20
6.954112344374642
 30
0.0
 11
-0.7521977138826835
 21
6.954112344374642
 31
0.0
  0
LINE
  5
2A57
330
1E
100
AcDbEntity
  8
7
100
AcDbLine
 10
-0.7541662178196909
 20
6.954112344374642
 30
0.0
 11
-0.7541662178196909
 21
6.603718643587241
 31
0.0
  0
LINE
  5
2A58
330
1E
100
AcDbEntity
  8
7
100
AcDbLine
 10
-0.7521977138826835
 20
6.603718643587241
 30
0.0
 11
-0.7541662178196909
 21
6.603718643587241
 31
0.0
  0
LINE
  5
2A69
330
1E
100
AcDbEntity
  8
7
100
AcDbLine
 10
-2.596685902859061
 20
3.704112344374642
 30
0.0
 11
-2.594717398922053
 21
3.704112344374642
 31
0.0
  0
LINE
  5
2A6A
330
1E
100
AcDbEntity
  8
7
100
AcDbLine
 10
-2.565189839866935
 20
3.704112344374642
 30
0.0
 11
-2.594717398922053
 21
3.704112344374642
 31
0.0
  0
LINE
  5
2A6B
330
1E
100
AcDbEntity
  8
7
100
AcDbLine
 10
-2.563221335929927
 20
3.702143840437635
 30
0.0
 11
-2.565189839866935
 21
3.704112344374642
 31
0.0
  0
LINE
  5
2A6C
330
1E
100
AcDbEntity
  8
7
100
AcDbLine
 10
-0.7856622808118168
 20
3.704112344374642
 30
0.0
 11
-0.8151898398669352
 21
3.704112344374642
 31
0.0
  0
LINE
  5
2A6D
330
1E
100
AcDbEntity
  8
7
100
AcDbLine
 10
-1.797473304433863
 20
3.438364312878579
 30
0.0
 11
-1.584874879237013
 21
3.438364312878579
 31
0.0
  0
LINE
  5
2A6E
330
1E
100
AcDbEntity
  8
7
100
AcDbLine
 10
-1.797473304433863
 20
3.558443053036059
 30
0.0
 11
-1.584874879237013
 21
3.558443053036059
 31
0.0
  0
LINE
  5
2A75
330
1E
100
AcDbEntity
  8
7
100
AcDbLine
 10
-1.594717398922052
 20
3.430490297130548
 30
0.0
 11
-1.785662280811816
 21
3.430490297130548
 31
0.0
  0
LINE
  5
2A7B
330
1E
100
AcDbEntity
  8
7
100
AcDbLine
 10
-1.630150469788195
 20
3.420647777445509
 30
0.0
 11
-1.750229209945675
 21
3.420647777445509
 31
0.0
  0
LINE
  5
2A81
330
1E
100
AcDbEntity
  8
7
100
AcDbLine
 10
-1.797473304433863
 20
3.438364312878579
 30
0.0
 11
-1.785662280811816
 21
3.430490297130548
 31
0.0
  0
LINE
  5
2A82
330
1E
100
AcDbEntity
  8
7
100
AcDbLine
 10
-1.594717398922052
 20
3.430490297130548
 30
0.0
 11
-1.584874879237013
 21
3.438364312878579
 31
0.0
  0
LINE
  5
2A8E
330
1E
100
AcDbEntity
  8
7
100
AcDbLine
 10
-1.584874879237013
 20
3.558443053036059
 30
0.0
 11
-1.594717398922052
 21
3.564348564847083
 31
0.0
  0
LINE
  5
2A99
330
1E
100
AcDbEntity
  8
7
100
AcDbLine
 10
-1.630150469788195
 20
3.574191084532122
 30
0.0
 11
-1.750229209945675
 21
3.574191084532122
 31
0.0
  0
LINE
  5
2AA3
330
1E
100
AcDbEntity
  8
7
100
AcDbLine
 10
-1.630150469788195
 20
3.420647777445509
 30
0.0
 11
-1.750229209945675
 21
3.420647777445509
 31
0.0
  0
LINE
  5
2AAD
330
1E
100
AcDbEntity
  8
7
100
AcDbLine
 10
-1.630150469788195
 20
3.574191084532122
 30
0.0
 11
-1.750229209945675
 21
3.574191084532122
 31
0.0
  0
LINE
  5
2AAE
330
1E
100
AcDbEntity
  8
7
100
AcDbLine
 10
-1.750229209945675
 20
3.647025730201415
 30
0.0
 11
-1.630150469788195
 21
3.647025730201415
 31
0.0
  0
LINE
  5
2ABB
330
1E
100
AcDbEntity
  8
7
100
AcDbLine
 10
-1.630150469788195
 20
3.347813131776216
 30
0.0
 11
-1.750229209945675
 21
3.347813131776216
 31
0.0
  0
LINE
  5
2AC8
330
1E
100
AcDbEntity
  8
7
100
AcDbLine
 10
-1.750229209945675
 20
3.648994234138422
 30
0.0
 11
-1.750229209945675
 21
3.647025730201415
 31
0.0
  0
LINE
  5
2AC9
330
1E
100
AcDbEntity
  8
7
100
AcDbLine
 10
-1.750229209945675
 20
3.347813131776216
 30
0.0
 11
-1.750229209945675
 21
3.345844627839209
 31
0.0
  0
LINE
  5
2ACA
330
1E
100
AcDbEntity
  8
7
100
AcDbLine
 10
-1.630150469788195
 20
3.345844627839209
 30
0.0
 11
-1.630150469788195
 21
3.347813131776216
 31
0.0
  0
LINE
  5
2ACB
330
1E
100
AcDbEntity
  8
7
100
AcDbLine
 10
-1.630150469788195
 20
3.647025730201415
 30
0.0
 11
-1.630150469788195
 21
3.648994234138422
 31
0.0
  0
LINE
  5
2ACC
330
1E
100
AcDbEntity
  8
7
100
AcDbLine
 10
-2.626213461914179
 20
3.672616281382516
 30
0.0
 11
-2.628181965851187
 21
3.672616281382516
 31
0.0
  0
LINE
  5
2AD2
330
1E
100
AcDbEntity
  8
7
100
AcDbLine
 10
-2.626213461914179
 20
3.672616281382516
 30
0.0
 11
-2.626213461914179
 21
3.324191084532122
 31
0.0
  0
LINE
  5
2AD3
330
1E
100
AcDbEntity
  8
7
100
AcDbLine
 10
-1.460859131205517
 20
6.036789509728974
 30
0.0
 11
-1.285662280811816
 21
6.036789509728974
 31
0.0
  0
LINE
  5
2AD4
330
1E
100
AcDbEntity
  8
7
100
AcDbLine
 10
-2.094717398922053
 20
6.036789509728974
 30
0.0
 11
-1.919520548528352
 21
6.036789509728974
 31
0.0
  0
LINE
  5
2AD5
330
1E
100
AcDbEntity
  8
7
100
AcDbLine
 10
-1.47660716270158
 20
5.458049352248659
 30
0.0
 11
-1.269914249315753
 21
5.458049352248659
 31
0.0
  0
LINE
  5
2ADB
330
1E
100
AcDbEntity
  8
7
100
AcDbLine
 10
-1.269914249315753
 20
5.458049352248659
 30
0.0
 11
-1.269914249315753
 21
5.428521793193541
 31
0.0
  0
LINE
  5
2ADC
330
1E
100
AcDbEntity
  8
7
100
AcDbLine
 10
-1.269914249315753
 20
5.424584785319524
 30
0.0
 11
-1.47660716270158
 21
5.424584785319524
 31
0.0
  0
LINE
  5
2ADD
330
1E
100
AcDbEntity
  8
7
100
AcDbLine
 10
-1.269914249315753
 20
5.428521793193541
 30
0.0
 11
-1.269914249315753
 21
5.424584785319524
 31
0.0
  0
LINE
  5
2ADE
330
1E
100
AcDbEntity
  8
7
100
AcDbLine
 10
-1.47660716270158
 20
5.424584785319524
 30
0.0
 11
-1.47660716270158
 21
5.428521793193541
 31
0.0
  0
LINE
  5
2ADF
330
1E
100
AcDbEntity
  8
7
100
AcDbLine
 10
-1.474638658764573
 20
5.387183210516374
 30
0.0
 11
-1.269914249315753
 21
5.387183210516374
 31
0.0
  0
LINE
  5
2AE0
330
1E
100
AcDbEntity
  8
7
100
AcDbLine
 10
-1.269914249315753
 20
5.424584785319524
 30
0.0
 11
-1.269914249315753
 21
5.387183210516374
 31
0.0
  0
LINE
  5
2AE1
330
1E
100
AcDbEntity
  8
7
100
AcDbLine
 10
-1.474638658764573
 20
5.387183210516374
 30
0.0
 11
-1.47660716270158
 21
5.424584785319524
 31
0.0
  0
LINE
  5
2AE2
330
1E
100
AcDbEntity
  8
7
100
AcDbLine
 10
-1.474638658764573
 20
5.377340690831335
 30
0.0
 11
-1.269914249315753
 21
5.377340690831335
 31
0.0
  0
LINE
  5
2AE3
330
1E
100
AcDbEntity
  8
7
100
AcDbLine
 10
-1.269914249315753
 20
5.387183210516374
 30
0.0
 11
-1.269914249315753
 21
5.377340690831335
 31
0.0
  0
LINE
  5
2AE4
330
1E
100
AcDbEntity
  8
7
100
AcDbLine
 10
-1.474638658764573
 20
5.387183210516374
 30
0.0
 11
-1.474638658764573
 21
5.377340690831335
 31
0.0
  0
LINE
  5
2AEA
330
1E
100
AcDbEntity
  8
7
100
AcDbLine
 10
-1.905741020969297
 20
5.428521793193541
 30
0.0
 11
-2.110465430418116
 21
5.428521793193541
 31
0.0
  0
LINE
  5
2AEB
330
1E
100
AcDbEntity
  8
7
100
AcDbLine
 10
-1.905741020969297
 20
5.458049352248659
 30
0.0
 11
-1.905741020969297
 21
5.428521793193541
 31
0.0
  0
LINE
  5
2AF1
330
1E
100
AcDbEntity
  8
7
100
AcDbLine
 10
-2.110465430418116
 20
5.428521793193541
 30
0.0
 11
-2.110465430418116
 21
5.424584785319524
 31
0.0
  0
LINE
  5
2AF2
330
1E
100
AcDbEntity
  8
7
100
AcDbLine
 10
-1.905741020969297
 20
5.387183210516374
 30
0.0
 11
-2.110465430418116
 21
5.387183210516374
 31
0.0
  0
LINE
  5
2AF3
330
1E
100
AcDbEntity
  8
7
100
AcDbLine
 10
-1.905741020969297
 20
5.387183210516374
 30
0.0
 11
-1.905741020969297
 21
5.424584785319524
 31
0.0
  0
LINE
  5
2AF4
330
1E
100
AcDbEntity
  8
7
100
AcDbLine
 10
-2.110465430418116
 20
5.424584785319524
 30
0.0
 11
-2.110465430418116
 21
5.387183210516374
 31
0.0
  0
LINE
  5
2AF5
330
1E
100
AcDbEntity
  8
7
100
AcDbLine
 10
-1.905741020969297
 20
5.377340690831335
 30
0.0
 11
-2.110465430418116
 21
5.377340690831335
 31
0.0
  0
LINE
  5
2AF6
330
1E
100
AcDbEntity
  8
7
100
AcDbLine
 10
-1.905741020969297
 20
5.387183210516374
 30
0.0
 11
-1.905741020969297
 21
5.377340690831335
 31
0.0
  0
LINE
  5
2AF7
330
1E
100
AcDbEntity
  8
7
100
AcDbLine
 10
-2.110465430418116
 20
5.387183210516374
 30
0.0
 11
-2.110465430418116
 21
5.377340690831335
 31
0.0
  0
LINE
  5
2AF8
330
1E
100
AcDbEntity
  8
7
100
AcDbLine
 10
-1.618339446166148
 20
5.349781635713226
 30
0.0
 11
-1.618339446166148
 21
5.414742265634485
 31
0.0
  0
LINE
  5
2AFE
330
1E
100
AcDbEntity
  8
7
100
AcDbLine
 10
-1.269914249315753
 20
5.361592659335272
 30
0.0
 11
-1.47660716270158
 21
5.361592659335272
 31
0.0
  0
LINE
  5
2B04
330
1E
100
AcDbEntity
  8
7
100
AcDbLine
 10
-1.500229209945675
 20
5.349781635713226
 30
0.0
 11
-1.618339446166148
 21
5.349781635713226
 31
0.0
  0
LINE
  5
2B05
330
1E
100
AcDbEntity
  8
7
100
AcDbLine
 10
-1.460859131205517
 20
6.074191084532122
 30
0.0
 11
-1.285662280811816
 21
6.074191084532122
 31
0.0
  0
LINE
  5
2B06
330
1E
100
AcDbEntity
  8
7
100
AcDbLine
 10
-1.460859131205517
 20
6.074191084532122
 30
0.0
 11
-1.460859131205517
 21
6.036789509728974
 31
0.0
  0
LINE
  5
2B07
330
1E
100
AcDbEntity
  8
7
100
AcDbLine
 10
-1.285662280811816
 20
6.074191084532122
 30
0.0
 11
-1.285662280811816
 21
6.036789509728974
 31
0.0
  0
LINE
  5
2B08
330
1E
100
AcDbEntity
  8
7
100
AcDbLine
 10
-2.094717398922053
 20
6.074191084532122
 30
0.0
 11
-1.919520548528352
 21
6.074191084532122
 31
0.0
  0
LINE
  5
2B09
330
1E
100
AcDbEntity
  8
7
100
AcDbLine
 10
-2.094717398922053
 20
6.074191084532122
 30
0.0
 11
-2.094717398922053
 21
6.036789509728974
 31
0.0
  0
LINE
  5
2B0A
330
1E
100
AcDbEntity
  8
7
100
AcDbLine
 10
-1.919520548528352
 20
6.074191084532122
 30
0.0
 11
-1.919520548528352
 21
6.036789509728974
 31
0.0
  0
LINE
  5
2B13
330
1E
100
AcDbEntity
  8
7
100
AcDbLine
 10
-1.762040233567722
 20
5.349781635713226
 30
0.0
 11
-1.880150469788195
 21
5.349781635713226
 31
0.0
  0
LINE
  5
2B14
330
1E
100
AcDbEntity
  8
7
100
AcDbLine
 10
-1.762040233567722
 20
5.414742265634485
 30
0.0
 11
-1.762040233567722
 21
5.349781635713226
 31
0.0
  0
LINE
  5
2B15
330
1E
100
AcDbEntity
  8
7
100
AcDbLine
 10
-1.762040233567722
 20
5.414742265634485
 30
0.0
 11
-1.618339446166148
 21
5.414742265634485
 31
0.0
  0
LINE
  5
2B16
330
1E
100
AcDbEntity
  8
7
100
AcDbLine
 10
-1.128181965851187
 20
5.414742265634485
 30
0.0
 11
-1.061252831992919
 21
5.414742265634485
 31
0.0
  0
LINE
  5
2B21
330
1E
100
AcDbEntity
  8
7
100
AcDbLine
 10
-2.321095351677959
 20
5.414742265634485
 30
0.0
 11
-2.252197713882683
 21
5.414742265634485
 31
0.0
  0
LINE
  5
2B22
330
1E
100
AcDbEntity
  8
7
100
AcDbLine
 10
-1.285662280811816
 20
6.074191084532122
 30
0.0
 11
-1.061252831992919
 21
6.074191084532122
 31
0.0
  0
LINE
  5
2B23
330
1E
100
AcDbEntity
  8
7
100
AcDbLine
 10
-2.321095351677959
 20
6.074191084532122
 30
0.0
 11
-2.094717398922053
 21
6.074191084532122
 31
0.0
  0
LINE
  5
2B24
330
1E
100
AcDbEntity
  8
7
100
AcDbLine
 10
-1.919520548528352
 20
6.074191084532122
 30
0.0
 11
-1.460859131205517
 21
6.074191084532122
 31
0.0
  0
LINE
  5
2B25
330
1E
100
AcDbEntity
  8
7
100
AcDbLine
 10
-1.269914249315753
 20
5.361592659335272
 30
0.0
 11
-1.246292202071659
 21
5.349781635713226
 31
0.0
  0
LINE
  5
2B26
330
1E
100
AcDbEntity
  8
7
100
AcDbLine
 10
-1.500229209945675
 20
5.349781635713226
 30
0.0
 11
-1.47660716270158
 21
5.361592659335272
 31
0.0
  0
LINE
  5
2B27
330
1E
100
AcDbEntity
  8
7
100
AcDbLine
 10
-1.903772517032289
 20
5.361592659335272
 30
0.0
 11
-1.880150469788195
 21
5.349781635713226
 31
0.0
  0
LINE
  5
2B28
330
1E
100
AcDbEntity
  8
7
100
AcDbLine
 10
-2.134087477662211
 20
5.349781635713226
 30
0.0
 11
-2.110465430418116
 21
5.361592659335272
 31
0.0
  0
LINE
  5
2B29
330
1E
100
AcDbEntity
  8
7
100
AcDbLine
 10
-1.618339446166148
 20
5.412773761697478
 30
0.0
 11
-1.618339446166148
 21
5.414742265634485
 31
0.0
  0
LINE
  5
2B2A
330
1E
100
AcDbEntity
  8
7
100
AcDbLine
 10
-1.618339446166148
 20
5.349781635713226
 30
0.0
 11
-1.618339446166148
 21
5.347813131776216
 31
0.0
  0
LINE
  5
2B2B
330
1E
100
AcDbEntity
  8
7
100
AcDbLine
 10
-1.126213461914179
 20
5.347813131776216
 30
0.0
 11
-1.128181965851187
 21
5.349781635713226
 31
0.0
  0
LINE
  5
2B2C
330
1E
100
AcDbEntity
  8
7
100
AcDbLine
 10
-1.126213461914179
 20
5.412773761697478
 30
0.0
 11
-1.128181965851187
 21
5.414742265634485
 31
0.0
  0
LINE
  5
2B2D
330
1E
100
AcDbEntity
  8
7
100
AcDbLine
 10
-1.061252831992919
 20
5.414742265634485
 30
0.0
 11
-1.059284328055911
 21
5.412773761697478
 31
0.0
  0
LINE
  5
2B2E
330
1E
100
AcDbEntity
  8
7
100
AcDbLine
 10
-1.059284328055911
 20
6.076159588469131
 30
0.0
 11
-1.061252831992919
 21
6.074191084532122
 31
0.0
  0
LINE
  5
2B2F
330
1E
100
AcDbEntity
  8
7
100
AcDbLine
 10
-1.061252831992919
 20
5.414742265634485
 30
0.0
 11
-1.061252831992919
 21
6.074191084532122
 31
0.0
  0
LINE
  5
2B30
330
1E
100
AcDbEntity
  8
7
100
AcDbLine
 10
-2.321095351677959
 20
6.076159588469131
 30
0.0
 11
-2.321095351677959
 21
6.074191084532122
 31
0.0
  0
LINE
  5
2B31
330
1E
100
AcDbEntity
  8
7
100
AcDbLine
 10
-2.321095351677959
 20
5.414742265634485
 30
0.0
 11
-2.321095351677959
 21
5.412773761697478
 31
0.0
  0
LINE
  5
2B32
330
1E
100
AcDbEntity
  8
7
100
AcDbLine
 10
-2.321095351677959
 20
6.074191084532122
 30
0.0
 11
-2.321095351677959
 21
5.414742265634485
 31
0.0
  0
LINE
  5
2B33
330
1E
100
AcDbEntity
  8
7
100
AcDbLine
 10
-2.25416621781969
 20
5.412773761697478
 30
0.0
 11
-2.252197713882683
 21
5.414742265634485
 31
0.0
  0
LINE
  5
2B34
330
1E
100
AcDbEntity
  8
7
100
AcDbLine
 10
-2.25416621781969
 20
5.347813131776216
 30
0.0
 11
-2.252197713882683
 21
5.349781635713226
 31
0.0
  0
LINE
  5
2B35
330
1E
100
AcDbEntity
  8
7
100
AcDbLine
 10
-1.762040233567722
 20
5.349781635713226
 30
0.0
 11
-1.762040233567722
 21
5.347813131776216
 31
0.0
  0
LINE
  5
2B36
330
1E
100
AcDbEntity
  8
7
100
AcDbLine
 10
-1.762040233567722
 20
5.412773761697478
 30
0.0
 11
-1.762040233567722
 21
5.414742265634485
 31
0.0
  0
LINE
  5
2B37
330
1E
100
AcDbEntity
  8
7
100
AcDbLine
 10
-1.919520548528352
 20
4.926553289256531
 30
0.0
 11
-1.460859131205517
 21
4.926553289256531
 31
0.0
  0
LINE
  5
2B38
330
1E
100
AcDbEntity
  8
7
100
AcDbLine
 10
-1.762040233567722
 20
4.267104470358894
 30
0.0
 11
-1.618339446166148
 21
4.267104470358894
 31
0.0
  0
LINE
  5
2B39
330
1E
100
AcDbEntity
  8
7
100
AcDbLine
 10
-1.128181965851187
 20
4.267104470358894
 30
0.0
 11
-1.061252831992919
 21
4.267104470358894
 31
0.0
  0
LINE
  5
2B3F
330
1E
100
AcDbEntity
  8
7
100
AcDbLine
 10
-1.061252831992919
 20
4.267104470358894
 30
0.0
 11
-1.061252831992919
 21
4.926553289256531
 31
0.0
  0
LINE
  5
2B40
330
1E
100
AcDbEntity
  8
7
100
AcDbLine
 10
-1.285662280811816
 20
4.926553289256531
 30
0.0
 11
-1.285662280811816
 21
4.889151714453383
 31
0.0
  0
LINE
  5
2B41
330
1E
100
AcDbEntity
  8
7
100
AcDbLine
 10
-1.460859131205517
 20
4.926553289256531
 30
0.0
 11
-1.460859131205517
 21
4.889151714453383
 31
0.0
  0
LINE
  5
2B42
330
1E
100
AcDbEntity
  8
7
100
AcDbLine
 10
-1.285662280811816
 20
4.926553289256531
 30
0.0
 11
-1.061252831992919
 21
4.926553289256531
 31
0.0
  0
LINE
  5
2B43
330
1E
100
AcDbEntity
  8
7
100
AcDbLine
 10
-1.500229209945675
 20
4.202143840437635
 30
0.0
 11
-1.47660716270158
 21
4.213954864059681
 31
0.0
  0
LINE
  5
2B49
330
1E
100
AcDbEntity
  8
7
100
AcDbLine
 10
-1.126213461914179
 20
4.200175336500628
 30
0.0
 11
-1.128181965851187
 21
4.202143840437635
 31
0.0
  0
LINE
  5
2B4A
330
1E
100
AcDbEntity
  8
7
100
AcDbLine
 10
-1.269914249315753
 20
4.213954864059681
 30
0.0
 11
-1.246292202071659
 21
4.202143840437635
 31
0.0
  0
LINE
  5
2B4B
330
1E
100
AcDbEntity
  8
7
100
AcDbLine
 10
-1.269914249315753
 20
4.213954864059681
 30
0.0
 11
-1.47660716270158
 21
4.213954864059681
 31
0.0
  0
LINE
  5
2B4C
330
1E
100
AcDbEntity
  8
7
100
AcDbLine
 10
-1.618339446166148
 20
4.202143840437635
 30
0.0
 11
-1.618339446166148
 21
4.267104470358894
 31
0.0
  0
LINE
  5
2B52
330
1E
100
AcDbEntity
  8
7
100
AcDbLine
 10
-1.474638658764573
 20
4.239545415240785
 30
0.0
 11
-1.474638658764573
 21
4.229702895555744
 31
0.0
  0
LINE
  5
2B58
330
1E
100
AcDbEntity
  8
7
100
AcDbLine
 10
-1.47660716270158
 20
4.310411556973068
 30
0.0
 11
-1.47660716270158
 21
4.28088399791795
 31
0.0
  0
LINE
  5
2B67
330
1E
100
AcDbEntity
  8
7
100
AcDbLine
 10
-2.252197713882683
 20
4.202143840437635
 30
0.0
 11
-2.252197713882683
 21
4.267104470358894
 31
0.0
  0
LINE
  5
2B68
330
1E
100
AcDbEntity
  8
7
100
AcDbLine
 10
-2.134087477662211
 20
4.202143840437635
 30
0.0
 11
-2.252197713882683
 21
4.202143840437635
 31
0.0
  0
LINE
  5
2B6E
330
1E
100
AcDbEntity
  8
7
100
AcDbLine
 10
-1.903772517032289
 20
4.213954864059681
 30
0.0
 11
-1.880150469788195
 21
4.202143840437635
 31
0.0
  0
LINE
  5
2B6F
330
1E
100
AcDbEntity
  8
7
100
AcDbLine
 10
-1.905741020969297
 20
4.310411556973068
 30
0.0
 11
-1.905741020969297
 21
4.28088399791795
 31
0.0
  0
LINE
  5
2B70
330
1E
100
AcDbEntity
  8
7
100
AcDbLine
 10
-1.905741020969297
 20
4.276946990043933
 30
0.0
 11
-1.905741020969297
 21
4.28088399791795
 31
0.0
  0
LINE
  5
2B71
330
1E
100
AcDbEntity
  8
7
100
AcDbLine
 10
-1.905741020969297
 20
4.239545415240785
 30
0.0
 11
-1.905741020969297
 21
4.276946990043933
 31
0.0
  0
LINE
  5
2B72
330
1E
100
AcDbEntity
  8
7
100
AcDbLine
 10
-1.905741020969297
 20
4.239545415240785
 30
0.0
 11
-1.905741020969297
 21
4.229702895555744
 31
0.0
  0
LINE
  5
2B78
330
1E
100
AcDbEntity
  8
7
100
AcDbLine
 10
-2.134087477662211
 20
4.202143840437635
 30
0.0
 11
-2.110465430418116
 21
4.213954864059681
 31
0.0
  0
LINE
  5
2B7E
330
1E
100
AcDbEntity
  8
7
100
AcDbLine
 10
-2.110465430418116
 20
4.239545415240785
 30
0.0
 11
-2.110465430418116
 21
4.229702895555744
 31
0.0
  0
LINE
  5
2B7F
330
1E
100
AcDbEntity
  8
7
100
AcDbLine
 10
-2.110465430418116
 20
4.276946990043933
 30
0.0
 11
-2.110465430418116
 21
4.239545415240785
 31
0.0
  0
LINE
  5
2B80
330
1E
100
AcDbEntity
  8
7
100
AcDbLine
 10
-2.110465430418116
 20
4.28088399791795
 30
0.0
 11
-2.110465430418116
 21
4.276946990043933
 31
0.0
  0
LINE
  5
2B81
330
1E
100
AcDbEntity
  8
7
100
AcDbLine
 10
-2.110465430418116
 20
4.310411556973068
 30
0.0
 11
-2.110465430418116
 21
4.28088399791795
 31
0.0
  0
LINE
  5
2B87
330
1E
100
AcDbEntity
  8
7
100
AcDbLine
 10
-1.919520548528352
 20
4.926553289256531
 30
0.0
 11
-1.919520548528352
 21
4.889151714453383
 31
0.0
  0
LINE
  5
2B88
330
1E
100
AcDbEntity
  8
7
100
AcDbLine
 10
-2.25416621781969
 20
4.200175336500628
 30
0.0
 11
-2.252197713882683
 21
4.202143840437635
 31
0.0
  0
LINE
  5
2B89
330
1E
100
AcDbEntity
  8
7
100
AcDbLine
 10
-1.762040233567722
 20
4.202143840437635
 30
0.0
 11
-1.762040233567722
 21
4.200175336500628
 31
0.0
  0
LINE
  5
2B8A
330
1E
100
AcDbEntity
  8
7
100
AcDbLine
 10
-2.110465430418116
 20
4.213954864059681
 30
0.0
 11
-1.903772517032289
 21
4.213954864059681
 31
0.0
  0
LINE
  5
2B8B
330
1E
100
AcDbEntity
  8
7
100
AcDbLine
 10
-1.460859131205517
 20
4.889151714453383
 30
0.0
 11
-1.285662280811816
 21
4.889151714453383
 31
0.0
  0
LINE
  5
2B8C
330
1E
100
AcDbEntity
  8
7
100
AcDbLine
 10
-1.47660716270158
 20
4.310411556973068
 30
0.0
 11
-1.269914249315753
 21
4.310411556973068
 31
0.0
  0
LINE
  5
2B8D
330
1E
100
AcDbEntity
  8
7
100
AcDbLine
 10
-1.47660716270158
 20
4.28088399791795
 30
0.0
 11
-1.269914249315753
 21
4.28088399791795
 31
0.0
  0
LINE
  5
2B8E
330
1E
100
AcDbEntity
  8
7
100
AcDbLine
 10
-1.269914249315753
 20
4.276946990043933
 30
0.0
 11
-1.47660716270158
 21
4.276946990043933
 31
0.0
  0
LINE
  5
2B8F
330
1E
100
AcDbEntity
  8
7
100
AcDbLine
 10
-1.474638658764573
 20
4.239545415240785
 30
0.0
 11
-1.269914249315753
 21
4.239545415240785
 31
0.0
  0
LINE
  5
2B90
330
1E
100
AcDbEntity
  8
7
100
AcDbLine
 10
-1.474638658764573
 20
4.229702895555744
 30
0.0
 11
-1.269914249315753
 21
4.229702895555744
 31
0.0
  0
LINE
  5
2B91
330
1E
100
AcDbEntity
  8
7
100
AcDbLine
 10
-1.905741020969297
 20
4.310411556973068
 30
0.0
 11
-2.110465430418116
 21
4.310411556973068
 31
0.0
  0
LINE
  5
2B92
330
1E
100
AcDbEntity
  8
7
100
AcDbLine
 10
-1.905741020969297
 20
4.28088399791795
 30
0.0
 11
-2.110465430418116
 21
4.28088399791795
 31
0.0
  0
LINE
  5
2B93
330
1E
100
AcDbEntity
  8
7
100
AcDbLine
 10
-2.110465430418116
 20
4.276946990043933
 30
0.0
 11
-1.905741020969297
 21
4.276946990043933
 31
0.0
  0
LINE
  5
2B94
330
1E
100
AcDbEntity
  8
7
100
AcDbLine
 10
-1.905741020969297
 20
4.239545415240785
 30
0.0
 11
-2.110465430418116
 21
4.239545415240785
 31
0.0
  0
LINE
  5
2B95
330
1E
100
AcDbEntity
  8
7
100
AcDbLine
 10
-1.905741020969297
 20
4.229702895555744
 30
0.0
 11
-2.110465430418116
 21
4.229702895555744
 31
0.0
  0
LINE
  5
2B96
330
1E
100
AcDbEntity
  8
7
100
AcDbLine
 10
-2.094717398922053
 20
4.889151714453383
 30
0.0
 11
-1.919520548528352
 21
4.889151714453383
 31
0.0
  0
LINE
  5
2B97
330
1E
100
AcDbEntity
  8
7
100
AcDbLine
 10
-1.126213461914179
 20
4.267104470358894
 30
0.0
 11
-1.128181965851187
 21
4.267104470358894
 31
0.0
  0
LINE
  5
2B98
330
1E
100
AcDbEntity
  8
7
100
AcDbLine
 10
-1.061252831992919
 20
4.267104470358894
 30
0.0
 11
-1.059284328055911
 21
4.267104470358894
 31
0.0
  0
LINE
  5
2B99
330
1E
100
AcDbEntity
  8
7
100
AcDbLine
 10
-1.059284328055911
 20
4.928521793193541
 30
0.0
 11
-1.061252831992919
 21
4.926553289256531
 31
0.0
  0
LINE
  5
2B9A
330
1E
100
AcDbEntity
  8
7
100
AcDbLine
 10
-1.460859131205517
 20
4.926553289256531
 30
0.0
 11
-1.285662280811816
 21
4.926553289256531
 31
0.0
  0
LINE
  5
2B9B
330
1E
100
AcDbEntity
  8
7
100
AcDbLine
 10
-2.321095351677959
 20
4.928521793193541
 30
0.0
 11
-2.321095351677959
 21
4.926553289256531
 31
0.0
  0
LINE
  5
2B9C
330
1E
100
AcDbEntity
  8
7
100
AcDbLine
 10
-2.25416621781969
 20
4.267104470358894
 30
0.0
 11
-2.252197713882683
 21
4.267104470358894
 31
0.0
  0
LINE
  5
2B9D
330
1E
100
AcDbEntity
  8
7
100
AcDbLine
 10
-2.094717398922053
 20
4.926553289256531
 30
0.0
 11
-1.919520548528352
 21
4.926553289256531
 31
0.0
  0
LINE
  5
2BB0
330
1E
100
AcDbEntity
  8
7
100
AcDbLine
 10
3.523392837298418
 20
2.889151714453383
 30
0.0
 11
3.462369215251175
 21
2.891120218390391
 31
0.0
  0
LINE
  5
2BD6
330
1E
100
AcDbEntity
  8
7
100
AcDbLine
 10
3.249770790054324
 20
3.115529667209289
 30
0.0
 11
3.249770790054324
 21
7.160805257760468
 31
0.0
  0
LINE
  5
2BDD
330
1E
100
AcDbEntity
  8
7
100
AcDbLine
 10
3.462369215251175
 20
7.385214706579366
 30
0.0
 11
3.523392837298418
 21
7.389151714453383
 31
0.0
  0
LINE
  5
2BF6
330
1E
100
AcDbEntity
  8
7
100
AcDbLine
 10
3.924967640448025
 20
5.343876123902202
 30
0.0
 11
3.840321971156686
 21
5.428521793193541
 31
0.0
  0
LINE
  5
2BFC
330
1E
100
AcDbEntity
  8
7
100
AcDbLine
 10
3.759613309739364
 20
5.458049352248659
 30
0.0
 11
3.779298349109442
 21
5.45608084831165
 31
0.0
  0
LINE
  5
2C05
330
1E
100
AcDbEntity
  8
7
100
AcDbLine
 10
3.769455829424403
 20
5.365529667209289
 30
0.0
 11
3.757644805802355
 21
5.361592659335272
 31
0.0
  0
LINE
  5
2C06
330
1E
100
AcDbEntity
  8
7
100
AcDbLine
 10
3.592290475093694
 20
5.2434824231148
 30
0.0
 11
3.838353467219679
 21
5.251356438862831
 31
0.0
  0
LINE
  5
2C0C
330
1E
100
AcDbEntity
  8
7
100
AcDbLine
 10
3.858038506589757
 20
5.290726517602989
 30
0.0
 11
3.858038506589757
 21
5.271041478232911
 31
0.0
  0
LINE
  5
2C0D
330
1E
100
AcDbEntity
  8
7
100
AcDbLine
 10
3.757644805802355
 20
5.361592659335272
 30
0.0
 11
3.592290475093694
 21
5.357655651461257
 31
0.0
  0
LINE
  5
2C0E
330
1E
100
AcDbEntity
  8
7
100
AcDbLine
 10
3.905282601077946
 20
5.294663525477005
 30
0.0
 11
3.592290475093694
 21
5.273009982169918
 31
0.0
  0
LINE
  5
2C15
330
1E
100
AcDbEntity
  8
7
100
AcDbLine
 10
3.523392837298418
 20
6.304506045162044
 30
0.0
 11
3.592290475093694
 21
6.302537541225037
 31
0.0
  0
LINE
  5
2C16
330
1E
100
AcDbEntity
  8
7
100
AcDbLine
 10
3.592290475093694
 20
3.967891871933698
 30
0.0
 11
3.592290475093694
 21
6.302537541225037
 31
0.0
  0
LINE
  5
2C17
330
1E
100
AcDbEntity
  8
7
100
AcDbLine
 10
3.592290475093694
 20
3.967891871933698
 30
0.0
 11
3.523392837298418
 21
3.96592336799669
 31
0.0
  0
LINE
  5
2C18
330
1E
100
AcDbEntity
  8
7
100
AcDbLine
 10
3.757644805802355
 20
4.213954864059681
 30
0.0
 11
3.592290475093694
 21
4.210017856185666
 31
0.0
  0
LINE
  5
2C19
330
1E
100
AcDbEntity
  8
7
100
AcDbLine
 10
3.905282601077946
 20
4.147025730201415
 30
0.0
 11
3.592290475093694
 21
4.125372186894328
 31
0.0
  0
LINE
  5
2C20
330
1E
100
AcDbEntity
  8
7
100
AcDbLine
 10
3.924967640448025
 20
4.198206832563618
 30
0.0
 11
3.840321971156686
 21
4.28088399791795
 31
0.0
  0
LINE
  5
2C26
330
1E
100
AcDbEntity
  8
7
100
AcDbLine
 10
3.759613309739364
 20
4.310411556973068
 30
0.0
 11
3.779298349109442
 21
4.308443053036059
 31
0.0
  0
LINE
  5
2C30
330
1E
100
AcDbEntity
  8
7
100
AcDbLine
 10
3.592290475093694
 20
4.095844627839209
 30
0.0
 11
3.838353467219679
 21
4.103718643587241
 31
0.0
  0
LINE
  5
2C36
330
1E
100
AcDbEntity
  8
7
100
AcDbLine
 10
3.858038506589757
 20
4.145057226264405
 30
0.0
 11
3.858038506589757
 21
4.125372186894328
 31
0.0
  0
LINE
  5
2FFB
330
1E
100
AcDbEntity
  8
7
100
AcDbLine
 10
3.858038506589757
 20
4.125372186894328
 30
0.0
 11
3.852132994778733
 21
4.111592659335272
 31
0.0
  0
LINE
  5
2FFC
330
1E
100
AcDbEntity
  8
7
100
AcDbLine
 10
3.852132994778733
 20
4.111592659335272
 30
0.0
 11
3.838353467219679
 21
4.103718643587241
 31
0.0
  0
LINE
  5
2FFD
330
1E
100
AcDbEntity
  8
7
100
AcDbLine
 10
3.759613309739364
 20
4.310411556973068
 30
0.0
 11
3.759613309739364
 21
4.28088399791795
 31
0.0
  0
LINE
  5
2FFE
330
1E
100
AcDbEntity
  8
7
100
AcDbLine
 10
3.759613309739364
 20
4.28088399791795
 30
0.0
 11
3.761581813676372
 21
4.276946990043933
 31
0.0
  0
LINE
  5
2FFF
330
1E
100
AcDbEntity
  8
7
100
AcDbLine
 10
3.761581813676372
 20
4.276946990043933
 30
0.0
 11
3.773392837298418
 21
4.239545415240785
 31
0.0
  0
LINE
  5
3000
330
1E
100
AcDbEntity
  8
7
100
AcDbLine
 10
3.773392837298418
 20
4.239545415240785
 30
0.0
 11
3.773392837298418
 21
4.229702895555744
 31
0.0
  0
LINE
  5
3001
330
1E
100
AcDbEntity
  8
7
100
AcDbLine
 10
3.773392837298418
 20
4.229702895555744
 30
0.0
 11
3.769455829424403
 21
4.217891871933698
 31
0.0
  0
LINE
  5
3002
330
1E
100
AcDbEntity
  8
7
100
AcDbLine
 10
3.769455829424403
 20
4.217891871933698
 30
0.0
 11
3.757644805802355
 21
4.213954864059681
 31
0.0
  0
LINE
  5
3003
330
1E
100
AcDbEntity
  8
7
100
AcDbLine
 10
3.779298349109442
 20
4.308443053036059
 30
0.0
 11
3.812762916038575
 21
4.300569037288028
 31
0.0
  0
LINE
  5
3004
330
1E
100
AcDbEntity
  8
7
100
AcDbLine
 10
3.812762916038575
 20
4.300569037288028
 30
0.0
 11
3.840321971156686
 21
4.28088399791795
 31
0.0
  0
LINE
  5
3005
330
1E
100
AcDbEntity
  8
7
100
AcDbLine
 10
3.924967640448025
 20
4.198206832563618
 30
0.0
 11
3.932841656196057
 21
4.176553289256531
 31
0.0
  0
LINE
  5
3006
330
1E
100
AcDbEntity
  8
7
100
AcDbLine
 10
3.932841656196057
 20
4.176553289256531
 30
0.0
 11
3.924967640448025
 21
4.156868249886453
 31
0.0
  0
LINE
  5
3007
330
1E
100
AcDbEntity
  8
7
100
AcDbLine
 10
3.924967640448025
 20
4.156868249886453
 30
0.0
 11
3.905282601077946
 21
4.147025730201415
 31
0.0
  0
LINE
  5
3008
330
1E
100
AcDbEntity
  8
7
100
AcDbLine
 10
3.924967640448025
 20
5.343876123902202
 30
0.0
 11
3.932841656196057
 21
5.324191084532122
 31
0.0
  0
LINE
  5
3009
330
1E
100
AcDbEntity
  8
7
100
AcDbLine
 10
3.932841656196057
 20
5.324191084532122
 30
0.0
 11
3.924967640448025
 21
5.304506045162044
 31
0.0
  0
LINE
  5
300A
330
1E
100
AcDbEntity
  8
7
100
AcDbLine
 10
3.924967640448025
 20
5.304506045162044
 30
0.0
 11
3.905282601077946
 21
5.294663525477005
 31
0.0
  0
LINE
  5
300B
330
1E
100
AcDbEntity
  8
7
100
AcDbLine
 10
3.858038506589757
 20
5.271041478232911
 30
0.0
 11
3.852132994778733
 21
5.257261950673855
 31
0.0
  0
LINE
  5
300C
330
1E
100
AcDbEntity
  8
7
100
AcDbLine
 10
3.852132994778733
 20
5.257261950673855
 30
0.0
 11
3.838353467219679
 21
5.251356438862831
 31
0.0
  0
LINE
  5
300D
330
1E
100
AcDbEntity
  8
7
100
AcDbLine
 10
3.759613309739364
 20
5.458049352248659
 30
0.0
 11
3.759613309739364
 21
5.428521793193541
 31
0.0
  0
LINE
  5
300E
330
1E
100
AcDbEntity
  8
7
100
AcDbLine
 10
3.759613309739364
 20
5.428521793193541
 30
0.0
 11
3.761581813676372
 21
5.424584785319524
 31
0.0
  0
LINE
  5
300F
330
1E
100
AcDbEntity
  8
7
100
AcDbLine
 10
3.761581813676372
 20
5.424584785319524
 30
0.0
 11
3.773392837298418
 21
5.387183210516374
 31
0.0
  0
LINE
  5
3010
330
1E
100
AcDbEntity
  8
7
100
AcDbLine
 10
3.773392837298418
 20
5.387183210516374
 30
0.0
 11
3.773392837298418
 21
5.377340690831335
 31
0.0
  0
LINE
  5
3011
330
1E
100
AcDbEntity
  8
7
100
AcDbLine
 10
3.773392837298418
 20
5.377340690831335
 30
0.0
 11
3.769455829424403
 21
5.365529667209289
 31
0.0
  0
LINE
  5
3012
330
1E
100
AcDbEntity
  8
7
100
AcDbLine
 10
3.779298349109442
 20
5.45608084831165
 30
0.0
 11
3.812762916038575
 21
5.448206832563618
 31
0.0
  0
LINE
  5
3013
330
1E
100
AcDbEntity
  8
7
100
AcDbLine
 10
3.812762916038575
 20
5.448206832563618
 30
0.0
 11
3.840321971156686
 21
5.428521793193541
 31
0.0
  0
LINE
  5
3014
330
1E
100
AcDbEntity
  8
7
100
AcDbLine
 10
3.462369215251175
 20
7.326159588469131
 30
0.0
 11
3.460400711314166
 21
7.355687147524248
 31
0.0
  0
LINE
  5
3015
330
1E
100
AcDbEntity
  8
7
100
AcDbLine
 10
3.460400711314166
 20
7.355687147524248
 30
0.0
 11
3.460400711314166
 21
7.377340690831335
 31
0.0
  0
LINE
  5
3016
330
1E
100
AcDbEntity
  8
7
100
AcDbLine
 10
3.460400711314166
 20
7.377340690831335
 30
0.0
 11
3.462369215251175
 21
7.385214706579366
 31
0.0
  0
LINE
  5
3017
330
1E
100
AcDbEntity
  8
7
100
AcDbLine
 10
3.310794412101568
 20
7.316317068784091
 30
0.0
 11
3.354101498715742
 21
7.351750139650233
 31
0.0
  0
LINE
  5
3018
330
1E
100
AcDbEntity
  8
7
100
AcDbLine
 10
3.354101498715742
 20
7.351750139650233
 30
0.0
 11
3.407251105014953
 21
7.375372186894328
 31
0.0
  0
LINE
  5
3019
330
1E
100
AcDbEntity
  8
7
100
AcDbLine
 10
3.407251105014953
 20
7.375372186894328
 30
0.0
 11
3.462369215251175
 21
7.385214706579366
 31
0.0
  0
LINE
  5
301A
330
1E
100
AcDbEntity
  8
7
100
AcDbLine
 10
3.462369215251175
 20
7.385214706579366
 30
0.0
 11
3.407251105014953
 21
7.375372186894328
 31
0.0
  0
LINE
  5
301B
330
1E
100
AcDbEntity
  8
7
100
AcDbLine
 10
3.407251105014953
 20
7.375372186894328
 30
0.0
 11
3.354101498715742
 21
7.351750139650233
 31
0.0
  0
LINE
  5
301C
330
1E
100
AcDbEntity
  8
7
100
AcDbLine
 10
3.354101498715742
 20
7.351750139650233
 30
0.0
 11
3.310794412101568
 21
7.316317068784091
 31
0.0
  0
LINE
  5
301D
330
1E
100
AcDbEntity
  8
7
100
AcDbLine
 10
3.310794412101568
 20
7.316317068784091
 30
0.0
 11
3.277329845172435
 21
7.269072974295902
 31
0.0
  0
LINE
  5
301E
330
1E
100
AcDbEntity
  8
7
100
AcDbLine
 10
3.277329845172435
 20
7.269072974295902
 30
0.0
 11
3.255676301865348
 21
7.21592336799669
 31
0.0
  0
LINE
  5
301F
330
1E
100
AcDbEntity
  8
7
100
AcDbLine
 10
3.255676301865348
 20
7.21592336799669
 30
0.0
 11
3.249770790054324
 21
7.160805257760468
 31
0.0
  0
LINE
  5
3020
330
1E
100
AcDbEntity
  8
7
100
AcDbLine
 10
3.249770790054324
 20
7.160805257760468
 30
0.0
 11
3.255676301865348
 21
7.21592336799669
 31
0.0
  0
LINE
  5
3021
330
1E
100
AcDbEntity
  8
7
100
AcDbLine
 10
3.255676301865348
 20
7.21592336799669
 30
0.0
 11
3.277329845172435
 21
7.269072974295902
 31
0.0
  0
LINE
  5
3022
330
1E
100
AcDbEntity
  8
7
100
AcDbLine
 10
3.277329845172435
 20
7.269072974295902
 30
0.0
 11
3.310794412101568
 21
7.316317068784091
 31
0.0
  0
LINE
  5
3023
330
1E
100
AcDbEntity
  8
7
100
AcDbLine
 10
3.523392837298418
 20
7.389151714453383
 30
0.0
 11
3.523392837298418
 21
7.381277698705352
 31
0.0
  0
LINE
  5
3024
330
1E
100
AcDbEntity
  8
7
100
AcDbLine
 10
3.523392837298418
 20
7.381277698705352
 30
0.0
 11
3.523392837298418
 21
7.357655651461257
 31
0.0
  0
LINE
  5
3025
330
1E
100
AcDbEntity
  8
7
100
AcDbLine
 10
3.523392837298418
 20
7.357655651461257
 30
0.0
 11
3.523392837298418
 21
7.328128092406139
 31
0.0
  0
LINE
  5
3026
330
1E
100
AcDbEntity
  8
7
100
AcDbLine
 10
3.462369215251175
 20
7.326159588469131
 30
0.0
 11
3.407251105014953
 21
7.3182855727211
 31
0.0
  0
LINE
  5
3027
330
1E
100
AcDbEntity
  8
7
100
AcDbLine
 10
3.407251105014953
 20
7.3182855727211
 30
0.0
 11
3.354101498715742
 21
7.300569037288028
 31
0.0
  0
LINE
  5
3028
330
1E
100
AcDbEntity
  8
7
100
AcDbLine
 10
3.354101498715742
 20
7.300569037288028
 30
0.0
 11
3.310794412101568
 21
7.274978486106926
 31
0.0
  0
LINE
  5
3029
330
1E
100
AcDbEntity
  8
7
100
AcDbLine
 10
3.310794412101568
 20
7.274978486106926
 30
0.0
 11
3.277329845172435
 21
7.239545415240785
 31
0.0
  0
LINE
  5
302A
330
1E
100
AcDbEntity
  8
7
100
AcDbLine
 10
3.277329845172435
 20
7.239545415240785
 30
0.0
 11
3.255676301865348
 21
7.202143840437635
 31
0.0
  0
LINE
  5
302B
330
1E
100
AcDbEntity
  8
7
100
AcDbLine
 10
3.255676301865348
 20
7.202143840437635
 30
0.0
 11
3.249770790054324
 21
7.160805257760468
 31
0.0
  0
LINE
  5
302C
330
1E
100
AcDbEntity
  8
7
100
AcDbLine
 10
3.462369215251175
 20
2.952143840437635
 30
0.0
 11
3.523392837298418
 21
2.948206832563618
 31
0.0
  0
LINE
  5
302D
330
1E
100
AcDbEntity
  8
7
100
AcDbLine
 10
3.523392837298418
 20
2.948206832563618
 30
0.0
 11
3.523392837298418
 21
7.328128092406139
 31
0.0
  0
LINE
  5
302E
330
1E
100
AcDbEntity
  8
7
100
AcDbLine
 10
3.523392837298418
 20
7.328128092406139
 30
0.0
 11
3.462369215251175
 21
7.326159588469131
 31
0.0
  0
LINE
  5
302F
330
1E
100
AcDbEntity
  8
7
100
AcDbLine
 10
3.462369215251175
 20
7.326159588469131
 30
0.0
 11
3.462369215251175
 21
2.952143840437635
 31
0.0
  0
LINE
  5
3030
330
1E
100
AcDbEntity
  8
7
100
AcDbLine
 10
3.523392837298418
 20
2.948206832563618
 30
0.0
 11
3.523392837298418
 21
2.9186792735085
 31
0.0
  0
LINE
  5
3031
330
1E
100
AcDbEntity
  8
7
100
AcDbLine
 10
3.523392837298418
 20
2.9186792735085
 30
0.0
 11
3.523392837298418
 21
2.897025730201415
 31
0.0
  0
LINE
  5
3032
330
1E
100
AcDbEntity
  8
7
100
AcDbLine
 10
3.523392837298418
 20
2.897025730201415
 30
0.0
 11
3.523392837298418
 21
2.889151714453383
 31
0.0
  0
LINE
  5
3033
330
1E
100
AcDbEntity
  8
7
100
AcDbLine
 10
3.462369215251175
 20
2.891120218390391
 30
0.0
 11
3.460400711314166
 21
2.898994234138422
 31
0.0
  0
LINE
  5
3034
330
1E
100
AcDbEntity
  8
7
100
AcDbLine
 10
3.460400711314166
 20
2.898994234138422
 30
0.0
 11
3.460400711314166
 21
2.922616281382516
 31
0.0
  0
LINE
  5
3035
330
1E
100
AcDbEntity
  8
7
100
AcDbLine
 10
3.460400711314166
 20
2.922616281382516
 30
0.0
 11
3.462369215251175
 21
2.952143840437635
 31
0.0
  0
LINE
  5
3036
330
1E
100
AcDbEntity
  8
7
100
AcDbLine
 10
3.249770790054324
 20
3.115529667209289
 30
0.0
 11
3.255676301865348
 21
3.074191084532122
 31
0.0
  0
LINE
  5
3037
330
1E
100
AcDbEntity
  8
7
100
AcDbLine
 10
3.255676301865348
 20
3.074191084532122
 30
0.0
 11
3.277329845172435
 21
3.036789509728974
 31
0.0
  0
LINE
  5
3038
330
1E
100
AcDbEntity
  8
7
100
AcDbLine
 10
3.277329845172435
 20
3.036789509728974
 30
0.0
 11
3.310794412101568
 21
3.003324942799839
 31
0.0
  0
LINE
  5
3039
330
1E
100
AcDbEntity
  8
7
100
AcDbLine
 10
3.310794412101568
 20
3.003324942799839
 30
0.0
 11
3.354101498715742
 21
2.975765887681729
 31
0.0
  0
LINE
  5
303A
330
1E
100
AcDbEntity
  8
7
100
AcDbLine
 10
3.354101498715742
 20
2.975765887681729
 30
0.0
 11
3.407251105014953
 21
2.958049352248659
 31
0.0
  0
LINE
  5
303B
330
1E
100
AcDbEntity
  8
7
100
AcDbLine
 10
3.407251105014953
 20
2.958049352248659
 30
0.0
 11
3.462369215251175
 21
2.952143840437635
 31
0.0
  0
LINE
  5
303C
330
1E
100
AcDbEntity
  8
7
100
AcDbLine
 10
3.310794412101568
 20
2.961986360122674
 30
0.0
 11
3.354101498715742
 21
2.926553289256533
 31
0.0
  0
LINE
  5
303D
330
1E
100
AcDbEntity
  8
7
100
AcDbLine
 10
3.354101498715742
 20
2.926553289256533
 30
0.0
 11
3.407251105014953
 21
2.900962738075429
 31
0.0
  0
LINE
  5
303E
330
1E
100
AcDbEntity
  8
7
100
AcDbLine
 10
3.407251105014953
 20
2.900962738075429
 30
0.0
 11
3.462369215251175
 21
2.891120218390391
 31
0.0
  0
LINE
  5
303F
330
1E
100
AcDbEntity
  8
7
100
AcDbLine
 10
3.462369215251175
 20
2.891120218390391
 30
0.0
 11
3.407251105014953
 21
2.900962738075429
 31
0.0
  0
LINE
  5
3040
330
1E
100
AcDbEntity
  8
7
100
AcDbLine
 10
3.407251105014953
 20
2.900962738075429
 30
0.0
 11
3.354101498715742
 21
2.926553289256533
 31
0.0
  0
LINE
  5
3041
330
1E
100
AcDbEntity
  8
7
100
AcDbLine
 10
3.354101498715742
 20
2.926553289256533
 30
0.0
 11
3.310794412101568
 21
2.961986360122674
 31
0.0
  0
LINE
  5
3042
330
1E
100
AcDbEntity
  8
7
100
AcDbLine
 10
3.310794412101568
 20
2.961986360122674
 30
0.0
 11
3.277329845172435
 21
3.007261950673855
 31
0.0
  0
LINE
  5
3043
330
1E
100
AcDbEntity
  8
7
100
AcDbLine
 10
3.277329845172435
 20
3.007261950673855
 30
0.0
 11
3.255676301865348
 21
3.060411556973068
 31
0.0
  0
LINE
  5
3044
330
1E
100
AcDbEntity
  8
7
100
AcDbLine
 10
3.255676301865348
 20
3.060411556973068
 30
0.0
 11
3.249770790054324
 21
3.115529667209289
 31
0.0
  0
LINE
  5
3045
330
1E
100
AcDbEntity
  8
7
100
AcDbLine
 10
3.249770790054324
 20
3.115529667209289
 30
0.0
 11
3.255676301865348
 21
3.060411556973068
 31
0.0
  0
LINE
  5
3046
330
1E
100
AcDbEntity
  8
7
100
AcDbLine
 10
3.255676301865348
 20
3.060411556973068
 30
0.0
 11
3.277329845172435
 21
3.007261950673855
 31
0.0
  0
LINE
  5
3047
330
1E
100
AcDbEntity
  8
7
100
AcDbLine
 10
3.277329845172435
 20
3.007261950673855
 30
0.0
 11
3.310794412101568
 21
2.961986360122674
 31
0.0
  0
LINE
  5
3048
330
1E
100
AcDbEntity
  8
7
100
AcDbLine
 10
-2.321095351677959
 20
4.926553289256531
 30
0.0
 11
-2.094717398922053
 21
4.926553289256531
 31
0.0
  0
LINE
  5
3049
330
1E
100
AcDbEntity
  8
7
100
AcDbLine
 10
-2.094717398922053
 20
4.926553289256531
 30
0.0
 11
-2.094717398922053
 21
4.889151714453383
 31
0.0
  0
LINE
  5
304A
330
1E
100
AcDbEntity
  8
7
100
AcDbLine
 10
-2.110465430418116
 20
4.229702895555744
 30
0.0
 11
-2.110465430418116
 21
4.217891871933698
 31
0.0
  0
LINE
  5
304B
330
1E
100
AcDbEntity
  8
7
100
AcDbLine
 10
-2.110465430418116
 20
4.217891871933698
 30
0.0
 11
-2.110465430418116
 21
4.213954864059681
 31
0.0
  0
LINE
  5
304C
330
1E
100
AcDbEntity
  8
7
100
AcDbLine
 10
-1.903772517032289
 20
4.213954864059681
 30
0.0
 11
-1.905741020969297
 21
4.217891871933698
 31
0.0
  0
LINE
  5
304D
330
1E
100
AcDbEntity
  8
7
100
AcDbLine
 10
-1.905741020969297
 20
4.217891871933698
 30
0.0
 11
-1.905741020969297
 21
4.229702895555744
 31
0.0
  0
LINE
  5
304E
330
1E
100
AcDbEntity
  8
7
100
AcDbLine
 10
-1.762040233567722
 20
4.267104470358894
 30
0.0
 11
-1.762040233567722
 21
4.202143840437635
 31
0.0
  0
LINE
  5
304F
330
1E
100
AcDbEntity
  8
7
100
AcDbLine
 10
-1.762040233567722
 20
4.202143840437635
 30
0.0
 11
-1.880150469788195
 21
4.202143840437635
 31
0.0
  0
LINE
  5
3050
330
1E
100
AcDbEntity
  8
7
100
AcDbLine
 10
-2.321095351677959
 20
4.926553289256531
 30
0.0
 11
-2.321095351677959
 21
4.267104470358894
 31
0.0
  0
LINE
  5
3051
330
1E
100
AcDbEntity
  8
7
100
AcDbLine
 10
-2.321095351677959
 20
4.267104470358894
 30
0.0
 11
-2.252197713882683
 21
4.267104470358894
 31
0.0
  0
LINE
  5
3052
330
1E
100
AcDbEntity
  8
7
100
AcDbLine
 10
-1.269914249315753
 20
4.310411556973068
 30
0.0
 11
-1.269914249315753
 21
4.28088399791795
 31
0.0
  0
LINE
  5
3053
330
1E
100
AcDbEntity
  8
7
100
AcDbLine
 10
-1.269914249315753
 20
4.28088399791795
 30
0.0
 11
-1.269914249315753
 21
4.276946990043933
 31
0.0
  0
LINE
  5
3054
330
1E
100
AcDbEntity
  8
7
100
AcDbLine
 10
-1.269914249315753
 20
4.276946990043933
 30
0.0
 11
-1.269914249315753
 21
4.239545415240785
 31
0.0
  0
LINE
  5
3055
330
1E
100
AcDbEntity
  8
7
100
AcDbLine
 10
-1.269914249315753
 20
4.239545415240785
 30
0.0
 11
-1.269914249315753
 21
4.229702895555744
 31
0.0
  0
LINE
  5
3056
330
1E
100
AcDbEntity
  8
7
100
AcDbLine
 10
-1.269914249315753
 20
4.229702895555744
 30
0.0
 11
-1.269914249315753
 21
4.217891871933698
 31
0.0
  0
LINE
  5
3057
330
1E
100
AcDbEntity
  8
7
100
AcDbLine
 10
-1.269914249315753
 20
4.217891871933698
 30
0.0
 11
-1.269914249315753
 21
4.213954864059681
 31
0.0
  0
LINE
  5
3058
330
1E
100
AcDbEntity
  8
7
100
AcDbLine
 10
-1.474638658764573
 20
4.239545415240785
 30
0.0
 11
-1.47660716270158
 21
4.276946990043933
 31
0.0
  0
LINE
  5
3059
330
1E
100
AcDbEntity
  8
7
100
AcDbLine
 10
-1.47660716270158
 20
4.276946990043933
 30
0.0
 11
-1.47660716270158
 21
4.28088399791795
 31
0.0
  0
LINE
  5
305A
330
1E
100
AcDbEntity
  8
7
100
AcDbLine
 10
-1.47660716270158
 20
4.213954864059681
 30
0.0
 11
-1.474638658764573
 21
4.217891871933698
 31
0.0
  0
LINE
  5
305B
330
1E
100
AcDbEntity
  8
7
100
AcDbLine
 10
-1.474638658764573
 20
4.217891871933698
 30
0.0
 11
-1.474638658764573
 21
4.229702895555744
 31
0.0
  0
LINE
  5
305C
330
1E
100
AcDbEntity
  8
7
100
AcDbLine
 10
-1.500229209945675
 20
4.202143840437635
 30
0.0
 11
-1.618339446166148
 21
4.202143840437635
 31
0.0
  0
LINE
  5
305D
330
1E
100
AcDbEntity
  8
7
100
AcDbLine
 10
-1.618339446166148
 20
4.202143840437635
 30
0.0
 11
-1.618339446166148
 21
4.200175336500628
 31
0.0
  0
LINE
  5
305E
330
1E
100
AcDbEntity
  8
7
100
AcDbLine
 10
-1.128181965851187
 20
4.267104470358894
 30
0.0
 11
-1.128181965851187
 21
4.202143840437635
 31
0.0
  0
LINE
  5
305F
330
1E
100
AcDbEntity
  8
7
100
AcDbLine
 10
-1.128181965851187
 20
4.202143840437635
 30
0.0
 11
-1.246292202071659
 21
4.202143840437635
 31
0.0
  0
LINE
  5
3060
330
1E
100
AcDbEntity
  8
7
100
AcDbLine
 10
-2.134087477662211
 20
5.349781635713226
 30
0.0
 11
-2.252197713882683
 21
5.349781635713226
 31
0.0
  0
LINE
  5
3061
330
1E
100
AcDbEntity
  8
7
100
AcDbLine
 10
-2.252197713882683
 20
5.349781635713226
 30
0.0
 11
-2.252197713882683
 21
5.414742265634485
 31
0.0
  0
LINE
  5
3062
330
1E
100
AcDbEntity
  8
7
100
AcDbLine
 10
-1.128181965851187
 20
5.414742265634485
 30
0.0
 11
-1.128181965851187
 21
5.349781635713226
 31
0.0
  0
LINE
  5
3063
330
1E
100
AcDbEntity
  8
7
100
AcDbLine
 10
-1.128181965851187
 20
5.349781635713226
 30
0.0
 11
-1.246292202071659
 21
5.349781635713226
 31
0.0
  0
LINE
  5
3064
330
1E
100
AcDbEntity
  8
7
100
AcDbLine
 10
-2.110465430418116
 20
5.377340690831335
 30
0.0
 11
-2.110465430418116
 21
5.365529667209289
 31
0.0
  0
LINE
  5
3065
330
1E
100
AcDbEntity
  8
7
100
AcDbLine
 10
-2.110465430418116
 20
5.365529667209289
 30
0.0
 11
-2.110465430418116
 21
5.361592659335272
 31
0.0
  0
LINE
  5
3066
330
1E
100
AcDbEntity
  8
7
100
AcDbLine
 10
-2.110465430418116
 20
5.361592659335272
 30
0.0
 11
-1.903772517032289
 21
5.361592659335272
 31
0.0
  0
LINE
  5
3067
330
1E
100
AcDbEntity
  8
7
100
AcDbLine
 10
-1.903772517032289
 20
5.361592659335272
 30
0.0
 11
-1.905741020969297
 21
5.365529667209289
 31
0.0
  0
LINE
  5
3068
330
1E
100
AcDbEntity
  8
7
100
AcDbLine
 10
-1.905741020969297
 20
5.365529667209289
 30
0.0
 11
-1.905741020969297
 21
5.377340690831335
 31
0.0
  0
LINE
  5
3069
330
1E
100
AcDbEntity
  8
7
100
AcDbLine
 10
-1.269914249315753
 20
5.377340690831335
 30
0.0
 11
-1.269914249315753
 21
5.365529667209289
 31
0.0
  0
LINE
  5
306A
330
1E
100
AcDbEntity
  8
7
100
AcDbLine
 10
-1.269914249315753
 20
5.365529667209289
 30
0.0
 11
-1.269914249315753
 21
5.361592659335272
 31
0.0
  0
LINE
  5
306B
330
1E
100
AcDbEntity
  8
7
100
AcDbLine
 10
-1.47660716270158
 20
5.361592659335272
 30
0.0
 11
-1.474638658764573
 21
5.365529667209289
 31
0.0
  0
LINE
  5
306C
330
1E
100
AcDbEntity
  8
7
100
AcDbLine
 10
-1.474638658764573
 20
5.365529667209289
 30
0.0
 11
-1.474638658764573
 21
5.377340690831335
 31
0.0
  0
LINE
  5
306D
330
1E
100
AcDbEntity
  8
7
100
AcDbLine
 10
-2.110465430418116
 20
5.424584785319524
 30
0.0
 11
-1.905741020969297
 21
5.424584785319524
 31
0.0
  0
LINE
  5
306E
330
1E
100
AcDbEntity
  8
7
100
AcDbLine
 10
-1.905741020969297
 20
5.424584785319524
 30
0.0
 11
-1.905741020969297
 21
5.428521793193541
 31
0.0
  0
LINE
  5
306F
330
1E
100
AcDbEntity
  8
7
100
AcDbLine
 10
-1.905741020969297
 20
5.458049352248659
 30
0.0
 11
-2.110465430418116
 21
5.458049352248659
 31
0.0
  0
LINE
  5
3070
330
1E
100
AcDbEntity
  8
7
100
AcDbLine
 10
-2.110465430418116
 20
5.458049352248659
 30
0.0
 11
-2.110465430418116
 21
5.428521793193541
 31
0.0
  0
LINE
  5
3071
330
1E
100
AcDbEntity
  8
7
100
AcDbLine
 10
-1.47660716270158
 20
5.458049352248659
 30
0.0
 11
-1.47660716270158
 21
5.428521793193541
 31
0.0
  0
LINE
  5
3072
330
1E
100
AcDbEntity
  8
7
100
AcDbLine
 10
-1.47660716270158
 20
5.428521793193541
 30
0.0
 11
-1.269914249315753
 21
5.428521793193541
 31
0.0
  0
LINE
  5
3073
330
1E
100
AcDbEntity
  8
7
100
AcDbLine
 10
-2.594717398922053
 20
3.704112344374642
 30
0.0
 11
-2.61637094222914
 21
3.694269824689603
 31
0.0
  0
LINE
  5
3074
330
1E
100
AcDbEntity
  8
7
100
AcDbLine
 10
-2.61637094222914
 20
3.694269824689603
 30
0.0
 11
-2.626213461914179
 21
3.672616281382516
 31
0.0
  0
LINE
  5
3075
330
1E
100
AcDbEntity
  8
7
100
AcDbLine
 10
-1.630150469788195
 20
3.347813131776216
 30
0.0
 11
-1.578969367425989
 21
3.357655651461257
 31
0.0
  0
LINE
  5
3076
330
1E
100
AcDbEntity
  8
7
100
AcDbLine
 10
-1.578969367425989
 20
3.357655651461257
 30
0.0
 11
-1.533693776874809
 21
3.383246202642359
 31
0.0
  0
LINE
  5
3077
330
1E
100
AcDbEntity
  8
7
100
AcDbLine
 10
-1.533693776874809
 20
3.383246202642359
 30
0.0
 11
-1.500229209945675
 21
3.422616281382516
 31
0.0
  0
LINE
  5
3078
330
1E
100
AcDbEntity
  8
7
100
AcDbLine
 10
-1.500229209945675
 20
3.422616281382516
 30
0.0
 11
-1.482512674512604
 21
3.471828879807713
 31
0.0
  0
LINE
  5
3079
330
1E
100
AcDbEntity
  8
7
100
AcDbLine
 10
-1.482512674512604
 20
3.471828879807713
 30
0.0
 11
-1.482512674512604
 21
3.523009982169918
 31
0.0
  0
LINE
  5
307A
330
1E
100
AcDbEntity
  8
7
100
AcDbLine
 10
-1.482512674512604
 20
3.523009982169918
 30
0.0
 11
-1.500229209945675
 21
3.572222580595115
 31
0.0
  0
LINE
  5
307B
330
1E
100
AcDbEntity
  8
7
100
AcDbLine
 10
-1.500229209945675
 20
3.572222580595115
 30
0.0
 11
-1.533693776874809
 21
3.611592659335272
 31
0.0
  0
LINE
  5
307C
330
1E
100
AcDbEntity
  8
7
100
AcDbLine
 10
-1.533693776874809
 20
3.611592659335272
 30
0.0
 11
-1.578969367425989
 21
3.637183210516374
 31
0.0
  0
LINE
  5
307D
330
1E
100
AcDbEntity
  8
7
100
AcDbLine
 10
-1.578969367425989
 20
3.637183210516374
 30
0.0
 11
-1.630150469788195
 21
3.647025730201415
 31
0.0
  0
LINE
  5
307E
330
1E
100
AcDbEntity
  8
7
100
AcDbLine
 10
-1.750229209945675
 20
3.647025730201415
 30
0.0
 11
-1.801410312307879
 21
3.637183210516374
 31
0.0
  0
LINE
  5
307F
330
1E
100
AcDbEntity
  8
7
100
AcDbLine
 10
-1.801410312307879
 20
3.637183210516374
 30
0.0
 11
-1.846685902859061
 21
3.611592659335272
 31
0.0
  0
LINE
  5
3080
330
1E
100
AcDbEntity
  8
7
100
AcDbLine
 10
-1.846685902859061
 20
3.611592659335272
 30
0.0
 11
-1.880150469788195
 21
3.572222580595115
 31
0.0
  0
LINE
  5
3081
330
1E
100
AcDbEntity
  8
7
100
AcDbLine
 10
-1.880150469788195
 20
3.572222580595115
 30
0.0
 11
-1.897867005221265
 21
3.523009982169918
 31
0.0
  0
LINE
  5
3082
330
1E
100
AcDbEntity
  8
7
100
AcDbLine
 10
-1.897867005221265
 20
3.523009982169918
 30
0.0
 11
-1.897867005221265
 21
3.471828879807713
 31
0.0
  0
LINE
  5
3083
330
1E
100
AcDbEntity
  8
7
100
AcDbLine
 10
-1.897867005221265
 20
3.471828879807713
 30
0.0
 11
-1.880150469788195
 21
3.422616281382516
 31
0.0
  0
LINE
  5
3084
330
1E
100
AcDbEntity
  8
7
100
AcDbLine
 10
-1.880150469788195
 20
3.422616281382516
 30
0.0
 11
-1.846685902859061
 21
3.383246202642359
 31
0.0
  0
LINE
  5
3085
330
1E
100
AcDbEntity
  8
7
100
AcDbLine
 10
-1.846685902859061
 20
3.383246202642359
 30
0.0
 11
-1.801410312307879
 21
3.357655651461257
 31
0.0
  0
LINE
  5
3086
330
1E
100
AcDbEntity
  8
7
100
AcDbLine
 10
-1.801410312307879
 20
3.357655651461257
 30
0.0
 11
-1.750229209945675
 21
3.347813131776216
 31
0.0
  0
LINE
  5
3087
330
1E
100
AcDbEntity
  8
7
100
AcDbLine
 10
-1.630150469788195
 20
3.422616281382516
 30
0.0
 11
-1.592748894985045
 21
3.432458801067555
 31
0.0
  0
LINE
  5
3088
330
1E
100
AcDbEntity
  8
7
100
AcDbLine
 10
-1.592748894985045
 20
3.432458801067555
 30
0.0
 11
-1.565189839866935
 21
3.460017856185666
 31
0.0
  0
LINE
  5
3089
330
1E
100
AcDbEntity
  8
7
100
AcDbLine
 10
-1.565189839866935
 20
3.460017856185666
 30
0.0
 11
-1.555347320181895
 21
3.497419430988816
 31
0.0
  0
LINE
  5
308A
330
1E
100
AcDbEntity
  8
7
100
AcDbLine
 10
-1.555347320181895
 20
3.497419430988816
 30
0.0
 11
-1.565189839866935
 21
3.534821005791965
 31
0.0
  0
LINE
  5
308B
330
1E
100
AcDbEntity
  8
7
100
AcDbLine
 10
-1.565189839866935
 20
3.534821005791965
 30
0.0
 11
-1.592748894985045
 21
3.562380060910076
 31
0.0
  0
LINE
  5
308C
330
1E
100
AcDbEntity
  8
7
100
AcDbLine
 10
-1.592748894985045
 20
3.562380060910076
 30
0.0
 11
-1.630150469788195
 21
3.572222580595115
 31
0.0
  0
LINE
  5
308D
330
1E
100
AcDbEntity
  8
7
100
AcDbLine
 10
-1.750229209945675
 20
3.572222580595115
 30
0.0
 11
-1.787630784748825
 21
3.562380060910076
 31
0.0
  0
LINE
  5
308E
330
1E
100
AcDbEntity
  8
7
100
AcDbLine
 10
-1.787630784748825
 20
3.562380060910076
 30
0.0
 11
-1.815189839866935
 21
3.534821005791965
 31
0.0
  0
LINE
  5
308F
330
1E
100
AcDbEntity
  8
7
100
AcDbLine
 10
-1.815189839866935
 20
3.534821005791965
 30
0.0
 11
-1.825032359551974
 21
3.497419430988816
 31
0.0
  0
LINE
  5
3090
330
1E
100
AcDbEntity
  8
7
100
AcDbLine
 10
-1.825032359551974
 20
3.497419430988816
 30
0.0
 11
-1.815189839866935
 21
3.460017856185666
 31
0.0
  0
LINE
  5
3091
330
1E
100
AcDbEntity
  8
7
100
AcDbLine
 10
-1.815189839866935
 20
3.460017856185666
 30
0.0
 11
-1.787630784748825
 21
3.432458801067555
 31
0.0
  0
LINE
  5
3092
330
1E
100
AcDbEntity
  8
7
100
AcDbLine
 10
-1.787630784748825
 20
3.432458801067555
 30
0.0
 11
-1.750229209945675
 21
3.422616281382516
 31
0.0
  0
LINE
  5
3093
330
1E
100
AcDbEntity
  8
7
100
AcDbLine
 10
-1.594717398922052
 20
3.562380060910076
 30
0.0
 11
-1.612433934355124
 21
3.570254076658107
 31
0.0
  0
LINE
  5
3094
330
1E
100
AcDbEntity
  8
7
100
AcDbLine
 10
-1.612433934355124
 20
3.570254076658107
 30
0.0
 11
-1.630150469788195
 21
3.572222580595115
 31
0.0
  0
LINE
  5
3095
330
1E
100
AcDbEntity
  8
7
100
AcDbLine
 10
-1.750229209945675
 20
3.572222580595115
 30
0.0
 11
-1.767945745378746
 21
3.570254076658107
 31
0.0
  0
LINE
  5
3096
330
1E
100
AcDbEntity
  8
7
100
AcDbLine
 10
-1.767945745378746
 20
3.570254076658107
 30
0.0
 11
-1.785662280811816
 21
3.562380060910076
 31
0.0
  0
LINE
  5
3097
330
1E
100
AcDbEntity
  8
7
100
AcDbLine
 10
-1.594717398922052
 20
3.564348564847083
 30
0.0
 11
-1.785662280811816
 21
3.564348564847083
 31
0.0
  0
LINE
  5
3098
330
1E
100
AcDbEntity
  8
7
100
AcDbLine
 10
-1.785662280811816
 20
3.564348564847083
 30
0.0
 11
-1.797473304433863
 21
3.558443053036059
 31
0.0
  0
LINE
  5
3099
330
1E
100
AcDbEntity
  8
7
100
AcDbLine
 10
-1.584874879237013
 20
3.438364312878579
 30
0.0
 11
-1.559284328055911
 21
3.475765887681729
 31
0.0
  0
LINE
  5
309A
330
1E
100
AcDbEntity
  8
7
100
AcDbLine
 10
-1.559284328055911
 20
3.475765887681729
 30
0.0
 11
-1.559284328055911
 21
3.519072974295902
 31
0.0
  0
LINE
  5
309B
330
1E
100
AcDbEntity
  8
7
100
AcDbLine
 10
-1.559284328055911
 20
3.519072974295902
 30
0.0
 11
-1.584874879237013
 21
3.556474549099052
 31
0.0
  0
LINE
  5
309C
330
1E
100
AcDbEntity
  8
7
100
AcDbLine
 10
-1.630150469788195
 20
3.422616281382516
 30
0.0
 11
-1.612433934355124
 21
3.424584785319524
 31
0.0
  0
LINE
  5
309D
330
1E
100
AcDbEntity
  8
7
100
AcDbLine
 10
-1.612433934355124
 20
3.424584785319524
 30
0.0
 11
-1.594717398922052
 21
3.432458801067555
 31
0.0
  0
LINE
  5
309E
330
1E
100
AcDbEntity
  8
7
100
AcDbLine
 10
-1.785662280811816
 20
3.432458801067555
 30
0.0
 11
-1.767945745378746
 21
3.424584785319524
 31
0.0
  0
LINE
  5
309F
330
1E
100
AcDbEntity
  8
7
100
AcDbLine
 10
-1.767945745378746
 20
3.424584785319524
 30
0.0
 11
-1.750229209945675
 21
3.422616281382516
 31
0.0
  0
LINE
  5
30A0
330
1E
100
AcDbEntity
  8
7
100
AcDbLine
 10
-1.795504800496856
 20
3.556474549099052
 30
0.0
 11
-1.821095351677958
 21
3.519072974295902
 31
0.0
  0
LINE
  5
30A1
330
1E
100
AcDbEntity
  8
7
100
AcDbLine
 10
-1.821095351677958
 20
3.519072974295902
 30
0.0
 11
-1.821095351677958
 21
3.475765887681729
 31
0.0
  0
LINE
  5
30A2
330
1E
100
AcDbEntity
  8
7
100
AcDbLine
 10
-1.821095351677958
 20
3.475765887681729
 30
0.0
 11
-1.795504800496856
 21
3.438364312878579
 31
0.0
  0
LINE
  5
30A3
330
1E
100
AcDbEntity
  8
7
100
AcDbLine
 10
-0.7856622808118168
 20
6.983639903429761
 30
0.0
 11
-0.7640087375047307
 21
6.975765887681729
 31
0.0
  0
LINE
  5
30A4
330
1E
100
AcDbEntity
  8
7
100
AcDbLine
 10
-0.7640087375047307
 20
6.975765887681729
 30
0.0
 11
-0.7541662178196909
 21
6.954112344374642
 31
0.0
  0
LINE
  5
30A5
330
1E
100
AcDbEntity
  8
7
100
AcDbLine
 10
-0.7541662178196909
 20
6.603718643587241
 30
0.0
 11
-0.7640087375047307
 21
6.582065100280154
 31
0.0
  0
LINE
  5
30A6
330
1E
100
AcDbEntity
  8
7
100
AcDbLine
 10
-0.7640087375047307
 20
6.582065100280154
 30
0.0
 11
-0.7856622808118168
 21
6.574191084532122
 31
0.0
  0
LINE
  5
30A7
330
1E
100
AcDbEntity
  8
7
100
AcDbLine
 10
-0.319126847740951
 20
7.326159588469131
 30
0.0
 11
-0.3270008634889825
 21
7.355687147524248
 31
0.0
  0
LINE
  5
30A8
330
1E
100
AcDbEntity
  8
7
100
AcDbLine
 10
-0.3270008634889825
 20
7.355687147524248
 30
0.0
 11
-0.3486544067960695
 21
7.377340690831335
 31
0.0
  0
LINE
  5
30A9
330
1E
100
AcDbEntity
  8
7
100
AcDbLine
 10
-0.3486544067960695
 20
7.377340690831335
 30
0.0
 11
-0.3781819658511871
 21
7.385214706579366
 31
0.0
  0
LINE
  5
30AA
330
1E
100
AcDbEntity
  8
7
100
AcDbLine
 10
-0.7541662178196909
 20
3.672616281382516
 30
0.0
 11
-0.7640087375047307
 21
3.694269824689603
 31
0.0
  0
LINE
  5
30AB
330
1E
100
AcDbEntity
  8
7
100
AcDbLine
 10
-0.7640087375047307
 20
3.694269824689603
 30
0.0
 11
-0.7856622808118168
 21
3.704112344374642
 31
0.0
  0
LINE
  5
30AC
330
1E
100
AcDbEntity
  8
7
100
AcDbLine
 10
-1.630150469788195
 20
6.704112344374642
 30
0.0
 11
-1.612433934355124
 21
6.70608084831165
 31
0.0
  0
LINE
  5
30AD
330
1E
100
AcDbEntity
  8
7
100
AcDbLine
 10
-1.612433934355124
 20
6.70608084831165
 30
0.0
 11
-1.594717398922052
 21
6.713954864059681
 31
0.0
  0
LINE
  5
30AE
330
1E
100
AcDbEntity
  8
7
100
AcDbLine
 10
-1.594717398922052
 20
6.843876123902202
 30
0.0
 11
-1.612433934355124
 21
6.851750139650233
 31
0.0
  0
LINE
  5
30AF
330
1E
100
AcDbEntity
  8
7
100
AcDbLine
 10
-1.612433934355124
 20
6.851750139650233
 30
0.0
 11
-1.630150469788195
 21
6.853718643587241
 31
0.0
  0
LINE
  5
30B0
330
1E
100
AcDbEntity
  8
7
100
AcDbLine
 10
-1.785662280811816
 20
6.713954864059681
 30
0.0
 11
-1.767945745378746
 21
6.70608084831165
 31
0.0
  0
LINE
  5
30B1
330
1E
100
AcDbEntity
  8
7
100
AcDbLine
 10
-1.767945745378746
 20
6.70608084831165
 30
0.0
 11
-1.750229209945675
 21
6.704112344374642
 31
0.0
  0
LINE
  5
30B2
330
1E
100
AcDbEntity
  8
7
100
AcDbLine
 10
-1.750229209945675
 20
6.853718643587241
 30
0.0
 11
-1.767945745378746
 21
6.851750139650233
 31
0.0
  0
LINE
  5
30B3
330
1E
100
AcDbEntity
  8
7
100
AcDbLine
 10
-1.767945745378746
 20
6.851750139650233
 30
0.0
 11
-1.785662280811816
 21
6.843876123902202
 31
0.0
  0
LINE
  5
30B4
330
1E
100
AcDbEntity
  8
7
100
AcDbLine
 10
-1.565189839866935
 20
6.816317068784091
 30
0.0
 11
-1.592748894985045
 21
6.843876123902202
 31
0.0
  0
LINE
  5
30B5
330
1E
100
AcDbEntity
  8
7
100
AcDbLine
 10
-1.592748894985045
 20
6.843876123902202
 30
0.0
 11
-1.630150469788195
 21
6.853718643587241
 31
0.0
  0
LINE
  5
30B6
330
1E
100
AcDbEntity
  8
7
100
AcDbLine
 10
-1.630150469788195
 20
6.704112344374642
 30
0.0
 11
-1.592748894985045
 21
6.713954864059681
 31
0.0
  0
LINE
  5
30B7
330
1E
100
AcDbEntity
  8
7
100
AcDbLine
 10
-1.592748894985045
 20
6.713954864059681
 30
0.0
 11
-1.565189839866935
 21
6.741513919177792
 31
0.0
  0
LINE
  5
30B8
330
1E
100
AcDbEntity
  8
7
100
AcDbLine
 10
-1.565189839866935
 20
6.741513919177792
 30
0.0
 11
-1.555347320181895
 21
6.778915493980942
 31
0.0
  0
LINE
  5
30B9
330
1E
100
AcDbEntity
  8
7
100
AcDbLine
 10
-1.555347320181895
 20
6.778915493980942
 30
0.0
 11
-1.565189839866935
 21
6.816317068784091
 31
0.0
  0
LINE
  5
30BA
330
1E
100
AcDbEntity
  8
7
100
AcDbLine
 10
-1.787630784748825
 20
6.843876123902202
 30
0.0
 11
-1.815189839866935
 21
6.816317068784091
 31
0.0
  0
LINE
  5
30BB
330
1E
100
AcDbEntity
  8
7
100
AcDbLine
 10
-1.815189839866935
 20
6.816317068784091
 30
0.0
 11
-1.825032359551974
 21
6.778915493980942
 31
0.0
  0
LINE
  5
30BC
330
1E
100
AcDbEntity
  8
7
100
AcDbLine
 10
-1.825032359551974
 20
6.778915493980942
 30
0.0
 11
-1.815189839866935
 21
6.741513919177792
 31
0.0
  0
LINE
  5
30BD
330
1E
100
AcDbEntity
  8
7
100
AcDbLine
 10
-1.815189839866935
 20
6.741513919177792
 30
0.0
 11
-1.787630784748825
 21
6.713954864059681
 31
0.0
  0
LINE
  5
30BE
330
1E
100
AcDbEntity
  8
7
100
AcDbLine
 10
-1.787630784748825
 20
6.713954864059681
 30
0.0
 11
-1.750229209945675
 21
6.704112344374642
 31
0.0
  0
LINE
  5
30BF
330
1E
100
AcDbEntity
  8
7
100
AcDbLine
 10
-1.630150469788195
 20
6.629309194768342
 30
0.0
 11
-1.578969367425989
 21
6.639151714453383
 31
0.0
  0
LINE
  5
30C0
330
1E
100
AcDbEntity
  8
7
100
AcDbLine
 10
-1.578969367425989
 20
6.639151714453383
 30
0.0
 11
-1.533693776874809
 21
6.664742265634485
 31
0.0
  0
LINE
  5
30C1
330
1E
100
AcDbEntity
  8
7
100
AcDbLine
 10
-1.533693776874809
 20
6.664742265634485
 30
0.0
 11
-1.500229209945675
 21
6.704112344374642
 31
0.0
  0
LINE
  5
30C2
330
1E
100
AcDbEntity
  8
7
100
AcDbLine
 10
-1.500229209945675
 20
6.704112344374642
 30
0.0
 11
-1.482512674512604
 21
6.753324942799839
 31
0.0
  0
LINE
  5
30C3
330
1E
100
AcDbEntity
  8
7
100
AcDbLine
 10
-1.482512674512604
 20
6.753324942799839
 30
0.0
 11
-1.482512674512604
 21
6.804506045162044
 31
0.0
  0
LINE
  5
30C4
330
1E
100
AcDbEntity
  8
7
100
AcDbLine
 10
-1.482512674512604
 20
6.804506045162044
 30
0.0
 11
-1.500229209945675
 21
6.853718643587241
 31
0.0
  0
LINE
  5
30C5
330
1E
100
AcDbEntity
  8
7
100
AcDbLine
 10
-1.500229209945675
 20
6.853718643587241
 30
0.0
 11
-1.533693776874809
 21
6.893088722327398
 31
0.0
  0
LINE
  5
30C6
330
1E
100
AcDbEntity
  8
7
100
AcDbLine
 10
-1.533693776874809
 20
6.893088722327398
 30
0.0
 11
-1.578969367425989
 21
6.9186792735085
 31
0.0
  0
LINE
  5
30C7
330
1E
100
AcDbEntity
  8
7
100
AcDbLine
 10
-1.578969367425989
 20
6.9186792735085
 30
0.0
 11
-1.630150469788195
 21
6.928521793193541
 31
0.0
  0
LINE
  5
30C8
330
1E
100
AcDbEntity
  8
7
100
AcDbLine
 10
-1.750229209945675
 20
6.928521793193541
 30
0.0
 11
-1.801410312307879
 21
6.9186792735085
 31
0.0
  0
LINE
  5
30C9
330
1E
100
AcDbEntity
  8
7
100
AcDbLine
 10
-1.801410312307879
 20
6.9186792735085
 30
0.0
 11
-1.846685902859061
 21
6.893088722327398
 31
0.0
  0
LINE
  5
30CA
330
1E
100
AcDbEntity
  8
7
100
AcDbLine
 10
-1.846685902859061
 20
6.893088722327398
 30
0.0
 11
-1.880150469788195
 21
6.853718643587241
 31
0.0
  0
LINE
  5
30CB
330
1E
100
AcDbEntity
  8
7
100
AcDbLine
 10
-1.880150469788195
 20
6.853718643587241
 30
0.0
 11
-1.897867005221265
 21
6.804506045162044
 31
0.0
  0
LINE
  5
30CC
330
1E
100
AcDbEntity
  8
7
100
AcDbLine
 10
-1.897867005221265
 20
6.804506045162044
 30
0.0
 11
-1.897867005221265
 21
6.753324942799839
 31
0.0
  0
LINE
  5
30CD
330
1E
100
AcDbEntity
  8
7
100
AcDbLine
 10
-1.897867005221265
 20
6.753324942799839
 30
0.0
 11
-1.880150469788195
 21
6.704112344374642
 31
0.0
  0
LINE
  5
30CE
330
1E
100
AcDbEntity
  8
7
100
AcDbLine
 10
-1.880150469788195
 20
6.704112344374642
 30
0.0
 11
-1.846685902859061
 21
6.664742265634485
 31
0.0
  0
LINE
  5
30CF
330
1E
100
AcDbEntity
  8
7
100
AcDbLine
 10
-1.846685902859061
 20
6.664742265634485
 30
0.0
 11
-1.801410312307879
 21
6.639151714453383
 31
0.0
  0
LINE
  5
30D0
330
1E
100
AcDbEntity
  8
7
100
AcDbLine
 10
-1.801410312307879
 20
6.639151714453383
 30
0.0
 11
-1.750229209945675
 21
6.629309194768342
 31
0.0
  0
LINE
  5
30D1
330
1E
100
AcDbEntity
  8
7
100
AcDbLine
 10
-2.594717398922053
 20
6.574191084532122
 30
0.0
 11
-2.61637094222914
 21
6.582065100280154
 31
0.0
  0
LINE
  5
30D2
330
1E
100
AcDbEntity
  8
7
100
AcDbLine
 10
-2.61637094222914
 20
6.582065100280154
 30
0.0
 11
-2.626213461914179
 21
6.603718643587241
 31
0.0
  0
LINE
  5
30D3
330
1E
100
AcDbEntity
  8
7
100
AcDbLine
 10
-2.626213461914179
 20
6.603718643587241
 30
0.0
 11
-2.628181965851187
 21
6.603718643587241
 31
0.0
  0
LINE
  5
30D4
330
1E
100
AcDbEntity
  8
7
100
AcDbLine
 10
-2.626213461914179
 20
6.954112344374642
 30
0.0
 11
-2.61637094222914
 21
6.975765887681729
 31
0.0
  0
LINE
  5
30D5
330
1E
100
AcDbEntity
  8
7
100
AcDbLine
 10
-2.61637094222914
 20
6.975765887681729
 30
0.0
 11
-2.594717398922053
 21
6.983639903429761
 31
0.0
  0
LINE
  5
30D6
330
1E
100
AcDbEntity
  8
7
100
AcDbLine
 10
-1.584874879237013
 20
6.719860375870705
 30
0.0
 11
-1.559284328055911
 21
6.757261950673855
 31
0.0
  0
LINE
  5
30D7
330
1E
100
AcDbEntity
  8
7
100
AcDbLine
 10
-1.559284328055911
 20
6.757261950673855
 30
0.0
 11
-1.559284328055911
 21
6.800569037288028
 31
0.0
  0
LINE
  5
30D8
330
1E
100
AcDbEntity
  8
7
100
AcDbLine
 10
-1.559284328055911
 20
6.800569037288028
 30
0.0
 11
-1.584874879237013
 21
6.837970612091178
 31
0.0
  0
LINE
  5
30D9
330
1E
100
AcDbEntity
  8
7
100
AcDbLine
 10
-1.795504800496856
 20
6.837970612091178
 30
0.0
 11
-1.821095351677958
 21
6.800569037288028
 31
0.0
  0
LINE
  5
30DA
330
1E
100
AcDbEntity
  8
7
100
AcDbLine
 10
-1.821095351677958
 20
6.800569037288028
 30
0.0
 11
-1.821095351677958
 21
6.757261950673855
 31
0.0
  0
LINE
  5
30DB
330
1E
100
AcDbEntity
  8
7
100
AcDbLine
 10
-1.821095351677958
 20
6.757261950673855
 30
0.0
 11
-1.795504800496856
 21
6.719860375870705
 31
0.0
  0
LINE
  5
30DC
330
1E
100
AcDbEntity
  8
7
100
AcDbLine
 10
-3.031725272937801
 20
7.377340690831335
 30
0.0
 11
-3.053378816244888
 21
7.355687147524248
 31
0.0
  0
LINE
  5
30DD
330
1E
100
AcDbEntity
  8
7
100
AcDbLine
 10
-3.053378816244888
 20
7.355687147524248
 30
0.0
 11
-3.06125283199292
 21
7.326159588469131
 31
0.0
  0
LINE
  5
30DE
330
1E
100
AcDbEntity
  8
7
100
AcDbLine
 10
-0.8171583438039426
 20
6.983639903429761
 30
0.0
 11
-0.8151898398669352
 21
6.983639903429761
 31
0.0
  0
LINE
  5
30DF
330
1E
100
AcDbEntity
  8
7
100
AcDbLine
 10
-0.8151898398669352
 20
6.983639903429761
 30
0.0
 11
-0.7856622808118168
 21
6.983639903429761
 31
0.0
  0
LINE
  5
30E0
330
1E
100
AcDbEntity
  8
7
100
AcDbLine
 10
-2.563221335929927
 20
6.574191084532122
 30
0.0
 11
-2.565189839866935
 21
6.574191084532122
 31
0.0
  0
LINE
  5
30E1
330
1E
100
AcDbEntity
  8
7
100
AcDbLine
 10
-2.565189839866935
 20
6.574191084532122
 30
0.0
 11
-2.594717398922053
 21
6.574191084532122
 31
0.0
  0
LINE
  5
30E2
330
1E
100
AcDbEntity
  8
7
100
AcDbLine
 10
-2.563221335929927
 20
6.574191084532122
 30
0.0
 11
-0.8171583438039426
 21
6.574191084532122
 31
0.0
  0
LINE
  5
30E3
330
1E
100
AcDbEntity
  8
7
100
AcDbLine
 10
-0.8171583438039426
 20
6.574191084532122
 30
0.0
 11
-0.8171583438039426
 21
6.983639903429761
 31
0.0
  0
LINE
  5
30E4
330
1E
100
AcDbEntity
  8
7
100
AcDbLine
 10
-0.8171583438039426
 20
6.983639903429761
 30
0.0
 11
-2.563221335929927
 21
6.983639903429761
 31
0.0
  0
LINE
  5
30E5
330
1E
100
AcDbEntity
  8
7
100
AcDbLine
 10
-1.630150469788195
 20
6.627340690831335
 30
0.0
 11
-1.578969367425989
 21
6.637183210516374
 31
0.0
  0
LINE
  5
30E6
330
1E
100
AcDbEntity
  8
7
100
AcDbLine
 10
-1.578969367425989
 20
6.637183210516374
 30
0.0
 11
-1.533693776874809
 21
6.662773761697478
 31
0.0
  0
LINE
  5
30E7
330
1E
100
AcDbEntity
  8
7
100
AcDbLine
 10
-1.533693776874809
 20
6.662773761697478
 30
0.0
 11
-1.498260706008667
 21
6.702143840437635
 31
0.0
  0
LINE
  5
30E8
330
1E
100
AcDbEntity
  8
7
100
AcDbLine
 10
-1.498260706008667
 20
6.702143840437635
 30
0.0
 11
-1.480544170575596
 21
6.753324942799839
 31
0.0
  0
LINE
  5
30E9
330
1E
100
AcDbEntity
  8
7
100
AcDbLine
 10
-1.480544170575596
 20
6.753324942799839
 30
0.0
 11
-1.480544170575596
 21
6.804506045162044
 31
0.0
  0
LINE
  5
30EA
330
1E
100
AcDbEntity
  8
7
100
AcDbLine
 10
-1.480544170575596
 20
6.804506045162044
 30
0.0
 11
-1.498260706008667
 21
6.853718643587241
 31
0.0
  0
LINE
  5
30EB
330
1E
100
AcDbEntity
  8
7
100
AcDbLine
 10
-1.498260706008667
 20
6.853718643587241
 30
0.0
 11
-1.533693776874809
 21
6.895057226264405
 31
0.0
  0
LINE
  5
30EC
330
1E
100
AcDbEntity
  8
7
100
AcDbLine
 10
-1.533693776874809
 20
6.895057226264405
 30
0.0
 11
-1.578969367425989
 21
6.920647777445509
 31
0.0
  0
LINE
  5
30ED
330
1E
100
AcDbEntity
  8
7
100
AcDbLine
 10
-1.578969367425989
 20
6.920647777445509
 30
0.0
 11
-1.630150469788195
 21
6.930490297130548
 31
0.0
  0
LINE
  5
30EE
330
1E
100
AcDbEntity
  8
7
100
AcDbLine
 10
-1.750229209945675
 20
6.930490297130548
 30
0.0
 11
-1.801410312307879
 21
6.920647777445509
 31
0.0
  0
LINE
  5
30EF
330
1E
100
AcDbEntity
  8
7
100
AcDbLine
 10
-1.801410312307879
 20
6.920647777445509
 30
0.0
 11
-1.846685902859061
 21
6.895057226264405
 31
0.0
  0
LINE
  5
30F0
330
1E
100
AcDbEntity
  8
7
100
AcDbLine
 10
-1.846685902859061
 20
6.895057226264405
 30
0.0
 11
-1.882118973725202
 21
6.855687147524248
 31
0.0
  0
LINE
  5
30F1
330
1E
100
AcDbEntity
  8
7
100
AcDbLine
 10
-1.882118973725202
 20
6.855687147524248
 30
0.0
 11
-1.899835509158274
 21
6.804506045162044
 31
0.0
  0
LINE
  5
30F2
330
1E
100
AcDbEntity
  8
7
100
AcDbLine
 10
-1.899835509158274
 20
6.804506045162044
 30
0.0
 11
-1.899835509158274
 21
6.753324942799839
 31
0.0
  0
LINE
  5
30F3
330
1E
100
AcDbEntity
  8
7
100
AcDbLine
 10
-1.899835509158274
 20
6.753324942799839
 30
0.0
 11
-1.882118973725202
 21
6.704112344374642
 31
0.0
  0
LINE
  5
30F4
330
1E
100
AcDbEntity
  8
7
100
AcDbLine
 10
-1.882118973725202
 20
6.704112344374642
 30
0.0
 11
-1.846685902859061
 21
6.662773761697478
 31
0.0
  0
LINE
  5
30F5
330
1E
100
AcDbEntity
  8
7
100
AcDbLine
 10
-1.846685902859061
 20
6.662773761697478
 30
0.0
 11
-1.801410312307879
 21
6.637183210516374
 31
0.0
  0
LINE
  5
30F6
330
1E
100
AcDbEntity
  8
7
100
AcDbLine
 10
-1.801410312307879
 20
6.637183210516374
 30
0.0
 11
-1.750229209945675
 21
6.627340690831335
 31
0.0
  0
LINE
  5
30F7
330
1E
100
AcDbEntity
  8
7
100
AcDbLine
 10
-3.002197713882683
 20
7.385214706579366
 30
0.0
 11
-2.994323698134651
 21
7.375372186894328
 31
0.0
  0
LINE
  5
30F8
330
1E
100
AcDbEntity
  8
7
100
AcDbLine
 10
-2.994323698134651
 20
7.375372186894328
 30
0.0
 11
-2.976607162701581
 21
7.351750139650233
 31
0.0
  0
LINE
  5
30F9
330
1E
100
AcDbEntity
  8
7
100
AcDbLine
 10
-2.976607162701581
 20
7.351750139650233
 30
0.0
 11
-2.951016611520479
 21
7.316317068784091
 31
0.0
  0
LINE
  5
30FA
330
1E
100
AcDbEntity
  8
7
100
AcDbLine
 10
-2.951016611520479
 20
7.316317068784091
 30
0.0
 11
-2.917552044591344
 21
7.269072974295902
 31
0.0
  0
LINE
  5
30FB
330
1E
100
AcDbEntity
  8
7
100
AcDbLine
 10
-2.917552044591344
 20
7.269072974295902
 30
0.0
 11
-2.878181965851187
 21
7.21592336799669
 31
0.0
  0
LINE
  5
30FC
330
1E
100
AcDbEntity
  8
7
100
AcDbLine
 10
-2.878181965851187
 20
7.21592336799669
 30
0.0
 11
-2.836843383174022
 21
7.160805257760468
 31
0.0
  0
LINE
  5
30FD
330
1E
100
AcDbEntity
  8
7
100
AcDbLine
 10
-0.4037725170322899
 20
7.351750139650233
 30
0.0
 11
-0.3860559815992186
 21
7.375372186894328
 31
0.0
  0
LINE
  5
30FE
330
1E
100
AcDbEntity
  8
7
100
AcDbLine
 10
-0.3860559815992186
 20
7.375372186894328
 30
0.0
 11
-0.3781819658511871
 21
7.385214706579366
 31
0.0
  0
LINE
  5
30FF
330
1E
100
AcDbEntity
  8
7
100
AcDbLine
 10
-0.5435362965598483
 20
7.160805257760468
 30
0.0
 11
-0.5021977138826835
 21
7.21592336799669
 31
0.0
  0
LINE
  5
3100
330
1E
100
AcDbEntity
  8
7
100
AcDbLine
 10
-0.5021977138826835
 20
7.21592336799669
 30
0.0
 11
-0.462827635142526
 21
7.269072974295902
 31
0.0
  0
LINE
  5
3101
330
1E
100
AcDbEntity
  8
7
100
AcDbLine
 10
-0.462827635142526
 20
7.269072974295902
 30
0.0
 11
-0.4293630682133918
 21
7.316317068784091
 31
0.0
  0
LINE
  5
3102
330
1E
100
AcDbEntity
  8
7
100
AcDbLine
 10
-0.4293630682133918
 20
7.316317068784091
 30
0.0
 11
-0.4037725170322899
 21
7.351750139650233
 31
0.0
  0
LINE
  5
3103
330
1E
100
AcDbEntity
  8
7
100
AcDbLine
 10
-3.002197713882683
 20
7.385214706579366
 30
0.0
 11
-0.3781819658511871
 21
7.385214706579366
 31
0.0
  0
LINE
  5
3104
330
1E
100
AcDbEntity
  8
7
100
AcDbLine
 10
-0.3781819658511871
 20
7.385214706579366
 30
0.0
 11
-0.3762134619141797
 21
7.389151714453383
 31
0.0
  0
LINE
  5
3105
330
1E
100
AcDbEntity
  8
7
100
AcDbLine
 10
-1.846685902859061
 20
3.613561163272279
 30
0.0
 11
-1.882118973725202
 21
3.574191084532122
 31
0.0
  0
LINE
  5
3106
330
1E
100
AcDbEntity
  8
7
100
AcDbLine
 10
-1.882118973725202
 20
3.574191084532122
 30
0.0
 11
-1.899835509158274
 21
3.523009982169918
 31
0.0
  0
LINE
  5
3107
330
1E
100
AcDbEntity
  8
7
100
AcDbLine
 10
-1.899835509158274
 20
3.523009982169918
 30
0.0
 11
-1.899835509158274
 21
3.471828879807713
 31
0.0
  0
LINE
  5
3108
330
1E
100
AcDbEntity
  8
7
100
AcDbLine
 10
-1.899835509158274
 20
3.471828879807713
 30
0.0
 11
-1.882118973725202
 21
3.422616281382516
 31
0.0
  0
LINE
  5
3109
330
1E
100
AcDbEntity
  8
7
100
AcDbLine
 10
-1.882118973725202
 20
3.422616281382516
 30
0.0
 11
-1.846685902859061
 21
3.381277698705352
 31
0.0
  0
LINE
  5
310A
330
1E
100
AcDbEntity
  8
7
100
AcDbLine
 10
-1.846685902859061
 20
3.381277698705352
 30
0.0
 11
-1.801410312307879
 21
3.355687147524248
 31
0.0
  0
LINE
  5
310B
330
1E
100
AcDbEntity
  8
7
100
AcDbLine
 10
-1.801410312307879
 20
3.355687147524248
 30
0.0
 11
-1.750229209945675
 21
3.345844627839209
 31
0.0
  0
LINE
  5
310C
330
1E
100
AcDbEntity
  8
7
100
AcDbLine
 10
-1.750229209945675
 20
3.648994234138422
 30
0.0
 11
-1.801410312307879
 21
3.639151714453383
 31
0.0
  0
LINE
  5
310D
330
1E
100
AcDbEntity
  8
7
100
AcDbLine
 10
-1.801410312307879
 20
3.639151714453383
 30
0.0
 11
-1.846685902859061
 21
3.613561163272279
 31
0.0
  0
LINE
  5
310E
330
1E
100
AcDbEntity
  8
7
100
AcDbLine
 10
-1.498260706008667
 20
3.420647777445509
 30
0.0
 11
-1.480544170575596
 21
3.471828879807713
 31
0.0
  0
LINE
  5
310F
330
1E
100
AcDbEntity
  8
7
100
AcDbLine
 10
-1.480544170575596
 20
3.471828879807713
 30
0.0
 11
-1.480544170575596
 21
3.523009982169918
 31
0.0
  0
LINE
  5
3110
330
1E
100
AcDbEntity
  8
7
100
AcDbLine
 10
-1.480544170575596
 20
3.523009982169918
 30
0.0
 11
-1.498260706008667
 21
3.572222580595115
 31
0.0
  0
LINE
  5
3111
330
1E
100
AcDbEntity
  8
7
100
AcDbLine
 10
-1.498260706008667
 20
3.572222580595115
 30
0.0
 11
-1.533693776874809
 21
3.613561163272279
 31
0.0
  0
LINE
  5
3112
330
1E
100
AcDbEntity
  8
7
100
AcDbLine
 10
-1.533693776874809
 20
3.613561163272279
 30
0.0
 11
-1.578969367425989
 21
3.639151714453383
 31
0.0
  0
LINE
  5
3113
330
1E
100
AcDbEntity
  8
7
100
AcDbLine
 10
-1.578969367425989
 20
3.639151714453383
 30
0.0
 11
-1.630150469788195
 21
3.648994234138422
 31
0.0
  0
LINE
  5
3114
330
1E
100
AcDbEntity
  8
7
100
AcDbLine
 10
-1.630150469788195
 20
3.345844627839209
 30
0.0
 11
-1.578969367425989
 21
3.355687147524248
 31
0.0
  0
LINE
  5
3115
330
1E
100
AcDbEntity
  8
7
100
AcDbLine
 10
-1.578969367425989
 20
3.355687147524248
 30
0.0
 11
-1.533693776874809
 21
3.381277698705352
 31
0.0
  0
LINE
  5
3116
330
1E
100
AcDbEntity
  8
7
100
AcDbLine
 10
-1.533693776874809
 20
3.381277698705352
 30
0.0
 11
-1.498260706008667
 21
3.420647777445509
 31
0.0
  0
LINE
  5
3117
330
1E
100
AcDbEntity
  8
7
100
AcDbLine
 10
-1.762040233567722
 20
4.200175336500628
 30
0.0
 11
-2.25416621781969
 21
4.200175336500628
 31
0.0
  0
LINE
  5
3118
330
1E
100
AcDbEntity
  8
7
100
AcDbLine
 10
-2.25416621781969
 20
4.200175336500628
 30
0.0
 11
-2.25416621781969
 21
4.267104470358894
 31
0.0
  0
LINE
  5
3119
330
1E
100
AcDbEntity
  8
7
100
AcDbLine
 10
-2.25416621781969
 20
4.267104470358894
 30
0.0
 11
-2.321095351677959
 21
4.267104470358894
 31
0.0
  0
LINE
  5
311A
330
1E
100
AcDbEntity
  8
7
100
AcDbLine
 10
-1.762040233567722
 20
5.412773761697478
 30
0.0
 11
-1.762040233567722
 21
5.347813131776216
 31
0.0
  0
LINE
  5
311B
330
1E
100
AcDbEntity
  8
7
100
AcDbLine
 10
-1.762040233567722
 20
5.347813131776216
 30
0.0
 11
-2.25416621781969
 21
5.347813131776216
 31
0.0
  0
LINE
  5
311C
330
1E
100
AcDbEntity
  8
7
100
AcDbLine
 10
-2.25416621781969
 20
5.347813131776216
 30
0.0
 11
-2.25416621781969
 21
5.412773761697478
 31
0.0
  0
LINE
  5
311D
330
1E
100
AcDbEntity
  8
7
100
AcDbLine
 10
-2.25416621781969
 20
5.412773761697478
 30
0.0
 11
-2.321095351677959
 21
5.412773761697478
 31
0.0
  0
LINE
  5
311E
330
1E
100
AcDbEntity
  8
7
100
AcDbLine
 10
-2.596685902859061
 20
6.985608407366768
 30
0.0
 11
-2.618339446166148
 21
6.975765887681729
 31
0.0
  0
LINE
  5
311F
330
1E
100
AcDbEntity
  8
7
100
AcDbLine
 10
-2.618339446166148
 20
6.975765887681729
 30
0.0
 11
-2.628181965851187
 21
6.954112344374642
 31
0.0
  0
LINE
  5
3120
330
1E
100
AcDbEntity
  8
7
100
AcDbLine
 10
-2.628181965851187
 20
6.603718643587241
 30
0.0
 11
-2.618339446166148
 21
6.582065100280154
 31
0.0
  0
LINE
  5
3121
330
1E
100
AcDbEntity
  8
7
100
AcDbLine
 10
-2.618339446166148
 20
6.582065100280154
 30
0.0
 11
-2.596685902859061
 21
6.572222580595115
 31
0.0
  0
LINE
  5
3122
330
1E
100
AcDbEntity
  8
7
100
AcDbLine
 10
-0.7836937768748094
 20
6.572222580595115
 30
0.0
 11
-0.7620402335677224
 21
6.582065100280154
 31
0.0
  0
LINE
  5
3123
330
1E
100
AcDbEntity
  8
7
100
AcDbLine
 10
-0.7620402335677224
 20
6.582065100280154
 30
0.0
 11
-0.7521977138826835
 21
6.603718643587241
 31
0.0
  0
LINE
  5
3124
330
1E
100
AcDbEntity
  8
7
100
AcDbLine
 10
-0.7521977138826835
 20
6.954112344374642
 30
0.0
 11
-0.7620402335677224
 21
6.975765887681729
 31
0.0
  0
LINE
  5
3125
330
1E
100
AcDbEntity
  8
7
100
AcDbLine
 10
-0.7620402335677224
 20
6.975765887681729
 30
0.0
 11
-0.7836937768748094
 21
6.985608407366768
 31
0.0
  0
LINE
  5
3126
330
1E
100
AcDbEntity
  8
7
100
AcDbLine
 10
-2.628181965851187
 20
3.322222580595115
 30
0.0
 11
-2.628181965851187
 21
3.672616281382516
 31
0.0
  0
LINE
  5
3127
330
1E
100
AcDbEntity
  8
7
100
AcDbLine
 10
-2.628181965851187
 20
3.672616281382516
 30
0.0
 11
-2.618339446166148
 21
3.694269824689603
 31
0.0
  0
LINE
  5
3128
330
1E
100
AcDbEntity
  8
7
100
AcDbLine
 10
-2.618339446166148
 20
3.694269824689603
 30
0.0
 11
-2.596685902859061
 21
3.704112344374642
 31
0.0
  0
LINE
  5
3129
330
1E
100
AcDbEntity
  8
7
100
AcDbLine
 10
-2.596685902859061
 20
3.704112344374642
 30
0.0
 11
-0.7836937768748094
 21
3.704112344374642
 31
0.0
  0
LINE
  5
312A
330
1E
100
AcDbEntity
  8
7
100
AcDbLine
 10
-0.7836937768748094
 20
3.704112344374642
 30
0.0
 11
-0.7620402335677224
 21
3.694269824689603
 31
0.0
  0
LINE
  5
312B
330
1E
100
AcDbEntity
  8
7
100
AcDbLine
 10
-0.7620402335677224
 20
3.694269824689603
 30
0.0
 11
-0.7521977138826835
 21
3.672616281382516
 31
0.0
  0
LINE
  5
312C
330
1E
100
AcDbEntity
  8
7
100
AcDbLine
 10
-0.3762134619141797
 20
7.389151714453383
 30
0.0
 11
-0.3447173989220538
 21
7.381277698705352
 31
0.0
  0
LINE
  5
312D
330
1E
100
AcDbEntity
  8
7
100
AcDbLine
 10
-0.3447173989220538
 20
7.381277698705352
 30
0.0
 11
-0.3230638556149667
 21
7.357655651461257
 31
0.0
  0
LINE
  5
312E
330
1E
100
AcDbEntity
  8
7
100
AcDbLine
 10
-0.3230638556149667
 20
7.357655651461257
 30
0.0
 11
-0.3151898398669353
 21
7.328128092406139
 31
0.0
  0
LINE
  5
312F
330
1E
100
AcDbEntity
  8
7
100
AcDbLine
 10
-3.065189839866935
 20
7.328128092406139
 30
0.0
 11
-3.057315824118903
 21
7.357655651461257
 31
0.0
  0
LINE
  5
3130
330
1E
100
AcDbEntity
  8
7
100
AcDbLine
 10
-3.057315824118903
 20
7.357655651461257
 30
0.0
 11
-3.035662280811816
 21
7.381277698705352
 31
0.0
  0
LINE
  5
3131
330
1E
100
AcDbEntity
  8
7
100
AcDbLine
 10
-3.035662280811816
 20
7.381277698705352
 30
0.0
 11
-3.0061347217567
 21
7.389151714453383
 31
0.0
  0
LINE
  5
3132
330
1E
100
AcDbEntity
  8
7
100
AcDbLine
 10
-3.06125283199292
 20
2.952143840437635
 30
0.0
 11
-3.06125283199292
 21
7.326159588469131
 31
0.0
  0
LINE
  5
3133
330
1E
100
AcDbEntity
  8
7
100
AcDbLine
 10
-3.06125283199292
 20
7.326159588469131
 30
0.0
 11
-3.065189839866935
 21
7.328128092406139
 31
0.0
  0
LINE
  5
3134
330
1E
100
AcDbEntity
  8
7
100
AcDbLine
 10
-3.065189839866935
 20
7.328128092406139
 30
0.0
 11
-3.065189839866935
 21
2.948206832563618
 31
0.0
  0
LINE
  5
3135
330
1E
100
AcDbEntity
  8
7
100
AcDbLine
 10
-2.836843383174022
 20
7.160805257760468
 30
0.0
 11
-2.89392999734725
 21
7.202143840437635
 31
0.0
  0
LINE
  5
3136
330
1E
100
AcDbEntity
  8
7
100
AcDbLine
 10
-2.89392999734725
 20
7.202143840437635
 30
0.0
 11
-2.947079603646463
 21
7.239545415240785
 31
0.0
  0
LINE
  5
3137
330
1E
100
AcDbEntity
  8
7
100
AcDbLine
 10
-2.947079603646463
 20
7.239545415240785
 30
0.0
 11
-2.992355194197644
 21
7.274978486106926
 31
0.0
  0
LINE
  5
3138
330
1E
100
AcDbEntity
  8
7
100
AcDbLine
 10
-2.992355194197644
 20
7.274978486106926
 30
0.0
 11
-3.027788265063787
 21
7.300569037288028
 31
0.0
  0
LINE
  5
3139
330
1E
100
AcDbEntity
  8
7
100
AcDbLine
 10
-3.027788265063787
 20
7.300569037288028
 30
0.0
 11
-3.051410312307879
 21
7.3182855727211
 31
0.0
  0
LINE
  5
313A
330
1E
100
AcDbEntity
  8
7
100
AcDbLine
 10
-3.051410312307879
 20
7.3182855727211
 30
0.0
 11
-3.06125283199292
 21
7.326159588469131
 31
0.0
  0
LINE
  5
313B
330
1E
100
AcDbEntity
  8
7
100
AcDbLine
 10
-0.319126847740951
 20
7.326159588469131
 30
0.0
 11
-0.3289693674259899
 21
7.3182855727211
 31
0.0
  0
LINE
  5
313C
330
1E
100
AcDbEntity
  8
7
100
AcDbLine
 10
-0.3289693674259899
 20
7.3182855727211
 30
0.0
 11
-0.3525914146700853
 21
7.300569037288028
 31
0.0
  0
LINE
  5
313D
330
1E
100
AcDbEntity
  8
7
100
AcDbLine
 10
-0.3525914146700853
 20
7.300569037288028
 30
0.0
 11
-0.3880244855362269
 21
7.274978486106926
 31
0.0
  0
LINE
  5
313E
330
1E
100
AcDbEntity
  8
7
100
AcDbLine
 10
-0.3880244855362269
 20
7.274978486106926
 30
0.0
 11
-0.4333000760874075
 21
7.239545415240785
 31
0.0
  0
LINE
  5
313F
330
1E
100
AcDbEntity
  8
7
100
AcDbLine
 10
-0.4333000760874075
 20
7.239545415240785
 30
0.0
 11
-0.4864496823866205
 21
7.202143840437635
 31
0.0
  0
LINE
  5
3140
330
1E
100
AcDbEntity
  8
7
100
AcDbLine
 10
-0.4864496823866205
 20
7.202143840437635
 30
0.0
 11
-0.5435362965598483
 21
7.160805257760468
 31
0.0
  0
LINE
  5
3141
330
1E
100
AcDbEntity
  8
7
100
AcDbLine
 10
-0.3151898398669353
 20
2.948206832563618
 30
0.0
 11
-0.3151898398669353
 21
7.328128092406139
 31
0.0
  0
LINE
  5
3142
330
1E
100
AcDbEntity
  8
7
100
AcDbLine
 10
-0.3151898398669353
 20
7.328128092406139
 30
0.0
 11
-0.319126847740951
 21
7.326159588469131
 31
0.0
  0
LINE
  5
3143
330
1E
100
AcDbEntity
  8
7
100
AcDbLine
 10
-0.319126847740951
 20
7.326159588469131
 30
0.0
 11
-0.319126847740951
 21
2.952143840437635
 31
0.0
  0
LINE
  5
3144
330
1E
100
AcDbEntity
  8
7
100
AcDbLine
 10
-0.7856622808118168
 20
3.292695021539996
 30
0.0
 11
-0.7640087375047307
 21
3.302537541225037
 31
0.0
  0
LINE
  5
3145
330
1E
100
AcDbEntity
  8
7
100
AcDbLine
 10
-0.7640087375047307
 20
3.302537541225037
 30
0.0
 11
-0.7541662178196909
 21
3.324191084532122
 31
0.0
  0
LINE
  5
3146
330
1E
100
AcDbEntity
  8
7
100
AcDbLine
 10
-0.7521977138826835
 20
3.322222580595115
 30
0.0
 11
-0.7620402335677224
 21
3.300569037288028
 31
0.0
  0
LINE
  5
3147
330
1E
100
AcDbEntity
  8
7
100
AcDbLine
 10
-0.7620402335677224
 20
3.300569037288028
 30
0.0
 11
-0.7836937768748094
 21
3.292695021539996
 31
0.0
  0
LINE
  5
3148
330
1E
100
AcDbEntity
  8
7
100
AcDbLine
 10
-0.8171583438039426
 20
3.292695021539996
 30
0.0
 11
-2.563221335929927
 21
3.292695021539996
 31
0.0
  0
LINE
  5
3149
330
1E
100
AcDbEntity
  8
7
100
AcDbLine
 10
-2.563221335929927
 20
3.292695021539996
 30
0.0
 11
-2.565189839866935
 21
3.292695021539996
 31
0.0
  0
LINE
  5
314A
330
1E
100
AcDbEntity
  8
7
100
AcDbLine
 10
-2.596685902859061
 20
3.292695021539996
 30
0.0
 11
-2.618339446166148
 21
3.300569037288028
 31
0.0
  0
LINE
  5
314B
330
1E
100
AcDbEntity
  8
7
100
AcDbLine
 10
-2.618339446166148
 20
3.300569037288028
 30
0.0
 11
-2.628181965851187
 21
3.322222580595115
 31
0.0
  0
LINE
  5
314C
330
1E
100
AcDbEntity
  8
7
100
AcDbLine
 10
-2.626213461914179
 20
3.324191084532122
 30
0.0
 11
-2.61637094222914
 21
3.302537541225037
 31
0.0
  0
LINE
  5
314D
330
1E
100
AcDbEntity
  8
7
100
AcDbLine
 10
-2.61637094222914
 20
3.302537541225037
 30
0.0
 11
-2.594717398922053
 21
3.292695021539996
 31
0.0
  0
LINE
  5
314E
330
1E
100
AcDbEntity
  8
7
100
AcDbLine
 10
-0.3151898398669353
 20
2.948206832563618
 30
0.0
 11
-0.3230638556149667
 21
2.9186792735085
 31
0.0
  0
LINE
  5
314F
330
1E
100
AcDbEntity
  8
7
100
AcDbLine
 10
-0.3230638556149667
 20
2.9186792735085
 30
0.0
 11
-0.3447173989220538
 21
2.897025730201415
 31
0.0
  0
LINE
  5
3150
330
1E
100
AcDbEntity
  8
7
100
AcDbLine
 10
-0.3447173989220538
 20
2.897025730201415
 30
0.0
 11
-0.3762134619141797
 21
2.889151714453383
 31
0.0
  0
LINE
  5
3151
330
1E
100
AcDbEntity
  8
7
100
AcDbLine
 10
-0.3781819658511871
 20
2.891120218390391
 30
0.0
 11
-0.3486544067960695
 21
2.898994234138422
 31
0.0
  0
LINE
  5
3152
330
1E
100
AcDbEntity
  8
7
100
AcDbLine
 10
-0.3486544067960695
 20
2.898994234138422
 30
0.0
 11
-0.3270008634889825
 21
2.922616281382516
 31
0.0
  0
LINE
  5
3153
330
1E
100
AcDbEntity
  8
7
100
AcDbLine
 10
-0.3270008634889825
 20
2.922616281382516
 30
0.0
 11
-0.319126847740951
 21
2.952143840437635
 31
0.0
  0
LINE
  5
3154
330
1E
100
AcDbEntity
  8
7
100
AcDbLine
 10
-0.5435362965598483
 20
3.115529667209289
 30
0.0
 11
-0.4864496823866205
 21
3.074191084532122
 31
0.0
  0
LINE
  5
3155
330
1E
100
AcDbEntity
  8
7
100
AcDbLine
 10
-0.4864496823866205
 20
3.074191084532122
 30
0.0
 11
-0.4333000760874075
 21
3.036789509728974
 31
0.0
  0
LINE
  5
3156
330
1E
100
AcDbEntity
  8
7
100
AcDbLine
 10
-0.4333000760874075
 20
3.036789509728974
 30
0.0
 11
-0.3880244855362269
 21
3.003324942799839
 31
0.0
  0
LINE
  5
3157
330
1E
100
AcDbEntity
  8
7
100
AcDbLine
 10
-0.3880244855362269
 20
3.003324942799839
 30
0.0
 11
-0.3525914146700853
 21
2.975765887681729
 31
0.0
  0
LINE
  5
3158
330
1E
100
AcDbEntity
  8
7
100
AcDbLine
 10
-0.3525914146700853
 20
2.975765887681729
 30
0.0
 11
-0.3289693674259899
 21
2.958049352248659
 31
0.0
  0
LINE
  5
3159
330
1E
100
AcDbEntity
  8
7
100
AcDbLine
 10
-0.3289693674259899
 20
2.958049352248659
 30
0.0
 11
-0.319126847740951
 21
2.952143840437635
 31
0.0
  0
LINE
  5
315A
330
1E
100
AcDbEntity
  8
7
100
AcDbLine
 10
-2.947079603646463
 20
3.036789509728974
 30
0.0
 11
-2.89392999734725
 21
3.074191084532122
 31
0.0
  0
LINE
  5
315B
330
1E
100
AcDbEntity
  8
7
100
AcDbLine
 10
-2.89392999734725
 20
3.074191084532122
 30
0.0
 11
-2.836843383174022
 21
3.115529667209289
 31
0.0
  0
LINE
  5
315C
330
1E
100
AcDbEntity
  8
7
100
AcDbLine
 10
-3.065189839866935
 20
2.948206832563618
 30
0.0
 11
-3.06125283199292
 21
2.952143840437635
 31
0.0
  0
LINE
  5
315D
330
1E
100
AcDbEntity
  8
7
100
AcDbLine
 10
-3.06125283199292
 20
2.952143840437635
 30
0.0
 11
-3.051410312307879
 21
2.958049352248659
 31
0.0
  0
LINE
  5
315E
330
1E
100
AcDbEntity
  8
7
100
AcDbLine
 10
-3.051410312307879
 20
2.958049352248659
 30
0.0
 11
-3.027788265063787
 21
2.975765887681729
 31
0.0
  0
LINE
  5
315F
330
1E
100
AcDbEntity
  8
7
100
AcDbLine
 10
-3.027788265063787
 20
2.975765887681729
 30
0.0
 11
-2.992355194197644
 21
3.003324942799839
 31
0.0
  0
LINE
  5
3160
330
1E
100
AcDbEntity
  8
7
100
AcDbLine
 10
-2.992355194197644
 20
3.003324942799839
 30
0.0
 11
-2.947079603646463
 21
3.036789509728974
 31
0.0
  0
LINE
  5
3161
330
1E
100
AcDbEntity
  8
7
100
AcDbLine
 10
-3.06125283199292
 20
2.952143840437635
 30
0.0
 11
-3.053378816244888
 21
2.922616281382516
 31
0.0
  0
LINE
  5
3162
330
1E
100
AcDbEntity
  8
7
100
AcDbLine
 10
-3.053378816244888
 20
2.922616281382516
 30
0.0
 11
-3.031725272937801
 21
2.898994234138422
 31
0.0
  0
LINE
  5
3163
330
1E
100
AcDbEntity
  8
7
100
AcDbLine
 10
-3.031725272937801
 20
2.898994234138422
 30
0.0
 11
-3.002197713882683
 21
2.891120218390391
 31
0.0
  0
LINE
  5
3164
330
1E
100
AcDbEntity
  8
7
100
AcDbLine
 10
-3.0061347217567
 20
2.889151714453383
 30
0.0
 11
-3.035662280811816
 21
2.897025730201415
 31
0.0
  0
LINE
  5
3165
330
1E
100
AcDbEntity
  8
7
100
AcDbLine
 10
-3.035662280811816
 20
2.897025730201415
 30
0.0
 11
-3.057315824118903
 21
2.9186792735085
 31
0.0
  0
LINE
  5
3166
330
1E
100
AcDbEntity
  8
7
100
AcDbLine
 10
-3.057315824118903
 20
2.9186792735085
 30
0.0
 11
-3.065189839866935
 21
2.948206832563618
 31
0.0
  0
LINE
  5
3167
330
1E
100
AcDbEntity
  8
7
100
AcDbLine
 10
-3.002197713882683
 20
2.891120218390391
 30
0.0
 11
-3.0061347217567
 21
2.889151714453383
 31
0.0
  0
LINE
  5
3168
330
1E
100
AcDbEntity
  8
7
100
AcDbLine
 10
-3.0061347217567
 20
2.889151714453383
 30
0.0
 11
-0.3762134619141797
 21
2.889151714453383
 31
0.0
  0
LINE
  5
3169
330
1E
100
AcDbEntity
  8
7
100
AcDbLine
 10
-0.3762134619141797
 20
2.889151714453383
 30
0.0
 11
-0.3781819658511871
 21
2.891120218390391
 31
0.0
  0
LINE
  5
316A
330
1E
100
AcDbEntity
  8
7
100
AcDbLine
 10
-0.3781819658511871
 20
2.891120218390391
 30
0.0
 11
-0.3860559815992186
 21
2.900962738075429
 31
0.0
  0
LINE
  5
316B
330
1E
100
AcDbEntity
  8
7
100
AcDbLine
 10
-0.3860559815992186
 20
2.900962738075429
 30
0.0
 11
-0.4037725170322899
 21
2.926553289256533
 31
0.0
  0
LINE
  5
316C
330
1E
100
AcDbEntity
  8
7
100
AcDbLine
 10
-0.4037725170322899
 20
2.926553289256533
 30
0.0
 11
-0.4293630682133918
 21
2.961986360122674
 31
0.0
  0
LINE
  5
316D
330
1E
100
AcDbEntity
  8
7
100
AcDbLine
 10
-0.4293630682133918
 20
2.961986360122674
 30
0.0
 11
-0.462827635142526
 21
3.007261950673855
 31
0.0
  0
LINE
  5
316E
330
1E
100
AcDbEntity
  8
7
100
AcDbLine
 10
-0.462827635142526
 20
3.007261950673855
 30
0.0
 11
-0.5021977138826835
 21
3.060411556973068
 31
0.0
  0
LINE
  5
316F
330
1E
100
AcDbEntity
  8
7
100
AcDbLine
 10
-0.5021977138826835
 20
3.060411556973068
 30
0.0
 11
-0.5435362965598483
 21
3.115529667209289
 31
0.0
  0
LINE
  5
3170
330
1E
100
AcDbEntity
  8
7
100
AcDbLine
 10
-2.836843383174022
 20
3.115529667209289
 30
0.0
 11
-2.878181965851187
 21
3.060411556973068
 31
0.0
  0
LINE
  5
3171
330
1E
100
AcDbEntity
  8
7
100
AcDbLine
 10
-2.878181965851187
 20
3.060411556973068
 30
0.0
 11
-2.917552044591344
 21
3.007261950673855
 31
0.0
  0
LINE
  5
3172
330
1E
100
AcDbEntity
  8
7
100
AcDbLine
 10
-2.917552044591344
 20
3.007261950673855
 30
0.0
 11
-2.951016611520479
 21
2.961986360122674
 31
0.0
  0
LINE
  5
3173
330
1E
100
AcDbEntity
  8
7
100
AcDbLine
 10
-2.951016611520479
 20
2.961986360122674
 30
0.0
 11
-2.976607162701581
 21
2.926553289256533
 31
0.0
  0
LINE
  5
3174
330
1E
100
AcDbEntity
  8
7
100
AcDbLine
 10
-2.976607162701581
 20
2.926553289256533
 30
0.0
 11
-2.994323698134651
 21
2.900962738075429
 31
0.0
  0
LINE
  5
3175
330
1E
100
AcDbEntity
  8
7
100
AcDbLine
 10
-2.994323698134651
 20
2.900962738075429
 30
0.0
 11
-3.002197713882683
 21
2.891120218390391
 31
0.0
  0
ENDSEC
  0
SECTION
  2
OBJECTS
  0
DICTIONARY
  5
C
330
0
100
AcDbDictionary
  3
ACAD_GROUP
350
D
  3
ACAD_LAYOUT
350
19
  3
ACAD_MLINESTYLE
350
16
  3
ACAD_PLOTSETTINGS
350
18
1001
ACAD
1000
TREAT_AS_HARD
1070
     0
  0
DICTIONARY
  5
2EDB
330
1E
100
AcDbDictionary
  3
ACAD_LAYOUTSELFREF
350
34D3
1001
ACAD
1000
TREAT_AS_HARD
1070
     1
  0
DICTIONARY
  5
2EDD
330
1A
100
AcDbDictionary
  3
ACAD_LAYOUTSELFREF
350
34D2
1001
ACAD
1000
TREAT_AS_HARD
1070
     1
  0
DICTIONARY
  5
D
102
{ACAD_REACTORS
330
C
102
}
330
C
100
AcDbDictionary
1001
ACAD
1000
TREAT_AS_HARD
1070
     0
  0
DICTIONARY
  5
19
102
{ACAD_REACTORS
330
C
102
}
330
C
100
AcDbDictionary
1001
ACAD
1000
TREAT_AS_HARD
1070
     0
  0
DICTIONARY
  5
16
102
{ACAD_REACTORS
330
C
102
}
330
C
100
AcDbDictionary
  3
STANDARD
350
17
1001
ACAD
1000
TREAT_AS_HARD
1070
     0
  0
DICTIONARY
  5
18
102
{ACAD_REACTORS
330
C
102
}
330
C
100
AcDbDictionary
1001
ACAD
1000
TREAT_AS_HARD
1070
     0
  0
XRECORD
  5
34D3
102
{ACAD_REACTORS
330
2EDB
102
}
330
2EDB
100
AcDbXrecord
340
1E
  0
XRECORD
  5
34D2
102
{ACAD_REACTORS
330
2EDD
102
}
330
2EDD
100
AcDbXrecord
340
1A
  0
MLINESTYLE
  5
17
102
{ACAD_REACTORS
330
16
102
}
330
16
100
AcDbMlineStyle
  2
STANDARD
 70
     0
  3

 62
   256
 51
90.0
 52
90.0
 71
     2
 49
0.5
 62
   256
  6
BYLAYER
 49
-0.5
 62
   256
  6
BYLAYER
  0
ENDSEC
  0
EOF
