  0
SECTION
  2
HEADER
  9
$ACADVER
  1
AC1012
  9
$DWGCODEPAGE
  3
ANSI_1252
  9
$INSBASE
 10
0.0
 20
0.0
 30
0.0
  9
$EXTMIN
 10
0.9096679977486701
 20
3.35330202681164
 30
-0.0000000349181948
  9
$EXTMAX
 10
5.622802754890642
 20
7.504074115892958
 30
0.0000000814935746
  9
$LIMMIN
 10
0.0
 20
0.0
  9
$LIMMAX
 10
12.0
 20
9.0
  9
$ORTHOMODE
 70
     0
  9
$REGENMODE
 70
     1
  9
$FILLMODE
 70
     1
  9
$QTEXTMODE
 70
     0
  9
$MIRRTEXT
 70
     1
  9
$DRAGMODE
 70
     2
  9
$LTSCALE
 40
1.0
  9
$OSMODE
 70
    33
  9
$ATTMODE
 70
     1
  9
$TEXTSIZE
 40
0.2
  9
$TRACEWID
 40
0.05
  9
$TEXTSTYLE
  7
STANDARD
  9
$CLAYER
  8
0
  9
$CELTYPE
  6
BYLAYER
  9
$CECOLOR
 62
   256
  9
$CELTSCALE
 40
1.0
  9
$DELOBJ
 70
     1
  9
$DISPSILH
 70
     0
  9
$DIMSCALE
 40
1.0
  9
$DIMASZ
 40
0.18
  9
$DIMEXO
 40
0.0625
  9
$DIMDLI
 40
0.38
  9
$DIMRND
 40
0.0
  9
$DIMDLE
 40
0.0
  9
$DIMEXE
 40
0.18
  9
$DIMTP
 40
0.0
  9
$DIMTM
 40
0.0
  9
$DIMTXT
 40
0.18
  9
$DIMCEN
 40
0.09
  9
$DIMTSZ
 40
0.0
  9
$DIMTOL
 70
     0
  9
$DIMLIM
 70
     0
  9
$DIMTIH
 70
     1
  9
$DIMTOH
 70
     1
  9
$DIMSE1
 70
     0
  9
$DIMSE2
 70
     0
  9
$DIMTAD
 70
     0
  9
$DIMZIN
 70
     0
  9
$DIMBLK
  1

  9
$DIMASO
 70
     1
  9
$DIMSHO
 70
     1
  9
$DIMPOST
  1

  9
$DIMAPOST
  1

  9
$DIMALT
 70
     0
  9
$DIMALTD
 70
     2
  9
$DIMALTF
 40
25.4
  9
$DIMLFAC
 40
1.0
  9
$DIMTOFL
 70
     0
  9
$DIMTVP
 40
0.0
  9
$DIMTIX
 70
     0
  9
$DIMSOXD
 70
     0
  9
$DIMSAH
 70
     0
  9
$DIMBLK1
  1

  9
$DIMBLK2
  1

  9
$DIMSTYLE
  2
STANDARD
  9
$DIMCLRD
 70
     0
  9
$DIMCLRE
 70
     0
  9
$DIMCLRT
 70
     0
  9
$DIMTFAC
 40
1.0
  9
$DIMGAP
 40
0.09
  9
$DIMJUST
 70
     0
  9
$DIMSD1
 70
     0
  9
$DIMSD2
 70
     0
  9
$DIMTOLJ
 70
     1
  9
$DIMTZIN
 70
     0
  9
$DIMALTZ
 70
     0
  9
$DIMALTTZ
 70
     0
  9
$DIMFIT
 70
     5
  9
$DIMUPT
 70
     0
  9
$DIMUNIT
 70
     2
  9
$DIMDEC
 70
     4
  9
$DIMTDEC
 70
     4
  9
$DIMALTU
 70
     2
  9
$DIMALTTD
 70
     2
  9
$DIMTXSTY
  7
STANDARD
  9
$DIMAUNIT
 70
     0
  9
$LUNITS
 70
     2
  9
$LUPREC
 70
     4
  9
$SKETCHINC
 40
0.1
  9
$FILLETRAD
 40
0.0
  9
$AUNITS
 70
     0
  9
$AUPREC
 70
     0
  9
$MENU
  1
acad
  9
$ELEVATION
 40
0.0
  9
$PELEVATION
 40
0.0
  9
$THICKNESS
 40
0.0
  9
$LIMCHECK
 70
     0
  9
$BLIPMODE
 70
     0
  9
$CHAMFERA
 40
0.0
  9
$CHAMFERB
 40
0.0
  9
$CHAMFERC
 40
0.0
  9
$CHAMFERD
 40
0.0
  9
$SKPOLY
 70
     0
  9
$TDCREATE
 40
2452031.276689814
  9
$TDUPDATE
 40
2452340.326866759
  9
$TDINDWG
 40
0.0007921065
  9
$TDUSRTIMER
 40
0.0007921065
  9
$USRTIMER
 70
     1
  9
$ANGBASE
 50
0.0
  9
$ANGDIR
 70
     0
  9
$PDMODE
 70
     0
  9
$PDSIZE
 40
0.0
  9
$PLINEWID
 40
0.0
  9
$COORDS
 70
     2
  9
$SPLFRAME
 70
     0
  9
$SPLINETYPE
 70
     6
  9
$SPLINESEGS
 70
     8
  9
$ATTDIA
 70
     0
  9
$ATTREQ
 70
     1
  9
$HANDLING
 70
  4097
  9
$HANDSEED
  5
2700
  9
$SURFTAB1
 70
     6
  9
$SURFTAB2
 70
     6
  9
$SURFTYPE
 70
     6
  9
$SURFU
 70
     6
  9
$SURFV
 70
     6
  9
$UCSNAME
  2

  9
$UCSORG
 10
0.0
 20
0.0
 30
0.0
  9
$UCSXDIR
 10
1.0
 20
0.0
 30
0.0
  9
$UCSYDIR
 10
0.0
 20
1.0
 30
0.0
  9
$PUCSNAME
  2

  9
$PUCSORG
 10
0.0
 20
0.0
 30
0.0
  9
$PUCSXDIR
 10
1.0
 20
0.0
 30
0.0
  9
$PUCSYDIR
 10
0.0
 20
1.0
 30
0.0
  9
$USERI1
 70
     0
  9
$USERI2
 70
     0
  9
$USERI3
 70
     0
  9
$USERI4
 70
     0
  9
$USERI5
 70
     0
  9
$USERR1
 40
0.0
  9
$USERR2
 40
0.0
  9
$USERR3
 40
0.0
  9
$USERR4
 40
0.0
  9
$USERR5
 40
0.0
  9
$WORLDVIEW
 70
     1
  9
$SHADEDGE
 70
     3
  9
$SHADEDIF
 70
    70
  9
$TILEMODE
 70
     1
  9
$MAXACTVP
 70
    16
  9
$PINSBASE
 10
0.0
 20
0.0
 30
0.0
  9
$PLIMCHECK
 70
     0
  9
$PEXTMIN
 10
1.000000000000000E+20
 20
1.000000000000000E+20
 30
1.000000000000000E+20
  9
$PEXTMAX
 10
-1.000000000000000E+20
 20
-1.000000000000000E+20
 30
-1.000000000000000E+20
  9
$PLIMMIN
 10
0.0
 20
0.0
  9
$PLIMMAX
 10
12.0
 20
9.0
  9
$UNITMODE
 70
     0
  9
$VISRETAIN
 70
     0
  9
$PLINEGEN
 70
     0
  9
$PSLTSCALE
 70
     1
  9
$TREEDEPTH
 70
  3020
  9
$PICKSTYLE
 70
     1
  9
$CMLSTYLE
  2
STANDARD
  9
$CMLJUST
 70
     0
  9
$CMLSCALE
 40
1.0
  9
$SAVEIMAGES
 70
     1
  0
ENDSEC
  0
SECTION
  2
CLASSES
  0
CLASS
  1
ACDBDICTIONARYWDFLT
  2
AcDbDictionaryWithDefault
  3
AutoCAD 2000
 90
    32768
280
     0
281
     0
  0
CLASS
  1
ACDBPLACEHOLDER
  2
AcDbPlaceHolder
  3
AutoCAD 2000
 90
    32768
280
     0
281
     0
  0
CLASS
  1
LAYOUT
  2
AcDbLayout
  3
AutoCAD 2000
 90
    32768
280
     0
281
     0
  0
CLASS
  1
LONG_TRANSACTION
  2
AcDbLongTransaction
  3
AutoCAD 2000
 90
    32768
280
     0
281
     0
  0
CLASS
  1
LWPOLYLINE
  2
AcDbPolyline
  3
AutoCAD 2000
 90
    32768
280
     0
281
     1
  0
CLASS
  1
HATCH
  2
AcDbHatch
  3
AutoCAD 2000
 90
    32768
280
     0
281
     1
  0
CLASS
  1
XRECORD
  2
AcDbXrecord
  3
AutoCAD 2000
 90
    32768
280
     0
281
     0
  0
ENDSEC
  0
SECTION
  2
TABLES
  0
TABLE
  2
VPORT
  5
8
330
0
100
AcDbSymbolTable
 70
     3
  0
VPORT
  5
26FB
330
8
100
AcDbSymbolTableRecord
100
AcDbViewportTableRecord
  2
*ACTIVE
 70
     0
 10
0.0
 20
0.0
 11
1.0
 21
1.0
 12
3.266235376319655
 22
5.428688071352299
 13
0.0
 23
0.0
 14
1.0
 24
1.0
 15
0.0
 25
0.0
 16
0.0
 26
0.0
 36
1.0
 17
0.0
 27
0.0
 37
0.0
 40
4.183455333877233
 41
1.601839684625492
 42
50.0
 43
0.0
 44
0.0
 50
0.0
 51
0.0
 71
     0
 72
   100
 73
     1
 74
     1
 75
     0
 76
     0
 77
     0
 78
     0
  0
ENDTAB
  0
TABLE
  2
LTYPE
  5
5
330
0
100
AcDbSymbolTable
 70
    25
  0
LTYPE
  5
13
330
5
100
AcDbSymbolTableRecord
100
AcDbLinetypeTableRecord
  2
BYBLOCK
 70
     0
  3

 72
    65
 73
     0
 40
0.0
  0
LTYPE
  5
14
330
5
100
AcDbSymbolTableRecord
100
AcDbLinetypeTableRecord
  2
BYLAYER
 70
     0
  3

 72
    65
 73
     0
 40
0.0
  0
LTYPE
  5
15
330
5
100
AcDbSymbolTableRecord
100
AcDbLinetypeTableRecord
  2
CONTINUOUS
 70
     0
  3
Solid line
 72
    65
 73
     0
 40
0.0
  0
LTYPE
  5
22
330
5
100
AcDbSymbolTableRecord
100
AcDbLinetypeTableRecord
  2
BORDER
 70
     0
  3
__ __ . __ __ . __ __ . __ __ . __ __ . __ __ .
 72
    65
 73
     6
 40
1.75
 49
0.5
 74
     0
 49
-0.25
 74
     0
 49
0.5
 74
     0
 49
-0.25
 74
     0
 49
0.5
 74
     0
 49
-0.25
 74
     0
  0
LTYPE
  5
23
330
5
100
AcDbSymbolTableRecord
100
AcDbLinetypeTableRecord
  2
BORDER2
 70
     0
  3
__.__.__.__.__.__.__.__.__.__.__.__.__.__.__.__
 72
    65
 73
     6
 40
0.875
 49
0.25
 74
     0
 49
-0.125
 74
     0
 49
0.25
 74
     0
 49
-0.125
 74
     0
 49
0.25
 74
     0
 49
-0.125
 74
     0
  0
LTYPE
  5
24
330
5
100
AcDbSymbolTableRecord
100
AcDbLinetypeTableRecord
  2
BORDERX2
 70
     0
  3
____  ____  .  ____  ____  .  
 72
    65
 73
     6
 40
3.5
 49
1.0
 74
     0
 49
-0.5
 74
     0
 49
1.0
 74
     0
 49
-0.5
 74
     0
 49
1.0
 74
     0
 49
-0.5
 74
     0
  0
LTYPE
  5
25
330
5
100
AcDbSymbolTableRecord
100
AcDbLinetypeTableRecord
  2
CENTER
 70
     0
  3
____ _ ____ _ ____ _ ____ _ ____ _ ____ _ ____
 72
    65
 73
     4
 40
2.0
 49
1.25
 74
     0
 49
-0.25
 74
     0
 49
0.25
 74
     0
 49
-0.25
 74
     0
  0
LTYPE
  5
26
330
5
100
AcDbSymbolTableRecord
100
AcDbLinetypeTableRecord
  2
CENTER2
 70
     0
  3
____ _ ____ _ ____ _ ____ _ ____ _ ____ _ ____
 72
    65
 73
     4
 40
1.125
 49
0.75
 74
     0
 49
-0.125
 74
     0
 49
0.125
 74
     0
 49
-0.125
 74
     0
  0
LTYPE
  5
27
330
5
100
AcDbSymbolTableRecord
100
AcDbLinetypeTableRecord
  2
CENTERX2
 70
     0
  3
________  __  ________  __  ________  __  
 72
    65
 73
     4
 40
4.0
 49
2.5
 74
     0
 49
-0.5
 74
     0
 49
0.5
 74
     0
 49
-0.5
 74
     0
  0
LTYPE
  5
28
330
5
100
AcDbSymbolTableRecord
100
AcDbLinetypeTableRecord
  2
DASHDOT
 70
     0
  3
__ . __ . __ . __ . __ . __ . __ . 
 72
    65
 73
     4
 40
1.0
 49
0.5
 74
     0
 49
-0.25
 74
     0
 49
0.0
 74
     0
 49
-0.25
 74
     0
  0
LTYPE
  5
29
330
5
100
AcDbSymbolTableRecord
100
AcDbLinetypeTableRecord
  2
DASHDOT2
 70
     0
  3
_._._._._._._._._._._._._._._._.
 72
    65
 73
     4
 40
0.5
 49
0.25
 74
     0
 49
-0.125
 74
     0
 49
0.0
 74
     0
 49
-0.125
 74
     0
  0
LTYPE
  5
2A
330
5
100
AcDbSymbolTableRecord
100
AcDbLinetypeTableRecord
  2
DASHDOTX2
 70
     0
  3
____  .  ____  .  ____  .  ____  .  
 72
    65
 73
     4
 40
2.0
 49
1.0
 74
     0
 49
-0.5
 74
     0
 49
0.0
 74
     0
 49
-0.5
 74
     0
  0
LTYPE
  5
2B
330
5
100
AcDbSymbolTableRecord
100
AcDbLinetypeTableRecord
  2
DASHED
 70
     0
  3
__ __ __ __ __ __ __ __ __ __ __ __ 
 72
    65
 73
     2
 40
0.75
 49
0.5
 74
     0
 49
-0.25
 74
     0
  0
LTYPE
  5
2C
330
5
100
AcDbSymbolTableRecord
100
AcDbLinetypeTableRecord
  2
DASHED2
 70
     0
  3
_ _ _ _ _ _ _ _ _ _ _ _ _ _ _ _ _ _ 
 72
    65
 73
     2
 40
0.375
 49
0.25
 74
     0
 49
-0.125
 74
     0
  0
LTYPE
  5
2D
330
5
100
AcDbSymbolTableRecord
100
AcDbLinetypeTableRecord
  2
DASHEDX2
 70
     0
  3
____  ____  ____  ____  ____  ____  
 72
    65
 73
     2
 40
1.5
 49
1.0
 74
     0
 49
-0.5
 74
     0
  0
LTYPE
  5
2E
330
5
100
AcDbSymbolTableRecord
100
AcDbLinetypeTableRecord
  2
DIVIDE
 70
     0
  3
____ . . ____ . . ____ . . ____ . . 
 72
    65
 73
     6
 40
1.25
 49
0.5
 74
     0
 49
-0.25
 74
     0
 49
0.0
 74
     0
 49
-0.25
 74
     0
 49
0.0
 74
     0
 49
-0.25
 74
     0
  0
LTYPE
  5
2F
330
5
100
AcDbSymbolTableRecord
100
AcDbLinetypeTableRecord
  2
DIVIDE2
 70
     0
  3
__..__..__..__..__..__..__..__..__..
 72
    65
 73
     6
 40
0.625
 49
0.25
 74
     0
 49
-0.125
 74
     0
 49
0.0
 74
     0
 49
-0.125
 74
     0
 49
0.0
 74
     0
 49
-0.125
 74
     0
  0
LTYPE
  5
30
330
5
100
AcDbSymbolTableRecord
100
AcDbLinetypeTableRecord
  2
DIVIDEX2
 70
     0
  3
________  .  .  ________  .  .  ________  .  . 
 72
    65
 73
     6
 40
2.5
 49
1.0
 74
     0
 49
-0.5
 74
     0
 49
0.0
 74
     0
 49
-0.5
 74
     0
 49
0.0
 74
     0
 49
-0.5
 74
     0
  0
LTYPE
  5
31
330
5
100
AcDbSymbolTableRecord
100
AcDbLinetypeTableRecord
  2
DOT
 70
     0
  3
. . . . . . . . . . . . . . . . . . 
 72
    65
 73
     2
 40
0.25
 49
0.0
 74
     0
 49
-0.25
 74
     0
  0
LTYPE
  5
32
330
5
100
AcDbSymbolTableRecord
100
AcDbLinetypeTableRecord
  2
DOT2
 70
     0
  3
....................................
 72
    65
 73
     2
 40
0.125
 49
0.0
 74
     0
 49
-0.125
 74
     0
  0
LTYPE
  5
33
330
5
100
AcDbSymbolTableRecord
100
AcDbLinetypeTableRecord
  2
DOTX2
 70
     0
  3
.  .  .  .  .  .  .  .  .  .  .  .  .  
 72
    65
 73
     2
 40
0.5
 49
0.0
 74
     0
 49
-0.5
 74
     0
  0
LTYPE
  5
34
330
5
100
AcDbSymbolTableRecord
100
AcDbLinetypeTableRecord
  2
HIDDEN
 70
     0
  3
__ __ __ __ __ __ __ __ __ __ __ __ 
 72
    65
 73
     2
 40
0.375
 49
0.25
 74
     0
 49
-0.125
 74
     0
  0
LTYPE
  5
35
330
5
100
AcDbSymbolTableRecord
100
AcDbLinetypeTableRecord
  2
HIDDEN2
 70
     0
  3
_ _ _ _ _ _ _ _ _ _ _ _ _ _ _ _ _ _ 
 72
    65
 73
     2
 40
0.1875
 49
0.125
 74
     0
 49
-0.0625
 74
     0
  0
LTYPE
  5
36
330
5
100
AcDbSymbolTableRecord
100
AcDbLinetypeTableRecord
  2
HIDDENX2
 70
     0
  3
____ ____ ____ ____ ____ ____ ____ 
 72
    65
 73
     2
 40
0.75
 49
0.5
 74
     0
 49
-0.25
 74
     0
  0
LTYPE
  5
37
330
5
100
AcDbSymbolTableRecord
100
AcDbLinetypeTableRecord
  2
PHANTOM
 70
     0
  3
______  __  __  ______  __  __  
 72
    65
 73
     6
 40
2.5
 49
1.25
 74
     0
 49
-0.25
 74
     0
 49
0.25
 74
     0
 49
-0.25
 74
     0
 49
0.25
 74
     0
 49
-0.25
 74
     0
  0
LTYPE
  5
38
330
5
100
AcDbSymbolTableRecord
100
AcDbLinetypeTableRecord
  2
PHANTOM2
 70
     0
  3
___ _ _ ___ _ _ ___ _ _ ___ _ _ 
 72
    65
 73
     6
 40
1.25
 49
0.625
 74
     0
 49
-0.125
 74
     0
 49
0.125
 74
     0
 49
-0.125
 74
     0
 49
0.125
 74
     0
 49
-0.125
 74
     0
  0
LTYPE
  5
39
330
5
100
AcDbSymbolTableRecord
100
AcDbLinetypeTableRecord
  2
PHANTOMX2
 70
     0
  3
___ _ _ ___ _ _ ___ _ _ ___ _ _ 
 72
    65
 73
     6
 40
5.0
 49
2.5
 74
     0
 49
-0.5
 74
     0
 49
0.5
 74
     0
 49
-0.5
 74
     0
 49
0.5
 74
     0
 49
-0.5
 74
     0
  0
ENDTAB
  0
TABLE
  2
LAYER
  5
2
330
0
100
AcDbSymbolTable
 70
   256
  0
LAYER
  5
10
330
2
100
AcDbSymbolTableRecord
100
AcDbLayerTableRecord
  2
0
 70
     0
 62
     7
  6
CONTINUOUS
  0
LAYER
  5
3A
330
2
100
AcDbSymbolTableRecord
100
AcDbLayerTableRecord
  2
1
 70
     0
 62
     1
  6
CONTINUOUS
  0
LAYER
  5
3B
330
2
100
AcDbSymbolTableRecord
100
AcDbLayerTableRecord
  2
2
 70
     0
 62
     2
  6
CONTINUOUS
  0
LAYER
  5
3C
330
2
100
AcDbSymbolTableRecord
100
AcDbLayerTableRecord
  2
3
 70
     0
 62
     3
  6
CONTINUOUS
  0
LAYER
  5
3D
330
2
100
AcDbSymbolTableRecord
100
AcDbLayerTableRecord
  2
4
 70
     0
 62
     4
  6
CONTINUOUS
  0
LAYER
  5
3E
330
2
100
AcDbSymbolTableRecord
100
AcDbLayerTableRecord
  2
5
 70
     0
 62
     5
  6
CONTINUOUS
  0
LAYER
  5
3F
330
2
100
AcDbSymbolTableRecord
100
AcDbLayerTableRecord
  2
6
 70
     0
 62
     6
  6
CONTINUOUS
  0
LAYER
  5
40
330
2
100
AcDbSymbolTableRecord
100
AcDbLayerTableRecord
  2
7
 70
     0
 62
     7
  6
CONTINUOUS
  0
LAYER
  5
41
330
2
100
AcDbSymbolTableRecord
100
AcDbLayerTableRecord
  2
8
 70
     0
 62
     8
  6
CONTINUOUS
  0
LAYER
  5
42
330
2
100
AcDbSymbolTableRecord
100
AcDbLayerTableRecord
  2
9
 70
     0
 62
     9
  6
CONTINUOUS
  0
LAYER
  5
43
330
2
100
AcDbSymbolTableRecord
100
AcDbLayerTableRecord
  2
10
 70
     0
 62
    10
  6
CONTINUOUS
  0
LAYER
  5
44
330
2
100
AcDbSymbolTableRecord
100
AcDbLayerTableRecord
  2
11
 70
     0
 62
    11
  6
CONTINUOUS
  0
LAYER
  5
45
330
2
100
AcDbSymbolTableRecord
100
AcDbLayerTableRecord
  2
12
 70
     0
 62
    12
  6
CONTINUOUS
  0
LAYER
  5
46
330
2
100
AcDbSymbolTableRecord
100
AcDbLayerTableRecord
  2
13
 70
     0
 62
    13
  6
CONTINUOUS
  0
LAYER
  5
47
330
2
100
AcDbSymbolTableRecord
100
AcDbLayerTableRecord
  2
14
 70
     0
 62
    14
  6
CONTINUOUS
  0
LAYER
  5
48
330
2
100
AcDbSymbolTableRecord
100
AcDbLayerTableRecord
  2
15
 70
     0
 62
    15
  6
CONTINUOUS
  0
LAYER
  5
49
330
2
100
AcDbSymbolTableRecord
100
AcDbLayerTableRecord
  2
16
 70
     0
 62
    16
  6
CONTINUOUS
  0
LAYER
  5
4A
330
2
100
AcDbSymbolTableRecord
100
AcDbLayerTableRecord
  2
17
 70
     0
 62
    17
  6
CONTINUOUS
  0
LAYER
  5
4B
330
2
100
AcDbSymbolTableRecord
100
AcDbLayerTableRecord
  2
18
 70
     0
 62
    18
  6
CONTINUOUS
  0
LAYER
  5
4C
330
2
100
AcDbSymbolTableRecord
100
AcDbLayerTableRecord
  2
19
 70
     0
 62
    19
  6
CONTINUOUS
  0
LAYER
  5
4D
330
2
100
AcDbSymbolTableRecord
100
AcDbLayerTableRecord
  2
20
 70
     0
 62
    20
  6
CONTINUOUS
  0
LAYER
  5
4E
330
2
100
AcDbSymbolTableRecord
100
AcDbLayerTableRecord
  2
21
 70
     0
 62
    21
  6
CONTINUOUS
  0
LAYER
  5
4F
330
2
100
AcDbSymbolTableRecord
100
AcDbLayerTableRecord
  2
22
 70
     0
 62
    22
  6
CONTINUOUS
  0
LAYER
  5
50
330
2
100
AcDbSymbolTableRecord
100
AcDbLayerTableRecord
  2
23
 70
     0
 62
    23
  6
CONTINUOUS
  0
LAYER
  5
51
330
2
100
AcDbSymbolTableRecord
100
AcDbLayerTableRecord
  2
24
 70
     0
 62
    24
  6
CONTINUOUS
  0
LAYER
  5
52
330
2
100
AcDbSymbolTableRecord
100
AcDbLayerTableRecord
  2
25
 70
     0
 62
    25
  6
CONTINUOUS
  0
LAYER
  5
53
330
2
100
AcDbSymbolTableRecord
100
AcDbLayerTableRecord
  2
26
 70
     0
 62
    26
  6
CONTINUOUS
  0
LAYER
  5
54
330
2
100
AcDbSymbolTableRecord
100
AcDbLayerTableRecord
  2
27
 70
     0
 62
    27
  6
CONTINUOUS
  0
LAYER
  5
55
330
2
100
AcDbSymbolTableRecord
100
AcDbLayerTableRecord
  2
28
 70
     0
 62
    28
  6
CONTINUOUS
  0
LAYER
  5
56
330
2
100
AcDbSymbolTableRecord
100
AcDbLayerTableRecord
  2
29
 70
     0
 62
    29
  6
CONTINUOUS
  0
LAYER
  5
57
330
2
100
AcDbSymbolTableRecord
100
AcDbLayerTableRecord
  2
30
 70
     0
 62
    30
  6
CONTINUOUS
  0
LAYER
  5
58
330
2
100
AcDbSymbolTableRecord
100
AcDbLayerTableRecord
  2
31
 70
     0
 62
    31
  6
CONTINUOUS
  0
LAYER
  5
59
330
2
100
AcDbSymbolTableRecord
100
AcDbLayerTableRecord
  2
32
 70
     0
 62
    32
  6
CONTINUOUS
  0
LAYER
  5
5A
330
2
100
AcDbSymbolTableRecord
100
AcDbLayerTableRecord
  2
33
 70
     0
 62
    33
  6
CONTINUOUS
  0
LAYER
  5
5B
330
2
100
AcDbSymbolTableRecord
100
AcDbLayerTableRecord
  2
34
 70
     0
 62
    34
  6
CONTINUOUS
  0
LAYER
  5
5C
330
2
100
AcDbSymbolTableRecord
100
AcDbLayerTableRecord
  2
35
 70
     0
 62
    35
  6
CONTINUOUS
  0
LAYER
  5
5D
330
2
100
AcDbSymbolTableRecord
100
AcDbLayerTableRecord
  2
36
 70
     0
 62
    36
  6
CONTINUOUS
  0
LAYER
  5
5E
330
2
100
AcDbSymbolTableRecord
100
AcDbLayerTableRecord
  2
37
 70
     0
 62
    37
  6
CONTINUOUS
  0
LAYER
  5
5F
330
2
100
AcDbSymbolTableRecord
100
AcDbLayerTableRecord
  2
38
 70
     0
 62
    38
  6
CONTINUOUS
  0
LAYER
  5
60
330
2
100
AcDbSymbolTableRecord
100
AcDbLayerTableRecord
  2
39
 70
     0
 62
    39
  6
CONTINUOUS
  0
LAYER
  5
61
330
2
100
AcDbSymbolTableRecord
100
AcDbLayerTableRecord
  2
40
 70
     0
 62
    40
  6
CONTINUOUS
  0
LAYER
  5
62
330
2
100
AcDbSymbolTableRecord
100
AcDbLayerTableRecord
  2
41
 70
     0
 62
    41
  6
CONTINUOUS
  0
LAYER
  5
63
330
2
100
AcDbSymbolTableRecord
100
AcDbLayerTableRecord
  2
42
 70
     0
 62
    42
  6
CONTINUOUS
  0
LAYER
  5
64
330
2
100
AcDbSymbolTableRecord
100
AcDbLayerTableRecord
  2
43
 70
     0
 62
    43
  6
CONTINUOUS
  0
LAYER
  5
65
330
2
100
AcDbSymbolTableRecord
100
AcDbLayerTableRecord
  2
44
 70
     0
 62
    44
  6
CONTINUOUS
  0
LAYER
  5
66
330
2
100
AcDbSymbolTableRecord
100
AcDbLayerTableRecord
  2
45
 70
     0
 62
    45
  6
CONTINUOUS
  0
LAYER
  5
67
330
2
100
AcDbSymbolTableRecord
100
AcDbLayerTableRecord
  2
46
 70
     0
 62
    46
  6
CONTINUOUS
  0
LAYER
  5
68
330
2
100
AcDbSymbolTableRecord
100
AcDbLayerTableRecord
  2
47
 70
     0
 62
    47
  6
CONTINUOUS
  0
LAYER
  5
69
330
2
100
AcDbSymbolTableRecord
100
AcDbLayerTableRecord
  2
48
 70
     0
 62
    48
  6
CONTINUOUS
  0
LAYER
  5
6A
330
2
100
AcDbSymbolTableRecord
100
AcDbLayerTableRecord
  2
49
 70
     0
 62
    49
  6
CONTINUOUS
  0
LAYER
  5
6B
330
2
100
AcDbSymbolTableRecord
100
AcDbLayerTableRecord
  2
50
 70
     0
 62
    50
  6
CONTINUOUS
  0
LAYER
  5
6C
330
2
100
AcDbSymbolTableRecord
100
AcDbLayerTableRecord
  2
51
 70
     0
 62
    51
  6
CONTINUOUS
  0
LAYER
  5
6D
330
2
100
AcDbSymbolTableRecord
100
AcDbLayerTableRecord
  2
52
 70
     0
 62
    52
  6
CONTINUOUS
  0
LAYER
  5
6E
330
2
100
AcDbSymbolTableRecord
100
AcDbLayerTableRecord
  2
53
 70
     0
 62
    53
  6
CONTINUOUS
  0
LAYER
  5
6F
330
2
100
AcDbSymbolTableRecord
100
AcDbLayerTableRecord
  2
54
 70
     0
 62
    54
  6
CONTINUOUS
  0
LAYER
  5
70
330
2
100
AcDbSymbolTableRecord
100
AcDbLayerTableRecord
  2
55
 70
     0
 62
    55
  6
CONTINUOUS
  0
LAYER
  5
71
330
2
100
AcDbSymbolTableRecord
100
AcDbLayerTableRecord
  2
56
 70
     0
 62
    56
  6
CONTINUOUS
  0
LAYER
  5
72
330
2
100
AcDbSymbolTableRecord
100
AcDbLayerTableRecord
  2
57
 70
     0
 62
    57
  6
CONTINUOUS
  0
LAYER
  5
73
330
2
100
AcDbSymbolTableRecord
100
AcDbLayerTableRecord
  2
58
 70
     0
 62
    58
  6
CONTINUOUS
  0
LAYER
  5
74
330
2
100
AcDbSymbolTableRecord
100
AcDbLayerTableRecord
  2
59
 70
     0
 62
    59
  6
CONTINUOUS
  0
LAYER
  5
75
330
2
100
AcDbSymbolTableRecord
100
AcDbLayerTableRecord
  2
60
 70
     0
 62
    60
  6
CONTINUOUS
  0
LAYER
  5
76
330
2
100
AcDbSymbolTableRecord
100
AcDbLayerTableRecord
  2
61
 70
     0
 62
    61
  6
CONTINUOUS
  0
LAYER
  5
77
330
2
100
AcDbSymbolTableRecord
100
AcDbLayerTableRecord
  2
62
 70
     0
 62
    62
  6
CONTINUOUS
  0
LAYER
  5
78
330
2
100
AcDbSymbolTableRecord
100
AcDbLayerTableRecord
  2
63
 70
     0
 62
    63
  6
CONTINUOUS
  0
LAYER
  5
79
330
2
100
AcDbSymbolTableRecord
100
AcDbLayerTableRecord
  2
64
 70
     0
 62
    64
  6
CONTINUOUS
  0
LAYER
  5
7A
330
2
100
AcDbSymbolTableRecord
100
AcDbLayerTableRecord
  2
65
 70
     0
 62
    65
  6
CONTINUOUS
  0
LAYER
  5
7B
330
2
100
AcDbSymbolTableRecord
100
AcDbLayerTableRecord
  2
66
 70
     0
 62
    66
  6
CONTINUOUS
  0
LAYER
  5
7C
330
2
100
AcDbSymbolTableRecord
100
AcDbLayerTableRecord
  2
67
 70
     0
 62
    67
  6
CONTINUOUS
  0
LAYER
  5
7D
330
2
100
AcDbSymbolTableRecord
100
AcDbLayerTableRecord
  2
68
 70
     0
 62
    68
  6
CONTINUOUS
  0
LAYER
  5
7E
330
2
100
AcDbSymbolTableRecord
100
AcDbLayerTableRecord
  2
69
 70
     0
 62
    69
  6
CONTINUOUS
  0
LAYER
  5
7F
330
2
100
AcDbSymbolTableRecord
100
AcDbLayerTableRecord
  2
70
 70
     0
 62
    70
  6
CONTINUOUS
  0
LAYER
  5
80
330
2
100
AcDbSymbolTableRecord
100
AcDbLayerTableRecord
  2
71
 70
     0
 62
    71
  6
CONTINUOUS
  0
LAYER
  5
81
330
2
100
AcDbSymbolTableRecord
100
AcDbLayerTableRecord
  2
72
 70
     0
 62
    72
  6
CONTINUOUS
  0
LAYER
  5
82
330
2
100
AcDbSymbolTableRecord
100
AcDbLayerTableRecord
  2
73
 70
     0
 62
    73
  6
CONTINUOUS
  0
LAYER
  5
83
330
2
100
AcDbSymbolTableRecord
100
AcDbLayerTableRecord
  2
74
 70
     0
 62
    74
  6
CONTINUOUS
  0
LAYER
  5
84
330
2
100
AcDbSymbolTableRecord
100
AcDbLayerTableRecord
  2
75
 70
     0
 62
    75
  6
CONTINUOUS
  0
LAYER
  5
85
330
2
100
AcDbSymbolTableRecord
100
AcDbLayerTableRecord
  2
76
 70
     0
 62
    76
  6
CONTINUOUS
  0
LAYER
  5
86
330
2
100
AcDbSymbolTableRecord
100
AcDbLayerTableRecord
  2
77
 70
     0
 62
    77
  6
CONTINUOUS
  0
LAYER
  5
87
330
2
100
AcDbSymbolTableRecord
100
AcDbLayerTableRecord
  2
78
 70
     0
 62
    78
  6
CONTINUOUS
  0
LAYER
  5
88
330
2
100
AcDbSymbolTableRecord
100
AcDbLayerTableRecord
  2
79
 70
     0
 62
    79
  6
CONTINUOUS
  0
LAYER
  5
89
330
2
100
AcDbSymbolTableRecord
100
AcDbLayerTableRecord
  2
80
 70
     0
 62
    80
  6
CONTINUOUS
  0
LAYER
  5
8A
330
2
100
AcDbSymbolTableRecord
100
AcDbLayerTableRecord
  2
81
 70
     0
 62
    81
  6
CONTINUOUS
  0
LAYER
  5
8B
330
2
100
AcDbSymbolTableRecord
100
AcDbLayerTableRecord
  2
82
 70
     0
 62
    82
  6
CONTINUOUS
  0
LAYER
  5
8C
330
2
100
AcDbSymbolTableRecord
100
AcDbLayerTableRecord
  2
83
 70
     0
 62
    83
  6
CONTINUOUS
  0
LAYER
  5
8D
330
2
100
AcDbSymbolTableRecord
100
AcDbLayerTableRecord
  2
84
 70
     0
 62
    84
  6
CONTINUOUS
  0
LAYER
  5
8E
330
2
100
AcDbSymbolTableRecord
100
AcDbLayerTableRecord
  2
85
 70
     0
 62
    85
  6
CONTINUOUS
  0
LAYER
  5
8F
330
2
100
AcDbSymbolTableRecord
100
AcDbLayerTableRecord
  2
86
 70
     0
 62
    86
  6
CONTINUOUS
  0
LAYER
  5
90
330
2
100
AcDbSymbolTableRecord
100
AcDbLayerTableRecord
  2
87
 70
     0
 62
    87
  6
CONTINUOUS
  0
LAYER
  5
91
330
2
100
AcDbSymbolTableRecord
100
AcDbLayerTableRecord
  2
88
 70
     0
 62
    88
  6
CONTINUOUS
  0
LAYER
  5
92
330
2
100
AcDbSymbolTableRecord
100
AcDbLayerTableRecord
  2
89
 70
     0
 62
    89
  6
CONTINUOUS
  0
LAYER
  5
93
330
2
100
AcDbSymbolTableRecord
100
AcDbLayerTableRecord
  2
90
 70
     0
 62
    90
  6
CONTINUOUS
  0
LAYER
  5
94
330
2
100
AcDbSymbolTableRecord
100
AcDbLayerTableRecord
  2
91
 70
     0
 62
    91
  6
CONTINUOUS
  0
LAYER
  5
95
330
2
100
AcDbSymbolTableRecord
100
AcDbLayerTableRecord
  2
92
 70
     0
 62
    92
  6
CONTINUOUS
  0
LAYER
  5
96
330
2
100
AcDbSymbolTableRecord
100
AcDbLayerTableRecord
  2
93
 70
     0
 62
    93
  6
CONTINUOUS
  0
LAYER
  5
97
330
2
100
AcDbSymbolTableRecord
100
AcDbLayerTableRecord
  2
94
 70
     0
 62
    94
  6
CONTINUOUS
  0
LAYER
  5
98
330
2
100
AcDbSymbolTableRecord
100
AcDbLayerTableRecord
  2
95
 70
     0
 62
    95
  6
CONTINUOUS
  0
LAYER
  5
99
330
2
100
AcDbSymbolTableRecord
100
AcDbLayerTableRecord
  2
96
 70
     0
 62
    96
  6
CONTINUOUS
  0
LAYER
  5
9A
330
2
100
AcDbSymbolTableRecord
100
AcDbLayerTableRecord
  2
97
 70
     0
 62
    97
  6
CONTINUOUS
  0
LAYER
  5
9B
330
2
100
AcDbSymbolTableRecord
100
AcDbLayerTableRecord
  2
98
 70
     0
 62
    98
  6
CONTINUOUS
  0
LAYER
  5
9C
330
2
100
AcDbSymbolTableRecord
100
AcDbLayerTableRecord
  2
99
 70
     0
 62
    99
  6
CONTINUOUS
  0
LAYER
  5
9D
330
2
100
AcDbSymbolTableRecord
100
AcDbLayerTableRecord
  2
100
 70
     0
 62
   100
  6
CONTINUOUS
  0
LAYER
  5
9E
330
2
100
AcDbSymbolTableRecord
100
AcDbLayerTableRecord
  2
101
 70
     0
 62
   101
  6
CONTINUOUS
  0
LAYER
  5
9F
330
2
100
AcDbSymbolTableRecord
100
AcDbLayerTableRecord
  2
102
 70
     0
 62
   102
  6
CONTINUOUS
  0
LAYER
  5
A0
330
2
100
AcDbSymbolTableRecord
100
AcDbLayerTableRecord
  2
103
 70
     0
 62
   103
  6
CONTINUOUS
  0
LAYER
  5
A1
330
2
100
AcDbSymbolTableRecord
100
AcDbLayerTableRecord
  2
104
 70
     0
 62
   104
  6
CONTINUOUS
  0
LAYER
  5
A2
330
2
100
AcDbSymbolTableRecord
100
AcDbLayerTableRecord
  2
105
 70
     0
 62
   105
  6
CONTINUOUS
  0
LAYER
  5
A3
330
2
100
AcDbSymbolTableRecord
100
AcDbLayerTableRecord
  2
106
 70
     0
 62
   106
  6
CONTINUOUS
  0
LAYER
  5
A4
330
2
100
AcDbSymbolTableRecord
100
AcDbLayerTableRecord
  2
107
 70
     0
 62
   107
  6
CONTINUOUS
  0
LAYER
  5
A5
330
2
100
AcDbSymbolTableRecord
100
AcDbLayerTableRecord
  2
108
 70
     0
 62
   108
  6
CONTINUOUS
  0
LAYER
  5
A6
330
2
100
AcDbSymbolTableRecord
100
AcDbLayerTableRecord
  2
109
 70
     0
 62
   109
  6
CONTINUOUS
  0
LAYER
  5
A7
330
2
100
AcDbSymbolTableRecord
100
AcDbLayerTableRecord
  2
110
 70
     0
 62
   110
  6
CONTINUOUS
  0
LAYER
  5
A8
330
2
100
AcDbSymbolTableRecord
100
AcDbLayerTableRecord
  2
111
 70
     0
 62
   111
  6
CONTINUOUS
  0
LAYER
  5
A9
330
2
100
AcDbSymbolTableRecord
100
AcDbLayerTableRecord
  2
112
 70
     0
 62
   112
  6
CONTINUOUS
  0
LAYER
  5
AA
330
2
100
AcDbSymbolTableRecord
100
AcDbLayerTableRecord
  2
113
 70
     0
 62
   113
  6
CONTINUOUS
  0
LAYER
  5
AB
330
2
100
AcDbSymbolTableRecord
100
AcDbLayerTableRecord
  2
114
 70
     0
 62
   114
  6
CONTINUOUS
  0
LAYER
  5
AC
330
2
100
AcDbSymbolTableRecord
100
AcDbLayerTableRecord
  2
115
 70
     0
 62
   115
  6
CONTINUOUS
  0
LAYER
  5
AD
330
2
100
AcDbSymbolTableRecord
100
AcDbLayerTableRecord
  2
116
 70
     0
 62
   116
  6
CONTINUOUS
  0
LAYER
  5
AE
330
2
100
AcDbSymbolTableRecord
100
AcDbLayerTableRecord
  2
117
 70
     0
 62
   117
  6
CONTINUOUS
  0
LAYER
  5
AF
330
2
100
AcDbSymbolTableRecord
100
AcDbLayerTableRecord
  2
118
 70
     0
 62
   118
  6
CONTINUOUS
  0
LAYER
  5
B0
330
2
100
AcDbSymbolTableRecord
100
AcDbLayerTableRecord
  2
119
 70
     0
 62
   119
  6
CONTINUOUS
  0
LAYER
  5
B1
330
2
100
AcDbSymbolTableRecord
100
AcDbLayerTableRecord
  2
120
 70
     0
 62
   120
  6
CONTINUOUS
  0
LAYER
  5
B2
330
2
100
AcDbSymbolTableRecord
100
AcDbLayerTableRecord
  2
121
 70
     0
 62
   121
  6
CONTINUOUS
  0
LAYER
  5
B3
330
2
100
AcDbSymbolTableRecord
100
AcDbLayerTableRecord
  2
122
 70
     0
 62
   122
  6
CONTINUOUS
  0
LAYER
  5
B4
330
2
100
AcDbSymbolTableRecord
100
AcDbLayerTableRecord
  2
123
 70
     0
 62
   123
  6
CONTINUOUS
  0
LAYER
  5
B5
330
2
100
AcDbSymbolTableRecord
100
AcDbLayerTableRecord
  2
124
 70
     0
 62
   124
  6
CONTINUOUS
  0
LAYER
  5
B6
330
2
100
AcDbSymbolTableRecord
100
AcDbLayerTableRecord
  2
125
 70
     0
 62
   125
  6
CONTINUOUS
  0
LAYER
  5
B7
330
2
100
AcDbSymbolTableRecord
100
AcDbLayerTableRecord
  2
126
 70
     0
 62
   126
  6
CONTINUOUS
  0
LAYER
  5
B8
330
2
100
AcDbSymbolTableRecord
100
AcDbLayerTableRecord
  2
127
 70
     0
 62
   127
  6
CONTINUOUS
  0
LAYER
  5
B9
330
2
100
AcDbSymbolTableRecord
100
AcDbLayerTableRecord
  2
128
 70
     0
 62
   128
  6
CONTINUOUS
  0
LAYER
  5
BA
330
2
100
AcDbSymbolTableRecord
100
AcDbLayerTableRecord
  2
129
 70
     0
 62
   129
  6
CONTINUOUS
  0
LAYER
  5
BB
330
2
100
AcDbSymbolTableRecord
100
AcDbLayerTableRecord
  2
130
 70
     0
 62
   130
  6
CONTINUOUS
  0
LAYER
  5
BC
330
2
100
AcDbSymbolTableRecord
100
AcDbLayerTableRecord
  2
131
 70
     0
 62
   131
  6
CONTINUOUS
  0
LAYER
  5
BD
330
2
100
AcDbSymbolTableRecord
100
AcDbLayerTableRecord
  2
132
 70
     0
 62
   132
  6
CONTINUOUS
  0
LAYER
  5
BE
330
2
100
AcDbSymbolTableRecord
100
AcDbLayerTableRecord
  2
133
 70
     0
 62
   133
  6
CONTINUOUS
  0
LAYER
  5
BF
330
2
100
AcDbSymbolTableRecord
100
AcDbLayerTableRecord
  2
134
 70
     0
 62
   134
  6
CONTINUOUS
  0
LAYER
  5
C0
330
2
100
AcDbSymbolTableRecord
100
AcDbLayerTableRecord
  2
135
 70
     0
 62
   135
  6
CONTINUOUS
  0
LAYER
  5
C1
330
2
100
AcDbSymbolTableRecord
100
AcDbLayerTableRecord
  2
136
 70
     0
 62
   136
  6
CONTINUOUS
  0
LAYER
  5
C2
330
2
100
AcDbSymbolTableRecord
100
AcDbLayerTableRecord
  2
137
 70
     0
 62
   137
  6
CONTINUOUS
  0
LAYER
  5
C3
330
2
100
AcDbSymbolTableRecord
100
AcDbLayerTableRecord
  2
138
 70
     0
 62
   138
  6
CONTINUOUS
  0
LAYER
  5
C4
330
2
100
AcDbSymbolTableRecord
100
AcDbLayerTableRecord
  2
139
 70
     0
 62
   139
  6
CONTINUOUS
  0
LAYER
  5
C5
330
2
100
AcDbSymbolTableRecord
100
AcDbLayerTableRecord
  2
140
 70
     0
 62
   140
  6
CONTINUOUS
  0
LAYER
  5
C6
330
2
100
AcDbSymbolTableRecord
100
AcDbLayerTableRecord
  2
141
 70
     0
 62
   141
  6
CONTINUOUS
  0
LAYER
  5
C7
330
2
100
AcDbSymbolTableRecord
100
AcDbLayerTableRecord
  2
142
 70
     0
 62
   142
  6
CONTINUOUS
  0
LAYER
  5
C8
330
2
100
AcDbSymbolTableRecord
100
AcDbLayerTableRecord
  2
143
 70
     0
 62
   143
  6
CONTINUOUS
  0
LAYER
  5
C9
330
2
100
AcDbSymbolTableRecord
100
AcDbLayerTableRecord
  2
144
 70
     0
 62
   144
  6
CONTINUOUS
  0
LAYER
  5
CA
330
2
100
AcDbSymbolTableRecord
100
AcDbLayerTableRecord
  2
145
 70
     0
 62
   145
  6
CONTINUOUS
  0
LAYER
  5
CB
330
2
100
AcDbSymbolTableRecord
100
AcDbLayerTableRecord
  2
146
 70
     0
 62
   146
  6
CONTINUOUS
  0
LAYER
  5
CC
330
2
100
AcDbSymbolTableRecord
100
AcDbLayerTableRecord
  2
147
 70
     0
 62
   147
  6
CONTINUOUS
  0
LAYER
  5
CD
330
2
100
AcDbSymbolTableRecord
100
AcDbLayerTableRecord
  2
148
 70
     0
 62
   148
  6
CONTINUOUS
  0
LAYER
  5
CE
330
2
100
AcDbSymbolTableRecord
100
AcDbLayerTableRecord
  2
149
 70
     0
 62
   149
  6
CONTINUOUS
  0
LAYER
  5
CF
330
2
100
AcDbSymbolTableRecord
100
AcDbLayerTableRecord
  2
150
 70
     0
 62
   150
  6
CONTINUOUS
  0
LAYER
  5
D0
330
2
100
AcDbSymbolTableRecord
100
AcDbLayerTableRecord
  2
151
 70
     0
 62
   151
  6
CONTINUOUS
  0
LAYER
  5
D1
330
2
100
AcDbSymbolTableRecord
100
AcDbLayerTableRecord
  2
152
 70
     0
 62
   152
  6
CONTINUOUS
  0
LAYER
  5
D2
330
2
100
AcDbSymbolTableRecord
100
AcDbLayerTableRecord
  2
153
 70
     0
 62
   153
  6
CONTINUOUS
  0
LAYER
  5
D3
330
2
100
AcDbSymbolTableRecord
100
AcDbLayerTableRecord
  2
154
 70
     0
 62
   154
  6
CONTINUOUS
  0
LAYER
  5
D4
330
2
100
AcDbSymbolTableRecord
100
AcDbLayerTableRecord
  2
155
 70
     0
 62
   155
  6
CONTINUOUS
  0
LAYER
  5
D5
330
2
100
AcDbSymbolTableRecord
100
AcDbLayerTableRecord
  2
156
 70
     0
 62
   156
  6
CONTINUOUS
  0
LAYER
  5
D6
330
2
100
AcDbSymbolTableRecord
100
AcDbLayerTableRecord
  2
157
 70
     0
 62
   157
  6
CONTINUOUS
  0
LAYER
  5
D7
330
2
100
AcDbSymbolTableRecord
100
AcDbLayerTableRecord
  2
158
 70
     0
 62
   158
  6
CONTINUOUS
  0
LAYER
  5
D8
330
2
100
AcDbSymbolTableRecord
100
AcDbLayerTableRecord
  2
159
 70
     0
 62
   159
  6
CONTINUOUS
  0
LAYER
  5
D9
330
2
100
AcDbSymbolTableRecord
100
AcDbLayerTableRecord
  2
160
 70
     0
 62
   160
  6
CONTINUOUS
  0
LAYER
  5
DA
330
2
100
AcDbSymbolTableRecord
100
AcDbLayerTableRecord
  2
161
 70
     0
 62
   161
  6
CONTINUOUS
  0
LAYER
  5
DB
330
2
100
AcDbSymbolTableRecord
100
AcDbLayerTableRecord
  2
162
 70
     0
 62
   162
  6
CONTINUOUS
  0
LAYER
  5
DC
330
2
100
AcDbSymbolTableRecord
100
AcDbLayerTableRecord
  2
163
 70
     0
 62
   163
  6
CONTINUOUS
  0
LAYER
  5
DD
330
2
100
AcDbSymbolTableRecord
100
AcDbLayerTableRecord
  2
164
 70
     0
 62
   164
  6
CONTINUOUS
  0
LAYER
  5
DE
330
2
100
AcDbSymbolTableRecord
100
AcDbLayerTableRecord
  2
165
 70
     0
 62
   165
  6
CONTINUOUS
  0
LAYER
  5
DF
330
2
100
AcDbSymbolTableRecord
100
AcDbLayerTableRecord
  2
166
 70
     0
 62
   166
  6
CONTINUOUS
  0
LAYER
  5
E0
330
2
100
AcDbSymbolTableRecord
100
AcDbLayerTableRecord
  2
167
 70
     0
 62
   167
  6
CONTINUOUS
  0
LAYER
  5
E1
330
2
100
AcDbSymbolTableRecord
100
AcDbLayerTableRecord
  2
168
 70
     0
 62
   168
  6
CONTINUOUS
  0
LAYER
  5
E2
330
2
100
AcDbSymbolTableRecord
100
AcDbLayerTableRecord
  2
169
 70
     0
 62
   169
  6
CONTINUOUS
  0
LAYER
  5
E3
330
2
100
AcDbSymbolTableRecord
100
AcDbLayerTableRecord
  2
170
 70
     0
 62
   170
  6
CONTINUOUS
  0
LAYER
  5
E4
330
2
100
AcDbSymbolTableRecord
100
AcDbLayerTableRecord
  2
171
 70
     0
 62
   171
  6
CONTINUOUS
  0
LAYER
  5
E5
330
2
100
AcDbSymbolTableRecord
100
AcDbLayerTableRecord
  2
172
 70
     0
 62
   172
  6
CONTINUOUS
  0
LAYER
  5
E6
330
2
100
AcDbSymbolTableRecord
100
AcDbLayerTableRecord
  2
173
 70
     0
 62
   173
  6
CONTINUOUS
  0
LAYER
  5
E7
330
2
100
AcDbSymbolTableRecord
100
AcDbLayerTableRecord
  2
174
 70
     0
 62
   174
  6
CONTINUOUS
  0
LAYER
  5
E8
330
2
100
AcDbSymbolTableRecord
100
AcDbLayerTableRecord
  2
175
 70
     0
 62
   175
  6
CONTINUOUS
  0
LAYER
  5
E9
330
2
100
AcDbSymbolTableRecord
100
AcDbLayerTableRecord
  2
176
 70
     0
 62
   176
  6
CONTINUOUS
  0
LAYER
  5
EA
330
2
100
AcDbSymbolTableRecord
100
AcDbLayerTableRecord
  2
177
 70
     0
 62
   177
  6
CONTINUOUS
  0
LAYER
  5
EB
330
2
100
AcDbSymbolTableRecord
100
AcDbLayerTableRecord
  2
178
 70
     0
 62
   178
  6
CONTINUOUS
  0
LAYER
  5
EC
330
2
100
AcDbSymbolTableRecord
100
AcDbLayerTableRecord
  2
179
 70
     0
 62
   179
  6
CONTINUOUS
  0
LAYER
  5
ED
330
2
100
AcDbSymbolTableRecord
100
AcDbLayerTableRecord
  2
180
 70
     0
 62
   180
  6
CONTINUOUS
  0
LAYER
  5
EE
330
2
100
AcDbSymbolTableRecord
100
AcDbLayerTableRecord
  2
181
 70
     0
 62
   181
  6
CONTINUOUS
  0
LAYER
  5
EF
330
2
100
AcDbSymbolTableRecord
100
AcDbLayerTableRecord
  2
182
 70
     0
 62
   182
  6
CONTINUOUS
  0
LAYER
  5
F0
330
2
100
AcDbSymbolTableRecord
100
AcDbLayerTableRecord
  2
183
 70
     0
 62
   183
  6
CONTINUOUS
  0
LAYER
  5
F1
330
2
100
AcDbSymbolTableRecord
100
AcDbLayerTableRecord
  2
184
 70
     0
 62
   184
  6
CONTINUOUS
  0
LAYER
  5
F2
330
2
100
AcDbSymbolTableRecord
100
AcDbLayerTableRecord
  2
185
 70
     0
 62
   185
  6
CONTINUOUS
  0
LAYER
  5
F3
330
2
100
AcDbSymbolTableRecord
100
AcDbLayerTableRecord
  2
186
 70
     0
 62
   186
  6
CONTINUOUS
  0
LAYER
  5
F4
330
2
100
AcDbSymbolTableRecord
100
AcDbLayerTableRecord
  2
187
 70
     0
 62
   187
  6
CONTINUOUS
  0
LAYER
  5
F5
330
2
100
AcDbSymbolTableRecord
100
AcDbLayerTableRecord
  2
188
 70
     0
 62
   188
  6
CONTINUOUS
  0
LAYER
  5
F6
330
2
100
AcDbSymbolTableRecord
100
AcDbLayerTableRecord
  2
189
 70
     0
 62
   189
  6
CONTINUOUS
  0
LAYER
  5
F7
330
2
100
AcDbSymbolTableRecord
100
AcDbLayerTableRecord
  2
190
 70
     0
 62
   190
  6
CONTINUOUS
  0
LAYER
  5
F8
330
2
100
AcDbSymbolTableRecord
100
AcDbLayerTableRecord
  2
191
 70
     0
 62
   191
  6
CONTINUOUS
  0
LAYER
  5
F9
330
2
100
AcDbSymbolTableRecord
100
AcDbLayerTableRecord
  2
192
 70
     0
 62
   192
  6
CONTINUOUS
  0
LAYER
  5
FA
330
2
100
AcDbSymbolTableRecord
100
AcDbLayerTableRecord
  2
193
 70
     0
 62
   193
  6
CONTINUOUS
  0
LAYER
  5
FB
330
2
100
AcDbSymbolTableRecord
100
AcDbLayerTableRecord
  2
194
 70
     0
 62
   194
  6
CONTINUOUS
  0
LAYER
  5
FC
330
2
100
AcDbSymbolTableRecord
100
AcDbLayerTableRecord
  2
195
 70
     0
 62
   195
  6
CONTINUOUS
  0
LAYER
  5
FD
330
2
100
AcDbSymbolTableRecord
100
AcDbLayerTableRecord
  2
196
 70
     0
 62
   196
  6
CONTINUOUS
  0
LAYER
  5
FE
330
2
100
AcDbSymbolTableRecord
100
AcDbLayerTableRecord
  2
197
 70
     0
 62
   197
  6
CONTINUOUS
  0
LAYER
  5
FF
330
2
100
AcDbSymbolTableRecord
100
AcDbLayerTableRecord
  2
198
 70
     0
 62
   198
  6
CONTINUOUS
  0
LAYER
  5
100
330
2
100
AcDbSymbolTableRecord
100
AcDbLayerTableRecord
  2
199
 70
     0
 62
   199
  6
CONTINUOUS
  0
LAYER
  5
101
330
2
100
AcDbSymbolTableRecord
100
AcDbLayerTableRecord
  2
200
 70
     0
 62
   200
  6
CONTINUOUS
  0
LAYER
  5
102
330
2
100
AcDbSymbolTableRecord
100
AcDbLayerTableRecord
  2
201
 70
     0
 62
   201
  6
CONTINUOUS
  0
LAYER
  5
103
330
2
100
AcDbSymbolTableRecord
100
AcDbLayerTableRecord
  2
202
 70
     0
 62
   202
  6
CONTINUOUS
  0
LAYER
  5
104
330
2
100
AcDbSymbolTableRecord
100
AcDbLayerTableRecord
  2
203
 70
     0
 62
   203
  6
CONTINUOUS
  0
LAYER
  5
105
330
2
100
AcDbSymbolTableRecord
100
AcDbLayerTableRecord
  2
204
 70
     0
 62
   204
  6
CONTINUOUS
  0
LAYER
  5
106
330
2
100
AcDbSymbolTableRecord
100
AcDbLayerTableRecord
  2
205
 70
     0
 62
   205
  6
CONTINUOUS
  0
LAYER
  5
107
330
2
100
AcDbSymbolTableRecord
100
AcDbLayerTableRecord
  2
206
 70
     0
 62
   206
  6
CONTINUOUS
  0
LAYER
  5
108
330
2
100
AcDbSymbolTableRecord
100
AcDbLayerTableRecord
  2
207
 70
     0
 62
   207
  6
CONTINUOUS
  0
LAYER
  5
109
330
2
100
AcDbSymbolTableRecord
100
AcDbLayerTableRecord
  2
208
 70
     0
 62
   208
  6
CONTINUOUS
  0
LAYER
  5
10A
330
2
100
AcDbSymbolTableRecord
100
AcDbLayerTableRecord
  2
209
 70
     0
 62
   209
  6
CONTINUOUS
  0
LAYER
  5
10B
330
2
100
AcDbSymbolTableRecord
100
AcDbLayerTableRecord
  2
210
 70
     0
 62
   210
  6
CONTINUOUS
  0
LAYER
  5
10C
330
2
100
AcDbSymbolTableRecord
100
AcDbLayerTableRecord
  2
211
 70
     0
 62
   211
  6
CONTINUOUS
  0
LAYER
  5
10D
330
2
100
AcDbSymbolTableRecord
100
AcDbLayerTableRecord
  2
212
 70
     0
 62
   212
  6
CONTINUOUS
  0
LAYER
  5
10E
330
2
100
AcDbSymbolTableRecord
100
AcDbLayerTableRecord
  2
213
 70
     0
 62
   213
  6
CONTINUOUS
  0
LAYER
  5
10F
330
2
100
AcDbSymbolTableRecord
100
AcDbLayerTableRecord
  2
214
 70
     0
 62
   214
  6
CONTINUOUS
  0
LAYER
  5
110
330
2
100
AcDbSymbolTableRecord
100
AcDbLayerTableRecord
  2
215
 70
     0
 62
   215
  6
CONTINUOUS
  0
LAYER
  5
111
330
2
100
AcDbSymbolTableRecord
100
AcDbLayerTableRecord
  2
216
 70
     0
 62
   216
  6
CONTINUOUS
  0
LAYER
  5
112
330
2
100
AcDbSymbolTableRecord
100
AcDbLayerTableRecord
  2
217
 70
     0
 62
   217
  6
CONTINUOUS
  0
LAYER
  5
113
330
2
100
AcDbSymbolTableRecord
100
AcDbLayerTableRecord
  2
218
 70
     0
 62
   218
  6
CONTINUOUS
  0
LAYER
  5
114
330
2
100
AcDbSymbolTableRecord
100
AcDbLayerTableRecord
  2
219
 70
     0
 62
   219
  6
CONTINUOUS
  0
LAYER
  5
115
330
2
100
AcDbSymbolTableRecord
100
AcDbLayerTableRecord
  2
220
 70
     0
 62
   220
  6
CONTINUOUS
  0
LAYER
  5
116
330
2
100
AcDbSymbolTableRecord
100
AcDbLayerTableRecord
  2
221
 70
     0
 62
   221
  6
CONTINUOUS
  0
LAYER
  5
117
330
2
100
AcDbSymbolTableRecord
100
AcDbLayerTableRecord
  2
222
 70
     0
 62
   222
  6
CONTINUOUS
  0
LAYER
  5
118
330
2
100
AcDbSymbolTableRecord
100
AcDbLayerTableRecord
  2
223
 70
     0
 62
   223
  6
CONTINUOUS
  0
LAYER
  5
119
330
2
100
AcDbSymbolTableRecord
100
AcDbLayerTableRecord
  2
224
 70
     0
 62
   224
  6
CONTINUOUS
  0
LAYER
  5
11A
330
2
100
AcDbSymbolTableRecord
100
AcDbLayerTableRecord
  2
225
 70
     0
 62
   225
  6
CONTINUOUS
  0
LAYER
  5
11B
330
2
100
AcDbSymbolTableRecord
100
AcDbLayerTableRecord
  2
226
 70
     0
 62
   226
  6
CONTINUOUS
  0
LAYER
  5
11C
330
2
100
AcDbSymbolTableRecord
100
AcDbLayerTableRecord
  2
227
 70
     0
 62
   227
  6
CONTINUOUS
  0
LAYER
  5
11D
330
2
100
AcDbSymbolTableRecord
100
AcDbLayerTableRecord
  2
228
 70
     0
 62
   228
  6
CONTINUOUS
  0
LAYER
  5
11E
330
2
100
AcDbSymbolTableRecord
100
AcDbLayerTableRecord
  2
229
 70
     0
 62
   229
  6
CONTINUOUS
  0
LAYER
  5
11F
330
2
100
AcDbSymbolTableRecord
100
AcDbLayerTableRecord
  2
230
 70
     0
 62
   230
  6
CONTINUOUS
  0
LAYER
  5
120
330
2
100
AcDbSymbolTableRecord
100
AcDbLayerTableRecord
  2
231
 70
     0
 62
   231
  6
CONTINUOUS
  0
LAYER
  5
121
330
2
100
AcDbSymbolTableRecord
100
AcDbLayerTableRecord
  2
232
 70
     0
 62
   232
  6
CONTINUOUS
  0
LAYER
  5
122
330
2
100
AcDbSymbolTableRecord
100
AcDbLayerTableRecord
  2
233
 70
     0
 62
   233
  6
CONTINUOUS
  0
LAYER
  5
123
330
2
100
AcDbSymbolTableRecord
100
AcDbLayerTableRecord
  2
234
 70
     0
 62
   234
  6
CONTINUOUS
  0
LAYER
  5
124
330
2
100
AcDbSymbolTableRecord
100
AcDbLayerTableRecord
  2
235
 70
     0
 62
   235
  6
CONTINUOUS
  0
LAYER
  5
125
330
2
100
AcDbSymbolTableRecord
100
AcDbLayerTableRecord
  2
236
 70
     0
 62
   236
  6
CONTINUOUS
  0
LAYER
  5
126
330
2
100
AcDbSymbolTableRecord
100
AcDbLayerTableRecord
  2
237
 70
     0
 62
   237
  6
CONTINUOUS
  0
LAYER
  5
127
330
2
100
AcDbSymbolTableRecord
100
AcDbLayerTableRecord
  2
238
 70
     0
 62
   238
  6
CONTINUOUS
  0
LAYER
  5
128
330
2
100
AcDbSymbolTableRecord
100
AcDbLayerTableRecord
  2
239
 70
     0
 62
   239
  6
CONTINUOUS
  0
LAYER
  5
129
330
2
100
AcDbSymbolTableRecord
100
AcDbLayerTableRecord
  2
240
 70
     0
 62
   240
  6
CONTINUOUS
  0
LAYER
  5
12A
330
2
100
AcDbSymbolTableRecord
100
AcDbLayerTableRecord
  2
241
 70
     0
 62
   241
  6
CONTINUOUS
  0
LAYER
  5
12B
330
2
100
AcDbSymbolTableRecord
100
AcDbLayerTableRecord
  2
242
 70
     0
 62
   242
  6
CONTINUOUS
  0
LAYER
  5
12C
330
2
100
AcDbSymbolTableRecord
100
AcDbLayerTableRecord
  2
243
 70
     0
 62
   243
  6
CONTINUOUS
  0
LAYER
  5
12D
330
2
100
AcDbSymbolTableRecord
100
AcDbLayerTableRecord
  2
244
 70
     0
 62
   244
  6
CONTINUOUS
  0
LAYER
  5
12E
330
2
100
AcDbSymbolTableRecord
100
AcDbLayerTableRecord
  2
245
 70
     0
 62
   245
  6
CONTINUOUS
  0
LAYER
  5
12F
330
2
100
AcDbSymbolTableRecord
100
AcDbLayerTableRecord
  2
246
 70
     0
 62
   246
  6
CONTINUOUS
  0
LAYER
  5
130
330
2
100
AcDbSymbolTableRecord
100
AcDbLayerTableRecord
  2
247
 70
     0
 62
   247
  6
CONTINUOUS
  0
LAYER
  5
131
330
2
100
AcDbSymbolTableRecord
100
AcDbLayerTableRecord
  2
248
 70
     0
 62
   248
  6
CONTINUOUS
  0
LAYER
  5
132
330
2
100
AcDbSymbolTableRecord
100
AcDbLayerTableRecord
  2
249
 70
     0
 62
   249
  6
CONTINUOUS
  0
LAYER
  5
133
330
2
100
AcDbSymbolTableRecord
100
AcDbLayerTableRecord
  2
250
 70
     0
 62
   250
  6
CONTINUOUS
  0
LAYER
  5
134
330
2
100
AcDbSymbolTableRecord
100
AcDbLayerTableRecord
  2
251
 70
     0
 62
   251
  6
CONTINUOUS
  0
LAYER
  5
135
330
2
100
AcDbSymbolTableRecord
100
AcDbLayerTableRecord
  2
252
 70
     0
 62
   252
  6
CONTINUOUS
  0
LAYER
  5
136
330
2
100
AcDbSymbolTableRecord
100
AcDbLayerTableRecord
  2
253
 70
     0
 62
   253
  6
CONTINUOUS
  0
LAYER
  5
137
330
2
100
AcDbSymbolTableRecord
100
AcDbLayerTableRecord
  2
254
 70
     0
 62
   254
  6
CONTINUOUS
  0
LAYER
  5
138
330
2
100
AcDbSymbolTableRecord
100
AcDbLayerTableRecord
  2
255
 70
     0
 62
   255
  6
CONTINUOUS
  0
ENDTAB
  0
TABLE
  2
STYLE
  5
3
330
0
100
AcDbSymbolTable
 70
     1
  0
STYLE
  5
11
330
3
100
AcDbSymbolTableRecord
100
AcDbTextStyleTableRecord
  2
STANDARD
 70
     0
 40
0.0
 41
1.0
 50
0.0
 71
     0
 42
0.2
  3
monotxt
  4

  0
ENDTAB
  0
TABLE
  2
VIEW
  5
6
330
0
100
AcDbSymbolTable
 70
     0
  0
ENDTAB
  0
TABLE
  2
UCS
  5
7
330
0
100
AcDbSymbolTable
 70
     0
  0
ENDTAB
  0
TABLE
  2
APPID
  5
9
330
0
100
AcDbSymbolTable
 70
     1
  0
APPID
  5
12
330
9
100
AcDbSymbolTableRecord
100
AcDbRegAppTableRecord
  2
ACAD
 70
     0
  0
ENDTAB
  0
TABLE
  2
DIMSTYLE
  5
A
330
0
100
AcDbSymbolTable
 70
     1
  0
DIMSTYLE
105
23D9
330
A
100
AcDbSymbolTableRecord
100
AcDbDimStyleTableRecord
  2
STANDARD
 70
     0
  3

  4

  5

  6

  7

 40
1.0
 41
0.18
 42
0.0625
 43
0.38
 44
0.18
 45
0.0
 46
0.0
 47
0.0
 48
0.0
140
0.18
141
0.09
142
0.0
143
25.4
144
1.0
145
0.0
146
1.0
147
0.09
 71
     0
 72
     0
 73
     1
 74
     1
 75
     0
 76
     0
 77
     0
 78
     0
170
     0
171
     2
172
     0
173
     0
174
     0
175
     0
176
     0
177
     0
178
     0
270
     2
271
     4
272
     4
273
     2
274
     2
340
11
275
     0
280
     0
281
     0
282
     0
283
     1
284
     0
285
     0
286
     0
287
     3
288
     0
  0
ENDTAB
  0
TABLE
  2
BLOCK_RECORD
  5
1
330
0
100
AcDbSymbolTable
 70
     0
  0
BLOCK_RECORD
  5
1E
102
{ACAD_XDICTIONARY
360
26FE
102
}
330
1
100
AcDbSymbolTableRecord
100
AcDbBlockTableRecord
  2
*MODEL_SPACE
  0
BLOCK_RECORD
  5
1A
102
{ACAD_XDICTIONARY
360
26FC
102
}
330
1
100
AcDbSymbolTableRecord
100
AcDbBlockTableRecord
  2
*PAPER_SPACE
  0
ENDTAB
  0
ENDSEC
  0
SECTION
  2
BLOCKS
  0
BLOCK
  5
13B
330
1E
100
AcDbEntity
  8
0
100
AcDbBlockBegin
  2
*MODEL_SPACE
 70
     0
 10
0.0
 20
0.0
 30
0.0
  3
*MODEL_SPACE
  1

  0
ENDBLK
  5
13C
330
1E
100
AcDbEntity
  8
0
100
AcDbBlockEnd
  0
BLOCK
  5
139
330
1A
100
AcDbEntity
 67
     1
  8
0
100
AcDbBlockBegin
  2
*PAPER_SPACE
 70
     0
 10
0.0
 20
0.0
 30
0.0
  3
*PAPER_SPACE
  1

  0
ENDBLK
  5
13A
330
1A
100
AcDbEntity
 67
     1
  8
0
100
AcDbBlockEnd
  0
ENDSEC
  0
SECTION
  2
ENTITIES
  0
LINE
  5
206A
330
1E
100
AcDbEntity
  8
7
100
AcDbLine
 10
4.135826771653543
 20
6.31496062992126
 30
0.0
 11
4.135826771653543
 21
6.294291338582676
 31
0.0
  0
LINE
  5
206B
330
1E
100
AcDbEntity
  8
7
100
AcDbLine
 10
4.657480314960629
 20
6.474409448818897
 30
0.0
 11
4.656496062992125
 21
6.453740157480314
 31
0.0
  0
LINE
  5
206C
330
1E
100
AcDbEntity
  8
7
100
AcDbLine
 10
3.68503937007874
 20
6.621062992125984
 30
0.0
 11
3.682086614173228
 21
6.751968503937008
 31
0.0
  0
LINE
  5
206D
330
1E
100
AcDbEntity
  8
7
100
AcDbLine
 10
2.908464566929133
 20
6.383858267716535
 30
0.0
 11
2.905511811023622
 21
6.514763779527559
 31
0.0
  0
LINE
  5
206E
330
1E
100
AcDbEntity
  8
7
100
AcDbLine
 10
3.61515748031496
 20
6.155511811023622
 30
0.0
 11
3.61515748031496
 21
6.134842519685039
 31
0.0
  0
LINE
  5
206F
330
1E
100
AcDbEntity
  8
7
100
AcDbLine
 10
2.921259842519685
 20
7.075787401574802
 30
0.0
 11
2.917322834645669
 21
7.205708661417323
 31
0.0
  0
LINE
  5
2070
330
1E
100
AcDbEntity
  8
7
100
AcDbLine
 10
2.399606299212598
 20
6.916338582677165
 30
0.0
 11
2.396653543307086
 21
7.047244094488188
 31
0.0
  0
LINE
  5
2071
330
1E
100
AcDbEntity
  8
7
100
AcDbLine
 10
1.878937007874015
 20
6.756889763779527
 30
0.0
 11
1.875984251968503
 21
6.88779527559055
 31
0.0
  0
LINE
  5
2072
330
1E
100
AcDbEntity
  8
7
100
AcDbLine
 10
2.850393700787401
 20
6.61023622047244
 30
0.0
 11
2.850393700787401
 21
6.589566929133858
 31
0.0
  0
LINE
  5
2073
330
1E
100
AcDbEntity
  8
7
100
AcDbLine
 10
3.626968503937007
 20
6.847440944881889
 30
0.0
 11
3.626968503937007
 21
6.826771653543307
 31
0.0
  0
LINE
  5
2074
330
1E
100
AcDbEntity
  8
7
100
AcDbLine
 10
5.515748031496062
 20
6.575787401574802
 30
0.0
 11
3.513779527559055
 21
7.499015748031496
 31
0.0
  0
LINE
  5
2075
330
1E
100
AcDbEntity
  8
7
100
AcDbLine
 10
3.480314960629921
 20
7.501968503937008
 30
0.0
 11
1.036417322834645
 21
6.754921259842519
 31
0.0
  0
LINE
  5
20A2
330
1E
100
AcDbEntity
  8
7
100
AcDbLine
 10
4.157480314960629
 20
6.737204724409449
 30
0.0
 11
4.122047244094487
 21
6.752952755905512
 31
0.0
  0
LINE
  5
20A3
330
1E
100
AcDbEntity
  8
7
100
AcDbLine
 10
4.157480314960629
 20
6.737204724409449
 30
0.0
 11
4.697834645669291
 21
6.488188976377952
 31
0.0
  0
LINE
  5
20AB
330
1E
100
AcDbEntity
  8
7
100
AcDbLine
 10
3.225393700787401
 20
7.167322834645669
 30
0.0
 11
3.260826771653543
 21
7.150590551181102
 31
0.0
  0
LINE
  5
20AC
330
1E
100
AcDbEntity
  8
7
100
AcDbLine
 10
3.260826771653543
 20
7.150590551181102
 30
0.0
 11
3.801181102362204
 21
6.901574803149606
 31
0.0
  0
LINE
  5
20B4
330
1E
100
AcDbEntity
  8
7
100
AcDbLine
 10
3.260826771653543
 20
7.028543307086613
 30
0.0
 11
3.641732283464567
 21
6.853346456692913
 31
0.0
  0
LINE
  5
20BA
330
1E
100
AcDbEntity
  8
7
100
AcDbLine
 10
3.090551181102362
 20
6.982283464566929
 30
0.0
 11
3.24507874015748
 21
7.029527559055118
 31
0.0
  0
LINE
  5
20BB
330
1E
100
AcDbEntity
  8
7
100
AcDbLine
 10
3.071850393700787
 20
6.990157480314961
 30
0.0
 11
3.090551181102362
 21
6.982283464566929
 31
0.0
  0
LINE
  5
20BC
330
1E
100
AcDbEntity
  8
7
100
AcDbLine
 10
3.071850393700787
 20
6.990157480314961
 30
0.0
 11
2.76771653543307
 21
6.89763779527559
 31
0.0
  0
LINE
  5
20BD
330
1E
100
AcDbEntity
  8
7
100
AcDbLine
 10
2.570866141732283
 20
6.821850393700787
 30
0.0
 11
2.768700787401574
 21
6.882874015748031
 31
0.0
  0
LINE
  5
20BE
330
1E
100
AcDbEntity
  8
7
100
AcDbLine
 10
2.551181102362204
 20
6.831692913385826
 30
0.0
 11
2.570866141732283
 21
6.821850393700787
 31
0.0
  0
LINE
  5
20BF
330
1E
100
AcDbEntity
  8
7
100
AcDbLine
 10
2.551181102362204
 20
6.831692913385826
 30
0.0
 11
2.379921259842519
 21
6.778543307086613
 31
0.0
  0
LINE
  5
20C0
330
1E
100
AcDbEntity
  8
7
100
AcDbLine
 10
2.182086614173228
 20
6.703740157480314
 30
0.0
 11
2.379921259842519
 21
6.763779527559055
 31
0.0
  0
LINE
  5
20C1
330
1E
100
AcDbEntity
  8
7
100
AcDbLine
 10
2.162401574803149
 20
6.71259842519685
 30
0.0
 11
2.182086614173228
 21
6.703740157480314
 31
0.0
  0
LINE
  5
20C2
330
1E
100
AcDbEntity
  8
7
100
AcDbLine
 10
2.003937007874015
 20
6.664370078740157
 30
0.0
 11
2.162401574803149
 21
6.71259842519685
 31
0.0
  0
LINE
  5
20CA
330
1E
100
AcDbEntity
  8
7
100
AcDbLine
 10
3.969488188976378
 20
6.576771653543307
 30
0.0
 11
3.987204724409449
 21
6.567913385826771
 31
0.0
  0
LINE
  5
20CB
330
1E
100
AcDbEntity
  8
7
100
AcDbLine
 10
3.969488188976378
 20
6.576771653543307
 30
0.0
 11
3.665354330708661
 21
6.484251968503937
 31
0.0
  0
LINE
  5
20CC
330
1E
100
AcDbEntity
  8
7
100
AcDbLine
 10
3.665354330708661
 20
6.468503937007874
 30
0.0
 11
3.46751968503937
 21
6.408464566929134
 31
0.0
  0
LINE
  5
20CD
330
1E
100
AcDbEntity
  8
7
100
AcDbLine
 10
3.447834645669291
 20
6.417322834645669
 30
0.0
 11
3.46751968503937
 21
6.408464566929134
 31
0.0
  0
LINE
  5
20CE
330
1E
100
AcDbEntity
  8
7
100
AcDbLine
 10
3.276574803149606
 20
6.365157480314961
 30
0.0
 11
3.447834645669291
 21
6.417322834645669
 31
0.0
  0
LINE
  5
20D4
330
1E
100
AcDbEntity
  8
7
100
AcDbLine
 10
2.900590551181102
 20
6.25
 30
0.0
 11
3.06003937007874
 21
6.299212598425197
 31
0.0
  0
LINE
  5
20D5
330
1E
100
AcDbEntity
  8
7
100
AcDbLine
 10
4.141732283464566
 20
6.615157480314961
 30
0.0
 11
4.141732283464566
 21
6.737204724409449
 31
0.0
  0
LINE
  5
20D6
330
1E
100
AcDbEntity
  8
7
100
AcDbLine
 10
3.991141732283464
 20
6.691929133858267
 30
0.0
 11
4.141732283464566
 21
6.737204724409449
 31
0.0
  0
LINE
  5
20D7
330
1E
100
AcDbEntity
  8
7
100
AcDbLine
 10
3.991141732283464
 20
6.691929133858267
 30
0.0
 11
3.987204724409449
 21
6.567913385826771
 31
0.0
  0
LINE
  5
20D8
330
1E
100
AcDbEntity
  8
7
100
AcDbLine
 10
3.06003937007874
 20
6.299212598425197
 30
0.0
 11
3.053149606299212
 21
6.427165354330708
 31
0.0
  0
LINE
  5
20D9
330
1E
100
AcDbEntity
  8
7
100
AcDbLine
 10
3.081692913385826
 20
6.413385826771653
 30
0.0
 11
3.079724409448818
 21
6.289370078740157
 31
0.0
  0
LINE
  5
20DA
330
1E
100
AcDbEntity
  8
7
100
AcDbLine
 10
3.053149606299212
 20
6.427165354330708
 30
0.0
 11
3.081692913385826
 21
6.413385826771653
 31
0.0
  0
LINE
  5
20DB
330
1E
100
AcDbEntity
  8
7
100
AcDbLine
 10
3.27755905511811
 20
6.350393700787401
 30
0.0
 11
3.27263779527559
 21
6.472440944881889
 31
0.0
  0
LINE
  5
20DC
330
1E
100
AcDbEntity
  8
7
100
AcDbLine
 10
3.081692913385826
 20
6.413385826771653
 30
0.0
 11
3.27263779527559
 21
6.472440944881889
 31
0.0
  0
LINE
  5
20DD
330
1E
100
AcDbEntity
  8
7
100
AcDbLine
 10
3.244094488188976
 20
6.48523622047244
 30
0.0
 11
3.27263779527559
 21
6.472440944881889
 31
0.0
  0
LINE
  5
20DE
330
1E
100
AcDbEntity
  8
7
100
AcDbLine
 10
3.469488188976378
 20
6.532480314960629
 30
0.0
 11
3.46751968503937
 21
6.408464566929134
 31
0.0
  0
LINE
  5
20DF
330
1E
100
AcDbEntity
  8
7
100
AcDbLine
 10
3.469488188976378
 20
6.532480314960629
 30
0.0
 11
3.441929133858267
 21
6.545275590551181
 31
0.0
  0
LINE
  5
20E0
330
1E
100
AcDbEntity
  8
7
100
AcDbLine
 10
3.447834645669291
 20
6.417322834645669
 30
0.0
 11
3.441929133858267
 21
6.545275590551181
 31
0.0
  0
LINE
  5
20E1
330
1E
100
AcDbEntity
  8
7
100
AcDbLine
 10
3.665354330708661
 20
6.468503937007874
 30
0.0
 11
3.660433070866141
 21
6.590551181102362
 31
0.0
  0
LINE
  5
20E2
330
1E
100
AcDbEntity
  8
7
100
AcDbLine
 10
3.469488188976378
 20
6.532480314960629
 30
0.0
 11
3.660433070866141
 21
6.590551181102362
 31
0.0
  0
LINE
  5
20E3
330
1E
100
AcDbEntity
  8
7
100
AcDbLine
 10
3.631889763779527
 20
6.603346456692913
 30
0.0
 11
3.660433070866141
 21
6.590551181102362
 31
0.0
  0
LINE
  5
20E4
330
1E
100
AcDbEntity
  8
7
100
AcDbLine
 10
3.96259842519685
 20
6.704724409448818
 30
0.0
 11
3.969488188976378
 21
6.576771653543307
 31
0.0
  0
LINE
  5
20E5
330
1E
100
AcDbEntity
  8
7
100
AcDbLine
 10
3.991141732283464
 20
6.691929133858267
 30
0.0
 11
3.96259842519685
 21
6.704724409448818
 31
0.0
  0
LINE
  5
20E6
330
1E
100
AcDbEntity
  8
7
100
AcDbLine
 10
4.122047244094487
 20
6.752952755905512
 30
0.0
 11
3.96259842519685
 21
6.704724409448818
 31
0.0
  0
LINE
  5
20EC
330
1E
100
AcDbEntity
  8
7
100
AcDbLine
 10
3.756889763779527
 20
6.654527559055118
 30
0.0
 11
3.770669291338582
 21
6.648622047244094
 31
0.0
  0
LINE
  5
20ED
330
1E
100
AcDbEntity
  8
7
100
AcDbLine
 10
3.756889763779527
 20
6.654527559055118
 30
0.0
 11
3.749015748031496
 21
6.655511811023622
 31
0.0
  0
LINE
  5
20EE
330
1E
100
AcDbEntity
  8
7
100
AcDbLine
 10
3.68503937007874
 20
6.635826771653543
 30
0.0
 11
3.749015748031496
 21
6.655511811023622
 31
0.0
  0
LINE
  5
20FA
330
1E
100
AcDbEntity
  8
7
100
AcDbLine
 10
3.778543307086614
 20
6.648622047244094
 30
0.0
 11
3.96259842519685
 21
6.704724409448818
 31
0.0
  0
LINE
  5
20FB
330
1E
100
AcDbEntity
  8
7
100
AcDbLine
 10
3.631889763779527
 20
6.603346456692913
 30
0.0
 11
3.683070866141732
 21
6.619094488188976
 31
0.0
  0
LINE
  5
20FC
330
1E
100
AcDbEntity
  8
7
100
AcDbLine
 10
3.631889763779527
 20
6.603346456692913
 30
0.0
 11
3.441929133858267
 21
6.545275590551181
 31
0.0
  0
LINE
  5
20FD
330
1E
100
AcDbEntity
  8
7
100
AcDbLine
 10
2.980314960629921
 20
6.417322834645669
 30
0.0
 11
2.994094488188976
 21
6.411417322834645
 31
0.0
  0
LINE
  5
20FE
330
1E
100
AcDbEntity
  8
7
100
AcDbLine
 10
2.980314960629921
 20
6.417322834645669
 30
0.0
 11
2.972440944881889
 21
6.418307086614173
 31
0.0
  0
LINE
  5
20FF
330
1E
100
AcDbEntity
  8
7
100
AcDbLine
 10
2.908464566929133
 20
6.398622047244094
 30
0.0
 11
2.972440944881889
 21
6.418307086614173
 31
0.0
  0
LINE
  5
2100
330
1E
100
AcDbEntity
  8
7
100
AcDbLine
 10
2.908464566929133
 20
6.383858267716535
 30
0.0
 11
2.906496062992125
 21
6.381889763779527
 31
0.0
  0
LINE
  5
2101
330
1E
100
AcDbEntity
  8
7
100
AcDbLine
 10
3.001968503937007
 20
6.411417322834645
 30
0.0
 11
2.906496062992125
 21
6.381889763779527
 31
0.0
  0
LINE
  5
2102
330
1E
100
AcDbEntity
  8
7
100
AcDbLine
 10
3.001968503937007
 20
6.411417322834645
 30
0.0
 11
2.994094488188976
 21
6.411417322834645
 31
0.0
  0
LINE
  5
2103
330
1E
100
AcDbEntity
  8
7
100
AcDbLine
 10
3.053149606299212
 20
6.427165354330708
 30
0.0
 11
3.001968503937007
 21
6.411417322834645
 31
0.0
  0
LINE
  5
2104
330
1E
100
AcDbEntity
  8
7
100
AcDbLine
 10
2.906496062992125
 20
6.381889763779527
 30
0.0
 11
2.731299212598425
 21
6.328740157480314
 31
0.0
  0
LINE
  5
2114
330
1E
100
AcDbEntity
  8
7
100
AcDbLine
 10
3.770669291338582
 20
6.648622047244094
 30
0.0
 11
3.770669291338582
 21
6.780511811023622
 31
0.0
  0
LINE
  5
211B
330
1E
100
AcDbEntity
  8
7
100
AcDbLine
 10
3.659448818897637
 20
6.76279527559055
 30
0.0
 11
3.68011811023622
 21
6.752952755905512
 31
0.0
  0
LINE
  5
2121
330
1E
100
AcDbEntity
  8
7
100
AcDbLine
 10
3.683070866141732
 20
6.619094488188976
 30
0.0
 11
3.68011811023622
 21
6.75
 31
0.0
  0
LINE
  5
2127
330
1E
100
AcDbEntity
  8
7
100
AcDbLine
 10
2.994094488188976
 20
6.411417322834645
 30
0.0
 11
2.994094488188976
 21
6.543307086614173
 31
0.0
  0
LINE
  5
212E
330
1E
100
AcDbEntity
  8
7
100
AcDbLine
 10
2.882874015748031
 20
6.525590551181102
 30
0.0
 11
2.903543307086614
 21
6.515748031496062
 31
0.0
  0
LINE
  5
2134
330
1E
100
AcDbEntity
  8
7
100
AcDbLine
 10
2.563976377952756
 20
6.405511811023622
 30
0.0
 11
3.303149606299212
 21
6.06496062992126
 31
0.0
  0
LINE
  5
2135
330
1E
100
AcDbEntity
  8
7
100
AcDbLine
 10
4.157480314960629
 20
6.737204724409449
 30
0.0
 11
4.157480314960629
 21
6.615157480314961
 31
0.0
  0
LINE
  5
2136
330
1E
100
AcDbEntity
  8
7
100
AcDbLine
 10
3.51771653543307
 20
6.126968503937008
 30
0.0
 11
3.312007874015748
 21
6.063976377952755
 31
0.0
  0
LINE
  5
2137
330
1E
100
AcDbEntity
  8
7
100
AcDbLine
 10
3.526574803149606
 20
6.126968503937008
 30
0.0
 11
3.547244094488188
 21
6.117125984251968
 31
0.0
  0
LINE
  5
213F
330
1E
100
AcDbEntity
  8
7
100
AcDbLine
 10
4.039370078740157
 20
6.286417322834645
 30
0.0
 11
3.617125984251968
 21
6.157480314960629
 31
0.0
  0
LINE
  5
2140
330
1E
100
AcDbEntity
  8
7
100
AcDbLine
 10
4.067913385826771
 20
6.276574803149606
 30
0.0
 11
4.047244094488188
 21
6.286417322834645
 31
0.0
  0
LINE
  5
2141
330
1E
100
AcDbEntity
  8
7
100
AcDbLine
 10
4.157480314960629
 20
6.301181102362204
 30
0.0
 11
4.076771653543307
 21
6.276574803149606
 31
0.0
  0
LINE
  5
2142
330
1E
100
AcDbEntity
  8
7
100
AcDbLine
 10
4.158464566929134
 20
6.301181102362204
 30
0.0
 11
4.158464566929134
 21
6.304133858267716
 31
0.0
  0
LINE
  5
2143
330
1E
100
AcDbEntity
  8
7
100
AcDbLine
 10
4.13779527559055
 20
6.313976377952755
 30
0.0
 11
4.158464566929134
 21
6.304133858267716
 31
0.0
  0
LINE
  5
2144
330
1E
100
AcDbEntity
  8
7
100
AcDbLine
 10
4.13779527559055
 20
6.313976377952755
 30
0.0
 11
4.136811023622047
 21
6.294291338582676
 31
0.0
  0
LINE
  5
2145
330
1E
100
AcDbEntity
  8
7
100
AcDbLine
 10
4.560039370078739
 20
6.445866141732283
 30
0.0
 11
4.138779527559055
 21
6.316929133858267
 31
0.0
  0
LINE
  5
2146
330
1E
100
AcDbEntity
  8
7
100
AcDbLine
 10
4.589566929133858
 20
6.436023622047244
 30
0.0
 11
4.567913385826771
 21
6.444881889763779
 31
0.0
  0
LINE
  5
2147
330
1E
100
AcDbEntity
  8
7
100
AcDbLine
 10
4.678149606299212
 20
6.459645669291338
 30
0.0
 11
4.597440944881889
 21
6.435039370078739
 31
0.0
  0
LINE
  5
2148
330
1E
100
AcDbEntity
  8
7
100
AcDbLine
 10
4.679133858267716
 20
6.460629921259842
 30
0.0
 11
4.679133858267716
 21
6.463582677165354
 31
0.0
  0
LINE
  5
2149
330
1E
100
AcDbEntity
  8
7
100
AcDbLine
 10
4.658464566929134
 20
6.472440944881889
 30
0.0
 11
4.679133858267716
 21
6.463582677165354
 31
0.0
  0
LINE
  5
214A
330
1E
100
AcDbEntity
  8
7
100
AcDbLine
 10
4.658464566929134
 20
6.472440944881889
 30
0.0
 11
4.658464566929134
 21
6.453740157480314
 31
0.0
  0
LINE
  5
214B
330
1E
100
AcDbEntity
  8
7
100
AcDbLine
 10
4.865157480314961
 20
6.539370078740157
 30
0.0
 11
4.659448818897637
 21
6.476377952755905
 31
0.0
  0
LINE
  5
215C
330
1E
100
AcDbEntity
  8
7
100
AcDbLine
 10
4.047244094488188
 20
6.286417322834645
 30
0.0
 11
4.039370078740157
 21
6.286417322834645
 31
0.0
  0
LINE
  5
215D
330
1E
100
AcDbEntity
  8
7
100
AcDbLine
 10
4.138779527559055
 20
6.316929133858267
 30
0.0
 11
4.13779527559055
 21
6.313976377952755
 31
0.0
  0
LINE
  5
215E
330
1E
100
AcDbEntity
  8
7
100
AcDbLine
 10
4.567913385826771
 20
6.444881889763779
 30
0.0
 11
4.560039370078739
 21
6.445866141732283
 31
0.0
  0
LINE
  5
215F
330
1E
100
AcDbEntity
  8
7
100
AcDbLine
 10
4.659448818897637
 20
6.476377952755905
 30
0.0
 11
4.658464566929134
 21
6.472440944881889
 31
0.0
  0
LINE
  5
2160
330
1E
100
AcDbEntity
  8
7
100
AcDbLine
 10
3.68011811023622
 20
6.75
 30
0.0
 11
3.68011811023622
 21
6.752952755905512
 31
0.0
  0
LINE
  5
2161
330
1E
100
AcDbEntity
  8
7
100
AcDbLine
 10
3.770669291338582
 20
6.780511811023622
 30
0.0
 11
3.779527559055118
 21
6.780511811023622
 31
0.0
  0
LINE
  5
2162
330
1E
100
AcDbEntity
  8
7
100
AcDbLine
 10
2.903543307086614
 20
6.51279527559055
 30
0.0
 11
2.903543307086614
 21
6.515748031496062
 31
0.0
  0
LINE
  5
2163
330
1E
100
AcDbEntity
  8
7
100
AcDbLine
 10
2.994094488188976
 20
6.543307086614173
 30
0.0
 11
3.002952755905512
 21
6.543307086614173
 31
0.0
  0
LINE
  5
2164
330
1E
100
AcDbEntity
  8
7
100
AcDbLine
 10
3.526574803149606
 20
6.126968503937008
 30
0.0
 11
3.51771653543307
 21
6.126968503937008
 31
0.0
  0
LINE
  5
2165
330
1E
100
AcDbEntity
  8
7
100
AcDbLine
 10
3.617125984251968
 20
6.157480314960629
 30
0.0
 11
3.617125984251968
 21
6.154527559055118
 31
0.0
  0
LINE
  5
2166
330
1E
100
AcDbEntity
  8
7
100
AcDbLine
 10
1.942913385826771
 20
6.791338582677165
 30
0.0
 11
1.878937007874015
 21
6.771653543307087
 31
0.0
  0
LINE
  5
2167
330
1E
100
AcDbEntity
  8
7
100
AcDbLine
 10
1.878937007874015
 20
6.756889763779527
 30
0.0
 11
1.876968503937007
 21
6.754921259842519
 31
0.0
  0
LINE
  5
2168
330
1E
100
AcDbEntity
  8
7
100
AcDbLine
 10
1.972440944881889
 20
6.784448818897637
 30
0.0
 11
1.876968503937007
 21
6.754921259842519
 31
0.0
  0
LINE
  5
216F
330
1E
100
AcDbEntity
  8
7
100
AcDbLine
 10
2.156496062992125
 20
6.840551181102362
 30
0.0
 11
2.184055118110236
 21
6.827755905511811
 31
0.0
  0
LINE
  5
2170
330
1E
100
AcDbEntity
  8
7
100
AcDbLine
 10
2.375
 20
6.885826771653543
 30
0.0
 11
2.184055118110236
 21
6.827755905511811
 31
0.0
  0
LINE
  5
2171
330
1E
100
AcDbEntity
  8
7
100
AcDbLine
 10
2.375
 20
6.885826771653543
 30
0.0
 11
2.346456692913386
 21
6.898622047244094
 31
0.0
  0
LINE
  5
2172
330
1E
100
AcDbEntity
  8
7
100
AcDbLine
 10
2.156496062992125
 20
6.840551181102362
 30
0.0
 11
2.346456692913386
 21
6.898622047244094
 31
0.0
  0
LINE
  5
2179
330
1E
100
AcDbEntity
  8
7
100
AcDbLine
 10
2.399606299212598
 20
6.916338582677165
 30
0.0
 11
2.39763779527559
 21
6.914370078740157
 31
0.0
  0
LINE
  5
217A
330
1E
100
AcDbEntity
  8
7
100
AcDbLine
 10
2.493110236220472
 20
6.943897637795275
 30
0.0
 11
2.39763779527559
 21
6.914370078740157
 31
0.0
  0
LINE
  5
217B
330
1E
100
AcDbEntity
  8
7
100
AcDbLine
 10
2.493110236220472
 20
6.943897637795275
 30
0.0
 11
2.485236220472441
 21
6.943897637795275
 31
0.0
  0
LINE
  5
217C
330
1E
100
AcDbEntity
  8
7
100
AcDbLine
 10
2.544291338582677
 20
6.959645669291338
 30
0.0
 11
2.572834645669291
 21
6.945866141732283
 31
0.0
  0
LINE
  5
217D
330
1E
100
AcDbEntity
  8
7
100
AcDbLine
 10
2.763779527559055
 20
7.004921259842519
 30
0.0
 11
2.572834645669291
 21
6.945866141732283
 31
0.0
  0
LINE
  5
217E
330
1E
100
AcDbEntity
  8
7
100
AcDbLine
 10
2.735236220472441
 20
7.017716535433071
 30
0.0
 11
2.763779527559055
 21
7.004921259842519
 31
0.0
  0
LINE
  5
217F
330
1E
100
AcDbEntity
  8
7
100
AcDbLine
 10
2.544291338582677
 20
6.959645669291338
 30
0.0
 11
2.735236220472441
 21
7.017716535433071
 31
0.0
  0
LINE
  5
2180
330
1E
100
AcDbEntity
  8
7
100
AcDbLine
 10
2.993110236220472
 20
7.109251968503937
 30
0.0
 11
3.005905511811023
 21
7.103346456692912
 31
0.0
  0
LINE
  5
2181
330
1E
100
AcDbEntity
  8
7
100
AcDbLine
 10
2.993110236220472
 20
7.109251968503937
 30
0.0
 11
2.984251968503937
 21
7.109251968503937
 31
0.0
  0
LINE
  5
2182
330
1E
100
AcDbEntity
  8
7
100
AcDbLine
 10
2.920275590551181
 20
7.089566929133858
 30
0.0
 11
2.984251968503937
 21
7.109251968503937
 31
0.0
  0
LINE
  5
2183
330
1E
100
AcDbEntity
  8
7
100
AcDbLine
 10
2.921259842519685
 20
7.075787401574802
 30
0.0
 11
2.918307086614173
 21
7.073818897637795
 31
0.0
  0
LINE
  5
2184
330
1E
100
AcDbEntity
  8
7
100
AcDbLine
 10
3.014763779527559
 20
7.103346456692912
 30
0.0
 11
2.918307086614173
 21
7.073818897637795
 31
0.0
  0
LINE
  5
2185
330
1E
100
AcDbEntity
  8
7
100
AcDbLine
 10
3.014763779527559
 20
7.103346456692912
 30
0.0
 11
3.005905511811023
 21
7.103346456692912
 31
0.0
  0
LINE
  5
2186
330
1E
100
AcDbEntity
  8
7
100
AcDbLine
 10
3.064960629921259
 20
7.118110236220472
 30
0.0
 11
3.225393700787401
 21
7.167322834645669
 31
0.0
  0
LINE
  5
2187
330
1E
100
AcDbEntity
  8
7
100
AcDbLine
 10
3.093503937007874
 20
7.105314960629921
 30
0.0
 11
3.064960629921259
 21
7.118110236220472
 31
0.0
  0
LINE
  5
2188
330
1E
100
AcDbEntity
  8
7
100
AcDbLine
 10
3.24507874015748
 20
7.151574803149606
 30
0.0
 11
3.093503937007874
 21
7.105314960629921
 31
0.0
  0
LINE
  5
2193
330
1E
100
AcDbEntity
  8
7
100
AcDbLine
 10
2.895669291338582
 20
7.220472440944881
 30
0.0
 11
2.896653543307086
 21
7.216535433070865
 31
0.0
  0
LINE
  5
2194
330
1E
100
AcDbEntity
  8
7
100
AcDbLine
 10
2.895669291338582
 20
7.216535433070865
 30
0.0
 11
2.916338582677165
 21
7.20767716535433
 31
0.0
  0
LINE
  5
2195
330
1E
100
AcDbEntity
  8
7
100
AcDbLine
 10
2.915354330708661
 20
7.203740157480314
 30
0.0
 11
2.916338582677165
 21
7.20767716535433
 31
0.0
  0
LINE
  5
2196
330
1E
100
AcDbEntity
  8
7
100
AcDbLine
 10
2.918307086614173
 20
7.073818897637795
 30
0.0
 11
2.915354330708661
 21
7.203740157480314
 31
0.0
  0
LINE
  5
2197
330
1E
100
AcDbEntity
  8
7
100
AcDbLine
 10
2.494094488188976
 20
7.075787401574802
 30
0.0
 11
2.915354330708661
 21
7.203740157480314
 31
0.0
  0
LINE
  5
2198
330
1E
100
AcDbEntity
  8
7
100
AcDbLine
 10
2.494094488188976
 20
7.075787401574802
 30
0.0
 11
2.493110236220472
 21
6.943897637795275
 31
0.0
  0
LINE
  5
2199
330
1E
100
AcDbEntity
  8
7
100
AcDbLine
 10
2.493110236220472
 20
6.943897637795275
 30
0.0
 11
2.544291338582677
 21
6.959645669291338
 31
0.0
  0
LINE
  5
219A
330
1E
100
AcDbEntity
  8
7
100
AcDbLine
 10
2.735236220472441
 20
7.017716535433071
 30
0.0
 11
2.918307086614173
 21
7.073818897637795
 31
0.0
  0
LINE
  5
219B
330
1E
100
AcDbEntity
  8
7
100
AcDbLine
 10
2.485236220472441
 20
7.075787401574802
 30
0.0
 11
2.494094488188976
 21
7.075787401574802
 31
0.0
  0
LINE
  5
219C
330
1E
100
AcDbEntity
  8
7
100
AcDbLine
 10
2.485236220472441
 20
6.943897637795275
 30
0.0
 11
2.485236220472441
 21
7.075787401574802
 31
0.0
  0
LINE
  5
219D
330
1E
100
AcDbEntity
  8
7
100
AcDbLine
 10
2.464566929133858
 20
7.085629921259842
 30
0.0
 11
2.485236220472441
 21
7.075787401574802
 31
0.0
  0
LINE
  5
219E
330
1E
100
AcDbEntity
  8
7
100
AcDbLine
 10
2.464566929133858
 20
7.085629921259842
 30
0.0
 11
2.472440944881889
 21
6.949803149606299
 31
0.0
  0
LINE
  5
219F
330
1E
100
AcDbEntity
  8
7
100
AcDbLine
 10
2.463582677165354
 20
6.950787401574802
 30
0.0
 11
2.455708661417323
 21
7.085629921259842
 31
0.0
  0
LINE
  5
21A0
330
1E
100
AcDbEntity
  8
7
100
AcDbLine
 10
2.375
 20
7.061023622047244
 30
0.0
 11
2.455708661417323
 21
7.085629921259842
 31
0.0
  0
LINE
  5
21A1
330
1E
100
AcDbEntity
  8
7
100
AcDbLine
 10
2.375
 20
7.061023622047244
 30
0.0
 11
2.375984251968504
 21
7.057086614173228
 31
0.0
  0
LINE
  5
21A2
330
1E
100
AcDbEntity
  8
7
100
AcDbLine
 10
2.395669291338582
 20
7.048228346456692
 30
0.0
 11
2.374015748031496
 21
7.058070866141732
 31
0.0
  0
LINE
  5
21A3
330
1E
100
AcDbEntity
  8
7
100
AcDbLine
 10
2.394685039370078
 20
7.045275590551181
 30
0.0
 11
2.395669291338582
 21
7.048228346456692
 31
0.0
  0
LINE
  5
21A4
330
1E
100
AcDbEntity
  8
7
100
AcDbLine
 10
2.39763779527559
 20
6.914370078740157
 30
0.0
 11
2.394685039370078
 21
7.045275590551181
 31
0.0
  0
LINE
  5
21A5
330
1E
100
AcDbEntity
  8
7
100
AcDbLine
 10
1.972440944881889
 20
6.916338582677165
 30
0.0
 11
2.394685039370078
 21
7.045275590551181
 31
0.0
  0
LINE
  5
21A6
330
1E
100
AcDbEntity
  8
7
100
AcDbLine
 10
1.972440944881889
 20
6.916338582677165
 30
0.0
 11
1.972440944881889
 21
6.784448818897637
 31
0.0
  0
LINE
  5
21A7
330
1E
100
AcDbEntity
  8
7
100
AcDbLine
 10
2.156496062992125
 20
6.840551181102362
 30
0.0
 11
1.972440944881889
 21
6.784448818897637
 31
0.0
  0
LINE
  5
21A8
330
1E
100
AcDbEntity
  8
7
100
AcDbLine
 10
2.346456692913386
 20
6.898622047244094
 30
0.0
 11
2.39763779527559
 21
6.914370078740157
 31
0.0
  0
LINE
  5
21A9
330
1E
100
AcDbEntity
  8
7
100
AcDbLine
 10
1.964566929133858
 20
6.916338582677165
 30
0.0
 11
1.972440944881889
 21
6.916338582677165
 31
0.0
  0
LINE
  5
21AA
330
1E
100
AcDbEntity
  8
7
100
AcDbLine
 10
1.964566929133858
 20
6.784448818897637
 30
0.0
 11
1.964566929133858
 21
6.916338582677165
 31
0.0
  0
LINE
  5
21AB
330
1E
100
AcDbEntity
  8
7
100
AcDbLine
 10
1.943897637795275
 20
6.926181102362204
 30
0.0
 11
1.964566929133858
 21
6.916338582677165
 31
0.0
  0
LINE
  5
21AC
330
1E
100
AcDbEntity
  8
7
100
AcDbLine
 10
1.943897637795275
 20
6.926181102362204
 30
0.0
 11
1.950787401574802
 21
6.791338582677165
 31
0.0
  0
LINE
  5
21AD
330
1E
100
AcDbEntity
  8
7
100
AcDbLine
 10
1.854330708661417
 20
6.901574803149606
 30
0.0
 11
1.93503937007874
 21
6.926181102362204
 31
0.0
  0
LINE
  5
21AE
330
1E
100
AcDbEntity
  8
7
100
AcDbLine
 10
1.854330708661417
 20
6.901574803149606
 30
0.0
 11
1.854330708661417
 21
6.898622047244094
 31
0.0
  0
LINE
  5
21AF
330
1E
100
AcDbEntity
  8
7
100
AcDbLine
 10
1.942913385826771
 20
6.791338582677165
 30
0.0
 11
1.93503937007874
 21
6.926181102362204
 31
0.0
  0
LINE
  5
21B0
330
1E
100
AcDbEntity
  8
7
100
AcDbLine
 10
1.874015748031495
 20
6.888779527559055
 30
0.0
 11
1.853346456692913
 21
6.898622047244094
 31
0.0
  0
LINE
  5
21B1
330
1E
100
AcDbEntity
  8
7
100
AcDbLine
 10
1.873031496062991
 20
6.885826771653543
 30
0.0
 11
1.874015748031495
 21
6.888779527559055
 31
0.0
  0
LINE
  5
21B2
330
1E
100
AcDbEntity
  8
7
100
AcDbLine
 10
1.876968503937007
 20
6.754921259842519
 30
0.0
 11
1.873031496062991
 21
6.885826771653543
 31
0.0
  0
LINE
  5
21B3
330
1E
100
AcDbEntity
  8
7
100
AcDbLine
 10
1.667322834645669
 20
6.822834645669291
 30
0.0
 11
1.873031496062991
 21
6.885826771653543
 31
0.0
  0
LINE
  5
21B4
330
1E
100
AcDbEntity
  8
7
100
AcDbLine
 10
1.876968503937007
 20
6.754921259842519
 30
0.0
 11
1.834645669291338
 21
6.742125984251968
 31
0.0
  0
LINE
  5
21BC
330
1E
100
AcDbEntity
  8
7
100
AcDbLine
 10
2.415354330708661
 20
6.478346456692913
 30
0.0
 11
2.753937007874015
 21
6.581692913385826
 31
0.0
  0
LINE
  5
21BD
330
1E
100
AcDbEntity
  8
7
100
AcDbLine
 10
2.761811023622047
 20
6.581692913385826
 30
0.0
 11
2.753937007874015
 21
6.581692913385826
 31
0.0
  0
LINE
  5
21BE
330
1E
100
AcDbEntity
  8
7
100
AcDbLine
 10
2.761811023622047
 20
6.581692913385826
 30
0.0
 11
2.78248031496063
 21
6.571850393700787
 31
0.0
  0
LINE
  5
21BF
330
1E
100
AcDbEntity
  8
7
100
AcDbLine
 10
2.791338582677165
 20
6.570866141732283
 30
0.0
 11
2.872047244094488
 21
6.596456692913386
 31
0.0
  0
LINE
  5
21C6
330
1E
100
AcDbEntity
  8
7
100
AcDbLine
 10
2.853346456692913
 20
6.612204724409449
 30
0.0
 11
2.852362204724409
 21
6.609251968503937
 31
0.0
  0
LINE
  5
21C7
330
1E
100
AcDbEntity
  8
7
100
AcDbLine
 10
2.853346456692913
 20
6.612204724409449
 30
0.0
 11
3.530511811023622
 21
6.818897637795275
 31
0.0
  0
LINE
  5
21C8
330
1E
100
AcDbEntity
  8
7
100
AcDbLine
 10
3.538385826771653
 20
6.818897637795275
 30
0.0
 11
3.530511811023622
 21
6.818897637795275
 31
0.0
  0
LINE
  5
21C9
330
1E
100
AcDbEntity
  8
7
100
AcDbLine
 10
3.538385826771653
 20
6.818897637795275
 30
0.0
 11
3.559055118110236
 21
6.809055118110236
 31
0.0
  0
LINE
  5
21CA
330
1E
100
AcDbEntity
  8
7
100
AcDbLine
 10
3.567913385826771
 20
6.809055118110236
 30
0.0
 11
3.648622047244094
 21
6.833661417322834
 31
0.0
  0
LINE
  5
21D1
330
1E
100
AcDbEntity
  8
7
100
AcDbLine
 10
3.629921259842519
 20
6.849409448818897
 30
0.0
 11
3.628937007874015
 21
6.846456692913386
 31
0.0
  0
LINE
  5
21D2
330
1E
100
AcDbEntity
  8
7
100
AcDbLine
 10
3.629921259842519
 20
6.849409448818897
 30
0.0
 11
3.968503937007874
 21
6.952755905511811
 31
0.0
  0
LINE
  5
21E8
330
1E
100
AcDbEntity
  8
7
100
AcDbLine
 10
3.014763779527559
 20
7.234251968503937
 30
0.0
 11
3.220472440944881
 21
7.297244094488188
 31
0.0
  0
LINE
  5
21EE
330
1E
100
AcDbEntity
  8
7
100
AcDbLine
 10
3.005905511811023
 20
7.23523622047244
 30
0.0
 11
3.014763779527559
 21
7.234251968503937
 31
0.0
  0
LINE
  5
21F5
330
1E
100
AcDbEntity
  8
7
100
AcDbLine
 10
1.666338582677165
 20
6.819881889763779
 30
0.0
 11
2.406496062992125
 21
6.478346456692913
 31
0.0
  0
LINE
  5
21F6
330
1E
100
AcDbEntity
  8
7
100
AcDbLine
 10
2.162401574803149
 20
6.71259842519685
 30
0.0
 11
2.156496062992125
 21
6.840551181102362
 31
0.0
  0
LINE
  5
21F7
330
1E
100
AcDbEntity
  8
7
100
AcDbLine
 10
2.182086614173228
 20
6.703740157480314
 30
0.0
 11
2.184055118110236
 21
6.827755905511811
 31
0.0
  0
LINE
  5
21F8
330
1E
100
AcDbEntity
  8
7
100
AcDbLine
 10
2.375
 20
6.885826771653543
 30
0.0
 11
2.379921259842519
 21
6.763779527559055
 31
0.0
  0
LINE
  5
21F9
330
1E
100
AcDbEntity
  8
7
100
AcDbLine
 10
2.551181102362204
 20
6.831692913385826
 30
0.0
 11
2.544291338582677
 21
6.959645669291338
 31
0.0
  0
LINE
  5
21FA
330
1E
100
AcDbEntity
  8
7
100
AcDbLine
 10
2.570866141732283
 20
6.821850393700787
 30
0.0
 11
2.572834645669291
 21
6.945866141732283
 31
0.0
  0
LINE
  5
21FB
330
1E
100
AcDbEntity
  8
7
100
AcDbLine
 10
2.763779527559055
 20
7.004921259842519
 30
0.0
 11
2.768700787401574
 21
6.882874015748031
 31
0.0
  0
LINE
  5
21FC
330
1E
100
AcDbEntity
  8
7
100
AcDbLine
 10
3.064960629921259
 20
7.118110236220472
 30
0.0
 11
3.071850393700787
 21
6.990157480314961
 31
0.0
  0
LINE
  5
21FD
330
1E
100
AcDbEntity
  8
7
100
AcDbLine
 10
3.090551181102362
 20
6.982283464566929
 30
0.0
 11
3.093503937007874
 21
7.105314960629921
 31
0.0
  0
LINE
  5
21FE
330
1E
100
AcDbEntity
  8
7
100
AcDbLine
 10
3.24507874015748
 20
7.029527559055118
 30
0.0
 11
3.24507874015748
 21
7.151574803149606
 31
0.0
  0
LINE
  5
21FF
330
1E
100
AcDbEntity
  8
7
100
AcDbLine
 10
3.260826771653543
 20
7.150590551181102
 30
0.0
 11
3.260826771653543
 21
7.028543307086613
 31
0.0
  0
LINE
  5
2200
330
1E
100
AcDbEntity
  8
7
100
AcDbLine
 10
3.720472440944881
 20
7.203740157480314
 30
0.0
 11
3.746062992125984
 21
7.209645669291338
 31
0.0
  0
LINE
  5
225A
330
1E
100
AcDbEntity
  8
7
100
AcDbLine
 10
2.669291338582677
 20
6.224409448818898
 30
0.0
 11
2.695866141732283
 21
6.230314960629921
 31
0.0
  0
LINE
  5
227D
330
1E
100
AcDbEntity
  8
7
100
AcDbLine
 10
3.047244094488188
 20
5.878937007874015
 30
0.0
 11
5.40255905511811
 21
6.598425196850393
 31
0.0
  0
LINE
  5
227E
330
1E
100
AcDbEntity
  8
7
100
AcDbLine
 10
3.649606299212598
 20
6.836614173228346
 30
0.0
 11
3.648622047244094
 21
6.833661417322834
 31
0.0
  0
LINE
  5
227F
330
1E
100
AcDbEntity
  8
7
100
AcDbLine
 10
3.567913385826771
 20
6.809055118110236
 30
0.0
 11
3.559055118110236
 21
6.809055118110236
 31
0.0
  0
LINE
  5
2280
330
1E
100
AcDbEntity
  8
7
100
AcDbLine
 10
2.873031496062992
 20
6.599409448818897
 30
0.0
 11
2.872047244094488
 21
6.596456692913386
 31
0.0
  0
LINE
  5
2281
330
1E
100
AcDbEntity
  8
7
100
AcDbLine
 10
2.791338582677165
 20
6.570866141732283
 30
0.0
 11
2.78248031496063
 21
6.571850393700787
 31
0.0
  0
LINE
  5
2282
330
1E
100
AcDbEntity
  8
7
100
AcDbLine
 10
1.853346456692913
 20
6.898622047244094
 30
0.0
 11
1.854330708661417
 21
6.901574803149606
 31
0.0
  0
LINE
  5
2283
330
1E
100
AcDbEntity
  8
7
100
AcDbLine
 10
1.93503937007874
 20
6.926181102362204
 30
0.0
 11
1.943897637795275
 21
6.926181102362204
 31
0.0
  0
LINE
  5
2284
330
1E
100
AcDbEntity
  8
7
100
AcDbLine
 10
2.374015748031496
 20
7.058070866141732
 30
0.0
 11
2.375
 21
7.061023622047244
 31
0.0
  0
LINE
  5
2285
330
1E
100
AcDbEntity
  8
7
100
AcDbLine
 10
2.455708661417323
 20
7.085629921259842
 30
0.0
 11
2.464566929133858
 21
7.085629921259842
 31
0.0
  0
LINE
  5
2286
330
1E
100
AcDbEntity
  8
7
100
AcDbLine
 10
2.895669291338582
 20
7.216535433070865
 30
0.0
 11
2.895669291338582
 21
7.220472440944881
 31
0.0
  0
LINE
  5
2287
330
1E
100
AcDbEntity
  8
7
100
AcDbLine
 10
2.977362204724409
 20
7.24507874015748
 30
0.0
 11
2.985236220472441
 21
7.244094488188976
 31
0.0
  0
LINE
  5
2288
330
1E
100
AcDbEntity
  8
7
100
AcDbLine
 10
2.882874015748031
 20
6.525590551181102
 30
0.0
 11
2.883858267716535
 21
6.528543307086613
 31
0.0
  0
LINE
  5
2289
330
1E
100
AcDbEntity
  8
7
100
AcDbLine
 10
2.964566929133858
 20
6.553149606299212
 30
0.0
 11
2.973425196850394
 21
6.553149606299212
 31
0.0
  0
LINE
  5
228A
330
1E
100
AcDbEntity
  8
7
100
AcDbLine
 10
3.659448818897637
 20
6.76279527559055
 30
0.0
 11
3.660433070866141
 21
6.765748031496062
 31
0.0
  0
LINE
  5
228B
330
1E
100
AcDbEntity
  8
7
100
AcDbLine
 10
3.741141732283464
 20
6.790354330708661
 30
0.0
 11
3.75
 21
6.790354330708661
 31
0.0
  0
LINE
  5
228C
330
1E
100
AcDbEntity
  8
7
100
AcDbLine
 10
4.679133858267716
 20
6.463582677165354
 30
0.0
 11
4.678149606299212
 21
6.459645669291338
 31
0.0
  0
LINE
  5
228D
330
1E
100
AcDbEntity
  8
7
100
AcDbLine
 10
4.597440944881889
 20
6.435039370078739
 30
0.0
 11
4.589566929133858
 21
6.436023622047244
 31
0.0
  0
LINE
  5
228E
330
1E
100
AcDbEntity
  8
7
100
AcDbLine
 10
4.158464566929134
 20
6.304133858267716
 30
0.0
 11
4.157480314960629
 21
6.301181102362204
 31
0.0
  0
LINE
  5
228F
330
1E
100
AcDbEntity
  8
7
100
AcDbLine
 10
4.076771653543307
 20
6.276574803149606
 30
0.0
 11
4.067913385826771
 21
6.276574803149606
 31
0.0
  0
LINE
  5
2290
330
1E
100
AcDbEntity
  8
7
100
AcDbLine
 10
3.637795275590551
 20
6.144685039370078
 30
0.0
 11
3.636811023622047
 21
6.141732283464566
 31
0.0
  0
LINE
  5
2291
330
1E
100
AcDbEntity
  8
7
100
AcDbLine
 10
3.556102362204724
 20
6.117125984251968
 30
0.0
 11
3.547244094488188
 21
6.117125984251968
 31
0.0
  0
LINE
  5
22B7
330
1E
100
AcDbEntity
  8
7
100
AcDbLine
 10
5.40255905511811
 20
6.598425196850393
 30
0.0
 11
5.447834645669291
 21
6.595472440944881
 31
0.0
  0
LINE
  5
22CC
330
1E
100
AcDbEntity
  8
7
100
AcDbLine
 10
4.756889763779527
 20
6.780511811023622
 30
0.0
 11
4.76279527559055
 21
6.768700787401574
 31
0.0
  0
LINE
  5
22E4
330
1E
100
AcDbEntity
  8
7
100
AcDbLine
 10
0.921259842519685
 20
6.603346456692913
 30
0.0
 11
2.994094488188976
 21
5.646653543307087
 31
0.0
  0
LINE
  5
22EF
330
1E
100
AcDbEntity
  8
7
100
AcDbLine
 10
3.496062992125984
 20
7.49507874015748
 30
0.0
 11
3.485236220472441
 21
7.483267716535433
 31
0.0
  0
LINE
  5
230F
330
1E
100
AcDbEntity
  8
7
100
AcDbLine
 10
1.988188976377952
 20
6.594488188976377
 30
0.0
 11
1.996062992125984
 21
6.583661417322834
 31
0.0
  0
LINE
  5
2325
330
1E
100
AcDbEntity
  8
7
100
AcDbLine
 10
4.138779527559055
 20
3.650590551181102
 30
0.0
 11
4.172244094488188
 21
3.634842519685039
 31
0.0
  0
LINE
  5
2326
330
1E
100
AcDbEntity
  8
7
100
AcDbLine
 10
4.138779527559055
 20
3.650590551181102
 30
0.0
 11
3.781496062992125
 21
3.541338582677165
 31
0.0
  0
LINE
  5
2327
330
1E
100
AcDbEntity
  8
7
100
AcDbLine
 10
3.813976377952755
 20
3.525590551181102
 30
0.0
 11
3.781496062992125
 21
3.541338582677165
 31
0.0
  0
LINE
  5
2328
330
1E
100
AcDbEntity
  8
7
100
AcDbLine
 10
4.172244094488188
 20
3.634842519685039
 30
0.0
 11
3.813976377952755
 21
3.525590551181102
 31
0.0
  0
LINE
  5
2329
330
1E
100
AcDbEntity
  8
7
100
AcDbLine
 10
4.172244094488188
 20
3.634842519685039
 30
0.0
 11
4.171259842519685
 21
3.608267716535433
 31
0.0
  0
LINE
  5
232A
330
1E
100
AcDbEntity
  8
7
100
AcDbLine
 10
3.814960629921259
 20
3.5
 30
0.0
 11
3.813976377952755
 21
3.525590551181102
 31
0.0
  0
LINE
  5
232B
330
1E
100
AcDbEntity
  8
7
100
AcDbLine
 10
4.171259842519685
 20
3.608267716535433
 30
0.0
 11
3.814960629921259
 21
3.5
 31
0.0
  0
LINE
  5
232C
330
1E
100
AcDbEntity
  8
7
100
AcDbLine
 10
4.094488188976377
 20
3.458661417322834
 30
0.0
 11
3.749015748031496
 21
3.353346456692913
 31
0.0
  0
LINE
  5
232D
330
1E
100
AcDbEntity
  8
7
100
AcDbLine
 10
4.094488188976377
 20
3.458661417322834
 30
0.0
 11
4.171259842519685
 21
3.608267716535433
 31
0.0
  0
LINE
  5
232E
330
1E
100
AcDbEntity
  8
7
100
AcDbLine
 10
3.814960629921259
 20
3.5
 30
0.0
 11
3.749015748031496
 21
3.353346456692913
 31
0.0
  0
LINE
  5
232F
330
1E
100
AcDbEntity
  8
7
100
AcDbLine
 10
2.295275590551181
 20
4.133858267716535
 30
0.0
 11
2.34251968503937
 21
4.001968503937007
 31
0.0
  0
LINE
  5
2330
330
1E
100
AcDbEntity
  8
7
100
AcDbLine
 10
2.515748031496062
 20
4.032480314960629
 30
0.0
 11
2.372047244094488
 21
3.988188976377952
 31
0.0
  0
LINE
  5
2331
330
1E
100
AcDbEntity
  8
7
100
AcDbLine
 10
2.34251968503937
 20
4.001968503937007
 30
0.0
 11
2.372047244094488
 21
3.988188976377952
 31
0.0
  0
LINE
  5
2332
330
1E
100
AcDbEntity
  8
7
100
AcDbLine
 10
3.439960629921259
 20
3.691929133858267
 30
0.0
 11
3.377952755905512
 21
3.720472440944881
 31
0.0
  0
LINE
  5
2333
330
1E
100
AcDbEntity
  8
7
100
AcDbLine
 10
3.505905511811023
 20
3.711614173228346
 30
0.0
 11
3.439960629921259
 21
3.691929133858267
 31
0.0
  0
LINE
  5
2334
330
1E
100
AcDbEntity
  8
7
100
AcDbLine
 10
2.025590551181102
 20
4.344488188976377
 30
0.0
 11
1.963582677165354
 21
4.373031496062992
 31
0.0
  0
LINE
  5
2335
330
1E
100
AcDbEntity
  8
7
100
AcDbLine
 10
4.473425196850393
 20
4.007874015748031
 30
0.0
 11
4.407480314960629
 21
3.987204724409449
 31
0.0
  0
LINE
  5
2336
330
1E
100
AcDbEntity
  8
7
100
AcDbLine
 10
4.407480314960629
 20
3.987204724409449
 30
0.0
 11
4.346456692913386
 21
4.015748031496062
 31
0.0
  0
LINE
  5
2337
330
1E
100
AcDbEntity
  8
7
100
AcDbLine
 10
3.749015748031496
 20
3.353346456692913
 30
0.0
 11
3.719488188976378
 21
3.367125984251968
 31
0.0
  0
LINE
  5
2338
330
1E
100
AcDbEntity
  8
7
100
AcDbLine
 10
3.378937007874015
 20
3.634842519685039
 30
0.0
 11
3.710629921259842
 21
3.736220472440944
 31
0.0
  0
LINE
  5
2339
330
1E
100
AcDbEntity
  8
7
100
AcDbLine
 10
2.02755905511811
 20
4.257874015748031
 30
0.0
 11
3.378937007874015
 21
3.634842519685039
 31
0.0
  0
LINE
  5
233A
330
1E
100
AcDbEntity
  8
7
100
AcDbLine
 10
3.040354330708661
 20
4.530511811023622
 30
0.0
 11
3.24015748031496
 21
4.437992125984251
 31
0.0
  0
LINE
  5
233B
330
1E
100
AcDbEntity
  8
7
100
AcDbLine
 10
2.719488188976378
 20
4.432086614173228
 30
0.0
 11
3.040354330708661
 21
4.530511811023622
 31
0.0
  0
LINE
  5
233C
330
1E
100
AcDbEntity
  8
7
100
AcDbLine
 10
2.677165354330708
 20
4.451771653543307
 30
0.0
 11
2.719488188976378
 21
4.432086614173228
 31
0.0
  0
LINE
  5
233D
330
1E
100
AcDbEntity
  8
7
100
AcDbLine
 10
3.477362204724409
 20
4.328740157480314
 30
0.0
 11
3.812007874015748
 21
4.174212598425197
 31
0.0
  0
LINE
  5
233E
330
1E
100
AcDbEntity
  8
7
100
AcDbLine
 10
4.142716535433071
 20
3.868110236220472
 30
0.0
 11
4.409448818897637
 21
3.949803149606299
 31
0.0
  0
LINE
  5
2344
330
1E
100
AcDbEntity
  8
7
100
AcDbLine
 10
4.218503937007874
 20
3.929133858267716
 30
0.0
 11
4.156496062992125
 21
3.957677165354331
 31
0.0
  0
LINE
  5
2345
330
1E
100
AcDbEntity
  8
7
100
AcDbLine
 10
4.218503937007874
 20
3.929133858267716
 30
0.0
 11
4.284448818897637
 21
3.949803149606299
 31
0.0
  0
LINE
  5
2346
330
1E
100
AcDbEntity
  8
7
100
AcDbLine
 10
4.407480314960629
 20
3.987204724409449
 30
0.0
 11
4.407480314960629
 21
4.118110236220472
 31
0.0
  0
LINE
  5
2347
330
1E
100
AcDbEntity
  8
7
100
AcDbLine
 10
4.346456692913386
 20
4.015748031496062
 30
0.0
 11
4.345472440944882
 21
4.099409448818898
 31
0.0
  0
LINE
  5
2348
330
1E
100
AcDbEntity
  8
7
100
AcDbLine
 10
3.698818897637795
 20
3.901574803149606
 30
0.0
 11
3.695866141732283
 21
3.769685039370078
 31
0.0
  0
LINE
  5
234E
330
1E
100
AcDbEntity
  8
7
100
AcDbLine
 10
1.963582677165354
 20
4.373031496062992
 30
0.0
 11
1.960629921259842
 21
4.504921259842519
 31
0.0
  0
LINE
  5
234F
330
1E
100
AcDbEntity
  8
7
100
AcDbLine
 10
2.02755905511811
 20
4.257874015748031
 30
0.0
 11
2.025590551181102
 21
4.344488188976377
 31
0.0
  0
LINE
  5
2350
330
1E
100
AcDbEntity
  8
7
100
AcDbLine
 10
3.377952755905512
 20
3.720472440944881
 30
0.0
 11
3.378937007874015
 21
3.634842519685039
 31
0.0
  0
LINE
  5
2351
330
1E
100
AcDbEntity
  8
7
100
AcDbLine
 10
3.704724409448818
 20
3.734251968503937
 30
0.0
 11
3.719488188976378
 21
3.367125984251968
 31
0.0
  0
LINE
  5
2357
330
1E
100
AcDbEntity
  8
7
100
AcDbLine
 10
2.718503937007874
 20
4.630905511811024
 30
0.0
 11
2.719488188976378
 21
4.432086614173228
 31
0.0
  0
LINE
  5
2358
330
1E
100
AcDbEntity
  8
7
100
AcDbLine
 10
3.040354330708661
 20
4.530511811023622
 30
0.0
 11
3.039370078740157
 21
4.684055118110236
 31
0.0
  0
LINE
  5
2359
330
1E
100
AcDbEntity
  8
7
100
AcDbLine
 10
3.130905511811023
 20
4.703740157480314
 30
0.0
 11
3.237204724409449
 21
4.655511811023622
 31
0.0
  0
LINE
  5
235A
330
1E
100
AcDbEntity
  8
7
100
AcDbLine
 10
2.677165354330708
 20
4.451771653543307
 30
0.0
 11
2.677165354330708
 21
4.618110236220472
 31
0.0
  0
LINE
  5
235B
330
1E
100
AcDbEntity
  8
7
100
AcDbLine
 10
2.37007874015748
 20
4.099409448818898
 30
0.0
 11
2.372047244094488
 21
3.988188976377952
 31
0.0
  0
LINE
  5
235C
330
1E
100
AcDbEntity
  8
7
100
AcDbLine
 10
2.728346456692913
 20
4.366141732283464
 30
0.0
 11
2.731299212598425
 21
4.436023622047244
 31
0.0
  0
LINE
  5
235D
330
1E
100
AcDbEntity
  8
7
100
AcDbLine
 10
2.466535433070866
 20
4.487204724409449
 30
0.0
 11
2.468503937007874
 21
4.554133858267716
 31
0.0
  0
LINE
  5
235E
330
1E
100
AcDbEntity
  8
7
100
AcDbLine
 10
3.541338582677165
 20
4.299212598425197
 30
0.0
 11
3.531496062992125
 21
4.088582677165354
 31
0.0
  0
LINE
  5
235F
330
1E
100
AcDbEntity
  8
7
100
AcDbLine
 10
4.473425196850393
 20
4.007874015748031
 30
0.0
 11
4.477362204724409
 21
4.138779527559055
 31
0.0
  0
LINE
  5
2360
330
1E
100
AcDbEntity
  8
7
100
AcDbLine
 10
4.409448818897637
 20
3.949803149606299
 30
0.0
 11
4.410433070866141
 21
3.988188976377952
 31
0.0
  0
LINE
  5
2361
330
1E
100
AcDbEntity
  8
7
100
AcDbLine
 10
3.710629921259842
 20
3.736220472440944
 30
0.0
 11
3.707677165354331
 21
3.903543307086614
 31
0.0
  0
LINE
  5
2362
330
1E
100
AcDbEntity
  8
7
100
AcDbLine
 10
3.765748031496062
 20
3.924212598425196
 30
0.0
 11
3.781496062992125
 21
3.541338582677165
 31
0.0
  0
LINE
  5
2363
330
1E
100
AcDbEntity
  8
7
100
AcDbLine
 10
3.509842519685039
 20
3.843503937007874
 30
0.0
 11
3.505905511811023
 21
3.711614173228346
 31
0.0
  0
LINE
  5
2364
330
1E
100
AcDbEntity
  8
7
100
AcDbLine
 10
3.629921259842519
 20
3.75
 30
0.0
 11
3.628937007874015
 21
3.879921259842519
 31
0.0
  0
LINE
  5
2365
330
1E
100
AcDbEntity
  8
7
100
AcDbLine
 10
3.567913385826771
 20
3.778543307086614
 30
0.0
 11
3.567913385826771
 21
3.861220472440944
 31
0.0
  0
LINE
  5
2366
330
1E
100
AcDbEntity
  8
7
100
AcDbLine
 10
4.138779527559055
 20
3.650590551181102
 30
0.0
 11
4.145669291338582
 21
4.040354330708661
 31
0.0
  0
LINE
  5
2367
330
1E
100
AcDbEntity
  8
7
100
AcDbLine
 10
4.21751968503937
 20
4.060039370078739
 30
0.0
 11
4.218503937007874
 21
3.929133858267716
 31
0.0
  0
LINE
  5
2368
330
1E
100
AcDbEntity
  8
7
100
AcDbLine
 10
4.156496062992125
 20
3.957677165354331
 30
0.0
 11
4.156496062992125
 21
4.043307086614173
 31
0.0
  0
LINE
  5
236E
330
1E
100
AcDbEntity
  8
7
100
AcDbLine
 10
4.477362204724409
 20
4.138779527559055
 30
0.0
 11
4.407480314960629
 21
4.118110236220472
 31
0.0
  0
LINE
  5
236F
330
1E
100
AcDbEntity
  8
7
100
AcDbLine
 10
3.509842519685039
 20
3.843503937007874
 30
0.0
 11
3.439960629921259
 21
3.821850393700787
 31
0.0
  0
LINE
  5
2370
330
1E
100
AcDbEntity
  8
7
100
AcDbLine
 10
3.698818897637795
 20
3.901574803149606
 30
0.0
 11
3.628937007874015
 21
3.879921259842519
 31
0.0
  0
LINE
  5
2371
330
1E
100
AcDbEntity
  8
7
100
AcDbLine
 10
3.732283464566929
 20
4.426181102362204
 30
0.0
 11
3.838582677165354
 21
4.377952755905512
 31
0.0
  0
LINE
  5
2372
330
1E
100
AcDbEntity
  8
7
100
AcDbLine
 10
3.482283464566929
 20
4.542322834645669
 30
0.0
 11
3.513779527559055
 21
4.52755905511811
 31
0.0
  0
LINE
  5
2373
330
1E
100
AcDbEntity
  8
7
100
AcDbLine
 10
3.482283464566929
 20
4.542322834645669
 30
0.0
 11
3.477362204724409
 21
4.328740157480314
 31
0.0
  0
LINE
  5
2379
330
1E
100
AcDbEntity
  8
7
100
AcDbLine
 10
2.981299212598425
 20
4.710629921259842
 30
0.0
 11
2.379921259842519
 21
4.52755905511811
 31
0.0
  0
LINE
  5
237A
330
1E
100
AcDbEntity
  8
7
100
AcDbLine
 10
3.628937007874015
 20
3.879921259842519
 30
0.0
 11
3.509842519685039
 21
3.843503937007874
 31
0.0
  0
LINE
  5
237B
330
1E
100
AcDbEntity
  8
7
100
AcDbLine
 10
4.407480314960629
 20
4.118110236220472
 30
0.0
 11
4.287401574803149
 21
4.081692913385826
 31
0.0
  0
LINE
  5
2381
330
1E
100
AcDbEntity
  8
7
100
AcDbLine
 10
4.145669291338582
 20
4.040354330708661
 30
0.0
 11
4.184055118110236
 21
4.052165354330708
 31
0.0
  0
LINE
  5
2387
330
1E
100
AcDbEntity
  8
7
100
AcDbLine
 10
3.83759842519685
 20
4.43011811023622
 30
0.0
 11
3.841535433070866
 21
4.183070866141732
 31
0.0
  0
LINE
  5
238D
330
1E
100
AcDbEntity
  8
7
100
AcDbLine
 10
4.116141732283464
 20
4.302165354330708
 30
0.0
 11
4.078740157480314
 21
4.318897637795275
 31
0.0
  0
LINE
  5
238E
330
1E
100
AcDbEntity
  8
7
100
AcDbLine
 10
3.477362204724409
 20
4.596456692913386
 30
0.0
 11
3.482283464566929
 21
4.542322834645669
 31
0.0
  0
LINE
  5
238F
330
1E
100
AcDbEntity
  8
7
100
AcDbLine
 10
3.477362204724409
 20
4.596456692913386
 30
0.0
 11
3.446850393700787
 21
4.062992125984251
 31
0.0
  0
LINE
  5
2390
330
1E
100
AcDbEntity
  8
7
100
AcDbLine
 10
3.236220472440944
 20
4.70767716535433
 30
0.0
 11
3.244094488188976
 21
4.127952755905512
 31
0.0
  0
LINE
  5
2391
330
1E
100
AcDbEntity
  8
7
100
AcDbLine
 10
3.236220472440944
 20
4.70767716535433
 30
0.0
 11
3.125
 21
4.758858267716535
 31
0.0
  0
LINE
  5
2392
330
1E
100
AcDbEntity
  8
7
100
AcDbLine
 10
3.130905511811023
 20
4.703740157480314
 30
0.0
 11
3.125
 21
4.758858267716535
 31
0.0
  0
LINE
  5
2393
330
1E
100
AcDbEntity
  8
7
100
AcDbLine
 10
2.716535433070866
 20
4.861220472440945
 30
0.0
 11
2.250984251968504
 21
4.719488188976377
 31
0.0
  0
LINE
  5
2394
330
1E
100
AcDbEntity
  8
7
100
AcDbLine
 10
3.729330708661417
 20
3.913385826771653
 30
0.0
 11
3.765748031496062
 21
3.924212598425196
 31
0.0
  0
LINE
  5
239A
330
1E
100
AcDbEntity
  8
7
100
AcDbLine
 10
2.250984251968504
 20
4.719488188976377
 30
0.0
 11
2.247047244094488
 21
4.720472440944882
 31
0.0
  0
LINE
  5
239B
330
1E
100
AcDbEntity
  8
7
100
AcDbLine
 10
2.71259842519685
 20
4.863188976377952
 30
0.0
 11
2.71259842519685
 21
4.86023622047244
 31
0.0
  0
LINE
  5
239C
330
1E
100
AcDbEntity
  8
7
100
AcDbLine
 10
2.71259842519685
 20
4.863188976377952
 30
0.0
 11
2.716535433070866
 21
4.861220472440945
 31
0.0
  0
LINE
  5
239D
330
1E
100
AcDbEntity
  8
7
100
AcDbLine
 10
3.725393700787401
 20
4.039370078740157
 30
0.0
 11
3.729330708661417
 21
3.910433070866141
 31
0.0
  0
LINE
  5
239E
330
1E
100
AcDbEntity
  8
7
100
AcDbLine
 10
3.721456692913386
 20
4.041338582677164
 30
0.0
 11
3.725393700787401
 21
4.039370078740157
 31
0.0
  0
LINE
  5
23A9
330
1E
100
AcDbEntity
  8
7
100
AcDbLine
 10
2.71259842519685
 20
4.863188976377952
 30
0.0
 11
2.998031496062992
 21
4.949803149606299
 31
0.0
  0
LINE
  5
23AA
330
1E
100
AcDbEntity
  8
7
100
AcDbLine
 10
3.729330708661417
 20
3.910433070866141
 30
0.0
 11
3.698818897637795
 21
3.901574803149606
 31
0.0
  0
LINE
  5
23AB
330
1E
100
AcDbEntity
  8
7
100
AcDbLine
 10
3.725393700787401
 20
4.039370078740157
 30
0.0
 11
3.439960629921259
 21
3.951771653543307
 31
0.0
  0
LINE
  5
23AC
330
1E
100
AcDbEntity
  8
7
100
AcDbLine
 10
3.439960629921259
 20
3.821850393700787
 30
0.0
 11
3.439960629921259
 21
3.951771653543307
 31
0.0
  0
LINE
  5
23B2
330
1E
100
AcDbEntity
  8
7
100
AcDbLine
 10
2.981299212598425
 20
4.710629921259842
 30
0.0
 11
2.985236220472441
 21
4.765748031496062
 31
0.0
  0
LINE
  5
23B3
330
1E
100
AcDbEntity
  8
7
100
AcDbLine
 10
2.31003937007874
 20
4.559055118110236
 30
0.0
 11
2.985236220472441
 21
4.765748031496062
 31
0.0
  0
LINE
  5
23B4
330
1E
100
AcDbEntity
  8
7
100
AcDbLine
 10
3.049212598425196
 20
4.679133858267716
 30
0.0
 11
3.049212598425196
 21
4.736220472440945
 31
0.0
  0
LINE
  5
23BA
330
1E
100
AcDbEntity
  8
7
100
AcDbLine
 10
3.514763779527559
 20
4.579724409448818
 30
0.0
 11
3.477362204724409
 21
4.596456692913386
 31
0.0
  0
LINE
  5
23BB
330
1E
100
AcDbEntity
  8
7
100
AcDbLine
 10
3.514763779527559
 20
4.464566929133858
 30
0.0
 11
3.513779527559055
 21
4.521653543307087
 31
0.0
  0
LINE
  5
23BC
330
1E
100
AcDbEntity
  8
7
100
AcDbLine
 10
3.650590551181102
 20
4.401574803149606
 30
0.0
 11
3.650590551181102
 21
4.458661417322834
 31
0.0
  0
LINE
  5
23BD
330
1E
100
AcDbEntity
  8
7
100
AcDbLine
 10
3.513779527559055
 20
4.521653543307087
 30
0.0
 11
3.650590551181102
 21
4.458661417322834
 31
0.0
  0
LINE
  5
23BE
330
1E
100
AcDbEntity
  8
7
100
AcDbLine
 10
3.732283464566929
 20
4.426181102362204
 30
0.0
 11
3.726377952755905
 21
4.482283464566929
 31
0.0
  0
LINE
  5
23BF
330
1E
100
AcDbEntity
  8
7
100
AcDbLine
 10
3.650590551181102
 20
4.458661417322834
 30
0.0
 11
3.726377952755905
 21
4.482283464566929
 31
0.0
  0
LINE
  5
23C0
330
1E
100
AcDbEntity
  8
7
100
AcDbLine
 10
3.83759842519685
 20
4.43011811023622
 30
0.0
 11
3.726377952755905
 21
4.482283464566929
 31
0.0
  0
LINE
  5
23C1
330
1E
100
AcDbEntity
  8
7
100
AcDbLine
 10
4.116141732283464
 20
4.315944881889763
 30
0.0
 11
4.115157480314961
 21
4.266732283464566
 31
0.0
  0
LINE
  5
23C2
330
1E
100
AcDbEntity
  8
7
100
AcDbLine
 10
4.116141732283464
 20
4.315944881889763
 30
0.0
 11
4.18011811023622
 21
4.287401574803149
 31
0.0
  0
LINE
  5
23C3
330
1E
100
AcDbEntity
  8
7
100
AcDbLine
 10
4.18011811023622
 20
4.287401574803149
 30
0.0
 11
3.410433070866141
 21
4.052165354330708
 31
0.0
  0
LINE
  5
23C4
330
1E
100
AcDbEntity
  8
7
100
AcDbLine
 10
2.215551181102362
 20
4.602362204724409
 30
0.0
 11
3.410433070866141
 21
4.052165354330708
 31
0.0
  0
LINE
  5
23C5
330
1E
100
AcDbEntity
  8
7
100
AcDbLine
 10
2.986220472440944
 20
4.83759842519685
 30
0.0
 11
2.215551181102362
 21
4.602362204724409
 31
0.0
  0
LINE
  5
23C6
330
1E
100
AcDbEntity
  8
7
100
AcDbLine
 10
2.986220472440944
 20
4.83759842519685
 30
0.0
 11
2.985236220472441
 21
4.765748031496062
 31
0.0
  0
LINE
  5
23C7
330
1E
100
AcDbEntity
  8
7
100
AcDbLine
 10
3.0501968503937
 20
4.808070866141732
 30
0.0
 11
2.986220472440944
 21
4.83759842519685
 31
0.0
  0
LINE
  5
23C8
330
1E
100
AcDbEntity
  8
7
100
AcDbLine
 10
3.0501968503937
 20
4.808070866141732
 30
0.0
 11
3.049212598425196
 21
4.736220472440945
 31
0.0
  0
LINE
  5
23C9
330
1E
100
AcDbEntity
  8
7
100
AcDbLine
 10
3.125984251968504
 20
4.831692913385826
 30
0.0
 11
3.0501968503937
 21
4.808070866141732
 31
0.0
  0
LINE
  5
23CA
330
1E
100
AcDbEntity
  8
7
100
AcDbLine
 10
3.125984251968504
 20
4.831692913385826
 30
0.0
 11
3.125
 21
4.758858267716535
 31
0.0
  0
LINE
  5
23CB
330
1E
100
AcDbEntity
  8
7
100
AcDbLine
 10
3.125984251968504
 20
4.831692913385826
 30
0.0
 11
3.591535433070866
 21
4.617125984251968
 31
0.0
  0
LINE
  5
23CC
330
1E
100
AcDbEntity
  8
7
100
AcDbLine
 10
3.515748031496062
 20
4.593503937007874
 30
0.0
 11
3.513779527559055
 21
4.521653543307087
 31
0.0
  0
LINE
  5
23CD
330
1E
100
AcDbEntity
  8
7
100
AcDbLine
 10
3.591535433070866
 20
4.617125984251968
 30
0.0
 11
3.515748031496062
 21
4.593503937007874
 31
0.0
  0
LINE
  5
23CE
330
1E
100
AcDbEntity
  8
7
100
AcDbLine
 10
3.650590551181102
 20
4.531496062992125
 30
0.0
 11
3.515748031496062
 21
4.593503937007874
 31
0.0
  0
LINE
  5
23CF
330
1E
100
AcDbEntity
  8
7
100
AcDbLine
 10
3.650590551181102
 20
4.531496062992125
 30
0.0
 11
3.650590551181102
 21
4.458661417322834
 31
0.0
  0
LINE
  5
23D0
330
1E
100
AcDbEntity
  8
7
100
AcDbLine
 10
3.727362204724409
 20
4.554133858267716
 30
0.0
 11
3.650590551181102
 21
4.531496062992125
 31
0.0
  0
LINE
  5
23D1
330
1E
100
AcDbEntity
  8
7
100
AcDbLine
 10
3.727362204724409
 20
4.554133858267716
 30
0.0
 11
3.726377952755905
 21
4.482283464566929
 31
0.0
  0
LINE
  5
23D7
330
1E
100
AcDbEntity
  8
7
100
AcDbLine
 10
3.439960629921259
 20
3.951771653543307
 30
0.0
 11
1.961614173228346
 21
4.633858267716535
 31
0.0
  0
LINE
  5
23D8
330
1E
100
AcDbEntity
  8
7
100
AcDbLine
 10
2.998031496062992
 20
4.949803149606299
 30
0.0
 11
4.475393700787401
 21
4.268700787401574
 31
0.0
  0
LINE
  5
23E0
330
1E
100
AcDbEntity
  8
7
100
AcDbLine
 10
3.727362204724409
 20
4.554133858267716
 30
0.0
 11
4.192913385826771
 21
4.339566929133858
 31
0.0
  0
LINE
  5
23E1
330
1E
100
AcDbEntity
  8
7
100
AcDbLine
 10
4.192913385826771
 20
4.339566929133858
 30
0.0
 11
4.116141732283464
 21
4.315944881889763
 31
0.0
  0
LINE
  5
23E2
330
1E
100
AcDbEntity
  8
7
100
AcDbLine
 10
2.985236220472441
 20
4.765748031496062
 30
0.0
 11
3.049212598425196
 21
4.736220472440945
 31
0.0
  0
LINE
  5
23E3
330
1E
100
AcDbEntity
  8
7
100
AcDbLine
 10
3.049212598425196
 20
4.736220472440945
 30
0.0
 11
3.125
 21
4.758858267716535
 31
0.0
  0
LINE
  5
23E4
330
1E
100
AcDbEntity
  8
7
100
AcDbLine
 10
4.477362204724409
 20
4.138779527559055
 30
0.0
 11
4.475393700787401
 21
4.268700787401574
 31
0.0
  0
LINE
  5
23E5
330
1E
100
AcDbEntity
  8
7
100
AcDbLine
 10
4.475393700787401
 20
4.268700787401574
 30
0.0
 11
4.18996062992126
 21
4.181102362204724
 31
0.0
  0
LINE
  5
23E6
330
1E
100
AcDbEntity
  8
7
100
AcDbLine
 10
1.960629921259842
 20
4.504921259842519
 30
0.0
 11
1.961614173228346
 21
4.633858267716535
 31
0.0
  0
LINE
  5
23E7
330
1E
100
AcDbEntity
  8
7
100
AcDbLine
 10
1.961614173228346
 20
4.633858267716535
 30
0.0
 11
2.247047244094488
 21
4.720472440944882
 31
0.0
  0
LINE
  5
23E8
330
1E
100
AcDbEntity
  8
7
100
AcDbLine
 10
4.187007874015748
 20
4.0501968503937
 30
0.0
 11
4.18996062992126
 21
4.181102362204724
 31
0.0
  0
LINE
  5
23E9
330
1E
100
AcDbEntity
  8
7
100
AcDbLine
 10
4.18996062992126
 20
4.181102362204724
 30
0.0
 11
4.187007874015748
 21
4.183070866141732
 31
0.0
  0
LINE
  5
23EA
330
1E
100
AcDbEntity
  8
7
100
AcDbLine
 10
4.184055118110236
 20
4.052165354330708
 30
0.0
 11
4.187007874015748
 21
4.183070866141732
 31
0.0
  0
LINE
  5
23EB
330
1E
100
AcDbEntity
  8
7
100
AcDbLine
 10
4.187007874015748
 20
4.183070866141732
 30
0.0
 11
3.721456692913386
 21
4.041338582677164
 31
0.0
  0
LINE
  5
23EC
330
1E
100
AcDbEntity
  8
7
100
AcDbLine
 10
4.083661417322835
 20
4.264763779527559
 30
0.0
 11
4.078740157480314
 21
4.318897637795275
 31
0.0
  0
LINE
  5
23ED
330
1E
100
AcDbEntity
  8
7
100
AcDbLine
 10
4.078740157480314
 20
4.318897637795275
 30
0.0
 11
4.074803149606299
 21
4.254921259842519
 31
0.0
  0
LINE
  5
23EE
330
1E
100
AcDbEntity
  8
7
100
AcDbLine
 10
3.732283464566929
 20
4.426181102362204
 30
0.0
 11
3.650590551181102
 21
4.401574803149606
 31
0.0
  0
LINE
  5
23EF
330
1E
100
AcDbEntity
  8
7
100
AcDbLine
 10
3.650590551181102
 20
4.401574803149606
 30
0.0
 11
3.514763779527559
 21
4.464566929133858
 31
0.0
  0
LINE
  5
23F0
330
1E
100
AcDbEntity
  8
7
100
AcDbLine
 10
4.21751968503937
 20
4.060039370078739
 30
0.0
 11
4.187007874015748
 21
4.0501968503937
 31
0.0
  0
LINE
  5
23F1
330
1E
100
AcDbEntity
  8
7
100
AcDbLine
 10
4.187007874015748
 20
4.0501968503937
 30
0.0
 11
4.184055118110236
 21
4.052165354330708
 31
0.0
  0
LINE
  5
23F2
330
1E
100
AcDbEntity
  8
7
100
AcDbLine
 10
3.130905511811023
 20
4.703740157480314
 30
0.0
 11
3.049212598425196
 21
4.679133858267716
 31
0.0
  0
LINE
  5
23F3
330
1E
100
AcDbEntity
  8
7
100
AcDbLine
 10
3.049212598425196
 20
4.679133858267716
 30
0.0
 11
2.981299212598425
 21
4.710629921259842
 31
0.0
  0
LINE
  5
23F4
330
1E
100
AcDbEntity
  8
7
100
AcDbLine
 10
4.284448818897637
 20
3.949803149606299
 30
0.0
 11
4.287401574803149
 21
4.081692913385826
 31
0.0
  0
LINE
  5
23F5
330
1E
100
AcDbEntity
  8
7
100
AcDbLine
 10
4.287401574803149
 20
4.081692913385826
 30
0.0
 11
4.21751968503937
 21
4.060039370078739
 31
0.0
  0
LINE
  5
23F6
330
1E
100
AcDbEntity
  8
7
100
AcDbLine
 10
4.083661417322835
 20
4.256889763779527
 30
0.0
 11
4.083661417322835
 21
4.264763779527559
 31
0.0
  0
LINE
  5
23F7
330
1E
100
AcDbEntity
  8
7
100
AcDbLine
 10
4.083661417322835
 20
4.264763779527559
 30
0.0
 11
4.093503937007874
 21
4.259842519685039
 31
0.0
  0
LINE
  5
23F8
330
1E
100
AcDbEntity
  8
7
100
AcDbLine
 10
3.439960629921259
 20
3.691929133858267
 30
0.0
 11
3.439960629921259
 21
3.821850393700787
 31
0.0
  0
LINE
  5
23F9
330
1E
100
AcDbEntity
  8
7
100
AcDbLine
 10
3.439960629921259
 20
3.821850393700787
 30
0.0
 11
1.960629921259842
 21
4.504921259842519
 31
0.0
  0
LINE
  5
23FA
330
1E
100
AcDbEntity
  8
7
100
AcDbLine
 10
3.695866141732283
 20
3.769685039370078
 30
0.0
 11
3.629921259842519
 21
3.75
 31
0.0
  0
LINE
  5
23FB
330
1E
100
AcDbEntity
  8
7
100
AcDbLine
 10
3.629921259842519
 20
3.75
 30
0.0
 11
3.567913385826771
 21
3.778543307086614
 31
0.0
  0
LINE
  5
23FC
330
1E
100
AcDbEntity
  8
7
100
AcDbLine
 10
3.679133858267716
 20
7.167322834645669
 30
0.0
 11
3.692913385826771
 21
7.183070866141732
 31
0.0
  0
LINE
  5
23FD
330
1E
100
AcDbEntity
  8
7
100
AcDbLine
 10
3.692913385826771
 20
7.183070866141732
 30
0.0
 11
3.720472440944881
 21
7.194881889763779
 31
0.0
  0
LINE
  5
23FE
330
1E
100
AcDbEntity
  8
7
100
AcDbLine
 10
3.720472440944881
 20
7.194881889763779
 30
0.0
 11
3.746062992125984
 21
7.200787401574802
 31
0.0
  0
LINE
  5
23FF
330
1E
100
AcDbEntity
  8
7
100
AcDbLine
 10
3.746062992125984
 20
7.200787401574802
 30
0.0
 11
3.774606299212598
 21
7.204724409448818
 31
0.0
  0
LINE
  5
2400
330
1E
100
AcDbEntity
  8
7
100
AcDbLine
 10
3.774606299212598
 20
7.204724409448818
 30
0.0
 11
3.80511811023622
 21
7.204724409448818
 31
0.0
  0
LINE
  5
2401
330
1E
100
AcDbEntity
  8
7
100
AcDbLine
 10
3.80511811023622
 20
7.204724409448818
 30
0.0
 11
3.834645669291338
 21
7.201771653543307
 31
0.0
  0
LINE
  5
2402
330
1E
100
AcDbEntity
  8
7
100
AcDbLine
 10
3.834645669291338
 20
7.201771653543307
 30
0.0
 11
3.861220472440944
 21
7.195866141732283
 31
0.0
  0
LINE
  5
2403
330
1E
100
AcDbEntity
  8
7
100
AcDbLine
 10
3.861220472440944
 20
7.195866141732283
 30
0.0
 11
3.881889763779527
 21
7.187992125984251
 31
0.0
  0
LINE
  5
2404
330
1E
100
AcDbEntity
  8
7
100
AcDbLine
 10
3.881889763779527
 20
7.187992125984251
 30
0.0
 11
3.89763779527559
 21
7.178149606299212
 31
0.0
  0
LINE
  5
2405
330
1E
100
AcDbEntity
  8
7
100
AcDbLine
 10
3.89763779527559
 20
7.178149606299212
 30
0.0
 11
3.904527559055118
 21
7.167322834645669
 31
0.0
  0
LINE
  5
2406
330
1E
100
AcDbEntity
  8
7
100
AcDbLine
 10
1.770669291338582
 20
6.584645669291338
 30
0.0
 11
1.783464566929133
 21
6.599409448818897
 31
0.0
  0
LINE
  5
2407
330
1E
100
AcDbEntity
  8
7
100
AcDbLine
 10
1.783464566929133
 20
6.599409448818897
 30
0.0
 11
1.811023622047244
 21
6.612204724409449
 31
0.0
  0
LINE
  5
2408
330
1E
100
AcDbEntity
  8
7
100
AcDbLine
 10
1.811023622047244
 20
6.612204724409449
 30
0.0
 11
1.83759842519685
 21
6.618110236220472
 31
0.0
  0
LINE
  5
2409
330
1E
100
AcDbEntity
  8
7
100
AcDbLine
 10
1.83759842519685
 20
6.618110236220472
 30
0.0
 11
1.866141732283464
 21
6.621062992125984
 31
0.0
  0
LINE
  5
240A
330
1E
100
AcDbEntity
  8
7
100
AcDbLine
 10
1.866141732283464
 20
6.621062992125984
 30
0.0
 11
1.896653543307086
 21
6.621062992125984
 31
0.0
  0
LINE
  5
240B
330
1E
100
AcDbEntity
  8
7
100
AcDbLine
 10
1.896653543307086
 20
6.621062992125984
 30
0.0
 11
1.926181102362204
 21
6.618110236220472
 31
0.0
  0
LINE
  5
240C
330
1E
100
AcDbEntity
  8
7
100
AcDbLine
 10
1.926181102362204
 20
6.618110236220472
 30
0.0
 11
1.951771653543307
 21
6.613188976377952
 31
0.0
  0
LINE
  5
240D
330
1E
100
AcDbEntity
  8
7
100
AcDbLine
 10
1.951771653543307
 20
6.613188976377952
 30
0.0
 11
1.973425196850393
 21
6.604330708661417
 31
0.0
  0
LINE
  5
240E
330
1E
100
AcDbEntity
  8
7
100
AcDbLine
 10
1.973425196850393
 20
6.604330708661417
 30
0.0
 11
1.988188976377952
 21
6.594488188976377
 31
0.0
  0
LINE
  5
240F
330
1E
100
AcDbEntity
  8
7
100
AcDbLine
 10
1.036417322834645
 20
6.754921259842519
 30
0.0
 11
1.081692913385826
 21
6.763779527559055
 31
0.0
  0
LINE
  5
2410
330
1E
100
AcDbEntity
  8
7
100
AcDbLine
 10
1.081692913385826
 20
6.763779527559055
 30
0.0
 11
1.129921259842519
 21
6.76279527559055
 31
0.0
  0
LINE
  5
2411
330
1E
100
AcDbEntity
  8
7
100
AcDbLine
 10
3.485236220472441
 20
7.483267716535433
 30
0.0
 11
3.483267716535433
 21
7.497047244094487
 31
0.0
  0
LINE
  5
2412
330
1E
100
AcDbEntity
  8
7
100
AcDbLine
 10
3.483267716535433
 20
7.497047244094487
 30
0.0
 11
3.480314960629921
 21
7.501968503937008
 31
0.0
  0
LINE
  5
2413
330
1E
100
AcDbEntity
  8
7
100
AcDbLine
 10
1.129921259842519
 20
6.76279527559055
 30
0.0
 11
1.088582677165354
 21
6.759842519685039
 31
0.0
  0
LINE
  5
2414
330
1E
100
AcDbEntity
  8
7
100
AcDbLine
 10
1.088582677165354
 20
6.759842519685039
 30
0.0
 11
1.0501968503937
 21
6.75
 31
0.0
  0
LINE
  5
2415
330
1E
100
AcDbEntity
  8
7
100
AcDbLine
 10
1.0501968503937
 20
6.75
 30
0.0
 11
1.013779527559055
 21
6.734251968503937
 31
0.0
  0
LINE
  5
2416
330
1E
100
AcDbEntity
  8
7
100
AcDbLine
 10
1.013779527559055
 20
6.734251968503937
 30
0.0
 11
0.9822834645669292
 21
6.714566929133858
 31
0.0
  0
LINE
  5
2417
330
1E
100
AcDbEntity
  8
7
100
AcDbLine
 10
0.9822834645669292
 20
6.714566929133858
 30
0.0
 11
0.9557086614173227
 21
6.68996062992126
 31
0.0
  0
LINE
  5
2418
330
1E
100
AcDbEntity
  8
7
100
AcDbLine
 10
0.9557086614173227
 20
6.68996062992126
 30
0.0
 11
0.9370078740157479
 21
6.663385826771653
 31
0.0
  0
LINE
  5
2419
330
1E
100
AcDbEntity
  8
7
100
AcDbLine
 10
0.9370078740157479
 20
6.663385826771653
 30
0.0
 11
0.9251968503937007
 21
6.633858267716535
 31
0.0
  0
LINE
  5
241A
330
1E
100
AcDbEntity
  8
7
100
AcDbLine
 10
0.9251968503937007
 20
6.633858267716535
 30
0.0
 11
0.921259842519685
 21
6.603346456692913
 31
0.0
  0
LINE
  5
241B
330
1E
100
AcDbEntity
  8
7
100
AcDbLine
 10
3.513779527559055
 20
7.499015748031496
 30
0.0
 11
3.504921259842519
 21
7.5
 31
0.0
  0
LINE
  5
241C
330
1E
100
AcDbEntity
  8
7
100
AcDbLine
 10
3.504921259842519
 20
7.5
 30
0.0
 11
3.496062992125984
 21
7.49507874015748
 31
0.0
  0
LINE
  5
241D
330
1E
100
AcDbEntity
  8
7
100
AcDbLine
 10
0.921259842519685
 20
6.603346456692913
 30
0.0
 11
0.9133858267716535
 21
6.608267716535433
 31
0.0
  0
LINE
  5
241E
330
1E
100
AcDbEntity
  8
7
100
AcDbLine
 10
0.9133858267716535
 20
6.608267716535433
 30
0.0
 11
0.9104330708661418
 21
6.613188976377952
 31
0.0
  0
LINE
  5
241F
330
1E
100
AcDbEntity
  8
7
100
AcDbLine
 10
2.627952755905512
 20
6.187007874015748
 30
0.0
 11
2.634842519685039
 21
6.197834645669291
 31
0.0
  0
LINE
  5
2420
330
1E
100
AcDbEntity
  8
7
100
AcDbLine
 10
2.634842519685039
 20
6.197834645669291
 30
0.0
 11
2.648622047244094
 21
6.20767716535433
 31
0.0
  0
LINE
  5
2421
330
1E
100
AcDbEntity
  8
7
100
AcDbLine
 10
2.648622047244094
 20
6.20767716535433
 30
0.0
 11
2.669291338582677
 21
6.216535433070865
 31
0.0
  0
LINE
  5
2422
330
1E
100
AcDbEntity
  8
7
100
AcDbLine
 10
2.669291338582677
 20
6.216535433070865
 30
0.0
 11
2.695866141732283
 21
6.222440944881889
 31
0.0
  0
LINE
  5
2423
330
1E
100
AcDbEntity
  8
7
100
AcDbLine
 10
2.695866141732283
 20
6.222440944881889
 30
0.0
 11
2.725393700787401
 21
6.225393700787401
 31
0.0
  0
LINE
  5
2424
330
1E
100
AcDbEntity
  8
7
100
AcDbLine
 10
2.725393700787401
 20
6.225393700787401
 30
0.0
 11
2.756889763779527
 21
6.225393700787401
 31
0.0
  0
LINE
  5
2425
330
1E
100
AcDbEntity
  8
7
100
AcDbLine
 10
2.756889763779527
 20
6.225393700787401
 30
0.0
 11
2.786417322834645
 21
6.222440944881889
 31
0.0
  0
LINE
  5
2426
330
1E
100
AcDbEntity
  8
7
100
AcDbLine
 10
2.786417322834645
 20
6.222440944881889
 30
0.0
 11
2.812992125984251
 21
6.216535433070865
 31
0.0
  0
LINE
  5
2427
330
1E
100
AcDbEntity
  8
7
100
AcDbLine
 10
2.812992125984251
 20
6.216535433070865
 30
0.0
 11
2.833661417322834
 21
6.20767716535433
 31
0.0
  0
LINE
  5
2428
330
1E
100
AcDbEntity
  8
7
100
AcDbLine
 10
2.833661417322834
 20
6.20767716535433
 30
0.0
 11
2.848425196850394
 21
6.197834645669291
 31
0.0
  0
LINE
  5
2429
330
1E
100
AcDbEntity
  8
7
100
AcDbLine
 10
2.848425196850394
 20
6.197834645669291
 30
0.0
 11
2.854330708661417
 21
6.186023622047244
 31
0.0
  0
LINE
  5
242A
330
1E
100
AcDbEntity
  8
7
100
AcDbLine
 10
4.536417322834645
 20
6.769685039370078
 30
0.0
 11
4.543307086614173
 21
6.780511811023622
 31
0.0
  0
LINE
  5
242B
330
1E
100
AcDbEntity
  8
7
100
AcDbLine
 10
4.543307086614173
 20
6.780511811023622
 30
0.0
 11
4.557086614173228
 21
6.791338582677165
 31
0.0
  0
LINE
  5
242C
330
1E
100
AcDbEntity
  8
7
100
AcDbLine
 10
4.557086614173228
 20
6.791338582677165
 30
0.0
 11
4.577755905511811
 21
6.799212598425197
 31
0.0
  0
LINE
  5
242D
330
1E
100
AcDbEntity
  8
7
100
AcDbLine
 10
4.577755905511811
 20
6.799212598425197
 30
0.0
 11
4.604330708661417
 21
6.80511811023622
 31
0.0
  0
LINE
  5
242E
330
1E
100
AcDbEntity
  8
7
100
AcDbLine
 10
4.604330708661417
 20
6.80511811023622
 30
0.0
 11
4.633858267716535
 21
6.808070866141732
 31
0.0
  0
LINE
  5
242F
330
1E
100
AcDbEntity
  8
7
100
AcDbLine
 10
4.633858267716535
 20
6.808070866141732
 30
0.0
 11
4.665354330708661
 21
6.808070866141732
 31
0.0
  0
LINE
  5
2430
330
1E
100
AcDbEntity
  8
7
100
AcDbLine
 10
4.665354330708661
 20
6.808070866141732
 30
0.0
 11
4.694881889763779
 21
6.80511811023622
 31
0.0
  0
LINE
  5
2431
330
1E
100
AcDbEntity
  8
7
100
AcDbLine
 10
4.694881889763779
 20
6.80511811023622
 30
0.0
 11
4.721456692913386
 21
6.799212598425197
 31
0.0
  0
LINE
  5
2432
330
1E
100
AcDbEntity
  8
7
100
AcDbLine
 10
4.721456692913386
 20
6.799212598425197
 30
0.0
 11
4.742125984251968
 21
6.791338582677165
 31
0.0
  0
LINE
  5
2433
330
1E
100
AcDbEntity
  8
7
100
AcDbLine
 10
4.742125984251968
 20
6.791338582677165
 30
0.0
 11
4.756889763779527
 21
6.780511811023622
 31
0.0
  0
LINE
  5
2434
330
1E
100
AcDbEntity
  8
7
100
AcDbLine
 10
5.622047244094487
 20
6.435039370078739
 30
0.0
 11
5.618110236220472
 21
6.428149606299212
 31
0.0
  0
LINE
  5
2435
330
1E
100
AcDbEntity
  8
7
100
AcDbLine
 10
5.618110236220472
 20
6.428149606299212
 30
0.0
 11
5.605314960629921
 21
6.422244094488188
 31
0.0
  0
LINE
  5
2436
330
1E
100
AcDbEntity
  8
7
100
AcDbLine
 10
5.447834645669291
 20
6.595472440944881
 30
0.0
 11
5.491141732283464
 21
6.585629921259842
 31
0.0
  0
LINE
  5
2437
330
1E
100
AcDbEntity
  8
7
100
AcDbLine
 10
5.491141732283464
 20
6.585629921259842
 30
0.0
 11
5.529527559055118
 21
6.568897637795275
 31
0.0
  0
LINE
  5
2438
330
1E
100
AcDbEntity
  8
7
100
AcDbLine
 10
3.058070866141732
 20
5.643700787401574
 30
0.0
 11
3.036417322834645
 21
5.640748031496062
 31
0.0
  0
LINE
  5
2439
330
1E
100
AcDbEntity
  8
7
100
AcDbLine
 10
3.036417322834645
 20
5.640748031496062
 30
0.0
 11
3.012795275590551
 21
5.641732283464566
 31
0.0
  0
LINE
  5
243A
330
1E
100
AcDbEntity
  8
7
100
AcDbLine
 10
3.012795275590551
 20
5.641732283464566
 30
0.0
 11
2.994094488188976
 21
5.646653543307087
 31
0.0
  0
LINE
  5
243B
330
1E
100
AcDbEntity
  8
7
100
AcDbLine
 10
2.994094488188976
 20
5.646653543307087
 30
0.0
 11
2.99507874015748
 21
5.678149606299212
 31
0.0
  0
LINE
  5
243C
330
1E
100
AcDbEntity
  8
7
100
AcDbLine
 10
2.99507874015748
 20
5.678149606299212
 30
0.0
 11
2.998031496062992
 21
5.711614173228346
 31
0.0
  0
LINE
  5
243D
330
1E
100
AcDbEntity
  8
7
100
AcDbLine
 10
2.998031496062992
 20
5.711614173228346
 30
0.0
 11
3.002952755905512
 21
5.746062992125984
 31
0.0
  0
LINE
  5
243E
330
1E
100
AcDbEntity
  8
7
100
AcDbLine
 10
3.002952755905512
 20
5.746062992125984
 30
0.0
 11
3.009842519685039
 21
5.779527559055118
 31
0.0
  0
LINE
  5
243F
330
1E
100
AcDbEntity
  8
7
100
AcDbLine
 10
3.009842519685039
 20
5.779527559055118
 30
0.0
 11
3.01771653543307
 21
5.810039370078739
 31
0.0
  0
LINE
  5
2440
330
1E
100
AcDbEntity
  8
7
100
AcDbLine
 10
3.01771653543307
 20
5.810039370078739
 30
0.0
 11
3.026574803149606
 21
5.83759842519685
 31
0.0
  0
LINE
  5
2441
330
1E
100
AcDbEntity
  8
7
100
AcDbLine
 10
3.026574803149606
 20
5.83759842519685
 30
0.0
 11
3.036417322834645
 21
5.861220472440945
 31
0.0
  0
LINE
  5
2442
330
1E
100
AcDbEntity
  8
7
100
AcDbLine
 10
3.036417322834645
 20
5.861220472440945
 30
0.0
 11
3.047244094488188
 21
5.878937007874015
 31
0.0
  0
LINE
  5
2443
330
1E
100
AcDbEntity
  8
7
100
AcDbLine
 10
3.053149606299212
 20
5.809055118110236
 30
0.0
 11
3.054133858267716
 21
5.77755905511811
 31
0.0
  0
LINE
  5
2444
330
1E
100
AcDbEntity
  8
7
100
AcDbLine
 10
3.054133858267716
 20
5.77755905511811
 30
0.0
 11
3.056102362204724
 21
5.744094488188976
 31
0.0
  0
LINE
  5
2445
330
1E
100
AcDbEntity
  8
7
100
AcDbLine
 10
3.056102362204724
 20
5.744094488188976
 30
0.0
 11
3.057086614173228
 21
5.709645669291338
 31
0.0
  0
LINE
  5
2446
330
1E
100
AcDbEntity
  8
7
100
AcDbLine
 10
3.057086614173228
 20
5.709645669291338
 30
0.0
 11
3.057086614173228
 21
5.676181102362204
 31
0.0
  0
LINE
  5
2447
330
1E
100
AcDbEntity
  8
7
100
AcDbLine
 10
3.057086614173228
 20
5.676181102362204
 30
0.0
 11
3.058070866141732
 21
5.643700787401574
 31
0.0
  0
LINE
  5
2448
330
1E
100
AcDbEntity
  8
7
100
AcDbLine
 10
3.058070866141732
 20
5.643700787401574
 30
0.0
 11
5.605314960629921
 21
6.422244094488188
 31
0.0
  0
LINE
  5
2449
330
1E
100
AcDbEntity
  8
7
100
AcDbLine
 10
5.605314960629921
 20
6.422244094488188
 30
0.0
 11
5.601377952755905
 21
6.453740157480314
 31
0.0
  0
LINE
  5
244A
330
1E
100
AcDbEntity
  8
7
100
AcDbLine
 10
5.601377952755905
 20
6.453740157480314
 30
0.0
 11
5.590551181102362
 21
6.483267716535433
 31
0.0
  0
LINE
  5
244B
330
1E
100
AcDbEntity
  8
7
100
AcDbLine
 10
5.590551181102362
 20
6.483267716535433
 30
0.0
 11
5.571850393700787
 21
6.51279527559055
 31
0.0
  0
LINE
  5
244C
330
1E
100
AcDbEntity
  8
7
100
AcDbLine
 10
5.571850393700787
 20
6.51279527559055
 30
0.0
 11
5.546259842519685
 21
6.538385826771653
 31
0.0
  0
LINE
  5
244D
330
1E
100
AcDbEntity
  8
7
100
AcDbLine
 10
5.546259842519685
 20
6.538385826771653
 30
0.0
 11
5.515748031496062
 21
6.561023622047244
 31
0.0
  0
LINE
  5
244E
330
1E
100
AcDbEntity
  8
7
100
AcDbLine
 10
5.515748031496062
 20
6.561023622047244
 30
0.0
 11
5.480314960629921
 21
6.578740157480314
 31
0.0
  0
LINE
  5
244F
330
1E
100
AcDbEntity
  8
7
100
AcDbLine
 10
5.480314960629921
 20
6.578740157480314
 30
0.0
 11
5.442913385826771
 21
6.591535433070865
 31
0.0
  0
LINE
  5
2450
330
1E
100
AcDbEntity
  8
7
100
AcDbLine
 10
5.442913385826771
 20
6.591535433070865
 30
0.0
 11
5.40255905511811
 21
6.598425196850393
 31
0.0
  0
LINE
  5
2451
330
1E
100
AcDbEntity
  8
7
100
AcDbLine
 10
3.047244094488188
 20
5.878937007874015
 30
0.0
 11
3.049212598425196
 21
5.86023622047244
 31
0.0
  0
LINE
  5
2452
330
1E
100
AcDbEntity
  8
7
100
AcDbLine
 10
3.049212598425196
 20
5.86023622047244
 30
0.0
 11
3.051181102362204
 21
5.836614173228346
 31
0.0
  0
LINE
  5
2453
330
1E
100
AcDbEntity
  8
7
100
AcDbLine
 10
3.051181102362204
 20
5.836614173228346
 30
0.0
 11
3.053149606299212
 21
5.809055118110236
 31
0.0
  0
LINE
  5
2454
330
1E
100
AcDbEntity
  8
7
100
AcDbLine
 10
5.40255905511811
 20
6.598425196850393
 30
0.0
 11
3.485236220472441
 21
7.483267716535433
 31
0.0
  0
LINE
  5
2455
330
1E
100
AcDbEntity
  8
7
100
AcDbLine
 10
3.485236220472441
 20
7.483267716535433
 30
0.0
 11
1.129921259842519
 21
6.76279527559055
 31
0.0
  0
LINE
  5
2456
330
1E
100
AcDbEntity
  8
7
100
AcDbLine
 10
1.129921259842519
 20
6.76279527559055
 30
0.0
 11
3.047244094488188
 21
5.878937007874015
 31
0.0
  0
LINE
  5
2457
330
1E
100
AcDbEntity
  8
7
100
AcDbLine
 10
2.710629921259842
 20
6.150590551181102
 30
0.0
 11
2.682086614173228
 21
6.154527559055118
 31
0.0
  0
LINE
  5
2458
330
1E
100
AcDbEntity
  8
7
100
AcDbLine
 10
2.682086614173228
 20
6.154527559055118
 30
0.0
 11
2.658464566929133
 21
6.162401574803149
 31
0.0
  0
LINE
  5
2459
330
1E
100
AcDbEntity
  8
7
100
AcDbLine
 10
2.658464566929133
 20
6.162401574803149
 30
0.0
 11
2.639763779527559
 21
6.172244094488188
 31
0.0
  0
LINE
  5
245A
330
1E
100
AcDbEntity
  8
7
100
AcDbLine
 10
2.639763779527559
 20
6.172244094488188
 30
0.0
 11
2.629921259842519
 21
6.183070866141732
 31
0.0
  0
LINE
  5
245B
330
1E
100
AcDbEntity
  8
7
100
AcDbLine
 10
2.629921259842519
 20
6.183070866141732
 30
0.0
 11
2.627952755905512
 21
6.193897637795275
 31
0.0
  0
LINE
  5
245C
330
1E
100
AcDbEntity
  8
7
100
AcDbLine
 10
2.627952755905512
 20
6.193897637795275
 30
0.0
 11
2.633858267716535
 21
6.205708661417323
 31
0.0
  0
LINE
  5
245D
330
1E
100
AcDbEntity
  8
7
100
AcDbLine
 10
2.633858267716535
 20
6.205708661417323
 30
0.0
 11
2.648622047244094
 21
6.215551181102362
 31
0.0
  0
LINE
  5
245E
330
1E
100
AcDbEntity
  8
7
100
AcDbLine
 10
2.648622047244094
 20
6.215551181102362
 30
0.0
 11
2.669291338582677
 21
6.224409448818898
 31
0.0
  0
LINE
  5
245F
330
1E
100
AcDbEntity
  8
7
100
AcDbLine
 10
2.695866141732283
 20
6.230314960629921
 30
0.0
 11
2.725393700787401
 21
6.233267716535433
 31
0.0
  0
LINE
  5
2460
330
1E
100
AcDbEntity
  8
7
100
AcDbLine
 10
2.725393700787401
 20
6.233267716535433
 30
0.0
 11
2.756889763779527
 21
6.233267716535433
 31
0.0
  0
LINE
  5
2461
330
1E
100
AcDbEntity
  8
7
100
AcDbLine
 10
2.756889763779527
 20
6.233267716535433
 30
0.0
 11
2.786417322834645
 21
6.230314960629921
 31
0.0
  0
LINE
  5
2462
330
1E
100
AcDbEntity
  8
7
100
AcDbLine
 10
2.786417322834645
 20
6.230314960629921
 30
0.0
 11
2.812992125984251
 21
6.224409448818898
 31
0.0
  0
LINE
  5
2463
330
1E
100
AcDbEntity
  8
7
100
AcDbLine
 10
2.812992125984251
 20
6.224409448818898
 30
0.0
 11
2.833661417322834
 21
6.215551181102362
 31
0.0
  0
LINE
  5
2464
330
1E
100
AcDbEntity
  8
7
100
AcDbLine
 10
2.833661417322834
 20
6.215551181102362
 30
0.0
 11
2.848425196850394
 21
6.205708661417323
 31
0.0
  0
LINE
  5
2465
330
1E
100
AcDbEntity
  8
7
100
AcDbLine
 10
2.848425196850394
 20
6.205708661417323
 30
0.0
 11
2.854330708661417
 21
6.193897637795275
 31
0.0
  0
LINE
  5
2466
330
1E
100
AcDbEntity
  8
7
100
AcDbLine
 10
2.854330708661417
 20
6.193897637795275
 30
0.0
 11
2.852362204724409
 21
6.183070866141732
 31
0.0
  0
LINE
  5
2467
330
1E
100
AcDbEntity
  8
7
100
AcDbLine
 10
2.852362204724409
 20
6.183070866141732
 30
0.0
 11
2.841535433070866
 21
6.172244094488188
 31
0.0
  0
LINE
  5
2468
330
1E
100
AcDbEntity
  8
7
100
AcDbLine
 10
2.841535433070866
 20
6.172244094488188
 30
0.0
 11
2.823818897637795
 21
6.162401574803149
 31
0.0
  0
LINE
  5
2469
330
1E
100
AcDbEntity
  8
7
100
AcDbLine
 10
2.823818897637795
 20
6.162401574803149
 30
0.0
 11
2.8001968503937
 21
6.154527559055118
 31
0.0
  0
LINE
  5
246A
330
1E
100
AcDbEntity
  8
7
100
AcDbLine
 10
2.8001968503937
 20
6.154527559055118
 30
0.0
 11
2.771653543307086
 21
6.150590551181102
 31
0.0
  0
LINE
  5
246B
330
1E
100
AcDbEntity
  8
7
100
AcDbLine
 10
2.771653543307086
 20
6.150590551181102
 30
0.0
 11
2.741141732283464
 21
6.148622047244094
 31
0.0
  0
LINE
  5
246C
330
1E
100
AcDbEntity
  8
7
100
AcDbLine
 10
2.741141732283464
 20
6.148622047244094
 30
0.0
 11
2.710629921259842
 21
6.150590551181102
 31
0.0
  0
LINE
  5
246D
330
1E
100
AcDbEntity
  8
7
100
AcDbLine
 10
4.733267716535433
 20
6.74507874015748
 30
0.0
 11
4.708661417322834
 21
6.738188976377952
 31
0.0
  0
LINE
  5
246E
330
1E
100
AcDbEntity
  8
7
100
AcDbLine
 10
4.708661417322834
 20
6.738188976377952
 30
0.0
 11
4.68011811023622
 21
6.733267716535433
 31
0.0
  0
LINE
  5
246F
330
1E
100
AcDbEntity
  8
7
100
AcDbLine
 10
4.68011811023622
 20
6.733267716535433
 30
0.0
 11
4.649606299212598
 21
6.732283464566929
 31
0.0
  0
LINE
  5
2470
330
1E
100
AcDbEntity
  8
7
100
AcDbLine
 10
4.649606299212598
 20
6.732283464566929
 30
0.0
 11
4.619094488188976
 21
6.733267716535433
 31
0.0
  0
LINE
  5
2471
330
1E
100
AcDbEntity
  8
7
100
AcDbLine
 10
4.619094488188976
 20
6.733267716535433
 30
0.0
 11
4.590551181102362
 21
6.738188976377952
 31
0.0
  0
LINE
  5
2472
330
1E
100
AcDbEntity
  8
7
100
AcDbLine
 10
4.590551181102362
 20
6.738188976377952
 30
0.0
 11
4.566929133858267
 21
6.74507874015748
 31
0.0
  0
LINE
  5
2473
330
1E
100
AcDbEntity
  8
7
100
AcDbLine
 10
4.566929133858267
 20
6.74507874015748
 30
0.0
 11
4.549212598425197
 21
6.754921259842519
 31
0.0
  0
LINE
  5
2474
330
1E
100
AcDbEntity
  8
7
100
AcDbLine
 10
4.549212598425197
 20
6.754921259842519
 30
0.0
 11
4.538385826771653
 21
6.765748031496062
 31
0.0
  0
LINE
  5
2475
330
1E
100
AcDbEntity
  8
7
100
AcDbLine
 10
4.538385826771653
 20
6.765748031496062
 30
0.0
 11
4.536417322834645
 21
6.77755905511811
 31
0.0
  0
LINE
  5
2476
330
1E
100
AcDbEntity
  8
7
100
AcDbLine
 10
4.536417322834645
 20
6.77755905511811
 30
0.0
 11
4.542322834645669
 21
6.789370078740157
 31
0.0
  0
LINE
  5
2477
330
1E
100
AcDbEntity
  8
7
100
AcDbLine
 10
4.542322834645669
 20
6.789370078740157
 30
0.0
 11
4.557086614173228
 21
6.799212598425197
 31
0.0
  0
LINE
  5
2478
330
1E
100
AcDbEntity
  8
7
100
AcDbLine
 10
4.557086614173228
 20
6.799212598425197
 30
0.0
 11
4.577755905511811
 21
6.808070866141732
 31
0.0
  0
LINE
  5
2479
330
1E
100
AcDbEntity
  8
7
100
AcDbLine
 10
4.577755905511811
 20
6.808070866141732
 30
0.0
 11
4.604330708661417
 21
6.813976377952755
 31
0.0
  0
LINE
  5
247A
330
1E
100
AcDbEntity
  8
7
100
AcDbLine
 10
4.604330708661417
 20
6.813976377952755
 30
0.0
 11
4.633858267716535
 21
6.816929133858267
 31
0.0
  0
LINE
  5
247B
330
1E
100
AcDbEntity
  8
7
100
AcDbLine
 10
4.633858267716535
 20
6.816929133858267
 30
0.0
 11
4.665354330708661
 21
6.816929133858267
 31
0.0
  0
LINE
  5
247C
330
1E
100
AcDbEntity
  8
7
100
AcDbLine
 10
4.665354330708661
 20
6.816929133858267
 30
0.0
 11
4.694881889763779
 21
6.813976377952755
 31
0.0
  0
LINE
  5
247D
330
1E
100
AcDbEntity
  8
7
100
AcDbLine
 10
4.694881889763779
 20
6.813976377952755
 30
0.0
 11
4.721456692913386
 21
6.808070866141732
 31
0.0
  0
LINE
  5
247E
330
1E
100
AcDbEntity
  8
7
100
AcDbLine
 10
4.721456692913386
 20
6.808070866141732
 30
0.0
 11
4.742125984251968
 21
6.799212598425197
 31
0.0
  0
LINE
  5
247F
330
1E
100
AcDbEntity
  8
7
100
AcDbLine
 10
4.742125984251968
 20
6.799212598425197
 30
0.0
 11
4.756889763779527
 21
6.789370078740157
 31
0.0
  0
LINE
  5
2480
330
1E
100
AcDbEntity
  8
7
100
AcDbLine
 10
4.756889763779527
 20
6.789370078740157
 30
0.0
 11
4.76279527559055
 21
6.77755905511811
 31
0.0
  0
LINE
  5
2481
330
1E
100
AcDbEntity
  8
7
100
AcDbLine
 10
4.76279527559055
 20
6.77755905511811
 30
0.0
 11
4.760826771653543
 21
6.765748031496062
 31
0.0
  0
LINE
  5
2482
330
1E
100
AcDbEntity
  8
7
100
AcDbLine
 10
4.760826771653543
 20
6.765748031496062
 30
0.0
 11
4.750984251968503
 21
6.754921259842519
 31
0.0
  0
LINE
  5
2483
330
1E
100
AcDbEntity
  8
7
100
AcDbLine
 10
4.750984251968503
 20
6.754921259842519
 30
0.0
 11
4.733267716535433
 21
6.74507874015748
 31
0.0
  0
LINE
  5
2484
330
1E
100
AcDbEntity
  8
7
100
AcDbLine
 10
1.775590551181102
 20
6.601377952755905
 30
0.0
 11
1.790354330708661
 21
6.612204724409449
 31
0.0
  0
LINE
  5
2485
330
1E
100
AcDbEntity
  8
7
100
AcDbLine
 10
1.790354330708661
 20
6.612204724409449
 30
0.0
 11
1.811023622047244
 21
6.62007874015748
 31
0.0
  0
LINE
  5
2486
330
1E
100
AcDbEntity
  8
7
100
AcDbLine
 10
1.99015748031496
 20
6.601377952755905
 30
0.0
 11
1.996062992125984
 21
6.590551181102362
 31
0.0
  0
LINE
  5
2487
330
1E
100
AcDbEntity
  8
7
100
AcDbLine
 10
1.996062992125984
 20
6.590551181102362
 30
0.0
 11
1.994094488188976
 21
6.578740157480314
 31
0.0
  0
LINE
  5
2488
330
1E
100
AcDbEntity
  8
7
100
AcDbLine
 10
1.994094488188976
 20
6.578740157480314
 30
0.0
 11
1.984251968503936
 21
6.567913385826771
 31
0.0
  0
LINE
  5
2489
330
1E
100
AcDbEntity
  8
7
100
AcDbLine
 10
1.984251968503936
 20
6.567913385826771
 30
0.0
 11
1.966535433070865
 21
6.558070866141732
 31
0.0
  0
LINE
  5
248A
330
1E
100
AcDbEntity
  8
7
100
AcDbLine
 10
1.966535433070865
 20
6.558070866141732
 30
0.0
 11
1.941929133858267
 21
6.551181102362204
 31
0.0
  0
LINE
  5
248B
330
1E
100
AcDbEntity
  8
7
100
AcDbLine
 10
1.941929133858267
 20
6.551181102362204
 30
0.0
 11
1.913385826771653
 21
6.546259842519685
 31
0.0
  0
LINE
  5
248C
330
1E
100
AcDbEntity
  8
7
100
AcDbLine
 10
1.913385826771653
 20
6.546259842519685
 30
0.0
 11
1.882874015748031
 21
6.544291338582676
 31
0.0
  0
LINE
  5
248D
330
1E
100
AcDbEntity
  8
7
100
AcDbLine
 10
1.882874015748031
 20
6.544291338582676
 30
0.0
 11
1.852362204724409
 21
6.546259842519685
 31
0.0
  0
LINE
  5
248E
330
1E
100
AcDbEntity
  8
7
100
AcDbLine
 10
1.852362204724409
 20
6.546259842519685
 30
0.0
 11
1.823818897637795
 21
6.551181102362204
 31
0.0
  0
LINE
  5
248F
330
1E
100
AcDbEntity
  8
7
100
AcDbLine
 10
1.823818897637795
 20
6.551181102362204
 30
0.0
 11
1.8001968503937
 21
6.558070866141732
 31
0.0
  0
LINE
  5
2490
330
1E
100
AcDbEntity
  8
7
100
AcDbLine
 10
1.8001968503937
 20
6.558070866141732
 30
0.0
 11
1.782480314960629
 21
6.567913385826771
 31
0.0
  0
LINE
  5
2491
330
1E
100
AcDbEntity
  8
7
100
AcDbLine
 10
1.782480314960629
 20
6.567913385826771
 30
0.0
 11
1.771653543307086
 21
6.578740157480314
 31
0.0
  0
LINE
  5
2492
330
1E
100
AcDbEntity
  8
7
100
AcDbLine
 10
1.771653543307086
 20
6.578740157480314
 30
0.0
 11
1.769685039370078
 21
6.590551181102362
 31
0.0
  0
LINE
  5
2493
330
1E
100
AcDbEntity
  8
7
100
AcDbLine
 10
1.769685039370078
 20
6.590551181102362
 30
0.0
 11
1.775590551181102
 21
6.601377952755905
 31
0.0
  0
LINE
  5
2494
330
1E
100
AcDbEntity
  8
7
100
AcDbLine
 10
1.811023622047244
 20
6.62007874015748
 30
0.0
 11
1.83759842519685
 21
6.625984251968503
 31
0.0
  0
LINE
  5
2495
330
1E
100
AcDbEntity
  8
7
100
AcDbLine
 10
1.83759842519685
 20
6.625984251968503
 30
0.0
 11
1.867125984251968
 21
6.629921259842519
 31
0.0
  0
LINE
  5
2496
330
1E
100
AcDbEntity
  8
7
100
AcDbLine
 10
1.867125984251968
 20
6.629921259842519
 30
0.0
 11
1.898622047244094
 21
6.629921259842519
 31
0.0
  0
LINE
  5
2497
330
1E
100
AcDbEntity
  8
7
100
AcDbLine
 10
1.898622047244094
 20
6.629921259842519
 30
0.0
 11
1.928149606299212
 21
6.625984251968503
 31
0.0
  0
LINE
  5
2498
330
1E
100
AcDbEntity
  8
7
100
AcDbLine
 10
1.928149606299212
 20
6.625984251968503
 30
0.0
 11
1.954724409448818
 21
6.62007874015748
 31
0.0
  0
LINE
  5
2499
330
1E
100
AcDbEntity
  8
7
100
AcDbLine
 10
1.954724409448818
 20
6.62007874015748
 30
0.0
 11
1.975393700787401
 21
6.612204724409449
 31
0.0
  0
LINE
  5
249A
330
1E
100
AcDbEntity
  8
7
100
AcDbLine
 10
1.975393700787401
 20
6.612204724409449
 30
0.0
 11
1.99015748031496
 21
6.601377952755905
 31
0.0
  0
LINE
  5
249B
330
1E
100
AcDbEntity
  8
7
100
AcDbLine
 10
3.732283464566929
 20
7.133858267716535
 30
0.0
 11
3.708661417322834
 21
7.141732283464566
 31
0.0
  0
LINE
  5
249C
330
1E
100
AcDbEntity
  8
7
100
AcDbLine
 10
3.708661417322834
 20
7.141732283464566
 30
0.0
 11
3.690944881889763
 21
7.150590551181102
 31
0.0
  0
LINE
  5
249D
330
1E
100
AcDbEntity
  8
7
100
AcDbLine
 10
3.690944881889763
 20
7.150590551181102
 30
0.0
 11
3.68011811023622
 21
7.161417322834645
 31
0.0
  0
LINE
  5
249E
330
1E
100
AcDbEntity
  8
7
100
AcDbLine
 10
3.68011811023622
 20
7.161417322834645
 30
0.0
 11
3.678149606299212
 21
7.173228346456692
 31
0.0
  0
LINE
  5
249F
330
1E
100
AcDbEntity
  8
7
100
AcDbLine
 10
3.678149606299212
 20
7.173228346456692
 30
0.0
 11
3.68503937007874
 21
7.185039370078739
 31
0.0
  0
LINE
  5
24A0
330
1E
100
AcDbEntity
  8
7
100
AcDbLine
 10
3.68503937007874
 20
7.185039370078739
 30
0.0
 11
3.698818897637795
 21
7.194881889763779
 31
0.0
  0
LINE
  5
24A1
330
1E
100
AcDbEntity
  8
7
100
AcDbLine
 10
3.698818897637795
 20
7.194881889763779
 30
0.0
 11
3.720472440944881
 21
7.203740157480314
 31
0.0
  0
LINE
  5
24A2
330
1E
100
AcDbEntity
  8
7
100
AcDbLine
 10
3.746062992125984
 20
7.209645669291338
 30
0.0
 11
3.776574803149606
 21
7.21259842519685
 31
0.0
  0
LINE
  5
24A3
330
1E
100
AcDbEntity
  8
7
100
AcDbLine
 10
3.776574803149606
 20
7.21259842519685
 30
0.0
 11
3.807086614173228
 21
7.21259842519685
 31
0.0
  0
LINE
  5
24A4
330
1E
100
AcDbEntity
  8
7
100
AcDbLine
 10
3.807086614173228
 20
7.21259842519685
 30
0.0
 11
3.836614173228346
 21
7.209645669291338
 31
0.0
  0
LINE
  5
24A5
330
1E
100
AcDbEntity
  8
7
100
AcDbLine
 10
3.836614173228346
 20
7.209645669291338
 30
0.0
 11
3.863188976377952
 21
7.203740157480314
 31
0.0
  0
LINE
  5
24A6
330
1E
100
AcDbEntity
  8
7
100
AcDbLine
 10
3.863188976377952
 20
7.203740157480314
 30
0.0
 11
3.884842519685039
 21
7.194881889763779
 31
0.0
  0
LINE
  5
24A7
330
1E
100
AcDbEntity
  8
7
100
AcDbLine
 10
3.884842519685039
 20
7.194881889763779
 30
0.0
 11
3.898622047244094
 21
7.185039370078739
 31
0.0
  0
LINE
  5
24A8
330
1E
100
AcDbEntity
  8
7
100
AcDbLine
 10
3.898622047244094
 20
7.185039370078739
 30
0.0
 11
3.905511811023622
 21
7.173228346456692
 31
0.0
  0
LINE
  5
24A9
330
1E
100
AcDbEntity
  8
7
100
AcDbLine
 10
3.905511811023622
 20
7.173228346456692
 30
0.0
 11
3.90255905511811
 21
7.161417322834645
 31
0.0
  0
LINE
  5
24AA
330
1E
100
AcDbEntity
  8
7
100
AcDbLine
 10
3.90255905511811
 20
7.161417322834645
 30
0.0
 11
3.89271653543307
 21
7.150590551181102
 31
0.0
  0
LINE
  5
24AB
330
1E
100
AcDbEntity
  8
7
100
AcDbLine
 10
3.89271653543307
 20
7.150590551181102
 30
0.0
 11
3.875
 21
7.141732283464566
 31
0.0
  0
LINE
  5
24AC
330
1E
100
AcDbEntity
  8
7
100
AcDbLine
 10
3.875
 20
7.141732283464566
 30
0.0
 11
3.850393700787401
 21
7.133858267716535
 31
0.0
  0
LINE
  5
24AD
330
1E
100
AcDbEntity
  8
7
100
AcDbLine
 10
3.850393700787401
 20
7.133858267716535
 30
0.0
 11
3.822834645669291
 21
7.128937007874015
 31
0.0
  0
LINE
  5
24AE
330
1E
100
AcDbEntity
  8
7
100
AcDbLine
 10
3.822834645669291
 20
7.128937007874015
 30
0.0
 11
3.791338582677165
 21
7.127952755905512
 31
0.0
  0
LINE
  5
24AF
330
1E
100
AcDbEntity
  8
7
100
AcDbLine
 10
3.791338582677165
 20
7.127952755905512
 30
0.0
 11
3.760826771653543
 21
7.128937007874015
 31
0.0
  0
LINE
  5
24B0
330
1E
100
AcDbEntity
  8
7
100
AcDbLine
 10
3.760826771653543
 20
7.128937007874015
 30
0.0
 11
3.732283464566929
 21
7.133858267716535
 31
0.0
  0
LINE
  5
24B1
330
1E
100
AcDbEntity
  8
7
100
AcDbLine
 10
3.005905511811023
 20
7.103346456692912
 30
0.0
 11
3.005905511811023
 21
7.23523622047244
 31
0.0
  0
LINE
  5
24B2
330
1E
100
AcDbEntity
  8
7
100
AcDbLine
 10
3.005905511811023
 20
7.23523622047244
 30
0.0
 11
2.985236220472441
 21
7.244094488188976
 31
0.0
  0
LINE
  5
24B3
330
1E
100
AcDbEntity
  8
7
100
AcDbLine
 10
2.985236220472441
 20
7.244094488188976
 30
0.0
 11
2.993110236220472
 21
7.109251968503937
 31
0.0
  0
LINE
  5
24B4
330
1E
100
AcDbEntity
  8
7
100
AcDbLine
 10
3.014763779527559
 20
7.234251968503937
 30
0.0
 11
3.014763779527559
 21
7.103346456692912
 31
0.0
  0
LINE
  5
24B5
330
1E
100
AcDbEntity
  8
7
100
AcDbLine
 10
3.014763779527559
 20
7.103346456692912
 30
0.0
 11
3.064960629921259
 21
7.118110236220472
 31
0.0
  0
LINE
  5
24B6
330
1E
100
AcDbEntity
  8
7
100
AcDbLine
 10
3.225393700787401
 20
7.167322834645669
 30
0.0
 11
3.222440944881889
 21
7.240157480314961
 31
0.0
  0
LINE
  5
24B7
330
1E
100
AcDbEntity
  8
7
100
AcDbLine
 10
3.222440944881889
 20
7.240157480314961
 30
0.0
 11
3.220472440944881
 21
7.297244094488188
 31
0.0
  0
LINE
  5
24B8
330
1E
100
AcDbEntity
  8
7
100
AcDbLine
 10
3.220472440944881
 20
7.297244094488188
 30
0.0
 11
3.222440944881889
 21
7.298228346456692
 31
0.0
  0
LINE
  5
24B9
330
1E
100
AcDbEntity
  8
7
100
AcDbLine
 10
3.222440944881889
 20
7.298228346456692
 30
0.0
 11
3.224409448818897
 21
7.298228346456692
 31
0.0
  0
LINE
  5
24BA
330
1E
100
AcDbEntity
  8
7
100
AcDbLine
 10
3.224409448818897
 20
7.298228346456692
 30
0.0
 11
3.226377952755905
 21
7.298228346456692
 31
0.0
  0
LINE
  5
24BB
330
1E
100
AcDbEntity
  8
7
100
AcDbLine
 10
3.226377952755905
 20
7.298228346456692
 30
0.0
 11
3.228346456692913
 21
7.297244094488188
 31
0.0
  0
LINE
  5
24BC
330
1E
100
AcDbEntity
  8
7
100
AcDbLine
 10
3.228346456692913
 20
7.297244094488188
 30
0.0
 11
3.229330708661417
 21
7.297244094488188
 31
0.0
  0
LINE
  5
24BD
330
1E
100
AcDbEntity
  8
7
100
AcDbLine
 10
3.970472440944881
 20
6.954724409448818
 30
0.0
 11
3.970472440944881
 21
6.953740157480314
 31
0.0
  0
LINE
  5
24BE
330
1E
100
AcDbEntity
  8
7
100
AcDbLine
 10
3.970472440944881
 20
6.953740157480314
 30
0.0
 11
3.969488188976378
 21
6.952755905511811
 31
0.0
  0
LINE
  5
24BF
330
1E
100
AcDbEntity
  8
7
100
AcDbLine
 10
3.969488188976378
 20
6.952755905511811
 30
0.0
 11
3.968503937007874
 21
6.952755905511811
 31
0.0
  0
LINE
  5
24C0
330
1E
100
AcDbEntity
  8
7
100
AcDbLine
 10
3.969488188976378
 20
6.955708661417323
 30
0.0
 11
3.970472440944881
 21
6.955708661417323
 31
0.0
  0
LINE
  5
24C1
330
1E
100
AcDbEntity
  8
7
100
AcDbLine
 10
3.970472440944881
 20
6.955708661417323
 30
0.0
 11
3.970472440944881
 21
6.954724409448818
 31
0.0
  0
LINE
  5
24C2
330
1E
100
AcDbEntity
  8
7
100
AcDbLine
 10
3.649606299212598
 20
6.833661417322834
 30
0.0
 11
3.649606299212598
 21
6.836614173228346
 31
0.0
  0
LINE
  5
24C3
330
1E
100
AcDbEntity
  8
7
100
AcDbLine
 10
3.649606299212598
 20
6.836614173228346
 30
0.0
 11
3.628937007874015
 21
6.846456692913386
 31
0.0
  0
LINE
  5
24C4
330
1E
100
AcDbEntity
  8
7
100
AcDbLine
 10
3.628937007874015
 20
6.846456692913386
 30
0.0
 11
3.627952755905512
 21
6.826771653543307
 31
0.0
  0
LINE
  5
24C5
330
1E
100
AcDbEntity
  8
7
100
AcDbLine
 10
2.873031496062992
 20
6.596456692913386
 30
0.0
 11
2.873031496062992
 21
6.599409448818897
 31
0.0
  0
LINE
  5
24C6
330
1E
100
AcDbEntity
  8
7
100
AcDbLine
 10
2.873031496062992
 20
6.599409448818897
 30
0.0
 11
2.852362204724409
 21
6.609251968503937
 31
0.0
  0
LINE
  5
24C7
330
1E
100
AcDbEntity
  8
7
100
AcDbLine
 10
2.852362204724409
 20
6.609251968503937
 30
0.0
 11
2.851377952755905
 21
6.589566929133858
 31
0.0
  0
LINE
  5
24C8
330
1E
100
AcDbEntity
  8
7
100
AcDbLine
 10
1.666338582677165
 20
6.819881889763779
 30
0.0
 11
1.665354330708661
 21
6.820866141732283
 31
0.0
  0
LINE
  5
24C9
330
1E
100
AcDbEntity
  8
7
100
AcDbLine
 10
1.665354330708661
 20
6.820866141732283
 30
0.0
 11
1.665354330708661
 21
6.821850393700787
 31
0.0
  0
LINE
  5
24CA
330
1E
100
AcDbEntity
  8
7
100
AcDbLine
 10
1.665354330708661
 20
6.821850393700787
 30
0.0
 11
1.666338582677165
 21
6.822834645669291
 31
0.0
  0
LINE
  5
24CB
330
1E
100
AcDbEntity
  8
7
100
AcDbLine
 10
1.666338582677165
 20
6.822834645669291
 30
0.0
 11
1.667322834645669
 21
6.822834645669291
 31
0.0
  0
LINE
  5
24CC
330
1E
100
AcDbEntity
  8
7
100
AcDbLine
 10
2.984251968503937
 20
7.109251968503937
 30
0.0
 11
2.977362204724409
 21
7.24507874015748
 31
0.0
  0
LINE
  5
24CD
330
1E
100
AcDbEntity
  8
7
100
AcDbLine
 10
2.977362204724409
 20
7.24507874015748
 30
0.0
 11
2.895669291338582
 21
7.220472440944881
 31
0.0
  0
LINE
  5
24CE
330
1E
100
AcDbEntity
  8
7
100
AcDbLine
 10
3.24507874015748
 20
7.151574803149606
 30
0.0
 11
3.252952755905512
 21
7.15255905511811
 31
0.0
  0
LINE
  5
24CF
330
1E
100
AcDbEntity
  8
7
100
AcDbLine
 10
3.252952755905512
 20
7.15255905511811
 30
0.0
 11
3.260826771653543
 21
7.150590551181102
 31
0.0
  0
LINE
  5
24D0
330
1E
100
AcDbEntity
  8
7
100
AcDbLine
 10
2.485236220472441
 20
6.943897637795275
 30
0.0
 11
2.472440944881889
 21
6.949803149606299
 31
0.0
  0
LINE
  5
24D1
330
1E
100
AcDbEntity
  8
7
100
AcDbLine
 10
2.472440944881889
 20
6.949803149606299
 30
0.0
 11
2.463582677165354
 21
6.950787401574802
 31
0.0
  0
LINE
  5
24D2
330
1E
100
AcDbEntity
  8
7
100
AcDbLine
 10
2.463582677165354
 20
6.950787401574802
 30
0.0
 11
2.399606299212598
 21
6.931102362204724
 31
0.0
  0
LINE
  5
24D3
330
1E
100
AcDbEntity
  8
7
100
AcDbLine
 10
1.972440944881889
 20
6.784448818897637
 30
0.0
 11
1.964566929133858
 21
6.784448818897637
 31
0.0
  0
LINE
  5
24D4
330
1E
100
AcDbEntity
  8
7
100
AcDbLine
 10
1.964566929133858
 20
6.784448818897637
 30
0.0
 11
1.950787401574802
 21
6.791338582677165
 31
0.0
  0
LINE
  5
24D5
330
1E
100
AcDbEntity
  8
7
100
AcDbLine
 10
1.950787401574802
 20
6.791338582677165
 30
0.0
 11
1.942913385826771
 21
6.791338582677165
 31
0.0
  0
LINE
  5
24D6
330
1E
100
AcDbEntity
  8
7
100
AcDbLine
 10
4.866141732283464
 20
6.542322834645669
 30
0.0
 11
4.867125984251968
 21
6.541338582677165
 31
0.0
  0
LINE
  5
24D7
330
1E
100
AcDbEntity
  8
7
100
AcDbLine
 10
4.867125984251968
 20
6.541338582677165
 30
0.0
 11
4.868110236220472
 21
6.540354330708661
 31
0.0
  0
LINE
  5
24D8
330
1E
100
AcDbEntity
  8
7
100
AcDbLine
 10
4.868110236220472
 20
6.540354330708661
 30
0.0
 11
4.867125984251968
 21
6.540354330708661
 31
0.0
  0
LINE
  5
24D9
330
1E
100
AcDbEntity
  8
7
100
AcDbLine
 10
4.867125984251968
 20
6.540354330708661
 30
0.0
 11
4.866141732283464
 21
6.539370078740157
 31
0.0
  0
LINE
  5
24DA
330
1E
100
AcDbEntity
  8
7
100
AcDbLine
 10
4.866141732283464
 20
6.539370078740157
 30
0.0
 11
4.865157480314961
 21
6.539370078740157
 31
0.0
  0
LINE
  5
24DB
330
1E
100
AcDbEntity
  8
7
100
AcDbLine
 10
3.312007874015748
 20
6.063976377952755
 30
0.0
 11
3.31003937007874
 21
6.063976377952755
 31
0.0
  0
LINE
  5
24DC
330
1E
100
AcDbEntity
  8
7
100
AcDbLine
 10
3.31003937007874
 20
6.063976377952755
 30
0.0
 11
3.308070866141732
 21
6.063976377952755
 31
0.0
  0
LINE
  5
24DD
330
1E
100
AcDbEntity
  8
7
100
AcDbLine
 10
3.308070866141732
 20
6.063976377952755
 30
0.0
 11
3.306102362204724
 21
6.063976377952755
 31
0.0
  0
LINE
  5
24DE
330
1E
100
AcDbEntity
  8
7
100
AcDbLine
 10
3.306102362204724
 20
6.063976377952755
 30
0.0
 11
3.304133858267716
 21
6.063976377952755
 31
0.0
  0
LINE
  5
24DF
330
1E
100
AcDbEntity
  8
7
100
AcDbLine
 10
3.304133858267716
 20
6.063976377952755
 30
0.0
 11
3.303149606299212
 21
6.06496062992126
 31
0.0
  0
LINE
  5
24E0
330
1E
100
AcDbEntity
  8
7
100
AcDbLine
 10
3.556102362204724
 20
6.117125984251968
 30
0.0
 11
3.636811023622047
 21
6.141732283464566
 31
0.0
  0
LINE
  5
24E1
330
1E
100
AcDbEntity
  8
7
100
AcDbLine
 10
3.636811023622047
 20
6.141732283464566
 30
0.0
 11
3.637795275590551
 21
6.144685039370078
 31
0.0
  0
LINE
  5
24E2
330
1E
100
AcDbEntity
  8
7
100
AcDbLine
 10
3.637795275590551
 20
6.144685039370078
 30
0.0
 11
3.617125984251968
 21
6.154527559055118
 31
0.0
  0
LINE
  5
24E3
330
1E
100
AcDbEntity
  8
7
100
AcDbLine
 10
3.617125984251968
 20
6.154527559055118
 30
0.0
 11
3.616141732283464
 21
6.135826771653543
 31
0.0
  0
LINE
  5
24E4
330
1E
100
AcDbEntity
  8
7
100
AcDbLine
 10
2.906496062992125
 20
6.381889763779527
 30
0.0
 11
2.903543307086614
 21
6.51279527559055
 31
0.0
  0
LINE
  5
24E5
330
1E
100
AcDbEntity
  8
7
100
AcDbLine
 10
2.903543307086614
 20
6.51279527559055
 30
0.0
 11
2.563976377952756
 21
6.409448818897637
 31
0.0
  0
LINE
  5
24E6
330
1E
100
AcDbEntity
  8
7
100
AcDbLine
 10
2.972440944881889
 20
6.418307086614173
 30
0.0
 11
2.964566929133858
 21
6.553149606299212
 31
0.0
  0
LINE
  5
24E7
330
1E
100
AcDbEntity
  8
7
100
AcDbLine
 10
2.964566929133858
 20
6.553149606299212
 30
0.0
 11
2.883858267716535
 21
6.528543307086613
 31
0.0
  0
LINE
  5
24E8
330
1E
100
AcDbEntity
  8
7
100
AcDbLine
 10
2.883858267716535
 20
6.528543307086613
 30
0.0
 11
2.884842519685039
 21
6.524606299212598
 31
0.0
  0
LINE
  5
24E9
330
1E
100
AcDbEntity
  8
7
100
AcDbLine
 10
2.994094488188976
 20
6.543307086614173
 30
0.0
 11
2.973425196850394
 21
6.553149606299212
 31
0.0
  0
LINE
  5
24EA
330
1E
100
AcDbEntity
  8
7
100
AcDbLine
 10
2.973425196850394
 20
6.553149606299212
 30
0.0
 11
2.980314960629921
 21
6.417322834645669
 31
0.0
  0
LINE
  5
24EB
330
1E
100
AcDbEntity
  8
7
100
AcDbLine
 10
3.68011811023622
 20
6.75
 30
0.0
 11
3.002952755905512
 21
6.543307086614173
 31
0.0
  0
LINE
  5
24EC
330
1E
100
AcDbEntity
  8
7
100
AcDbLine
 10
3.002952755905512
 20
6.543307086614173
 30
0.0
 11
3.001968503937007
 21
6.411417322834645
 31
0.0
  0
LINE
  5
24ED
330
1E
100
AcDbEntity
  8
7
100
AcDbLine
 10
3.749015748031496
 20
6.655511811023622
 30
0.0
 11
3.741141732283464
 21
6.790354330708661
 31
0.0
  0
LINE
  5
24EE
330
1E
100
AcDbEntity
  8
7
100
AcDbLine
 10
3.741141732283464
 20
6.790354330708661
 30
0.0
 11
3.660433070866141
 21
6.765748031496062
 31
0.0
  0
LINE
  5
24EF
330
1E
100
AcDbEntity
  8
7
100
AcDbLine
 10
3.660433070866141
 20
6.765748031496062
 30
0.0
 11
3.661417322834645
 21
6.761811023622047
 31
0.0
  0
LINE
  5
24F0
330
1E
100
AcDbEntity
  8
7
100
AcDbLine
 10
3.770669291338582
 20
6.780511811023622
 30
0.0
 11
3.75
 21
6.790354330708661
 31
0.0
  0
LINE
  5
24F1
330
1E
100
AcDbEntity
  8
7
100
AcDbLine
 10
3.75
 20
6.790354330708661
 30
0.0
 11
3.756889763779527
 21
6.654527559055118
 31
0.0
  0
LINE
  5
24F2
330
1E
100
AcDbEntity
  8
7
100
AcDbLine
 10
4.122047244094487
 20
6.752952755905512
 30
0.0
 11
4.12007874015748
 21
6.826771653543307
 31
0.0
  0
LINE
  5
24F3
330
1E
100
AcDbEntity
  8
7
100
AcDbLine
 10
4.12007874015748
 20
6.826771653543307
 30
0.0
 11
4.118110236220472
 21
6.883858267716535
 31
0.0
  0
LINE
  5
24F4
330
1E
100
AcDbEntity
  8
7
100
AcDbLine
 10
4.118110236220472
 20
6.883858267716535
 30
0.0
 11
3.779527559055118
 21
6.780511811023622
 31
0.0
  0
LINE
  5
24F5
330
1E
100
AcDbEntity
  8
7
100
AcDbLine
 10
3.779527559055118
 20
6.780511811023622
 30
0.0
 11
3.778543307086614
 21
6.648622047244094
 31
0.0
  0
LINE
  5
24F6
330
1E
100
AcDbEntity
  8
7
100
AcDbLine
 10
3.441929133858267
 20
6.545275590551181
 30
0.0
 11
3.244094488188976
 21
6.48523622047244
 31
0.0
  0
LINE
  5
24F7
330
1E
100
AcDbEntity
  8
7
100
AcDbLine
 10
3.244094488188976
 20
6.48523622047244
 30
0.0
 11
3.053149606299212
 21
6.427165354330708
 31
0.0
  0
LINE
  5
24F8
330
1E
100
AcDbEntity
  8
7
100
AcDbLine
 10
3.68503937007874
 20
6.621062992125984
 30
0.0
 11
3.683070866141732
 21
6.619094488188976
 31
0.0
  0
LINE
  5
24F9
330
1E
100
AcDbEntity
  8
7
100
AcDbLine
 10
3.683070866141732
 20
6.619094488188976
 30
0.0
 11
3.778543307086614
 21
6.648622047244094
 31
0.0
  0
LINE
  5
24FA
330
1E
100
AcDbEntity
  8
7
100
AcDbLine
 10
3.778543307086614
 20
6.648622047244094
 30
0.0
 11
3.770669291338582
 21
6.648622047244094
 31
0.0
  0
LINE
  5
24FB
330
1E
100
AcDbEntity
  8
7
100
AcDbLine
 10
4.141732283464566
 20
6.737204724409449
 30
0.0
 11
4.150590551181102
 21
6.738188976377952
 31
0.0
  0
LINE
  5
24FC
330
1E
100
AcDbEntity
  8
7
100
AcDbLine
 10
4.150590551181102
 20
6.738188976377952
 30
0.0
 11
4.157480314960629
 21
6.737204724409449
 31
0.0
  0
LINE
  5
24FD
330
1E
100
AcDbEntity
  8
7
100
AcDbLine
 10
3.27755905511811
 20
6.350393700787401
 30
0.0
 11
3.079724409448818
 21
6.289370078740157
 31
0.0
  0
LINE
  5
24FE
330
1E
100
AcDbEntity
  8
7
100
AcDbLine
 10
3.079724409448818
 20
6.289370078740157
 30
0.0
 11
3.06003937007874
 21
6.299212598425197
 31
0.0
  0
LINE
  5
24FF
330
1E
100
AcDbEntity
  8
7
100
AcDbLine
 10
4.538385826771653
 20
6.438976377952755
 30
0.0
 11
4.157480314960629
 21
6.615157480314961
 31
0.0
  0
LINE
  5
2500
330
1E
100
AcDbEntity
  8
7
100
AcDbLine
 10
4.157480314960629
 20
6.615157480314961
 30
0.0
 11
4.150590551181102
 21
6.616141732283464
 31
0.0
  0
LINE
  5
2501
330
1E
100
AcDbEntity
  8
7
100
AcDbLine
 10
4.150590551181102
 20
6.616141732283464
 30
0.0
 11
4.141732283464566
 21
6.615157480314961
 31
0.0
  0
LINE
  5
2502
330
1E
100
AcDbEntity
  8
7
100
AcDbLine
 10
4.141732283464566
 20
6.615157480314961
 30
0.0
 11
3.987204724409449
 21
6.567913385826771
 31
0.0
  0
LINE
  5
2503
330
1E
100
AcDbEntity
  8
7
100
AcDbLine
 10
3.260826771653543
 20
7.028543307086613
 30
0.0
 11
3.252952755905512
 21
7.030511811023622
 31
0.0
  0
LINE
  5
2504
330
1E
100
AcDbEntity
  8
7
100
AcDbLine
 10
3.252952755905512
 20
7.030511811023622
 30
0.0
 11
3.24507874015748
 21
7.029527559055118
 31
0.0
  0
LINE
  5
2505
330
1E
100
AcDbEntity
  8
7
100
AcDbLine
 10
3.969488188976378
 20
6.953740157480314
 30
0.0
 11
3.969488188976378
 21
6.955708661417323
 31
0.0
  0
LINE
  5
2506
330
1E
100
AcDbEntity
  8
7
100
AcDbLine
 10
3.969488188976378
 20
6.955708661417323
 30
0.0
 11
3.229330708661417
 21
7.297244094488188
 31
0.0
  0
LINE
  5
2507
330
1E
100
AcDbEntity
  8
7
100
AcDbLine
 10
3.229330708661417
 20
7.297244094488188
 30
0.0
 11
3.227362204724409
 21
7.224409448818897
 31
0.0
  0
LINE
  5
2508
330
1E
100
AcDbEntity
  8
7
100
AcDbLine
 10
3.227362204724409
 20
7.224409448818897
 30
0.0
 11
3.225393700787401
 21
7.167322834645669
 31
0.0
  0
LINE
  5
2509
330
1E
100
AcDbEntity
  8
7
100
AcDbLine
 10
4.866141732283464
 20
6.540354330708661
 30
0.0
 11
4.866141732283464
 21
6.542322834645669
 31
0.0
  0
LINE
  5
250A
330
1E
100
AcDbEntity
  8
7
100
AcDbLine
 10
4.866141732283464
 20
6.542322834645669
 30
0.0
 11
4.125984251968503
 21
6.883858267716535
 31
0.0
  0
LINE
  5
250B
330
1E
100
AcDbEntity
  8
7
100
AcDbLine
 10
4.125984251968503
 20
6.883858267716535
 30
0.0
 11
4.124015748031496
 21
6.811023622047244
 31
0.0
  0
LINE
  5
250C
330
1E
100
AcDbEntity
  8
7
100
AcDbLine
 10
4.124015748031496
 20
6.811023622047244
 30
0.0
 11
4.122047244094487
 21
6.752952755905512
 31
0.0
  0
LINE
  5
250D
330
1E
100
AcDbEntity
  8
7
100
AcDbLine
 10
1.042322834645669
 20
6.755905511811024
 30
0.0
 11
1.034448818897637
 21
6.753937007874015
 31
0.0
  0
LINE
  5
250E
330
1E
100
AcDbEntity
  8
7
100
AcDbLine
 10
1.034448818897637
 20
6.753937007874015
 30
0.0
 11
1.01771653543307
 21
6.748031496062992
 31
0.0
  0
LINE
  5
250F
330
1E
100
AcDbEntity
  8
7
100
AcDbLine
 10
1.01771653543307
 20
6.748031496062992
 30
0.0
 11
1.008858267716535
 21
6.744094488188976
 31
0.0
  0
LINE
  5
2510
330
1E
100
AcDbEntity
  8
7
100
AcDbLine
 10
1.008858267716535
 20
6.744094488188976
 30
0.0
 11
1.002952755905511
 21
6.742125984251968
 31
0.0
  0
LINE
  5
2511
330
1E
100
AcDbEntity
  8
7
100
AcDbLine
 10
1.002952755905511
 20
6.742125984251968
 30
0.0
 11
0.9960629921259842
 21
6.738188976377952
 31
0.0
  0
LINE
  5
2512
330
1E
100
AcDbEntity
  8
7
100
AcDbLine
 10
0.9960629921259842
 20
6.738188976377952
 30
0.0
 11
0.9872047244094488
 21
6.733267716535433
 31
0.0
  0
LINE
  5
2513
330
1E
100
AcDbEntity
  8
7
100
AcDbLine
 10
0.9872047244094488
 20
6.733267716535433
 30
0.0
 11
0.9773622047244094
 21
6.727362204724409
 31
0.0
  0
LINE
  5
2514
330
1E
100
AcDbEntity
  8
7
100
AcDbLine
 10
0.9773622047244094
 20
6.727362204724409
 30
0.0
 11
0.9596456692913385
 21
6.713582677165354
 31
0.0
  0
LINE
  5
2515
330
1E
100
AcDbEntity
  8
7
100
AcDbLine
 10
0.9596456692913385
 20
6.713582677165354
 30
0.0
 11
0.9429133858267716
 21
6.696850393700787
 31
0.0
  0
LINE
  5
2516
330
1E
100
AcDbEntity
  8
7
100
AcDbLine
 10
0.9429133858267716
 20
6.696850393700787
 30
0.0
 11
0.9291338582677164
 21
6.678149606299212
 31
0.0
  0
LINE
  5
2517
330
1E
100
AcDbEntity
  8
7
100
AcDbLine
 10
0.9291338582677164
 20
6.678149606299212
 30
0.0
 11
0.921259842519685
 21
6.662401574803149
 31
0.0
  0
LINE
  5
2518
330
1E
100
AcDbEntity
  8
7
100
AcDbLine
 10
0.921259842519685
 20
6.662401574803149
 30
0.0
 11
0.9153543307086614
 21
6.646653543307087
 31
0.0
  0
LINE
  5
2519
330
1E
100
AcDbEntity
  8
7
100
AcDbLine
 10
0.9153543307086614
 20
6.646653543307087
 30
0.0
 11
0.9114173228346457
 21
6.629921259842519
 31
0.0
  0
LINE
  5
251A
330
1E
100
AcDbEntity
  8
7
100
AcDbLine
 10
0.9114173228346457
 20
6.629921259842519
 30
0.0
 11
0.9104330708661418
 21
6.613188976377952
 31
0.0
  0
LINE
  5
251B
330
1E
100
AcDbEntity
  8
7
100
AcDbLine
 10
3.513779527559055
 20
7.499015748031496
 30
0.0
 11
3.510826771653543
 21
7.500984251968503
 31
0.0
  0
LINE
  5
251C
330
1E
100
AcDbEntity
  8
7
100
AcDbLine
 10
3.510826771653543
 20
7.500984251968503
 30
0.0
 11
3.504921259842519
 21
7.501968503937008
 31
0.0
  0
LINE
  5
251D
330
1E
100
AcDbEntity
  8
7
100
AcDbLine
 10
3.504921259842519
 20
7.501968503937008
 30
0.0
 11
3.5
 21
7.502952755905512
 31
0.0
  0
LINE
  5
251E
330
1E
100
AcDbEntity
  8
7
100
AcDbLine
 10
3.5
 20
7.502952755905512
 30
0.0
 11
3.49507874015748
 21
7.503937007874015
 31
0.0
  0
LINE
  5
251F
330
1E
100
AcDbEntity
  8
7
100
AcDbLine
 10
3.49507874015748
 20
7.503937007874015
 30
0.0
 11
3.488188976377952
 21
7.502952755905512
 31
0.0
  0
LINE
  5
2520
330
1E
100
AcDbEntity
  8
7
100
AcDbLine
 10
3.488188976377952
 20
7.502952755905512
 30
0.0
 11
3.481299212598425
 21
7.501968503937008
 31
0.0
  0
LINE
  5
2521
330
1E
100
AcDbEntity
  8
7
100
AcDbLine
 10
5.581692913385826
 20
6.529527559055118
 30
0.0
 11
5.572834645669291
 21
6.539370078740157
 31
0.0
  0
LINE
  5
2522
330
1E
100
AcDbEntity
  8
7
100
AcDbLine
 10
5.572834645669291
 20
6.539370078740157
 30
0.0
 11
5.563976377952755
 21
6.546259842519685
 31
0.0
  0
LINE
  5
2523
330
1E
100
AcDbEntity
  8
7
100
AcDbLine
 10
5.563976377952755
 20
6.546259842519685
 30
0.0
 11
5.556102362204724
 21
6.552165354330708
 31
0.0
  0
LINE
  5
2524
330
1E
100
AcDbEntity
  8
7
100
AcDbLine
 10
5.556102362204724
 20
6.552165354330708
 30
0.0
 11
5.549212598425197
 21
6.557086614173228
 31
0.0
  0
LINE
  5
2525
330
1E
100
AcDbEntity
  8
7
100
AcDbLine
 10
5.549212598425197
 20
6.557086614173228
 30
0.0
 11
5.541338582677165
 21
6.562992125984251
 31
0.0
  0
LINE
  5
2526
330
1E
100
AcDbEntity
  8
7
100
AcDbLine
 10
5.541338582677165
 20
6.562992125984251
 30
0.0
 11
5.530511811023622
 21
6.568897637795275
 31
0.0
  0
LINE
  5
2527
330
1E
100
AcDbEntity
  8
7
100
AcDbLine
 10
5.622047244094487
 20
6.435039370078739
 30
0.0
 11
5.62007874015748
 21
6.45767716535433
 31
0.0
  0
LINE
  5
2528
330
1E
100
AcDbEntity
  8
7
100
AcDbLine
 10
5.62007874015748
 20
6.45767716535433
 30
0.0
 11
5.615157480314961
 21
6.476377952755905
 31
0.0
  0
LINE
  5
2529
330
1E
100
AcDbEntity
  8
7
100
AcDbLine
 10
5.615157480314961
 20
6.476377952755905
 30
0.0
 11
5.608267716535433
 21
6.492125984251968
 31
0.0
  0
LINE
  5
252A
330
1E
100
AcDbEntity
  8
7
100
AcDbLine
 10
5.608267716535433
 20
6.492125984251968
 30
0.0
 11
5.600393700787401
 21
6.505905511811024
 31
0.0
  0
LINE
  5
252B
330
1E
100
AcDbEntity
  8
7
100
AcDbLine
 10
5.600393700787401
 20
6.505905511811024
 30
0.0
 11
5.591535433070865
 21
6.518700787401574
 31
0.0
  0
LINE
  5
252C
330
1E
100
AcDbEntity
  8
7
100
AcDbLine
 10
5.591535433070865
 20
6.518700787401574
 30
0.0
 11
5.581692913385826
 21
6.529527559055118
 31
0.0
  0
ENDSEC
  0
SECTION
  2
OBJECTS
  0
DICTIONARY
  5
C
330
0
100
AcDbDictionary
  3
ACAD_GROUP
350
D
  3
ACAD_LAYOUT
350
19
  3
ACAD_MLINESTYLE
350
16
  3
ACAD_PLOTSETTINGS
350
18
1001
ACAD
1000
TREAT_AS_HARD
1070
     0
  0
DICTIONARY
  5
26FE
330
1E
100
AcDbDictionary
  3
ACAD_LAYOUTSELFREF
350
26FF
  0
DICTIONARY
  5
26FC
330
1A
100
AcDbDictionary
  3
ACAD_LAYOUTSELFREF
350
26FD
  0
DICTIONARY
  5
D
102
{ACAD_REACTORS
330
C
102
}
330
C
100
AcDbDictionary
1001
ACAD
1000
TREAT_AS_HARD
1070
     0
  0
DICTIONARY
  5
19
102
{ACAD_REACTORS
330
C
102
}
330
C
100
AcDbDictionary
1001
ACAD
1000
TREAT_AS_HARD
1070
     0
  0
DICTIONARY
  5
16
102
{ACAD_REACTORS
330
C
102
}
330
C
100
AcDbDictionary
  3
STANDARD
350
17
1001
ACAD
1000
TREAT_AS_HARD
1070
     0
  0
DICTIONARY
  5
18
102
{ACAD_REACTORS
330
C
102
}
330
C
100
AcDbDictionary
1001
ACAD
1000
TREAT_AS_HARD
1070
     0
  0
XRECORD
  5
26FF
102
{ACAD_REACTORS
330
26FE
102
}
330
26FE
100
AcDbXrecord
340
1E
  0
XRECORD
  5
26FD
102
{ACAD_REACTORS
330
26FC
102
}
330
26FC
100
AcDbXrecord
340
1A
  0
MLINESTYLE
  5
17
102
{ACAD_REACTORS
330
16
102
}
330
16
100
AcDbMlineStyle
  2
STANDARD
 70
     0
  3

 62
   256
 51
90.0
 52
90.0
 71
     2
 49
0.5
 62
   256
  6
BYLAYER
 49
-0.5
 62
   256
  6
BYLAYER
  0
ENDSEC
  0
EOF
