  0
SECTION
  2
HEADER
  9
$ACADVER
  1
AC1012
  9
$DWGCODEPAGE
  3
ANSI_1252
  9
$INSBASE
 10
0.0
 20
0.0
 30
0.0
  9
$EXTMIN
 10
2.624407180617534
 20
2.462610241071441
 30
-0.0000000349181948
  9
$EXTMAX
 10
5.375416192727588
 20
10.01454142066693
 30
0.0000000814935746
  9
$LIMMIN
 10
0.0
 20
0.0
  9
$LIMMAX
 10
12.0
 20
9.0
  9
$ORTHOMODE
 70
     0
  9
$REGENMODE
 70
     1
  9
$FILLMODE
 70
     1
  9
$QTEXTMODE
 70
     0
  9
$MIRRTEXT
 70
     1
  9
$DRAGMODE
 70
     2
  9
$LTSCALE
 40
1.0
  9
$OSMODE
 70
    33
  9
$ATTMODE
 70
     1
  9
$TEXTSIZE
 40
0.2
  9
$TRACEWID
 40
0.05
  9
$TEXTSTYLE
  7
STANDARD
  9
$CLAYER
  8
0
  9
$CELTYPE
  6
BYLAYER
  9
$CECOLOR
 62
   256
  9
$CELTSCALE
 40
1.0
  9
$DELOBJ
 70
     1
  9
$DISPSILH
 70
     0
  9
$DIMSCALE
 40
1.0
  9
$DIMASZ
 40
0.18
  9
$DIMEXO
 40
0.0625
  9
$DIMDLI
 40
0.38
  9
$DIMRND
 40
0.0
  9
$DIMDLE
 40
0.0
  9
$DIMEXE
 40
0.18
  9
$DIMTP
 40
0.0
  9
$DIMTM
 40
0.0
  9
$DIMTXT
 40
0.18
  9
$DIMCEN
 40
0.09
  9
$DIMTSZ
 40
0.0
  9
$DIMTOL
 70
     0
  9
$DIMLIM
 70
     0
  9
$DIMTIH
 70
     1
  9
$DIMTOH
 70
     1
  9
$DIMSE1
 70
     0
  9
$DIMSE2
 70
     0
  9
$DIMTAD
 70
     0
  9
$DIMZIN
 70
     0
  9
$DIMBLK
  1

  9
$DIMASO
 70
     1
  9
$DIMSHO
 70
     1
  9
$DIMPOST
  1

  9
$DIMAPOST
  1

  9
$DIMALT
 70
     0
  9
$DIMALTD
 70
     2
  9
$DIMALTF
 40
25.4
  9
$DIMLFAC
 40
1.0
  9
$DIMTOFL
 70
     0
  9
$DIMTVP
 40
0.0
  9
$DIMTIX
 70
     0
  9
$DIMSOXD
 70
     0
  9
$DIMSAH
 70
     0
  9
$DIMBLK1
  1

  9
$DIMBLK2
  1

  9
$DIMSTYLE
  2
STANDARD
  9
$DIMCLRD
 70
     0
  9
$DIMCLRE
 70
     0
  9
$DIMCLRT
 70
     0
  9
$DIMTFAC
 40
1.0
  9
$DIMGAP
 40
0.09
  9
$DIMJUST
 70
     0
  9
$DIMSD1
 70
     0
  9
$DIMSD2
 70
     0
  9
$DIMTOLJ
 70
     1
  9
$DIMTZIN
 70
     0
  9
$DIMALTZ
 70
     0
  9
$DIMALTTZ
 70
     0
  9
$DIMFIT
 70
     5
  9
$DIMUPT
 70
     0
  9
$DIMUNIT
 70
     2
  9
$DIMDEC
 70
     4
  9
$DIMTDEC
 70
     4
  9
$DIMALTU
 70
     2
  9
$DIMALTTD
 70
     2
  9
$DIMTXSTY
  7
STANDARD
  9
$DIMAUNIT
 70
     0
  9
$LUNITS
 70
     2
  9
$LUPREC
 70
     4
  9
$SKETCHINC
 40
0.1
  9
$FILLETRAD
 40
0.0
  9
$AUNITS
 70
     0
  9
$AUPREC
 70
     0
  9
$MENU
  1
acad
  9
$ELEVATION
 40
0.0
  9
$PELEVATION
 40
0.0
  9
$THICKNESS
 40
0.0
  9
$LIMCHECK
 70
     0
  9
$BLIPMODE
 70
     0
  9
$CHAMFERA
 40
0.0
  9
$CHAMFERB
 40
0.0
  9
$CHAMFERC
 40
0.0
  9
$CHAMFERD
 40
0.0
  9
$SKPOLY
 70
     0
  9
$TDCREATE
 40
2451906.319224537
  9
$TDUPDATE
 40
2452340.336150613
  9
$TDINDWG
 40
0.0017956134
  9
$TDUSRTIMER
 40
0.0017956134
  9
$USRTIMER
 70
     1
  9
$ANGBASE
 50
0.0
  9
$ANGDIR
 70
     0
  9
$PDMODE
 70
     0
  9
$PDSIZE
 40
0.0
  9
$PLINEWID
 40
0.0
  9
$COORDS
 70
     2
  9
$SPLFRAME
 70
     0
  9
$SPLINETYPE
 70
     6
  9
$SPLINESEGS
 70
     8
  9
$ATTDIA
 70
     0
  9
$ATTREQ
 70
     1
  9
$HANDLING
 70
  4097
  9
$HANDSEED
  5
29B1
  9
$SURFTAB1
 70
     6
  9
$SURFTAB2
 70
     6
  9
$SURFTYPE
 70
     6
  9
$SURFU
 70
     6
  9
$SURFV
 70
     6
  9
$UCSNAME
  2

  9
$UCSORG
 10
0.0
 20
0.0
 30
0.0
  9
$UCSXDIR
 10
1.0
 20
0.0
 30
0.0
  9
$UCSYDIR
 10
0.0
 20
1.0
 30
0.0
  9
$PUCSNAME
  2

  9
$PUCSORG
 10
0.0
 20
0.0
 30
0.0
  9
$PUCSXDIR
 10
1.0
 20
0.0
 30
0.0
  9
$PUCSYDIR
 10
0.0
 20
1.0
 30
0.0
  9
$USERI1
 70
     0
  9
$USERI2
 70
     0
  9
$USERI3
 70
     0
  9
$USERI4
 70
     0
  9
$USERI5
 70
     0
  9
$USERR1
 40
0.0
  9
$USERR2
 40
0.0
  9
$USERR3
 40
0.0
  9
$USERR4
 40
0.0
  9
$USERR5
 40
0.0
  9
$WORLDVIEW
 70
     1
  9
$SHADEDGE
 70
     3
  9
$SHADEDIF
 70
    70
  9
$TILEMODE
 70
     1
  9
$MAXACTVP
 70
    16
  9
$PINSBASE
 10
0.0
 20
0.0
 30
0.0
  9
$PLIMCHECK
 70
     0
  9
$PEXTMIN
 10
1.000000000000000E+20
 20
1.000000000000000E+20
 30
1.000000000000000E+20
  9
$PEXTMAX
 10
-1.000000000000000E+20
 20
-1.000000000000000E+20
 30
-1.000000000000000E+20
  9
$PLIMMIN
 10
0.0
 20
0.0
  9
$PLIMMAX
 10
12.0
 20
9.0
  9
$UNITMODE
 70
     0
  9
$VISRETAIN
 70
     0
  9
$PLINEGEN
 70
     0
  9
$PSLTSCALE
 70
     1
  9
$TREEDEPTH
 70
  3020
  9
$PICKSTYLE
 70
     1
  9
$CMLSTYLE
  2
STANDARD
  9
$CMLJUST
 70
     0
  9
$CMLSCALE
 40
1.0
  9
$SAVEIMAGES
 70
     1
  0
ENDSEC
  0
SECTION
  2
CLASSES
  0
CLASS
  1
ACDBDICTIONARYWDFLT
  2
AcDbDictionaryWithDefault
  3
AutoCAD 2000
 90
    32768
280
     0
281
     0
  0
CLASS
  1
ACDBPLACEHOLDER
  2
AcDbPlaceHolder
  3
AutoCAD 2000
 90
    32768
280
     0
281
     0
  0
CLASS
  1
LAYOUT
  2
AcDbLayout
  3
AutoCAD 2000
 90
    32768
280
     0
281
     0
  0
CLASS
  1
LONG_TRANSACTION
  2
AcDbLongTransaction
  3
AutoCAD 2000
 90
    32768
280
     0
281
     0
  0
CLASS
  1
LWPOLYLINE
  2
AcDbPolyline
  3
AutoCAD 2000
 90
    32768
280
     0
281
     1
  0
CLASS
  1
HATCH
  2
AcDbHatch
  3
AutoCAD 2000
 90
    32768
280
     0
281
     1
  0
CLASS
  1
XRECORD
  2
AcDbXrecord
  3
AutoCAD 2000
 90
    32768
280
     0
281
     0
  0
ENDSEC
  0
SECTION
  2
TABLES
  0
TABLE
  2
VPORT
  5
8
330
0
100
AcDbSymbolTable
 70
     3
  0
VPORT
  5
29AC
330
8
100
AcDbSymbolTableRecord
100
AcDbViewportTableRecord
  2
*ACTIVE
 70
     0
 10
0.0
 20
0.0
 11
1.0
 21
1.0
 12
3.999911686672561
 22
6.238575830869189
 13
0.0
 23
0.0
 14
1.0
 24
1.0
 15
0.0
 25
0.0
 16
0.0
 26
0.0
 36
1.0
 17
0.0
 27
0.0
 37
0.0
 40
7.61139520463168
 41
1.601839684625492
 42
50.0
 43
0.0
 44
0.0
 50
0.0
 51
0.0
 71
     0
 72
   100
 73
     1
 74
     1
 75
     0
 76
     0
 77
     0
 78
     0
  0
ENDTAB
  0
TABLE
  2
LTYPE
  5
5
330
0
100
AcDbSymbolTable
 70
    25
  0
LTYPE
  5
13
330
5
100
AcDbSymbolTableRecord
100
AcDbLinetypeTableRecord
  2
BYBLOCK
 70
     0
  3

 72
    65
 73
     0
 40
0.0
  0
LTYPE
  5
14
330
5
100
AcDbSymbolTableRecord
100
AcDbLinetypeTableRecord
  2
BYLAYER
 70
     0
  3

 72
    65
 73
     0
 40
0.0
  0
LTYPE
  5
15
330
5
100
AcDbSymbolTableRecord
100
AcDbLinetypeTableRecord
  2
CONTINUOUS
 70
     0
  3
Solid line
 72
    65
 73
     0
 40
0.0
  0
LTYPE
  5
22
330
5
100
AcDbSymbolTableRecord
100
AcDbLinetypeTableRecord
  2
BORDER
 70
     0
  3
__ __ . __ __ . __ __ . __ __ . __ __ . __ __ .
 72
    65
 73
     6
 40
1.75
 49
0.5
 74
     0
 49
-0.25
 74
     0
 49
0.5
 74
     0
 49
-0.25
 74
     0
 49
0.5
 74
     0
 49
-0.25
 74
     0
  0
LTYPE
  5
23
330
5
100
AcDbSymbolTableRecord
100
AcDbLinetypeTableRecord
  2
BORDER2
 70
     0
  3
__.__.__.__.__.__.__.__.__.__.__.__.__.__.__.__
 72
    65
 73
     6
 40
0.875
 49
0.25
 74
     0
 49
-0.125
 74
     0
 49
0.25
 74
     0
 49
-0.125
 74
     0
 49
0.25
 74
     0
 49
-0.125
 74
     0
  0
LTYPE
  5
24
330
5
100
AcDbSymbolTableRecord
100
AcDbLinetypeTableRecord
  2
BORDERX2
 70
     0
  3
____  ____  .  ____  ____  .  
 72
    65
 73
     6
 40
3.5
 49
1.0
 74
     0
 49
-0.5
 74
     0
 49
1.0
 74
     0
 49
-0.5
 74
     0
 49
1.0
 74
     0
 49
-0.5
 74
     0
  0
LTYPE
  5
25
330
5
100
AcDbSymbolTableRecord
100
AcDbLinetypeTableRecord
  2
CENTER
 70
     0
  3
____ _ ____ _ ____ _ ____ _ ____ _ ____ _ ____
 72
    65
 73
     4
 40
2.0
 49
1.25
 74
     0
 49
-0.25
 74
     0
 49
0.25
 74
     0
 49
-0.25
 74
     0
  0
LTYPE
  5
26
330
5
100
AcDbSymbolTableRecord
100
AcDbLinetypeTableRecord
  2
CENTER2
 70
     0
  3
____ _ ____ _ ____ _ ____ _ ____ _ ____ _ ____
 72
    65
 73
     4
 40
1.125
 49
0.75
 74
     0
 49
-0.125
 74
     0
 49
0.125
 74
     0
 49
-0.125
 74
     0
  0
LTYPE
  5
27
330
5
100
AcDbSymbolTableRecord
100
AcDbLinetypeTableRecord
  2
CENTERX2
 70
     0
  3
________  __  ________  __  ________  __  
 72
    65
 73
     4
 40
4.0
 49
2.5
 74
     0
 49
-0.5
 74
     0
 49
0.5
 74
     0
 49
-0.5
 74
     0
  0
LTYPE
  5
28
330
5
100
AcDbSymbolTableRecord
100
AcDbLinetypeTableRecord
  2
DASHDOT
 70
     0
  3
__ . __ . __ . __ . __ . __ . __ . 
 72
    65
 73
     4
 40
1.0
 49
0.5
 74
     0
 49
-0.25
 74
     0
 49
0.0
 74
     0
 49
-0.25
 74
     0
  0
LTYPE
  5
29
330
5
100
AcDbSymbolTableRecord
100
AcDbLinetypeTableRecord
  2
DASHDOT2
 70
     0
  3
_._._._._._._._._._._._._._._._.
 72
    65
 73
     4
 40
0.5
 49
0.25
 74
     0
 49
-0.125
 74
     0
 49
0.0
 74
     0
 49
-0.125
 74
     0
  0
LTYPE
  5
2A
330
5
100
AcDbSymbolTableRecord
100
AcDbLinetypeTableRecord
  2
DASHDOTX2
 70
     0
  3
____  .  ____  .  ____  .  ____  .  
 72
    65
 73
     4
 40
2.0
 49
1.0
 74
     0
 49
-0.5
 74
     0
 49
0.0
 74
     0
 49
-0.5
 74
     0
  0
LTYPE
  5
2B
330
5
100
AcDbSymbolTableRecord
100
AcDbLinetypeTableRecord
  2
DASHED
 70
     0
  3
__ __ __ __ __ __ __ __ __ __ __ __ 
 72
    65
 73
     2
 40
0.75
 49
0.5
 74
     0
 49
-0.25
 74
     0
  0
LTYPE
  5
2C
330
5
100
AcDbSymbolTableRecord
100
AcDbLinetypeTableRecord
  2
DASHED2
 70
     0
  3
_ _ _ _ _ _ _ _ _ _ _ _ _ _ _ _ _ _ 
 72
    65
 73
     2
 40
0.375
 49
0.25
 74
     0
 49
-0.125
 74
     0
  0
LTYPE
  5
2D
330
5
100
AcDbSymbolTableRecord
100
AcDbLinetypeTableRecord
  2
DASHEDX2
 70
     0
  3
____  ____  ____  ____  ____  ____  
 72
    65
 73
     2
 40
1.5
 49
1.0
 74
     0
 49
-0.5
 74
     0
  0
LTYPE
  5
2E
330
5
100
AcDbSymbolTableRecord
100
AcDbLinetypeTableRecord
  2
DIVIDE
 70
     0
  3
____ . . ____ . . ____ . . ____ . . 
 72
    65
 73
     6
 40
1.25
 49
0.5
 74
     0
 49
-0.25
 74
     0
 49
0.0
 74
     0
 49
-0.25
 74
     0
 49
0.0
 74
     0
 49
-0.25
 74
     0
  0
LTYPE
  5
2F
330
5
100
AcDbSymbolTableRecord
100
AcDbLinetypeTableRecord
  2
DIVIDE2
 70
     0
  3
__..__..__..__..__..__..__..__..__..
 72
    65
 73
     6
 40
0.625
 49
0.25
 74
     0
 49
-0.125
 74
     0
 49
0.0
 74
     0
 49
-0.125
 74
     0
 49
0.0
 74
     0
 49
-0.125
 74
     0
  0
LTYPE
  5
30
330
5
100
AcDbSymbolTableRecord
100
AcDbLinetypeTableRecord
  2
DIVIDEX2
 70
     0
  3
________  .  .  ________  .  .  ________  .  . 
 72
    65
 73
     6
 40
2.5
 49
1.0
 74
     0
 49
-0.5
 74
     0
 49
0.0
 74
     0
 49
-0.5
 74
     0
 49
0.0
 74
     0
 49
-0.5
 74
     0
  0
LTYPE
  5
31
330
5
100
AcDbSymbolTableRecord
100
AcDbLinetypeTableRecord
  2
DOT
 70
     0
  3
. . . . . . . . . . . . . . . . . . 
 72
    65
 73
     2
 40
0.25
 49
0.0
 74
     0
 49
-0.25
 74
     0
  0
LTYPE
  5
32
330
5
100
AcDbSymbolTableRecord
100
AcDbLinetypeTableRecord
  2
DOT2
 70
     0
  3
....................................
 72
    65
 73
     2
 40
0.125
 49
0.0
 74
     0
 49
-0.125
 74
     0
  0
LTYPE
  5
33
330
5
100
AcDbSymbolTableRecord
100
AcDbLinetypeTableRecord
  2
DOTX2
 70
     0
  3
.  .  .  .  .  .  .  .  .  .  .  .  .  
 72
    65
 73
     2
 40
0.5
 49
0.0
 74
     0
 49
-0.5
 74
     0
  0
LTYPE
  5
34
330
5
100
AcDbSymbolTableRecord
100
AcDbLinetypeTableRecord
  2
HIDDEN
 70
     0
  3
__ __ __ __ __ __ __ __ __ __ __ __ 
 72
    65
 73
     2
 40
0.375
 49
0.25
 74
     0
 49
-0.125
 74
     0
  0
LTYPE
  5
35
330
5
100
AcDbSymbolTableRecord
100
AcDbLinetypeTableRecord
  2
HIDDEN2
 70
     0
  3
_ _ _ _ _ _ _ _ _ _ _ _ _ _ _ _ _ _ 
 72
    65
 73
     2
 40
0.1875
 49
0.125
 74
     0
 49
-0.0625
 74
     0
  0
LTYPE
  5
36
330
5
100
AcDbSymbolTableRecord
100
AcDbLinetypeTableRecord
  2
HIDDENX2
 70
     0
  3
____ ____ ____ ____ ____ ____ ____ 
 72
    65
 73
     2
 40
0.75
 49
0.5
 74
     0
 49
-0.25
 74
     0
  0
LTYPE
  5
37
330
5
100
AcDbSymbolTableRecord
100
AcDbLinetypeTableRecord
  2
PHANTOM
 70
     0
  3
______  __  __  ______  __  __  
 72
    65
 73
     6
 40
2.5
 49
1.25
 74
     0
 49
-0.25
 74
     0
 49
0.25
 74
     0
 49
-0.25
 74
     0
 49
0.25
 74
     0
 49
-0.25
 74
     0
  0
LTYPE
  5
38
330
5
100
AcDbSymbolTableRecord
100
AcDbLinetypeTableRecord
  2
PHANTOM2
 70
     0
  3
___ _ _ ___ _ _ ___ _ _ ___ _ _ 
 72
    65
 73
     6
 40
1.25
 49
0.625
 74
     0
 49
-0.125
 74
     0
 49
0.125
 74
     0
 49
-0.125
 74
     0
 49
0.125
 74
     0
 49
-0.125
 74
     0
  0
LTYPE
  5
39
330
5
100
AcDbSymbolTableRecord
100
AcDbLinetypeTableRecord
  2
PHANTOMX2
 70
     0
  3
___ _ _ ___ _ _ ___ _ _ ___ _ _ 
 72
    65
 73
     6
 40
5.0
 49
2.5
 74
     0
 49
-0.5
 74
     0
 49
0.5
 74
     0
 49
-0.5
 74
     0
 49
0.5
 74
     0
 49
-0.5
 74
     0
  0
ENDTAB
  0
TABLE
  2
LAYER
  5
2
330
0
100
AcDbSymbolTable
 70
   257
  0
LAYER
  5
10
330
2
100
AcDbSymbolTableRecord
100
AcDbLayerTableRecord
  2
0
 70
     0
 62
     7
  6
CONTINUOUS
  0
LAYER
  5
3A
330
2
100
AcDbSymbolTableRecord
100
AcDbLayerTableRecord
  2
1
 70
     0
 62
     1
  6
CONTINUOUS
  0
LAYER
  5
3B
330
2
100
AcDbSymbolTableRecord
100
AcDbLayerTableRecord
  2
2
 70
     0
 62
     2
  6
CONTINUOUS
  0
LAYER
  5
3C
330
2
100
AcDbSymbolTableRecord
100
AcDbLayerTableRecord
  2
3
 70
     0
 62
     3
  6
CONTINUOUS
  0
LAYER
  5
3D
330
2
100
AcDbSymbolTableRecord
100
AcDbLayerTableRecord
  2
4
 70
     0
 62
     4
  6
CONTINUOUS
  0
LAYER
  5
3E
330
2
100
AcDbSymbolTableRecord
100
AcDbLayerTableRecord
  2
5
 70
     0
 62
     5
  6
CONTINUOUS
  0
LAYER
  5
3F
330
2
100
AcDbSymbolTableRecord
100
AcDbLayerTableRecord
  2
6
 70
     0
 62
     6
  6
CONTINUOUS
  0
LAYER
  5
40
330
2
100
AcDbSymbolTableRecord
100
AcDbLayerTableRecord
  2
7
 70
     0
 62
     7
  6
CONTINUOUS
  0
LAYER
  5
41
330
2
100
AcDbSymbolTableRecord
100
AcDbLayerTableRecord
  2
8
 70
     0
 62
     8
  6
CONTINUOUS
  0
LAYER
  5
42
330
2
100
AcDbSymbolTableRecord
100
AcDbLayerTableRecord
  2
9
 70
     0
 62
     9
  6
CONTINUOUS
  0
LAYER
  5
43
330
2
100
AcDbSymbolTableRecord
100
AcDbLayerTableRecord
  2
10
 70
     0
 62
    10
  6
CONTINUOUS
  0
LAYER
  5
44
330
2
100
AcDbSymbolTableRecord
100
AcDbLayerTableRecord
  2
11
 70
     0
 62
    11
  6
CONTINUOUS
  0
LAYER
  5
45
330
2
100
AcDbSymbolTableRecord
100
AcDbLayerTableRecord
  2
12
 70
     0
 62
    12
  6
CONTINUOUS
  0
LAYER
  5
46
330
2
100
AcDbSymbolTableRecord
100
AcDbLayerTableRecord
  2
13
 70
     0
 62
    13
  6
CONTINUOUS
  0
LAYER
  5
47
330
2
100
AcDbSymbolTableRecord
100
AcDbLayerTableRecord
  2
14
 70
     0
 62
    14
  6
CONTINUOUS
  0
LAYER
  5
48
330
2
100
AcDbSymbolTableRecord
100
AcDbLayerTableRecord
  2
15
 70
     0
 62
    15
  6
CONTINUOUS
  0
LAYER
  5
49
330
2
100
AcDbSymbolTableRecord
100
AcDbLayerTableRecord
  2
16
 70
     0
 62
    16
  6
CONTINUOUS
  0
LAYER
  5
4A
330
2
100
AcDbSymbolTableRecord
100
AcDbLayerTableRecord
  2
17
 70
     0
 62
    17
  6
CONTINUOUS
  0
LAYER
  5
4B
330
2
100
AcDbSymbolTableRecord
100
AcDbLayerTableRecord
  2
18
 70
     0
 62
    18
  6
CONTINUOUS
  0
LAYER
  5
4C
330
2
100
AcDbSymbolTableRecord
100
AcDbLayerTableRecord
  2
19
 70
     0
 62
    19
  6
CONTINUOUS
  0
LAYER
  5
4D
330
2
100
AcDbSymbolTableRecord
100
AcDbLayerTableRecord
  2
20
 70
     0
 62
    20
  6
CONTINUOUS
  0
LAYER
  5
4E
330
2
100
AcDbSymbolTableRecord
100
AcDbLayerTableRecord
  2
21
 70
     0
 62
    21
  6
CONTINUOUS
  0
LAYER
  5
4F
330
2
100
AcDbSymbolTableRecord
100
AcDbLayerTableRecord
  2
22
 70
     0
 62
    22
  6
CONTINUOUS
  0
LAYER
  5
50
330
2
100
AcDbSymbolTableRecord
100
AcDbLayerTableRecord
  2
23
 70
     0
 62
    23
  6
CONTINUOUS
  0
LAYER
  5
51
330
2
100
AcDbSymbolTableRecord
100
AcDbLayerTableRecord
  2
24
 70
     0
 62
    24
  6
CONTINUOUS
  0
LAYER
  5
52
330
2
100
AcDbSymbolTableRecord
100
AcDbLayerTableRecord
  2
25
 70
     0
 62
    25
  6
CONTINUOUS
  0
LAYER
  5
53
330
2
100
AcDbSymbolTableRecord
100
AcDbLayerTableRecord
  2
26
 70
     0
 62
    26
  6
CONTINUOUS
  0
LAYER
  5
54
330
2
100
AcDbSymbolTableRecord
100
AcDbLayerTableRecord
  2
27
 70
     0
 62
    27
  6
CONTINUOUS
  0
LAYER
  5
55
330
2
100
AcDbSymbolTableRecord
100
AcDbLayerTableRecord
  2
28
 70
     0
 62
    28
  6
CONTINUOUS
  0
LAYER
  5
56
330
2
100
AcDbSymbolTableRecord
100
AcDbLayerTableRecord
  2
29
 70
     0
 62
    29
  6
CONTINUOUS
  0
LAYER
  5
57
330
2
100
AcDbSymbolTableRecord
100
AcDbLayerTableRecord
  2
30
 70
     0
 62
    30
  6
CONTINUOUS
  0
LAYER
  5
58
330
2
100
AcDbSymbolTableRecord
100
AcDbLayerTableRecord
  2
31
 70
     0
 62
    31
  6
CONTINUOUS
  0
LAYER
  5
59
330
2
100
AcDbSymbolTableRecord
100
AcDbLayerTableRecord
  2
32
 70
     0
 62
    32
  6
CONTINUOUS
  0
LAYER
  5
5A
330
2
100
AcDbSymbolTableRecord
100
AcDbLayerTableRecord
  2
33
 70
     0
 62
    33
  6
CONTINUOUS
  0
LAYER
  5
5B
330
2
100
AcDbSymbolTableRecord
100
AcDbLayerTableRecord
  2
34
 70
     0
 62
    34
  6
CONTINUOUS
  0
LAYER
  5
5C
330
2
100
AcDbSymbolTableRecord
100
AcDbLayerTableRecord
  2
35
 70
     0
 62
    35
  6
CONTINUOUS
  0
LAYER
  5
5D
330
2
100
AcDbSymbolTableRecord
100
AcDbLayerTableRecord
  2
36
 70
     0
 62
    36
  6
CONTINUOUS
  0
LAYER
  5
5E
330
2
100
AcDbSymbolTableRecord
100
AcDbLayerTableRecord
  2
37
 70
     0
 62
    37
  6
CONTINUOUS
  0
LAYER
  5
5F
330
2
100
AcDbSymbolTableRecord
100
AcDbLayerTableRecord
  2
38
 70
     0
 62
    38
  6
CONTINUOUS
  0
LAYER
  5
60
330
2
100
AcDbSymbolTableRecord
100
AcDbLayerTableRecord
  2
39
 70
     0
 62
    39
  6
CONTINUOUS
  0
LAYER
  5
61
330
2
100
AcDbSymbolTableRecord
100
AcDbLayerTableRecord
  2
40
 70
     0
 62
    40
  6
CONTINUOUS
  0
LAYER
  5
62
330
2
100
AcDbSymbolTableRecord
100
AcDbLayerTableRecord
  2
41
 70
     0
 62
    41
  6
CONTINUOUS
  0
LAYER
  5
63
330
2
100
AcDbSymbolTableRecord
100
AcDbLayerTableRecord
  2
42
 70
     0
 62
    42
  6
CONTINUOUS
  0
LAYER
  5
64
330
2
100
AcDbSymbolTableRecord
100
AcDbLayerTableRecord
  2
43
 70
     0
 62
    43
  6
CONTINUOUS
  0
LAYER
  5
65
330
2
100
AcDbSymbolTableRecord
100
AcDbLayerTableRecord
  2
44
 70
     0
 62
    44
  6
CONTINUOUS
  0
LAYER
  5
66
330
2
100
AcDbSymbolTableRecord
100
AcDbLayerTableRecord
  2
45
 70
     0
 62
    45
  6
CONTINUOUS
  0
LAYER
  5
67
330
2
100
AcDbSymbolTableRecord
100
AcDbLayerTableRecord
  2
46
 70
     0
 62
    46
  6
CONTINUOUS
  0
LAYER
  5
68
330
2
100
AcDbSymbolTableRecord
100
AcDbLayerTableRecord
  2
47
 70
     0
 62
    47
  6
CONTINUOUS
  0
LAYER
  5
69
330
2
100
AcDbSymbolTableRecord
100
AcDbLayerTableRecord
  2
48
 70
     0
 62
    48
  6
CONTINUOUS
  0
LAYER
  5
6A
330
2
100
AcDbSymbolTableRecord
100
AcDbLayerTableRecord
  2
49
 70
     0
 62
    49
  6
CONTINUOUS
  0
LAYER
  5
6B
330
2
100
AcDbSymbolTableRecord
100
AcDbLayerTableRecord
  2
50
 70
     0
 62
    50
  6
CONTINUOUS
  0
LAYER
  5
6C
330
2
100
AcDbSymbolTableRecord
100
AcDbLayerTableRecord
  2
51
 70
     0
 62
    51
  6
CONTINUOUS
  0
LAYER
  5
6D
330
2
100
AcDbSymbolTableRecord
100
AcDbLayerTableRecord
  2
52
 70
     0
 62
    52
  6
CONTINUOUS
  0
LAYER
  5
6E
330
2
100
AcDbSymbolTableRecord
100
AcDbLayerTableRecord
  2
53
 70
     0
 62
    53
  6
CONTINUOUS
  0
LAYER
  5
6F
330
2
100
AcDbSymbolTableRecord
100
AcDbLayerTableRecord
  2
54
 70
     0
 62
    54
  6
CONTINUOUS
  0
LAYER
  5
70
330
2
100
AcDbSymbolTableRecord
100
AcDbLayerTableRecord
  2
55
 70
     0
 62
    55
  6
CONTINUOUS
  0
LAYER
  5
71
330
2
100
AcDbSymbolTableRecord
100
AcDbLayerTableRecord
  2
56
 70
     0
 62
    56
  6
CONTINUOUS
  0
LAYER
  5
72
330
2
100
AcDbSymbolTableRecord
100
AcDbLayerTableRecord
  2
57
 70
     0
 62
    57
  6
CONTINUOUS
  0
LAYER
  5
73
330
2
100
AcDbSymbolTableRecord
100
AcDbLayerTableRecord
  2
58
 70
     0
 62
    58
  6
CONTINUOUS
  0
LAYER
  5
74
330
2
100
AcDbSymbolTableRecord
100
AcDbLayerTableRecord
  2
59
 70
     0
 62
    59
  6
CONTINUOUS
  0
LAYER
  5
75
330
2
100
AcDbSymbolTableRecord
100
AcDbLayerTableRecord
  2
60
 70
     0
 62
    60
  6
CONTINUOUS
  0
LAYER
  5
76
330
2
100
AcDbSymbolTableRecord
100
AcDbLayerTableRecord
  2
61
 70
     0
 62
    61
  6
CONTINUOUS
  0
LAYER
  5
77
330
2
100
AcDbSymbolTableRecord
100
AcDbLayerTableRecord
  2
62
 70
     0
 62
    62
  6
CONTINUOUS
  0
LAYER
  5
78
330
2
100
AcDbSymbolTableRecord
100
AcDbLayerTableRecord
  2
63
 70
     0
 62
    63
  6
CONTINUOUS
  0
LAYER
  5
79
330
2
100
AcDbSymbolTableRecord
100
AcDbLayerTableRecord
  2
64
 70
     0
 62
    64
  6
CONTINUOUS
  0
LAYER
  5
7A
330
2
100
AcDbSymbolTableRecord
100
AcDbLayerTableRecord
  2
65
 70
     0
 62
    65
  6
CONTINUOUS
  0
LAYER
  5
7B
330
2
100
AcDbSymbolTableRecord
100
AcDbLayerTableRecord
  2
66
 70
     0
 62
    66
  6
CONTINUOUS
  0
LAYER
  5
7C
330
2
100
AcDbSymbolTableRecord
100
AcDbLayerTableRecord
  2
67
 70
     0
 62
    67
  6
CONTINUOUS
  0
LAYER
  5
7D
330
2
100
AcDbSymbolTableRecord
100
AcDbLayerTableRecord
  2
68
 70
     0
 62
    68
  6
CONTINUOUS
  0
LAYER
  5
7E
330
2
100
AcDbSymbolTableRecord
100
AcDbLayerTableRecord
  2
69
 70
     0
 62
    69
  6
CONTINUOUS
  0
LAYER
  5
7F
330
2
100
AcDbSymbolTableRecord
100
AcDbLayerTableRecord
  2
70
 70
     0
 62
    70
  6
CONTINUOUS
  0
LAYER
  5
80
330
2
100
AcDbSymbolTableRecord
100
AcDbLayerTableRecord
  2
71
 70
     0
 62
    71
  6
CONTINUOUS
  0
LAYER
  5
81
330
2
100
AcDbSymbolTableRecord
100
AcDbLayerTableRecord
  2
72
 70
     0
 62
    72
  6
CONTINUOUS
  0
LAYER
  5
82
330
2
100
AcDbSymbolTableRecord
100
AcDbLayerTableRecord
  2
73
 70
     0
 62
    73
  6
CONTINUOUS
  0
LAYER
  5
83
330
2
100
AcDbSymbolTableRecord
100
AcDbLayerTableRecord
  2
74
 70
     0
 62
    74
  6
CONTINUOUS
  0
LAYER
  5
84
330
2
100
AcDbSymbolTableRecord
100
AcDbLayerTableRecord
  2
75
 70
     0
 62
    75
  6
CONTINUOUS
  0
LAYER
  5
85
330
2
100
AcDbSymbolTableRecord
100
AcDbLayerTableRecord
  2
76
 70
     0
 62
    76
  6
CONTINUOUS
  0
LAYER
  5
86
330
2
100
AcDbSymbolTableRecord
100
AcDbLayerTableRecord
  2
77
 70
     0
 62
    77
  6
CONTINUOUS
  0
LAYER
  5
87
330
2
100
AcDbSymbolTableRecord
100
AcDbLayerTableRecord
  2
78
 70
     0
 62
    78
  6
CONTINUOUS
  0
LAYER
  5
88
330
2
100
AcDbSymbolTableRecord
100
AcDbLayerTableRecord
  2
79
 70
     0
 62
    79
  6
CONTINUOUS
  0
LAYER
  5
89
330
2
100
AcDbSymbolTableRecord
100
AcDbLayerTableRecord
  2
80
 70
     0
 62
    80
  6
CONTINUOUS
  0
LAYER
  5
8A
330
2
100
AcDbSymbolTableRecord
100
AcDbLayerTableRecord
  2
81
 70
     0
 62
    81
  6
CONTINUOUS
  0
LAYER
  5
8B
330
2
100
AcDbSymbolTableRecord
100
AcDbLayerTableRecord
  2
82
 70
     0
 62
    82
  6
CONTINUOUS
  0
LAYER
  5
8C
330
2
100
AcDbSymbolTableRecord
100
AcDbLayerTableRecord
  2
83
 70
     0
 62
    83
  6
CONTINUOUS
  0
LAYER
  5
8D
330
2
100
AcDbSymbolTableRecord
100
AcDbLayerTableRecord
  2
84
 70
     0
 62
    84
  6
CONTINUOUS
  0
LAYER
  5
8E
330
2
100
AcDbSymbolTableRecord
100
AcDbLayerTableRecord
  2
85
 70
     0
 62
    85
  6
CONTINUOUS
  0
LAYER
  5
8F
330
2
100
AcDbSymbolTableRecord
100
AcDbLayerTableRecord
  2
86
 70
     0
 62
    86
  6
CONTINUOUS
  0
LAYER
  5
90
330
2
100
AcDbSymbolTableRecord
100
AcDbLayerTableRecord
  2
87
 70
     0
 62
    87
  6
CONTINUOUS
  0
LAYER
  5
91
330
2
100
AcDbSymbolTableRecord
100
AcDbLayerTableRecord
  2
88
 70
     0
 62
    88
  6
CONTINUOUS
  0
LAYER
  5
92
330
2
100
AcDbSymbolTableRecord
100
AcDbLayerTableRecord
  2
89
 70
     0
 62
    89
  6
CONTINUOUS
  0
LAYER
  5
93
330
2
100
AcDbSymbolTableRecord
100
AcDbLayerTableRecord
  2
90
 70
     0
 62
    90
  6
CONTINUOUS
  0
LAYER
  5
94
330
2
100
AcDbSymbolTableRecord
100
AcDbLayerTableRecord
  2
91
 70
     0
 62
    91
  6
CONTINUOUS
  0
LAYER
  5
95
330
2
100
AcDbSymbolTableRecord
100
AcDbLayerTableRecord
  2
92
 70
     0
 62
    92
  6
CONTINUOUS
  0
LAYER
  5
96
330
2
100
AcDbSymbolTableRecord
100
AcDbLayerTableRecord
  2
93
 70
     0
 62
    93
  6
CONTINUOUS
  0
LAYER
  5
97
330
2
100
AcDbSymbolTableRecord
100
AcDbLayerTableRecord
  2
94
 70
     0
 62
    94
  6
CONTINUOUS
  0
LAYER
  5
98
330
2
100
AcDbSymbolTableRecord
100
AcDbLayerTableRecord
  2
95
 70
     0
 62
    95
  6
CONTINUOUS
  0
LAYER
  5
99
330
2
100
AcDbSymbolTableRecord
100
AcDbLayerTableRecord
  2
96
 70
     0
 62
    96
  6
CONTINUOUS
  0
LAYER
  5
9A
330
2
100
AcDbSymbolTableRecord
100
AcDbLayerTableRecord
  2
97
 70
     0
 62
    97
  6
CONTINUOUS
  0
LAYER
  5
9B
330
2
100
AcDbSymbolTableRecord
100
AcDbLayerTableRecord
  2
98
 70
     0
 62
    98
  6
CONTINUOUS
  0
LAYER
  5
9C
330
2
100
AcDbSymbolTableRecord
100
AcDbLayerTableRecord
  2
99
 70
     0
 62
    99
  6
CONTINUOUS
  0
LAYER
  5
9D
330
2
100
AcDbSymbolTableRecord
100
AcDbLayerTableRecord
  2
100
 70
     0
 62
   100
  6
CONTINUOUS
  0
LAYER
  5
9E
330
2
100
AcDbSymbolTableRecord
100
AcDbLayerTableRecord
  2
101
 70
     0
 62
   101
  6
CONTINUOUS
  0
LAYER
  5
9F
330
2
100
AcDbSymbolTableRecord
100
AcDbLayerTableRecord
  2
102
 70
     0
 62
   102
  6
CONTINUOUS
  0
LAYER
  5
A0
330
2
100
AcDbSymbolTableRecord
100
AcDbLayerTableRecord
  2
103
 70
     0
 62
   103
  6
CONTINUOUS
  0
LAYER
  5
A1
330
2
100
AcDbSymbolTableRecord
100
AcDbLayerTableRecord
  2
104
 70
     0
 62
   104
  6
CONTINUOUS
  0
LAYER
  5
A2
330
2
100
AcDbSymbolTableRecord
100
AcDbLayerTableRecord
  2
105
 70
     0
 62
   105
  6
CONTINUOUS
  0
LAYER
  5
A3
330
2
100
AcDbSymbolTableRecord
100
AcDbLayerTableRecord
  2
106
 70
     0
 62
   106
  6
CONTINUOUS
  0
LAYER
  5
A4
330
2
100
AcDbSymbolTableRecord
100
AcDbLayerTableRecord
  2
107
 70
     0
 62
   107
  6
CONTINUOUS
  0
LAYER
  5
A5
330
2
100
AcDbSymbolTableRecord
100
AcDbLayerTableRecord
  2
108
 70
     0
 62
   108
  6
CONTINUOUS
  0
LAYER
  5
A6
330
2
100
AcDbSymbolTableRecord
100
AcDbLayerTableRecord
  2
109
 70
     0
 62
   109
  6
CONTINUOUS
  0
LAYER
  5
A7
330
2
100
AcDbSymbolTableRecord
100
AcDbLayerTableRecord
  2
110
 70
     0
 62
   110
  6
CONTINUOUS
  0
LAYER
  5
A8
330
2
100
AcDbSymbolTableRecord
100
AcDbLayerTableRecord
  2
111
 70
     0
 62
   111
  6
CONTINUOUS
  0
LAYER
  5
A9
330
2
100
AcDbSymbolTableRecord
100
AcDbLayerTableRecord
  2
112
 70
     0
 62
   112
  6
CONTINUOUS
  0
LAYER
  5
AA
330
2
100
AcDbSymbolTableRecord
100
AcDbLayerTableRecord
  2
113
 70
     0
 62
   113
  6
CONTINUOUS
  0
LAYER
  5
AB
330
2
100
AcDbSymbolTableRecord
100
AcDbLayerTableRecord
  2
114
 70
     0
 62
   114
  6
CONTINUOUS
  0
LAYER
  5
AC
330
2
100
AcDbSymbolTableRecord
100
AcDbLayerTableRecord
  2
115
 70
     0
 62
   115
  6
CONTINUOUS
  0
LAYER
  5
AD
330
2
100
AcDbSymbolTableRecord
100
AcDbLayerTableRecord
  2
116
 70
     0
 62
   116
  6
CONTINUOUS
  0
LAYER
  5
AE
330
2
100
AcDbSymbolTableRecord
100
AcDbLayerTableRecord
  2
117
 70
     0
 62
   117
  6
CONTINUOUS
  0
LAYER
  5
AF
330
2
100
AcDbSymbolTableRecord
100
AcDbLayerTableRecord
  2
118
 70
     0
 62
   118
  6
CONTINUOUS
  0
LAYER
  5
B0
330
2
100
AcDbSymbolTableRecord
100
AcDbLayerTableRecord
  2
119
 70
     0
 62
   119
  6
CONTINUOUS
  0
LAYER
  5
B1
330
2
100
AcDbSymbolTableRecord
100
AcDbLayerTableRecord
  2
120
 70
     0
 62
   120
  6
CONTINUOUS
  0
LAYER
  5
B2
330
2
100
AcDbSymbolTableRecord
100
AcDbLayerTableRecord
  2
121
 70
     0
 62
   121
  6
CONTINUOUS
  0
LAYER
  5
B3
330
2
100
AcDbSymbolTableRecord
100
AcDbLayerTableRecord
  2
122
 70
     0
 62
   122
  6
CONTINUOUS
  0
LAYER
  5
B4
330
2
100
AcDbSymbolTableRecord
100
AcDbLayerTableRecord
  2
123
 70
     0
 62
   123
  6
CONTINUOUS
  0
LAYER
  5
B5
330
2
100
AcDbSymbolTableRecord
100
AcDbLayerTableRecord
  2
124
 70
     0
 62
   124
  6
CONTINUOUS
  0
LAYER
  5
B6
330
2
100
AcDbSymbolTableRecord
100
AcDbLayerTableRecord
  2
125
 70
     0
 62
   125
  6
CONTINUOUS
  0
LAYER
  5
B7
330
2
100
AcDbSymbolTableRecord
100
AcDbLayerTableRecord
  2
126
 70
     0
 62
   126
  6
CONTINUOUS
  0
LAYER
  5
B8
330
2
100
AcDbSymbolTableRecord
100
AcDbLayerTableRecord
  2
127
 70
     0
 62
   127
  6
CONTINUOUS
  0
LAYER
  5
B9
330
2
100
AcDbSymbolTableRecord
100
AcDbLayerTableRecord
  2
128
 70
     0
 62
   128
  6
CONTINUOUS
  0
LAYER
  5
BA
330
2
100
AcDbSymbolTableRecord
100
AcDbLayerTableRecord
  2
129
 70
     0
 62
   129
  6
CONTINUOUS
  0
LAYER
  5
BB
330
2
100
AcDbSymbolTableRecord
100
AcDbLayerTableRecord
  2
130
 70
     0
 62
   130
  6
CONTINUOUS
  0
LAYER
  5
BC
330
2
100
AcDbSymbolTableRecord
100
AcDbLayerTableRecord
  2
131
 70
     0
 62
   131
  6
CONTINUOUS
  0
LAYER
  5
BD
330
2
100
AcDbSymbolTableRecord
100
AcDbLayerTableRecord
  2
132
 70
     0
 62
   132
  6
CONTINUOUS
  0
LAYER
  5
BE
330
2
100
AcDbSymbolTableRecord
100
AcDbLayerTableRecord
  2
133
 70
     0
 62
   133
  6
CONTINUOUS
  0
LAYER
  5
BF
330
2
100
AcDbSymbolTableRecord
100
AcDbLayerTableRecord
  2
134
 70
     0
 62
   134
  6
CONTINUOUS
  0
LAYER
  5
C0
330
2
100
AcDbSymbolTableRecord
100
AcDbLayerTableRecord
  2
135
 70
     0
 62
   135
  6
CONTINUOUS
  0
LAYER
  5
C1
330
2
100
AcDbSymbolTableRecord
100
AcDbLayerTableRecord
  2
136
 70
     0
 62
   136
  6
CONTINUOUS
  0
LAYER
  5
C2
330
2
100
AcDbSymbolTableRecord
100
AcDbLayerTableRecord
  2
137
 70
     0
 62
   137
  6
CONTINUOUS
  0
LAYER
  5
C3
330
2
100
AcDbSymbolTableRecord
100
AcDbLayerTableRecord
  2
138
 70
     0
 62
   138
  6
CONTINUOUS
  0
LAYER
  5
C4
330
2
100
AcDbSymbolTableRecord
100
AcDbLayerTableRecord
  2
139
 70
     0
 62
   139
  6
CONTINUOUS
  0
LAYER
  5
C5
330
2
100
AcDbSymbolTableRecord
100
AcDbLayerTableRecord
  2
140
 70
     0
 62
   140
  6
CONTINUOUS
  0
LAYER
  5
C6
330
2
100
AcDbSymbolTableRecord
100
AcDbLayerTableRecord
  2
141
 70
     0
 62
   141
  6
CONTINUOUS
  0
LAYER
  5
C7
330
2
100
AcDbSymbolTableRecord
100
AcDbLayerTableRecord
  2
142
 70
     0
 62
   142
  6
CONTINUOUS
  0
LAYER
  5
C8
330
2
100
AcDbSymbolTableRecord
100
AcDbLayerTableRecord
  2
143
 70
     0
 62
   143
  6
CONTINUOUS
  0
LAYER
  5
C9
330
2
100
AcDbSymbolTableRecord
100
AcDbLayerTableRecord
  2
144
 70
     0
 62
   144
  6
CONTINUOUS
  0
LAYER
  5
CA
330
2
100
AcDbSymbolTableRecord
100
AcDbLayerTableRecord
  2
145
 70
     0
 62
   145
  6
CONTINUOUS
  0
LAYER
  5
CB
330
2
100
AcDbSymbolTableRecord
100
AcDbLayerTableRecord
  2
146
 70
     0
 62
   146
  6
CONTINUOUS
  0
LAYER
  5
CC
330
2
100
AcDbSymbolTableRecord
100
AcDbLayerTableRecord
  2
147
 70
     0
 62
   147
  6
CONTINUOUS
  0
LAYER
  5
CD
330
2
100
AcDbSymbolTableRecord
100
AcDbLayerTableRecord
  2
148
 70
     0
 62
   148
  6
CONTINUOUS
  0
LAYER
  5
CE
330
2
100
AcDbSymbolTableRecord
100
AcDbLayerTableRecord
  2
149
 70
     0
 62
   149
  6
CONTINUOUS
  0
LAYER
  5
CF
330
2
100
AcDbSymbolTableRecord
100
AcDbLayerTableRecord
  2
150
 70
     0
 62
   150
  6
CONTINUOUS
  0
LAYER
  5
D0
330
2
100
AcDbSymbolTableRecord
100
AcDbLayerTableRecord
  2
151
 70
     0
 62
   151
  6
CONTINUOUS
  0
LAYER
  5
D1
330
2
100
AcDbSymbolTableRecord
100
AcDbLayerTableRecord
  2
152
 70
     0
 62
   152
  6
CONTINUOUS
  0
LAYER
  5
D2
330
2
100
AcDbSymbolTableRecord
100
AcDbLayerTableRecord
  2
153
 70
     0
 62
   153
  6
CONTINUOUS
  0
LAYER
  5
D3
330
2
100
AcDbSymbolTableRecord
100
AcDbLayerTableRecord
  2
154
 70
     0
 62
   154
  6
CONTINUOUS
  0
LAYER
  5
D4
330
2
100
AcDbSymbolTableRecord
100
AcDbLayerTableRecord
  2
155
 70
     0
 62
   155
  6
CONTINUOUS
  0
LAYER
  5
D5
330
2
100
AcDbSymbolTableRecord
100
AcDbLayerTableRecord
  2
156
 70
     0
 62
   156
  6
CONTINUOUS
  0
LAYER
  5
D6
330
2
100
AcDbSymbolTableRecord
100
AcDbLayerTableRecord
  2
157
 70
     0
 62
   157
  6
CONTINUOUS
  0
LAYER
  5
D7
330
2
100
AcDbSymbolTableRecord
100
AcDbLayerTableRecord
  2
158
 70
     0
 62
   158
  6
CONTINUOUS
  0
LAYER
  5
D8
330
2
100
AcDbSymbolTableRecord
100
AcDbLayerTableRecord
  2
159
 70
     0
 62
   159
  6
CONTINUOUS
  0
LAYER
  5
D9
330
2
100
AcDbSymbolTableRecord
100
AcDbLayerTableRecord
  2
160
 70
     0
 62
   160
  6
CONTINUOUS
  0
LAYER
  5
DA
330
2
100
AcDbSymbolTableRecord
100
AcDbLayerTableRecord
  2
161
 70
     0
 62
   161
  6
CONTINUOUS
  0
LAYER
  5
DB
330
2
100
AcDbSymbolTableRecord
100
AcDbLayerTableRecord
  2
162
 70
     0
 62
   162
  6
CONTINUOUS
  0
LAYER
  5
DC
330
2
100
AcDbSymbolTableRecord
100
AcDbLayerTableRecord
  2
163
 70
     0
 62
   163
  6
CONTINUOUS
  0
LAYER
  5
DD
330
2
100
AcDbSymbolTableRecord
100
AcDbLayerTableRecord
  2
164
 70
     0
 62
   164
  6
CONTINUOUS
  0
LAYER
  5
DE
330
2
100
AcDbSymbolTableRecord
100
AcDbLayerTableRecord
  2
165
 70
     0
 62
   165
  6
CONTINUOUS
  0
LAYER
  5
DF
330
2
100
AcDbSymbolTableRecord
100
AcDbLayerTableRecord
  2
166
 70
     0
 62
   166
  6
CONTINUOUS
  0
LAYER
  5
E0
330
2
100
AcDbSymbolTableRecord
100
AcDbLayerTableRecord
  2
167
 70
     0
 62
   167
  6
CONTINUOUS
  0
LAYER
  5
E1
330
2
100
AcDbSymbolTableRecord
100
AcDbLayerTableRecord
  2
168
 70
     0
 62
   168
  6
CONTINUOUS
  0
LAYER
  5
E2
330
2
100
AcDbSymbolTableRecord
100
AcDbLayerTableRecord
  2
169
 70
     0
 62
   169
  6
CONTINUOUS
  0
LAYER
  5
E3
330
2
100
AcDbSymbolTableRecord
100
AcDbLayerTableRecord
  2
170
 70
     0
 62
   170
  6
CONTINUOUS
  0
LAYER
  5
E4
330
2
100
AcDbSymbolTableRecord
100
AcDbLayerTableRecord
  2
171
 70
     0
 62
   171
  6
CONTINUOUS
  0
LAYER
  5
E5
330
2
100
AcDbSymbolTableRecord
100
AcDbLayerTableRecord
  2
172
 70
     0
 62
   172
  6
CONTINUOUS
  0
LAYER
  5
E6
330
2
100
AcDbSymbolTableRecord
100
AcDbLayerTableRecord
  2
173
 70
     0
 62
   173
  6
CONTINUOUS
  0
LAYER
  5
E7
330
2
100
AcDbSymbolTableRecord
100
AcDbLayerTableRecord
  2
174
 70
     0
 62
   174
  6
CONTINUOUS
  0
LAYER
  5
E8
330
2
100
AcDbSymbolTableRecord
100
AcDbLayerTableRecord
  2
175
 70
     0
 62
   175
  6
CONTINUOUS
  0
LAYER
  5
E9
330
2
100
AcDbSymbolTableRecord
100
AcDbLayerTableRecord
  2
176
 70
     0
 62
   176
  6
CONTINUOUS
  0
LAYER
  5
EA
330
2
100
AcDbSymbolTableRecord
100
AcDbLayerTableRecord
  2
177
 70
     0
 62
   177
  6
CONTINUOUS
  0
LAYER
  5
EB
330
2
100
AcDbSymbolTableRecord
100
AcDbLayerTableRecord
  2
178
 70
     0
 62
   178
  6
CONTINUOUS
  0
LAYER
  5
EC
330
2
100
AcDbSymbolTableRecord
100
AcDbLayerTableRecord
  2
179
 70
     0
 62
   179
  6
CONTINUOUS
  0
LAYER
  5
ED
330
2
100
AcDbSymbolTableRecord
100
AcDbLayerTableRecord
  2
180
 70
     0
 62
   180
  6
CONTINUOUS
  0
LAYER
  5
EE
330
2
100
AcDbSymbolTableRecord
100
AcDbLayerTableRecord
  2
181
 70
     0
 62
   181
  6
CONTINUOUS
  0
LAYER
  5
EF
330
2
100
AcDbSymbolTableRecord
100
AcDbLayerTableRecord
  2
182
 70
     0
 62
   182
  6
CONTINUOUS
  0
LAYER
  5
F0
330
2
100
AcDbSymbolTableRecord
100
AcDbLayerTableRecord
  2
183
 70
     0
 62
   183
  6
CONTINUOUS
  0
LAYER
  5
F1
330
2
100
AcDbSymbolTableRecord
100
AcDbLayerTableRecord
  2
184
 70
     0
 62
   184
  6
CONTINUOUS
  0
LAYER
  5
F2
330
2
100
AcDbSymbolTableRecord
100
AcDbLayerTableRecord
  2
185
 70
     0
 62
   185
  6
CONTINUOUS
  0
LAYER
  5
F3
330
2
100
AcDbSymbolTableRecord
100
AcDbLayerTableRecord
  2
186
 70
     0
 62
   186
  6
CONTINUOUS
  0
LAYER
  5
F4
330
2
100
AcDbSymbolTableRecord
100
AcDbLayerTableRecord
  2
187
 70
     0
 62
   187
  6
CONTINUOUS
  0
LAYER
  5
F5
330
2
100
AcDbSymbolTableRecord
100
AcDbLayerTableRecord
  2
188
 70
     0
 62
   188
  6
CONTINUOUS
  0
LAYER
  5
F6
330
2
100
AcDbSymbolTableRecord
100
AcDbLayerTableRecord
  2
189
 70
     0
 62
   189
  6
CONTINUOUS
  0
LAYER
  5
F7
330
2
100
AcDbSymbolTableRecord
100
AcDbLayerTableRecord
  2
190
 70
     0
 62
   190
  6
CONTINUOUS
  0
LAYER
  5
F8
330
2
100
AcDbSymbolTableRecord
100
AcDbLayerTableRecord
  2
191
 70
     0
 62
   191
  6
CONTINUOUS
  0
LAYER
  5
F9
330
2
100
AcDbSymbolTableRecord
100
AcDbLayerTableRecord
  2
192
 70
     0
 62
   192
  6
CONTINUOUS
  0
LAYER
  5
FA
330
2
100
AcDbSymbolTableRecord
100
AcDbLayerTableRecord
  2
193
 70
     0
 62
   193
  6
CONTINUOUS
  0
LAYER
  5
FB
330
2
100
AcDbSymbolTableRecord
100
AcDbLayerTableRecord
  2
194
 70
     0
 62
   194
  6
CONTINUOUS
  0
LAYER
  5
FC
330
2
100
AcDbSymbolTableRecord
100
AcDbLayerTableRecord
  2
195
 70
     0
 62
   195
  6
CONTINUOUS
  0
LAYER
  5
FD
330
2
100
AcDbSymbolTableRecord
100
AcDbLayerTableRecord
  2
196
 70
     0
 62
   196
  6
CONTINUOUS
  0
LAYER
  5
FE
330
2
100
AcDbSymbolTableRecord
100
AcDbLayerTableRecord
  2
197
 70
     0
 62
   197
  6
CONTINUOUS
  0
LAYER
  5
FF
330
2
100
AcDbSymbolTableRecord
100
AcDbLayerTableRecord
  2
198
 70
     0
 62
   198
  6
CONTINUOUS
  0
LAYER
  5
100
330
2
100
AcDbSymbolTableRecord
100
AcDbLayerTableRecord
  2
199
 70
     0
 62
   199
  6
CONTINUOUS
  0
LAYER
  5
101
330
2
100
AcDbSymbolTableRecord
100
AcDbLayerTableRecord
  2
200
 70
     0
 62
   200
  6
CONTINUOUS
  0
LAYER
  5
102
330
2
100
AcDbSymbolTableRecord
100
AcDbLayerTableRecord
  2
201
 70
     0
 62
   201
  6
CONTINUOUS
  0
LAYER
  5
103
330
2
100
AcDbSymbolTableRecord
100
AcDbLayerTableRecord
  2
202
 70
     0
 62
   202
  6
CONTINUOUS
  0
LAYER
  5
104
330
2
100
AcDbSymbolTableRecord
100
AcDbLayerTableRecord
  2
203
 70
     0
 62
   203
  6
CONTINUOUS
  0
LAYER
  5
105
330
2
100
AcDbSymbolTableRecord
100
AcDbLayerTableRecord
  2
204
 70
     0
 62
   204
  6
CONTINUOUS
  0
LAYER
  5
106
330
2
100
AcDbSymbolTableRecord
100
AcDbLayerTableRecord
  2
205
 70
     0
 62
   205
  6
CONTINUOUS
  0
LAYER
  5
107
330
2
100
AcDbSymbolTableRecord
100
AcDbLayerTableRecord
  2
206
 70
     0
 62
   206
  6
CONTINUOUS
  0
LAYER
  5
108
330
2
100
AcDbSymbolTableRecord
100
AcDbLayerTableRecord
  2
207
 70
     0
 62
   207
  6
CONTINUOUS
  0
LAYER
  5
109
330
2
100
AcDbSymbolTableRecord
100
AcDbLayerTableRecord
  2
208
 70
     0
 62
   208
  6
CONTINUOUS
  0
LAYER
  5
10A
330
2
100
AcDbSymbolTableRecord
100
AcDbLayerTableRecord
  2
209
 70
     0
 62
   209
  6
CONTINUOUS
  0
LAYER
  5
10B
330
2
100
AcDbSymbolTableRecord
100
AcDbLayerTableRecord
  2
210
 70
     0
 62
   210
  6
CONTINUOUS
  0
LAYER
  5
10C
330
2
100
AcDbSymbolTableRecord
100
AcDbLayerTableRecord
  2
211
 70
     0
 62
   211
  6
CONTINUOUS
  0
LAYER
  5
10D
330
2
100
AcDbSymbolTableRecord
100
AcDbLayerTableRecord
  2
212
 70
     0
 62
   212
  6
CONTINUOUS
  0
LAYER
  5
10E
330
2
100
AcDbSymbolTableRecord
100
AcDbLayerTableRecord
  2
213
 70
     0
 62
   213
  6
CONTINUOUS
  0
LAYER
  5
10F
330
2
100
AcDbSymbolTableRecord
100
AcDbLayerTableRecord
  2
214
 70
     0
 62
   214
  6
CONTINUOUS
  0
LAYER
  5
110
330
2
100
AcDbSymbolTableRecord
100
AcDbLayerTableRecord
  2
215
 70
     0
 62
   215
  6
CONTINUOUS
  0
LAYER
  5
111
330
2
100
AcDbSymbolTableRecord
100
AcDbLayerTableRecord
  2
216
 70
     0
 62
   216
  6
CONTINUOUS
  0
LAYER
  5
112
330
2
100
AcDbSymbolTableRecord
100
AcDbLayerTableRecord
  2
217
 70
     0
 62
   217
  6
CONTINUOUS
  0
LAYER
  5
113
330
2
100
AcDbSymbolTableRecord
100
AcDbLayerTableRecord
  2
218
 70
     0
 62
   218
  6
CONTINUOUS
  0
LAYER
  5
114
330
2
100
AcDbSymbolTableRecord
100
AcDbLayerTableRecord
  2
219
 70
     0
 62
   219
  6
CONTINUOUS
  0
LAYER
  5
115
330
2
100
AcDbSymbolTableRecord
100
AcDbLayerTableRecord
  2
220
 70
     0
 62
   220
  6
CONTINUOUS
  0
LAYER
  5
116
330
2
100
AcDbSymbolTableRecord
100
AcDbLayerTableRecord
  2
221
 70
     0
 62
   221
  6
CONTINUOUS
  0
LAYER
  5
117
330
2
100
AcDbSymbolTableRecord
100
AcDbLayerTableRecord
  2
222
 70
     0
 62
   222
  6
CONTINUOUS
  0
LAYER
  5
118
330
2
100
AcDbSymbolTableRecord
100
AcDbLayerTableRecord
  2
223
 70
     0
 62
   223
  6
CONTINUOUS
  0
LAYER
  5
119
330
2
100
AcDbSymbolTableRecord
100
AcDbLayerTableRecord
  2
224
 70
     0
 62
   224
  6
CONTINUOUS
  0
LAYER
  5
11A
330
2
100
AcDbSymbolTableRecord
100
AcDbLayerTableRecord
  2
225
 70
     0
 62
   225
  6
CONTINUOUS
  0
LAYER
  5
11B
330
2
100
AcDbSymbolTableRecord
100
AcDbLayerTableRecord
  2
226
 70
     0
 62
   226
  6
CONTINUOUS
  0
LAYER
  5
11C
330
2
100
AcDbSymbolTableRecord
100
AcDbLayerTableRecord
  2
227
 70
     0
 62
   227
  6
CONTINUOUS
  0
LAYER
  5
11D
330
2
100
AcDbSymbolTableRecord
100
AcDbLayerTableRecord
  2
228
 70
     0
 62
   228
  6
CONTINUOUS
  0
LAYER
  5
11E
330
2
100
AcDbSymbolTableRecord
100
AcDbLayerTableRecord
  2
229
 70
     0
 62
   229
  6
CONTINUOUS
  0
LAYER
  5
11F
330
2
100
AcDbSymbolTableRecord
100
AcDbLayerTableRecord
  2
230
 70
     0
 62
   230
  6
CONTINUOUS
  0
LAYER
  5
120
330
2
100
AcDbSymbolTableRecord
100
AcDbLayerTableRecord
  2
231
 70
     0
 62
   231
  6
CONTINUOUS
  0
LAYER
  5
121
330
2
100
AcDbSymbolTableRecord
100
AcDbLayerTableRecord
  2
232
 70
     0
 62
   232
  6
CONTINUOUS
  0
LAYER
  5
122
330
2
100
AcDbSymbolTableRecord
100
AcDbLayerTableRecord
  2
233
 70
     0
 62
   233
  6
CONTINUOUS
  0
LAYER
  5
123
330
2
100
AcDbSymbolTableRecord
100
AcDbLayerTableRecord
  2
234
 70
     0
 62
   234
  6
CONTINUOUS
  0
LAYER
  5
124
330
2
100
AcDbSymbolTableRecord
100
AcDbLayerTableRecord
  2
235
 70
     0
 62
   235
  6
CONTINUOUS
  0
LAYER
  5
125
330
2
100
AcDbSymbolTableRecord
100
AcDbLayerTableRecord
  2
236
 70
     0
 62
   236
  6
CONTINUOUS
  0
LAYER
  5
126
330
2
100
AcDbSymbolTableRecord
100
AcDbLayerTableRecord
  2
237
 70
     0
 62
   237
  6
CONTINUOUS
  0
LAYER
  5
127
330
2
100
AcDbSymbolTableRecord
100
AcDbLayerTableRecord
  2
238
 70
     0
 62
   238
  6
CONTINUOUS
  0
LAYER
  5
128
330
2
100
AcDbSymbolTableRecord
100
AcDbLayerTableRecord
  2
239
 70
     0
 62
   239
  6
CONTINUOUS
  0
LAYER
  5
129
330
2
100
AcDbSymbolTableRecord
100
AcDbLayerTableRecord
  2
240
 70
     0
 62
   240
  6
CONTINUOUS
  0
LAYER
  5
12A
330
2
100
AcDbSymbolTableRecord
100
AcDbLayerTableRecord
  2
241
 70
     0
 62
   241
  6
CONTINUOUS
  0
LAYER
  5
12B
330
2
100
AcDbSymbolTableRecord
100
AcDbLayerTableRecord
  2
242
 70
     0
 62
   242
  6
CONTINUOUS
  0
LAYER
  5
12C
330
2
100
AcDbSymbolTableRecord
100
AcDbLayerTableRecord
  2
243
 70
     0
 62
   243
  6
CONTINUOUS
  0
LAYER
  5
12D
330
2
100
AcDbSymbolTableRecord
100
AcDbLayerTableRecord
  2
244
 70
     0
 62
   244
  6
CONTINUOUS
  0
LAYER
  5
12E
330
2
100
AcDbSymbolTableRecord
100
AcDbLayerTableRecord
  2
245
 70
     0
 62
   245
  6
CONTINUOUS
  0
LAYER
  5
12F
330
2
100
AcDbSymbolTableRecord
100
AcDbLayerTableRecord
  2
246
 70
     0
 62
   246
  6
CONTINUOUS
  0
LAYER
  5
130
330
2
100
AcDbSymbolTableRecord
100
AcDbLayerTableRecord
  2
247
 70
     0
 62
   247
  6
CONTINUOUS
  0
LAYER
  5
131
330
2
100
AcDbSymbolTableRecord
100
AcDbLayerTableRecord
  2
248
 70
     0
 62
   248
  6
CONTINUOUS
  0
LAYER
  5
132
330
2
100
AcDbSymbolTableRecord
100
AcDbLayerTableRecord
  2
249
 70
     0
 62
   249
  6
CONTINUOUS
  0
LAYER
  5
133
330
2
100
AcDbSymbolTableRecord
100
AcDbLayerTableRecord
  2
250
 70
     0
 62
   250
  6
CONTINUOUS
  0
LAYER
  5
134
330
2
100
AcDbSymbolTableRecord
100
AcDbLayerTableRecord
  2
251
 70
     0
 62
   251
  6
CONTINUOUS
  0
LAYER
  5
135
330
2
100
AcDbSymbolTableRecord
100
AcDbLayerTableRecord
  2
252
 70
     0
 62
   252
  6
CONTINUOUS
  0
LAYER
  5
136
330
2
100
AcDbSymbolTableRecord
100
AcDbLayerTableRecord
  2
253
 70
     0
 62
   253
  6
CONTINUOUS
  0
LAYER
  5
137
330
2
100
AcDbSymbolTableRecord
100
AcDbLayerTableRecord
  2
254
 70
     0
 62
   254
  6
CONTINUOUS
  0
LAYER
  5
138
330
2
100
AcDbSymbolTableRecord
100
AcDbLayerTableRecord
  2
255
 70
     0
 62
   255
  6
CONTINUOUS
  0
LAYER
  5
2954
330
2
100
AcDbSymbolTableRecord
100
AcDbLayerTableRecord
  2
DEFPOINTS
 70
     0
 62
     7
  6
CONTINUOUS
  0
ENDTAB
  0
TABLE
  2
STYLE
  5
3
330
0
100
AcDbSymbolTable
 70
     1
  0
STYLE
  5
11
330
3
100
AcDbSymbolTableRecord
100
AcDbTextStyleTableRecord
  2
STANDARD
 70
     0
 40
0.0
 41
1.0
 50
0.0
 71
     0
 42
0.2
  3
monotxt
  4

  0
ENDTAB
  0
TABLE
  2
VIEW
  5
6
330
0
100
AcDbSymbolTable
 70
     0
  0
ENDTAB
  0
TABLE
  2
UCS
  5
7
330
0
100
AcDbSymbolTable
 70
     0
  0
ENDTAB
  0
TABLE
  2
APPID
  5
9
330
0
100
AcDbSymbolTable
 70
     1
  0
APPID
  5
12
330
9
100
AcDbSymbolTableRecord
100
AcDbRegAppTableRecord
  2
ACAD
 70
     0
  0
ENDTAB
  0
TABLE
  2
DIMSTYLE
  5
A
330
0
100
AcDbSymbolTable
 70
     1
  0
DIMSTYLE
105
243B
102
{ACAD_REACTORS
330
2953
102
}
330
A
100
AcDbSymbolTableRecord
100
AcDbDimStyleTableRecord
  2
STANDARD
 70
     0
  3

  4

  5

  6

  7

 40
1.0
 41
0.18
 42
0.0625
 43
0.38
 44
0.18
 45
0.0
 46
0.0
 47
0.0
 48
0.0
140
0.18
141
0.09
142
0.0
143
25.4
144
1.0
145
0.0
146
1.0
147
0.09
 71
     0
 72
     0
 73
     1
 74
     1
 75
     0
 76
     0
 77
     0
 78
     0
170
     0
171
     2
172
     0
173
     0
174
     0
175
     0
176
     0
177
     0
178
     0
270
     2
271
     4
272
     4
273
     2
274
     2
340
11
275
     0
280
     0
281
     0
282
     0
283
     1
284
     0
285
     0
286
     0
287
     3
288
     0
  0
ENDTAB
  0
TABLE
  2
BLOCK_RECORD
  5
1
330
0
100
AcDbSymbolTable
 70
     1
  0
BLOCK_RECORD
  5
1E
102
{ACAD_XDICTIONARY
360
29AF
102
}
330
1
100
AcDbSymbolTableRecord
100
AcDbBlockTableRecord
  2
*MODEL_SPACE
  0
BLOCK_RECORD
  5
1A
102
{ACAD_XDICTIONARY
360
29AD
102
}
330
1
100
AcDbSymbolTableRecord
100
AcDbBlockTableRecord
  2
*PAPER_SPACE
  0
BLOCK_RECORD
  5
2955
330
1
100
AcDbSymbolTableRecord
100
AcDbBlockTableRecord
  2
*D0
  0
ENDTAB
  0
ENDSEC
  0
SECTION
  2
BLOCKS
  0
BLOCK
  5
13B
330
1E
100
AcDbEntity
  8
0
100
AcDbBlockBegin
  2
*MODEL_SPACE
 70
     0
 10
0.0
 20
0.0
 30
0.0
  3
*MODEL_SPACE
  1

  0
ENDBLK
  5
13C
330
1E
100
AcDbEntity
  8
0
100
AcDbBlockEnd
  0
BLOCK
  5
139
330
1A
100
AcDbEntity
 67
     1
  8
0
100
AcDbBlockBegin
  2
*PAPER_SPACE
 70
     0
 10
0.0
 20
0.0
 30
0.0
  3
*PAPER_SPACE
  1

  0
ENDBLK
  5
13A
330
1A
100
AcDbEntity
 67
     1
  8
0
100
AcDbBlockEnd
  0
BLOCK
  5
2960
330
2955
100
AcDbEntity
  8
0
100
AcDbBlockBegin
  2
*D0
 70
     1
 10
0.0
 20
0.0
 30
0.0
  3
*D0
  1

  0
LINE
  5
296C
330
2955
100
AcDbEntity
  8
0
 62
     0
100
AcDbLine
 10
2.624971526349686
 20
4.948005203792341
 30
0.0
 11
2.624971526349686
 21
4.066285407031479
 31
0.0
  0
LINE
  5
296D
330
2955
100
AcDbEntity
  8
0
 62
     0
100
AcDbLine
 10
5.374967025483545
 20
4.948005203792341
 30
0.0
 11
5.374967025483545
 21
4.066285407031479
 31
0.0
  0
LINE
  5
296E
330
2955
100
AcDbEntity
  8
0
 62
     0
100
AcDbLine
 10
2.804971526349687
 20
4.246285407031479
 30
0.0
 11
3.399969275916616
 21
4.246285407031479
 31
0.0
  0
LINE
  5
296F
330
2955
100
AcDbEntity
  8
0
 62
     0
100
AcDbLine
 10
5.194967025483546
 20
4.246285407031479
 30
0.0
 11
4.599969275916616
 21
4.246285407031479
 31
0.0
  0
SOLID
  5
2970
330
2955
100
AcDbEntity
  8
0
 62
     0
100
AcDbTrace
 10
2.804971526349687
 20
4.276285407031479
 30
0.0
 11
2.804971526349687
 21
4.216285407031478
 31
0.0
 12
2.624971526349686
 22
4.246285407031479
 32
0.0
 13
2.624971526349686
 23
4.246285407031479
 33
0.0
  0
SOLID
  5
2971
330
2955
100
AcDbEntity
  8
0
 62
     0
100
AcDbTrace
 10
5.194967025483546
 20
4.276285407031479
 30
0.0
 11
5.194967025483546
 21
4.216285407031478
 31
0.0
 12
5.374967025483545
 22
4.246285407031479
 32
0.0
 13
5.374967025483545
 23
4.246285407031479
 33
0.0
  0
MTEXT
  5
2972
330
2955
100
AcDbEntity
  8
0
 62
     0
100
AcDbMText
 10
3.999969275916616
 20
4.246285407031479
 30
0.0
 40
0.18
 41
0.0
 71
     5
 72
     1
  1
\A1;2.7500
1001
ACAD
1000
MTEXTBEGIN
1070
    73
1070
     1
1070
    44
1040
1.0
1070
    74
1070
     0
1000
MTEXTEND
  0
POINT
  5
2973
330
2955
100
AcDbEntity
  8
DEFPOINTS
 62
     0
100
AcDbPoint
 10
2.624971526349686
 20
5.010505203792341
 30
0.0
  0
POINT
  5
2974
330
2955
100
AcDbEntity
  8
DEFPOINTS
 62
     0
100
AcDbPoint
 10
5.374967025483545
 20
5.010505203792341
 30
0.0
  0
POINT
  5
2975
330
2955
100
AcDbEntity
  8
DEFPOINTS
 62
     0
100
AcDbPoint
 10
5.374967025483545
 20
4.246285407031479
 30
0.0
  0
ENDBLK
  5
2961
330
2955
100
AcDbEntity
  8
0
100
AcDbBlockEnd
  0
ENDSEC
  0
SECTION
  2
ENTITIES
  0
LINE
  5
189
330
1E
100
AcDbEntity
  8
7
100
AcDbLine
 10
4.622795454912679
 20
7.545393693024625
 30
0.0
 11
4.992554563436302
 21
7.572106328241158
 31
0.0
  0
LINE
  5
18A
330
1E
100
AcDbEntity
  8
7
100
AcDbLine
 10
4.566558328141026
 20
7.545393693024625
 30
0.0
 11
4.539845692924489
 21
7.542581836686042
 31
0.0
  0
LINE
  5
18B
330
1E
100
AcDbEntity
  8
7
100
AcDbLine
 10
4.566558328141026
 20
7.545393693024625
 30
0.0
 11
4.574993897156774
 21
7.545393693024625
 31
0.0
  0
LINE
  5
18C
330
1E
100
AcDbEntity
  8
7
100
AcDbLine
 10
4.576399825326065
 20
7.545393693024625
 30
0.0
 11
4.574993897156774
 21
7.545393693024625
 31
0.0
  0
LINE
  5
195
330
1E
100
AcDbEntity
  8
7
100
AcDbLine
 10
4.622795454912679
 20
7.348563749323837
 30
0.0
 11
4.992554563436302
 21
7.321851114107301
 31
0.0
  0
LINE
  5
19B
330
1E
100
AcDbEntity
  8
7
100
AcDbLine
 10
4.593270963357561
 20
7.348563749323837
 30
0.0
 11
4.601706532373309
 21
7.348563749323837
 31
0.0
  0
LINE
  5
1A1
330
1E
100
AcDbEntity
  8
7
100
AcDbLine
 10
4.576399825326065
 20
7.348563749323837
 30
0.0
 11
4.574993897156774
 21
7.348563749323837
 31
0.0
  0
LINE
  5
1A2
330
1E
100
AcDbEntity
  8
7
100
AcDbLine
 10
4.566558328141026
 20
7.348563749323837
 30
0.0
 11
4.574993897156774
 21
7.348563749323837
 31
0.0
  0
LINE
  5
1A3
330
1E
100
AcDbEntity
  8
7
100
AcDbLine
 10
4.566558328141026
 20
7.348563749323837
 30
0.0
 11
4.539845692924489
 21
7.351375605662419
 31
0.0
  0
LINE
  5
1A4
330
1E
100
AcDbEntity
  8
7
100
AcDbLine
 10
4.622795454912679
 20
7.984043281843521
 30
0.0
 11
4.992554563436302
 21
7.957330646626987
 31
0.0
  0
LINE
  5
1AA
330
1E
100
AcDbEntity
  8
7
100
AcDbLine
 10
4.593270963357561
 20
7.984043281843521
 30
0.0
 11
4.601706532373309
 21
7.984043281843521
 31
0.0
  0
LINE
  5
1B0
330
1E
100
AcDbEntity
  8
7
100
AcDbLine
 10
4.576399825326065
 20
7.984043281843521
 30
0.0
 11
4.574993897156774
 21
7.984043281843521
 31
0.0
  0
LINE
  5
1B1
330
1E
100
AcDbEntity
  8
7
100
AcDbLine
 10
4.566558328141026
 20
7.984043281843521
 30
0.0
 11
4.574993897156774
 21
7.984043281843521
 31
0.0
  0
LINE
  5
1B2
330
1E
100
AcDbEntity
  8
7
100
AcDbLine
 10
4.566558328141026
 20
7.984043281843521
 30
0.0
 11
4.539845692924489
 21
7.985449210012812
 31
0.0
  0
LINE
  5
1B3
330
1E
100
AcDbEntity
  8
7
100
AcDbLine
 10
4.622795454912679
 20
8.179467297375019
 30
0.0
 11
4.992554563436302
 21
8.206179932591552
 31
0.0
  0
LINE
  5
1B4
330
1E
100
AcDbEntity
  8
7
100
AcDbLine
 10
4.566558328141026
 20
8.179467297375019
 30
0.0
 11
4.539845692924489
 21
8.178061369205728
 31
0.0
  0
LINE
  5
1B5
330
1E
100
AcDbEntity
  8
7
100
AcDbLine
 10
4.566558328141026
 20
8.179467297375019
 30
0.0
 11
4.574993897156774
 21
8.179467297375019
 31
0.0
  0
LINE
  5
1B6
330
1E
100
AcDbEntity
  8
7
100
AcDbLine
 10
4.576399825326065
 20
8.179467297375019
 30
0.0
 11
4.574993897156774
 21
8.179467297375019
 31
0.0
  0
LINE
  5
1BF
330
1E
100
AcDbEntity
  8
7
100
AcDbLine
 10
4.992554563436302
 20
7.321851114107301
 30
0.0
 11
4.992554563436302
 21
7.572106328241158
 31
0.0
  0
LINE
  5
1C0
330
1E
100
AcDbEntity
  8
7
100
AcDbLine
 10
4.622795454912679
 20
7.545393693024625
 30
0.0
 11
4.622795454912679
 21
7.348563749323837
 31
0.0
  0
LINE
  5
1C1
330
1E
100
AcDbEntity
  8
7
100
AcDbLine
 10
4.992554563436302
 20
8.206179932591552
 30
0.0
 11
4.992554563436302
 21
7.957330646626987
 31
0.0
  0
LINE
  5
1C2
330
1E
100
AcDbEntity
  8
7
100
AcDbLine
 10
4.622795454912679
 20
8.179467297375019
 30
0.0
 11
4.622795454912679
 21
7.984043281843521
 31
0.0
  0
LINE
  5
1C3
330
1E
100
AcDbEntity
  8
7
100
AcDbLine
 10
4.927881867648899
 20
8.3284956833199
 30
0.0
 11
4.927881867648899
 21
8.20196214808368
 31
0.0
  0
LINE
  5
1C4
330
1E
100
AcDbEntity
  8
7
100
AcDbLine
 10
4.881486238062286
 20
8.3284956833199
 30
0.0
 11
4.927881867648899
 21
8.3284956833199
 31
0.0
  0
LINE
  5
1C5
330
1E
100
AcDbEntity
  8
7
100
AcDbLine
 10
4.881486238062286
 20
8.39176245093801
 30
0.0
 11
4.881486238062286
 21
8.3284956833199
 31
0.0
  0
LINE
  5
1CC
330
1E
100
AcDbEntity
  8
7
100
AcDbLine
 10
4.946158933849686
 20
7.137674523930136
 30
0.0
 11
4.479390781644963
 21
7.137674523930136
 31
0.0
  0
LINE
  5
1D2
330
1E
100
AcDbEntity
  8
7
100
AcDbLine
 10
4.881486238062286
 20
7.694422078969505
 30
0.0
 11
4.946158933849686
 21
7.695828007138796
 31
0.0
  0
LINE
  5
1D3
330
1E
100
AcDbEntity
  8
7
100
AcDbLine
 10
4.946158933849686
 20
7.833608967729349
 30
0.0
 11
4.946158933849686
 21
7.695828007138796
 31
0.0
  0
LINE
  5
1D9
330
1E
100
AcDbEntity
  8
7
100
AcDbLine
 10
4.946158933849686
 20
8.39176245093801
 30
0.0
 11
4.479390781644963
 21
8.39176245093801
 31
0.0
  0
LINE
  5
1DA
330
1E
100
AcDbEntity
  8
7
100
AcDbLine
 10
4.881486238062286
 20
8.3284956833199
 30
0.0
 11
4.946158933849686
 21
8.329901611489191
 31
0.0
  0
LINE
  5
1DB
330
1E
100
AcDbEntity
  8
7
100
AcDbLine
 10
4.946158933849686
 20
8.39176245093801
 30
0.0
 11
4.946158933849686
 21
8.329901611489191
 31
0.0
  0
LINE
  5
1DC
330
1E
100
AcDbEntity
  8
7
100
AcDbLine
 10
4.992554563436302
 20
7.199535363378955
 30
0.0
 11
4.946158933849686
 21
7.198129435209664
 31
0.0
  0
LINE
  5
1DD
330
1E
100
AcDbEntity
  8
7
100
AcDbLine
 10
4.992554563436302
 20
7.199535363378955
 30
0.0
 11
4.927881867648899
 21
7.199535363378955
 31
0.0
  0
LINE
  5
1DE
330
1E
100
AcDbEntity
  8
7
100
AcDbLine
 10
4.992554563436302
 20
7.694422078969505
 30
0.0
 11
4.927881867648899
 21
7.693016150800215
 31
0.0
  0
LINE
  5
1DF
330
1E
100
AcDbEntity
  8
7
100
AcDbLine
 10
4.992554563436302
 20
7.694422078969505
 30
0.0
 11
4.946158933849686
 21
7.695828007138796
 31
0.0
  0
LINE
  5
1E0
330
1E
100
AcDbEntity
  8
7
100
AcDbLine
 10
4.881486238062286
 20
7.694422078969505
 30
0.0
 11
4.927881867648899
 21
7.693016150800215
 31
0.0
  0
LINE
  5
1E1
330
1E
100
AcDbEntity
  8
7
100
AcDbLine
 10
4.992554563436302
 20
7.833608967729349
 30
0.0
 11
4.946158933849686
 21
7.833608967729349
 31
0.0
  0
LINE
  5
1E2
330
1E
100
AcDbEntity
  8
7
100
AcDbLine
 10
4.992554563436302
 20
7.833608967729349
 30
0.0
 11
4.927881867648899
 21
7.83501489589864
 31
0.0
  0
LINE
  5
1E3
330
1E
100
AcDbEntity
  8
7
100
AcDbLine
 10
4.881486238062286
 20
7.833608967729349
 30
0.0
 11
4.927881867648899
 21
7.83501489589864
 31
0.0
  0
LINE
  5
1E4
330
1E
100
AcDbEntity
  8
7
100
AcDbLine
 10
4.992554563436302
 20
8.329901611489191
 30
0.0
 11
4.927881867648899
 21
8.3284956833199
 31
0.0
  0
LINE
  5
1E5
330
1E
100
AcDbEntity
  8
7
100
AcDbLine
 10
4.992554563436302
 20
8.329901611489191
 30
0.0
 11
4.946158933849686
 21
8.329901611489191
 31
0.0
  0
LINE
  5
1E6
330
1E
100
AcDbEntity
  8
7
100
AcDbLine
 10
4.992554563436302
 20
7.321851114107301
 30
0.0
 11
4.992554563436302
 21
7.199535363378955
 31
0.0
  0
LINE
  5
1E7
330
1E
100
AcDbEntity
  8
7
100
AcDbLine
 10
4.927881867648899
 20
7.566482615563995
 30
0.0
 11
4.927881867648899
 21
7.693016150800215
 31
0.0
  0
LINE
  5
1E8
330
1E
100
AcDbEntity
  8
7
100
AcDbLine
 10
4.992554563436302
 20
7.572106328241158
 30
0.0
 11
4.992554563436302
 21
7.694422078969505
 31
0.0
  0
LINE
  5
1E9
330
1E
100
AcDbEntity
  8
7
100
AcDbLine
 10
4.927881867648899
 20
7.961548431134859
 30
0.0
 11
4.927881867648899
 21
7.83501489589864
 31
0.0
  0
LINE
  5
1EA
330
1E
100
AcDbEntity
  8
7
100
AcDbLine
 10
4.992554563436302
 20
8.329901611489191
 30
0.0
 11
4.992554563436302
 21
8.206179932591552
 31
0.0
  0
LINE
  5
1EB
330
1E
100
AcDbEntity
  8
7
100
AcDbLine
 10
4.992554563436302
 20
7.957330646626987
 30
0.0
 11
4.992554563436302
 21
7.833608967729349
 31
0.0
  0
LINE
  5
1F8
330
1E
100
AcDbEntity
  8
7
100
AcDbLine
 10
4.992554563436302
 20
7.199535363378955
 30
0.0
 11
4.992554563436302
 21
6.786192481607301
 31
0.0
  0
LINE
  5
1F9
330
1E
100
AcDbEntity
  8
7
100
AcDbLine
 10
4.479390781644963
 20
7.342940036646671
 30
0.0
 11
4.479390781644963
 21
7.137674523930136
 31
0.0
  0
LINE
  5
200
330
1E
100
AcDbEntity
  8
7
100
AcDbLine
 10
4.479390781644963
 20
7.978419569166357
 30
0.0
 11
4.479390781644963
 21
7.549611477532497
 31
0.0
  0
LINE
  5
201
330
1E
100
AcDbEntity
  8
7
100
AcDbLine
 10
4.441430721074096
 20
7.978419569166357
 30
0.0
 11
4.479390781644963
 21
7.978419569166357
 31
0.0
  0
LINE
  5
202
330
1E
100
AcDbEntity
  8
7
100
AcDbLine
 10
4.441430721074096
 20
8.185091010052182
 30
0.0
 11
4.441430721074096
 21
7.978419569166357
 31
0.0
  0
LINE
  5
203
330
1E
100
AcDbEntity
  8
7
100
AcDbLine
 10
4.479390781644963
 20
8.185091010052182
 30
0.0
 11
4.441430721074096
 21
8.185091010052182
 31
0.0
  0
LINE
  5
204
330
1E
100
AcDbEntity
  8
7
100
AcDbLine
 10
4.479390781644963
 20
8.185091010052182
 30
0.0
 11
4.479390781644963
 21
8.39176245093801
 31
0.0
  0
LINE
  5
205
330
1E
100
AcDbEntity
  8
7
100
AcDbLine
 10
4.992554563436302
 20
8.741838565091553
 30
0.0
 11
4.992554563436302
 21
8.329901611489191
 31
0.0
  0
LINE
  5
206
330
1E
100
AcDbEntity
  8
7
100
AcDbLine
 10
4.992554563436302
 20
8.741838565091553
 30
0.0
 11
4.430183295719766
 21
8.731997067906513
 31
0.0
  0
LINE
  5
207
330
1E
100
AcDbEntity
  8
7
100
AcDbLine
 10
4.479390781644963
 20
7.342940036646671
 30
0.0
 11
4.442836649243387
 21
7.344345964815962
 31
0.0
  0
LINE
  5
208
330
1E
100
AcDbEntity
  8
7
100
AcDbLine
 10
4.441430721074096
 20
7.342940036646671
 30
0.0
 11
4.442836649243387
 21
7.344345964815962
 31
0.0
  0
LINE
  5
209
330
1E
100
AcDbEntity
  8
7
100
AcDbLine
 10
4.442836649243387
 20
7.549611477532497
 30
0.0
 11
4.442836649243387
 21
7.534146267670294
 31
0.0
  0
LINE
  5
20A
330
1E
100
AcDbEntity
  8
7
100
AcDbLine
 10
4.441430721074096
 20
7.551017405701788
 30
0.0
 11
4.442836649243387
 21
7.549611477532497
 31
0.0
  0
LINE
  5
20B
330
1E
100
AcDbEntity
  8
7
100
AcDbLine
 10
4.442836649243387
 20
7.344345964815962
 30
0.0
 11
4.442836649243387
 21
7.359811174678168
 31
0.0
  0
LINE
  5
20C
330
1E
100
AcDbEntity
  8
7
100
AcDbLine
 10
4.442836649243387
 20
7.534146267670294
 30
0.0
 11
4.442836649243387
 21
7.359811174678168
 31
0.0
  0
LINE
  5
20D
330
1E
100
AcDbEntity
  8
7
100
AcDbLine
 10
4.442836649243387
 20
7.549611477532497
 30
0.0
 11
4.479390781644963
 21
7.549611477532497
 31
0.0
  0
LINE
  5
20E
330
1E
100
AcDbEntity
  8
7
100
AcDbLine
 10
4.442836649243387
 20
7.979825497335648
 30
0.0
 11
4.479390781644963
 21
7.978419569166357
 31
0.0
  0
LINE
  5
20F
330
1E
100
AcDbEntity
  8
7
100
AcDbLine
 10
4.441430721074096
 20
7.978419569166357
 30
0.0
 11
4.442836649243387
 21
7.979825497335648
 31
0.0
  0
LINE
  5
210
330
1E
100
AcDbEntity
  8
7
100
AcDbLine
 10
4.442836649243387
 20
8.183685081882892
 30
0.0
 11
4.442836649243387
 21
8.169625800189979
 31
0.0
  0
LINE
  5
211
330
1E
100
AcDbEntity
  8
7
100
AcDbLine
 10
4.441430721074096
 20
8.185091010052182
 30
0.0
 11
4.442836649243387
 21
8.183685081882892
 31
0.0
  0
LINE
  5
217
330
1E
100
AcDbEntity
  8
7
100
AcDbLine
 10
4.479390781644963
 20
8.185091010052182
 30
0.0
 11
4.442836649243387
 21
8.183685081882892
 31
0.0
  0
LINE
  5
21D
330
1E
100
AcDbEntity
  8
7
100
AcDbLine
 10
3.164847943357561
 20
6.724331642158483
 30
0.0
 11
4.905387016940238
 21
6.724331642158483
 31
0.0
  0
LINE
  5
21E
330
1E
100
AcDbEntity
  8
7
100
AcDbLine
 10
3.164847943357561
 20
8.803699404540374
 30
0.0
 11
4.905387016940238
 21
8.803699404540374
 31
0.0
  0
LINE
  5
224
330
1E
100
AcDbEntity
  8
7
100
AcDbLine
 10
4.469549284459923
 20
7.534146267670294
 30
0.0
 11
4.469549284459923
 21
7.359811174678168
 31
0.0
  0
LINE
  5
225
330
1E
100
AcDbEntity
  8
7
100
AcDbLine
 10
4.469549284459923
 20
7.993884779028561
 30
0.0
 11
4.469549284459923
 21
8.169625800189979
 31
0.0
  0
LINE
  5
226
330
1E
100
AcDbEntity
  8
7
100
AcDbLine
 10
4.442836649243387
 20
7.993884779028561
 30
0.0
 11
4.469549284459923
 21
7.993884779028561
 31
0.0
  0
LINE
  5
227
330
1E
100
AcDbEntity
  8
7
100
AcDbLine
 10
4.442836649243387
 20
8.169625800189979
 30
0.0
 11
4.469549284459923
 21
8.169625800189979
 31
0.0
  0
LINE
  5
228
330
1E
100
AcDbEntity
  8
7
100
AcDbLine
 10
4.442836649243387
 20
7.534146267670294
 30
0.0
 11
4.469549284459923
 21
7.534146267670294
 31
0.0
  0
LINE
  5
229
330
1E
100
AcDbEntity
  8
7
100
AcDbLine
 10
4.442836649243387
 20
7.359811174678168
 30
0.0
 11
4.469549284459923
 21
7.359811174678168
 31
0.0
  0
LINE
  5
22A
330
1E
100
AcDbEntity
  8
7
100
AcDbLine
 10
4.539845692924489
 20
7.351375605662419
 30
0.0
 11
4.539845692924489
 21
7.542581836686042
 31
0.0
  0
LINE
  5
22B
330
1E
100
AcDbEntity
  8
7
100
AcDbLine
 10
4.566558328141026
 20
7.348563749323837
 30
0.0
 11
4.566558328141026
 21
7.545393693024625
 31
0.0
  0
LINE
  5
22C
330
1E
100
AcDbEntity
  8
7
100
AcDbLine
 10
4.574993897156774
 20
7.348563749323837
 30
0.0
 11
4.574993897156774
 21
7.545393693024625
 31
0.0
  0
LINE
  5
22D
330
1E
100
AcDbEntity
  8
7
100
AcDbLine
 10
4.576399825326065
 20
7.348563749323837
 30
0.0
 11
4.576399825326065
 21
7.545393693024625
 31
0.0
  0
LINE
  5
22E
330
1E
100
AcDbEntity
  8
7
100
AcDbLine
 10
4.593270963357561
 20
7.348563749323837
 30
0.0
 11
4.593270963357561
 21
7.543987764855334
 31
0.0
  0
LINE
  5
22F
330
1E
100
AcDbEntity
  8
7
100
AcDbLine
 10
4.601706532373309
 20
7.348563749323837
 30
0.0
 11
4.601706532373309
 21
7.543987764855334
 31
0.0
  0
LINE
  5
230
330
1E
100
AcDbEntity
  8
7
100
AcDbLine
 10
4.601706532373309
 20
7.984043281843521
 30
0.0
 11
4.601706532373309
 21
8.179467297375019
 31
0.0
  0
LINE
  5
231
330
1E
100
AcDbEntity
  8
7
100
AcDbLine
 10
4.593270963357561
 20
8.179467297375019
 30
0.0
 11
4.593270963357561
 21
7.984043281843521
 31
0.0
  0
LINE
  5
232
330
1E
100
AcDbEntity
  8
7
100
AcDbLine
 10
4.576399825326065
 20
8.179467297375019
 30
0.0
 11
4.576399825326065
 21
7.984043281843521
 31
0.0
  0
LINE
  5
233
330
1E
100
AcDbEntity
  8
7
100
AcDbLine
 10
4.574993897156774
 20
8.179467297375019
 30
0.0
 11
4.574993897156774
 21
7.984043281843521
 31
0.0
  0
LINE
  5
234
330
1E
100
AcDbEntity
  8
7
100
AcDbLine
 10
4.566558328141026
 20
8.179467297375019
 30
0.0
 11
4.566558328141026
 21
7.984043281843521
 31
0.0
  0
LINE
  5
235
330
1E
100
AcDbEntity
  8
7
100
AcDbLine
 10
4.539845692924489
 20
8.178061369205728
 30
0.0
 11
4.539845692924489
 21
7.985449210012812
 31
0.0
  0
LINE
  5
236
330
1E
100
AcDbEntity
  8
7
100
AcDbLine
 10
4.992554563436302
 20
7.694422078969505
 30
0.0
 11
4.992554563436302
 21
7.833608967729349
 31
0.0
  0
LINE
  5
24F
330
1E
100
AcDbEntity
  8
7
100
AcDbLine
 10
2.624971526349686
 20
9.953748647020688
 30
0.0
 11
2.624971526349686
 21
5.574282399678168
 31
0.0
  0
LINE
  5
250
330
1E
100
AcDbEntity
  8
7
100
AcDbLine
 10
5.314512114204017
 20
10.01420355830021
 30
0.0
 11
2.685426437629214
 21
10.01420355830021
 31
0.0
  0
LINE
  5
251
330
1E
100
AcDbEntity
  8
7
100
AcDbLine
 10
5.374967025483545
 20
5.574282399678168
 30
0.0
 11
5.374967025483545
 21
9.953748647020688
 31
0.0
  0
LINE
  5
252
330
1E
100
AcDbEntity
  8
7
100
AcDbLine
 10
2.685426437629214
 20
5.51382748839864
 30
0.0
 11
5.314512114204017
 21
5.51382748839864
 31
0.0
  0
LINE
  5
33A
330
1E
100
AcDbEntity
  8
7
100
AcDbLine
 10
4.056206402688269
 20
9.454644146922262
 30
0.0
 11
3.943732149144963
 21
9.454644146922262
 31
0.0
  0
LINE
  5
33B
330
1E
100
AcDbEntity
  8
7
100
AcDbLine
 10
3.943732149144963
 20
9.354823246902576
 30
0.0
 11
4.056206402688269
 21
9.354823246902576
 31
0.0
  0
LINE
  5
33C
330
1E
100
AcDbEntity
  8
7
100
AcDbLine
 10
4.056206402688269
 20
6.173207799796277
 30
0.0
 11
3.943732149144963
 21
6.173207799796277
 31
0.0
  0
LINE
  5
33D
330
1E
100
AcDbEntity
  8
7
100
AcDbLine
 10
3.943732149144963
 20
6.073386899776592
 30
0.0
 11
4.056206402688269
 21
6.073386899776592
 31
0.0
  0
LINE
  5
369
330
1E
100
AcDbEntity
  8
7
100
AcDbLine
 10
4.622795454912679
 20
2.597932465288403
 30
0.0
 11
4.754952702826065
 21
2.723060072355333
 31
0.0
  0
LINE
  5
36A
330
1E
100
AcDbEntity
  8
7
100
AcDbLine
 10
4.622795454912679
 20
2.597932465288403
 30
0.0
 11
4.611548029558347
 21
2.59371468078053
 31
0.0
  0
LINE
  5
36B
330
1E
100
AcDbEntity
  8
7
100
AcDbLine
 10
4.611548029558347
 20
2.59371468078053
 30
0.0
 11
4.601706532373309
 21
2.597932465288403
 31
0.0
  0
LINE
  5
36C
330
1E
100
AcDbEntity
  8
7
100
AcDbLine
 10
4.593270963357561
 20
2.60496210613486
 30
0.0
 11
4.601706532373309
 21
2.597932465288403
 31
0.0
  0
LINE
  5
372
330
1E
100
AcDbEntity
  8
7
100
AcDbLine
 10
4.576399825326065
 20
2.640110310367143
 30
0.0
 11
4.574993897156774
 21
2.642922166705726
 31
0.0
  0
LINE
  5
373
330
1E
100
AcDbEntity
  8
7
100
AcDbLine
 10
4.566558328141026
 20
2.649951807552183
 30
0.0
 11
4.574993897156774
 21
2.642922166705726
 31
0.0
  0
LINE
  5
374
330
1E
100
AcDbEntity
  8
7
100
AcDbLine
 10
4.566558328141026
 20
2.649951807552183
 30
0.0
 11
4.539845692924489
 21
2.617615459658482
 31
0.0
  0
LINE
  5
375
330
1E
100
AcDbEntity
  8
7
100
AcDbLine
 10
4.542657549263073
 20
2.486864139914387
 30
0.0
 11
4.539845692924489
 21
2.617615459658482
 31
0.0
  0
LINE
  5
37C
330
1E
100
AcDbEntity
  8
7
100
AcDbLine
 10
4.87586252538512
 20
2.723060072355333
 30
0.0
 11
4.583429466172521
 21
2.4685870737136
 31
0.0
  0
LINE
  5
37D
330
1E
100
AcDbEntity
  8
7
100
AcDbLine
 10
3.007383988396931
 20
2.948008579441946
 30
0.0
 11
4.361292815424489
 21
3.523033200682104
 31
0.0
  0
LINE
  5
37E
330
1E
100
AcDbEntity
  8
7
100
AcDbLine
 10
4.430183295719766
 20
3.510379847158482
 30
0.0
 11
4.992554563436302
 21
2.948008579441946
 31
0.0
  0
LINE
  5
384
330
1E
100
AcDbEntity
  8
7
100
AcDbLine
 10
4.632636952097718
 20
2.491081924422261
 30
0.0
 11
4.646696233790632
 21
2.491081924422261
 31
0.0
  0
LINE
  5
385
330
1E
100
AcDbEntity
  8
7
100
AcDbLine
 10
4.621389526743388
 20
2.502329349776592
 30
0.0
 11
4.632636952097718
 21
2.491081924422261
 31
0.0
  0
LINE
  5
386
330
1E
100
AcDbEntity
  8
7
100
AcDbLine
 10
4.646696233790632
 20
2.491081924422261
 30
0.0
 11
4.895545519755199
 21
2.723060072355333
 31
0.0
  0
LINE
  5
38D
330
1E
100
AcDbEntity
  8
7
100
AcDbLine
 10
2.685426437629214
 20
2.723060072355333
 30
0.0
 11
5.314512114204017
 21
2.723060072355333
 31
0.0
  0
LINE
  5
394
330
1E
100
AcDbEntity
  8
7
100
AcDbLine
 10
2.849920033436301
 20
2.948008579441946
 30
0.0
 11
5.150018518396931
 21
2.948008579441946
 31
0.0
  0
LINE
  5
3C9
330
1E
100
AcDbEntity
  8
7
100
AcDbLine
 10
4.424559583042601
 20
3.504756134481317
 30
0.0
 11
4.430183295719766
 21
3.510379847158482
 31
0.0
  0
LINE
  5
2811
330
1E
100
AcDbEntity
  8
7
100
AcDbLine
 10
4.386599522471734
 20
3.466796073910451
 30
0.0
 11
4.373946168948112
 21
3.494914637296277
 31
0.0
  0
LINE
  5
2812
330
1E
100
AcDbEntity
  8
7
100
AcDbLine
 10
4.373946168948112
 20
3.494914637296277
 30
0.0
 11
4.365510599932363
 21
3.516003559835648
 31
0.0
  0
LINE
  5
2813
330
1E
100
AcDbEntity
  8
7
100
AcDbLine
 10
4.365510599932363
 20
3.516003559835648
 30
0.0
 11
4.361292815424489
 21
3.523033200682104
 31
0.0
  0
LINE
  5
2814
330
1E
100
AcDbEntity
  8
7
100
AcDbLine
 10
4.386599522471734
 20
3.466796073910451
 30
0.0
 11
4.407688445011105
 21
3.487884996449821
 31
0.0
  0
LINE
  5
2815
330
1E
100
AcDbEntity
  8
7
100
AcDbLine
 10
4.407688445011105
 20
3.487884996449821
 30
0.0
 11
4.424559583042601
 21
3.504756134481317
 31
0.0
  0
LINE
  5
2816
330
1E
100
AcDbEntity
  8
7
100
AcDbLine
 10
4.430183295719766
 20
3.508973918989191
 30
0.0
 11
4.397846947826065
 21
3.525845057020688
 31
0.0
  0
LINE
  5
2817
330
1E
100
AcDbEntity
  8
7
100
AcDbLine
 10
4.397846947826065
 20
3.525845057020688
 30
0.0
 11
4.362698743593782
 21
3.523033200682104
 31
0.0
  0
LINE
  5
2818
330
1E
100
AcDbEntity
  8
7
100
AcDbLine
 10
2.624971526349686
 20
2.723060072355333
 30
0.0
 11
2.630595239026852
 21
2.770861630111237
 31
0.0
  0
LINE
  5
2819
330
1E
100
AcDbEntity
  8
7
100
AcDbLine
 10
2.630595239026852
 20
2.770861630111237
 30
0.0
 11
2.646060448889056
 21
2.817257259697853
 31
0.0
  0
LINE
  5
281A
330
1E
100
AcDbEntity
  8
7
100
AcDbLine
 10
2.646060448889056
 20
2.817257259697853
 30
0.0
 11
2.671367155936302
 21
2.859435104776592
 31
0.0
  0
LINE
  5
281B
330
1E
100
AcDbEntity
  8
7
100
AcDbLine
 10
2.671367155936302
 20
2.859435104776592
 30
0.0
 11
2.703703503830001
 21
2.894583309008877
 31
0.0
  0
LINE
  5
281C
330
1E
100
AcDbEntity
  8
7
100
AcDbLine
 10
5.314512114204017
 20
2.723060072355333
 30
0.0
 11
5.311700257865435
 21
2.766643845603364
 31
0.0
  0
LINE
  5
281D
330
1E
100
AcDbEntity
  8
7
100
AcDbLine
 10
5.311700257865435
 20
2.766643845603364
 30
0.0
 11
5.301858760680396
 21
2.808821690682104
 31
0.0
  0
LINE
  5
281E
330
1E
100
AcDbEntity
  8
7
100
AcDbLine
 10
5.301858760680396
 20
2.808821690682104
 30
0.0
 11
5.286393550818191
 21
2.848187679422261
 31
0.0
  0
LINE
  5
281F
330
1E
100
AcDbEntity
  8
7
100
AcDbLine
 10
5.286393550818191
 20
2.848187679422261
 30
0.0
 11
5.266710556448113
 21
2.881929955485253
 31
0.0
  0
LINE
  5
2820
330
1E
100
AcDbEntity
  8
7
100
AcDbLine
 10
5.266710556448113
 20
2.881929955485253
 30
0.0
 11
5.241403849400867
 21
2.91004851887108
 31
0.0
  0
LINE
  5
2821
330
1E
100
AcDbEntity
  8
7
100
AcDbLine
 10
5.241403849400867
 20
2.91004851887108
 30
0.0
 11
5.213285286015041
 21
2.93113744141045
 31
0.0
  0
LINE
  5
2822
330
1E
100
AcDbEntity
  8
7
100
AcDbLine
 10
5.213285286015041
 20
2.93113744141045
 30
0.0
 11
5.182354866290632
 21
2.943790794934072
 31
0.0
  0
LINE
  5
2823
330
1E
100
AcDbEntity
  8
7
100
AcDbLine
 10
5.182354866290632
 20
2.943790794934072
 30
0.0
 11
5.150018518396931
 21
2.948008579441946
 31
0.0
  0
LINE
  5
2824
330
1E
100
AcDbEntity
  8
7
100
AcDbLine
 10
2.73322799538512
 20
2.881929955485253
 30
0.0
 11
2.71213907284575
 21
2.848187679422261
 31
0.0
  0
LINE
  5
2825
330
1E
100
AcDbEntity
  8
7
100
AcDbLine
 10
2.71213907284575
 20
2.848187679422261
 30
0.0
 11
2.696673862983545
 21
2.808821690682104
 31
0.0
  0
LINE
  5
2826
330
1E
100
AcDbEntity
  8
7
100
AcDbLine
 10
2.696673862983545
 20
2.808821690682104
 30
0.0
 11
2.688238293967797
 21
2.766643845603364
 31
0.0
  0
LINE
  5
2827
330
1E
100
AcDbEntity
  8
7
100
AcDbLine
 10
2.688238293967797
 20
2.766643845603364
 30
0.0
 11
2.685426437629214
 21
2.723060072355333
 31
0.0
  0
LINE
  5
2828
330
1E
100
AcDbEntity
  8
7
100
AcDbLine
 10
2.849920033436301
 20
2.948008579441946
 30
0.0
 11
2.8175836855426
 21
2.943790794934072
 31
0.0
  0
LINE
  5
2829
330
1E
100
AcDbEntity
  8
7
100
AcDbLine
 10
2.8175836855426
 20
2.943790794934072
 30
0.0
 11
2.78665326581819
 21
2.93113744141045
 31
0.0
  0
LINE
  5
282A
330
1E
100
AcDbEntity
  8
7
100
AcDbLine
 10
2.78665326581819
 20
2.93113744141045
 30
0.0
 11
2.758534702432364
 21
2.91004851887108
 31
0.0
  0
LINE
  5
282B
330
1E
100
AcDbEntity
  8
7
100
AcDbLine
 10
2.758534702432364
 20
2.91004851887108
 30
0.0
 11
2.73322799538512
 21
2.881929955485253
 31
0.0
  0
LINE
  5
282C
330
1E
100
AcDbEntity
  8
7
100
AcDbLine
 10
5.187978578967798
 20
2.945196723103364
 30
0.0
 11
5.230156424046537
 21
2.932543369579742
 31
0.0
  0
LINE
  5
282D
330
1E
100
AcDbEntity
  8
7
100
AcDbLine
 10
5.230156424046537
 20
2.932543369579742
 30
0.0
 11
5.270928340955985
 21
2.912860375209664
 31
0.0
  0
LINE
  5
282E
330
1E
100
AcDbEntity
  8
7
100
AcDbLine
 10
5.270928340955985
 20
2.912860375209664
 30
0.0
 11
5.30607654518827
 21
2.884741811823837
 31
0.0
  0
LINE
  5
282F
330
1E
100
AcDbEntity
  8
7
100
AcDbLine
 10
5.30607654518827
 20
2.884741811823837
 30
0.0
 11
5.335601036743388
 21
2.850999535760845
 31
0.0
  0
LINE
  5
2830
330
1E
100
AcDbEntity
  8
7
100
AcDbLine
 10
5.335601036743388
 20
2.850999535760845
 30
0.0
 11
5.356689959282758
 21
2.810227618851395
 31
0.0
  0
LINE
  5
2831
330
1E
100
AcDbEntity
  8
7
100
AcDbLine
 10
5.356689959282758
 20
2.810227618851395
 30
0.0
 11
5.36934331280638
 21
2.768049773772656
 31
0.0
  0
LINE
  5
2832
330
1E
100
AcDbEntity
  8
7
100
AcDbLine
 10
5.36934331280638
 20
2.768049773772656
 30
0.0
 11
5.374967025483545
 21
2.723060072355333
 31
0.0
  0
LINE
  5
2833
330
1E
100
AcDbEntity
  8
7
100
AcDbLine
 10
2.685426437629214
 20
2.723060072355333
 30
0.0
 11
2.654496017904805
 21
2.723060072355333
 31
0.0
  0
LINE
  5
2834
330
1E
100
AcDbEntity
  8
7
100
AcDbLine
 10
2.654496017904805
 20
2.723060072355333
 30
0.0
 11
2.633407095365435
 21
2.723060072355333
 31
0.0
  0
LINE
  5
2835
330
1E
100
AcDbEntity
  8
7
100
AcDbLine
 10
2.633407095365435
 20
2.723060072355333
 30
0.0
 11
2.624971526349686
 21
2.723060072355333
 31
0.0
  0
LINE
  5
2836
330
1E
100
AcDbEntity
  8
7
100
AcDbLine
 10
5.374967025483545
 20
2.723060072355333
 30
0.0
 11
5.366531456467797
 21
2.723060072355333
 31
0.0
  0
LINE
  5
2837
330
1E
100
AcDbEntity
  8
7
100
AcDbLine
 10
5.366531456467797
 20
2.723060072355333
 30
0.0
 11
5.344036605759136
 21
2.723060072355333
 31
0.0
  0
LINE
  5
2838
330
1E
100
AcDbEntity
  8
7
100
AcDbLine
 10
5.344036605759136
 20
2.723060072355333
 30
0.0
 11
5.314512114204017
 21
2.723060072355333
 31
0.0
  0
LINE
  5
2839
330
1E
100
AcDbEntity
  8
7
100
AcDbLine
 10
4.905387016940238
 20
2.948008579441946
 30
0.0
 11
4.386599522471734
 21
3.466796073910451
 31
0.0
  0
LINE
  5
283A
330
1E
100
AcDbEntity
  8
7
100
AcDbLine
 10
4.386599522471734
 20
3.466796073910451
 30
0.0
 11
3.164847943357561
 21
2.948008579441946
 31
0.0
  0
LINE
  5
283B
330
1E
100
AcDbEntity
  8
7
100
AcDbLine
 10
4.542657549263073
 20
2.486864139914387
 30
0.0
 11
4.549687190109529
 21
2.469993001882891
 31
0.0
  0
LINE
  5
283C
330
1E
100
AcDbEntity
  8
7
100
AcDbLine
 10
4.549687190109529
 20
2.469993001882891
 30
0.0
 11
4.566558328141026
 21
2.462963361036435
 31
0.0
  0
LINE
  5
283D
330
1E
100
AcDbEntity
  8
7
100
AcDbLine
 10
4.566558328141026
 20
2.462963361036435
 30
0.0
 11
4.583429466172521
 21
2.4685870737136
 31
0.0
  0
LINE
  5
283E
330
1E
100
AcDbEntity
  8
7
100
AcDbLine
 10
4.576399825326065
 20
2.640110310367143
 30
0.0
 11
4.580617609833939
 21
2.620427315997064
 31
0.0
  0
LINE
  5
283F
330
1E
100
AcDbEntity
  8
7
100
AcDbLine
 10
4.580617609833939
 20
2.620427315997064
 30
0.0
 11
4.593270963357561
 21
2.60496210613486
 31
0.0
  0
LINE
  5
2840
330
1E
100
AcDbEntity
  8
7
100
AcDbLine
 10
2.818989613711891
 20
2.945196723103364
 30
0.0
 11
2.799306619341813
 21
2.942384866764781
 31
0.0
  0
LINE
  5
2841
330
1E
100
AcDbEntity
  8
7
100
AcDbLine
 10
2.799306619341813
 20
2.942384866764781
 30
0.0
 11
2.776811768633152
 21
2.935355225918325
 31
0.0
  0
LINE
  5
2842
330
1E
100
AcDbEntity
  8
7
100
AcDbLine
 10
2.776811768633152
 20
2.935355225918325
 30
0.0
 11
2.757128774263073
 21
2.928325585071868
 31
0.0
  0
LINE
  5
2843
330
1E
100
AcDbEntity
  8
7
100
AcDbLine
 10
2.757128774263073
 20
2.928325585071868
 30
0.0
 11
2.737445779892993
 21
2.918484087886829
 31
0.0
  0
LINE
  5
2844
330
1E
100
AcDbEntity
  8
7
100
AcDbLine
 10
2.737445779892993
 20
2.918484087886829
 30
0.0
 11
2.716356857353624
 21
2.904424806193915
 31
0.0
  0
LINE
  5
2845
330
1E
100
AcDbEntity
  8
7
100
AcDbLine
 10
2.716356857353624
 20
2.904424806193915
 30
0.0
 11
2.706515360168585
 21
2.895989237178167
 31
0.0
  0
LINE
  5
2846
330
1E
100
AcDbEntity
  8
7
100
AcDbLine
 10
4.386599522471734
 20
6.734173139343522
 30
0.0
 11
4.373946168948112
 21
6.74260870835927
 31
0.0
  0
LINE
  5
2847
330
1E
100
AcDbEntity
  8
7
100
AcDbLine
 10
4.373946168948112
 20
6.74260870835927
 30
0.0
 11
4.365510599932363
 21
6.765103559067931
 31
0.0
  0
LINE
  5
2848
330
1E
100
AcDbEntity
  8
7
100
AcDbLine
 10
4.365510599932363
 20
6.765103559067931
 30
0.0
 11
4.361292815424489
 21
6.796033978792341
 31
0.0
  0
LINE
  5
2849
330
1E
100
AcDbEntity
  8
7
100
AcDbLine
 10
4.386599522471734
 20
6.734173139343522
 30
0.0
 11
4.407688445011105
 21
6.74260870835927
 31
0.0
  0
LINE
  5
284A
330
1E
100
AcDbEntity
  8
7
100
AcDbLine
 10
4.407688445011105
 20
6.74260870835927
 30
0.0
 11
4.424559583042601
 21
6.765103559067931
 31
0.0
  0
LINE
  5
284B
330
1E
100
AcDbEntity
  8
7
100
AcDbLine
 10
4.424559583042601
 20
6.765103559067931
 30
0.0
 11
4.430183295719766
 21
6.796033978792341
 31
0.0
  0
LINE
  5
284C
330
1E
100
AcDbEntity
  8
7
100
AcDbLine
 10
4.430183295719766
 20
6.796033978792341
 30
0.0
 11
4.397846947826065
 21
6.796033978792341
 31
0.0
  0
LINE
  5
284D
330
1E
100
AcDbEntity
  8
7
100
AcDbLine
 10
4.397846947826065
 20
6.796033978792341
 30
0.0
 11
4.361292815424489
 21
6.796033978792341
 31
0.0
  0
LINE
  5
284E
330
1E
100
AcDbEntity
  8
7
100
AcDbLine
 10
4.430183295719766
 20
8.731997067906513
 30
0.0
 11
4.397846947826065
 21
8.731997067906513
 31
0.0
  0
LINE
  5
284F
330
1E
100
AcDbEntity
  8
7
100
AcDbLine
 10
4.397846947826065
 20
8.731997067906513
 30
0.0
 11
4.361292815424489
 21
8.731997067906513
 31
0.0
  0
LINE
  5
2850
330
1E
100
AcDbEntity
  8
7
100
AcDbLine
 10
4.430183295719766
 20
8.731997067906513
 30
0.0
 11
4.424559583042601
 21
8.762927487630923
 31
0.0
  0
LINE
  5
2851
330
1E
100
AcDbEntity
  8
7
100
AcDbLine
 10
4.424559583042601
 20
8.762927487630923
 30
0.0
 11
4.407688445011105
 21
8.786828266508877
 31
0.0
  0
LINE
  5
2852
330
1E
100
AcDbEntity
  8
7
100
AcDbLine
 10
4.407688445011105
 20
8.786828266508877
 30
0.0
 11
4.386599522471734
 21
8.795263835524625
 31
0.0
  0
LINE
  5
2853
330
1E
100
AcDbEntity
  8
7
100
AcDbLine
 10
4.386599522471734
 20
8.795263835524625
 30
0.0
 11
4.373946168948112
 21
8.786828266508877
 31
0.0
  0
LINE
  5
2854
330
1E
100
AcDbEntity
  8
7
100
AcDbLine
 10
4.373946168948112
 20
8.786828266508877
 30
0.0
 11
4.365510599932363
 21
8.762927487630923
 31
0.0
  0
LINE
  5
2855
330
1E
100
AcDbEntity
  8
7
100
AcDbLine
 10
4.365510599932363
 20
8.762927487630923
 30
0.0
 11
4.361292815424489
 21
8.731997067906513
 31
0.0
  0
LINE
  5
2856
330
1E
100
AcDbEntity
  8
7
100
AcDbLine
 10
3.943732149144963
 20
6.074792827945883
 30
0.0
 11
3.969038856192206
 21
6.056515761745096
 31
0.0
  0
LINE
  5
2857
330
1E
100
AcDbEntity
  8
7
100
AcDbLine
 10
3.969038856192206
 20
6.056515761745096
 30
0.0
 11
3.999969275916616
 21
6.04948612089864
 31
0.0
  0
LINE
  5
2858
330
1E
100
AcDbEntity
  8
7
100
AcDbLine
 10
3.999969275916616
 20
6.04948612089864
 30
0.0
 11
4.030899695641025
 21
6.056515761745096
 31
0.0
  0
LINE
  5
2859
330
1E
100
AcDbEntity
  8
7
100
AcDbLine
 10
4.030899695641025
 20
6.056515761745096
 30
0.0
 11
4.056206402688269
 21
6.074792827945883
 31
0.0
  0
LINE
  5
285A
330
1E
100
AcDbEntity
  8
7
100
AcDbLine
 10
4.056206402688269
 20
6.173207799796277
 30
0.0
 11
4.030899695641025
 21
6.191484865997065
 31
0.0
  0
LINE
  5
285B
330
1E
100
AcDbEntity
  8
7
100
AcDbLine
 10
4.030899695641025
 20
6.191484865997065
 30
0.0
 11
3.999969275916616
 21
6.198514506843523
 31
0.0
  0
LINE
  5
285C
330
1E
100
AcDbEntity
  8
7
100
AcDbLine
 10
3.999969275916616
 20
6.198514506843523
 30
0.0
 11
3.969038856192206
 21
6.191484865997065
 31
0.0
  0
LINE
  5
285D
330
1E
100
AcDbEntity
  8
7
100
AcDbLine
 10
3.969038856192206
 20
6.191484865997065
 30
0.0
 11
3.943732149144963
 21
6.173207799796277
 31
0.0
  0
LINE
  5
285E
330
1E
100
AcDbEntity
  8
7
100
AcDbLine
 10
3.943732149144963
 20
9.354823246902576
 30
0.0
 11
3.969038856192206
 21
9.336546180701787
 31
0.0
  0
LINE
  5
285F
330
1E
100
AcDbEntity
  8
7
100
AcDbLine
 10
3.969038856192206
 20
9.336546180701787
 30
0.0
 11
3.999969275916616
 21
9.329516539855333
 31
0.0
  0
LINE
  5
2860
330
1E
100
AcDbEntity
  8
7
100
AcDbLine
 10
3.999969275916616
 20
9.329516539855333
 30
0.0
 11
4.030899695641025
 21
9.336546180701787
 31
0.0
  0
LINE
  5
2861
330
1E
100
AcDbEntity
  8
7
100
AcDbLine
 10
4.030899695641025
 20
9.336546180701787
 30
0.0
 11
4.056206402688269
 21
9.354823246902576
 31
0.0
  0
LINE
  5
2862
330
1E
100
AcDbEntity
  8
7
100
AcDbLine
 10
4.056206402688269
 20
9.453238218752971
 30
0.0
 11
4.030899695641025
 21
9.47151528495376
 31
0.0
  0
LINE
  5
2863
330
1E
100
AcDbEntity
  8
7
100
AcDbLine
 10
4.030899695641025
 20
9.47151528495376
 30
0.0
 11
3.999969275916616
 21
9.478544925800214
 31
0.0
  0
LINE
  5
2864
330
1E
100
AcDbEntity
  8
7
100
AcDbLine
 10
3.999969275916616
 20
9.478544925800214
 30
0.0
 11
3.969038856192206
 21
9.47151528495376
 31
0.0
  0
LINE
  5
2865
330
1E
100
AcDbEntity
  8
7
100
AcDbLine
 10
3.969038856192206
 20
9.47151528495376
 30
0.0
 11
3.943732149144963
 21
9.453238218752971
 31
0.0
  0
LINE
  5
2866
330
1E
100
AcDbEntity
  8
7
100
AcDbLine
 10
2.69105015030638
 20
5.622083957434073
 30
0.0
 11
2.724792426369372
 21
5.647390664481317
 31
0.0
  0
LINE
  5
2867
330
1E
100
AcDbEntity
  8
7
100
AcDbLine
 10
2.724792426369372
 20
5.647390664481317
 30
0.0
 11
2.764158415109529
 21
5.676915156036435
 31
0.0
  0
LINE
  5
2868
330
1E
100
AcDbEntity
  8
7
100
AcDbLine
 10
2.764158415109529
 20
5.676915156036435
 30
0.0
 11
2.806336260188269
 21
5.707845575760845
 31
0.0
  0
LINE
  5
2869
330
1E
100
AcDbEntity
  8
7
100
AcDbLine
 10
2.806336260188269
 20
5.707845575760845
 30
0.0
 11
2.849920033436301
 21
5.738775995485253
 31
0.0
  0
LINE
  5
286A
330
1E
100
AcDbEntity
  8
7
100
AcDbLine
 10
2.624971526349686
 20
5.574282399678168
 30
0.0
 11
2.629189310857561
 21
5.577094256016749
 31
0.0
  0
LINE
  5
286B
330
1E
100
AcDbEntity
  8
7
100
AcDbLine
 10
2.629189310857561
 20
5.577094256016749
 30
0.0
 11
2.641842664381182
 21
5.58693575320179
 31
0.0
  0
LINE
  5
286C
330
1E
100
AcDbEntity
  8
7
100
AcDbLine
 10
2.641842664381182
 20
5.58693575320179
 30
0.0
 11
2.662931586920553
 21
5.602400963063995
 31
0.0
  0
LINE
  5
286D
330
1E
100
AcDbEntity
  8
7
100
AcDbLine
 10
2.662931586920553
 20
5.602400963063995
 30
0.0
 11
2.69105015030638
 21
5.622083957434073
 31
0.0
  0
LINE
  5
286E
330
1E
100
AcDbEntity
  8
7
100
AcDbLine
 10
2.849920033436301
 20
9.789255051213601
 30
0.0
 11
2.804930332018979
 21
9.822997327276592
 31
0.0
  0
LINE
  5
286F
330
1E
100
AcDbEntity
  8
7
100
AcDbLine
 10
2.804930332018979
 20
9.822997327276592
 30
0.0
 11
2.761346558770947
 21
9.853927747001002
 31
0.0
  0
LINE
  5
2870
330
1E
100
AcDbEntity
  8
7
100
AcDbLine
 10
2.761346558770947
 20
9.853927747001002
 30
0.0
 11
2.720574641861497
 21
9.88345223855612
 31
0.0
  0
LINE
  5
2871
330
1E
100
AcDbEntity
  8
7
100
AcDbLine
 10
2.720574641861497
 20
9.88345223855612
 30
0.0
 11
2.685426437629214
 21
9.908758945603365
 31
0.0
  0
LINE
  5
2872
330
1E
100
AcDbEntity
  8
7
100
AcDbLine
 10
2.685426437629214
 20
9.908758945603365
 30
0.0
 11
2.658713802412679
 21
9.929847868142736
 31
0.0
  0
LINE
  5
2873
330
1E
100
AcDbEntity
  8
7
100
AcDbLine
 10
2.658713802412679
 20
9.929847868142736
 30
0.0
 11
2.6390308080426
 21
9.943907149835649
 31
0.0
  0
LINE
  5
2874
330
1E
100
AcDbEntity
  8
7
100
AcDbLine
 10
2.6390308080426
 20
9.943907149835649
 30
0.0
 11
2.62778338268827
 21
9.952342718851397
 31
0.0
  0
LINE
  5
2875
330
1E
100
AcDbEntity
  8
7
100
AcDbLine
 10
5.150018518396931
 20
9.789255051213601
 30
0.0
 11
5.182354866290632
 21
9.832838824461632
 31
0.0
  0
LINE
  5
2876
330
1E
100
AcDbEntity
  8
7
100
AcDbLine
 10
5.182354866290632
 20
9.832838824461632
 30
0.0
 11
5.213285286015041
 21
9.875016669540373
 31
0.0
  0
LINE
  5
2877
330
1E
100
AcDbEntity
  8
7
100
AcDbLine
 10
5.213285286015041
 20
9.875016669540373
 30
0.0
 11
5.241403849400867
 21
9.91438265828053
 31
0.0
  0
LINE
  5
2878
330
1E
100
AcDbEntity
  8
7
100
AcDbLine
 10
5.241403849400867
 20
9.91438265828053
 30
0.0
 11
5.266710556448113
 21
9.948124934343521
 31
0.0
  0
LINE
  5
2879
330
1E
100
AcDbEntity
  8
7
100
AcDbLine
 10
5.266710556448113
 20
9.948124934343521
 30
0.0
 11
5.286393550818191
 21
9.976243497729349
 31
0.0
  0
LINE
  5
287A
330
1E
100
AcDbEntity
  8
7
100
AcDbLine
 10
5.286393550818191
 20
9.976243497729349
 30
0.0
 11
5.301858760680396
 21
9.997332420268719
 31
0.0
  0
LINE
  5
287B
330
1E
100
AcDbEntity
  8
7
100
AcDbLine
 10
5.301858760680396
 20
9.997332420268719
 30
0.0
 11
5.311700257865435
 21
10.00998577379234
 31
0.0
  0
LINE
  5
287C
330
1E
100
AcDbEntity
  8
7
100
AcDbLine
 10
5.311700257865435
 20
10.00998577379234
 30
0.0
 11
5.314512114204017
 21
10.01420355830021
 31
0.0
  0
LINE
  5
287D
330
1E
100
AcDbEntity
  8
7
100
AcDbLine
 10
2.71213907284575
 20
9.976243497729349
 30
0.0
 11
2.73322799538512
 21
9.948124934343521
 31
0.0
  0
LINE
  5
287E
330
1E
100
AcDbEntity
  8
7
100
AcDbLine
 10
2.73322799538512
 20
9.948124934343521
 30
0.0
 11
2.758534702432364
 21
9.91438265828053
 31
0.0
  0
LINE
  5
287F
330
1E
100
AcDbEntity
  8
7
100
AcDbLine
 10
2.758534702432364
 20
9.91438265828053
 30
0.0
 11
2.78665326581819
 21
9.875016669540373
 31
0.0
  0
LINE
  5
2880
330
1E
100
AcDbEntity
  8
7
100
AcDbLine
 10
2.78665326581819
 20
9.875016669540373
 30
0.0
 11
2.8175836855426
 21
9.832838824461632
 31
0.0
  0
LINE
  5
2881
330
1E
100
AcDbEntity
  8
7
100
AcDbLine
 10
2.8175836855426
 20
9.832838824461632
 30
0.0
 11
2.849920033436301
 21
9.789255051213601
 31
0.0
  0
LINE
  5
2882
330
1E
100
AcDbEntity
  8
7
100
AcDbLine
 10
2.685426437629214
 20
10.01420355830021
 30
0.0
 11
2.688238293967797
 21
10.00998577379234
 31
0.0
  0
LINE
  5
2883
330
1E
100
AcDbEntity
  8
7
100
AcDbLine
 10
2.688238293967797
 20
10.00998577379234
 30
0.0
 11
2.696673862983545
 21
9.997332420268719
 31
0.0
  0
LINE
  5
2884
330
1E
100
AcDbEntity
  8
7
100
AcDbLine
 10
2.696673862983545
 20
9.997332420268719
 30
0.0
 11
2.71213907284575
 21
9.976243497729349
 31
0.0
  0
LINE
  5
2885
330
1E
100
AcDbEntity
  8
7
100
AcDbLine
 10
5.314512114204017
 20
5.51382748839864
 30
0.0
 11
5.311700257865435
 21
5.519451201075805
 31
0.0
  0
LINE
  5
2886
330
1E
100
AcDbEntity
  8
7
100
AcDbLine
 10
5.311700257865435
 20
5.519451201075805
 30
0.0
 11
5.301858760680396
 21
5.532104554599427
 31
0.0
  0
LINE
  5
2887
330
1E
100
AcDbEntity
  8
7
100
AcDbLine
 10
5.301858760680396
 20
5.532104554599427
 30
0.0
 11
5.286393550818191
 21
5.551787548969507
 31
0.0
  0
LINE
  5
2888
330
1E
100
AcDbEntity
  8
7
100
AcDbLine
 10
5.286393550818191
 20
5.551787548969507
 30
0.0
 11
5.266710556448113
 21
5.579906112355333
 31
0.0
  0
LINE
  5
2889
330
1E
100
AcDbEntity
  8
7
100
AcDbLine
 10
5.266710556448113
 20
5.579906112355333
 30
0.0
 11
5.241403849400867
 21
5.615054316587616
 31
0.0
  0
LINE
  5
288A
330
1E
100
AcDbEntity
  8
7
100
AcDbLine
 10
5.241403849400867
 20
5.615054316587616
 30
0.0
 11
5.213285286015041
 21
5.653014377158482
 31
0.0
  0
LINE
  5
288B
330
1E
100
AcDbEntity
  8
7
100
AcDbLine
 10
5.213285286015041
 20
5.653014377158482
 30
0.0
 11
5.182354866290632
 21
5.695192222237222
 31
0.0
  0
LINE
  5
288C
330
1E
100
AcDbEntity
  8
7
100
AcDbLine
 10
5.182354866290632
 20
5.695192222237222
 30
0.0
 11
5.150018518396931
 21
5.738775995485253
 31
0.0
  0
LINE
  5
288D
330
1E
100
AcDbEntity
  8
7
100
AcDbLine
 10
2.849920033436301
 20
5.738775995485253
 30
0.0
 11
2.8175836855426
 21
5.695192222237222
 31
0.0
  0
LINE
  5
288E
330
1E
100
AcDbEntity
  8
7
100
AcDbLine
 10
2.8175836855426
 20
5.695192222237222
 30
0.0
 11
2.78665326581819
 21
5.653014377158482
 31
0.0
  0
LINE
  5
288F
330
1E
100
AcDbEntity
  8
7
100
AcDbLine
 10
2.78665326581819
 20
5.653014377158482
 30
0.0
 11
2.758534702432364
 21
5.615054316587616
 31
0.0
  0
LINE
  5
2890
330
1E
100
AcDbEntity
  8
7
100
AcDbLine
 10
2.758534702432364
 20
5.615054316587616
 30
0.0
 11
2.73322799538512
 21
5.579906112355333
 31
0.0
  0
LINE
  5
2891
330
1E
100
AcDbEntity
  8
7
100
AcDbLine
 10
2.73322799538512
 20
5.579906112355333
 30
0.0
 11
2.71213907284575
 21
5.551787548969507
 31
0.0
  0
LINE
  5
2892
330
1E
100
AcDbEntity
  8
7
100
AcDbLine
 10
2.71213907284575
 20
5.551787548969507
 30
0.0
 11
2.696673862983545
 21
5.532104554599427
 31
0.0
  0
LINE
  5
2893
330
1E
100
AcDbEntity
  8
7
100
AcDbLine
 10
2.696673862983545
 20
5.532104554599427
 30
0.0
 11
2.688238293967797
 21
5.519451201075805
 31
0.0
  0
LINE
  5
2894
330
1E
100
AcDbEntity
  8
7
100
AcDbLine
 10
2.688238293967797
 20
5.519451201075805
 30
0.0
 11
2.685426437629214
 21
5.51382748839864
 31
0.0
  0
LINE
  5
2895
330
1E
100
AcDbEntity
  8
7
100
AcDbLine
 10
5.235780136723702
 20
9.852521818831711
 30
0.0
 11
5.193602291644963
 21
9.821591399107301
 31
0.0
  0
LINE
  5
2896
330
1E
100
AcDbEntity
  8
7
100
AcDbLine
 10
5.193602291644963
 20
9.821591399107301
 30
0.0
 11
5.150018518396931
 21
9.789255051213601
 31
0.0
  0
LINE
  5
2897
330
1E
100
AcDbEntity
  8
7
100
AcDbLine
 10
5.374967025483545
 20
9.953748647020688
 30
0.0
 11
5.370749240975671
 21
9.950936790682106
 31
0.0
  0
LINE
  5
2898
330
1E
100
AcDbEntity
  8
7
100
AcDbLine
 10
5.370749240975671
 20
9.950936790682106
 30
0.0
 11
5.358095887452049
 21
9.941095293497067
 31
0.0
  0
LINE
  5
2899
330
1E
100
AcDbEntity
  8
7
100
AcDbLine
 10
5.358095887452049
 20
9.941095293497067
 30
0.0
 11
5.337006964912679
 21
9.92563008363486
 31
0.0
  0
LINE
  5
289A
330
1E
100
AcDbEntity
  8
7
100
AcDbLine
 10
5.337006964912679
 20
9.92563008363486
 30
0.0
 11
5.308888401526852
 21
9.905947089264781
 31
0.0
  0
LINE
  5
289B
330
1E
100
AcDbEntity
  8
7
100
AcDbLine
 10
5.308888401526852
 20
9.905947089264781
 30
0.0
 11
5.27514612546386
 21
9.880640382217537
 31
0.0
  0
LINE
  5
289C
330
1E
100
AcDbEntity
  8
7
100
AcDbLine
 10
5.27514612546386
 20
9.880640382217537
 30
0.0
 11
5.235780136723702
 21
9.852521818831711
 31
0.0
  0
LINE
  5
289D
330
1E
100
AcDbEntity
  8
7
100
AcDbLine
 10
5.235780136723702
 20
5.676915156036435
 30
0.0
 11
5.27514612546386
 21
5.647390664481317
 31
0.0
  0
LINE
  5
289E
330
1E
100
AcDbEntity
  8
7
100
AcDbLine
 10
5.27514612546386
 20
5.647390664481317
 30
0.0
 11
5.308888401526852
 21
5.622083957434073
 31
0.0
  0
LINE
  5
289F
330
1E
100
AcDbEntity
  8
7
100
AcDbLine
 10
5.308888401526852
 20
5.622083957434073
 30
0.0
 11
5.337006964912679
 21
5.602400963063995
 31
0.0
  0
LINE
  5
28A0
330
1E
100
AcDbEntity
  8
7
100
AcDbLine
 10
5.337006964912679
 20
5.602400963063995
 30
0.0
 11
5.358095887452049
 21
5.58693575320179
 31
0.0
  0
LINE
  5
28A1
330
1E
100
AcDbEntity
  8
7
100
AcDbLine
 10
5.358095887452049
 20
5.58693575320179
 30
0.0
 11
5.370749240975671
 21
5.577094256016749
 31
0.0
  0
LINE
  5
28A2
330
1E
100
AcDbEntity
  8
7
100
AcDbLine
 10
5.370749240975671
 20
5.577094256016749
 30
0.0
 11
5.374967025483545
 21
5.574282399678168
 31
0.0
  0
LINE
  5
28A3
330
1E
100
AcDbEntity
  8
7
100
AcDbLine
 10
5.150018518396931
 20
5.738775995485253
 30
0.0
 11
5.193602291644963
 21
5.707845575760845
 31
0.0
  0
LINE
  5
28A4
330
1E
100
AcDbEntity
  8
7
100
AcDbLine
 10
5.193602291644963
 20
5.707845575760845
 30
0.0
 11
5.235780136723702
 21
5.676915156036435
 31
0.0
  0
LINE
  5
28A5
330
1E
100
AcDbEntity
  8
7
100
AcDbLine
 10
5.150018518396931
 20
9.789255051213601
 30
0.0
 11
2.849920033436301
 21
9.789255051213601
 31
0.0
  0
LINE
  5
28A6
330
1E
100
AcDbEntity
  8
7
100
AcDbLine
 10
2.849920033436301
 20
9.789255051213601
 30
0.0
 11
2.849920033436301
 21
5.738775995485253
 31
0.0
  0
LINE
  5
28A7
330
1E
100
AcDbEntity
  8
7
100
AcDbLine
 10
2.849920033436301
 20
5.738775995485253
 30
0.0
 11
5.150018518396931
 21
5.738775995485253
 31
0.0
  0
LINE
  5
28A8
330
1E
100
AcDbEntity
  8
7
100
AcDbLine
 10
5.150018518396931
 20
5.738775995485253
 30
0.0
 11
5.150018518396931
 21
9.789255051213601
 31
0.0
  0
LINE
  5
28A9
330
1E
100
AcDbEntity
  8
7
100
AcDbLine
 10
4.098384247767009
 20
9.290150551115175
 30
0.0
 11
4.126502811152835
 21
9.322486899008875
 31
0.0
  0
LINE
  5
28AA
330
1E
100
AcDbEntity
  8
7
100
AcDbLine
 10
4.126502811152835
 20
9.322486899008875
 30
0.0
 11
4.144779877353624
 21
9.361852887749034
 31
0.0
  0
LINE
  5
28AB
330
1E
100
AcDbEntity
  8
7
100
AcDbLine
 10
4.144779877353624
 20
9.361852887749034
 30
0.0
 11
4.15040359003079
 21
9.404030732827775
 31
0.0
  0
LINE
  5
28AC
330
1E
100
AcDbEntity
  8
7
100
AcDbLine
 10
4.021058198455985
 20
9.553059118772656
 30
0.0
 11
3.978880353377246
 21
9.553059118772656
 31
0.0
  0
LINE
  5
28AD
330
1E
100
AcDbEntity
  8
7
100
AcDbLine
 10
3.978880353377246
 20
9.553059118772656
 30
0.0
 11
3.938108436467798
 21
9.540405765249033
 31
0.0
  0
LINE
  5
28AE
330
1E
100
AcDbEntity
  8
7
100
AcDbLine
 10
3.938108436467798
 20
9.540405765249033
 30
0.0
 11
3.901554304066222
 21
9.517910914540372
 31
0.0
  0
LINE
  5
28AF
330
1E
100
AcDbEntity
  8
7
100
AcDbLine
 10
3.901554304066222
 20
9.517910914540372
 30
0.0
 11
3.873435740680395
 21
9.485574566646672
 31
0.0
  0
LINE
  5
28B0
330
1E
100
AcDbEntity
  8
7
100
AcDbLine
 10
3.873435740680395
 20
9.485574566646672
 30
0.0
 11
3.855158674479609
 21
9.446208577906514
 31
0.0
  0
LINE
  5
28B1
330
1E
100
AcDbEntity
  8
7
100
AcDbLine
 10
3.855158674479609
 20
9.446208577906514
 30
0.0
 11
3.849534961802443
 21
9.404030732827775
 31
0.0
  0
LINE
  5
28B2
330
1E
100
AcDbEntity
  8
7
100
AcDbLine
 10
3.849534961802443
 20
9.404030732827775
 30
0.0
 11
3.855158674479609
 21
9.361852887749034
 31
0.0
  0
LINE
  5
28B3
330
1E
100
AcDbEntity
  8
7
100
AcDbLine
 10
3.855158674479609
 20
9.361852887749034
 30
0.0
 11
3.873435740680395
 21
9.322486899008875
 31
0.0
  0
LINE
  5
28B4
330
1E
100
AcDbEntity
  8
7
100
AcDbLine
 10
3.873435740680395
 20
9.322486899008875
 30
0.0
 11
3.901554304066222
 21
9.290150551115175
 31
0.0
  0
LINE
  5
28B5
330
1E
100
AcDbEntity
  8
7
100
AcDbLine
 10
3.901554304066222
 20
9.290150551115175
 30
0.0
 11
3.938108436467798
 21
9.267655700406514
 31
0.0
  0
LINE
  5
28B6
330
1E
100
AcDbEntity
  8
7
100
AcDbLine
 10
3.938108436467798
 20
9.267655700406514
 30
0.0
 11
3.978880353377246
 21
9.255002346882891
 31
0.0
  0
LINE
  5
28B7
330
1E
100
AcDbEntity
  8
7
100
AcDbLine
 10
3.978880353377246
 20
9.255002346882891
 30
0.0
 11
4.021058198455985
 21
9.255002346882891
 31
0.0
  0
LINE
  5
28B8
330
1E
100
AcDbEntity
  8
7
100
AcDbLine
 10
4.021058198455985
 20
9.255002346882891
 30
0.0
 11
4.061830115365435
 21
9.267655700406514
 31
0.0
  0
LINE
  5
28B9
330
1E
100
AcDbEntity
  8
7
100
AcDbLine
 10
4.061830115365435
 20
9.267655700406514
 30
0.0
 11
4.098384247767009
 21
9.290150551115175
 31
0.0
  0
LINE
  5
28BA
330
1E
100
AcDbEntity
  8
7
100
AcDbLine
 10
4.15040359003079
 20
9.404030732827775
 30
0.0
 11
4.144779877353624
 21
9.446208577906514
 31
0.0
  0
LINE
  5
28BB
330
1E
100
AcDbEntity
  8
7
100
AcDbLine
 10
4.144779877353624
 20
9.446208577906514
 30
0.0
 11
4.126502811152835
 21
9.485574566646672
 31
0.0
  0
LINE
  5
28BC
330
1E
100
AcDbEntity
  8
7
100
AcDbLine
 10
4.126502811152835
 20
9.485574566646672
 30
0.0
 11
4.098384247767009
 21
9.517910914540372
 31
0.0
  0
LINE
  5
28BD
330
1E
100
AcDbEntity
  8
7
100
AcDbLine
 10
4.098384247767009
 20
9.517910914540372
 30
0.0
 11
4.061830115365435
 21
9.540405765249033
 31
0.0
  0
LINE
  5
28BE
330
1E
100
AcDbEntity
  8
7
100
AcDbLine
 10
4.061830115365435
 20
9.540405765249033
 30
0.0
 11
4.021058198455985
 21
9.553059118772656
 31
0.0
  0
LINE
  5
28BF
330
1E
100
AcDbEntity
  8
7
100
AcDbLine
 10
3.938108436467798
 20
5.987625281449821
 30
0.0
 11
3.978880353377246
 21
5.974971927926199
 31
0.0
  0
LINE
  5
28C0
330
1E
100
AcDbEntity
  8
7
100
AcDbLine
 10
3.978880353377246
 20
5.974971927926199
 30
0.0
 11
4.021058198455985
 21
5.974971927926199
 31
0.0
  0
LINE
  5
28C1
330
1E
100
AcDbEntity
  8
7
100
AcDbLine
 10
4.021058198455985
 20
5.974971927926199
 30
0.0
 11
4.061830115365435
 21
5.987625281449821
 31
0.0
  0
LINE
  5
28C2
330
1E
100
AcDbEntity
  8
7
100
AcDbLine
 10
4.061830115365435
 20
5.987625281449821
 30
0.0
 11
4.098384247767009
 21
6.010120132158482
 31
0.0
  0
LINE
  5
28C3
330
1E
100
AcDbEntity
  8
7
100
AcDbLine
 10
4.098384247767009
 20
6.010120132158482
 30
0.0
 11
4.126502811152835
 21
6.042456480052184
 31
0.0
  0
LINE
  5
28C4
330
1E
100
AcDbEntity
  8
7
100
AcDbLine
 10
4.126502811152835
 20
6.042456480052184
 30
0.0
 11
4.144779877353624
 21
6.081822468792341
 31
0.0
  0
LINE
  5
28C5
330
1E
100
AcDbEntity
  8
7
100
AcDbLine
 10
4.144779877353624
 20
6.081822468792341
 30
0.0
 11
4.15040359003079
 21
6.12400031387108
 31
0.0
  0
LINE
  5
28C6
330
1E
100
AcDbEntity
  8
7
100
AcDbLine
 10
4.126502811152835
 20
6.205544147689979
 30
0.0
 11
4.098384247767009
 21
6.23788049558368
 31
0.0
  0
LINE
  5
28C7
330
1E
100
AcDbEntity
  8
7
100
AcDbLine
 10
4.098384247767009
 20
6.23788049558368
 30
0.0
 11
4.061830115365435
 21
6.260375346292341
 31
0.0
  0
LINE
  5
28C8
330
1E
100
AcDbEntity
  8
7
100
AcDbLine
 10
4.061830115365435
 20
6.260375346292341
 30
0.0
 11
4.021058198455985
 21
6.273028699815963
 31
0.0
  0
LINE
  5
28C9
330
1E
100
AcDbEntity
  8
7
100
AcDbLine
 10
4.021058198455985
 20
6.273028699815963
 30
0.0
 11
3.978880353377246
 21
6.273028699815963
 31
0.0
  0
LINE
  5
28CA
330
1E
100
AcDbEntity
  8
7
100
AcDbLine
 10
3.978880353377246
 20
6.273028699815963
 30
0.0
 11
3.938108436467798
 21
6.260375346292341
 31
0.0
  0
LINE
  5
28CB
330
1E
100
AcDbEntity
  8
7
100
AcDbLine
 10
3.938108436467798
 20
6.260375346292341
 30
0.0
 11
3.901554304066222
 21
6.23788049558368
 31
0.0
  0
LINE
  5
28CC
330
1E
100
AcDbEntity
  8
7
100
AcDbLine
 10
3.901554304066222
 20
6.23788049558368
 30
0.0
 11
3.873435740680395
 21
6.205544147689979
 31
0.0
  0
LINE
  5
28CD
330
1E
100
AcDbEntity
  8
7
100
AcDbLine
 10
3.873435740680395
 20
6.205544147689979
 30
0.0
 11
3.855158674479609
 21
6.166178158949821
 31
0.0
  0
LINE
  5
28CE
330
1E
100
AcDbEntity
  8
7
100
AcDbLine
 10
3.855158674479609
 20
6.166178158949821
 30
0.0
 11
3.849534961802443
 21
6.12400031387108
 31
0.0
  0
LINE
  5
28CF
330
1E
100
AcDbEntity
  8
7
100
AcDbLine
 10
3.849534961802443
 20
6.12400031387108
 30
0.0
 11
3.855158674479609
 21
6.081822468792341
 31
0.0
  0
LINE
  5
28D0
330
1E
100
AcDbEntity
  8
7
100
AcDbLine
 10
3.855158674479609
 20
6.081822468792341
 30
0.0
 11
3.873435740680395
 21
6.042456480052184
 31
0.0
  0
LINE
  5
28D1
330
1E
100
AcDbEntity
  8
7
100
AcDbLine
 10
3.873435740680395
 20
6.042456480052184
 30
0.0
 11
3.901554304066222
 21
6.010120132158482
 31
0.0
  0
LINE
  5
28D2
330
1E
100
AcDbEntity
  8
7
100
AcDbLine
 10
3.901554304066222
 20
6.010120132158482
 30
0.0
 11
3.938108436467798
 21
5.987625281449821
 31
0.0
  0
LINE
  5
28D3
330
1E
100
AcDbEntity
  8
7
100
AcDbLine
 10
4.15040359003079
 20
6.12400031387108
 30
0.0
 11
4.144779877353624
 21
6.166178158949821
 31
0.0
  0
LINE
  5
28D4
330
1E
100
AcDbEntity
  8
7
100
AcDbLine
 10
4.144779877353624
 20
6.166178158949821
 30
0.0
 11
4.126502811152835
 21
6.205544147689979
 31
0.0
  0
LINE
  5
28D5
330
1E
100
AcDbEntity
  8
7
100
AcDbLine
 10
3.164847943357561
 20
6.724331642158483
 30
0.0
 11
3.124076026448112
 21
6.727143498497064
 31
0.0
  0
LINE
  5
28D6
330
1E
100
AcDbEntity
  8
7
100
AcDbLine
 10
3.124076026448112
 20
6.727143498497064
 30
0.0
 11
3.086115965877246
 21
6.73276721117423
 31
0.0
  0
LINE
  5
28D7
330
1E
100
AcDbEntity
  8
7
100
AcDbLine
 10
3.086115965877246
 20
6.73276721117423
 30
0.0
 11
3.053779617983545
 21
6.74260870835927
 31
0.0
  0
LINE
  5
28D8
330
1E
100
AcDbEntity
  8
7
100
AcDbLine
 10
3.053779617983545
 20
6.74260870835927
 30
0.0
 11
3.028472910936301
 21
6.755262061882891
 31
0.0
  0
LINE
  5
28D9
330
1E
100
AcDbEntity
  8
7
100
AcDbLine
 10
3.028472910936301
 20
6.755262061882891
 30
0.0
 11
3.013007701074096
 21
6.770727271745096
 31
0.0
  0
LINE
  5
28DA
330
1E
100
AcDbEntity
  8
7
100
AcDbLine
 10
3.013007701074096
 20
6.770727271745096
 30
0.0
 11
3.007383988396931
 21
6.786192481607301
 31
0.0
  0
LINE
  5
28DB
330
1E
100
AcDbEntity
  8
7
100
AcDbLine
 10
4.967247856389057
 20
6.74260870835927
 30
0.0
 11
4.937723364833939
 21
6.729955354835648
 31
0.0
  0
LINE
  5
28DC
330
1E
100
AcDbEntity
  8
7
100
AcDbLine
 10
4.937723364833939
 20
6.729955354835648
 30
0.0
 11
4.905387016940238
 21
6.724331642158483
 31
0.0
  0
LINE
  5
28DD
330
1E
100
AcDbEntity
  8
7
100
AcDbLine
 10
4.992554563436302
 20
6.786192481607301
 30
0.0
 11
4.985524922589844
 21
6.762291702729349
 31
0.0
  0
LINE
  5
28DE
330
1E
100
AcDbEntity
  8
7
100
AcDbLine
 10
4.985524922589844
 20
6.762291702729349
 30
0.0
 11
4.967247856389057
 21
6.74260870835927
 31
0.0
  0
LINE
  5
28DF
330
1E
100
AcDbEntity
  8
7
100
AcDbLine
 10
4.905387016940238
 20
8.803699404540374
 30
0.0
 11
4.937723364833939
 21
8.799481620032498
 31
0.0
  0
LINE
  5
28E0
330
1E
100
AcDbEntity
  8
7
100
AcDbLine
 10
4.937723364833939
 20
8.799481620032498
 30
0.0
 11
4.967247856389057
 21
8.785422338339584
 31
0.0
  0
LINE
  5
28E1
330
1E
100
AcDbEntity
  8
7
100
AcDbLine
 10
4.967247856389057
 20
8.785422338339584
 30
0.0
 11
4.985524922589844
 21
8.765739343969505
 31
0.0
  0
LINE
  5
28E2
330
1E
100
AcDbEntity
  8
7
100
AcDbLine
 10
4.985524922589844
 20
8.765739343969505
 30
0.0
 11
4.992554563436302
 21
8.741838565091553
 31
0.0
  0
LINE
  5
28E3
330
1E
100
AcDbEntity
  8
7
100
AcDbLine
 10
3.007383988396931
 20
8.741838565091553
 30
0.0
 11
3.013007701074096
 21
8.75870970312305
 31
0.0
  0
LINE
  5
28E4
330
1E
100
AcDbEntity
  8
7
100
AcDbLine
 10
3.013007701074096
 20
8.75870970312305
 30
0.0
 11
3.028472910936301
 21
8.772768984815963
 31
0.0
  0
LINE
  5
28E5
330
1E
100
AcDbEntity
  8
7
100
AcDbLine
 10
3.028472910936301
 20
8.772768984815963
 30
0.0
 11
3.053779617983545
 21
8.785422338339584
 31
0.0
  0
LINE
  5
28E6
330
1E
100
AcDbEntity
  8
7
100
AcDbLine
 10
3.053779617983545
 20
8.785422338339584
 30
0.0
 11
3.086115965877246
 21
8.795263835524625
 31
0.0
  0
LINE
  5
28E7
330
1E
100
AcDbEntity
  8
7
100
AcDbLine
 10
3.086115965877246
 20
8.795263835524625
 30
0.0
 11
3.124076026448112
 21
8.802293476371081
 31
0.0
  0
LINE
  5
28E8
330
1E
100
AcDbEntity
  8
7
100
AcDbLine
 10
3.124076026448112
 20
8.802293476371081
 30
0.0
 11
3.164847943357561
 21
8.803699404540374
 31
0.0
  0
LINE
  5
28E9
330
1E
100
AcDbEntity
  8
7
100
AcDbLine
 10
3.943732149144963
 20
9.453238218752971
 30
0.0
 11
3.928266939282758
 21
9.422307799028562
 31
0.0
  0
LINE
  5
28EA
330
1E
100
AcDbEntity
  8
7
100
AcDbLine
 10
3.928266939282758
 20
9.422307799028562
 30
0.0
 11
3.928266939282758
 21
9.385753666626987
 31
0.0
  0
LINE
  5
28EB
330
1E
100
AcDbEntity
  8
7
100
AcDbLine
 10
3.928266939282758
 20
9.385753666626987
 30
0.0
 11
3.943732149144963
 21
9.354823246902576
 31
0.0
  0
LINE
  5
28EC
330
1E
100
AcDbEntity
  8
7
100
AcDbLine
 10
4.056206402688269
 20
9.354823246902576
 30
0.0
 11
4.071671612550474
 21
9.385753666626987
 31
0.0
  0
LINE
  5
28ED
330
1E
100
AcDbEntity
  8
7
100
AcDbLine
 10
4.071671612550474
 20
9.385753666626987
 30
0.0
 11
4.071671612550474
 21
9.422307799028562
 31
0.0
  0
LINE
  5
28EE
330
1E
100
AcDbEntity
  8
7
100
AcDbLine
 10
4.071671612550474
 20
9.422307799028562
 30
0.0
 11
4.056206402688269
 21
9.453238218752971
 31
0.0
  0
LINE
  5
28EF
330
1E
100
AcDbEntity
  8
7
100
AcDbLine
 10
3.943732149144963
 20
6.173207799796277
 30
0.0
 11
3.928266939282758
 21
6.142277380071869
 31
0.0
  0
LINE
  5
28F0
330
1E
100
AcDbEntity
  8
7
100
AcDbLine
 10
3.928266939282758
 20
6.142277380071869
 30
0.0
 11
3.928266939282758
 21
6.105723247670294
 31
0.0
  0
LINE
  5
28F1
330
1E
100
AcDbEntity
  8
7
100
AcDbLine
 10
3.928266939282758
 20
6.105723247670294
 30
0.0
 11
3.943732149144963
 21
6.074792827945883
 31
0.0
  0
LINE
  5
28F2
330
1E
100
AcDbEntity
  8
7
100
AcDbLine
 10
4.056206402688269
 20
6.074792827945883
 30
0.0
 11
4.071671612550474
 21
6.105723247670294
 31
0.0
  0
LINE
  5
28F3
330
1E
100
AcDbEntity
  8
7
100
AcDbLine
 10
4.071671612550474
 20
6.105723247670294
 30
0.0
 11
4.071671612550474
 21
6.142277380071869
 31
0.0
  0
LINE
  5
28F4
330
1E
100
AcDbEntity
  8
7
100
AcDbLine
 10
4.071671612550474
 20
6.142277380071869
 30
0.0
 11
4.056206402688269
 21
6.173207799796277
 31
0.0
  0
LINE
  5
28F5
330
1E
100
AcDbEntity
  8
7
100
AcDbLine
 10
3.164847943357561
 20
8.803699404540374
 30
0.0
 11
4.386599522471734
 21
8.795263835524625
 31
0.0
  0
LINE
  5
28F6
330
1E
100
AcDbEntity
  8
7
100
AcDbLine
 10
4.386599522471734
 20
8.795263835524625
 30
0.0
 11
4.905387016940238
 21
8.803699404540374
 31
0.0
  0
LINE
  5
28F7
330
1E
100
AcDbEntity
  8
7
100
AcDbLine
 10
4.905387016940238
 20
6.724331642158483
 30
0.0
 11
4.386599522471734
 21
6.734173139343522
 31
0.0
  0
LINE
  5
28F8
330
1E
100
AcDbEntity
  8
7
100
AcDbLine
 10
4.386599522471734
 20
6.734173139343522
 30
0.0
 11
3.164847943357561
 21
6.724331642158483
 31
0.0
  0
LINE
  5
28F9
330
1E
100
AcDbEntity
  8
7
100
AcDbLine
 10
4.442836649243387
 20
7.979825497335648
 30
0.0
 11
4.442836649243387
 21
7.993884779028561
 31
0.0
  0
LINE
  5
28FA
330
1E
100
AcDbEntity
  8
7
100
AcDbLine
 10
4.442836649243387
 20
7.993884779028561
 30
0.0
 11
4.442836649243387
 21
8.169625800189979
 31
0.0
  0
LINE
  5
28FB
330
1E
100
AcDbEntity
  8
7
100
AcDbLine
 10
4.479390781644963
 20
7.342940036646671
 30
0.0
 11
4.441430721074096
 21
7.342940036646671
 31
0.0
  0
LINE
  5
28FC
330
1E
100
AcDbEntity
  8
7
100
AcDbLine
 10
4.441430721074096
 20
7.342940036646671
 30
0.0
 11
4.441430721074096
 21
7.551017405701788
 31
0.0
  0
LINE
  5
28FD
330
1E
100
AcDbEntity
  8
7
100
AcDbLine
 10
4.441430721074096
 20
7.551017405701788
 30
0.0
 11
4.479390781644963
 21
7.549611477532497
 31
0.0
  0
LINE
  5
28FE
330
1E
100
AcDbEntity
  8
7
100
AcDbLine
 10
4.430183295719766
 20
8.731997067906513
 30
0.0
 11
4.430183295719766
 21
6.796033978792341
 31
0.0
  0
LINE
  5
28FF
330
1E
100
AcDbEntity
  8
7
100
AcDbLine
 10
4.430183295719766
 20
6.796033978792341
 30
0.0
 11
4.992554563436302
 21
6.786192481607301
 31
0.0
  0
LINE
  5
2900
330
1E
100
AcDbEntity
  8
7
100
AcDbLine
 10
3.007383988396931
 20
8.741838565091553
 30
0.0
 11
3.007383988396931
 21
6.786192481607301
 31
0.0
  0
LINE
  5
2901
330
1E
100
AcDbEntity
  8
7
100
AcDbLine
 10
3.007383988396931
 20
6.786192481607301
 30
0.0
 11
4.361292815424489
 21
6.796033978792341
 31
0.0
  0
LINE
  5
2902
330
1E
100
AcDbEntity
  8
7
100
AcDbLine
 10
4.361292815424489
 20
6.796033978792341
 30
0.0
 11
4.361292815424489
 21
8.731997067906513
 31
0.0
  0
LINE
  5
2903
330
1E
100
AcDbEntity
  8
7
100
AcDbLine
 10
4.361292815424489
 20
8.731997067906513
 30
0.0
 11
3.007383988396931
 21
8.741838565091553
 31
0.0
  0
LINE
  5
2904
330
1E
100
AcDbEntity
  8
7
100
AcDbLine
 10
4.946158933849686
 20
7.833608967729349
 30
0.0
 11
4.881486238062286
 21
7.833608967729349
 31
0.0
  0
LINE
  5
2905
330
1E
100
AcDbEntity
  8
7
100
AcDbLine
 10
4.881486238062286
 20
7.833608967729349
 30
0.0
 11
4.881486238062286
 21
7.694422078969505
 31
0.0
  0
LINE
  5
2906
330
1E
100
AcDbEntity
  8
7
100
AcDbLine
 10
4.946158933849686
 20
7.137674523930136
 30
0.0
 11
4.946158933849686
 21
7.198129435209664
 31
0.0
  0
LINE
  5
2907
330
1E
100
AcDbEntity
  8
7
100
AcDbLine
 10
4.946158933849686
 20
7.198129435209664
 30
0.0
 11
4.881486238062286
 21
7.199535363378955
 31
0.0
  0
LINE
  5
2908
330
1E
100
AcDbEntity
  8
7
100
AcDbLine
 10
4.881486238062286
 20
7.137674523930136
 30
0.0
 11
4.881486238062286
 21
7.199535363378955
 31
0.0
  0
LINE
  5
2909
330
1E
100
AcDbEntity
  8
7
100
AcDbLine
 10
4.881486238062286
 20
7.199535363378955
 30
0.0
 11
4.927881867648899
 21
7.199535363378955
 31
0.0
  0
LINE
  5
290A
330
1E
100
AcDbEntity
  8
7
100
AcDbLine
 10
4.927881867648899
 20
7.199535363378955
 30
0.0
 11
4.927881867648899
 21
7.326068898615176
 31
0.0
  0
LINE
  5
290B
330
1E
100
AcDbEntity
  8
7
100
AcDbLine
 10
4.576399825326065
 20
8.179467297375019
 30
0.0
 11
4.580617609833939
 21
8.179467297375019
 31
0.0
  0
LINE
  5
290C
330
1E
100
AcDbEntity
  8
7
100
AcDbLine
 10
4.580617609833939
 20
8.179467297375019
 30
0.0
 11
4.593270963357561
 21
8.179467297375019
 31
0.0
  0
LINE
  5
290D
330
1E
100
AcDbEntity
  8
7
100
AcDbLine
 10
4.593270963357561
 20
8.179467297375019
 30
0.0
 11
4.601706532373309
 21
8.179467297375019
 31
0.0
  0
LINE
  5
290E
330
1E
100
AcDbEntity
  8
7
100
AcDbLine
 10
4.601706532373309
 20
8.179467297375019
 30
0.0
 11
4.611548029558347
 21
8.179467297375019
 31
0.0
  0
LINE
  5
290F
330
1E
100
AcDbEntity
  8
7
100
AcDbLine
 10
4.611548029558347
 20
8.179467297375019
 30
0.0
 11
4.622795454912679
 21
8.179467297375019
 31
0.0
  0
LINE
  5
2910
330
1E
100
AcDbEntity
  8
7
100
AcDbLine
 10
4.576399825326065
 20
7.984043281843521
 30
0.0
 11
4.580617609833939
 21
7.984043281843521
 31
0.0
  0
LINE
  5
2911
330
1E
100
AcDbEntity
  8
7
100
AcDbLine
 10
4.580617609833939
 20
7.984043281843521
 30
0.0
 11
4.593270963357561
 21
7.984043281843521
 31
0.0
  0
LINE
  5
2912
330
1E
100
AcDbEntity
  8
7
100
AcDbLine
 10
4.622795454912679
 20
7.984043281843521
 30
0.0
 11
4.611548029558347
 21
7.984043281843521
 31
0.0
  0
LINE
  5
2913
330
1E
100
AcDbEntity
  8
7
100
AcDbLine
 10
4.611548029558347
 20
7.984043281843521
 30
0.0
 11
4.601706532373309
 21
7.984043281843521
 31
0.0
  0
LINE
  5
2914
330
1E
100
AcDbEntity
  8
7
100
AcDbLine
 10
4.576399825326065
 20
7.348563749323837
 30
0.0
 11
4.580617609833939
 21
7.348563749323837
 31
0.0
  0
LINE
  5
2915
330
1E
100
AcDbEntity
  8
7
100
AcDbLine
 10
4.580617609833939
 20
7.348563749323837
 30
0.0
 11
4.593270963357561
 21
7.348563749323837
 31
0.0
  0
LINE
  5
2916
330
1E
100
AcDbEntity
  8
7
100
AcDbLine
 10
4.622795454912679
 20
7.348563749323837
 30
0.0
 11
4.611548029558347
 21
7.348563749323837
 31
0.0
  0
LINE
  5
2917
330
1E
100
AcDbEntity
  8
7
100
AcDbLine
 10
4.611548029558347
 20
7.348563749323837
 30
0.0
 11
4.601706532373309
 21
7.348563749323837
 31
0.0
  0
LINE
  5
2918
330
1E
100
AcDbEntity
  8
7
100
AcDbLine
 10
4.576399825326065
 20
7.545393693024625
 30
0.0
 11
4.580617609833939
 21
7.543987764855334
 31
0.0
  0
LINE
  5
2919
330
1E
100
AcDbEntity
  8
7
100
AcDbLine
 10
4.580617609833939
 20
7.543987764855334
 30
0.0
 11
4.593270963357561
 21
7.543987764855334
 31
0.0
  0
LINE
  5
291A
330
1E
100
AcDbEntity
  8
7
100
AcDbLine
 10
4.593270963357561
 20
7.543987764855334
 30
0.0
 11
4.601706532373309
 21
7.543987764855334
 31
0.0
  0
LINE
  5
291B
330
1E
100
AcDbEntity
  8
7
100
AcDbLine
 10
4.601706532373309
 20
7.543987764855334
 30
0.0
 11
4.611548029558347
 21
7.543987764855334
 31
0.0
  0
LINE
  5
291C
330
1E
100
AcDbEntity
  8
7
100
AcDbLine
 10
4.611548029558347
 20
7.543987764855334
 30
0.0
 11
4.622795454912679
 21
7.545393693024625
 31
0.0
  0
LINE
  5
291D
330
1E
100
AcDbEntity
  8
7
100
AcDbLine
 10
5.344036605759136
 20
10.00155020477659
 30
0.0
 11
5.329977324066222
 21
10.00436206111517
 31
0.0
  0
LINE
  5
291E
330
1E
100
AcDbEntity
  8
7
100
AcDbLine
 10
5.329977324066222
 20
10.00436206111517
 30
0.0
 11
5.32716546772764
 21
10.00436206111517
 31
0.0
  0
LINE
  5
291F
330
1E
100
AcDbEntity
  8
7
100
AcDbLine
 10
5.32716546772764
 20
10.00436206111517
 30
0.0
 11
5.322947683219766
 21
10.00576798928446
 31
0.0
  0
LINE
  5
2920
330
1E
100
AcDbEntity
  8
7
100
AcDbLine
 10
5.322947683219766
 20
10.00576798928446
 30
0.0
 11
5.318729898711891
 21
10.00576798928446
 31
0.0
  0
LINE
  5
2921
330
1E
100
AcDbEntity
  8
7
100
AcDbLine
 10
5.318729898711891
 20
10.00576798928446
 30
0.0
 11
5.31591804237331
 21
10.00717391745375
 31
0.0
  0
LINE
  5
2922
330
1E
100
AcDbEntity
  8
7
100
AcDbLine
 10
5.31591804237331
 20
10.00717391745375
 30
0.0
 11
5.310294329696144
 21
10.00857984562305
 31
0.0
  0
LINE
  5
2923
330
1E
100
AcDbEntity
  8
7
100
AcDbLine
 10
5.36934331280638
 20
9.949530862512812
 30
0.0
 11
5.367937384637088
 21
9.955154575189979
 31
0.0
  0
LINE
  5
2924
330
1E
100
AcDbEntity
  8
7
100
AcDbLine
 10
5.367937384637088
 20
9.955154575189979
 30
0.0
 11
5.366531456467797
 21
9.957966431528561
 31
0.0
  0
LINE
  5
2925
330
1E
100
AcDbEntity
  8
7
100
AcDbLine
 10
5.366531456467797
 20
9.957966431528561
 30
0.0
 11
5.365125528298506
 21
9.962184216036437
 31
0.0
  0
LINE
  5
2926
330
1E
100
AcDbEntity
  8
7
100
AcDbLine
 10
5.365125528298506
 20
9.962184216036437
 30
0.0
 11
5.365125528298506
 21
9.966402000544309
 31
0.0
  0
LINE
  5
2927
330
1E
100
AcDbEntity
  8
7
100
AcDbLine
 10
5.365125528298506
 20
9.966402000544309
 30
0.0
 11
5.365125528298506
 21
9.969213856882891
 31
0.0
  0
LINE
  5
2928
330
1E
100
AcDbEntity
  8
7
100
AcDbLine
 10
5.365125528298506
 20
9.969213856882891
 30
0.0
 11
5.362313671959923
 21
9.983273138575803
 31
0.0
  0
LINE
  5
2929
330
1E
100
AcDbEntity
  8
7
100
AcDbLine
 10
5.362313671959923
 20
9.983273138575803
 30
0.0
 11
5.358095887452049
 21
9.98889685125297
 31
0.0
  0
LINE
  5
292A
330
1E
100
AcDbEntity
  8
7
100
AcDbLine
 10
5.358095887452049
 20
9.98889685125297
 30
0.0
 11
5.353878102944174
 21
9.993114635760843
 31
0.0
  0
LINE
  5
292B
330
1E
100
AcDbEntity
  8
7
100
AcDbLine
 10
5.353878102944174
 20
9.993114635760843
 30
0.0
 11
5.349660318436302
 21
9.997332420268719
 31
0.0
  0
LINE
  5
292C
330
1E
100
AcDbEntity
  8
7
100
AcDbLine
 10
5.349660318436302
 20
9.997332420268719
 30
0.0
 11
5.344036605759136
 21
10.00155020477659
 31
0.0
  0
LINE
  5
292D
330
1E
100
AcDbEntity
  8
7
100
AcDbLine
 10
5.322947683219766
 20
5.52366898558368
 30
0.0
 11
5.329977324066222
 21
5.52366898558368
 31
0.0
  0
LINE
  5
292E
330
1E
100
AcDbEntity
  8
7
100
AcDbLine
 10
5.329977324066222
 20
5.52366898558368
 30
0.0
 11
5.344036605759136
 21
5.527886770091552
 31
0.0
  0
LINE
  5
292F
330
1E
100
AcDbEntity
  8
7
100
AcDbLine
 10
5.344036605759136
 20
5.527886770091552
 30
0.0
 11
5.349660318436302
 21
5.530698626430136
 31
0.0
  0
LINE
  5
2930
330
1E
100
AcDbEntity
  8
7
100
AcDbLine
 10
5.349660318436302
 20
5.530698626430136
 30
0.0
 11
5.353878102944174
 21
5.53491641093801
 31
0.0
  0
LINE
  5
2931
330
1E
100
AcDbEntity
  8
7
100
AcDbLine
 10
5.353878102944174
 20
5.53491641093801
 30
0.0
 11
5.367937384637088
 21
5.556005333477379
 31
0.0
  0
LINE
  5
2932
330
1E
100
AcDbEntity
  8
7
100
AcDbLine
 10
5.367937384637088
 20
5.556005333477379
 30
0.0
 11
5.370749240975671
 21
5.563034974323837
 31
0.0
  0
LINE
  5
2933
330
1E
100
AcDbEntity
  8
7
100
AcDbLine
 10
5.370749240975671
 20
5.563034974323837
 30
0.0
 11
5.370749240975671
 21
5.571470543339584
 31
0.0
  0
LINE
  5
2934
330
1E
100
AcDbEntity
  8
7
100
AcDbLine
 10
5.370749240975671
 20
5.571470543339584
 30
0.0
 11
5.36934331280638
 21
5.578500184186041
 31
0.0
  0
LINE
  5
2935
330
1E
100
AcDbEntity
  8
7
100
AcDbLine
 10
5.307482473357561
 20
5.52366898558368
 30
0.0
 11
5.314512114204017
 21
5.52366898558368
 31
0.0
  0
LINE
  5
2936
330
1E
100
AcDbEntity
  8
7
100
AcDbLine
 10
5.314512114204017
 20
5.52366898558368
 30
0.0
 11
5.322947683219766
 21
5.52366898558368
 31
0.0
  0
LINE
  5
2937
330
1E
100
AcDbEntity
  8
7
100
AcDbLine
 10
2.634813023534726
 20
5.558817189815963
 30
0.0
 11
2.636218951704017
 21
5.551787548969507
 31
0.0
  0
LINE
  5
2938
330
1E
100
AcDbEntity
  8
7
100
AcDbLine
 10
2.636218951704017
 20
5.551787548969507
 30
0.0
 11
2.637624879873309
 21
5.548975692630923
 31
0.0
  0
LINE
  5
2939
330
1E
100
AcDbEntity
  8
7
100
AcDbLine
 10
2.637624879873309
 20
5.548975692630923
 30
0.0
 11
2.6390308080426
 21
5.546163836292341
 31
0.0
  0
LINE
  5
293A
330
1E
100
AcDbEntity
  8
7
100
AcDbLine
 10
2.6390308080426
 20
5.546163836292341
 30
0.0
 11
2.640436736211891
 21
5.543351979953758
 31
0.0
  0
LINE
  5
293B
330
1E
100
AcDbEntity
  8
7
100
AcDbLine
 10
2.640436736211891
 20
5.543351979953758
 30
0.0
 11
2.643248592550475
 21
5.540540123615175
 31
0.0
  0
LINE
  5
293C
330
1E
100
AcDbEntity
  8
7
100
AcDbLine
 10
2.643248592550475
 20
5.540540123615175
 30
0.0
 11
2.64887230522764
 21
5.537728267276592
 31
0.0
  0
LINE
  5
293D
330
1E
100
AcDbEntity
  8
7
100
AcDbLine
 10
2.64887230522764
 20
5.537728267276592
 30
0.0
 11
2.654496017904805
 21
5.53491641093801
 31
0.0
  0
LINE
  5
293E
330
1E
100
AcDbEntity
  8
7
100
AcDbLine
 10
2.654496017904805
 20
5.53491641093801
 30
0.0
 11
2.657307874243388
 21
5.533510482768718
 31
0.0
  0
LINE
  5
293F
330
1E
100
AcDbEntity
  8
7
100
AcDbLine
 10
2.657307874243388
 20
5.533510482768718
 30
0.0
 11
2.66011973058197
 21
5.532104554599427
 31
0.0
  0
LINE
  5
2940
330
1E
100
AcDbEntity
  8
7
100
AcDbLine
 10
2.66011973058197
 20
5.532104554599427
 30
0.0
 11
2.662931586920553
 21
5.530698626430136
 31
0.0
  0
LINE
  5
2941
330
1E
100
AcDbEntity
  8
7
100
AcDbLine
 10
2.662931586920553
 20
5.530698626430136
 30
0.0
 11
2.664337515089844
 21
5.527886770091552
 31
0.0
  0
LINE
  5
2942
330
1E
100
AcDbEntity
  8
7
100
AcDbLine
 10
2.664337515089844
 20
5.527886770091552
 30
0.0
 11
2.669961227767009
 21
5.52366898558368
 31
0.0
  0
LINE
  5
2943
330
1E
100
AcDbEntity
  8
7
100
AcDbLine
 10
2.669961227767009
 20
5.52366898558368
 30
0.0
 11
2.674179012274883
 21
5.520857129245096
 31
0.0
  0
LINE
  5
2944
330
1E
100
AcDbEntity
  8
7
100
AcDbLine
 10
2.674179012274883
 20
5.520857129245096
 30
0.0
 11
2.681208653121339
 21
5.518045272906515
 31
0.0
  0
LINE
  5
2945
330
1E
100
AcDbEntity
  8
7
100
AcDbLine
 10
2.681208653121339
 20
5.518045272906515
 30
0.0
 11
2.686832365798506
 21
5.516639344737222
 31
0.0
  0
LINE
  5
2946
330
1E
100
AcDbEntity
  8
7
100
AcDbLine
 10
2.630595239026852
 20
5.578500184186041
 30
0.0
 11
2.632001167196144
 21
5.574282399678168
 31
0.0
  0
LINE
  5
2947
330
1E
100
AcDbEntity
  8
7
100
AcDbLine
 10
2.632001167196144
 20
5.574282399678168
 30
0.0
 11
2.633407095365435
 21
5.570064615170293
 31
0.0
  0
LINE
  5
2948
330
1E
100
AcDbEntity
  8
7
100
AcDbLine
 10
2.633407095365435
 20
5.570064615170293
 30
0.0
 11
2.633407095365435
 21
5.565846830662419
 31
0.0
  0
LINE
  5
2949
330
1E
100
AcDbEntity
  8
7
100
AcDbLine
 10
2.633407095365435
 20
5.565846830662419
 30
0.0
 11
2.634813023534726
 21
5.558817189815963
 31
0.0
  0
LINE
  5
294A
330
1E
100
AcDbEntity
  8
7
100
AcDbLine
 10
2.692456078475671
 20
10.00576798928446
 30
0.0
 11
2.685426437629214
 21
10.00576798928446
 31
0.0
  0
LINE
  5
294B
330
1E
100
AcDbEntity
  8
7
100
AcDbLine
 10
2.685426437629214
 20
10.00576798928446
 30
0.0
 11
2.676990868613467
 21
10.00436206111517
 31
0.0
  0
LINE
  5
294C
330
1E
100
AcDbEntity
  8
7
100
AcDbLine
 10
2.676990868613467
 20
10.00436206111517
 30
0.0
 11
2.668555299597718
 21
10.00436206111517
 31
0.0
  0
LINE
  5
294D
330
1E
100
AcDbEntity
  8
7
100
AcDbLine
 10
2.668555299597718
 20
10.00436206111517
 30
0.0
 11
2.655901946074096
 21
10.00155020477659
 31
0.0
  0
LINE
  5
294E
330
1E
100
AcDbEntity
  8
7
100
AcDbLine
 10
2.655901946074096
 20
10.00155020477659
 30
0.0
 11
2.650278233396931
 21
9.997332420268719
 31
0.0
  0
LINE
  5
294F
330
1E
100
AcDbEntity
  8
7
100
AcDbLine
 10
2.650278233396931
 20
9.997332420268719
 30
0.0
 11
2.644654520719766
 21
9.993114635760843
 31
0.0
  0
LINE
  5
2950
330
1E
100
AcDbEntity
  8
7
100
AcDbLine
 10
2.644654520719766
 20
9.993114635760843
 30
0.0
 11
2.630595239026852
 21
9.972025713221473
 31
0.0
  0
LINE
  5
2951
330
1E
100
AcDbEntity
  8
7
100
AcDbLine
 10
2.630595239026852
 20
9.972025713221473
 30
0.0
 11
2.62778338268827
 21
9.957966431528561
 31
0.0
  0
LINE
  5
2952
330
1E
100
AcDbEntity
  8
7
100
AcDbLine
 10
2.62778338268827
 20
9.957966431528561
 30
0.0
 11
2.62778338268827
 21
9.952342718851397
 31
0.0
  0
ENDSEC
  0
SECTION
  2
OBJECTS
  0
DICTIONARY
  5
C
330
0
100
AcDbDictionary
  3
ACAD_GROUP
350
D
  3
ACAD_LAYOUT
350
19
  3
ACAD_MLINESTYLE
350
16
  3
ACAD_PLOTSETTINGS
350
18
1001
ACAD
1000
TREAT_AS_HARD
1070
     0
  0
DICTIONARY
  5
29AF
330
1E
100
AcDbDictionary
  3
ACAD_LAYOUTSELFREF
350
29B0
  0
DICTIONARY
  5
29AD
330
1A
100
AcDbDictionary
  3
ACAD_LAYOUTSELFREF
350
29AE
  0
DICTIONARY
  5
D
102
{ACAD_REACTORS
330
C
102
}
330
C
100
AcDbDictionary
1001
ACAD
1000
TREAT_AS_HARD
1070
     0
  0
DICTIONARY
  5
19
102
{ACAD_REACTORS
330
C
102
}
330
C
100
AcDbDictionary
1001
ACAD
1000
TREAT_AS_HARD
1070
     0
  0
DICTIONARY
  5
16
102
{ACAD_REACTORS
330
C
102
}
330
C
100
AcDbDictionary
  3
STANDARD
350
17
1001
ACAD
1000
TREAT_AS_HARD
1070
     0
  0
DICTIONARY
  5
18
102
{ACAD_REACTORS
330
C
102
}
330
C
100
AcDbDictionary
1001
ACAD
1000
TREAT_AS_HARD
1070
     0
  0
XRECORD
  5
29B0
102
{ACAD_REACTORS
330
29AF
102
}
330
29AF
100
AcDbXrecord
340
1E
  0
XRECORD
  5
29AE
102
{ACAD_REACTORS
330
29AD
102
}
330
29AD
100
AcDbXrecord
340
1A
  0
MLINESTYLE
  5
17
102
{ACAD_REACTORS
330
16
102
}
330
16
100
AcDbMlineStyle
  2
STANDARD
 70
     0
  3

 62
   256
 51
90.0
 52
90.0
 71
     2
 49
0.5
 62
   256
  6
BYLAYER
 49
-0.5
 62
   256
  6
BYLAYER
  0
ENDSEC
  0
EOF
