  0
SECTION
  2
HEADER
  9
$ACADVER
  1
AC1012
  9
$DWGCODEPAGE
  3
ANSI_1252
  9
$INSBASE
 10
0.0
 20
0.0
 30
0.0
  9
$EXTMIN
 10
11.51330570540542
 20
11.64111331575679
 30
-0.0015258207003583
  9
$EXTMAX
 10
17.69677737832159
 20
16.14138796872155
 30
0.0000000349246037
  9
$LIMMIN
 10
0.0
 20
0.0
  9
$LIMMAX
 10
12.0
 20
9.0
  9
$ORTHOMODE
 70
     0
  9
$REGENMODE
 70
     1
  9
$FILLMODE
 70
     1
  9
$QTEXTMODE
 70
     0
  9
$MIRRTEXT
 70
     1
  9
$DRAGMODE
 70
     2
  9
$LTSCALE
 40
1.0
  9
$OSMODE
 70
    33
  9
$ATTMODE
 70
     1
  9
$TEXTSIZE
 40
0.2
  9
$TRACEWID
 40
0.05
  9
$TEXTSTYLE
  7
STANDARD
  9
$CLAYER
  8
0
  9
$CELTYPE
  6
BYLAYER
  9
$CECOLOR
 62
   256
  9
$CELTSCALE
 40
1.0
  9
$DELOBJ
 70
     1
  9
$DISPSILH
 70
     0
  9
$DIMSCALE
 40
1.0
  9
$DIMASZ
 40
0.18
  9
$DIMEXO
 40
0.0625
  9
$DIMDLI
 40
0.38
  9
$DIMRND
 40
0.0
  9
$DIMDLE
 40
0.0
  9
$DIMEXE
 40
0.18
  9
$DIMTP
 40
0.0
  9
$DIMTM
 40
0.0
  9
$DIMTXT
 40
0.18
  9
$DIMCEN
 40
0.09
  9
$DIMTSZ
 40
0.0
  9
$DIMTOL
 70
     0
  9
$DIMLIM
 70
     0
  9
$DIMTIH
 70
     1
  9
$DIMTOH
 70
     1
  9
$DIMSE1
 70
     0
  9
$DIMSE2
 70
     0
  9
$DIMTAD
 70
     0
  9
$DIMZIN
 70
     0
  9
$DIMBLK
  1

  9
$DIMASO
 70
     1
  9
$DIMSHO
 70
     1
  9
$DIMPOST
  1

  9
$DIMAPOST
  1

  9
$DIMALT
 70
     0
  9
$DIMALTD
 70
     2
  9
$DIMALTF
 40
25.4
  9
$DIMLFAC
 40
1.0
  9
$DIMTOFL
 70
     0
  9
$DIMTVP
 40
0.0
  9
$DIMTIX
 70
     0
  9
$DIMSOXD
 70
     0
  9
$DIMSAH
 70
     0
  9
$DIMBLK1
  1

  9
$DIMBLK2
  1

  9
$DIMSTYLE
  2
STANDARD
  9
$DIMCLRD
 70
     0
  9
$DIMCLRE
 70
     0
  9
$DIMCLRT
 70
     0
  9
$DIMTFAC
 40
1.0
  9
$DIMGAP
 40
0.09
  9
$DIMJUST
 70
     0
  9
$DIMSD1
 70
     0
  9
$DIMSD2
 70
     0
  9
$DIMTOLJ
 70
     1
  9
$DIMTZIN
 70
     0
  9
$DIMALTZ
 70
     0
  9
$DIMALTTZ
 70
     0
  9
$DIMFIT
 70
     5
  9
$DIMUPT
 70
     0
  9
$DIMUNIT
 70
     2
  9
$DIMDEC
 70
     4
  9
$DIMTDEC
 70
     4
  9
$DIMALTU
 70
     2
  9
$DIMALTTD
 70
     2
  9
$DIMTXSTY
  7
STANDARD
  9
$DIMAUNIT
 70
     0
  9
$LUNITS
 70
     2
  9
$LUPREC
 70
     4
  9
$SKETCHINC
 40
0.1
  9
$FILLETRAD
 40
0.0
  9
$AUNITS
 70
     0
  9
$AUPREC
 70
     0
  9
$MENU
  1
acad
  9
$ELEVATION
 40
0.0
  9
$PELEVATION
 40
0.0
  9
$THICKNESS
 40
0.0
  9
$LIMCHECK
 70
     0
  9
$BLIPMODE
 70
     0
  9
$CHAMFERA
 40
0.0
  9
$CHAMFERB
 40
0.0
  9
$CHAMFERC
 40
0.0
  9
$CHAMFERD
 40
0.0
  9
$SKPOLY
 70
     0
  9
$TDCREATE
 40
2452489.405567129
  9
$TDUPDATE
 40
2452489.432811979
  9
$TDINDWG
 40
0.0006861343
  9
$TDUSRTIMER
 40
0.0006861343
  9
$USRTIMER
 70
     1
  9
$ANGBASE
 50
0.0
  9
$ANGDIR
 70
     0
  9
$PDMODE
 70
     0
  9
$PDSIZE
 40
0.0
  9
$PLINEWID
 40
0.0
  9
$COORDS
 70
     0
  9
$SPLFRAME
 70
     0
  9
$SPLINETYPE
 70
     6
  9
$SPLINESEGS
 70
     8
  9
$ATTDIA
 70
     0
  9
$ATTREQ
 70
     1
  9
$HANDLING
 70
  4097
  9
$HANDSEED
  5
493A
  9
$SURFTAB1
 70
     6
  9
$SURFTAB2
 70
     6
  9
$SURFTYPE
 70
     6
  9
$SURFU
 70
     6
  9
$SURFV
 70
     6
  9
$UCSNAME
  2

  9
$UCSORG
 10
0.0
 20
0.0
 30
0.0
  9
$UCSXDIR
 10
1.0
 20
0.0
 30
0.0
  9
$UCSYDIR
 10
0.0
 20
1.0
 30
0.0
  9
$PUCSNAME
  2

  9
$PUCSORG
 10
0.0
 20
0.0
 30
0.0
  9
$PUCSXDIR
 10
1.0
 20
0.0
 30
0.0
  9
$PUCSYDIR
 10
0.0
 20
1.0
 30
0.0
  9
$USERI1
 70
     0
  9
$USERI2
 70
     0
  9
$USERI3
 70
     0
  9
$USERI4
 70
     0
  9
$USERI5
 70
     0
  9
$USERR1
 40
0.0
  9
$USERR2
 40
0.0
  9
$USERR3
 40
0.0
  9
$USERR4
 40
0.0
  9
$USERR5
 40
0.0
  9
$WORLDVIEW
 70
     1
  9
$SHADEDGE
 70
     3
  9
$SHADEDIF
 70
    70
  9
$TILEMODE
 70
     1
  9
$MAXACTVP
 70
    16
  9
$PINSBASE
 10
0.0
 20
0.0
 30
0.0
  9
$PLIMCHECK
 70
     0
  9
$PEXTMIN
 10
1.000000000000000E+20
 20
1.000000000000000E+20
 30
1.000000000000000E+20
  9
$PEXTMAX
 10
-1.000000000000000E+20
 20
-1.000000000000000E+20
 30
-1.000000000000000E+20
  9
$PLIMMIN
 10
0.0
 20
0.0
  9
$PLIMMAX
 10
12.0
 20
9.0
  9
$UNITMODE
 70
     0
  9
$VISRETAIN
 70
     0
  9
$PLINEGEN
 70
     0
  9
$PSLTSCALE
 70
     1
  9
$TREEDEPTH
 70
  3020
  9
$PICKSTYLE
 70
     1
  9
$CMLSTYLE
  2
STANDARD
  9
$CMLJUST
 70
     0
  9
$CMLSCALE
 40
1.0
  9
$SAVEIMAGES
 70
     1
  0
ENDSEC
  0
SECTION
  2
CLASSES
  0
CLASS
  1
ACDBDICTIONARYWDFLT
  2
AcDbDictionaryWithDefault
  3
AutoCAD 2000
 90
    32768
280
     0
281
     0
  0
CLASS
  1
ACDBPLACEHOLDER
  2
AcDbPlaceHolder
  3
AutoCAD 2000
 90
    32768
280
     0
281
     0
  0
CLASS
  1
LAYOUT
  2
AcDbLayout
  3
AutoCAD 2000
 90
    32768
280
     0
281
     0
  0
CLASS
  1
LONG_TRANSACTION
  2
AcDbLongTransaction
  3
AutoCAD 2000
 90
    32768
280
     0
281
     0
  0
CLASS
  1
LWPOLYLINE
  2
AcDbPolyline
  3
AutoCAD 2000
 90
    32768
280
     0
281
     1
  0
CLASS
  1
HATCH
  2
AcDbHatch
  3
AutoCAD 2000
 90
    32768
280
     0
281
     1
  0
CLASS
  1
XRECORD
  2
AcDbXrecord
  3
AutoCAD 2000
 90
    32768
280
     0
281
     0
  0
ENDSEC
  0
SECTION
  2
TABLES
  0
TABLE
  2
VPORT
  5
8
330
0
100
AcDbSymbolTable
 70
     3
  0
VPORT
  5
4935
330
8
100
AcDbSymbolTableRecord
100
AcDbViewportTableRecord
  2
*ACTIVE
 70
     0
 10
0.0
 20
0.0
 11
1.0
 21
1.0
 12
14.60504154186351
 22
13.89125064223917
 13
0.0
 23
0.0
 14
1.0
 24
1.0
 15
0.0
 25
0.0
 16
0.0
 26
0.0
 36
1.0
 17
0.0
 27
0.0
 37
0.0
 40
4.535617124061337
 41
1.618610747051113
 42
50.0
 43
0.0
 44
0.0
 50
0.0
 51
0.0
 71
     0
 72
   100
 73
     1
 74
     1
 75
     0
 76
     0
 77
     0
 78
     0
  0
ENDTAB
  0
TABLE
  2
LTYPE
  5
5
330
0
100
AcDbSymbolTable
 70
    25
  0
LTYPE
  5
13
330
5
100
AcDbSymbolTableRecord
100
AcDbLinetypeTableRecord
  2
BYBLOCK
 70
     0
  3

 72
    65
 73
     0
 40
0.0
  0
LTYPE
  5
14
330
5
100
AcDbSymbolTableRecord
100
AcDbLinetypeTableRecord
  2
BYLAYER
 70
     0
  3

 72
    65
 73
     0
 40
0.0
  0
LTYPE
  5
15
330
5
100
AcDbSymbolTableRecord
100
AcDbLinetypeTableRecord
  2
CONTINUOUS
 70
     0
  3
Solid line
 72
    65
 73
     0
 40
0.0
  0
LTYPE
  5
22
330
5
100
AcDbSymbolTableRecord
100
AcDbLinetypeTableRecord
  2
BORDER
 70
     0
  3
__ __ . __ __ . __ __ . __ __ . __ __ . __ __ .
 72
    65
 73
     6
 40
1.75
 49
0.5
 74
     0
 49
-0.25
 74
     0
 49
0.5
 74
     0
 49
-0.25
 74
     0
 49
0.5
 74
     0
 49
-0.25
 74
     0
  0
LTYPE
  5
23
330
5
100
AcDbSymbolTableRecord
100
AcDbLinetypeTableRecord
  2
BORDER2
 70
     0
  3
__.__.__.__.__.__.__.__.__.__.__.__.__.__.__.__
 72
    65
 73
     6
 40
0.875
 49
0.25
 74
     0
 49
-0.125
 74
     0
 49
0.25
 74
     0
 49
-0.125
 74
     0
 49
0.25
 74
     0
 49
-0.125
 74
     0
  0
LTYPE
  5
24
330
5
100
AcDbSymbolTableRecord
100
AcDbLinetypeTableRecord
  2
BORDERX2
 70
     0
  3
____  ____  .  ____  ____  .  
 72
    65
 73
     6
 40
3.5
 49
1.0
 74
     0
 49
-0.5
 74
     0
 49
1.0
 74
     0
 49
-0.5
 74
     0
 49
1.0
 74
     0
 49
-0.5
 74
     0
  0
LTYPE
  5
25
330
5
100
AcDbSymbolTableRecord
100
AcDbLinetypeTableRecord
  2
CENTER
 70
     0
  3
____ _ ____ _ ____ _ ____ _ ____ _ ____ _ ____
 72
    65
 73
     4
 40
2.0
 49
1.25
 74
     0
 49
-0.25
 74
     0
 49
0.25
 74
     0
 49
-0.25
 74
     0
  0
LTYPE
  5
26
330
5
100
AcDbSymbolTableRecord
100
AcDbLinetypeTableRecord
  2
CENTER2
 70
     0
  3
____ _ ____ _ ____ _ ____ _ ____ _ ____ _ ____
 72
    65
 73
     4
 40
1.125
 49
0.75
 74
     0
 49
-0.125
 74
     0
 49
0.125
 74
     0
 49
-0.125
 74
     0
  0
LTYPE
  5
27
330
5
100
AcDbSymbolTableRecord
100
AcDbLinetypeTableRecord
  2
CENTERX2
 70
     0
  3
________  __  ________  __  ________  __  
 72
    65
 73
     4
 40
4.0
 49
2.5
 74
     0
 49
-0.5
 74
     0
 49
0.5
 74
     0
 49
-0.5
 74
     0
  0
LTYPE
  5
28
330
5
100
AcDbSymbolTableRecord
100
AcDbLinetypeTableRecord
  2
DASHDOT
 70
     0
  3
__ . __ . __ . __ . __ . __ . __ . 
 72
    65
 73
     4
 40
1.0
 49
0.5
 74
     0
 49
-0.25
 74
     0
 49
0.0
 74
     0
 49
-0.25
 74
     0
  0
LTYPE
  5
29
330
5
100
AcDbSymbolTableRecord
100
AcDbLinetypeTableRecord
  2
DASHDOT2
 70
     0
  3
_._._._._._._._._._._._._._._._.
 72
    65
 73
     4
 40
0.5
 49
0.25
 74
     0
 49
-0.125
 74
     0
 49
0.0
 74
     0
 49
-0.125
 74
     0
  0
LTYPE
  5
2A
330
5
100
AcDbSymbolTableRecord
100
AcDbLinetypeTableRecord
  2
DASHDOTX2
 70
     0
  3
____  .  ____  .  ____  .  ____  .  
 72
    65
 73
     4
 40
2.0
 49
1.0
 74
     0
 49
-0.5
 74
     0
 49
0.0
 74
     0
 49
-0.5
 74
     0
  0
LTYPE
  5
2B
330
5
100
AcDbSymbolTableRecord
100
AcDbLinetypeTableRecord
  2
DASHED
 70
     0
  3
__ __ __ __ __ __ __ __ __ __ __ __ 
 72
    65
 73
     2
 40
0.75
 49
0.5
 74
     0
 49
-0.25
 74
     0
  0
LTYPE
  5
2C
330
5
100
AcDbSymbolTableRecord
100
AcDbLinetypeTableRecord
  2
DASHED2
 70
     0
  3
_ _ _ _ _ _ _ _ _ _ _ _ _ _ _ _ _ _ 
 72
    65
 73
     2
 40
0.375
 49
0.25
 74
     0
 49
-0.125
 74
     0
  0
LTYPE
  5
2D
330
5
100
AcDbSymbolTableRecord
100
AcDbLinetypeTableRecord
  2
DASHEDX2
 70
     0
  3
____  ____  ____  ____  ____  ____  
 72
    65
 73
     2
 40
1.5
 49
1.0
 74
     0
 49
-0.5
 74
     0
  0
LTYPE
  5
2E
330
5
100
AcDbSymbolTableRecord
100
AcDbLinetypeTableRecord
  2
DIVIDE
 70
     0
  3
____ . . ____ . . ____ . . ____ . . 
 72
    65
 73
     6
 40
1.25
 49
0.5
 74
     0
 49
-0.25
 74
     0
 49
0.0
 74
     0
 49
-0.25
 74
     0
 49
0.0
 74
     0
 49
-0.25
 74
     0
  0
LTYPE
  5
2F
330
5
100
AcDbSymbolTableRecord
100
AcDbLinetypeTableRecord
  2
DIVIDE2
 70
     0
  3
__..__..__..__..__..__..__..__..__..
 72
    65
 73
     6
 40
0.625
 49
0.25
 74
     0
 49
-0.125
 74
     0
 49
0.0
 74
     0
 49
-0.125
 74
     0
 49
0.0
 74
     0
 49
-0.125
 74
     0
  0
LTYPE
  5
30
330
5
100
AcDbSymbolTableRecord
100
AcDbLinetypeTableRecord
  2
DIVIDEX2
 70
     0
  3
________  .  .  ________  .  .  ________  .  . 
 72
    65
 73
     6
 40
2.5
 49
1.0
 74
     0
 49
-0.5
 74
     0
 49
0.0
 74
     0
 49
-0.5
 74
     0
 49
0.0
 74
     0
 49
-0.5
 74
     0
  0
LTYPE
  5
31
330
5
100
AcDbSymbolTableRecord
100
AcDbLinetypeTableRecord
  2
DOT
 70
     0
  3
. . . . . . . . . . . . . . . . . . 
 72
    65
 73
     2
 40
0.25
 49
0.0
 74
     0
 49
-0.25
 74
     0
  0
LTYPE
  5
32
330
5
100
AcDbSymbolTableRecord
100
AcDbLinetypeTableRecord
  2
DOT2
 70
     0
  3
....................................
 72
    65
 73
     2
 40
0.125
 49
0.0
 74
     0
 49
-0.125
 74
     0
  0
LTYPE
  5
33
330
5
100
AcDbSymbolTableRecord
100
AcDbLinetypeTableRecord
  2
DOTX2
 70
     0
  3
.  .  .  .  .  .  .  .  .  .  .  .  .  
 72
    65
 73
     2
 40
0.5
 49
0.0
 74
     0
 49
-0.5
 74
     0
  0
LTYPE
  5
34
330
5
100
AcDbSymbolTableRecord
100
AcDbLinetypeTableRecord
  2
HIDDEN
 70
     0
  3
__ __ __ __ __ __ __ __ __ __ __ __ 
 72
    65
 73
     2
 40
0.375
 49
0.25
 74
     0
 49
-0.125
 74
     0
  0
LTYPE
  5
35
330
5
100
AcDbSymbolTableRecord
100
AcDbLinetypeTableRecord
  2
HIDDEN2
 70
     0
  3
_ _ _ _ _ _ _ _ _ _ _ _ _ _ _ _ _ _ 
 72
    65
 73
     2
 40
0.1875
 49
0.125
 74
     0
 49
-0.0625
 74
     0
  0
LTYPE
  5
36
330
5
100
AcDbSymbolTableRecord
100
AcDbLinetypeTableRecord
  2
HIDDENX2
 70
     0
  3
____ ____ ____ ____ ____ ____ ____ 
 72
    65
 73
     2
 40
0.75
 49
0.5
 74
     0
 49
-0.25
 74
     0
  0
LTYPE
  5
37
330
5
100
AcDbSymbolTableRecord
100
AcDbLinetypeTableRecord
  2
PHANTOM
 70
     0
  3
______  __  __  ______  __  __  
 72
    65
 73
     6
 40
2.5
 49
1.25
 74
     0
 49
-0.25
 74
     0
 49
0.25
 74
     0
 49
-0.25
 74
     0
 49
0.25
 74
     0
 49
-0.25
 74
     0
  0
LTYPE
  5
38
330
5
100
AcDbSymbolTableRecord
100
AcDbLinetypeTableRecord
  2
PHANTOM2
 70
     0
  3
___ _ _ ___ _ _ ___ _ _ ___ _ _ 
 72
    65
 73
     6
 40
1.25
 49
0.625
 74
     0
 49
-0.125
 74
     0
 49
0.125
 74
     0
 49
-0.125
 74
     0
 49
0.125
 74
     0
 49
-0.125
 74
     0
  0
LTYPE
  5
39
330
5
100
AcDbSymbolTableRecord
100
AcDbLinetypeTableRecord
  2
PHANTOMX2
 70
     0
  3
___ _ _ ___ _ _ ___ _ _ ___ _ _ 
 72
    65
 73
     6
 40
5.0
 49
2.5
 74
     0
 49
-0.5
 74
     0
 49
0.5
 74
     0
 49
-0.5
 74
     0
 49
0.5
 74
     0
 49
-0.5
 74
     0
  0
ENDTAB
  0
TABLE
  2
LAYER
  5
2
330
0
100
AcDbSymbolTable
 70
   256
  0
LAYER
  5
10
330
2
100
AcDbSymbolTableRecord
100
AcDbLayerTableRecord
  2
0
 70
     0
 62
     7
  6
CONTINUOUS
  0
LAYER
  5
3A
330
2
100
AcDbSymbolTableRecord
100
AcDbLayerTableRecord
  2
1
 70
     0
 62
     1
  6
CONTINUOUS
  0
LAYER
  5
3B
330
2
100
AcDbSymbolTableRecord
100
AcDbLayerTableRecord
  2
2
 70
     0
 62
     2
  6
CONTINUOUS
  0
LAYER
  5
3C
330
2
100
AcDbSymbolTableRecord
100
AcDbLayerTableRecord
  2
3
 70
     0
 62
     3
  6
CONTINUOUS
  0
LAYER
  5
3D
330
2
100
AcDbSymbolTableRecord
100
AcDbLayerTableRecord
  2
4
 70
     0
 62
     4
  6
CONTINUOUS
  0
LAYER
  5
3E
330
2
100
AcDbSymbolTableRecord
100
AcDbLayerTableRecord
  2
5
 70
     0
 62
     5
  6
CONTINUOUS
  0
LAYER
  5
3F
330
2
100
AcDbSymbolTableRecord
100
AcDbLayerTableRecord
  2
6
 70
     0
 62
     6
  6
CONTINUOUS
  0
LAYER
  5
40
330
2
100
AcDbSymbolTableRecord
100
AcDbLayerTableRecord
  2
7
 70
     0
 62
     7
  6
CONTINUOUS
  0
LAYER
  5
41
330
2
100
AcDbSymbolTableRecord
100
AcDbLayerTableRecord
  2
8
 70
     0
 62
     8
  6
CONTINUOUS
  0
LAYER
  5
42
330
2
100
AcDbSymbolTableRecord
100
AcDbLayerTableRecord
  2
9
 70
     0
 62
     9
  6
CONTINUOUS
  0
LAYER
  5
43
330
2
100
AcDbSymbolTableRecord
100
AcDbLayerTableRecord
  2
10
 70
     0
 62
    10
  6
CONTINUOUS
  0
LAYER
  5
44
330
2
100
AcDbSymbolTableRecord
100
AcDbLayerTableRecord
  2
11
 70
     0
 62
    11
  6
CONTINUOUS
  0
LAYER
  5
45
330
2
100
AcDbSymbolTableRecord
100
AcDbLayerTableRecord
  2
12
 70
     0
 62
    12
  6
CONTINUOUS
  0
LAYER
  5
46
330
2
100
AcDbSymbolTableRecord
100
AcDbLayerTableRecord
  2
13
 70
     0
 62
    13
  6
CONTINUOUS
  0
LAYER
  5
47
330
2
100
AcDbSymbolTableRecord
100
AcDbLayerTableRecord
  2
14
 70
     0
 62
    14
  6
CONTINUOUS
  0
LAYER
  5
48
330
2
100
AcDbSymbolTableRecord
100
AcDbLayerTableRecord
  2
15
 70
     0
 62
    15
  6
CONTINUOUS
  0
LAYER
  5
49
330
2
100
AcDbSymbolTableRecord
100
AcDbLayerTableRecord
  2
16
 70
     0
 62
    16
  6
CONTINUOUS
  0
LAYER
  5
4A
330
2
100
AcDbSymbolTableRecord
100
AcDbLayerTableRecord
  2
17
 70
     0
 62
    17
  6
CONTINUOUS
  0
LAYER
  5
4B
330
2
100
AcDbSymbolTableRecord
100
AcDbLayerTableRecord
  2
18
 70
     0
 62
    18
  6
CONTINUOUS
  0
LAYER
  5
4C
330
2
100
AcDbSymbolTableRecord
100
AcDbLayerTableRecord
  2
19
 70
     0
 62
    19
  6
CONTINUOUS
  0
LAYER
  5
4D
330
2
100
AcDbSymbolTableRecord
100
AcDbLayerTableRecord
  2
20
 70
     0
 62
    20
  6
CONTINUOUS
  0
LAYER
  5
4E
330
2
100
AcDbSymbolTableRecord
100
AcDbLayerTableRecord
  2
21
 70
     0
 62
    21
  6
CONTINUOUS
  0
LAYER
  5
4F
330
2
100
AcDbSymbolTableRecord
100
AcDbLayerTableRecord
  2
22
 70
     0
 62
    22
  6
CONTINUOUS
  0
LAYER
  5
50
330
2
100
AcDbSymbolTableRecord
100
AcDbLayerTableRecord
  2
23
 70
     0
 62
    23
  6
CONTINUOUS
  0
LAYER
  5
51
330
2
100
AcDbSymbolTableRecord
100
AcDbLayerTableRecord
  2
24
 70
     0
 62
    24
  6
CONTINUOUS
  0
LAYER
  5
52
330
2
100
AcDbSymbolTableRecord
100
AcDbLayerTableRecord
  2
25
 70
     0
 62
    25
  6
CONTINUOUS
  0
LAYER
  5
53
330
2
100
AcDbSymbolTableRecord
100
AcDbLayerTableRecord
  2
26
 70
     0
 62
    26
  6
CONTINUOUS
  0
LAYER
  5
54
330
2
100
AcDbSymbolTableRecord
100
AcDbLayerTableRecord
  2
27
 70
     0
 62
    27
  6
CONTINUOUS
  0
LAYER
  5
55
330
2
100
AcDbSymbolTableRecord
100
AcDbLayerTableRecord
  2
28
 70
     0
 62
    28
  6
CONTINUOUS
  0
LAYER
  5
56
330
2
100
AcDbSymbolTableRecord
100
AcDbLayerTableRecord
  2
29
 70
     0
 62
    29
  6
CONTINUOUS
  0
LAYER
  5
57
330
2
100
AcDbSymbolTableRecord
100
AcDbLayerTableRecord
  2
30
 70
     0
 62
    30
  6
CONTINUOUS
  0
LAYER
  5
58
330
2
100
AcDbSymbolTableRecord
100
AcDbLayerTableRecord
  2
31
 70
     0
 62
    31
  6
CONTINUOUS
  0
LAYER
  5
59
330
2
100
AcDbSymbolTableRecord
100
AcDbLayerTableRecord
  2
32
 70
     0
 62
    32
  6
CONTINUOUS
  0
LAYER
  5
5A
330
2
100
AcDbSymbolTableRecord
100
AcDbLayerTableRecord
  2
33
 70
     0
 62
    33
  6
CONTINUOUS
  0
LAYER
  5
5B
330
2
100
AcDbSymbolTableRecord
100
AcDbLayerTableRecord
  2
34
 70
     0
 62
    34
  6
CONTINUOUS
  0
LAYER
  5
5C
330
2
100
AcDbSymbolTableRecord
100
AcDbLayerTableRecord
  2
35
 70
     0
 62
    35
  6
CONTINUOUS
  0
LAYER
  5
5D
330
2
100
AcDbSymbolTableRecord
100
AcDbLayerTableRecord
  2
36
 70
     0
 62
    36
  6
CONTINUOUS
  0
LAYER
  5
5E
330
2
100
AcDbSymbolTableRecord
100
AcDbLayerTableRecord
  2
37
 70
     0
 62
    37
  6
CONTINUOUS
  0
LAYER
  5
5F
330
2
100
AcDbSymbolTableRecord
100
AcDbLayerTableRecord
  2
38
 70
     0
 62
    38
  6
CONTINUOUS
  0
LAYER
  5
60
330
2
100
AcDbSymbolTableRecord
100
AcDbLayerTableRecord
  2
39
 70
     0
 62
    39
  6
CONTINUOUS
  0
LAYER
  5
61
330
2
100
AcDbSymbolTableRecord
100
AcDbLayerTableRecord
  2
40
 70
     0
 62
    40
  6
CONTINUOUS
  0
LAYER
  5
62
330
2
100
AcDbSymbolTableRecord
100
AcDbLayerTableRecord
  2
41
 70
     0
 62
    41
  6
CONTINUOUS
  0
LAYER
  5
63
330
2
100
AcDbSymbolTableRecord
100
AcDbLayerTableRecord
  2
42
 70
     0
 62
    42
  6
CONTINUOUS
  0
LAYER
  5
64
330
2
100
AcDbSymbolTableRecord
100
AcDbLayerTableRecord
  2
43
 70
     0
 62
    43
  6
CONTINUOUS
  0
LAYER
  5
65
330
2
100
AcDbSymbolTableRecord
100
AcDbLayerTableRecord
  2
44
 70
     0
 62
    44
  6
CONTINUOUS
  0
LAYER
  5
66
330
2
100
AcDbSymbolTableRecord
100
AcDbLayerTableRecord
  2
45
 70
     0
 62
    45
  6
CONTINUOUS
  0
LAYER
  5
67
330
2
100
AcDbSymbolTableRecord
100
AcDbLayerTableRecord
  2
46
 70
     0
 62
    46
  6
CONTINUOUS
  0
LAYER
  5
68
330
2
100
AcDbSymbolTableRecord
100
AcDbLayerTableRecord
  2
47
 70
     0
 62
    47
  6
CONTINUOUS
  0
LAYER
  5
69
330
2
100
AcDbSymbolTableRecord
100
AcDbLayerTableRecord
  2
48
 70
     0
 62
    48
  6
CONTINUOUS
  0
LAYER
  5
6A
330
2
100
AcDbSymbolTableRecord
100
AcDbLayerTableRecord
  2
49
 70
     0
 62
    49
  6
CONTINUOUS
  0
LAYER
  5
6B
330
2
100
AcDbSymbolTableRecord
100
AcDbLayerTableRecord
  2
50
 70
     0
 62
    50
  6
CONTINUOUS
  0
LAYER
  5
6C
330
2
100
AcDbSymbolTableRecord
100
AcDbLayerTableRecord
  2
51
 70
     0
 62
    51
  6
CONTINUOUS
  0
LAYER
  5
6D
330
2
100
AcDbSymbolTableRecord
100
AcDbLayerTableRecord
  2
52
 70
     0
 62
    52
  6
CONTINUOUS
  0
LAYER
  5
6E
330
2
100
AcDbSymbolTableRecord
100
AcDbLayerTableRecord
  2
53
 70
     0
 62
    53
  6
CONTINUOUS
  0
LAYER
  5
6F
330
2
100
AcDbSymbolTableRecord
100
AcDbLayerTableRecord
  2
54
 70
     0
 62
    54
  6
CONTINUOUS
  0
LAYER
  5
70
330
2
100
AcDbSymbolTableRecord
100
AcDbLayerTableRecord
  2
55
 70
     0
 62
    55
  6
CONTINUOUS
  0
LAYER
  5
71
330
2
100
AcDbSymbolTableRecord
100
AcDbLayerTableRecord
  2
56
 70
     0
 62
    56
  6
CONTINUOUS
  0
LAYER
  5
72
330
2
100
AcDbSymbolTableRecord
100
AcDbLayerTableRecord
  2
57
 70
     0
 62
    57
  6
CONTINUOUS
  0
LAYER
  5
73
330
2
100
AcDbSymbolTableRecord
100
AcDbLayerTableRecord
  2
58
 70
     0
 62
    58
  6
CONTINUOUS
  0
LAYER
  5
74
330
2
100
AcDbSymbolTableRecord
100
AcDbLayerTableRecord
  2
59
 70
     0
 62
    59
  6
CONTINUOUS
  0
LAYER
  5
75
330
2
100
AcDbSymbolTableRecord
100
AcDbLayerTableRecord
  2
60
 70
     0
 62
    60
  6
CONTINUOUS
  0
LAYER
  5
76
330
2
100
AcDbSymbolTableRecord
100
AcDbLayerTableRecord
  2
61
 70
     0
 62
    61
  6
CONTINUOUS
  0
LAYER
  5
77
330
2
100
AcDbSymbolTableRecord
100
AcDbLayerTableRecord
  2
62
 70
     0
 62
    62
  6
CONTINUOUS
  0
LAYER
  5
78
330
2
100
AcDbSymbolTableRecord
100
AcDbLayerTableRecord
  2
63
 70
     0
 62
    63
  6
CONTINUOUS
  0
LAYER
  5
79
330
2
100
AcDbSymbolTableRecord
100
AcDbLayerTableRecord
  2
64
 70
     0
 62
    64
  6
CONTINUOUS
  0
LAYER
  5
7A
330
2
100
AcDbSymbolTableRecord
100
AcDbLayerTableRecord
  2
65
 70
     0
 62
    65
  6
CONTINUOUS
  0
LAYER
  5
7B
330
2
100
AcDbSymbolTableRecord
100
AcDbLayerTableRecord
  2
66
 70
     0
 62
    66
  6
CONTINUOUS
  0
LAYER
  5
7C
330
2
100
AcDbSymbolTableRecord
100
AcDbLayerTableRecord
  2
67
 70
     0
 62
    67
  6
CONTINUOUS
  0
LAYER
  5
7D
330
2
100
AcDbSymbolTableRecord
100
AcDbLayerTableRecord
  2
68
 70
     0
 62
    68
  6
CONTINUOUS
  0
LAYER
  5
7E
330
2
100
AcDbSymbolTableRecord
100
AcDbLayerTableRecord
  2
69
 70
     0
 62
    69
  6
CONTINUOUS
  0
LAYER
  5
7F
330
2
100
AcDbSymbolTableRecord
100
AcDbLayerTableRecord
  2
70
 70
     0
 62
    70
  6
CONTINUOUS
  0
LAYER
  5
80
330
2
100
AcDbSymbolTableRecord
100
AcDbLayerTableRecord
  2
71
 70
     0
 62
    71
  6
CONTINUOUS
  0
LAYER
  5
81
330
2
100
AcDbSymbolTableRecord
100
AcDbLayerTableRecord
  2
72
 70
     0
 62
    72
  6
CONTINUOUS
  0
LAYER
  5
82
330
2
100
AcDbSymbolTableRecord
100
AcDbLayerTableRecord
  2
73
 70
     0
 62
    73
  6
CONTINUOUS
  0
LAYER
  5
83
330
2
100
AcDbSymbolTableRecord
100
AcDbLayerTableRecord
  2
74
 70
     0
 62
    74
  6
CONTINUOUS
  0
LAYER
  5
84
330
2
100
AcDbSymbolTableRecord
100
AcDbLayerTableRecord
  2
75
 70
     0
 62
    75
  6
CONTINUOUS
  0
LAYER
  5
85
330
2
100
AcDbSymbolTableRecord
100
AcDbLayerTableRecord
  2
76
 70
     0
 62
    76
  6
CONTINUOUS
  0
LAYER
  5
86
330
2
100
AcDbSymbolTableRecord
100
AcDbLayerTableRecord
  2
77
 70
     0
 62
    77
  6
CONTINUOUS
  0
LAYER
  5
87
330
2
100
AcDbSymbolTableRecord
100
AcDbLayerTableRecord
  2
78
 70
     0
 62
    78
  6
CONTINUOUS
  0
LAYER
  5
88
330
2
100
AcDbSymbolTableRecord
100
AcDbLayerTableRecord
  2
79
 70
     0
 62
    79
  6
CONTINUOUS
  0
LAYER
  5
89
330
2
100
AcDbSymbolTableRecord
100
AcDbLayerTableRecord
  2
80
 70
     0
 62
    80
  6
CONTINUOUS
  0
LAYER
  5
8A
330
2
100
AcDbSymbolTableRecord
100
AcDbLayerTableRecord
  2
81
 70
     0
 62
    81
  6
CONTINUOUS
  0
LAYER
  5
8B
330
2
100
AcDbSymbolTableRecord
100
AcDbLayerTableRecord
  2
82
 70
     0
 62
    82
  6
CONTINUOUS
  0
LAYER
  5
8C
330
2
100
AcDbSymbolTableRecord
100
AcDbLayerTableRecord
  2
83
 70
     0
 62
    83
  6
CONTINUOUS
  0
LAYER
  5
8D
330
2
100
AcDbSymbolTableRecord
100
AcDbLayerTableRecord
  2
84
 70
     0
 62
    84
  6
CONTINUOUS
  0
LAYER
  5
8E
330
2
100
AcDbSymbolTableRecord
100
AcDbLayerTableRecord
  2
85
 70
     0
 62
    85
  6
CONTINUOUS
  0
LAYER
  5
8F
330
2
100
AcDbSymbolTableRecord
100
AcDbLayerTableRecord
  2
86
 70
     0
 62
    86
  6
CONTINUOUS
  0
LAYER
  5
90
330
2
100
AcDbSymbolTableRecord
100
AcDbLayerTableRecord
  2
87
 70
     0
 62
    87
  6
CONTINUOUS
  0
LAYER
  5
91
330
2
100
AcDbSymbolTableRecord
100
AcDbLayerTableRecord
  2
88
 70
     0
 62
    88
  6
CONTINUOUS
  0
LAYER
  5
92
330
2
100
AcDbSymbolTableRecord
100
AcDbLayerTableRecord
  2
89
 70
     0
 62
    89
  6
CONTINUOUS
  0
LAYER
  5
93
330
2
100
AcDbSymbolTableRecord
100
AcDbLayerTableRecord
  2
90
 70
     0
 62
    90
  6
CONTINUOUS
  0
LAYER
  5
94
330
2
100
AcDbSymbolTableRecord
100
AcDbLayerTableRecord
  2
91
 70
     0
 62
    91
  6
CONTINUOUS
  0
LAYER
  5
95
330
2
100
AcDbSymbolTableRecord
100
AcDbLayerTableRecord
  2
92
 70
     0
 62
    92
  6
CONTINUOUS
  0
LAYER
  5
96
330
2
100
AcDbSymbolTableRecord
100
AcDbLayerTableRecord
  2
93
 70
     0
 62
    93
  6
CONTINUOUS
  0
LAYER
  5
97
330
2
100
AcDbSymbolTableRecord
100
AcDbLayerTableRecord
  2
94
 70
     0
 62
    94
  6
CONTINUOUS
  0
LAYER
  5
98
330
2
100
AcDbSymbolTableRecord
100
AcDbLayerTableRecord
  2
95
 70
     0
 62
    95
  6
CONTINUOUS
  0
LAYER
  5
99
330
2
100
AcDbSymbolTableRecord
100
AcDbLayerTableRecord
  2
96
 70
     0
 62
    96
  6
CONTINUOUS
  0
LAYER
  5
9A
330
2
100
AcDbSymbolTableRecord
100
AcDbLayerTableRecord
  2
97
 70
     0
 62
    97
  6
CONTINUOUS
  0
LAYER
  5
9B
330
2
100
AcDbSymbolTableRecord
100
AcDbLayerTableRecord
  2
98
 70
     0
 62
    98
  6
CONTINUOUS
  0
LAYER
  5
9C
330
2
100
AcDbSymbolTableRecord
100
AcDbLayerTableRecord
  2
99
 70
     0
 62
    99
  6
CONTINUOUS
  0
LAYER
  5
9D
330
2
100
AcDbSymbolTableRecord
100
AcDbLayerTableRecord
  2
100
 70
     0
 62
   100
  6
CONTINUOUS
  0
LAYER
  5
9E
330
2
100
AcDbSymbolTableRecord
100
AcDbLayerTableRecord
  2
101
 70
     0
 62
   101
  6
CONTINUOUS
  0
LAYER
  5
9F
330
2
100
AcDbSymbolTableRecord
100
AcDbLayerTableRecord
  2
102
 70
     0
 62
   102
  6
CONTINUOUS
  0
LAYER
  5
A0
330
2
100
AcDbSymbolTableRecord
100
AcDbLayerTableRecord
  2
103
 70
     0
 62
   103
  6
CONTINUOUS
  0
LAYER
  5
A1
330
2
100
AcDbSymbolTableRecord
100
AcDbLayerTableRecord
  2
104
 70
     0
 62
   104
  6
CONTINUOUS
  0
LAYER
  5
A2
330
2
100
AcDbSymbolTableRecord
100
AcDbLayerTableRecord
  2
105
 70
     0
 62
   105
  6
CONTINUOUS
  0
LAYER
  5
A3
330
2
100
AcDbSymbolTableRecord
100
AcDbLayerTableRecord
  2
106
 70
     0
 62
   106
  6
CONTINUOUS
  0
LAYER
  5
A4
330
2
100
AcDbSymbolTableRecord
100
AcDbLayerTableRecord
  2
107
 70
     0
 62
   107
  6
CONTINUOUS
  0
LAYER
  5
A5
330
2
100
AcDbSymbolTableRecord
100
AcDbLayerTableRecord
  2
108
 70
     0
 62
   108
  6
CONTINUOUS
  0
LAYER
  5
A6
330
2
100
AcDbSymbolTableRecord
100
AcDbLayerTableRecord
  2
109
 70
     0
 62
   109
  6
CONTINUOUS
  0
LAYER
  5
A7
330
2
100
AcDbSymbolTableRecord
100
AcDbLayerTableRecord
  2
110
 70
     0
 62
   110
  6
CONTINUOUS
  0
LAYER
  5
A8
330
2
100
AcDbSymbolTableRecord
100
AcDbLayerTableRecord
  2
111
 70
     0
 62
   111
  6
CONTINUOUS
  0
LAYER
  5
A9
330
2
100
AcDbSymbolTableRecord
100
AcDbLayerTableRecord
  2
112
 70
     0
 62
   112
  6
CONTINUOUS
  0
LAYER
  5
AA
330
2
100
AcDbSymbolTableRecord
100
AcDbLayerTableRecord
  2
113
 70
     0
 62
   113
  6
CONTINUOUS
  0
LAYER
  5
AB
330
2
100
AcDbSymbolTableRecord
100
AcDbLayerTableRecord
  2
114
 70
     0
 62
   114
  6
CONTINUOUS
  0
LAYER
  5
AC
330
2
100
AcDbSymbolTableRecord
100
AcDbLayerTableRecord
  2
115
 70
     0
 62
   115
  6
CONTINUOUS
  0
LAYER
  5
AD
330
2
100
AcDbSymbolTableRecord
100
AcDbLayerTableRecord
  2
116
 70
     0
 62
   116
  6
CONTINUOUS
  0
LAYER
  5
AE
330
2
100
AcDbSymbolTableRecord
100
AcDbLayerTableRecord
  2
117
 70
     0
 62
   117
  6
CONTINUOUS
  0
LAYER
  5
AF
330
2
100
AcDbSymbolTableRecord
100
AcDbLayerTableRecord
  2
118
 70
     0
 62
   118
  6
CONTINUOUS
  0
LAYER
  5
B0
330
2
100
AcDbSymbolTableRecord
100
AcDbLayerTableRecord
  2
119
 70
     0
 62
   119
  6
CONTINUOUS
  0
LAYER
  5
B1
330
2
100
AcDbSymbolTableRecord
100
AcDbLayerTableRecord
  2
120
 70
     0
 62
   120
  6
CONTINUOUS
  0
LAYER
  5
B2
330
2
100
AcDbSymbolTableRecord
100
AcDbLayerTableRecord
  2
121
 70
     0
 62
   121
  6
CONTINUOUS
  0
LAYER
  5
B3
330
2
100
AcDbSymbolTableRecord
100
AcDbLayerTableRecord
  2
122
 70
     0
 62
   122
  6
CONTINUOUS
  0
LAYER
  5
B4
330
2
100
AcDbSymbolTableRecord
100
AcDbLayerTableRecord
  2
123
 70
     0
 62
   123
  6
CONTINUOUS
  0
LAYER
  5
B5
330
2
100
AcDbSymbolTableRecord
100
AcDbLayerTableRecord
  2
124
 70
     0
 62
   124
  6
CONTINUOUS
  0
LAYER
  5
B6
330
2
100
AcDbSymbolTableRecord
100
AcDbLayerTableRecord
  2
125
 70
     0
 62
   125
  6
CONTINUOUS
  0
LAYER
  5
B7
330
2
100
AcDbSymbolTableRecord
100
AcDbLayerTableRecord
  2
126
 70
     0
 62
   126
  6
CONTINUOUS
  0
LAYER
  5
B8
330
2
100
AcDbSymbolTableRecord
100
AcDbLayerTableRecord
  2
127
 70
     0
 62
   127
  6
CONTINUOUS
  0
LAYER
  5
B9
330
2
100
AcDbSymbolTableRecord
100
AcDbLayerTableRecord
  2
128
 70
     0
 62
   128
  6
CONTINUOUS
  0
LAYER
  5
BA
330
2
100
AcDbSymbolTableRecord
100
AcDbLayerTableRecord
  2
129
 70
     0
 62
   129
  6
CONTINUOUS
  0
LAYER
  5
BB
330
2
100
AcDbSymbolTableRecord
100
AcDbLayerTableRecord
  2
130
 70
     0
 62
   130
  6
CONTINUOUS
  0
LAYER
  5
BC
330
2
100
AcDbSymbolTableRecord
100
AcDbLayerTableRecord
  2
131
 70
     0
 62
   131
  6
CONTINUOUS
  0
LAYER
  5
BD
330
2
100
AcDbSymbolTableRecord
100
AcDbLayerTableRecord
  2
132
 70
     0
 62
   132
  6
CONTINUOUS
  0
LAYER
  5
BE
330
2
100
AcDbSymbolTableRecord
100
AcDbLayerTableRecord
  2
133
 70
     0
 62
   133
  6
CONTINUOUS
  0
LAYER
  5
BF
330
2
100
AcDbSymbolTableRecord
100
AcDbLayerTableRecord
  2
134
 70
     0
 62
   134
  6
CONTINUOUS
  0
LAYER
  5
C0
330
2
100
AcDbSymbolTableRecord
100
AcDbLayerTableRecord
  2
135
 70
     0
 62
   135
  6
CONTINUOUS
  0
LAYER
  5
C1
330
2
100
AcDbSymbolTableRecord
100
AcDbLayerTableRecord
  2
136
 70
     0
 62
   136
  6
CONTINUOUS
  0
LAYER
  5
C2
330
2
100
AcDbSymbolTableRecord
100
AcDbLayerTableRecord
  2
137
 70
     0
 62
   137
  6
CONTINUOUS
  0
LAYER
  5
C3
330
2
100
AcDbSymbolTableRecord
100
AcDbLayerTableRecord
  2
138
 70
     0
 62
   138
  6
CONTINUOUS
  0
LAYER
  5
C4
330
2
100
AcDbSymbolTableRecord
100
AcDbLayerTableRecord
  2
139
 70
     0
 62
   139
  6
CONTINUOUS
  0
LAYER
  5
C5
330
2
100
AcDbSymbolTableRecord
100
AcDbLayerTableRecord
  2
140
 70
     0
 62
   140
  6
CONTINUOUS
  0
LAYER
  5
C6
330
2
100
AcDbSymbolTableRecord
100
AcDbLayerTableRecord
  2
141
 70
     0
 62
   141
  6
CONTINUOUS
  0
LAYER
  5
C7
330
2
100
AcDbSymbolTableRecord
100
AcDbLayerTableRecord
  2
142
 70
     0
 62
   142
  6
CONTINUOUS
  0
LAYER
  5
C8
330
2
100
AcDbSymbolTableRecord
100
AcDbLayerTableRecord
  2
143
 70
     0
 62
   143
  6
CONTINUOUS
  0
LAYER
  5
C9
330
2
100
AcDbSymbolTableRecord
100
AcDbLayerTableRecord
  2
144
 70
     0
 62
   144
  6
CONTINUOUS
  0
LAYER
  5
CA
330
2
100
AcDbSymbolTableRecord
100
AcDbLayerTableRecord
  2
145
 70
     0
 62
   145
  6
CONTINUOUS
  0
LAYER
  5
CB
330
2
100
AcDbSymbolTableRecord
100
AcDbLayerTableRecord
  2
146
 70
     0
 62
   146
  6
CONTINUOUS
  0
LAYER
  5
CC
330
2
100
AcDbSymbolTableRecord
100
AcDbLayerTableRecord
  2
147
 70
     0
 62
   147
  6
CONTINUOUS
  0
LAYER
  5
CD
330
2
100
AcDbSymbolTableRecord
100
AcDbLayerTableRecord
  2
148
 70
     0
 62
   148
  6
CONTINUOUS
  0
LAYER
  5
CE
330
2
100
AcDbSymbolTableRecord
100
AcDbLayerTableRecord
  2
149
 70
     0
 62
   149
  6
CONTINUOUS
  0
LAYER
  5
CF
330
2
100
AcDbSymbolTableRecord
100
AcDbLayerTableRecord
  2
150
 70
     0
 62
   150
  6
CONTINUOUS
  0
LAYER
  5
D0
330
2
100
AcDbSymbolTableRecord
100
AcDbLayerTableRecord
  2
151
 70
     0
 62
   151
  6
CONTINUOUS
  0
LAYER
  5
D1
330
2
100
AcDbSymbolTableRecord
100
AcDbLayerTableRecord
  2
152
 70
     0
 62
   152
  6
CONTINUOUS
  0
LAYER
  5
D2
330
2
100
AcDbSymbolTableRecord
100
AcDbLayerTableRecord
  2
153
 70
     0
 62
   153
  6
CONTINUOUS
  0
LAYER
  5
D3
330
2
100
AcDbSymbolTableRecord
100
AcDbLayerTableRecord
  2
154
 70
     0
 62
   154
  6
CONTINUOUS
  0
LAYER
  5
D4
330
2
100
AcDbSymbolTableRecord
100
AcDbLayerTableRecord
  2
155
 70
     0
 62
   155
  6
CONTINUOUS
  0
LAYER
  5
D5
330
2
100
AcDbSymbolTableRecord
100
AcDbLayerTableRecord
  2
156
 70
     0
 62
   156
  6
CONTINUOUS
  0
LAYER
  5
D6
330
2
100
AcDbSymbolTableRecord
100
AcDbLayerTableRecord
  2
157
 70
     0
 62
   157
  6
CONTINUOUS
  0
LAYER
  5
D7
330
2
100
AcDbSymbolTableRecord
100
AcDbLayerTableRecord
  2
158
 70
     0
 62
   158
  6
CONTINUOUS
  0
LAYER
  5
D8
330
2
100
AcDbSymbolTableRecord
100
AcDbLayerTableRecord
  2
159
 70
     0
 62
   159
  6
CONTINUOUS
  0
LAYER
  5
D9
330
2
100
AcDbSymbolTableRecord
100
AcDbLayerTableRecord
  2
160
 70
     0
 62
   160
  6
CONTINUOUS
  0
LAYER
  5
DA
330
2
100
AcDbSymbolTableRecord
100
AcDbLayerTableRecord
  2
161
 70
     0
 62
   161
  6
CONTINUOUS
  0
LAYER
  5
DB
330
2
100
AcDbSymbolTableRecord
100
AcDbLayerTableRecord
  2
162
 70
     0
 62
   162
  6
CONTINUOUS
  0
LAYER
  5
DC
330
2
100
AcDbSymbolTableRecord
100
AcDbLayerTableRecord
  2
163
 70
     0
 62
   163
  6
CONTINUOUS
  0
LAYER
  5
DD
330
2
100
AcDbSymbolTableRecord
100
AcDbLayerTableRecord
  2
164
 70
     0
 62
   164
  6
CONTINUOUS
  0
LAYER
  5
DE
330
2
100
AcDbSymbolTableRecord
100
AcDbLayerTableRecord
  2
165
 70
     0
 62
   165
  6
CONTINUOUS
  0
LAYER
  5
DF
330
2
100
AcDbSymbolTableRecord
100
AcDbLayerTableRecord
  2
166
 70
     0
 62
   166
  6
CONTINUOUS
  0
LAYER
  5
E0
330
2
100
AcDbSymbolTableRecord
100
AcDbLayerTableRecord
  2
167
 70
     0
 62
   167
  6
CONTINUOUS
  0
LAYER
  5
E1
330
2
100
AcDbSymbolTableRecord
100
AcDbLayerTableRecord
  2
168
 70
     0
 62
   168
  6
CONTINUOUS
  0
LAYER
  5
E2
330
2
100
AcDbSymbolTableRecord
100
AcDbLayerTableRecord
  2
169
 70
     0
 62
   169
  6
CONTINUOUS
  0
LAYER
  5
E3
330
2
100
AcDbSymbolTableRecord
100
AcDbLayerTableRecord
  2
170
 70
     0
 62
   170
  6
CONTINUOUS
  0
LAYER
  5
E4
330
2
100
AcDbSymbolTableRecord
100
AcDbLayerTableRecord
  2
171
 70
     0
 62
   171
  6
CONTINUOUS
  0
LAYER
  5
E5
330
2
100
AcDbSymbolTableRecord
100
AcDbLayerTableRecord
  2
172
 70
     0
 62
   172
  6
CONTINUOUS
  0
LAYER
  5
E6
330
2
100
AcDbSymbolTableRecord
100
AcDbLayerTableRecord
  2
173
 70
     0
 62
   173
  6
CONTINUOUS
  0
LAYER
  5
E7
330
2
100
AcDbSymbolTableRecord
100
AcDbLayerTableRecord
  2
174
 70
     0
 62
   174
  6
CONTINUOUS
  0
LAYER
  5
E8
330
2
100
AcDbSymbolTableRecord
100
AcDbLayerTableRecord
  2
175
 70
     0
 62
   175
  6
CONTINUOUS
  0
LAYER
  5
E9
330
2
100
AcDbSymbolTableRecord
100
AcDbLayerTableRecord
  2
176
 70
     0
 62
   176
  6
CONTINUOUS
  0
LAYER
  5
EA
330
2
100
AcDbSymbolTableRecord
100
AcDbLayerTableRecord
  2
177
 70
     0
 62
   177
  6
CONTINUOUS
  0
LAYER
  5
EB
330
2
100
AcDbSymbolTableRecord
100
AcDbLayerTableRecord
  2
178
 70
     0
 62
   178
  6
CONTINUOUS
  0
LAYER
  5
EC
330
2
100
AcDbSymbolTableRecord
100
AcDbLayerTableRecord
  2
179
 70
     0
 62
   179
  6
CONTINUOUS
  0
LAYER
  5
ED
330
2
100
AcDbSymbolTableRecord
100
AcDbLayerTableRecord
  2
180
 70
     0
 62
   180
  6
CONTINUOUS
  0
LAYER
  5
EE
330
2
100
AcDbSymbolTableRecord
100
AcDbLayerTableRecord
  2
181
 70
     0
 62
   181
  6
CONTINUOUS
  0
LAYER
  5
EF
330
2
100
AcDbSymbolTableRecord
100
AcDbLayerTableRecord
  2
182
 70
     0
 62
   182
  6
CONTINUOUS
  0
LAYER
  5
F0
330
2
100
AcDbSymbolTableRecord
100
AcDbLayerTableRecord
  2
183
 70
     0
 62
   183
  6
CONTINUOUS
  0
LAYER
  5
F1
330
2
100
AcDbSymbolTableRecord
100
AcDbLayerTableRecord
  2
184
 70
     0
 62
   184
  6
CONTINUOUS
  0
LAYER
  5
F2
330
2
100
AcDbSymbolTableRecord
100
AcDbLayerTableRecord
  2
185
 70
     0
 62
   185
  6
CONTINUOUS
  0
LAYER
  5
F3
330
2
100
AcDbSymbolTableRecord
100
AcDbLayerTableRecord
  2
186
 70
     0
 62
   186
  6
CONTINUOUS
  0
LAYER
  5
F4
330
2
100
AcDbSymbolTableRecord
100
AcDbLayerTableRecord
  2
187
 70
     0
 62
   187
  6
CONTINUOUS
  0
LAYER
  5
F5
330
2
100
AcDbSymbolTableRecord
100
AcDbLayerTableRecord
  2
188
 70
     0
 62
   188
  6
CONTINUOUS
  0
LAYER
  5
F6
330
2
100
AcDbSymbolTableRecord
100
AcDbLayerTableRecord
  2
189
 70
     0
 62
   189
  6
CONTINUOUS
  0
LAYER
  5
F7
330
2
100
AcDbSymbolTableRecord
100
AcDbLayerTableRecord
  2
190
 70
     0
 62
   190
  6
CONTINUOUS
  0
LAYER
  5
F8
330
2
100
AcDbSymbolTableRecord
100
AcDbLayerTableRecord
  2
191
 70
     0
 62
   191
  6
CONTINUOUS
  0
LAYER
  5
F9
330
2
100
AcDbSymbolTableRecord
100
AcDbLayerTableRecord
  2
192
 70
     0
 62
   192
  6
CONTINUOUS
  0
LAYER
  5
FA
330
2
100
AcDbSymbolTableRecord
100
AcDbLayerTableRecord
  2
193
 70
     0
 62
   193
  6
CONTINUOUS
  0
LAYER
  5
FB
330
2
100
AcDbSymbolTableRecord
100
AcDbLayerTableRecord
  2
194
 70
     0
 62
   194
  6
CONTINUOUS
  0
LAYER
  5
FC
330
2
100
AcDbSymbolTableRecord
100
AcDbLayerTableRecord
  2
195
 70
     0
 62
   195
  6
CONTINUOUS
  0
LAYER
  5
FD
330
2
100
AcDbSymbolTableRecord
100
AcDbLayerTableRecord
  2
196
 70
     0
 62
   196
  6
CONTINUOUS
  0
LAYER
  5
FE
330
2
100
AcDbSymbolTableRecord
100
AcDbLayerTableRecord
  2
197
 70
     0
 62
   197
  6
CONTINUOUS
  0
LAYER
  5
FF
330
2
100
AcDbSymbolTableRecord
100
AcDbLayerTableRecord
  2
198
 70
     0
 62
   198
  6
CONTINUOUS
  0
LAYER
  5
100
330
2
100
AcDbSymbolTableRecord
100
AcDbLayerTableRecord
  2
199
 70
     0
 62
   199
  6
CONTINUOUS
  0
LAYER
  5
101
330
2
100
AcDbSymbolTableRecord
100
AcDbLayerTableRecord
  2
200
 70
     0
 62
   200
  6
CONTINUOUS
  0
LAYER
  5
102
330
2
100
AcDbSymbolTableRecord
100
AcDbLayerTableRecord
  2
201
 70
     0
 62
   201
  6
CONTINUOUS
  0
LAYER
  5
103
330
2
100
AcDbSymbolTableRecord
100
AcDbLayerTableRecord
  2
202
 70
     0
 62
   202
  6
CONTINUOUS
  0
LAYER
  5
104
330
2
100
AcDbSymbolTableRecord
100
AcDbLayerTableRecord
  2
203
 70
     0
 62
   203
  6
CONTINUOUS
  0
LAYER
  5
105
330
2
100
AcDbSymbolTableRecord
100
AcDbLayerTableRecord
  2
204
 70
     0
 62
   204
  6
CONTINUOUS
  0
LAYER
  5
106
330
2
100
AcDbSymbolTableRecord
100
AcDbLayerTableRecord
  2
205
 70
     0
 62
   205
  6
CONTINUOUS
  0
LAYER
  5
107
330
2
100
AcDbSymbolTableRecord
100
AcDbLayerTableRecord
  2
206
 70
     0
 62
   206
  6
CONTINUOUS
  0
LAYER
  5
108
330
2
100
AcDbSymbolTableRecord
100
AcDbLayerTableRecord
  2
207
 70
     0
 62
   207
  6
CONTINUOUS
  0
LAYER
  5
109
330
2
100
AcDbSymbolTableRecord
100
AcDbLayerTableRecord
  2
208
 70
     0
 62
   208
  6
CONTINUOUS
  0
LAYER
  5
10A
330
2
100
AcDbSymbolTableRecord
100
AcDbLayerTableRecord
  2
209
 70
     0
 62
   209
  6
CONTINUOUS
  0
LAYER
  5
10B
330
2
100
AcDbSymbolTableRecord
100
AcDbLayerTableRecord
  2
210
 70
     0
 62
   210
  6
CONTINUOUS
  0
LAYER
  5
10C
330
2
100
AcDbSymbolTableRecord
100
AcDbLayerTableRecord
  2
211
 70
     0
 62
   211
  6
CONTINUOUS
  0
LAYER
  5
10D
330
2
100
AcDbSymbolTableRecord
100
AcDbLayerTableRecord
  2
212
 70
     0
 62
   212
  6
CONTINUOUS
  0
LAYER
  5
10E
330
2
100
AcDbSymbolTableRecord
100
AcDbLayerTableRecord
  2
213
 70
     0
 62
   213
  6
CONTINUOUS
  0
LAYER
  5
10F
330
2
100
AcDbSymbolTableRecord
100
AcDbLayerTableRecord
  2
214
 70
     0
 62
   214
  6
CONTINUOUS
  0
LAYER
  5
110
330
2
100
AcDbSymbolTableRecord
100
AcDbLayerTableRecord
  2
215
 70
     0
 62
   215
  6
CONTINUOUS
  0
LAYER
  5
111
330
2
100
AcDbSymbolTableRecord
100
AcDbLayerTableRecord
  2
216
 70
     0
 62
   216
  6
CONTINUOUS
  0
LAYER
  5
112
330
2
100
AcDbSymbolTableRecord
100
AcDbLayerTableRecord
  2
217
 70
     0
 62
   217
  6
CONTINUOUS
  0
LAYER
  5
113
330
2
100
AcDbSymbolTableRecord
100
AcDbLayerTableRecord
  2
218
 70
     0
 62
   218
  6
CONTINUOUS
  0
LAYER
  5
114
330
2
100
AcDbSymbolTableRecord
100
AcDbLayerTableRecord
  2
219
 70
     0
 62
   219
  6
CONTINUOUS
  0
LAYER
  5
115
330
2
100
AcDbSymbolTableRecord
100
AcDbLayerTableRecord
  2
220
 70
     0
 62
   220
  6
CONTINUOUS
  0
LAYER
  5
116
330
2
100
AcDbSymbolTableRecord
100
AcDbLayerTableRecord
  2
221
 70
     0
 62
   221
  6
CONTINUOUS
  0
LAYER
  5
117
330
2
100
AcDbSymbolTableRecord
100
AcDbLayerTableRecord
  2
222
 70
     0
 62
   222
  6
CONTINUOUS
  0
LAYER
  5
118
330
2
100
AcDbSymbolTableRecord
100
AcDbLayerTableRecord
  2
223
 70
     0
 62
   223
  6
CONTINUOUS
  0
LAYER
  5
119
330
2
100
AcDbSymbolTableRecord
100
AcDbLayerTableRecord
  2
224
 70
     0
 62
   224
  6
CONTINUOUS
  0
LAYER
  5
11A
330
2
100
AcDbSymbolTableRecord
100
AcDbLayerTableRecord
  2
225
 70
     0
 62
   225
  6
CONTINUOUS
  0
LAYER
  5
11B
330
2
100
AcDbSymbolTableRecord
100
AcDbLayerTableRecord
  2
226
 70
     0
 62
   226
  6
CONTINUOUS
  0
LAYER
  5
11C
330
2
100
AcDbSymbolTableRecord
100
AcDbLayerTableRecord
  2
227
 70
     0
 62
   227
  6
CONTINUOUS
  0
LAYER
  5
11D
330
2
100
AcDbSymbolTableRecord
100
AcDbLayerTableRecord
  2
228
 70
     0
 62
   228
  6
CONTINUOUS
  0
LAYER
  5
11E
330
2
100
AcDbSymbolTableRecord
100
AcDbLayerTableRecord
  2
229
 70
     0
 62
   229
  6
CONTINUOUS
  0
LAYER
  5
11F
330
2
100
AcDbSymbolTableRecord
100
AcDbLayerTableRecord
  2
230
 70
     0
 62
   230
  6
CONTINUOUS
  0
LAYER
  5
120
330
2
100
AcDbSymbolTableRecord
100
AcDbLayerTableRecord
  2
231
 70
     0
 62
   231
  6
CONTINUOUS
  0
LAYER
  5
121
330
2
100
AcDbSymbolTableRecord
100
AcDbLayerTableRecord
  2
232
 70
     0
 62
   232
  6
CONTINUOUS
  0
LAYER
  5
122
330
2
100
AcDbSymbolTableRecord
100
AcDbLayerTableRecord
  2
233
 70
     0
 62
   233
  6
CONTINUOUS
  0
LAYER
  5
123
330
2
100
AcDbSymbolTableRecord
100
AcDbLayerTableRecord
  2
234
 70
     0
 62
   234
  6
CONTINUOUS
  0
LAYER
  5
124
330
2
100
AcDbSymbolTableRecord
100
AcDbLayerTableRecord
  2
235
 70
     0
 62
   235
  6
CONTINUOUS
  0
LAYER
  5
125
330
2
100
AcDbSymbolTableRecord
100
AcDbLayerTableRecord
  2
236
 70
     0
 62
   236
  6
CONTINUOUS
  0
LAYER
  5
126
330
2
100
AcDbSymbolTableRecord
100
AcDbLayerTableRecord
  2
237
 70
     0
 62
   237
  6
CONTINUOUS
  0
LAYER
  5
127
330
2
100
AcDbSymbolTableRecord
100
AcDbLayerTableRecord
  2
238
 70
     0
 62
   238
  6
CONTINUOUS
  0
LAYER
  5
128
330
2
100
AcDbSymbolTableRecord
100
AcDbLayerTableRecord
  2
239
 70
     0
 62
   239
  6
CONTINUOUS
  0
LAYER
  5
129
330
2
100
AcDbSymbolTableRecord
100
AcDbLayerTableRecord
  2
240
 70
     0
 62
   240
  6
CONTINUOUS
  0
LAYER
  5
12A
330
2
100
AcDbSymbolTableRecord
100
AcDbLayerTableRecord
  2
241
 70
     0
 62
   241
  6
CONTINUOUS
  0
LAYER
  5
12B
330
2
100
AcDbSymbolTableRecord
100
AcDbLayerTableRecord
  2
242
 70
     0
 62
   242
  6
CONTINUOUS
  0
LAYER
  5
12C
330
2
100
AcDbSymbolTableRecord
100
AcDbLayerTableRecord
  2
243
 70
     0
 62
   243
  6
CONTINUOUS
  0
LAYER
  5
12D
330
2
100
AcDbSymbolTableRecord
100
AcDbLayerTableRecord
  2
244
 70
     0
 62
   244
  6
CONTINUOUS
  0
LAYER
  5
12E
330
2
100
AcDbSymbolTableRecord
100
AcDbLayerTableRecord
  2
245
 70
     0
 62
   245
  6
CONTINUOUS
  0
LAYER
  5
12F
330
2
100
AcDbSymbolTableRecord
100
AcDbLayerTableRecord
  2
246
 70
     0
 62
   246
  6
CONTINUOUS
  0
LAYER
  5
130
330
2
100
AcDbSymbolTableRecord
100
AcDbLayerTableRecord
  2
247
 70
     0
 62
   247
  6
CONTINUOUS
  0
LAYER
  5
131
330
2
100
AcDbSymbolTableRecord
100
AcDbLayerTableRecord
  2
248
 70
     0
 62
   248
  6
CONTINUOUS
  0
LAYER
  5
132
330
2
100
AcDbSymbolTableRecord
100
AcDbLayerTableRecord
  2
249
 70
     0
 62
   249
  6
CONTINUOUS
  0
LAYER
  5
133
330
2
100
AcDbSymbolTableRecord
100
AcDbLayerTableRecord
  2
250
 70
     0
 62
   250
  6
CONTINUOUS
  0
LAYER
  5
134
330
2
100
AcDbSymbolTableRecord
100
AcDbLayerTableRecord
  2
251
 70
     0
 62
   251
  6
CONTINUOUS
  0
LAYER
  5
135
330
2
100
AcDbSymbolTableRecord
100
AcDbLayerTableRecord
  2
252
 70
     0
 62
   252
  6
CONTINUOUS
  0
LAYER
  5
136
330
2
100
AcDbSymbolTableRecord
100
AcDbLayerTableRecord
  2
253
 70
     0
 62
   253
  6
CONTINUOUS
  0
LAYER
  5
137
330
2
100
AcDbSymbolTableRecord
100
AcDbLayerTableRecord
  2
254
 70
     0
 62
   254
  6
CONTINUOUS
  0
LAYER
  5
138
330
2
100
AcDbSymbolTableRecord
100
AcDbLayerTableRecord
  2
255
 70
     0
 62
   255
  6
CONTINUOUS
  0
ENDTAB
  0
TABLE
  2
STYLE
  5
3
330
0
100
AcDbSymbolTable
 70
     1
  0
STYLE
  5
11
330
3
100
AcDbSymbolTableRecord
100
AcDbTextStyleTableRecord
  2
STANDARD
 70
     0
 40
0.0
 41
1.0
 50
0.0
 71
     0
 42
0.2
  3
monotxt
  4

  0
ENDTAB
  0
TABLE
  2
VIEW
  5
6
330
0
100
AcDbSymbolTable
 70
     0
  0
ENDTAB
  0
TABLE
  2
UCS
  5
7
330
0
100
AcDbSymbolTable
 70
     0
  0
ENDTAB
  0
TABLE
  2
APPID
  5
9
330
0
100
AcDbSymbolTable
 70
     1
  0
APPID
  5
12
330
9
100
AcDbSymbolTableRecord
100
AcDbRegAppTableRecord
  2
ACAD
 70
     0
  0
ENDTAB
  0
TABLE
  2
DIMSTYLE
  5
A
330
0
100
AcDbSymbolTable
 70
     1
  0
DIMSTYLE
105
3361
330
A
100
AcDbSymbolTableRecord
100
AcDbDimStyleTableRecord
  2
STANDARD
 70
     0
  3

  4

  5

  6

  7

 40
1.0
 41
0.18
 42
0.0625
 43
0.38
 44
0.18
 45
0.0
 46
0.0
 47
0.0
 48
0.0
140
0.18
141
0.09
142
0.0
143
25.4
144
1.0
145
0.0
146
1.0
147
0.09
 71
     0
 72
     0
 73
     1
 74
     1
 75
     0
 76
     0
 77
     0
 78
     0
170
     0
171
     2
172
     0
173
     0
174
     0
175
     0
176
     0
177
     0
178
     0
270
     2
271
     4
272
     4
273
     2
274
     2
340
11
275
     0
280
     0
281
     0
282
     0
283
     1
284
     0
285
     0
286
     0
287
     3
288
     0
  0
ENDTAB
  0
TABLE
  2
BLOCK_RECORD
  5
1
330
0
100
AcDbSymbolTable
 70
     0
  0
BLOCK_RECORD
  5
1E
102
{ACAD_XDICTIONARY
360
4938
102
}
330
1
100
AcDbSymbolTableRecord
100
AcDbBlockTableRecord
  2
*MODEL_SPACE
  0
BLOCK_RECORD
  5
1A
102
{ACAD_XDICTIONARY
360
4936
102
}
330
1
100
AcDbSymbolTableRecord
100
AcDbBlockTableRecord
  2
*PAPER_SPACE
  0
ENDTAB
  0
ENDSEC
  0
SECTION
  2
BLOCKS
  0
BLOCK
  5
13B
330
1E
100
AcDbEntity
  8
0
100
AcDbBlockBegin
  2
*MODEL_SPACE
 70
     0
 10
0.0
 20
0.0
 30
0.0
  3
*MODEL_SPACE
  1

  0
ENDBLK
  5
13C
330
1E
100
AcDbEntity
  8
0
100
AcDbBlockEnd
  0
BLOCK
  5
139
330
1A
100
AcDbEntity
 67
     1
  8
0
100
AcDbBlockBegin
  2
*PAPER_SPACE
 70
     0
 10
0.0
 20
0.0
 30
0.0
  3
*PAPER_SPACE
  1

  0
ENDBLK
  5
13A
330
1A
100
AcDbEntity
 67
     1
  8
0
100
AcDbBlockEnd
  0
ENDSEC
  0
SECTION
  2
ENTITIES
  0
LINE
  5
293B
330
1E
100
AcDbEntity
  8
7
100
AcDbLine
 10
12.9496538593012
 20
12.32504108924381
 30
0.0
 11
12.82891895116472
 21
12.32504108924381
 31
0.0
  0
LINE
  5
2947
330
1E
100
AcDbEntity
  8
7
100
AcDbLine
 10
12.82891895116472
 20
12.17543479003121
 30
0.0
 11
12.9496538593012
 21
12.17543479003121
 31
0.0
  0
LINE
  5
2960
330
1E
100
AcDbEntity
  8
7
100
AcDbLine
 10
12.82891895116472
 20
12.36441116798396
 30
0.0
 11
12.9496538593012
 21
12.36441116798396
 31
0.0
  0
LINE
  5
2973
330
1E
100
AcDbEntity
  8
7
100
AcDbLine
 10
12.82891895116472
 20
12.36441116798396
 30
0.0
 11
12.82891895116472
 21
12.36572350394197
 31
0.0
  0
LINE
  5
2984
330
1E
100
AcDbEntity
  8
7
100
AcDbLine
 10
12.9496538593012
 20
12.13737704724906
 30
0.0
 11
12.9496538593012
 21
12.13606471129105
 31
0.0
  0
LINE
  5
2985
330
1E
100
AcDbEntity
  8
7
100
AcDbLine
 10
12.82891895116472
 20
12.13606471129105
 30
0.0
 11
12.9496538593012
 21
12.13606471129105
 31
0.0
  0
LINE
  5
2986
330
1E
100
AcDbEntity
  8
7
100
AcDbLine
 10
12.9496538593012
 20
12.36441116798396
 30
0.0
 11
12.9496538593012
 21
12.36572350394197
 31
0.0
  0
LINE
  5
2994
330
1E
100
AcDbEntity
  8
7
100
AcDbLine
 10
12.9496538593012
 20
12.36572350394197
 30
0.0
 11
12.82891895116472
 21
12.36572350394197
 31
0.0
  0
LINE
  5
299A
330
1E
100
AcDbEntity
  8
7
100
AcDbLine
 10
13.47196357058729
 20
12.12556602362701
 30
0.0
 11
13.47196357058729
 21
12.09669463255089
 31
0.0
  0
LINE
  5
29A5
330
1E
100
AcDbEntity
  8
7
100
AcDbLine
 10
13.46540189079727
 20
12.09144528871887
 30
0.0
 11
13.45490320313323
 21
12.09144528871887
 31
0.0
  0
LINE
  5
29A6
330
1E
100
AcDbEntity
  8
7
100
AcDbLine
 10
13.53101868869753
 20
12.09275762467687
 30
0.0
 11
13.54151737636157
 21
12.06913557743278
 31
0.0
  0
LINE
  5
29A7
330
1E
100
AcDbEntity
  8
7
100
AcDbLine
 10
13.51920766507548
 20
12.06913557743278
 30
0.0
 11
13.53101868869753
 21
12.09275762467687
 31
0.0
  0
LINE
  5
29A8
330
1E
100
AcDbEntity
  8
7
100
AcDbLine
 10
13.54151737636157
 20
12.06913557743278
 30
0.0
 11
13.51920766507548
 21
12.06913557743278
 31
0.0
  0
LINE
  5
29A9
330
1E
100
AcDbEntity
  8
7
100
AcDbLine
 10
13.68193732386814
 20
12.05732455381073
 30
0.0
 11
13.6740633081201
 21
12.05732455381073
 31
0.0
  0
LINE
  5
29AF
330
1E
100
AcDbEntity
  8
7
100
AcDbLine
 10
13.68718666770015
 20
12.06126156168475
 30
0.0
 11
13.68718666770015
 21
12.10194397638291
 31
0.0
  0
LINE
  5
29BA
330
1E
100
AcDbEntity
  8
7
100
AcDbLine
 10
13.85647800628283
 20
12.10588098425693
 30
0.0
 11
13.83941763882877
 21
12.10588098425693
 31
0.0
  0
LINE
  5
29C0
330
1E
100
AcDbEntity
  8
7
100
AcDbLine
 10
13.88403706140094
 20
12.10588098425693
 30
0.0
 11
13.88403706140094
 21
12.03763951444066
 31
0.0
  0
LINE
  5
29C7
330
1E
100
AcDbEntity
  8
7
100
AcDbLine
 10
13.83941763882877
 20
12.10588098425693
 30
0.0
 11
13.83941763882877
 21
12.124253687669
 31
0.0
  0
LINE
  5
29C8
330
1E
100
AcDbEntity
  8
7
100
AcDbLine
 10
13.23443076218834
 20
12.18068413386323
 30
0.0
 11
13.23443076218834
 21
12.18330880577924
 31
0.0
  0
LINE
  5
29C9
330
1E
100
AcDbEntity
  8
7
100
AcDbLine
 10
13.20818404302824
 20
12.18330880577924
 30
0.0
 11
13.23443076218834
 21
12.18330880577924
 31
0.0
  0
LINE
  5
29CA
330
1E
100
AcDbEntity
  8
7
100
AcDbLine
 10
13.20818404302824
 20
12.31847940945378
 30
0.0
 11
13.23443076218834
 21
12.31847940945378
 31
0.0
  0
LINE
  5
29CB
330
1E
100
AcDbEntity
  8
7
100
AcDbLine
 10
13.23443076218834
 20
12.31847940945378
 30
0.0
 11
13.23443076218834
 21
12.32110408136979
 31
0.0
  0
LINE
  5
29CC
330
1E
100
AcDbEntity
  8
7
100
AcDbLine
 10
13.20949637898624
 20
12.32110408136979
 30
0.0
 11
13.20949637898624
 21
12.37228518373199
 31
0.0
  0
LINE
  5
29CD
330
1E
100
AcDbEntity
  8
7
100
AcDbLine
 10
13.20949637898624
 20
12.32110408136979
 30
0.0
 11
13.23443076218834
 21
12.32110408136979
 31
0.0
  0
LINE
  5
29D3
330
1E
100
AcDbEntity
  8
7
100
AcDbLine
 10
12.57038876743769
 20
12.37097284777399
 30
0.0
 11
12.57038876743769
 21
12.31847940945378
 31
0.0
  0
LINE
  5
29D4
330
1E
100
AcDbEntity
  8
7
100
AcDbLine
 10
12.56776409552168
 20
12.37228518373199
 30
0.0
 11
12.57038876743769
 21
12.37097284777399
 31
0.0
  0
LINE
  5
29D5
330
1E
100
AcDbEntity
  8
7
100
AcDbLine
 10
12.56776409552168
 20
12.32110408136979
 30
0.0
 11
12.56776409552168
 21
12.37228518373199
 31
0.0
  0
LINE
  5
29D6
330
1E
100
AcDbEntity
  8
7
100
AcDbLine
 10
12.56776409552168
 20
12.32110408136979
 30
0.0
 11
12.54282971231958
 21
12.32110408136979
 31
0.0
  0
LINE
  5
29D7
330
1E
100
AcDbEntity
  8
7
100
AcDbLine
 10
12.54414204827758
 20
12.31847940945378
 30
0.0
 11
12.54282971231958
 21
12.32110408136979
 31
0.0
  0
LINE
  5
29D8
330
1E
100
AcDbEntity
  8
7
100
AcDbLine
 10
12.57038876743769
 20
12.31847940945378
 30
0.0
 11
12.54414204827758
 21
12.31847940945378
 31
0.0
  0
LINE
  5
29D9
330
1E
100
AcDbEntity
  8
7
100
AcDbLine
 10
12.57038876743769
 20
12.18330880577924
 30
0.0
 11
12.54414204827758
 21
12.18330880577924
 31
0.0
  0
LINE
  5
29DA
330
1E
100
AcDbEntity
  8
7
100
AcDbLine
 10
12.54282971231958
 20
12.18068413386323
 30
0.0
 11
12.54414204827758
 21
12.18330880577924
 31
0.0
  0
LINE
  5
29DB
330
1E
100
AcDbEntity
  8
7
100
AcDbLine
 10
12.56776409552168
 20
12.18068413386323
 30
0.0
 11
12.54282971231958
 21
12.18068413386323
 31
0.0
  0
LINE
  5
29DC
330
1E
100
AcDbEntity
  8
7
100
AcDbLine
 10
12.56776409552168
 20
12.12819069554302
 30
0.0
 11
12.56776409552168
 21
12.18068413386323
 31
0.0
  0
LINE
  5
29DD
330
1E
100
AcDbEntity
  8
7
100
AcDbLine
 10
12.56776409552168
 20
12.12819069554302
 30
0.0
 11
12.57038876743769
 21
12.12950303150102
 31
0.0
  0
LINE
  5
29DE
330
1E
100
AcDbEntity
  8
7
100
AcDbLine
 10
12.57038876743769
 20
12.18330880577924
 30
0.0
 11
12.57038876743769
 21
12.12950303150102
 31
0.0
  0
LINE
  5
29DF
330
1E
100
AcDbEntity
  8
7
100
AcDbLine
 10
12.57038876743769
 20
12.37097284777399
 30
0.0
 11
13.20818404302824
 21
12.37097284777399
 31
0.0
  0
LINE
  5
29E0
330
1E
100
AcDbEntity
  8
7
100
AcDbLine
 10
12.54414204827758
 20
12.31847940945378
 30
0.0
 11
12.54414204827758
 21
12.18330880577924
 31
0.0
  0
LINE
  5
29E1
330
1E
100
AcDbEntity
  8
7
100
AcDbLine
 10
13.20818404302824
 20
12.12950303150102
 30
0.0
 11
12.57038876743769
 21
12.12950303150102
 31
0.0
  0
LINE
  5
29E2
330
1E
100
AcDbEntity
  8
7
100
AcDbLine
 10
13.20818404302824
 20
12.18330880577924
 30
0.0
 11
13.20818404302824
 21
12.12950303150102
 31
0.0
  0
LINE
  5
29E3
330
1E
100
AcDbEntity
  8
7
100
AcDbLine
 10
13.23443076218834
 20
12.31847940945378
 30
0.0
 11
13.23443076218834
 21
12.18330880577924
 31
0.0
  0
LINE
  5
29E4
330
1E
100
AcDbEntity
  8
7
100
AcDbLine
 10
13.20949637898624
 20
12.12819069554302
 30
0.0
 11
13.20818404302824
 21
12.12950303150102
 31
0.0
  0
LINE
  5
29EA
330
1E
100
AcDbEntity
  8
7
100
AcDbLine
 10
13.72524441048231
 20
12.124253687669
 30
0.0
 11
13.72524441048231
 21
12.05338754593672
 31
0.0
  0
LINE
  5
29F0
330
1E
100
AcDbEntity
  8
7
100
AcDbLine
 10
13.77248850497049
 20
12.03763951444066
 30
0.0
 11
13.74099244197837
 21
12.03763951444066
 31
0.0
  0
LINE
  5
2A01
330
1E
100
AcDbEntity
  8
7
100
AcDbLine
 10
13.76461448922246
 20
12.05732455381073
 30
0.0
 11
13.75936514539044
 21
12.05732455381073
 31
0.0
  0
LINE
  5
2A0C
330
1E
100
AcDbEntity
  8
7
100
AcDbLine
 10
13.54282971231958
 20
12.124253687669
 30
0.0
 11
13.51920766507548
 21
12.124253687669
 31
0.0
  0
LINE
  5
2A12
330
1E
100
AcDbEntity
  8
7
100
AcDbLine
 10
13.40372210077102
 20
12.15050040682911
 30
0.0
 11
13.48246225825133
 21
12.15050040682911
 31
0.0
  0
LINE
  5
2A13
330
1E
100
AcDbEntity
  8
7
100
AcDbLine
 10
13.40372210077102
 20
12.15050040682911
 30
0.0
 11
13.40372210077102
 21
12.03763951444066
 31
0.0
  0
LINE
  5
2A14
330
1E
100
AcDbEntity
  8
7
100
AcDbLine
 10
13.45490320313323
 20
12.03763951444066
 30
0.0
 11
13.40372210077102
 21
12.03763951444066
 31
0.0
  0
LINE
  5
2A15
330
1E
100
AcDbEntity
  8
7
100
AcDbLine
 10
13.45490320313323
 20
12.0730725853068
 30
0.0
 11
13.45490320313323
 21
12.03763951444066
 31
0.0
  0
LINE
  5
2A16
330
1E
100
AcDbEntity
  8
7
100
AcDbLine
 10
13.45490320313323
 20
12.0730725853068
 30
0.0
 11
13.48246225825133
 21
12.0730725853068
 31
0.0
  0
LINE
  5
2A1C
330
1E
100
AcDbEntity
  8
7
100
AcDbLine
 10
13.48377459420934
 20
12.03763951444066
 30
0.0
 11
13.4995226257054
 21
12.07700959318081
 31
0.0
  0
LINE
  5
2A1D
330
1E
100
AcDbEntity
  8
7
100
AcDbLine
 10
13.50870897741144
 20
12.03763951444066
 30
0.0
 11
13.48377459420934
 21
12.03763951444066
 31
0.0
  0
LINE
  5
2A1E
330
1E
100
AcDbEntity
  8
7
100
AcDbLine
 10
13.50870897741144
 20
12.03763951444066
 30
0.0
 11
13.51395832124346
 21
12.0494505380627
 31
0.0
  0
LINE
  5
2A1F
330
1E
100
AcDbEntity
  8
7
100
AcDbLine
 10
13.54676672019359
 20
12.0494505380627
 30
0.0
 11
13.51395832124346
 21
12.0494505380627
 31
0.0
  0
LINE
  5
2A20
330
1E
100
AcDbEntity
  8
7
100
AcDbLine
 10
13.55332839998362
 20
12.03763951444066
 30
0.0
 11
13.54676672019359
 21
12.0494505380627
 31
0.0
  0
LINE
  5
2A21
330
1E
100
AcDbEntity
  8
7
100
AcDbLine
 10
13.55332839998362
 20
12.03763951444066
 30
0.0
 11
13.59269847872378
 21
12.03763951444066
 31
0.0
  0
LINE
  5
2A22
330
1E
100
AcDbEntity
  8
7
100
AcDbLine
 10
13.59269847872378
 20
12.0743849212648
 30
0.0
 11
13.59269847872378
 21
12.03763951444066
 31
0.0
  0
LINE
  5
2A23
330
1E
100
AcDbEntity
  8
7
100
AcDbLine
 10
13.60844651021984
 20
12.03763951444066
 30
0.0
 11
13.59269847872378
 21
12.0743849212648
 31
0.0
  0
LINE
  5
2A2E
330
1E
100
AcDbEntity
  8
7
100
AcDbLine
 10
13.54282971231958
 20
12.124253687669
 30
0.0
 11
13.56776409552168
 21
12.06782324147478
 31
0.0
  0
LINE
  5
2A2F
330
1E
100
AcDbEntity
  8
7
100
AcDbLine
 10
13.64781658896
 20
12.124253687669
 30
0.0
 11
13.64781658896
 21
12.03763951444066
 31
0.0
  0
LINE
  5
2A30
330
1E
100
AcDbEntity
  8
7
100
AcDbLine
 10
13.64781658896
 20
12.03763951444066
 30
0.0
 11
13.69637301940619
 21
12.03763951444066
 31
0.0
  0
LINE
  5
2A36
330
1E
100
AcDbEntity
  8
7
100
AcDbLine
 10
13.71212105090225
 20
12.05338754593672
 30
0.0
 11
13.71212105090225
 21
12.10850565617294
 31
0.0
  0
LINE
  5
2A3C
330
1E
100
AcDbEntity
  8
7
100
AcDbLine
 10
13.69637301940619
 20
12.124253687669
 30
0.0
 11
13.64781658896
 21
12.124253687669
 31
0.0
  0
LINE
  5
2A42
330
1E
100
AcDbEntity
  8
7
100
AcDbLine
 10
13.82498194329071
 20
12.124253687669
 30
0.0
 11
13.82498194329071
 21
12.03763951444066
 31
0.0
  0
LINE
  5
2A43
330
1E
100
AcDbEntity
  8
7
100
AcDbLine
 10
13.82498194329071
 20
12.124253687669
 30
0.0
 11
13.80135989604661
 21
12.124253687669
 31
0.0
  0
LINE
  5
2A44
330
1E
100
AcDbEntity
  8
7
100
AcDbLine
 10
14.20424703515422
 20
11.64131405512307
 30
0.0
 11
11.5743257753117
 21
11.64131405512307
 31
0.0
  0
LINE
  5
2A45
330
1E
100
AcDbEntity
  8
7
100
AcDbLine
 10
14.20424703515422
 20
11.64131405512307
 30
0.0
 11
14.20162236323821
 21
11.64393872703908
 31
0.0
  0
LINE
  5
2A46
330
1E
100
AcDbEntity
  8
7
100
AcDbLine
 10
11.57695044722772
 20
11.64393872703908
 30
0.0
 11
14.20162236323821
 21
11.64393872703908
 31
0.0
  0
LINE
  5
2A47
330
1E
100
AcDbEntity
  8
7
100
AcDbLine
 10
11.5743257753117
 20
11.64131405512307
 30
0.0
 11
11.57695044722772
 21
11.64393872703908
 31
0.0
  0
LINE
  5
2A5D
330
1E
100
AcDbEntity
  8
7
100
AcDbLine
 10
14.26067748134845
 20
11.70430618110732
 30
0.0
 11
14.26461448922246
 21
11.70036917323331
 31
0.0
  0
LINE
  5
2A7D
330
1E
100
AcDbEntity
  8
7
100
AcDbLine
 10
13.23443076218834
 20
12.18068413386323
 30
0.0
 11
13.23574309814635
 21
12.17937179790522
 31
0.0
  0
LINE
  5
2A88
330
1E
100
AcDbEntity
  8
7
100
AcDbLine
 10
13.21080871494425
 20
12.32110408136979
 30
0.0
 11
13.23574309814635
 21
12.32110408136979
 31
0.0
  0
LINE
  5
2A89
330
1E
100
AcDbEntity
  8
7
100
AcDbLine
 10
13.21080871494425
 20
12.32110408136979
 30
0.0
 11
13.20949637898624
 21
12.32110408136979
 31
0.0
  0
LINE
  5
2A8A
330
1E
100
AcDbEntity
  8
7
100
AcDbLine
 10
13.21080871494425
 20
12.37228518373199
 30
0.0
 11
13.20949637898624
 21
12.37228518373199
 31
0.0
  0
LINE
  5
2A8B
330
1E
100
AcDbEntity
  8
7
100
AcDbLine
 10
13.21080871494425
 20
12.37228518373199
 30
0.0
 11
13.21080871494425
 21
12.32110408136979
 31
0.0
  0
LINE
  5
2A8C
330
1E
100
AcDbEntity
  8
7
100
AcDbLine
 10
12.56645175956367
 20
12.37228518373199
 30
0.0
 11
12.56776409552168
 21
12.37228518373199
 31
0.0
  0
LINE
  5
2A93
330
1E
100
AcDbEntity
  8
7
100
AcDbLine
 10
12.56645175956367
 20
12.32110408136979
 30
0.0
 11
12.54282971231958
 21
12.32110408136979
 31
0.0
  0
LINE
  5
2A94
330
1E
100
AcDbEntity
  8
7
100
AcDbLine
 10
12.54282971231958
 20
12.18068413386323
 30
0.0
 11
12.54282971231958
 21
12.17937179790522
 31
0.0
  0
LINE
  5
2A95
330
1E
100
AcDbEntity
  8
7
100
AcDbLine
 10
12.54282971231958
 20
12.32110408136979
 30
0.0
 11
12.54282971231958
 21
12.17937179790522
 31
0.0
  0
LINE
  5
2A96
330
1E
100
AcDbEntity
  8
7
100
AcDbLine
 10
12.56645175956367
 20
12.17937179790522
 30
0.0
 11
12.54282971231958
 21
12.17937179790522
 31
0.0
  0
LINE
  5
2A97
330
1E
100
AcDbEntity
  8
7
100
AcDbLine
 10
12.56776409552168
 20
12.18068413386323
 30
0.0
 11
12.56645175956367
 21
12.17937179790522
 31
0.0
  0
LINE
  5
2A98
330
1E
100
AcDbEntity
  8
7
100
AcDbLine
 10
12.56645175956367
 20
12.12819069554302
 30
0.0
 11
12.56776409552168
 21
12.12819069554302
 31
0.0
  0
LINE
  5
2A99
330
1E
100
AcDbEntity
  8
7
100
AcDbLine
 10
12.56645175956367
 20
12.17937179790522
 30
0.0
 11
12.56645175956367
 21
12.12819069554302
 31
0.0
  0
LINE
  5
2A9A
330
1E
100
AcDbEntity
  8
7
100
AcDbLine
 10
13.21080871494425
 20
12.12819069554302
 30
0.0
 11
13.20949637898624
 21
12.12819069554302
 31
0.0
  0
LINE
  5
2A9B
330
1E
100
AcDbEntity
  8
7
100
AcDbLine
 10
12.56645175956367
 20
12.12819069554302
 30
0.0
 11
13.21080871494425
 21
12.12819069554302
 31
0.0
  0
LINE
  5
2A9C
330
1E
100
AcDbEntity
  8
7
100
AcDbLine
 10
13.21080871494425
 20
12.17937179790522
 30
0.0
 11
13.21080871494425
 21
12.12819069554302
 31
0.0
  0
LINE
  5
2AB6
330
1E
100
AcDbEntity
  8
7
100
AcDbLine
 10
14.25411580155842
 20
11.70824318898134
 30
0.0
 11
14.26067748134845
 21
11.70430618110732
 31
0.0
  0
LINE
  5
2AB7
330
1E
100
AcDbEntity
  8
7
100
AcDbLine
 10
12.35779034224083
 20
12.7476132677215
 30
0.0
 11
12.35779034224083
 21
12.71874187664538
 31
0.0
  0
LINE
  5
2AB8
330
1E
100
AcDbEntity
  8
7
100
AcDbLine
 10
12.35647800628283
 20
12.71349253281336
 30
0.0
 11
12.35779034224083
 21
12.71874187664538
 31
0.0
  0
LINE
  5
2ABE
330
1E
100
AcDbEntity
  8
7
100
AcDbLine
 10
12.35647800628283
 20
12.67805946194722
 30
0.0
 11
12.35647800628283
 21
12.66624843832517
 31
0.0
  0
LINE
  5
2AC4
330
1E
100
AcDbEntity
  8
7
100
AcDbLine
 10
12.35779034224083
 20
12.65181274278711
 30
0.0
 11
12.38141238948493
 21
12.64000171916507
 31
0.0
  0
LINE
  5
2AC5
330
1E
100
AcDbEntity
  8
7
100
AcDbLine
 10
12.12681921363191
 20
12.64000171916507
 30
0.0
 11
12.15044126087601
 21
12.65181274278711
 31
0.0
  0
LINE
  5
2ACB
330
1E
100
AcDbEntity
  8
7
100
AcDbLine
 10
12.15175359683401
 20
12.67805946194722
 30
0.0
 11
12.15175359683401
 21
12.66624843832517
 31
0.0
  0
LINE
  5
2AD1
330
1E
100
AcDbEntity
  8
7
100
AcDbLine
 10
12.15044126087601
 20
12.71874187664538
 30
0.0
 11
12.15175359683401
 21
12.71349253281336
 31
0.0
  0
LINE
  5
2AD2
330
1E
100
AcDbEntity
  8
7
100
AcDbLine
 10
12.15044126087601
 20
12.7476132677215
 30
0.0
 11
12.15044126087601
 21
12.71874187664538
 31
0.0
  0
LINE
  5
2AD3
330
1E
100
AcDbEntity
  8
7
100
AcDbLine
 10
12.99164860995737
 20
12.7476132677215
 30
0.0
 11
12.99164860995737
 21
12.71874187664538
 31
0.0
  0
LINE
  5
2AD4
330
1E
100
AcDbEntity
  8
7
100
AcDbLine
 10
12.99164860995737
 20
12.71349253281336
 30
0.0
 11
12.99164860995737
 21
12.71874187664538
 31
0.0
  0
LINE
  5
2ADA
330
1E
100
AcDbEntity
  8
7
100
AcDbLine
 10
12.99164860995737
 20
12.67805946194722
 30
0.0
 11
12.99164860995737
 21
12.66624843832517
 31
0.0
  0
LINE
  5
2AE0
330
1E
100
AcDbEntity
  8
7
100
AcDbLine
 10
13.01658299315947
 20
12.64000171916507
 30
0.0
 11
12.99296094591538
 21
12.65181274278711
 31
0.0
  0
LINE
  5
2AE7
330
1E
100
AcDbEntity
  8
7
100
AcDbLine
 10
12.78692420050855
 20
12.67805946194722
 30
0.0
 11
12.78692420050855
 21
12.66624843832517
 31
0.0
  0
LINE
  5
2AEE
330
1E
100
AcDbEntity
  8
7
100
AcDbLine
 10
12.78561186455055
 20
12.7476132677215
 30
0.0
 11
12.78561186455055
 21
12.71874187664538
 31
0.0
  0
LINE
  5
2B00
330
1E
100
AcDbEntity
  8
7
100
AcDbLine
 10
13.42209480418309
 20
12.67805946194722
 30
0.0
 11
13.42209480418309
 21
12.66624843832517
 31
0.0
  0
LINE
  5
2B07
330
1E
100
AcDbEntity
  8
7
100
AcDbLine
 10
13.42078246822509
 20
12.7476132677215
 30
0.0
 11
13.42078246822509
 21
12.71874187664538
 31
0.0
  0
LINE
  5
2B08
330
1E
100
AcDbEntity
  8
7
100
AcDbLine
 10
14.26067748134845
 20
16.07832192913882
 30
0.0
 11
14.26067748134845
 21
11.70430618110732
 31
0.0
  0
LINE
  5
2B17
330
1E
100
AcDbEntity
  8
7
100
AcDbLine
 10
14.03626803252955
 20
11.86966051181599
 30
0.0
 11
14.03626803252955
 21
15.91296759843016
 31
0.0
  0
LINE
  5
2B18
330
1E
100
AcDbEntity
  8
7
100
AcDbLine
 10
11.74230477793637
 20
15.91296759843016
 30
0.0
 11
14.03626803252955
 21
15.91296759843016
 31
0.0
  0
LINE
  5
2B19
330
1E
100
AcDbEntity
  8
7
100
AcDbLine
 10
11.74230477793637
 20
15.91296759843016
 30
0.0
 11
11.74230477793637
 21
11.86966051181599
 31
0.0
  0
LINE
  5
2B1A
330
1E
100
AcDbEntity
  8
7
100
AcDbLine
 10
13.27773784880252
 20
12.63868938320706
 30
0.0
 11
13.76986383305448
 21
12.63868938320706
 31
0.0
  0
LINE
  5
2B1B
330
1E
100
AcDbEntity
  8
7
100
AcDbLine
 10
13.27773784880252
 20
12.70430618110732
 30
0.0
 11
13.27773784880252
 21
12.63868938320706
 31
0.0
  0
LINE
  5
2B1C
330
1E
100
AcDbEntity
  8
7
100
AcDbLine
 10
13.13469322937995
 20
12.70430618110732
 30
0.0
 11
13.27773784880252
 21
12.70430618110732
 31
0.0
  0
LINE
  5
2B22
330
1E
100
AcDbEntity
  8
7
100
AcDbLine
 10
12.64387958108598
 20
12.70430618110732
 30
0.0
 11
12.64387958108598
 21
12.63868938320706
 31
0.0
  0
LINE
  5
2B23
330
1E
100
AcDbEntity
  8
7
100
AcDbLine
 10
12.4995226257054
 20
12.70430618110732
 30
0.0
 11
12.64387958108598
 21
12.70430618110732
 31
0.0
  0
LINE
  5
2B2B
330
1E
100
AcDbEntity
  8
7
100
AcDbLine
 10
11.94046750759517
 20
13.36572350394197
 30
0.0
 11
11.94046750759517
 21
12.70430618110732
 31
0.0
  0
LINE
  5
2B2C
330
1E
100
AcDbEntity
  8
7
100
AcDbLine
 10
13.83810530287076
 20
13.36572350394197
 30
0.0
 11
11.94046750759517
 21
13.36572350394197
 31
0.0
  0
LINE
  5
2B2D
330
1E
100
AcDbEntity
  8
7
100
AcDbLine
 10
13.83810530287076
 20
13.36572350394197
 30
0.0
 11
13.83810530287076
 21
12.70430618110732
 31
0.0
  0
LINE
  5
2B2E
330
1E
100
AcDbEntity
  8
7
100
AcDbLine
 10
13.76986383305448
 20
12.70430618110732
 30
0.0
 11
13.83810530287076
 21
12.70430618110732
 31
0.0
  0
LINE
  5
2B2F
330
1E
100
AcDbEntity
  8
7
100
AcDbLine
 10
13.76986383305448
 20
12.63868938320706
 30
0.0
 11
13.76986383305448
 21
12.70430618110732
 31
0.0
  0
LINE
  5
2B36
330
1E
100
AcDbEntity
  8
7
100
AcDbLine
 10
13.86960136586289
 20
13.5245161548606
 30
0.0
 11
13.86960136586289
 21
13.66756077428318
 31
0.0
  0
LINE
  5
2B37
330
1E
100
AcDbEntity
  8
7
100
AcDbLine
 10
13.84597931861879
 20
13.5245161548606
 30
0.0
 11
13.86960136586289
 21
13.5245161548606
 31
0.0
  0
LINE
  5
2B38
330
1E
100
AcDbEntity
  8
7
100
AcDbLine
 10
13.84597931861879
 20
13.4746473884564
 30
0.0
 11
13.84597931861879
 21
13.5245161548606
 31
0.0
  0
LINE
  5
2B3E
330
1E
100
AcDbEntity
  8
7
100
AcDbLine
 10
11.90765910864504
 20
13.5245161548606
 30
0.0
 11
11.93259349184714
 21
13.5245161548606
 31
0.0
  0
LINE
  5
2B45
330
1E
100
AcDbEntity
  8
7
100
AcDbLine
 10
11.94046750759517
 20
14.79092035433567
 30
0.0
 11
11.94046750759517
 21
14.12950303150102
 31
0.0
  0
LINE
  5
2B46
330
1E
100
AcDbEntity
  8
7
100
AcDbLine
 10
13.83810530287076
 20
14.79092035433567
 30
0.0
 11
11.94046750759517
 21
14.79092035433567
 31
0.0
  0
LINE
  5
2B47
330
1E
100
AcDbEntity
  8
7
100
AcDbLine
 10
13.83810530287076
 20
14.79092035433567
 30
0.0
 11
13.83810530287076
 21
14.12950303150102
 31
0.0
  0
LINE
  5
2B48
330
1E
100
AcDbEntity
  8
7
100
AcDbLine
 10
13.76986383305448
 20
14.12950303150102
 30
0.0
 11
13.83810530287076
 21
14.12950303150102
 31
0.0
  0
LINE
  5
2B49
330
1E
100
AcDbEntity
  8
7
100
AcDbLine
 10
13.76986383305448
 20
14.06388623360076
 30
0.0
 11
13.76986383305448
 21
14.12950303150102
 31
0.0
  0
LINE
  5
2B4A
330
1E
100
AcDbEntity
  8
7
100
AcDbLine
 10
13.27773784880252
 20
14.06388623360076
 30
0.0
 11
13.76986383305448
 21
14.06388623360076
 31
0.0
  0
LINE
  5
2B4B
330
1E
100
AcDbEntity
  8
7
100
AcDbLine
 10
13.27773784880252
 20
14.12950303150102
 30
0.0
 11
13.27773784880252
 21
14.06388623360076
 31
0.0
  0
LINE
  5
2B4C
330
1E
100
AcDbEntity
  8
7
100
AcDbLine
 10
13.13469322937995
 20
14.12950303150102
 30
0.0
 11
13.27773784880252
 21
14.12950303150102
 31
0.0
  0
LINE
  5
2B52
330
1E
100
AcDbEntity
  8
7
100
AcDbLine
 10
12.64387958108598
 20
14.12950303150102
 30
0.0
 11
12.64387958108598
 21
14.06388623360076
 31
0.0
  0
LINE
  5
2B53
330
1E
100
AcDbEntity
  8
7
100
AcDbLine
 10
12.4995226257054
 20
14.12950303150102
 30
0.0
 11
12.64387958108598
 21
14.12950303150102
 31
0.0
  0
LINE
  5
2B61
330
1E
100
AcDbEntity
  8
7
100
AcDbLine
 10
13.86960136586289
 20
14.95102534121231
 30
0.0
 11
13.86960136586289
 21
15.09275762467687
 31
0.0
  0
LINE
  5
2B6D
330
1E
100
AcDbEntity
  8
7
100
AcDbLine
 10
13.21080871494425
 20
15.40903059055614
 30
0.0
 11
13.21080871494425
 21
15.46021169291835
 31
0.0
  0
LINE
  5
2B75
330
1E
100
AcDbEntity
  8
7
100
AcDbLine
 10
12.56645175956367
 20
15.60325631234092
 30
0.0
 11
12.54282971231958
 21
15.60325631234092
 31
0.0
  0
LINE
  5
2B7B
330
1E
100
AcDbEntity
  8
7
100
AcDbLine
 10
13.21080871494425
 20
15.60325631234092
 30
0.0
 11
13.21080871494425
 21
15.65312507874512
 31
0.0
  0
LINE
  5
2B7C
330
1E
100
AcDbEntity
  8
7
100
AcDbLine
 10
13.21080871494425
 20
15.60325631234092
 30
0.0
 11
13.23574309814635
 21
15.60325631234092
 31
0.0
  0
LINE
  5
2B7D
330
1E
100
AcDbEntity
  8
7
100
AcDbLine
 10
13.23574309814635
 20
15.46021169291835
 30
0.0
 11
13.23574309814635
 21
15.60325631234092
 31
0.0
  0
LINE
  5
2B7E
330
1E
100
AcDbEntity
  8
7
100
AcDbLine
 10
13.21080871494425
 20
15.46021169291835
 30
0.0
 11
13.23574309814635
 21
15.46021169291835
 31
0.0
  0
LINE
  5
2B89
330
1E
100
AcDbEntity
  8
7
100
AcDbLine
 10
11.6989976913222
 20
15.94446366142229
 30
0.0
 11
11.74230477793637
 21
15.91296759843016
 31
0.0
  0
LINE
  5
2B8A
330
1E
100
AcDbEntity
  8
7
100
AcDbLine
 10
11.51789532911748
 20
11.70430618110732
 30
0.0
 11
11.51789532911748
 21
16.07832192913882
 31
0.0
  0
LINE
  5
2B90
330
1E
100
AcDbEntity
  8
7
100
AcDbLine
 10
11.51395832124346
 20
16.08094660105483
 30
0.0
 11
11.51789532911748
 21
16.07832192913882
 31
0.0
  0
LINE
  5
2B91
330
1E
100
AcDbEntity
  8
7
100
AcDbLine
 10
11.51395832124346
 20
16.08094660105483
 30
0.0
 11
11.51395832124346
 21
11.70036917323331
 31
0.0
  0
LINE
  5
2BA0
330
1E
100
AcDbEntity
  8
7
100
AcDbLine
 10
11.5743257753117
 20
16.14131405512307
 30
0.0
 11
14.20424703515422
 21
16.14131405512307
 31
0.0
  0
LINE
  5
2BA7
330
1E
100
AcDbEntity
  8
7
100
AcDbLine
 10
13.42209480418309
 20
14.10325631234092
 30
0.0
 11
13.42209480418309
 21
14.09275762467688
 31
0.0
  0
LINE
  5
2BAE
330
1E
100
AcDbEntity
  8
7
100
AcDbLine
 10
13.42078246822509
 20
14.1741224540732
 30
0.0
 11
13.42078246822509
 21
14.14393872703908
 31
0.0
  0
LINE
  5
2BAF
330
1E
100
AcDbEntity
  8
7
100
AcDbLine
 10
13.62681921363191
 20
14.1741224540732
 30
0.0
 11
13.62681921363191
 21
14.14393872703908
 31
0.0
  0
LINE
  5
2BC0
330
1E
100
AcDbEntity
  8
7
100
AcDbLine
 10
12.78692420050855
 20
14.10325631234092
 30
0.0
 11
12.78692420050855
 21
14.09275762467688
 31
0.0
  0
LINE
  5
2BC6
330
1E
100
AcDbEntity
  8
7
100
AcDbLine
 10
12.78561186455055
 20
14.14000171916506
 30
0.0
 11
12.78561186455055
 21
14.14393872703908
 31
0.0
  0
LINE
  5
2BC7
330
1E
100
AcDbEntity
  8
7
100
AcDbLine
 10
12.78561186455055
 20
14.1741224540732
 30
0.0
 11
12.78561186455055
 21
14.14393872703908
 31
0.0
  0
LINE
  5
2BC8
330
1E
100
AcDbEntity
  8
7
100
AcDbLine
 10
12.99164860995737
 20
14.1741224540732
 30
0.0
 11
12.99164860995737
 21
14.14393872703908
 31
0.0
  0
LINE
  5
2BC9
330
1E
100
AcDbEntity
  8
7
100
AcDbLine
 10
12.99164860995737
 20
14.14000171916506
 30
0.0
 11
12.99164860995737
 21
14.14393872703908
 31
0.0
  0
LINE
  5
2BCF
330
1E
100
AcDbEntity
  8
7
100
AcDbLine
 10
12.99164860995737
 20
14.10325631234092
 30
0.0
 11
12.99164860995737
 21
14.09275762467688
 31
0.0
  0
LINE
  5
2BD5
330
1E
100
AcDbEntity
  8
7
100
AcDbLine
 10
13.01658299315947
 20
14.06519856955877
 30
0.0
 11
12.99296094591538
 21
14.07700959318081
 31
0.0
  0
LINE
  5
2BD6
330
1E
100
AcDbEntity
  8
7
100
AcDbLine
 10
12.12681921363191
 20
14.06519856955877
 30
0.0
 11
12.15044126087601
 21
14.07700959318081
 31
0.0
  0
LINE
  5
2BDC
330
1E
100
AcDbEntity
  8
7
100
AcDbLine
 10
12.15175359683401
 20
14.10325631234092
 30
0.0
 11
12.15175359683401
 21
14.09275762467688
 31
0.0
  0
LINE
  5
2BDD
330
1E
100
AcDbEntity
  8
7
100
AcDbLine
 10
12.15175359683401
 20
14.14000171916506
 30
0.0
 11
12.15175359683401
 21
14.122941351711
 31
0.0
  0
LINE
  5
2BDE
330
1E
100
AcDbEntity
  8
7
100
AcDbLine
 10
12.15175359683401
 20
14.122941351711
 30
0.0
 11
12.15175359683401
 21
14.10325631234092
 31
0.0
  0
LINE
  5
2BDF
330
1E
100
AcDbEntity
  8
7
100
AcDbLine
 10
12.15044126087601
 20
14.14393872703908
 30
0.0
 11
12.15175359683401
 21
14.14000171916506
 31
0.0
  0
LINE
  5
2BE0
330
1E
100
AcDbEntity
  8
7
100
AcDbLine
 10
12.15044126087601
 20
14.1741224540732
 30
0.0
 11
12.15044126087601
 21
14.14393872703908
 31
0.0
  0
LINE
  5
2BE1
330
1E
100
AcDbEntity
  8
7
100
AcDbLine
 10
12.35779034224083
 20
14.1741224540732
 30
0.0
 11
12.35779034224083
 21
14.14393872703908
 31
0.0
  0
LINE
  5
2BE2
330
1E
100
AcDbEntity
  8
7
100
AcDbLine
 10
12.35647800628283
 20
14.14000171916506
 30
0.0
 11
12.35779034224083
 21
14.14393872703908
 31
0.0
  0
LINE
  5
2BE8
330
1E
100
AcDbEntity
  8
7
100
AcDbLine
 10
12.35647800628283
 20
14.10325631234092
 30
0.0
 11
12.35647800628283
 21
14.09275762467688
 31
0.0
  0
LINE
  5
2BEE
330
1E
100
AcDbEntity
  8
7
100
AcDbLine
 10
12.35779034224083
 20
14.07700959318081
 30
0.0
 11
12.38141238948493
 21
14.06519856955877
 31
0.0
  0
LINE
  5
2BF4
330
1E
100
AcDbEntity
  8
7
100
AcDbLine
 10
13.84466698266078
 20
13.66624843832517
 30
0.0
 11
13.86960136586289
 21
13.66624843832517
 31
0.0
  0
LINE
  5
2BF5
330
1E
100
AcDbEntity
  8
7
100
AcDbLine
 10
13.84466698266078
 20
13.66624843832517
 30
0.0
 11
13.84466698266078
 21
13.71742954068738
 31
0.0
  0
LINE
  5
2C00
330
1E
100
AcDbEntity
  8
7
100
AcDbLine
 10
11.93259349184714
 20
13.5245161548606
 30
0.0
 11
11.93259349184714
 21
13.52582849081861
 31
0.0
  0
LINE
  5
2C01
330
1E
100
AcDbEntity
  8
7
100
AcDbLine
 10
11.93259349184714
 20
13.71874187664538
 30
0.0
 11
11.93259349184714
 21
13.71742954068738
 31
0.0
  0
LINE
  5
2C02
330
1E
100
AcDbEntity
  8
7
100
AcDbLine
 10
11.93259349184714
 20
13.66624843832517
 30
0.0
 11
11.93259349184714
 21
13.66756077428318
 31
0.0
  0
LINE
  5
2C09
330
1E
100
AcDbEntity
  8
7
100
AcDbLine
 10
11.90897144460304
 20
13.66624843832517
 30
0.0
 11
11.90897144460304
 21
13.66362376640916
 31
0.0
  0
LINE
  5
2C0A
330
1E
100
AcDbEntity
  8
7
100
AcDbLine
 10
11.90765910864504
 20
13.66756077428318
 30
0.0
 11
11.90897144460304
 21
13.66624843832517
 31
0.0
  0
LINE
  5
2C0B
330
1E
100
AcDbEntity
  8
7
100
AcDbLine
 10
11.93259349184714
 20
13.71742954068738
 30
0.0
 11
11.93521816376315
 21
13.71742954068738
 31
0.0
  0
LINE
  5
2C0C
330
1E
100
AcDbEntity
  8
7
100
AcDbLine
 10
13.84335464670278
 20
13.71742954068738
 30
0.0
 11
11.93521816376315
 21
13.71742954068738
 31
0.0
  0
LINE
  5
2C0D
330
1E
100
AcDbEntity
  8
7
100
AcDbLine
 10
13.84466698266078
 20
13.71742954068738
 30
0.0
 11
13.84335464670278
 21
13.71742954068738
 31
0.0
  0
LINE
  5
2C0E
330
1E
100
AcDbEntity
  8
7
100
AcDbLine
 10
13.84597931861879
 20
13.71874187664538
 30
0.0
 11
13.84466698266078
 21
13.71742954068738
 31
0.0
  0
LINE
  5
2C14
330
1E
100
AcDbEntity
  8
7
100
AcDbLine
 10
11.93521816376315
 20
13.4746473884564
 30
0.0
 11
13.84335464670278
 21
13.4746473884564
 31
0.0
  0
LINE
  5
2C15
330
1E
100
AcDbEntity
  8
7
100
AcDbLine
 10
11.93259349184714
 20
13.4746473884564
 30
0.0
 11
11.93521816376315
 21
13.4746473884564
 31
0.0
  0
LINE
  5
2C16
330
1E
100
AcDbEntity
  8
7
100
AcDbLine
 10
13.62681921363191
 20
12.65181274278711
 30
0.0
 11
13.42078246822509
 21
12.65181274278711
 31
0.0
  0
LINE
  5
2C26
330
1E
100
AcDbEntity
  8
7
100
AcDbLine
 10
13.83679296691275
 20
12.70430618110732
 30
0.0
 11
13.83810530287076
 21
12.70430618110732
 31
0.0
  0
LINE
  5
2C27
330
1E
100
AcDbEntity
  8
7
100
AcDbLine
 10
13.76855149709648
 20
12.70430618110732
 30
0.0
 11
13.83679296691275
 21
12.70430618110732
 31
0.0
  0
LINE
  5
2C28
330
1E
100
AcDbEntity
  8
7
100
AcDbLine
 10
13.83810530287076
 20
13.36572350394197
 30
0.0
 11
13.83679296691275
 21
13.36441116798396
 31
0.0
  0
LINE
  5
2C29
330
1E
100
AcDbEntity
  8
7
100
AcDbLine
 10
13.83679296691275
 20
12.70430618110732
 30
0.0
 11
13.83679296691275
 21
13.36441116798396
 31
0.0
  0
LINE
  5
2C31
330
1E
100
AcDbEntity
  8
7
100
AcDbLine
 10
12.97721291441932
 20
13.36441116798396
 30
0.0
 11
12.80135989604661
 21
13.36441116798396
 31
0.0
  0
LINE
  5
2C38
330
1E
100
AcDbEntity
  8
7
100
AcDbLine
 10
13.27773784880252
 20
12.70430618110732
 30
0.0
 11
13.27905018476052
 21
12.70430618110732
 31
0.0
  0
LINE
  5
2C39
330
1E
100
AcDbEntity
  8
7
100
AcDbLine
 10
13.13469322937995
 20
12.70430618110732
 30
0.0
 11
13.27905018476052
 21
12.70430618110732
 31
0.0
  0
LINE
  5
2C3A
330
1E
100
AcDbEntity
  8
7
100
AcDbLine
 10
13.27905018476052
 20
12.64000171916507
 30
0.0
 11
13.27905018476052
 21
12.70430618110732
 31
0.0
  0
LINE
  5
2C3B
330
1E
100
AcDbEntity
  8
7
100
AcDbLine
 10
13.13469322937995
 20
12.64000171916507
 30
0.0
 11
13.13469322937995
 21
12.70430618110732
 31
0.0
  0
LINE
  5
2C3C
330
1E
100
AcDbEntity
  8
7
100
AcDbLine
 10
13.13469322937995
 20
12.64000171916507
 30
0.0
 11
13.13469322937995
 21
12.63868938320706
 31
0.0
  0
LINE
  5
2C3D
330
1E
100
AcDbEntity
  8
7
100
AcDbLine
 10
12.78561186455055
 20
12.65181274278711
 30
0.0
 11
12.99296094591538
 21
12.65181274278711
 31
0.0
  0
LINE
  5
2C43
330
1E
100
AcDbEntity
  8
7
100
AcDbLine
 10
13.01658299315947
 20
12.64000171916507
 30
0.0
 11
13.13469322937995
 21
12.64000171916507
 31
0.0
  0
LINE
  5
2C44
330
1E
100
AcDbEntity
  8
7
100
AcDbLine
 10
12.4995226257054
 20
12.70430618110732
 30
0.0
 11
12.64387958108598
 21
12.70430618110732
 31
0.0
  0
LINE
  5
2C45
330
1E
100
AcDbEntity
  8
7
100
AcDbLine
 10
12.64387958108598
 20
12.64000171916507
 30
0.0
 11
12.64387958108598
 21
12.70430618110732
 31
0.0
  0
LINE
  5
2C46
330
1E
100
AcDbEntity
  8
7
100
AcDbLine
 10
11.94177984355317
 20
12.70430618110732
 30
0.0
 11
12.00870897741144
 21
12.70430618110732
 31
0.0
  0
LINE
  5
2C47
330
1E
100
AcDbEntity
  8
7
100
AcDbLine
 10
11.94177984355317
 20
12.70430618110732
 30
0.0
 11
11.94046750759517
 21
12.70430618110732
 31
0.0
  0
LINE
  5
2C4D
330
1E
100
AcDbEntity
  8
7
100
AcDbLine
 10
12.15044126087601
 20
12.65181274278711
 30
0.0
 11
12.35779034224083
 21
12.65181274278711
 31
0.0
  0
LINE
  5
2C4E
330
1E
100
AcDbEntity
  8
7
100
AcDbLine
 10
12.12681921363191
 20
12.64000171916507
 30
0.0
 11
12.00870897741144
 21
12.64000171916507
 31
0.0
  0
LINE
  5
2C4F
330
1E
100
AcDbEntity
  8
7
100
AcDbLine
 10
12.4995226257054
 20
12.64000171916507
 30
0.0
 11
12.4995226257054
 21
12.63868938320706
 31
0.0
  0
LINE
  5
2C50
330
1E
100
AcDbEntity
  8
7
100
AcDbLine
 10
12.4995226257054
 20
12.64000171916507
 30
0.0
 11
12.38141238948493
 21
12.64000171916507
 31
0.0
  0
LINE
  5
2C51
330
1E
100
AcDbEntity
  8
7
100
AcDbLine
 10
12.4995226257054
 20
12.70430618110732
 30
0.0
 11
12.4995226257054
 21
12.64000171916507
 31
0.0
  0
LINE
  5
2C52
330
1E
100
AcDbEntity
  8
7
100
AcDbLine
 10
11.94177984355317
 20
13.36441116798396
 30
0.0
 11
11.94177984355317
 21
12.70430618110732
 31
0.0
  0
LINE
  5
2C53
330
1E
100
AcDbEntity
  8
7
100
AcDbLine
 10
13.84597931861879
 20
13.66756077428318
 30
0.0
 11
13.84466698266078
 21
13.66624843832517
 31
0.0
  0
LINE
  5
2C54
330
1E
100
AcDbEntity
  8
7
100
AcDbLine
 10
13.84597931861879
 20
13.5245161548606
 30
0.0
 11
13.84466698266078
 21
13.52582849081861
 31
0.0
  0
LINE
  5
2C55
330
1E
100
AcDbEntity
  8
7
100
AcDbLine
 10
13.86960136586289
 20
13.66756077428318
 30
0.0
 11
13.86960136586289
 21
13.66624843832517
 31
0.0
  0
LINE
  5
2C56
330
1E
100
AcDbEntity
  8
7
100
AcDbLine
 10
13.86960136586289
 20
13.66362376640916
 30
0.0
 11
13.86960136586289
 21
13.66624843832517
 31
0.0
  0
LINE
  5
2C5C
330
1E
100
AcDbEntity
  8
7
100
AcDbLine
 10
13.86960136586289
 20
13.52582849081861
 30
0.0
 11
13.86960136586289
 21
13.5245161548606
 31
0.0
  0
LINE
  5
2C5D
330
1E
100
AcDbEntity
  8
7
100
AcDbLine
 10
13.61107118213585
 20
13.36441116798396
 30
0.0
 11
13.61107118213585
 21
13.32635342520181
 31
0.0
  0
LINE
  5
2C5E
330
1E
100
AcDbEntity
  8
7
100
AcDbLine
 10
13.43653049972115
 20
13.32635342520181
 30
0.0
 11
13.61107118213585
 21
13.32635342520181
 31
0.0
  0
LINE
  5
2C5F
330
1E
100
AcDbEntity
  8
7
100
AcDbLine
 10
13.43653049972115
 20
13.36441116798396
 30
0.0
 11
13.43653049972115
 21
13.32635342520181
 31
0.0
  0
LINE
  5
2C65
330
1E
100
AcDbEntity
  8
7
100
AcDbLine
 10
12.80135989604661
 20
13.36441116798396
 30
0.0
 11
12.80135989604661
 21
13.32635342520181
 31
0.0
  0
LINE
  5
2C66
330
1E
100
AcDbEntity
  8
7
100
AcDbLine
 10
12.34204231074477
 20
13.36441116798396
 30
0.0
 11
12.34204231074477
 21
13.32635342520181
 31
0.0
  0
LINE
  5
2C67
330
1E
100
AcDbEntity
  8
7
100
AcDbLine
 10
12.16618929237207
 20
13.32635342520181
 30
0.0
 11
12.34204231074477
 21
13.32635342520181
 31
0.0
  0
LINE
  5
2C68
330
1E
100
AcDbEntity
  8
7
100
AcDbLine
 10
12.16618929237207
 20
13.36441116798396
 30
0.0
 11
12.16618929237207
 21
13.32635342520181
 31
0.0
  0
LINE
  5
2CA1
330
1E
100
AcDbEntity
  8
7
100
AcDbLine
 10
13.84335464670278
 20
13.52845316273462
 30
0.0
 11
13.84335464670278
 21
13.4746473884564
 31
0.0
  0
LINE
  5
2CA2
330
1E
100
AcDbEntity
  8
7
100
AcDbLine
 10
13.84335464670278
 20
13.52845316273462
 30
0.0
 11
13.86960136586289
 21
13.52845316273462
 31
0.0
  0
LINE
  5
2CA3
330
1E
100
AcDbEntity
  8
7
100
AcDbLine
 10
13.84335464670278
 20
13.66362376640916
 30
0.0
 11
13.86960136586289
 21
13.66362376640916
 31
0.0
  0
LINE
  5
2CA4
330
1E
100
AcDbEntity
  8
7
100
AcDbLine
 10
13.84335464670278
 20
13.71742954068738
 30
0.0
 11
13.84335464670278
 21
13.66362376640916
 31
0.0
  0
LINE
  5
2CA5
330
1E
100
AcDbEntity
  8
7
100
AcDbLine
 10
11.93521816376315
 20
13.71742954068738
 30
0.0
 11
11.93521816376315
 21
13.66362376640916
 31
0.0
  0
LINE
  5
2CA6
330
1E
100
AcDbEntity
  8
7
100
AcDbLine
 10
11.90897144460304
 20
13.66362376640916
 30
0.0
 11
11.93521816376315
 21
13.66362376640916
 31
0.0
  0
LINE
  5
2CA7
330
1E
100
AcDbEntity
  8
7
100
AcDbLine
 10
12.25411580155842
 20
13.56126156168475
 30
0.0
 11
12.2738008409285
 21
13.56651090551677
 31
0.0
  0
LINE
  5
2CD7
330
1E
100
AcDbEntity
  8
7
100
AcDbLine
 10
13.42209480418309
 20
12.66624843832517
 30
0.0
 11
13.62681921363191
 21
12.66624843832517
 31
0.0
  0
LINE
  5
2CD8
330
1E
100
AcDbEntity
  8
7
100
AcDbLine
 10
13.42209480418309
 20
12.67805946194722
 30
0.0
 11
13.62681921363191
 21
12.67805946194722
 31
0.0
  0
LINE
  5
2CD9
330
1E
100
AcDbEntity
  8
7
100
AcDbLine
 10
13.62681921363191
 20
12.71349253281336
 30
0.0
 11
13.42078246822509
 21
12.71349253281336
 31
0.0
  0
LINE
  5
2CDA
330
1E
100
AcDbEntity
  8
7
100
AcDbLine
 10
13.42078246822509
 20
12.71874187664538
 30
0.0
 11
13.62681921363191
 21
12.71874187664538
 31
0.0
  0
LINE
  5
2CDB
330
1E
100
AcDbEntity
  8
7
100
AcDbLine
 10
13.42078246822509
 20
12.7476132677215
 30
0.0
 11
13.62681921363191
 21
12.7476132677215
 31
0.0
  0
LINE
  5
2CDC
330
1E
100
AcDbEntity
  8
7
100
AcDbLine
 10
12.99164860995737
 20
12.66624843832517
 30
0.0
 11
12.78692420050855
 21
12.66624843832517
 31
0.0
  0
LINE
  5
2CDD
330
1E
100
AcDbEntity
  8
7
100
AcDbLine
 10
12.99164860995737
 20
12.67805946194722
 30
0.0
 11
12.78692420050855
 21
12.67805946194722
 31
0.0
  0
LINE
  5
2CDE
330
1E
100
AcDbEntity
  8
7
100
AcDbLine
 10
12.78561186455055
 20
12.71349253281336
 30
0.0
 11
12.99164860995737
 21
12.71349253281336
 31
0.0
  0
LINE
  5
2CDF
330
1E
100
AcDbEntity
  8
7
100
AcDbLine
 10
12.99164860995737
 20
12.71874187664538
 30
0.0
 11
12.78561186455055
 21
12.71874187664538
 31
0.0
  0
LINE
  5
2CE0
330
1E
100
AcDbEntity
  8
7
100
AcDbLine
 10
12.99164860995737
 20
12.7476132677215
 30
0.0
 11
12.78561186455055
 21
12.7476132677215
 31
0.0
  0
LINE
  5
2CE1
330
1E
100
AcDbEntity
  8
7
100
AcDbLine
 10
12.35647800628283
 20
12.66624843832517
 30
0.0
 11
12.15175359683401
 21
12.66624843832517
 31
0.0
  0
LINE
  5
2CE2
330
1E
100
AcDbEntity
  8
7
100
AcDbLine
 10
12.35647800628283
 20
12.67805946194722
 30
0.0
 11
12.15175359683401
 21
12.67805946194722
 31
0.0
  0
LINE
  5
2CE3
330
1E
100
AcDbEntity
  8
7
100
AcDbLine
 10
12.15175359683401
 20
12.71349253281336
 30
0.0
 11
12.35647800628283
 21
12.71349253281336
 31
0.0
  0
LINE
  5
2CE4
330
1E
100
AcDbEntity
  8
7
100
AcDbLine
 10
12.35779034224083
 20
12.71874187664538
 30
0.0
 11
12.15044126087601
 21
12.71874187664538
 31
0.0
  0
LINE
  5
2CE5
330
1E
100
AcDbEntity
  8
7
100
AcDbLine
 10
12.35779034224083
 20
12.7476132677215
 30
0.0
 11
12.15044126087601
 21
12.7476132677215
 31
0.0
  0
LINE
  5
2CE6
330
1E
100
AcDbEntity
  8
7
100
AcDbLine
 10
12.82891895116472
 20
15.41821694226218
 30
0.0
 11
12.9496538593012
 21
15.41821694226218
 31
0.0
  0
LINE
  5
2CF7
330
1E
100
AcDbEntity
  8
7
100
AcDbLine
 10
12.9496538593012
 20
15.64525106299709
 30
0.0
 11
12.82891895116472
 21
15.64525106299709
 31
0.0
  0
LINE
  5
2D08
330
1E
100
AcDbEntity
  8
7
100
AcDbLine
 10
12.82891895116472
 20
15.60719332021494
 30
0.0
 11
12.9496538593012
 21
15.60719332021494
 31
0.0
  0
LINE
  5
2D17
330
1E
100
AcDbEntity
  8
7
100
AcDbLine
 10
12.9496538593012
 20
15.45627468504433
 30
0.0
 11
12.82891895116472
 21
15.45627468504433
 31
0.0
  0
LINE
  5
2D59
330
1E
100
AcDbEntity
  8
7
100
AcDbLine
 10
12.82891895116472
 20
15.64525106299709
 30
0.0
 11
12.82891895116472
 21
15.64656339895509
 31
0.0
  0
LINE
  5
2D5A
330
1E
100
AcDbEntity
  8
7
100
AcDbLine
 10
12.9496538593012
 20
15.64525106299709
 30
0.0
 11
12.9496538593012
 21
15.64656339895509
 31
0.0
  0
LINE
  5
2D5B
330
1E
100
AcDbEntity
  8
7
100
AcDbLine
 10
12.82891895116472
 20
15.64656339895509
 30
0.0
 11
12.9496538593012
 21
15.64656339895509
 31
0.0
  0
LINE
  5
2D5C
330
1E
100
AcDbEntity
  8
7
100
AcDbLine
 10
12.82891895116472
 20
15.41821694226218
 30
0.0
 11
12.82891895116472
 21
15.41690460630417
 31
0.0
  0
LINE
  5
2DA6
330
1E
100
AcDbEntity
  8
7
100
AcDbLine
 10
12.80135989604661
 20
14.75155027559551
 30
0.0
 11
12.97721291441932
 21
14.75155027559551
 31
0.0
  0
LINE
  5
2DA7
330
1E
100
AcDbEntity
  8
7
100
AcDbLine
 10
13.43653049972115
 20
14.75155027559551
 30
0.0
 11
13.61107118213585
 21
14.75155027559551
 31
0.0
  0
LINE
  5
2DA8
330
1E
100
AcDbEntity
  8
7
100
AcDbLine
 10
12.16618929237207
 20
14.75155027559551
 30
0.0
 11
12.34204231074477
 21
14.75155027559551
 31
0.0
  0
LINE
  5
2DA9
330
1E
100
AcDbEntity
  8
7
100
AcDbLine
 10
13.23443076218834
 20
15.46414870079236
 30
0.0
 11
13.23443076218834
 21
15.46152402887635
 31
0.0
  0
LINE
  5
2DAA
330
1E
100
AcDbEntity
  8
7
100
AcDbLine
 10
13.23443076218834
 20
15.46414870079236
 30
0.0
 11
13.20818404302824
 21
15.46414870079236
 31
0.0
  0
LINE
  5
2DAB
330
1E
100
AcDbEntity
  8
7
100
AcDbLine
 10
13.23443076218834
 20
15.5993193044669
 30
0.0
 11
13.20818404302824
 21
15.5993193044669
 31
0.0
  0
LINE
  5
2DAC
330
1E
100
AcDbEntity
  8
7
100
AcDbLine
 10
13.23443076218834
 20
15.5993193044669
 30
0.0
 11
13.23443076218834
 21
15.60194397638291
 31
0.0
  0
LINE
  5
2DAD
330
1E
100
AcDbEntity
  8
7
100
AcDbLine
 10
13.20949637898624
 20
15.60194397638291
 30
0.0
 11
13.20949637898624
 21
15.65312507874512
 31
0.0
  0
LINE
  5
2DAE
330
1E
100
AcDbEntity
  8
7
100
AcDbLine
 10
13.20949637898624
 20
15.60194397638291
 30
0.0
 11
13.23443076218834
 21
15.60194397638291
 31
0.0
  0
LINE
  5
2DB4
330
1E
100
AcDbEntity
  8
7
100
AcDbLine
 10
12.57038876743769
 20
15.65312507874512
 30
0.0
 11
12.57038876743769
 21
15.5993193044669
 31
0.0
  0
LINE
  5
2DB5
330
1E
100
AcDbEntity
  8
7
100
AcDbLine
 10
12.56776409552168
 20
15.65312507874512
 30
0.0
 11
12.57038876743769
 21
15.65312507874512
 31
0.0
  0
LINE
  5
2DB6
330
1E
100
AcDbEntity
  8
7
100
AcDbLine
 10
12.56776409552168
 20
15.60194397638291
 30
0.0
 11
12.56776409552168
 21
15.65312507874512
 31
0.0
  0
LINE
  5
2DB7
330
1E
100
AcDbEntity
  8
7
100
AcDbLine
 10
12.56776409552168
 20
15.60194397638291
 30
0.0
 11
12.54282971231958
 21
15.60194397638291
 31
0.0
  0
LINE
  5
2DB8
330
1E
100
AcDbEntity
  8
7
100
AcDbLine
 10
12.54414204827758
 20
15.5993193044669
 30
0.0
 11
12.54282971231958
 21
15.60194397638291
 31
0.0
  0
LINE
  5
2DB9
330
1E
100
AcDbEntity
  8
7
100
AcDbLine
 10
12.54414204827758
 20
15.5993193044669
 30
0.0
 11
12.57038876743769
 21
15.5993193044669
 31
0.0
  0
LINE
  5
2DBA
330
1E
100
AcDbEntity
  8
7
100
AcDbLine
 10
12.54414204827758
 20
15.46414870079236
 30
0.0
 11
12.57038876743769
 21
15.46414870079236
 31
0.0
  0
LINE
  5
2DBB
330
1E
100
AcDbEntity
  8
7
100
AcDbLine
 10
12.54414204827758
 20
15.46414870079236
 30
0.0
 11
12.54282971231958
 21
15.46152402887635
 31
0.0
  0
LINE
  5
2DBC
330
1E
100
AcDbEntity
  8
7
100
AcDbLine
 10
12.56776409552168
 20
15.46152402887635
 30
0.0
 11
12.54282971231958
 21
15.46152402887635
 31
0.0
  0
LINE
  5
2DC7
330
1E
100
AcDbEntity
  8
7
100
AcDbLine
 10
13.20818404302824
 20
15.46414870079236
 30
0.0
 11
13.20818404302824
 21
15.41034292651414
 31
0.0
  0
LINE
  5
2DC8
330
1E
100
AcDbEntity
  8
7
100
AcDbLine
 10
13.23443076218834
 20
15.46414870079236
 30
0.0
 11
13.23443076218834
 21
15.5993193044669
 31
0.0
  0
LINE
  5
2DC9
330
1E
100
AcDbEntity
  8
7
100
AcDbLine
 10
13.20818404302824
 20
15.65312507874512
 30
0.0
 11
12.57038876743769
 21
15.65312507874512
 31
0.0
  0
LINE
  5
2DCA
330
1E
100
AcDbEntity
  8
7
100
AcDbLine
 10
12.54414204827758
 20
15.46414870079236
 30
0.0
 11
12.54414204827758
 21
15.5993193044669
 31
0.0
  0
LINE
  5
2DCB
330
1E
100
AcDbEntity
  8
7
100
AcDbLine
 10
13.20949637898624
 20
15.41034292651414
 30
0.0
 11
13.20818404302824
 21
15.41034292651414
 31
0.0
  0
LINE
  5
2DCC
330
1E
100
AcDbEntity
  8
7
100
AcDbLine
 10
13.20949637898624
 20
15.46152402887635
 30
0.0
 11
13.20949637898624
 21
15.41034292651414
 31
0.0
  0
LINE
  5
2DCD
330
1E
100
AcDbEntity
  8
7
100
AcDbLine
 10
13.20949637898624
 20
15.46152402887635
 30
0.0
 11
13.23443076218834
 21
15.46152402887635
 31
0.0
  0
LINE
  5
2DD3
330
1E
100
AcDbEntity
  8
7
100
AcDbLine
 10
11.90897144460304
 20
15.09013295276087
 30
0.0
 11
11.90897144460304
 21
15.09144528871887
 31
0.0
  0
LINE
  5
2DD4
330
1E
100
AcDbEntity
  8
7
100
AcDbLine
 10
11.90897144460304
 20
15.09013295276087
 30
0.0
 11
11.93521816376315
 21
15.09013295276087
 31
0.0
  0
LINE
  5
2DD5
330
1E
100
AcDbEntity
  8
7
100
AcDbLine
 10
11.90897144460304
 20
14.95365001312832
 30
0.0
 11
11.93521816376315
 21
14.95365001312832
 31
0.0
  0
LINE
  5
2DD6
330
1E
100
AcDbEntity
  8
7
100
AcDbLine
 10
11.90897144460304
 20
14.95233767717031
 30
0.0
 11
11.90897144460304
 21
14.95365001312832
 31
0.0
  0
LINE
  5
2DD7
330
1E
100
AcDbEntity
  8
7
100
AcDbLine
 10
11.93259349184714
 20
14.95233767717031
 30
0.0
 11
11.93259349184714
 21
14.89984423885011
 31
0.0
  0
LINE
  5
2DD8
330
1E
100
AcDbEntity
  8
7
100
AcDbLine
 10
11.93259349184714
 20
14.95233767717031
 30
0.0
 11
11.90897144460304
 21
14.95233767717031
 31
0.0
  0
LINE
  5
2DD9
330
1E
100
AcDbEntity
  8
7
100
AcDbLine
 10
11.93259349184714
 20
14.89984423885011
 30
0.0
 11
11.93521816376315
 21
14.90115657480811
 31
0.0
  0
LINE
  5
2DDA
330
1E
100
AcDbEntity
  8
7
100
AcDbLine
 10
11.93521816376315
 20
14.95365001312832
 30
0.0
 11
11.93521816376315
 21
14.90115657480811
 31
0.0
  0
LINE
  5
2DDB
330
1E
100
AcDbEntity
  8
7
100
AcDbLine
 10
13.84335464670278
 20
14.95365001312832
 30
0.0
 11
13.84335464670278
 21
14.90115657480811
 31
0.0
  0
LINE
  5
2DDC
330
1E
100
AcDbEntity
  8
7
100
AcDbLine
 10
13.84466698266078
 20
14.89984423885011
 30
0.0
 11
13.84335464670278
 21
14.90115657480811
 31
0.0
  0
LINE
  5
2DE3
330
1E
100
AcDbEntity
  8
7
100
AcDbLine
 10
13.84335464670278
 20
14.95365001312832
 30
0.0
 11
13.86960136586289
 21
14.95365001312832
 31
0.0
  0
LINE
  5
2DE4
330
1E
100
AcDbEntity
  8
7
100
AcDbLine
 10
13.84335464670278
 20
15.09013295276087
 30
0.0
 11
13.86960136586289
 21
15.09013295276087
 31
0.0
  0
LINE
  5
2DE5
330
1E
100
AcDbEntity
  8
7
100
AcDbLine
 10
13.86960136586289
 20
15.09144528871887
 30
0.0
 11
13.86960136586289
 21
15.09013295276087
 31
0.0
  0
LINE
  5
2DE6
330
1E
100
AcDbEntity
  8
7
100
AcDbLine
 10
13.84466698266078
 20
15.09144528871887
 30
0.0
 11
13.86960136586289
 21
15.09144528871887
 31
0.0
  0
LINE
  5
2DED
330
1E
100
AcDbEntity
  8
7
100
AcDbLine
 10
11.93521816376315
 20
14.90115657480811
 30
0.0
 11
13.84335464670278
 21
14.90115657480811
 31
0.0
  0
LINE
  5
2DEE
330
1E
100
AcDbEntity
  8
7
100
AcDbLine
 10
13.86960136586289
 20
15.09013295276087
 30
0.0
 11
13.86960136586289
 21
14.95365001312832
 31
0.0
  0
LINE
  5
2DF4
330
1E
100
AcDbEntity
  8
7
100
AcDbLine
 10
11.90897144460304
 20
14.95365001312832
 30
0.0
 11
11.90897144460304
 21
15.09013295276087
 31
0.0
  0
LINE
  5
2DF5
330
1E
100
AcDbEntity
  8
7
100
AcDbLine
 10
11.93259349184714
 20
15.14393872703908
 30
0.0
 11
11.93521816376315
 21
15.14262639108108
 31
0.0
  0
LINE
  5
2DF6
330
1E
100
AcDbEntity
  8
7
100
AcDbLine
 10
13.43653049972115
 20
14.79092035433567
 30
0.0
 11
13.61107118213585
 21
14.79092035433567
 31
0.0
  0
LINE
  5
2DF7
330
1E
100
AcDbEntity
  8
7
100
AcDbLine
 10
13.43653049972115
 20
14.79092035433567
 30
0.0
 11
13.43653049972115
 21
14.75155027559551
 31
0.0
  0
LINE
  5
2DF8
330
1E
100
AcDbEntity
  8
7
100
AcDbLine
 10
13.61107118213585
 20
14.79092035433567
 30
0.0
 11
13.61107118213585
 21
14.75155027559551
 31
0.0
  0
LINE
  5
2DF9
330
1E
100
AcDbEntity
  8
7
100
AcDbLine
 10
12.97721291441932
 20
14.79092035433567
 30
0.0
 11
12.97721291441932
 21
14.75155027559551
 31
0.0
  0
LINE
  5
2DFA
330
1E
100
AcDbEntity
  8
7
100
AcDbLine
 10
12.80135989604661
 20
14.79092035433567
 30
0.0
 11
12.97721291441932
 21
14.79092035433567
 31
0.0
  0
LINE
  5
2DFB
330
1E
100
AcDbEntity
  8
7
100
AcDbLine
 10
12.80135989604661
 20
14.79092035433567
 30
0.0
 11
12.80135989604661
 21
14.75155027559551
 31
0.0
  0
LINE
  5
2DFC
330
1E
100
AcDbEntity
  8
7
100
AcDbLine
 10
12.16618929237207
 20
14.79092035433567
 30
0.0
 11
12.34204231074477
 21
14.79092035433567
 31
0.0
  0
LINE
  5
2DFD
330
1E
100
AcDbEntity
  8
7
100
AcDbLine
 10
12.16618929237207
 20
14.79092035433567
 30
0.0
 11
12.16618929237207
 21
14.75155027559551
 31
0.0
  0
LINE
  5
2DFE
330
1E
100
AcDbEntity
  8
7
100
AcDbLine
 10
12.34204231074477
 20
14.79092035433567
 30
0.0
 11
12.34204231074477
 21
14.75155027559551
 31
0.0
  0
LINE
  5
2DFF
330
1E
100
AcDbEntity
  8
7
100
AcDbLine
 10
13.27905018476052
 20
14.06519856955877
 30
0.0
 11
13.27905018476052
 21
14.13081536745903
 31
0.0
  0
LINE
  5
2E00
330
1E
100
AcDbEntity
  8
7
100
AcDbLine
 10
13.13469322937995
 20
14.13081536745903
 30
0.0
 11
13.27905018476052
 21
14.13081536745903
 31
0.0
  0
LINE
  5
2E01
330
1E
100
AcDbEntity
  8
7
100
AcDbLine
 10
13.13469322937995
 20
14.06519856955877
 30
0.0
 11
13.13469322937995
 21
14.13081536745903
 31
0.0
  0
LINE
  5
2E02
330
1E
100
AcDbEntity
  8
7
100
AcDbLine
 10
12.64387958108598
 20
14.06519856955877
 30
0.0
 11
12.64387958108598
 21
14.13081536745903
 31
0.0
  0
LINE
  5
2E03
330
1E
100
AcDbEntity
  8
7
100
AcDbLine
 10
12.4995226257054
 20
14.13081536745903
 30
0.0
 11
12.64387958108598
 21
14.13081536745903
 31
0.0
  0
LINE
  5
2E04
330
1E
100
AcDbEntity
  8
7
100
AcDbLine
 10
12.4995226257054
 20
14.13081536745903
 30
0.0
 11
12.4995226257054
 21
14.06519856955877
 31
0.0
  0
LINE
  5
2E05
330
1E
100
AcDbEntity
  8
7
100
AcDbLine
 10
12.00870897741144
 20
14.06519856955877
 30
0.0
 11
12.00870897741144
 21
14.13081536745903
 31
0.0
  0
LINE
  5
2E06
330
1E
100
AcDbEntity
  8
7
100
AcDbLine
 10
11.94177984355317
 20
14.13081536745903
 30
0.0
 11
12.00870897741144
 21
14.13081536745903
 31
0.0
  0
LINE
  5
2E07
330
1E
100
AcDbEntity
  8
7
100
AcDbLine
 10
12.34204231074477
 20
14.79092035433567
 30
0.0
 11
12.80135989604661
 21
14.79092035433567
 31
0.0
  0
LINE
  5
2E08
330
1E
100
AcDbEntity
  8
7
100
AcDbLine
 10
12.97721291441932
 20
14.79092035433567
 30
0.0
 11
13.43653049972115
 21
14.79092035433567
 31
0.0
  0
LINE
  5
2E09
330
1E
100
AcDbEntity
  8
7
100
AcDbLine
 10
11.94177984355317
 20
14.79092035433567
 30
0.0
 11
12.16618929237207
 21
14.79092035433567
 31
0.0
  0
LINE
  5
2E0A
330
1E
100
AcDbEntity
  8
7
100
AcDbLine
 10
13.61107118213585
 20
14.79092035433567
 30
0.0
 11
13.83679296691275
 21
14.79092035433567
 31
0.0
  0
LINE
  5
2E0B
330
1E
100
AcDbEntity
  8
7
100
AcDbLine
 10
13.76855149709648
 20
14.13081536745903
 30
0.0
 11
13.83679296691275
 21
14.13081536745903
 31
0.0
  0
LINE
  5
2E0C
330
1E
100
AcDbEntity
  8
7
100
AcDbLine
 10
13.76855149709648
 20
14.13081536745903
 30
0.0
 11
13.76855149709648
 21
14.06519856955877
 31
0.0
  0
LINE
  5
2E0D
330
1E
100
AcDbEntity
  8
7
100
AcDbLine
 10
11.57695044722772
 20
16.13737704724905
 30
0.0
 11
11.5743257753117
 21
16.14131405512307
 31
0.0
  0
LINE
  5
2E0E
330
1E
100
AcDbEntity
  8
7
100
AcDbLine
 10
14.20162236323821
 20
16.13737704724905
 30
0.0
 11
11.57695044722772
 21
16.13737704724905
 31
0.0
  0
LINE
  5
2E0F
330
1E
100
AcDbEntity
  8
7
100
AcDbLine
 10
14.20162236323821
 20
16.13737704724905
 30
0.0
 11
14.20424703515422
 21
16.14131405512307
 31
0.0
  0
LINE
  5
2E27
330
1E
100
AcDbEntity
  8
7
100
AcDbLine
 10
13.23443076218834
 20
15.46152402887635
 30
0.0
 11
13.23574309814635
 21
15.46021169291835
 31
0.0
  0
LINE
  5
2E28
330
1E
100
AcDbEntity
  8
7
100
AcDbLine
 10
13.21080871494425
 20
15.46021169291835
 30
0.0
 11
13.20949637898624
 21
15.46152402887635
 31
0.0
  0
LINE
  5
2E29
330
1E
100
AcDbEntity
  8
7
100
AcDbLine
 10
13.23443076218834
 20
15.60194397638291
 30
0.0
 11
13.23574309814635
 21
15.60325631234092
 31
0.0
  0
LINE
  5
2E2A
330
1E
100
AcDbEntity
  8
7
100
AcDbLine
 10
13.20949637898624
 20
15.60194397638291
 30
0.0
 11
13.21080871494425
 21
15.60325631234092
 31
0.0
  0
LINE
  5
2E2B
330
1E
100
AcDbEntity
  8
7
100
AcDbLine
 10
13.21080871494425
 20
15.65312507874512
 30
0.0
 11
13.20949637898624
 21
15.65312507874512
 31
0.0
  0
LINE
  5
2E2C
330
1E
100
AcDbEntity
  8
7
100
AcDbLine
 10
12.56645175956367
 20
15.65312507874512
 30
0.0
 11
12.56776409552168
 21
15.65312507874512
 31
0.0
  0
LINE
  5
2E2D
330
1E
100
AcDbEntity
  8
7
100
AcDbLine
 10
12.56776409552168
 20
15.60194397638291
 30
0.0
 11
12.56645175956367
 21
15.60325631234092
 31
0.0
  0
LINE
  5
2E2E
330
1E
100
AcDbEntity
  8
7
100
AcDbLine
 10
12.54282971231958
 20
15.60194397638291
 30
0.0
 11
12.54282971231958
 21
15.60325631234092
 31
0.0
  0
LINE
  5
2E2F
330
1E
100
AcDbEntity
  8
7
100
AcDbLine
 10
12.54282971231958
 20
15.46152402887635
 30
0.0
 11
12.54282971231958
 21
15.46021169291835
 31
0.0
  0
LINE
  5
2E30
330
1E
100
AcDbEntity
  8
7
100
AcDbLine
 10
12.56645175956367
 20
15.46021169291835
 30
0.0
 11
12.56776409552168
 21
15.46152402887635
 31
0.0
  0
LINE
  5
2E31
330
1E
100
AcDbEntity
  8
7
100
AcDbLine
 10
12.56645175956367
 20
15.40903059055614
 30
0.0
 11
12.56776409552168
 21
15.41034292651414
 31
0.0
  0
LINE
  5
2E32
330
1E
100
AcDbEntity
  8
7
100
AcDbLine
 10
13.21080871494425
 20
15.40903059055614
 30
0.0
 11
13.20949637898624
 21
15.41034292651414
 31
0.0
  0
LINE
  5
2E33
330
1E
100
AcDbEntity
  8
7
100
AcDbLine
 10
11.93259349184714
 20
15.09144528871887
 30
0.0
 11
11.93259349184714
 21
15.09275762467687
 31
0.0
  0
LINE
  5
2E34
330
1E
100
AcDbEntity
  8
7
100
AcDbLine
 10
11.90897144460304
 20
15.09144528871887
 30
0.0
 11
11.90765910864504
 21
15.09275762467687
 31
0.0
  0
LINE
  5
2E35
330
1E
100
AcDbEntity
  8
7
100
AcDbLine
 10
11.90765910864504
 20
14.95102534121231
 30
0.0
 11
11.90897144460304
 21
14.95233767717031
 31
0.0
  0
LINE
  5
2E36
330
1E
100
AcDbEntity
  8
7
100
AcDbLine
 10
11.93259349184714
 20
14.95102534121231
 30
0.0
 11
11.93259349184714
 21
14.95233767717031
 31
0.0
  0
LINE
  5
2E37
330
1E
100
AcDbEntity
  8
7
100
AcDbLine
 10
13.84597931861879
 20
14.89984423885011
 30
0.0
 11
13.84466698266078
 21
14.89984423885011
 31
0.0
  0
LINE
  5
2E38
330
1E
100
AcDbEntity
  8
7
100
AcDbLine
 10
13.84466698266078
 20
14.95233767717031
 30
0.0
 11
13.84597931861879
 21
14.95102534121231
 31
0.0
  0
LINE
  5
2E39
330
1E
100
AcDbEntity
  8
7
100
AcDbLine
 10
13.86960136586289
 20
14.95102534121231
 30
0.0
 11
13.86960136586289
 21
14.95233767717031
 31
0.0
  0
LINE
  5
2E3A
330
1E
100
AcDbEntity
  8
7
100
AcDbLine
 10
13.86960136586289
 20
15.09275762467687
 30
0.0
 11
13.86960136586289
 21
15.09144528871887
 31
0.0
  0
LINE
  5
2E3B
330
1E
100
AcDbEntity
  8
7
100
AcDbLine
 10
13.84597931861879
 20
15.09275762467687
 30
0.0
 11
13.84466698266078
 21
15.09144528871887
 31
0.0
  0
LINE
  5
2E3C
330
1E
100
AcDbEntity
  8
7
100
AcDbLine
 10
13.84597931861879
 20
15.14393872703908
 30
0.0
 11
13.84466698266078
 21
15.14393872703908
 31
0.0
  0
LINE
  5
2E3D
330
1E
100
AcDbEntity
  8
7
100
AcDbLine
 10
12.00870897741144
 20
14.12950303150102
 30
0.0
 11
12.00870897741144
 21
14.13081536745903
 31
0.0
  0
LINE
  5
2E3E
330
1E
100
AcDbEntity
  8
7
100
AcDbLine
 10
11.94177984355317
 20
14.13081536745903
 30
0.0
 11
11.94046750759517
 21
14.12950303150102
 31
0.0
  0
LINE
  5
2E3F
330
1E
100
AcDbEntity
  8
7
100
AcDbLine
 10
12.00870897741144
 20
14.06388623360076
 30
0.0
 11
12.00870897741144
 21
14.06519856955877
 31
0.0
  0
LINE
  5
2E40
330
1E
100
AcDbEntity
  8
7
100
AcDbLine
 10
12.4995226257054
 20
14.12950303150102
 30
0.0
 11
12.4995226257054
 21
14.13081536745903
 31
0.0
  0
LINE
  5
2E41
330
1E
100
AcDbEntity
  8
7
100
AcDbLine
 10
12.4995226257054
 20
14.06519856955877
 30
0.0
 11
12.4995226257054
 21
14.06388623360076
 31
0.0
  0
LINE
  5
2E42
330
1E
100
AcDbEntity
  8
7
100
AcDbLine
 10
12.64387958108598
 20
14.12950303150102
 30
0.0
 11
12.64387958108598
 21
14.13081536745903
 31
0.0
  0
LINE
  5
2E43
330
1E
100
AcDbEntity
  8
7
100
AcDbLine
 10
12.64387958108598
 20
14.06519856955877
 30
0.0
 11
12.64387958108598
 21
14.06388623360076
 31
0.0
  0
LINE
  5
2E44
330
1E
100
AcDbEntity
  8
7
100
AcDbLine
 10
13.13469322937995
 20
14.12950303150102
 30
0.0
 11
13.13469322937995
 21
14.13081536745903
 31
0.0
  0
LINE
  5
2E45
330
1E
100
AcDbEntity
  8
7
100
AcDbLine
 10
13.13469322937995
 20
14.06519856955877
 30
0.0
 11
13.13469322937995
 21
14.06388623360076
 31
0.0
  0
LINE
  5
2E46
330
1E
100
AcDbEntity
  8
7
100
AcDbLine
 10
13.27773784880252
 20
14.12950303150102
 30
0.0
 11
13.27905018476052
 21
14.13081536745903
 31
0.0
  0
LINE
  5
2E47
330
1E
100
AcDbEntity
  8
7
100
AcDbLine
 10
13.27905018476052
 20
14.06519856955877
 30
0.0
 11
13.27773784880252
 21
14.06388623360076
 31
0.0
  0
LINE
  5
2E48
330
1E
100
AcDbEntity
  8
7
100
AcDbLine
 10
13.76986383305448
 20
14.12950303150102
 30
0.0
 11
13.76855149709648
 21
14.13081536745903
 31
0.0
  0
LINE
  5
2E49
330
1E
100
AcDbEntity
  8
7
100
AcDbLine
 10
13.76986383305448
 20
14.06388623360076
 30
0.0
 11
13.76855149709648
 21
14.06519856955877
 31
0.0
  0
LINE
  5
2E4A
330
1E
100
AcDbEntity
  8
7
100
AcDbLine
 10
13.83679296691275
 20
14.13081536745903
 30
0.0
 11
13.83810530287076
 21
14.12950303150102
 31
0.0
  0
LINE
  5
2E4B
330
1E
100
AcDbEntity
  8
7
100
AcDbLine
 10
13.83810530287076
 20
14.79092035433567
 30
0.0
 11
13.83679296691275
 21
14.79092035433567
 31
0.0
  0
LINE
  5
2E4C
330
1E
100
AcDbEntity
  8
7
100
AcDbLine
 10
13.83679296691275
 20
14.13081536745903
 30
0.0
 11
13.83679296691275
 21
14.79092035433567
 31
0.0
  0
LINE
  5
2E5D
330
1E
100
AcDbEntity
  8
7
100
AcDbLine
 10
13.39716042098099
 20
14.06519856955877
 30
0.0
 11
13.27905018476052
 21
14.06519856955877
 31
0.0
  0
LINE
  5
2E5E
330
1E
100
AcDbEntity
  8
7
100
AcDbLine
 10
13.76855149709648
 20
14.06519856955877
 30
0.0
 11
13.65175359683401
 21
14.06519856955877
 31
0.0
  0
LINE
  5
2E5F
330
1E
100
AcDbEntity
  8
7
100
AcDbLine
 10
13.62681921363191
 20
14.07700959318081
 30
0.0
 11
13.42078246822509
 21
14.07700959318081
 31
0.0
  0
LINE
  5
2E60
330
1E
100
AcDbEntity
  8
7
100
AcDbLine
 10
13.42209480418309
 20
14.09275762467688
 30
0.0
 11
13.62681921363191
 21
14.09275762467688
 31
0.0
  0
LINE
  5
2E61
330
1E
100
AcDbEntity
  8
7
100
AcDbLine
 10
13.42209480418309
 20
14.10325631234092
 30
0.0
 11
13.62681921363191
 21
14.10325631234092
 31
0.0
  0
LINE
  5
2E62
330
1E
100
AcDbEntity
  8
7
100
AcDbLine
 10
13.62681921363191
 20
14.14000171916506
 30
0.0
 11
13.42078246822509
 21
14.14000171916506
 31
0.0
  0
LINE
  5
2E63
330
1E
100
AcDbEntity
  8
7
100
AcDbLine
 10
13.42078246822509
 20
14.14393872703908
 30
0.0
 11
13.62681921363191
 21
14.14393872703908
 31
0.0
  0
LINE
  5
2E64
330
1E
100
AcDbEntity
  8
7
100
AcDbLine
 10
13.42078246822509
 20
14.1741224540732
 30
0.0
 11
13.62681921363191
 21
14.1741224540732
 31
0.0
  0
LINE
  5
2E65
330
1E
100
AcDbEntity
  8
7
100
AcDbLine
 10
12.76198981730645
 20
14.06519856955877
 30
0.0
 11
12.64387958108598
 21
14.06519856955877
 31
0.0
  0
LINE
  5
2E66
330
1E
100
AcDbEntity
  8
7
100
AcDbLine
 10
13.01658299315947
 20
14.06519856955877
 30
0.0
 11
13.13469322937995
 21
14.06519856955877
 31
0.0
  0
LINE
  5
2E67
330
1E
100
AcDbEntity
  8
7
100
AcDbLine
 10
12.78561186455055
 20
14.07700959318081
 30
0.0
 11
12.99296094591538
 21
14.07700959318081
 31
0.0
  0
LINE
  5
2E68
330
1E
100
AcDbEntity
  8
7
100
AcDbLine
 10
12.99164860995737
 20
14.09275762467688
 30
0.0
 11
12.78692420050855
 21
14.09275762467688
 31
0.0
  0
LINE
  5
2E69
330
1E
100
AcDbEntity
  8
7
100
AcDbLine
 10
12.99164860995737
 20
14.10325631234092
 30
0.0
 11
12.78692420050855
 21
14.10325631234092
 31
0.0
  0
LINE
  5
2E6A
330
1E
100
AcDbEntity
  8
7
100
AcDbLine
 10
12.78561186455055
 20
14.14000171916506
 30
0.0
 11
12.99164860995737
 21
14.14000171916506
 31
0.0
  0
LINE
  5
2E6B
330
1E
100
AcDbEntity
  8
7
100
AcDbLine
 10
12.99164860995737
 20
14.14393872703908
 30
0.0
 11
12.78561186455055
 21
14.14393872703908
 31
0.0
  0
LINE
  5
2E6C
330
1E
100
AcDbEntity
  8
7
100
AcDbLine
 10
12.99164860995737
 20
14.1741224540732
 30
0.0
 11
12.78561186455055
 21
14.1741224540732
 31
0.0
  0
LINE
  5
2E6D
330
1E
100
AcDbEntity
  8
7
100
AcDbLine
 10
12.12681921363191
 20
14.06519856955877
 30
0.0
 11
12.00870897741144
 21
14.06519856955877
 31
0.0
  0
LINE
  5
2E6E
330
1E
100
AcDbEntity
  8
7
100
AcDbLine
 10
12.4995226257054
 20
14.06519856955877
 30
0.0
 11
12.38141238948493
 21
14.06519856955877
 31
0.0
  0
LINE
  5
2E6F
330
1E
100
AcDbEntity
  8
7
100
AcDbLine
 10
12.15044126087601
 20
14.07700959318081
 30
0.0
 11
12.35779034224083
 21
14.07700959318081
 31
0.0
  0
LINE
  5
2E70
330
1E
100
AcDbEntity
  8
7
100
AcDbLine
 10
12.35647800628283
 20
14.09275762467688
 30
0.0
 11
12.15175359683401
 21
14.09275762467688
 31
0.0
  0
LINE
  5
2E71
330
1E
100
AcDbEntity
  8
7
100
AcDbLine
 10
12.35647800628283
 20
14.10325631234092
 30
0.0
 11
12.15175359683401
 21
14.10325631234092
 31
0.0
  0
LINE
  5
2E72
330
1E
100
AcDbEntity
  8
7
100
AcDbLine
 10
12.15175359683401
 20
14.14000171916506
 30
0.0
 11
12.35647800628283
 21
14.14000171916506
 31
0.0
  0
LINE
  5
2E73
330
1E
100
AcDbEntity
  8
7
100
AcDbLine
 10
12.35779034224083
 20
14.14393872703908
 30
0.0
 11
12.15044126087601
 21
14.14393872703908
 31
0.0
  0
LINE
  5
2E74
330
1E
100
AcDbEntity
  8
7
100
AcDbLine
 10
12.35779034224083
 20
14.1741224540732
 30
0.0
 11
12.15044126087601
 21
14.1741224540732
 31
0.0
  0
LINE
  5
2E75
330
1E
100
AcDbEntity
  8
7
100
AcDbLine
 10
16.93128115588913
 20
12.10588098425693
 30
0.0
 11
16.93128115588913
 21
12.03763951444066
 31
0.0
  0
LINE
  5
2E7C
330
1E
100
AcDbEntity
  8
7
100
AcDbLine
 10
17.21605805877627
 20
11.64131405512307
 30
0.0
 11
17.15437826875002
 21
11.64393872703908
 31
0.0
  0
LINE
  5
2E84
330
1E
100
AcDbEntity
  8
7
100
AcDbLine
 10
17.15437826875002
 20
11.70430618110732
 30
0.0
 11
17.21605805877627
 21
11.70036917323331
 31
0.0
  0
LINE
  5
2E8B
330
1E
100
AcDbEntity
  8
7
100
AcDbLine
 10
16.93128115588913
 20
12.03763951444066
 30
0.0
 11
16.94046750759516
 21
12.03763951444066
 31
0.0
  0
LINE
  5
2E8C
330
1E
100
AcDbEntity
  8
7
100
AcDbLine
 10
16.93128115588913
 20
12.10588098425693
 30
0.0
 11
16.94046750759516
 21
12.10588098425693
 31
0.0
  0
LINE
  5
2E8D
330
1E
100
AcDbEntity
  8
7
100
AcDbLine
 10
16.93128115588913
 20
12.124253687669
 30
0.0
 11
16.94046750759516
 21
12.124253687669
 31
0.0
  0
LINE
  5
2E8E
330
1E
100
AcDbEntity
  8
7
100
AcDbLine
 10
16.93128115588913
 20
12.15050040682911
 30
0.0
 11
16.94046750759516
 21
12.15050040682911
 31
0.0
  0
LINE
  5
2EA5
330
1E
100
AcDbEntity
  8
7
100
AcDbLine
 10
17.68324965982614
 20
12.59013295276087
 30
0.0
 11
17.21605805877627
 21
12.55863688976874
 31
0.0
  0
LINE
  5
2EAD
330
1E
100
AcDbEntity
  8
7
100
AcDbLine
 10
17.45227853121722
 20
12.7476132677215
 30
0.0
 11
17.46146488292325
 21
12.7476132677215
 31
0.0
  0
LINE
  5
2EC7
330
1E
100
AcDbEntity
  8
7
100
AcDbLine
 10
17.15437826875002
 20
16.07832192913882
 30
0.0
 11
17.15437826875002
 21
11.70430618110732
 31
0.0
  0
LINE
  5
2ED6
330
1E
100
AcDbEntity
  8
7
100
AcDbLine
 10
16.94046750759516
 20
11.86966051181599
 30
0.0
 11
16.94046750759516
 21
15.91296759843016
 31
0.0
  0
LINE
  5
2EF3
330
1E
100
AcDbEntity
  8
7
100
AcDbLine
 10
17.45227853121722
 20
14.1741224540732
 30
0.0
 11
17.46146488292325
 21
14.1728101181152
 31
0.0
  0
LINE
  5
2EFF
330
1E
100
AcDbEntity
  8
7
100
AcDbLine
 10
17.68324965982614
 20
14.01664213911257
 30
0.0
 11
17.21605805877627
 21
13.98383374016244
 31
0.0
  0
LINE
  5
2F28
330
1E
100
AcDbEntity
  8
7
100
AcDbLine
 10
17.15437826875002
 20
16.13737704724905
 30
0.0
 11
17.21605805877627
 21
16.14131405512307
 31
0.0
  0
LINE
  5
3453
330
1E
100
AcDbEntity
  8
7
100
AcDbLine
 10
16.94046750759516
 20
15.91296759843016
 30
0.0
 11
16.94440451546918
 21
15.95627468504433
 31
0.0
  0
LINE
  5
3454
330
1E
100
AcDbEntity
  8
7
100
AcDbLine
 10
16.94440451546918
 20
15.95627468504433
 30
0.0
 11
16.95752787504924
 21
15.99695709974249
 31
0.0
  0
LINE
  5
3455
330
1E
100
AcDbEntity
  8
7
100
AcDbLine
 10
16.95752787504924
 20
15.99695709974249
 30
0.0
 11
16.97590057846131
 21
16.03501484252465
 31
0.0
  0
LINE
  5
3456
330
1E
100
AcDbEntity
  8
7
100
AcDbLine
 10
16.97590057846131
 20
16.03501484252465
 30
0.0
 11
17.00214729762141
 21
16.06782324147478
 31
0.0
  0
LINE
  5
3457
330
1E
100
AcDbEntity
  8
7
100
AcDbLine
 10
17.00214729762141
 20
16.06782324147478
 30
0.0
 11
17.03495569657155
 21
16.09669463255089
 31
0.0
  0
LINE
  5
3458
330
1E
100
AcDbEntity
  8
7
100
AcDbLine
 10
17.03495569657155
 20
16.09669463255089
 30
0.0
 11
17.07170110339569
 21
16.11769200787898
 31
0.0
  0
LINE
  5
3459
330
1E
100
AcDbEntity
  8
7
100
AcDbLine
 10
17.07170110339569
 20
16.11769200787898
 30
0.0
 11
17.11238351809385
 21
16.13212770341703
 31
0.0
  0
LINE
  5
345A
330
1E
100
AcDbEntity
  8
7
100
AcDbLine
 10
17.11238351809385
 20
16.13212770341703
 30
0.0
 11
17.15437826875002
 21
16.13737704724905
 31
0.0
  0
LINE
  5
345B
330
1E
100
AcDbEntity
  8
7
100
AcDbLine
 10
17.15437826875002
 20
16.07832192913882
 30
0.0
 11
17.15306593279202
 21
16.10850565617294
 31
0.0
  0
LINE
  5
345C
330
1E
100
AcDbEntity
  8
7
100
AcDbLine
 10
17.15306593279202
 20
16.10850565617294
 30
0.0
 11
17.15306593279202
 21
16.12950303150102
 31
0.0
  0
LINE
  5
345D
330
1E
100
AcDbEntity
  8
7
100
AcDbLine
 10
17.15306593279202
 20
16.12950303150102
 30
0.0
 11
17.15437826875002
 21
16.13737704724905
 31
0.0
  0
LINE
  5
345E
330
1E
100
AcDbEntity
  8
7
100
AcDbLine
 10
17.28429952859254
 20
15.29354502625168
 30
0.0
 11
17.28429952859254
 21
15.25286261155352
 31
0.0
  0
LINE
  5
345F
330
1E
100
AcDbEntity
  8
7
100
AcDbLine
 10
17.28429952859254
 20
15.25286261155352
 30
0.0
 11
17.21605805877627
 21
15.13737704724905
 31
0.0
  0
LINE
  5
3460
330
1E
100
AcDbEntity
  8
7
100
AcDbLine
 10
17.28429952859254
 20
15.25286261155352
 30
0.0
 11
17.27905018476052
 21
15.25286261155352
 31
0.0
  0
LINE
  5
3461
330
1E
100
AcDbEntity
  8
7
100
AcDbLine
 10
17.27905018476052
 20
15.25286261155352
 30
0.0
 11
17.26461448922247
 21
15.25286261155352
 31
0.0
  0
LINE
  5
3462
330
1E
100
AcDbEntity
  8
7
100
AcDbLine
 10
17.26461448922247
 20
15.25286261155352
 30
0.0
 11
17.24361711389438
 21
15.25155027559551
 31
0.0
  0
LINE
  5
3463
330
1E
100
AcDbEntity
  8
7
100
AcDbLine
 10
17.24361711389438
 20
15.25155027559551
 30
0.0
 11
17.21605805877627
 21
15.25155027559551
 31
0.0
  0
LINE
  5
3464
330
1E
100
AcDbEntity
  8
7
100
AcDbLine
 10
17.21605805877627
 20
15.29485736220969
 30
0.0
 11
17.24361711389438
 21
15.29485736220969
 31
0.0
  0
LINE
  5
3465
330
1E
100
AcDbEntity
  8
7
100
AcDbLine
 10
17.24361711389438
 20
15.29485736220969
 30
0.0
 11
17.26461448922247
 21
15.29485736220969
 31
0.0
  0
LINE
  5
3466
330
1E
100
AcDbEntity
  8
7
100
AcDbLine
 10
17.26461448922247
 20
15.29485736220969
 30
0.0
 11
17.27905018476052
 21
15.29354502625168
 31
0.0
  0
LINE
  5
3467
330
1E
100
AcDbEntity
  8
7
100
AcDbLine
 10
17.27905018476052
 20
15.29354502625168
 30
0.0
 11
17.28429952859254
 21
15.29354502625168
 31
0.0
  0
LINE
  5
3468
330
1E
100
AcDbEntity
  8
7
100
AcDbLine
 10
17.21605805877627
 20
13.86966051181598
 30
0.0
 11
17.24361711389438
 21
13.86834817585798
 31
0.0
  0
LINE
  5
3469
330
1E
100
AcDbEntity
  8
7
100
AcDbLine
 10
17.24361711389438
 20
13.86834817585798
 30
0.0
 11
17.26461448922247
 21
13.86834817585798
 31
0.0
  0
LINE
  5
346A
330
1E
100
AcDbEntity
  8
7
100
AcDbLine
 10
17.26461448922247
 20
13.86834817585798
 30
0.0
 11
17.27905018476052
 21
13.86834817585798
 31
0.0
  0
LINE
  5
346B
330
1E
100
AcDbEntity
  8
7
100
AcDbLine
 10
17.27905018476052
 20
13.86834817585798
 30
0.0
 11
17.28429952859254
 21
13.86834817585798
 31
0.0
  0
LINE
  5
346C
330
1E
100
AcDbEntity
  8
7
100
AcDbLine
 10
17.28429952859254
 20
13.86834817585798
 30
0.0
 11
17.28429952859254
 21
13.82635342520181
 31
0.0
  0
LINE
  5
346D
330
1E
100
AcDbEntity
  8
7
100
AcDbLine
 10
17.28429952859254
 20
13.82635342520181
 30
0.0
 11
17.21605805877627
 21
13.71218019685535
 31
0.0
  0
LINE
  5
346E
330
1E
100
AcDbEntity
  8
7
100
AcDbLine
 10
17.28429952859254
 20
13.82635342520181
 30
0.0
 11
17.27905018476052
 21
13.82635342520181
 31
0.0
  0
LINE
  5
346F
330
1E
100
AcDbEntity
  8
7
100
AcDbLine
 10
17.27905018476052
 20
13.82635342520181
 30
0.0
 11
17.26461448922247
 21
13.82635342520181
 31
0.0
  0
LINE
  5
3470
330
1E
100
AcDbEntity
  8
7
100
AcDbLine
 10
17.26461448922247
 20
13.82635342520181
 30
0.0
 11
17.24361711389438
 21
13.82635342520181
 31
0.0
  0
LINE
  5
3471
330
1E
100
AcDbEntity
  8
7
100
AcDbLine
 10
17.24361711389438
 20
13.82635342520181
 30
0.0
 11
17.21605805877627
 21
13.82635342520181
 31
0.0
  0
LINE
  5
3472
330
1E
100
AcDbEntity
  8
7
100
AcDbLine
 10
17.68324965982614
 20
14.01664213911257
 30
0.0
 11
17.69243601153217
 21
14.02189148294459
 31
0.0
  0
LINE
  5
3473
330
1E
100
AcDbEntity
  8
7
100
AcDbLine
 10
17.69243601153217
 20
14.02189148294459
 30
0.0
 11
17.69637301940619
 21
14.03107783465063
 31
0.0
  0
LINE
  5
3474
330
1E
100
AcDbEntity
  8
7
100
AcDbLine
 10
17.45227853121722
 20
14.1741224540732
 30
0.0
 11
17.45227853121722
 21
14.14393872703908
 31
0.0
  0
LINE
  5
3475
330
1E
100
AcDbEntity
  8
7
100
AcDbLine
 10
17.45227853121722
 20
14.14393872703908
 30
0.0
 11
17.45359086717522
 21
14.14000171916506
 31
0.0
  0
LINE
  5
3476
330
1E
100
AcDbEntity
  8
7
100
AcDbLine
 10
17.45359086717522
 20
14.14000171916506
 30
0.0
 11
17.46277721888126
 21
14.122941351711
 31
0.0
  0
LINE
  5
3477
330
1E
100
AcDbEntity
  8
7
100
AcDbLine
 10
17.46277721888126
 20
14.122941351711
 30
0.0
 11
17.46540189079727
 21
14.10325631234092
 31
0.0
  0
LINE
  5
3478
330
1E
100
AcDbEntity
  8
7
100
AcDbLine
 10
17.46540189079727
 20
14.10325631234092
 30
0.0
 11
17.46540189079727
 21
14.09275762467688
 31
0.0
  0
LINE
  5
3479
330
1E
100
AcDbEntity
  8
7
100
AcDbLine
 10
17.46540189079727
 20
14.09275762467688
 30
0.0
 11
17.46015254696525
 21
14.08225893701283
 31
0.0
  0
LINE
  5
347A
330
1E
100
AcDbEntity
  8
7
100
AcDbLine
 10
17.46015254696525
 20
14.08225893701283
 30
0.0
 11
17.4496538593012
 21
14.07700959318081
 31
0.0
  0
LINE
  5
347B
330
1E
100
AcDbEntity
  8
7
100
AcDbLine
 10
17.4496538593012
 20
14.07700959318081
 30
0.0
 11
17.21605805877627
 21
14.07176024934879
 31
0.0
  0
LINE
  5
347C
330
1E
100
AcDbEntity
  8
7
100
AcDbLine
 10
17.69637301940619
 20
14.03107783465063
 30
0.0
 11
17.69637301940619
 21
14.05207520997871
 31
0.0
  0
LINE
  5
347D
330
1E
100
AcDbEntity
  8
7
100
AcDbLine
 10
17.69637301940619
 20
14.05207520997871
 30
0.0
 11
17.69243601153217
 21
14.06257389764276
 31
0.0
  0
LINE
  5
347E
330
1E
100
AcDbEntity
  8
7
100
AcDbLine
 10
17.69243601153217
 20
14.06257389764276
 30
0.0
 11
17.68193732386813
 21
14.06782324147478
 31
0.0
  0
LINE
  5
347F
330
1E
100
AcDbEntity
  8
7
100
AcDbLine
 10
17.68193732386813
 20
14.06782324147478
 30
0.0
 11
17.60844651021984
 21
14.06782324147478
 31
0.0
  0
LINE
  5
3480
330
1E
100
AcDbEntity
  8
7
100
AcDbLine
 10
17.60844651021984
 20
14.06782324147478
 30
0.0
 11
17.58088745510173
 21
14.07569725722281
 31
0.0
  0
LINE
  5
3481
330
1E
100
AcDbEntity
  8
7
100
AcDbLine
 10
17.58088745510173
 20
14.07569725722281
 30
0.0
 11
17.55989007977365
 21
14.09406996063488
 31
0.0
  0
LINE
  5
3482
330
1E
100
AcDbEntity
  8
7
100
AcDbLine
 10
17.55989007977365
 20
14.09406996063488
 30
0.0
 11
17.53364336061354
 21
14.13081536745903
 31
0.0
  0
LINE
  5
3483
330
1E
100
AcDbEntity
  8
7
100
AcDbLine
 10
17.53364336061354
 20
14.13081536745903
 30
0.0
 11
17.51395832124346
 21
14.15181274278711
 31
0.0
  0
LINE
  5
3484
330
1E
100
AcDbEntity
  8
7
100
AcDbLine
 10
17.51395832124346
 20
14.15181274278711
 30
0.0
 11
17.48902393804136
 21
14.16624843832517
 31
0.0
  0
LINE
  5
3485
330
1E
100
AcDbEntity
  8
7
100
AcDbLine
 10
17.48902393804136
 20
14.16624843832517
 30
0.0
 11
17.46146488292325
 21
14.1728101181152
 31
0.0
  0
LINE
  5
3486
330
1E
100
AcDbEntity
  8
7
100
AcDbLine
 10
17.21605805877627
 20
16.122941351711
 30
0.0
 11
17.21605805877627
 21
16.10456864829892
 31
0.0
  0
LINE
  5
3487
330
1E
100
AcDbEntity
  8
7
100
AcDbLine
 10
17.21605805877627
 20
16.10456864829892
 30
0.0
 11
17.21605805877627
 21
16.08094660105483
 31
0.0
  0
LINE
  5
3488
330
1E
100
AcDbEntity
  8
7
100
AcDbLine
 10
17.21605805877627
 20
16.14131405512307
 30
0.0
 11
17.21605805877627
 21
16.13606471129105
 31
0.0
  0
LINE
  5
3489
330
1E
100
AcDbEntity
  8
7
100
AcDbLine
 10
17.21605805877627
 20
16.13606471129105
 30
0.0
 11
17.21605805877627
 21
16.122941351711
 31
0.0
  0
LINE
  5
348A
330
1E
100
AcDbEntity
  8
7
100
AcDbLine
 10
17.21605805877627
 20
11.70036917323331
 30
0.0
 11
17.21605805877627
 21
16.08094660105483
 31
0.0
  0
LINE
  5
348B
330
1E
100
AcDbEntity
  8
7
100
AcDbLine
 10
17.21605805877627
 20
16.08094660105483
 30
0.0
 11
17.15437826875002
 21
16.07832192913882
 31
0.0
  0
LINE
  5
348C
330
1E
100
AcDbEntity
  8
7
100
AcDbLine
 10
16.97590057846131
 20
16.00220644357452
 30
0.0
 11
16.95752787504924
 21
15.9746473884564
 31
0.0
  0
LINE
  5
348D
330
1E
100
AcDbEntity
  8
7
100
AcDbLine
 10
16.95752787504924
 20
15.9746473884564
 30
0.0
 11
16.94440451546918
 21
15.94446366142229
 31
0.0
  0
LINE
  5
348E
330
1E
100
AcDbEntity
  8
7
100
AcDbLine
 10
16.94440451546918
 20
15.94446366142229
 30
0.0
 11
16.94046750759516
 21
15.91296759843016
 31
0.0
  0
LINE
  5
348F
330
1E
100
AcDbEntity
  8
7
100
AcDbLine
 10
17.15437826875002
 20
16.07832192913882
 30
0.0
 11
17.11238351809385
 21
16.0730725853068
 31
0.0
  0
LINE
  5
3490
330
1E
100
AcDbEntity
  8
7
100
AcDbLine
 10
17.11238351809385
 20
16.0730725853068
 30
0.0
 11
17.07170110339569
 21
16.06257389764276
 31
0.0
  0
LINE
  5
3491
330
1E
100
AcDbEntity
  8
7
100
AcDbLine
 10
17.07170110339569
 20
16.06257389764276
 30
0.0
 11
17.03495569657155
 21
16.04682586614669
 31
0.0
  0
LINE
  5
3492
330
1E
100
AcDbEntity
  8
7
100
AcDbLine
 10
17.03495569657155
 20
16.04682586614669
 30
0.0
 11
17.00214729762141
 21
16.02714082677661
 31
0.0
  0
LINE
  5
3493
330
1E
100
AcDbEntity
  8
7
100
AcDbLine
 10
17.00214729762141
 20
16.02714082677661
 30
0.0
 11
16.97590057846131
 21
16.00220644357452
 31
0.0
  0
LINE
  5
3494
330
1E
100
AcDbEntity
  8
7
100
AcDbLine
 10
17.69243601153217
 20
12.63737704724905
 30
0.0
 11
17.68193732386813
 21
12.64131405512307
 31
0.0
  0
LINE
  5
3495
330
1E
100
AcDbEntity
  8
7
100
AcDbLine
 10
17.68193732386813
 20
12.64131405512307
 30
0.0
 11
17.60844651021984
 21
12.64262639108108
 31
0.0
  0
LINE
  5
3496
330
1E
100
AcDbEntity
  8
7
100
AcDbLine
 10
17.60844651021984
 20
12.64262639108108
 30
0.0
 11
17.58088745510173
 21
12.6491880708711
 31
0.0
  0
LINE
  5
3497
330
1E
100
AcDbEntity
  8
7
100
AcDbLine
 10
17.58088745510173
 20
12.6491880708711
 30
0.0
 11
17.55989007977365
 21
12.66887311024118
 31
0.0
  0
LINE
  5
3498
330
1E
100
AcDbEntity
  8
7
100
AcDbLine
 10
17.68324965982614
 20
12.59013295276087
 30
0.0
 11
17.69243601153217
 21
12.59538229659288
 31
0.0
  0
LINE
  5
3499
330
1E
100
AcDbEntity
  8
7
100
AcDbLine
 10
17.69243601153217
 20
12.59538229659288
 30
0.0
 11
17.69637301940619
 21
12.60588098425693
 31
0.0
  0
LINE
  5
349A
330
1E
100
AcDbEntity
  8
7
100
AcDbLine
 10
17.69637301940619
 20
12.60588098425693
 30
0.0
 11
17.69637301940619
 21
12.62687835958502
 31
0.0
  0
LINE
  5
349B
330
1E
100
AcDbEntity
  8
7
100
AcDbLine
 10
17.69637301940619
 20
12.62687835958502
 30
0.0
 11
17.69243601153217
 21
12.63737704724905
 31
0.0
  0
LINE
  5
349C
330
1E
100
AcDbEntity
  8
7
100
AcDbLine
 10
17.45227853121722
 20
12.7476132677215
 30
0.0
 11
17.45227853121722
 21
12.71874187664538
 31
0.0
  0
LINE
  5
349D
330
1E
100
AcDbEntity
  8
7
100
AcDbLine
 10
17.45227853121722
 20
12.71874187664538
 30
0.0
 11
17.45359086717522
 21
12.71349253281336
 31
0.0
  0
LINE
  5
349E
330
1E
100
AcDbEntity
  8
7
100
AcDbLine
 10
17.45359086717522
 20
12.71349253281336
 30
0.0
 11
17.46277721888126
 21
12.69643216535929
 31
0.0
  0
LINE
  5
349F
330
1E
100
AcDbEntity
  8
7
100
AcDbLine
 10
17.46277721888126
 20
12.69643216535929
 30
0.0
 11
17.46540189079727
 21
12.67805946194722
 31
0.0
  0
LINE
  5
34A0
330
1E
100
AcDbEntity
  8
7
100
AcDbLine
 10
17.46540189079727
 20
12.67805946194722
 30
0.0
 11
17.46540189079727
 21
12.66624843832517
 31
0.0
  0
LINE
  5
34A1
330
1E
100
AcDbEntity
  8
7
100
AcDbLine
 10
17.46540189079727
 20
12.66624843832517
 30
0.0
 11
17.46015254696525
 21
12.65574975066113
 31
0.0
  0
LINE
  5
34A2
330
1E
100
AcDbEntity
  8
7
100
AcDbLine
 10
17.46015254696525
 20
12.65574975066113
 30
0.0
 11
17.4496538593012
 21
12.65181274278711
 31
0.0
  0
LINE
  5
34A3
330
1E
100
AcDbEntity
  8
7
100
AcDbLine
 10
17.4496538593012
 20
12.65181274278711
 30
0.0
 11
17.21605805877627
 21
12.64525106299709
 31
0.0
  0
LINE
  5
34A4
330
1E
100
AcDbEntity
  8
7
100
AcDbLine
 10
17.55989007977365
 20
12.66887311024118
 30
0.0
 11
17.53364336061354
 21
12.70561851706533
 31
0.0
  0
LINE
  5
34A5
330
1E
100
AcDbEntity
  8
7
100
AcDbLine
 10
17.53364336061354
 20
12.70561851706533
 30
0.0
 11
17.51395832124346
 21
12.72661589239341
 31
0.0
  0
LINE
  5
34A6
330
1E
100
AcDbEntity
  8
7
100
AcDbLine
 10
17.51395832124346
 20
12.72661589239341
 30
0.0
 11
17.48902393804136
 21
12.74105158793147
 31
0.0
  0
LINE
  5
34A7
330
1E
100
AcDbEntity
  8
7
100
AcDbLine
 10
17.48902393804136
 20
12.74105158793147
 30
0.0
 11
17.46146488292325
 21
12.7476132677215
 31
0.0
  0
LINE
  5
34A8
330
1E
100
AcDbEntity
  8
7
100
AcDbLine
 10
16.97590057846131
 20
11.78042166667163
 30
0.0
 11
17.00214729762141
 21
11.75548728346953
 31
0.0
  0
LINE
  5
34A9
330
1E
100
AcDbEntity
  8
7
100
AcDbLine
 10
17.00214729762141
 20
11.75548728346953
 30
0.0
 11
17.03495569657155
 21
11.73448990814144
 31
0.0
  0
LINE
  5
34AA
330
1E
100
AcDbEntity
  8
7
100
AcDbLine
 10
17.03495569657155
 20
11.73448990814144
 30
0.0
 11
17.07170110339569
 21
11.71874187664538
 31
0.0
  0
LINE
  5
34AB
330
1E
100
AcDbEntity
  8
7
100
AcDbLine
 10
17.07170110339569
 20
11.71874187664538
 30
0.0
 11
17.11238351809385
 21
11.70824318898134
 31
0.0
  0
LINE
  5
34AC
330
1E
100
AcDbEntity
  8
7
100
AcDbLine
 10
17.11238351809385
 20
11.70824318898134
 30
0.0
 11
17.15437826875002
 21
11.70430618110732
 31
0.0
  0
LINE
  5
34AD
330
1E
100
AcDbEntity
  8
7
100
AcDbLine
 10
17.15437826875002
 20
11.64393872703908
 30
0.0
 11
17.11238351809385
 21
11.65050040682911
 31
0.0
  0
LINE
  5
34AE
330
1E
100
AcDbEntity
  8
7
100
AcDbLine
 10
17.11238351809385
 20
11.65050040682911
 30
0.0
 11
17.07170110339569
 21
11.66493610236716
 31
0.0
  0
LINE
  5
34AF
330
1E
100
AcDbEntity
  8
7
100
AcDbLine
 10
17.07170110339569
 20
11.66493610236716
 30
0.0
 11
17.03495569657155
 21
11.68593347769525
 31
0.0
  0
LINE
  5
34B0
330
1E
100
AcDbEntity
  8
7
100
AcDbLine
 10
17.03495569657155
 20
11.68593347769525
 30
0.0
 11
17.00214729762141
 21
11.71480486877137
 31
0.0
  0
LINE
  5
34B1
330
1E
100
AcDbEntity
  8
7
100
AcDbLine
 10
17.00214729762141
 20
11.71480486877137
 30
0.0
 11
16.97590057846131
 21
11.7476132677215
 31
0.0
  0
LINE
  5
34B2
330
1E
100
AcDbEntity
  8
7
100
AcDbLine
 10
16.97590057846131
 20
11.7476132677215
 30
0.0
 11
16.95752787504924
 21
11.78567101050365
 31
0.0
  0
LINE
  5
34B3
330
1E
100
AcDbEntity
  8
7
100
AcDbLine
 10
16.95752787504924
 20
11.78567101050365
 30
0.0
 11
16.94440451546918
 21
11.82635342520181
 31
0.0
  0
LINE
  5
34B4
330
1E
100
AcDbEntity
  8
7
100
AcDbLine
 10
16.94440451546918
 20
11.82635342520181
 30
0.0
 11
16.94046750759516
 21
11.86966051181599
 31
0.0
  0
LINE
  5
34B5
330
1E
100
AcDbEntity
  8
7
100
AcDbLine
 10
16.94046750759516
 20
11.86966051181599
 30
0.0
 11
16.94440451546918
 21
11.83816444882386
 31
0.0
  0
LINE
  5
34B6
330
1E
100
AcDbEntity
  8
7
100
AcDbLine
 10
16.94440451546918
 20
11.83816444882386
 30
0.0
 11
16.95752787504924
 21
11.80798072178974
 31
0.0
  0
LINE
  5
34B7
330
1E
100
AcDbEntity
  8
7
100
AcDbLine
 10
16.95752787504924
 20
11.80798072178974
 30
0.0
 11
16.97590057846131
 21
11.78042166667163
 31
0.0
  0
LINE
  5
34B8
330
1E
100
AcDbEntity
  8
7
100
AcDbLine
 10
17.15437826875002
 20
11.64393872703908
 30
0.0
 11
17.15306593279202
 21
11.65181274278711
 31
0.0
  0
LINE
  5
34B9
330
1E
100
AcDbEntity
  8
7
100
AcDbLine
 10
17.15306593279202
 20
11.65181274278711
 30
0.0
 11
17.15306593279202
 21
11.6741224540732
 31
0.0
  0
LINE
  5
34BA
330
1E
100
AcDbEntity
  8
7
100
AcDbLine
 10
17.15306593279202
 20
11.6741224540732
 30
0.0
 11
17.15437826875002
 21
11.70430618110732
 31
0.0
  0
LINE
  5
34BB
330
1E
100
AcDbEntity
  8
7
100
AcDbLine
 10
17.21605805877627
 20
11.70036917323331
 30
0.0
 11
17.21605805877627
 21
11.67805946194722
 31
0.0
  0
LINE
  5
34BC
330
1E
100
AcDbEntity
  8
7
100
AcDbLine
 10
17.21605805877627
 20
11.67805946194722
 30
0.0
 11
17.21605805877627
 21
11.65837442257714
 31
0.0
  0
LINE
  5
34BD
330
1E
100
AcDbEntity
  8
7
100
AcDbLine
 10
17.21605805877627
 20
11.65837442257714
 30
0.0
 11
17.21605805877627
 21
11.64525106299709
 31
0.0
  0
LINE
  5
34BE
330
1E
100
AcDbEntity
  8
7
100
AcDbLine
 10
17.21605805877627
 20
11.64525106299709
 30
0.0
 11
17.21605805877627
 21
11.64131405512307
 31
0.0
  0
LINE
  5
34BF
330
1E
100
AcDbEntity
  8
7
100
AcDbLine
 10
16.93128115588913
 20
12.10588098425693
 30
0.0
 11
16.93128115588913
 21
12.124253687669
 31
0.0
  0
LINE
  5
34C0
330
1E
100
AcDbEntity
  8
7
100
AcDbLine
 10
16.93128115588913
 20
12.124253687669
 30
0.0
 11
16.93128115588913
 21
12.14393872703908
 31
0.0
  0
LINE
  5
34C1
330
1E
100
AcDbEntity
  8
7
100
AcDbLine
 10
16.93128115588913
 20
12.14393872703908
 30
0.0
 11
16.93128115588913
 21
12.15050040682911
 31
0.0
  0
LINE
  5
34C2
330
1E
100
AcDbEntity
  8
7
100
AcDbLine
 10
14.03626803252955
 20
15.91296759843016
 30
0.0
 11
14.06776409552167
 21
15.95627468504433
 31
0.0
  0
LINE
  5
34C3
330
1E
100
AcDbEntity
  8
7
100
AcDbLine
 10
14.06776409552167
 20
15.95627468504433
 30
0.0
 11
14.0979478225558
 21
15.99695709974249
 31
0.0
  0
LINE
  5
34C4
330
1E
100
AcDbEntity
  8
7
100
AcDbLine
 10
14.0979478225558
 20
15.99695709974249
 30
0.0
 11
14.12550687767391
 21
16.03501484252465
 31
0.0
  0
LINE
  5
34C5
330
1E
100
AcDbEntity
  8
7
100
AcDbLine
 10
14.12550687767391
 20
16.03501484252465
 30
0.0
 11
14.149128924918
 21
16.06782324147478
 31
0.0
  0
LINE
  5
34C6
330
1E
100
AcDbEntity
  8
7
100
AcDbLine
 10
14.149128924918
 20
16.06782324147478
 30
0.0
 11
14.17012630024609
 21
16.09669463255089
 31
0.0
  0
LINE
  5
34C7
330
1E
100
AcDbEntity
  8
7
100
AcDbLine
 10
14.17012630024609
 20
16.09669463255089
 30
0.0
 11
14.18587433174215
 21
16.11769200787898
 31
0.0
  0
LINE
  5
34C8
330
1E
100
AcDbEntity
  8
7
100
AcDbLine
 10
14.18587433174215
 20
16.11769200787898
 30
0.0
 11
14.19637301940619
 21
16.13212770341703
 31
0.0
  0
LINE
  5
34C9
330
1E
100
AcDbEntity
  8
7
100
AcDbLine
 10
14.19637301940619
 20
16.13212770341703
 30
0.0
 11
14.20162236323821
 21
16.13737704724905
 31
0.0
  0
LINE
  5
34CA
330
1E
100
AcDbEntity
  8
7
100
AcDbLine
 10
11.94046750759517
 20
14.79092035433567
 30
0.0
 11
11.94177984355317
 21
14.79092035433567
 31
0.0
  0
LINE
  5
34CB
330
1E
100
AcDbEntity
  8
7
100
AcDbLine
 10
11.94177984355317
 20
14.79092035433567
 30
0.0
 11
11.94177984355317
 21
14.13081536745903
 31
0.0
  0
LINE
  5
34CC
330
1E
100
AcDbEntity
  8
7
100
AcDbLine
 10
11.74230477793637
 20
15.91296759843016
 30
0.0
 11
11.71080871494425
 21
15.95627468504433
 31
0.0
  0
LINE
  5
34CD
330
1E
100
AcDbEntity
  8
7
100
AcDbLine
 10
11.71080871494425
 20
15.95627468504433
 30
0.0
 11
11.68062498791013
 21
15.99695709974249
 31
0.0
  0
LINE
  5
34CE
330
1E
100
AcDbEntity
  8
7
100
AcDbLine
 10
11.68062498791013
 20
15.99695709974249
 30
0.0
 11
11.65306593279202
 21
16.03501484252465
 31
0.0
  0
LINE
  5
34CF
330
1E
100
AcDbEntity
  8
7
100
AcDbLine
 10
11.65306593279202
 20
16.03501484252465
 30
0.0
 11
11.62813154958992
 21
16.06782324147478
 31
0.0
  0
LINE
  5
34D0
330
1E
100
AcDbEntity
  8
7
100
AcDbLine
 10
11.62813154958992
 20
16.06782324147478
 30
0.0
 11
11.60844651021984
 21
16.09669463255089
 31
0.0
  0
LINE
  5
34D1
330
1E
100
AcDbEntity
  8
7
100
AcDbLine
 10
11.60844651021984
 20
16.09669463255089
 30
0.0
 11
11.59269847872378
 21
16.11769200787898
 31
0.0
  0
LINE
  5
34D2
330
1E
100
AcDbEntity
  8
7
100
AcDbLine
 10
11.59269847872378
 20
16.11769200787898
 30
0.0
 11
11.58219979105973
 21
16.13212770341703
 31
0.0
  0
LINE
  5
34D3
330
1E
100
AcDbEntity
  8
7
100
AcDbLine
 10
11.58219979105973
 20
16.13212770341703
 30
0.0
 11
11.57695044722772
 21
16.13737704724905
 31
0.0
  0
LINE
  5
34D4
330
1E
100
AcDbEntity
  8
7
100
AcDbLine
 10
14.26067748134845
 20
16.07832192913882
 30
0.0
 11
14.25280346560042
 21
16.10850565617294
 31
0.0
  0
LINE
  5
34D5
330
1E
100
AcDbEntity
  8
7
100
AcDbLine
 10
14.25280346560042
 20
16.10850565617294
 30
0.0
 11
14.23049375431433
 21
16.12950303150102
 31
0.0
  0
LINE
  5
34D6
330
1E
100
AcDbEntity
  8
7
100
AcDbLine
 10
14.23049375431433
 20
16.12950303150102
 30
0.0
 11
14.20162236323821
 21
16.13737704724905
 31
0.0
  0
LINE
  5
34D7
330
1E
100
AcDbEntity
  8
7
100
AcDbLine
 10
11.51789532911748
 20
16.07832192913882
 30
0.0
 11
11.52576934486551
 21
16.10850565617294
 31
0.0
  0
LINE
  5
34D8
330
1E
100
AcDbEntity
  8
7
100
AcDbLine
 10
11.52576934486551
 20
16.10850565617294
 30
0.0
 11
11.54676672019359
 21
16.12950303150102
 31
0.0
  0
LINE
  5
34D9
330
1E
100
AcDbEntity
  8
7
100
AcDbLine
 10
11.54676672019359
 20
16.12950303150102
 30
0.0
 11
11.57695044722772
 21
16.13737704724905
 31
0.0
  0
LINE
  5
34DA
330
1E
100
AcDbEntity
  8
7
100
AcDbLine
 10
13.84335464670278
 20
15.14262639108108
 30
0.0
 11
11.93521816376315
 21
15.14262639108108
 31
0.0
  0
LINE
  5
34DB
330
1E
100
AcDbEntity
  8
7
100
AcDbLine
 10
11.93521816376315
 20
15.14262639108108
 30
0.0
 11
11.93521816376315
 21
15.09013295276087
 31
0.0
  0
LINE
  5
34DC
330
1E
100
AcDbEntity
  8
7
100
AcDbLine
 10
13.84466698266078
 20
15.09144528871887
 30
0.0
 11
13.84466698266078
 21
15.14393872703908
 31
0.0
  0
LINE
  5
34DD
330
1E
100
AcDbEntity
  8
7
100
AcDbLine
 10
13.84466698266078
 20
15.14393872703908
 30
0.0
 11
13.84335464670278
 21
15.14262639108108
 31
0.0
  0
LINE
  5
34DE
330
1E
100
AcDbEntity
  8
7
100
AcDbLine
 10
13.84335464670278
 20
15.14262639108108
 30
0.0
 11
13.84335464670278
 21
15.09013295276087
 31
0.0
  0
LINE
  5
34DF
330
1E
100
AcDbEntity
  8
7
100
AcDbLine
 10
13.84466698266078
 20
14.89984423885011
 30
0.0
 11
13.84466698266078
 21
14.95233767717031
 31
0.0
  0
LINE
  5
34E0
330
1E
100
AcDbEntity
  8
7
100
AcDbLine
 10
13.84466698266078
 20
14.95233767717031
 30
0.0
 11
13.86960136586289
 21
14.95233767717031
 31
0.0
  0
LINE
  5
34E1
330
1E
100
AcDbEntity
  8
7
100
AcDbLine
 10
13.86960136586289
 20
14.95233767717031
 30
0.0
 11
13.86960136586289
 21
14.95365001312832
 31
0.0
  0
LINE
  5
34E2
330
1E
100
AcDbEntity
  8
7
100
AcDbLine
 10
11.93259349184714
 20
15.14393872703908
 30
0.0
 11
11.93259349184714
 21
15.09144528871887
 31
0.0
  0
LINE
  5
34E3
330
1E
100
AcDbEntity
  8
7
100
AcDbLine
 10
11.93259349184714
 20
15.09144528871887
 30
0.0
 11
11.90897144460304
 21
15.09144528871887
 31
0.0
  0
LINE
  5
34E4
330
1E
100
AcDbEntity
  8
7
100
AcDbLine
 10
12.57038876743769
 20
15.46414870079236
 30
0.0
 11
12.57038876743769
 21
15.41034292651414
 31
0.0
  0
LINE
  5
34E5
330
1E
100
AcDbEntity
  8
7
100
AcDbLine
 10
12.57038876743769
 20
15.41034292651414
 30
0.0
 11
13.20818404302824
 21
15.41034292651414
 31
0.0
  0
LINE
  5
34E6
330
1E
100
AcDbEntity
  8
7
100
AcDbLine
 10
12.56776409552168
 20
15.46152402887635
 30
0.0
 11
12.56776409552168
 21
15.41034292651414
 31
0.0
  0
LINE
  5
34E7
330
1E
100
AcDbEntity
  8
7
100
AcDbLine
 10
12.56776409552168
 20
15.41034292651414
 30
0.0
 11
12.57038876743769
 21
15.41034292651414
 31
0.0
  0
LINE
  5
34E8
330
1E
100
AcDbEntity
  8
7
100
AcDbLine
 10
13.20949637898624
 20
15.65312507874512
 30
0.0
 11
13.20818404302824
 21
15.65312507874512
 31
0.0
  0
LINE
  5
34E9
330
1E
100
AcDbEntity
  8
7
100
AcDbLine
 10
13.20818404302824
 20
15.65312507874512
 30
0.0
 11
13.20818404302824
 21
15.5993193044669
 31
0.0
  0
LINE
  5
34EA
330
1E
100
AcDbEntity
  8
7
100
AcDbLine
 10
13.5244570089075
 20
14.98645841207845
 30
0.0
 11
13.54414204827758
 21
14.99170775591047
 31
0.0
  0
LINE
  5
34EB
330
1E
100
AcDbEntity
  8
7
100
AcDbLine
 10
13.54414204827758
 20
14.99170775591047
 30
0.0
 11
13.55726540785764
 21
15.00745578740654
 31
0.0
  0
LINE
  5
34EC
330
1E
100
AcDbEntity
  8
7
100
AcDbLine
 10
13.55726540785764
 20
15.00745578740654
 30
0.0
 11
13.55989007977365
 21
15.02714082677661
 31
0.0
  0
LINE
  5
34ED
330
1E
100
AcDbEntity
  8
7
100
AcDbLine
 10
13.55989007977365
 20
15.02714082677661
 30
0.0
 11
13.55070372806761
 21
15.04551353018869
 31
0.0
  0
LINE
  5
34EE
330
1E
100
AcDbEntity
  8
7
100
AcDbLine
 10
13.55070372806761
 20
15.04551353018869
 30
0.0
 11
13.53495569657155
 21
15.05601221785273
 31
0.0
  0
LINE
  5
34EF
330
1E
100
AcDbEntity
  8
7
100
AcDbLine
 10
13.53495569657155
 20
15.05601221785273
 30
0.0
 11
13.51395832124346
 21
15.05601221785273
 31
0.0
  0
LINE
  5
34F0
330
1E
100
AcDbEntity
  8
7
100
AcDbLine
 10
13.51395832124346
 20
15.05601221785273
 30
0.0
 11
13.4982102897474
 21
15.04551353018869
 31
0.0
  0
LINE
  5
34F1
330
1E
100
AcDbEntity
  8
7
100
AcDbLine
 10
13.4982102897474
 20
15.04551353018869
 30
0.0
 11
13.48902393804136
 21
15.02714082677661
 31
0.0
  0
LINE
  5
34F2
330
1E
100
AcDbEntity
  8
7
100
AcDbLine
 10
13.48902393804136
 20
15.02714082677661
 30
0.0
 11
13.49164860995737
 21
15.00745578740654
 31
0.0
  0
LINE
  5
34F3
330
1E
100
AcDbEntity
  8
7
100
AcDbLine
 10
13.49164860995737
 20
15.00745578740654
 30
0.0
 11
13.50477196953742
 21
14.99170775591047
 31
0.0
  0
LINE
  5
34F4
330
1E
100
AcDbEntity
  8
7
100
AcDbLine
 10
13.50477196953742
 20
14.99170775591047
 30
0.0
 11
13.5244570089075
 21
14.98645841207845
 31
0.0
  0
LINE
  5
34F5
330
1E
100
AcDbEntity
  8
7
100
AcDbLine
 10
12.88928640523296
 20
14.98645841207845
 30
0.0
 11
12.90897144460304
 21
14.99170775591047
 31
0.0
  0
LINE
  5
34F6
330
1E
100
AcDbEntity
  8
7
100
AcDbLine
 10
12.90897144460304
 20
14.99170775591047
 30
0.0
 11
12.92209480418309
 21
15.00745578740654
 31
0.0
  0
LINE
  5
34F7
330
1E
100
AcDbEntity
  8
7
100
AcDbLine
 10
12.92209480418309
 20
15.00745578740654
 30
0.0
 11
12.9247194760991
 21
15.02714082677661
 31
0.0
  0
LINE
  5
34F8
330
1E
100
AcDbEntity
  8
7
100
AcDbLine
 10
12.9247194760991
 20
15.02714082677661
 30
0.0
 11
12.91553312439307
 21
15.04551353018869
 31
0.0
  0
LINE
  5
34F9
330
1E
100
AcDbEntity
  8
7
100
AcDbLine
 10
12.91553312439307
 20
15.04551353018869
 30
0.0
 11
12.899785092897
 21
15.05601221785273
 31
0.0
  0
LINE
  5
34FA
330
1E
100
AcDbEntity
  8
7
100
AcDbLine
 10
12.899785092897
 20
15.05601221785273
 30
0.0
 11
12.87878771756892
 21
15.05601221785273
 31
0.0
  0
LINE
  5
34FB
330
1E
100
AcDbEntity
  8
7
100
AcDbLine
 10
12.87878771756892
 20
15.05601221785273
 30
0.0
 11
12.86303968607286
 21
15.04551353018869
 31
0.0
  0
LINE
  5
34FC
330
1E
100
AcDbEntity
  8
7
100
AcDbLine
 10
12.86303968607286
 20
15.04551353018869
 30
0.0
 11
12.85385333436682
 21
15.02714082677661
 31
0.0
  0
LINE
  5
34FD
330
1E
100
AcDbEntity
  8
7
100
AcDbLine
 10
12.85385333436682
 20
15.02714082677661
 30
0.0
 11
12.85647800628283
 21
15.00745578740654
 31
0.0
  0
LINE
  5
34FE
330
1E
100
AcDbEntity
  8
7
100
AcDbLine
 10
12.85647800628283
 20
15.00745578740654
 30
0.0
 11
12.86960136586289
 21
14.99170775591047
 31
0.0
  0
LINE
  5
34FF
330
1E
100
AcDbEntity
  8
7
100
AcDbLine
 10
12.86960136586289
 20
14.99170775591047
 30
0.0
 11
12.88928640523296
 21
14.98645841207845
 31
0.0
  0
LINE
  5
3500
330
1E
100
AcDbEntity
  8
7
100
AcDbLine
 10
12.25411580155842
 20
14.98645841207845
 30
0.0
 11
12.2738008409285
 21
14.99170775591047
 31
0.0
  0
LINE
  5
3501
330
1E
100
AcDbEntity
  8
7
100
AcDbLine
 10
12.2738008409285
 20
14.99170775591047
 30
0.0
 11
12.28692420050855
 21
15.00745578740654
 31
0.0
  0
LINE
  5
3502
330
1E
100
AcDbEntity
  8
7
100
AcDbLine
 10
12.28692420050855
 20
15.00745578740654
 30
0.0
 11
12.28954887242456
 21
15.02714082677661
 31
0.0
  0
LINE
  5
3503
330
1E
100
AcDbEntity
  8
7
100
AcDbLine
 10
12.28954887242456
 20
15.02714082677661
 30
0.0
 11
12.28036252071853
 21
15.04551353018869
 31
0.0
  0
LINE
  5
3504
330
1E
100
AcDbEntity
  8
7
100
AcDbLine
 10
12.28036252071853
 20
15.04551353018869
 30
0.0
 11
12.26461448922247
 21
15.05601221785273
 31
0.0
  0
LINE
  5
3505
330
1E
100
AcDbEntity
  8
7
100
AcDbLine
 10
12.26461448922247
 20
15.05601221785273
 30
0.0
 11
12.24361711389438
 21
15.05601221785273
 31
0.0
  0
LINE
  5
3506
330
1E
100
AcDbEntity
  8
7
100
AcDbLine
 10
12.24361711389438
 20
15.05601221785273
 30
0.0
 11
12.22786908239832
 21
15.04551353018869
 31
0.0
  0
LINE
  5
3507
330
1E
100
AcDbEntity
  8
7
100
AcDbLine
 10
12.22786908239832
 20
15.04551353018869
 30
0.0
 11
12.21868273069228
 21
15.02714082677661
 31
0.0
  0
LINE
  5
3508
330
1E
100
AcDbEntity
  8
7
100
AcDbLine
 10
12.21868273069228
 20
15.02714082677661
 30
0.0
 11
12.22130740260829
 21
15.00745578740654
 31
0.0
  0
LINE
  5
3509
330
1E
100
AcDbEntity
  8
7
100
AcDbLine
 10
12.22130740260829
 20
15.00745578740654
 30
0.0
 11
12.23443076218835
 21
14.99170775591047
 31
0.0
  0
LINE
  5
350A
330
1E
100
AcDbEntity
  8
7
100
AcDbLine
 10
12.23443076218835
 20
14.99170775591047
 30
0.0
 11
12.25411580155842
 21
14.98645841207845
 31
0.0
  0
LINE
  5
350B
330
1E
100
AcDbEntity
  8
7
100
AcDbLine
 10
12.9496538593012
 20
15.41690460630417
 30
0.0
 11
12.98508693016735
 21
15.42215395013619
 31
0.0
  0
LINE
  5
350C
330
1E
100
AcDbEntity
  8
7
100
AcDbLine
 10
12.98508693016735
 20
15.42215395013619
 30
0.0
 11
13.01658299315947
 21
15.43921431759026
 31
0.0
  0
LINE
  5
350D
330
1E
100
AcDbEntity
  8
7
100
AcDbLine
 10
13.01658299315947
 20
15.43921431759026
 30
0.0
 11
13.04151737636157
 21
15.46414870079236
 31
0.0
  0
LINE
  5
350E
330
1E
100
AcDbEntity
  8
7
100
AcDbLine
 10
13.04151737636157
 20
15.46414870079236
 30
0.0
 11
13.05857774381564
 21
15.49564476378449
 31
0.0
  0
LINE
  5
350F
330
1E
100
AcDbEntity
  8
7
100
AcDbLine
 10
13.05857774381564
 20
15.49564476378449
 30
0.0
 11
13.06382708764766
 21
15.53107783465063
 31
0.0
  0
LINE
  5
3510
330
1E
100
AcDbEntity
  8
7
100
AcDbLine
 10
13.06382708764766
 20
15.53107783465063
 30
0.0
 11
13.05857774381564
 21
15.56651090551677
 31
0.0
  0
LINE
  5
3511
330
1E
100
AcDbEntity
  8
7
100
AcDbLine
 10
13.05857774381564
 20
15.56651090551677
 30
0.0
 11
13.04151737636157
 21
15.59800696850889
 31
0.0
  0
LINE
  5
3512
330
1E
100
AcDbEntity
  8
7
100
AcDbLine
 10
13.04151737636157
 20
15.59800696850889
 30
0.0
 11
13.01658299315947
 21
15.622941351711
 31
0.0
  0
LINE
  5
3513
330
1E
100
AcDbEntity
  8
7
100
AcDbLine
 10
13.01658299315947
 20
15.622941351711
 30
0.0
 11
12.98508693016735
 21
15.64000171916506
 31
0.0
  0
LINE
  5
3514
330
1E
100
AcDbEntity
  8
7
100
AcDbLine
 10
12.98508693016735
 20
15.64000171916506
 30
0.0
 11
12.9496538593012
 21
15.64525106299709
 31
0.0
  0
LINE
  5
3515
330
1E
100
AcDbEntity
  8
7
100
AcDbLine
 10
12.9496538593012
 20
15.41821694226218
 30
0.0
 11
12.9496538593012
 21
15.41690460630417
 31
0.0
  0
LINE
  5
3516
330
1E
100
AcDbEntity
  8
7
100
AcDbLine
 10
12.9496538593012
 20
15.41690460630417
 30
0.0
 11
12.82891895116472
 21
15.41690460630417
 31
0.0
  0
LINE
  5
3517
330
1E
100
AcDbEntity
  8
7
100
AcDbLine
 10
12.82891895116472
 20
15.64525106299709
 30
0.0
 11
12.79348588029858
 21
15.64000171916506
 31
0.0
  0
LINE
  5
3518
330
1E
100
AcDbEntity
  8
7
100
AcDbLine
 10
12.79348588029858
 20
15.64000171916506
 30
0.0
 11
12.76198981730645
 21
15.622941351711
 31
0.0
  0
LINE
  5
3519
330
1E
100
AcDbEntity
  8
7
100
AcDbLine
 10
12.76198981730645
 20
15.622941351711
 30
0.0
 11
12.73705543410435
 21
15.59800696850889
 31
0.0
  0
LINE
  5
351A
330
1E
100
AcDbEntity
  8
7
100
AcDbLine
 10
12.73705543410435
 20
15.59800696850889
 30
0.0
 11
12.71999506665029
 21
15.56651090551677
 31
0.0
  0
LINE
  5
351B
330
1E
100
AcDbEntity
  8
7
100
AcDbLine
 10
12.71999506665029
 20
15.56651090551677
 30
0.0
 11
12.71474572281827
 21
15.53107783465063
 31
0.0
  0
LINE
  5
351C
330
1E
100
AcDbEntity
  8
7
100
AcDbLine
 10
12.71474572281827
 20
15.53107783465063
 30
0.0
 11
12.71999506665029
 21
15.49564476378449
 31
0.0
  0
LINE
  5
351D
330
1E
100
AcDbEntity
  8
7
100
AcDbLine
 10
12.71999506665029
 20
15.49564476378449
 30
0.0
 11
12.73705543410435
 21
15.46414870079236
 31
0.0
  0
LINE
  5
351E
330
1E
100
AcDbEntity
  8
7
100
AcDbLine
 10
12.73705543410435
 20
15.46414870079236
 30
0.0
 11
12.76198981730645
 21
15.43921431759026
 31
0.0
  0
LINE
  5
351F
330
1E
100
AcDbEntity
  8
7
100
AcDbLine
 10
12.76198981730645
 20
15.43921431759026
 30
0.0
 11
12.79348588029858
 21
15.42215395013619
 31
0.0
  0
LINE
  5
3520
330
1E
100
AcDbEntity
  8
7
100
AcDbLine
 10
12.79348588029858
 20
15.42215395013619
 30
0.0
 11
12.82891895116472
 21
15.41690460630417
 31
0.0
  0
LINE
  5
3521
330
1E
100
AcDbEntity
  8
7
100
AcDbLine
 10
12.21868273069228
 20
15.02714082677661
 30
0.0
 11
12.22130740260829
 21
15.00745578740654
 31
0.0
  0
LINE
  5
3522
330
1E
100
AcDbEntity
  8
7
100
AcDbLine
 10
12.22130740260829
 20
15.00745578740654
 30
0.0
 11
12.23443076218835
 21
14.99170775591047
 31
0.0
  0
LINE
  5
3523
330
1E
100
AcDbEntity
  8
7
100
AcDbLine
 10
12.23443076218835
 20
14.99170775591047
 30
0.0
 11
12.25411580155842
 21
14.98645841207845
 31
0.0
  0
LINE
  5
3524
330
1E
100
AcDbEntity
  8
7
100
AcDbLine
 10
12.25411580155842
 20
14.98645841207845
 30
0.0
 11
12.2738008409285
 21
14.99170775591047
 31
0.0
  0
LINE
  5
3525
330
1E
100
AcDbEntity
  8
7
100
AcDbLine
 10
12.2738008409285
 20
14.99170775591047
 30
0.0
 11
12.28692420050855
 21
15.00745578740654
 31
0.0
  0
LINE
  5
3526
330
1E
100
AcDbEntity
  8
7
100
AcDbLine
 10
12.28692420050855
 20
15.00745578740654
 30
0.0
 11
12.28954887242456
 21
15.02714082677661
 31
0.0
  0
LINE
  5
3527
330
1E
100
AcDbEntity
  8
7
100
AcDbLine
 10
12.28954887242456
 20
15.02714082677661
 30
0.0
 11
12.28036252071853
 21
15.04551353018869
 31
0.0
  0
LINE
  5
3528
330
1E
100
AcDbEntity
  8
7
100
AcDbLine
 10
12.28036252071853
 20
15.04551353018869
 30
0.0
 11
12.26461448922247
 21
15.05601221785273
 31
0.0
  0
LINE
  5
3529
330
1E
100
AcDbEntity
  8
7
100
AcDbLine
 10
12.26461448922247
 20
15.05601221785273
 30
0.0
 11
12.24361711389438
 21
15.05601221785273
 31
0.0
  0
LINE
  5
352A
330
1E
100
AcDbEntity
  8
7
100
AcDbLine
 10
12.24361711389438
 20
15.05601221785273
 30
0.0
 11
12.22786908239832
 21
15.04551353018869
 31
0.0
  0
LINE
  5
352B
330
1E
100
AcDbEntity
  8
7
100
AcDbLine
 10
12.22786908239832
 20
15.04551353018869
 30
0.0
 11
12.21868273069228
 21
15.02714082677661
 31
0.0
  0
LINE
  5
352C
330
1E
100
AcDbEntity
  8
7
100
AcDbLine
 10
12.86303968607286
 20
15.04551353018869
 30
0.0
 11
12.85385333436682
 21
15.02714082677661
 31
0.0
  0
LINE
  5
352D
330
1E
100
AcDbEntity
  8
7
100
AcDbLine
 10
12.85385333436682
 20
15.02714082677661
 30
0.0
 11
12.85647800628283
 21
15.00745578740654
 31
0.0
  0
LINE
  5
352E
330
1E
100
AcDbEntity
  8
7
100
AcDbLine
 10
12.85647800628283
 20
15.00745578740654
 30
0.0
 11
12.86960136586289
 21
14.99170775591047
 31
0.0
  0
LINE
  5
352F
330
1E
100
AcDbEntity
  8
7
100
AcDbLine
 10
12.86960136586289
 20
14.99170775591047
 30
0.0
 11
12.88928640523296
 21
14.98645841207845
 31
0.0
  0
LINE
  5
3530
330
1E
100
AcDbEntity
  8
7
100
AcDbLine
 10
12.88928640523296
 20
14.98645841207845
 30
0.0
 11
12.90897144460304
 21
14.99170775591047
 31
0.0
  0
LINE
  5
3531
330
1E
100
AcDbEntity
  8
7
100
AcDbLine
 10
12.90897144460304
 20
14.99170775591047
 30
0.0
 11
12.92209480418309
 21
15.00745578740654
 31
0.0
  0
LINE
  5
3532
330
1E
100
AcDbEntity
  8
7
100
AcDbLine
 10
12.92209480418309
 20
15.00745578740654
 30
0.0
 11
12.9247194760991
 21
15.02714082677661
 31
0.0
  0
LINE
  5
3533
330
1E
100
AcDbEntity
  8
7
100
AcDbLine
 10
12.9247194760991
 20
15.02714082677661
 30
0.0
 11
12.91553312439307
 21
15.04551353018869
 31
0.0
  0
LINE
  5
3534
330
1E
100
AcDbEntity
  8
7
100
AcDbLine
 10
12.91553312439307
 20
15.04551353018869
 30
0.0
 11
12.899785092897
 21
15.05601221785273
 31
0.0
  0
LINE
  5
3535
330
1E
100
AcDbEntity
  8
7
100
AcDbLine
 10
12.899785092897
 20
15.05601221785273
 30
0.0
 11
12.87878771756892
 21
15.05601221785273
 31
0.0
  0
LINE
  5
3536
330
1E
100
AcDbEntity
  8
7
100
AcDbLine
 10
12.87878771756892
 20
15.05601221785273
 30
0.0
 11
12.86303968607286
 21
15.04551353018869
 31
0.0
  0
LINE
  5
3537
330
1E
100
AcDbEntity
  8
7
100
AcDbLine
 10
13.51395832124346
 20
15.05601221785273
 30
0.0
 11
13.4982102897474
 21
15.04551353018869
 31
0.0
  0
LINE
  5
3538
330
1E
100
AcDbEntity
  8
7
100
AcDbLine
 10
13.4982102897474
 20
15.04551353018869
 30
0.0
 11
13.48902393804136
 21
15.02714082677661
 31
0.0
  0
LINE
  5
3539
330
1E
100
AcDbEntity
  8
7
100
AcDbLine
 10
13.48902393804136
 20
15.02714082677661
 30
0.0
 11
13.49164860995737
 21
15.00745578740654
 31
0.0
  0
LINE
  5
353A
330
1E
100
AcDbEntity
  8
7
100
AcDbLine
 10
13.49164860995737
 20
15.00745578740654
 30
0.0
 11
13.50477196953742
 21
14.99170775591047
 31
0.0
  0
LINE
  5
353B
330
1E
100
AcDbEntity
  8
7
100
AcDbLine
 10
13.50477196953742
 20
14.99170775591047
 30
0.0
 11
13.5244570089075
 21
14.98645841207845
 31
0.0
  0
LINE
  5
353C
330
1E
100
AcDbEntity
  8
7
100
AcDbLine
 10
13.5244570089075
 20
14.98645841207845
 30
0.0
 11
13.54414204827758
 21
14.99170775591047
 31
0.0
  0
LINE
  5
353D
330
1E
100
AcDbEntity
  8
7
100
AcDbLine
 10
13.54414204827758
 20
14.99170775591047
 30
0.0
 11
13.55726540785764
 21
15.00745578740654
 31
0.0
  0
LINE
  5
353E
330
1E
100
AcDbEntity
  8
7
100
AcDbLine
 10
13.55726540785764
 20
15.00745578740654
 30
0.0
 11
13.55989007977365
 21
15.02714082677661
 31
0.0
  0
LINE
  5
353F
330
1E
100
AcDbEntity
  8
7
100
AcDbLine
 10
13.55989007977365
 20
15.02714082677661
 30
0.0
 11
13.55070372806761
 21
15.04551353018869
 31
0.0
  0
LINE
  5
3540
330
1E
100
AcDbEntity
  8
7
100
AcDbLine
 10
13.55070372806761
 20
15.04551353018869
 30
0.0
 11
13.53495569657155
 21
15.05601221785273
 31
0.0
  0
LINE
  5
3541
330
1E
100
AcDbEntity
  8
7
100
AcDbLine
 10
13.53495569657155
 20
15.05601221785273
 30
0.0
 11
13.51395832124346
 21
15.05601221785273
 31
0.0
  0
LINE
  5
3542
330
1E
100
AcDbEntity
  8
7
100
AcDbLine
 10
12.75936514539044
 20
15.55994922572675
 30
0.0
 11
12.75411580155842
 21
15.53107783465063
 31
0.0
  0
LINE
  5
3543
330
1E
100
AcDbEntity
  8
7
100
AcDbLine
 10
12.75411580155842
 20
15.53107783465063
 30
0.0
 11
12.75936514539044
 21
15.50220644357452
 31
0.0
  0
LINE
  5
3544
330
1E
100
AcDbEntity
  8
7
100
AcDbLine
 10
12.75936514539044
 20
15.50220644357452
 30
0.0
 11
12.77642551284451
 21
15.47858439633042
 31
0.0
  0
LINE
  5
3545
330
1E
100
AcDbEntity
  8
7
100
AcDbLine
 10
12.77642551284451
 20
15.47858439633042
 30
0.0
 11
12.8000475600886
 21
15.46152402887635
 31
0.0
  0
LINE
  5
3546
330
1E
100
AcDbEntity
  8
7
100
AcDbLine
 10
12.8000475600886
 20
15.46152402887635
 30
0.0
 11
12.82891895116472
 21
15.45627468504433
 31
0.0
  0
LINE
  5
3547
330
1E
100
AcDbEntity
  8
7
100
AcDbLine
 10
12.82891895116472
 20
15.60588098425693
 30
0.0
 11
12.8000475600886
 21
15.60063164042491
 31
0.0
  0
LINE
  5
3548
330
1E
100
AcDbEntity
  8
7
100
AcDbLine
 10
12.8000475600886
 20
15.60063164042491
 30
0.0
 11
12.77642551284451
 21
15.58357127297084
 31
0.0
  0
LINE
  5
3549
330
1E
100
AcDbEntity
  8
7
100
AcDbLine
 10
12.77642551284451
 20
15.58357127297084
 30
0.0
 11
12.75936514539044
 21
15.55994922572675
 31
0.0
  0
LINE
  5
354A
330
1E
100
AcDbEntity
  8
7
100
AcDbLine
 10
13.01920766507548
 20
15.50220644357452
 30
0.0
 11
13.0244570089075
 21
15.53107783465063
 31
0.0
  0
LINE
  5
354B
330
1E
100
AcDbEntity
  8
7
100
AcDbLine
 10
13.0244570089075
 20
15.53107783465063
 30
0.0
 11
13.01920766507548
 21
15.55994922572675
 31
0.0
  0
LINE
  5
354C
330
1E
100
AcDbEntity
  8
7
100
AcDbLine
 10
13.01920766507548
 20
15.55994922572675
 30
0.0
 11
13.00214729762141
 21
15.58357127297084
 31
0.0
  0
LINE
  5
354D
330
1E
100
AcDbEntity
  8
7
100
AcDbLine
 10
13.00214729762141
 20
15.58357127297084
 30
0.0
 11
12.97852525037732
 21
15.60063164042491
 31
0.0
  0
LINE
  5
354E
330
1E
100
AcDbEntity
  8
7
100
AcDbLine
 10
12.97852525037732
 20
15.60063164042491
 30
0.0
 11
12.9496538593012
 21
15.60588098425693
 31
0.0
  0
LINE
  5
354F
330
1E
100
AcDbEntity
  8
7
100
AcDbLine
 10
12.9496538593012
 20
15.45627468504433
 30
0.0
 11
12.97852525037732
 21
15.46152402887635
 31
0.0
  0
LINE
  5
3550
330
1E
100
AcDbEntity
  8
7
100
AcDbLine
 10
12.97852525037732
 20
15.46152402887635
 30
0.0
 11
13.00214729762141
 21
15.47858439633042
 31
0.0
  0
LINE
  5
3551
330
1E
100
AcDbEntity
  8
7
100
AcDbLine
 10
13.00214729762141
 20
15.47858439633042
 30
0.0
 11
13.01920766507548
 21
15.50220644357452
 31
0.0
  0
LINE
  5
3552
330
1E
100
AcDbEntity
  8
7
100
AcDbLine
 10
12.72130740260829
 20
15.56651090551677
 30
0.0
 11
12.71605805877627
 21
15.53107783465063
 31
0.0
  0
LINE
  5
3553
330
1E
100
AcDbEntity
  8
7
100
AcDbLine
 10
12.71605805877627
 20
15.53107783465063
 30
0.0
 11
12.72130740260829
 21
15.49564476378449
 31
0.0
  0
LINE
  5
3554
330
1E
100
AcDbEntity
  8
7
100
AcDbLine
 10
12.72130740260829
 20
15.49564476378449
 30
0.0
 11
12.73705543410435
 21
15.46414870079236
 31
0.0
  0
LINE
  5
3555
330
1E
100
AcDbEntity
  8
7
100
AcDbLine
 10
12.73705543410435
 20
15.46414870079236
 30
0.0
 11
12.76198981730645
 21
15.43921431759026
 31
0.0
  0
LINE
  5
3556
330
1E
100
AcDbEntity
  8
7
100
AcDbLine
 10
12.76198981730645
 20
15.43921431759026
 30
0.0
 11
12.79348588029858
 21
15.4234662860942
 31
0.0
  0
LINE
  5
3557
330
1E
100
AcDbEntity
  8
7
100
AcDbLine
 10
12.79348588029858
 20
15.4234662860942
 30
0.0
 11
12.82891895116472
 21
15.41821694226218
 31
0.0
  0
LINE
  5
3558
330
1E
100
AcDbEntity
  8
7
100
AcDbLine
 10
12.82891895116472
 20
15.64393872703908
 30
0.0
 11
12.79348588029858
 21
15.63868938320706
 31
0.0
  0
LINE
  5
3559
330
1E
100
AcDbEntity
  8
7
100
AcDbLine
 10
12.79348588029858
 20
15.63868938320706
 30
0.0
 11
12.76198981730645
 21
15.622941351711
 31
0.0
  0
LINE
  5
355A
330
1E
100
AcDbEntity
  8
7
100
AcDbLine
 10
12.76198981730645
 20
15.622941351711
 30
0.0
 11
12.73705543410435
 21
15.59800696850889
 31
0.0
  0
LINE
  5
355B
330
1E
100
AcDbEntity
  8
7
100
AcDbLine
 10
12.73705543410435
 20
15.59800696850889
 30
0.0
 11
12.72130740260829
 21
15.56651090551677
 31
0.0
  0
LINE
  5
355C
330
1E
100
AcDbEntity
  8
7
100
AcDbLine
 10
13.05726540785764
 20
15.56651090551677
 30
0.0
 11
13.04151737636157
 21
15.59800696850889
 31
0.0
  0
LINE
  5
355D
330
1E
100
AcDbEntity
  8
7
100
AcDbLine
 10
13.04151737636157
 20
15.59800696850889
 30
0.0
 11
13.01658299315947
 21
15.622941351711
 31
0.0
  0
LINE
  5
355E
330
1E
100
AcDbEntity
  8
7
100
AcDbLine
 10
13.01658299315947
 20
15.622941351711
 30
0.0
 11
12.98508693016735
 21
15.63868938320706
 31
0.0
  0
LINE
  5
355F
330
1E
100
AcDbEntity
  8
7
100
AcDbLine
 10
12.98508693016735
 20
15.63868938320706
 30
0.0
 11
12.9496538593012
 21
15.64393872703908
 31
0.0
  0
LINE
  5
3560
330
1E
100
AcDbEntity
  8
7
100
AcDbLine
 10
12.9496538593012
 20
15.41821694226218
 30
0.0
 11
12.98508693016735
 21
15.4234662860942
 31
0.0
  0
LINE
  5
3561
330
1E
100
AcDbEntity
  8
7
100
AcDbLine
 10
12.98508693016735
 20
15.4234662860942
 30
0.0
 11
13.01658299315947
 21
15.43921431759026
 31
0.0
  0
LINE
  5
3562
330
1E
100
AcDbEntity
  8
7
100
AcDbLine
 10
13.01658299315947
 20
15.43921431759026
 30
0.0
 11
13.04151737636157
 21
15.46414870079236
 31
0.0
  0
LINE
  5
3563
330
1E
100
AcDbEntity
  8
7
100
AcDbLine
 10
13.04151737636157
 20
15.46414870079236
 30
0.0
 11
13.05726540785764
 21
15.49564476378449
 31
0.0
  0
LINE
  5
3564
330
1E
100
AcDbEntity
  8
7
100
AcDbLine
 10
13.05726540785764
 20
15.49564476378449
 30
0.0
 11
13.06251475168966
 21
15.53107783465063
 31
0.0
  0
LINE
  5
3565
330
1E
100
AcDbEntity
  8
7
100
AcDbLine
 10
13.06251475168966
 20
15.53107783465063
 30
0.0
 11
13.05726540785764
 21
15.56651090551677
 31
0.0
  0
LINE
  5
3566
330
1E
100
AcDbEntity
  8
7
100
AcDbLine
 10
13.55989007977365
 20
13.60194397638291
 30
0.0
 11
13.55070372806761
 21
13.62031667979499
 31
0.0
  0
LINE
  5
3567
330
1E
100
AcDbEntity
  8
7
100
AcDbLine
 10
13.55070372806761
 20
13.62031667979499
 30
0.0
 11
13.53495569657155
 21
13.63081536745903
 31
0.0
  0
LINE
  5
3568
330
1E
100
AcDbEntity
  8
7
100
AcDbLine
 10
13.53495569657155
 20
13.63081536745903
 30
0.0
 11
13.51395832124346
 21
13.63081536745903
 31
0.0
  0
LINE
  5
3569
330
1E
100
AcDbEntity
  8
7
100
AcDbLine
 10
13.51395832124346
 20
13.63081536745903
 30
0.0
 11
13.4982102897474
 21
13.62031667979499
 31
0.0
  0
LINE
  5
356A
330
1E
100
AcDbEntity
  8
7
100
AcDbLine
 10
13.4982102897474
 20
13.62031667979499
 30
0.0
 11
13.48902393804136
 21
13.60194397638291
 31
0.0
  0
LINE
  5
356B
330
1E
100
AcDbEntity
  8
7
100
AcDbLine
 10
13.48902393804136
 20
13.60194397638291
 30
0.0
 11
13.49164860995737
 21
13.58225893701283
 31
0.0
  0
LINE
  5
356C
330
1E
100
AcDbEntity
  8
7
100
AcDbLine
 10
13.49164860995737
 20
13.58225893701283
 30
0.0
 11
13.50477196953742
 21
13.56651090551677
 31
0.0
  0
LINE
  5
356D
330
1E
100
AcDbEntity
  8
7
100
AcDbLine
 10
13.50477196953742
 20
13.56651090551677
 30
0.0
 11
13.5244570089075
 21
13.56126156168475
 31
0.0
  0
LINE
  5
356E
330
1E
100
AcDbEntity
  8
7
100
AcDbLine
 10
13.5244570089075
 20
13.56126156168475
 30
0.0
 11
13.54414204827758
 21
13.56651090551677
 31
0.0
  0
LINE
  5
356F
330
1E
100
AcDbEntity
  8
7
100
AcDbLine
 10
13.54414204827758
 20
13.56651090551677
 30
0.0
 11
13.55726540785764
 21
13.58225893701283
 31
0.0
  0
LINE
  5
3570
330
1E
100
AcDbEntity
  8
7
100
AcDbLine
 10
13.55726540785764
 20
13.58225893701283
 30
0.0
 11
13.55989007977365
 21
13.60194397638291
 31
0.0
  0
LINE
  5
3571
330
1E
100
AcDbEntity
  8
7
100
AcDbLine
 10
12.92209480418309
 20
13.58225893701283
 30
0.0
 11
12.9247194760991
 21
13.60194397638291
 31
0.0
  0
LINE
  5
3572
330
1E
100
AcDbEntity
  8
7
100
AcDbLine
 10
12.9247194760991
 20
13.60194397638291
 30
0.0
 11
12.91553312439307
 21
13.62031667979499
 31
0.0
  0
LINE
  5
3573
330
1E
100
AcDbEntity
  8
7
100
AcDbLine
 10
12.91553312439307
 20
13.62031667979499
 30
0.0
 11
12.899785092897
 21
13.63081536745903
 31
0.0
  0
LINE
  5
3574
330
1E
100
AcDbEntity
  8
7
100
AcDbLine
 10
12.899785092897
 20
13.63081536745903
 30
0.0
 11
12.87878771756892
 21
13.63081536745903
 31
0.0
  0
LINE
  5
3575
330
1E
100
AcDbEntity
  8
7
100
AcDbLine
 10
12.87878771756892
 20
13.63081536745903
 30
0.0
 11
12.86303968607286
 21
13.62031667979499
 31
0.0
  0
LINE
  5
3576
330
1E
100
AcDbEntity
  8
7
100
AcDbLine
 10
12.86303968607286
 20
13.62031667979499
 30
0.0
 11
12.85385333436682
 21
13.60194397638291
 31
0.0
  0
LINE
  5
3577
330
1E
100
AcDbEntity
  8
7
100
AcDbLine
 10
12.85385333436682
 20
13.60194397638291
 30
0.0
 11
12.85647800628283
 21
13.58225893701283
 31
0.0
  0
LINE
  5
3578
330
1E
100
AcDbEntity
  8
7
100
AcDbLine
 10
12.85647800628283
 20
13.58225893701283
 30
0.0
 11
12.86960136586289
 21
13.56651090551677
 31
0.0
  0
LINE
  5
3579
330
1E
100
AcDbEntity
  8
7
100
AcDbLine
 10
12.86960136586289
 20
13.56651090551677
 30
0.0
 11
12.88928640523296
 21
13.56126156168475
 31
0.0
  0
LINE
  5
357A
330
1E
100
AcDbEntity
  8
7
100
AcDbLine
 10
12.88928640523296
 20
13.56126156168475
 30
0.0
 11
12.90897144460304
 21
13.56651090551677
 31
0.0
  0
LINE
  5
357B
330
1E
100
AcDbEntity
  8
7
100
AcDbLine
 10
12.90897144460304
 20
13.56651090551677
 30
0.0
 11
12.92209480418309
 21
13.58225893701283
 31
0.0
  0
LINE
  5
357C
330
1E
100
AcDbEntity
  8
7
100
AcDbLine
 10
12.2738008409285
 20
13.56651090551677
 30
0.0
 11
12.28692420050855
 21
13.58225893701283
 31
0.0
  0
LINE
  5
357D
330
1E
100
AcDbEntity
  8
7
100
AcDbLine
 10
12.28692420050855
 20
13.58225893701283
 30
0.0
 11
12.28954887242456
 21
13.60194397638291
 31
0.0
  0
LINE
  5
357E
330
1E
100
AcDbEntity
  8
7
100
AcDbLine
 10
12.28954887242456
 20
13.60194397638291
 30
0.0
 11
12.28036252071853
 21
13.62031667979499
 31
0.0
  0
LINE
  5
357F
330
1E
100
AcDbEntity
  8
7
100
AcDbLine
 10
12.28036252071853
 20
13.62031667979499
 30
0.0
 11
12.26461448922247
 21
13.63081536745903
 31
0.0
  0
LINE
  5
3580
330
1E
100
AcDbEntity
  8
7
100
AcDbLine
 10
12.26461448922247
 20
13.63081536745903
 30
0.0
 11
12.24361711389438
 21
13.63081536745903
 31
0.0
  0
LINE
  5
3581
330
1E
100
AcDbEntity
  8
7
100
AcDbLine
 10
12.24361711389438
 20
13.63081536745903
 30
0.0
 11
12.22786908239832
 21
13.62031667979499
 31
0.0
  0
LINE
  5
3582
330
1E
100
AcDbEntity
  8
7
100
AcDbLine
 10
12.22786908239832
 20
13.62031667979499
 30
0.0
 11
12.21868273069228
 21
13.60194397638291
 31
0.0
  0
LINE
  5
3583
330
1E
100
AcDbEntity
  8
7
100
AcDbLine
 10
12.21868273069228
 20
13.60194397638291
 30
0.0
 11
12.22130740260829
 21
13.58225893701283
 31
0.0
  0
LINE
  5
3584
330
1E
100
AcDbEntity
  8
7
100
AcDbLine
 10
12.22130740260829
 20
13.58225893701283
 30
0.0
 11
12.23443076218835
 21
13.56651090551677
 31
0.0
  0
LINE
  5
3585
330
1E
100
AcDbEntity
  8
7
100
AcDbLine
 10
12.23443076218835
 20
13.56651090551677
 30
0.0
 11
12.25411580155842
 21
13.56126156168475
 31
0.0
  0
LINE
  5
3586
330
1E
100
AcDbEntity
  8
7
100
AcDbLine
 10
11.90897144460304
 20
13.52845316273462
 30
0.0
 11
11.93521816376315
 21
13.52845316273462
 31
0.0
  0
LINE
  5
3587
330
1E
100
AcDbEntity
  8
7
100
AcDbLine
 10
11.93521816376315
 20
13.52845316273462
 30
0.0
 11
11.93521816376315
 21
13.4746473884564
 31
0.0
  0
LINE
  5
3588
330
1E
100
AcDbEntity
  8
7
100
AcDbLine
 10
12.26461448922247
 20
13.63081536745903
 30
0.0
 11
12.24361711389438
 21
13.63081536745903
 31
0.0
  0
LINE
  5
3589
330
1E
100
AcDbEntity
  8
7
100
AcDbLine
 10
12.24361711389438
 20
13.63081536745903
 30
0.0
 11
12.22786908239832
 21
13.62031667979499
 31
0.0
  0
LINE
  5
358A
330
1E
100
AcDbEntity
  8
7
100
AcDbLine
 10
12.22786908239832
 20
13.62031667979499
 30
0.0
 11
12.21868273069228
 21
13.60194397638291
 31
0.0
  0
LINE
  5
358B
330
1E
100
AcDbEntity
  8
7
100
AcDbLine
 10
12.21868273069228
 20
13.60194397638291
 30
0.0
 11
12.22130740260829
 21
13.58225893701283
 31
0.0
  0
LINE
  5
358C
330
1E
100
AcDbEntity
  8
7
100
AcDbLine
 10
12.22130740260829
 20
13.58225893701283
 30
0.0
 11
12.23443076218835
 21
13.56651090551677
 31
0.0
  0
LINE
  5
358D
330
1E
100
AcDbEntity
  8
7
100
AcDbLine
 10
12.23443076218835
 20
13.56651090551677
 30
0.0
 11
12.25411580155842
 21
13.56126156168475
 31
0.0
  0
LINE
  5
358E
330
1E
100
AcDbEntity
  8
7
100
AcDbLine
 10
12.25411580155842
 20
13.56126156168475
 30
0.0
 11
12.2738008409285
 21
13.56651090551677
 31
0.0
  0
LINE
  5
358F
330
1E
100
AcDbEntity
  8
7
100
AcDbLine
 10
12.2738008409285
 20
13.56651090551677
 30
0.0
 11
12.28692420050855
 21
13.58225893701283
 31
0.0
  0
LINE
  5
3590
330
1E
100
AcDbEntity
  8
7
100
AcDbLine
 10
12.28692420050855
 20
13.58225893701283
 30
0.0
 11
12.28954887242456
 21
13.60194397638291
 31
0.0
  0
LINE
  5
3591
330
1E
100
AcDbEntity
  8
7
100
AcDbLine
 10
12.28954887242456
 20
13.60194397638291
 30
0.0
 11
12.28036252071853
 21
13.62031667979499
 31
0.0
  0
LINE
  5
3592
330
1E
100
AcDbEntity
  8
7
100
AcDbLine
 10
12.28036252071853
 20
13.62031667979499
 30
0.0
 11
12.26461448922247
 21
13.63081536745903
 31
0.0
  0
LINE
  5
3593
330
1E
100
AcDbEntity
  8
7
100
AcDbLine
 10
12.91553312439307
 20
13.62031667979499
 30
0.0
 11
12.899785092897
 21
13.63081536745903
 31
0.0
  0
LINE
  5
3594
330
1E
100
AcDbEntity
  8
7
100
AcDbLine
 10
12.899785092897
 20
13.63081536745903
 30
0.0
 11
12.87878771756892
 21
13.63081536745903
 31
0.0
  0
LINE
  5
3595
330
1E
100
AcDbEntity
  8
7
100
AcDbLine
 10
12.87878771756892
 20
13.63081536745903
 30
0.0
 11
12.86303968607286
 21
13.62031667979499
 31
0.0
  0
LINE
  5
3596
330
1E
100
AcDbEntity
  8
7
100
AcDbLine
 10
12.86303968607286
 20
13.62031667979499
 30
0.0
 11
12.85385333436682
 21
13.60194397638291
 31
0.0
  0
LINE
  5
3597
330
1E
100
AcDbEntity
  8
7
100
AcDbLine
 10
12.85385333436682
 20
13.60194397638291
 30
0.0
 11
12.85647800628283
 21
13.58225893701283
 31
0.0
  0
LINE
  5
3598
330
1E
100
AcDbEntity
  8
7
100
AcDbLine
 10
12.85647800628283
 20
13.58225893701283
 30
0.0
 11
12.86960136586289
 21
13.56651090551677
 31
0.0
  0
LINE
  5
3599
330
1E
100
AcDbEntity
  8
7
100
AcDbLine
 10
12.86960136586289
 20
13.56651090551677
 30
0.0
 11
12.88928640523296
 21
13.56126156168475
 31
0.0
  0
LINE
  5
359A
330
1E
100
AcDbEntity
  8
7
100
AcDbLine
 10
12.88928640523296
 20
13.56126156168475
 30
0.0
 11
12.90897144460304
 21
13.56651090551677
 31
0.0
  0
LINE
  5
359B
330
1E
100
AcDbEntity
  8
7
100
AcDbLine
 10
12.90897144460304
 20
13.56651090551677
 30
0.0
 11
12.92209480418309
 21
13.58225893701283
 31
0.0
  0
LINE
  5
359C
330
1E
100
AcDbEntity
  8
7
100
AcDbLine
 10
12.92209480418309
 20
13.58225893701283
 30
0.0
 11
12.9247194760991
 21
13.60194397638291
 31
0.0
  0
LINE
  5
359D
330
1E
100
AcDbEntity
  8
7
100
AcDbLine
 10
12.9247194760991
 20
13.60194397638291
 30
0.0
 11
12.91553312439307
 21
13.62031667979499
 31
0.0
  0
LINE
  5
359E
330
1E
100
AcDbEntity
  8
7
100
AcDbLine
 10
13.55989007977365
 20
13.60194397638291
 30
0.0
 11
13.55070372806761
 21
13.62031667979499
 31
0.0
  0
LINE
  5
359F
330
1E
100
AcDbEntity
  8
7
100
AcDbLine
 10
13.55070372806761
 20
13.62031667979499
 30
0.0
 11
13.53495569657155
 21
13.63081536745903
 31
0.0
  0
LINE
  5
35A0
330
1E
100
AcDbEntity
  8
7
100
AcDbLine
 10
13.53495569657155
 20
13.63081536745903
 30
0.0
 11
13.51395832124346
 21
13.63081536745903
 31
0.0
  0
LINE
  5
35A1
330
1E
100
AcDbEntity
  8
7
100
AcDbLine
 10
13.51395832124346
 20
13.63081536745903
 30
0.0
 11
13.4982102897474
 21
13.62031667979499
 31
0.0
  0
LINE
  5
35A2
330
1E
100
AcDbEntity
  8
7
100
AcDbLine
 10
13.4982102897474
 20
13.62031667979499
 30
0.0
 11
13.48902393804136
 21
13.60194397638291
 31
0.0
  0
LINE
  5
35A3
330
1E
100
AcDbEntity
  8
7
100
AcDbLine
 10
13.48902393804136
 20
13.60194397638291
 30
0.0
 11
13.49164860995737
 21
13.58225893701283
 31
0.0
  0
LINE
  5
35A4
330
1E
100
AcDbEntity
  8
7
100
AcDbLine
 10
13.49164860995737
 20
13.58225893701283
 30
0.0
 11
13.50477196953742
 21
13.56651090551677
 31
0.0
  0
LINE
  5
35A5
330
1E
100
AcDbEntity
  8
7
100
AcDbLine
 10
13.50477196953742
 20
13.56651090551677
 30
0.0
 11
13.5244570089075
 21
13.56126156168475
 31
0.0
  0
LINE
  5
35A6
330
1E
100
AcDbEntity
  8
7
100
AcDbLine
 10
13.5244570089075
 20
13.56126156168475
 30
0.0
 11
13.54414204827758
 21
13.56651090551677
 31
0.0
  0
LINE
  5
35A7
330
1E
100
AcDbEntity
  8
7
100
AcDbLine
 10
13.54414204827758
 20
13.56651090551677
 30
0.0
 11
13.55726540785764
 21
13.58225893701283
 31
0.0
  0
LINE
  5
35A8
330
1E
100
AcDbEntity
  8
7
100
AcDbLine
 10
13.55726540785764
 20
13.58225893701283
 30
0.0
 11
13.55989007977365
 21
13.60194397638291
 31
0.0
  0
LINE
  5
35A9
330
1E
100
AcDbEntity
  8
7
100
AcDbLine
 10
12.97721291441932
 20
13.36441116798396
 30
0.0
 11
12.97721291441932
 21
13.32635342520181
 31
0.0
  0
LINE
  5
35AA
330
1E
100
AcDbEntity
  8
7
100
AcDbLine
 10
12.97721291441932
 20
13.32635342520181
 30
0.0
 11
12.80135989604661
 21
13.32635342520181
 31
0.0
  0
LINE
  5
35AB
330
1E
100
AcDbEntity
  8
7
100
AcDbLine
 10
13.86960136586289
 20
13.66362376640916
 30
0.0
 11
13.86960136586289
 21
13.52845316273462
 31
0.0
  0
LINE
  5
35AC
330
1E
100
AcDbEntity
  8
7
100
AcDbLine
 10
13.86960136586289
 20
13.52845316273462
 30
0.0
 11
13.86960136586289
 21
13.52582849081861
 31
0.0
  0
LINE
  5
35AD
330
1E
100
AcDbEntity
  8
7
100
AcDbLine
 10
12.00870897741144
 20
12.63868938320706
 30
0.0
 11
12.00870897741144
 21
12.64000171916507
 31
0.0
  0
LINE
  5
35AE
330
1E
100
AcDbEntity
  8
7
100
AcDbLine
 10
12.00870897741144
 20
12.64000171916507
 30
0.0
 11
12.00870897741144
 21
12.70430618110732
 31
0.0
  0
LINE
  5
35AF
330
1E
100
AcDbEntity
  8
7
100
AcDbLine
 10
12.76198981730645
 20
12.64000171916507
 30
0.0
 11
12.64387958108598
 21
12.64000171916507
 31
0.0
  0
LINE
  5
35B0
330
1E
100
AcDbEntity
  8
7
100
AcDbLine
 10
12.64387958108598
 20
12.64000171916507
 30
0.0
 11
12.64387958108598
 21
12.63868938320706
 31
0.0
  0
LINE
  5
35B1
330
1E
100
AcDbEntity
  8
7
100
AcDbLine
 10
12.97721291441932
 20
13.36441116798396
 30
0.0
 11
13.43653049972115
 21
13.36441116798396
 31
0.0
  0
LINE
  5
35B2
330
1E
100
AcDbEntity
  8
7
100
AcDbLine
 10
13.43653049972115
 20
13.36441116798396
 30
0.0
 11
13.61107118213585
 21
13.36441116798396
 31
0.0
  0
LINE
  5
35B3
330
1E
100
AcDbEntity
  8
7
100
AcDbLine
 10
13.61107118213585
 20
13.36441116798396
 30
0.0
 11
13.83679296691275
 21
13.36441116798396
 31
0.0
  0
LINE
  5
35B4
330
1E
100
AcDbEntity
  8
7
100
AcDbLine
 10
11.94046750759517
 20
13.36572350394197
 30
0.0
 11
11.94177984355317
 21
13.36441116798396
 31
0.0
  0
LINE
  5
35B5
330
1E
100
AcDbEntity
  8
7
100
AcDbLine
 10
11.94177984355317
 20
13.36441116798396
 30
0.0
 11
12.16618929237207
 21
13.36441116798396
 31
0.0
  0
LINE
  5
35B6
330
1E
100
AcDbEntity
  8
7
100
AcDbLine
 10
12.16618929237207
 20
13.36441116798396
 30
0.0
 11
12.34204231074477
 21
13.36441116798396
 31
0.0
  0
LINE
  5
35B7
330
1E
100
AcDbEntity
  8
7
100
AcDbLine
 10
12.34204231074477
 20
13.36441116798396
 30
0.0
 11
12.80135989604661
 21
13.36441116798396
 31
0.0
  0
LINE
  5
35B8
330
1E
100
AcDbEntity
  8
7
100
AcDbLine
 10
13.76986383305448
 20
12.70430618110732
 30
0.0
 11
13.76855149709648
 21
12.70430618110732
 31
0.0
  0
LINE
  5
35B9
330
1E
100
AcDbEntity
  8
7
100
AcDbLine
 10
13.76855149709648
 20
12.70430618110732
 30
0.0
 11
13.76855149709648
 21
12.64000171916507
 31
0.0
  0
LINE
  5
35BA
330
1E
100
AcDbEntity
  8
7
100
AcDbLine
 10
13.76986383305448
 20
12.63868938320706
 30
0.0
 11
13.76855149709648
 21
12.64000171916507
 31
0.0
  0
LINE
  5
35BB
330
1E
100
AcDbEntity
  8
7
100
AcDbLine
 10
13.76855149709648
 20
12.64000171916507
 30
0.0
 11
13.65175359683401
 21
12.64000171916507
 31
0.0
  0
LINE
  5
35BC
330
1E
100
AcDbEntity
  8
7
100
AcDbLine
 10
13.39716042098099
 20
12.64000171916507
 30
0.0
 11
13.27905018476052
 21
12.64000171916507
 31
0.0
  0
LINE
  5
35BD
330
1E
100
AcDbEntity
  8
7
100
AcDbLine
 10
13.27905018476052
 20
12.64000171916507
 30
0.0
 11
13.27773784880252
 21
12.63868938320706
 31
0.0
  0
LINE
  5
35BE
330
1E
100
AcDbEntity
  8
7
100
AcDbLine
 10
13.84597931861879
 20
13.4746473884564
 30
0.0
 11
13.84466698266078
 21
13.4746473884564
 31
0.0
  0
LINE
  5
35BF
330
1E
100
AcDbEntity
  8
7
100
AcDbLine
 10
13.84466698266078
 20
13.4746473884564
 30
0.0
 11
13.84335464670278
 21
13.4746473884564
 31
0.0
  0
LINE
  5
35C0
330
1E
100
AcDbEntity
  8
7
100
AcDbLine
 10
11.90765910864504
 20
13.5245161548606
 30
0.0
 11
11.90897144460304
 21
13.52582849081861
 31
0.0
  0
LINE
  5
35C1
330
1E
100
AcDbEntity
  8
7
100
AcDbLine
 10
11.90897144460304
 20
13.52582849081861
 30
0.0
 11
11.90897144460304
 21
13.52845316273462
 31
0.0
  0
LINE
  5
35C2
330
1E
100
AcDbEntity
  8
7
100
AcDbLine
 10
11.90897144460304
 20
13.52845316273462
 30
0.0
 11
11.90897144460304
 21
13.66362376640916
 31
0.0
  0
LINE
  5
35C3
330
1E
100
AcDbEntity
  8
7
100
AcDbLine
 10
11.93259349184714
 20
13.4746473884564
 30
0.0
 11
11.93259349184714
 21
13.52582849081861
 31
0.0
  0
LINE
  5
35C4
330
1E
100
AcDbEntity
  8
7
100
AcDbLine
 10
11.93259349184714
 20
13.52582849081861
 30
0.0
 11
11.90897144460304
 21
13.52582849081861
 31
0.0
  0
LINE
  5
35C5
330
1E
100
AcDbEntity
  8
7
100
AcDbLine
 10
11.93259349184714
 20
13.71742954068738
 30
0.0
 11
11.93259349184714
 21
13.66624843832517
 31
0.0
  0
LINE
  5
35C6
330
1E
100
AcDbEntity
  8
7
100
AcDbLine
 10
11.93259349184714
 20
13.66624843832517
 30
0.0
 11
11.90897144460304
 21
13.66624843832517
 31
0.0
  0
LINE
  5
35C7
330
1E
100
AcDbEntity
  8
7
100
AcDbLine
 10
13.84466698266078
 20
13.4746473884564
 30
0.0
 11
13.84466698266078
 21
13.52582849081861
 31
0.0
  0
LINE
  5
35C8
330
1E
100
AcDbEntity
  8
7
100
AcDbLine
 10
13.84466698266078
 20
13.52582849081861
 30
0.0
 11
13.86960136586289
 21
13.52582849081861
 31
0.0
  0
LINE
  5
35C9
330
1E
100
AcDbEntity
  8
7
100
AcDbLine
 10
12.35779034224083
 20
14.07700959318081
 30
0.0
 11
12.35647800628283
 21
14.08225893701283
 31
0.0
  0
LINE
  5
35CA
330
1E
100
AcDbEntity
  8
7
100
AcDbLine
 10
12.35647800628283
 20
14.08225893701283
 30
0.0
 11
12.35647800628283
 21
14.09275762467688
 31
0.0
  0
LINE
  5
35CB
330
1E
100
AcDbEntity
  8
7
100
AcDbLine
 10
12.35647800628283
 20
14.10325631234092
 30
0.0
 11
12.35647800628283
 21
14.122941351711
 31
0.0
  0
LINE
  5
35CC
330
1E
100
AcDbEntity
  8
7
100
AcDbLine
 10
12.35647800628283
 20
14.122941351711
 30
0.0
 11
12.35647800628283
 21
14.14000171916506
 31
0.0
  0
LINE
  5
35CD
330
1E
100
AcDbEntity
  8
7
100
AcDbLine
 10
12.15175359683401
 20
14.09275762467688
 30
0.0
 11
12.15175359683401
 21
14.08225893701283
 31
0.0
  0
LINE
  5
35CE
330
1E
100
AcDbEntity
  8
7
100
AcDbLine
 10
12.15175359683401
 20
14.08225893701283
 30
0.0
 11
12.15044126087601
 21
14.07700959318081
 31
0.0
  0
LINE
  5
35CF
330
1E
100
AcDbEntity
  8
7
100
AcDbLine
 10
12.99296094591538
 20
14.07700959318081
 30
0.0
 11
12.99164860995737
 21
14.08225893701283
 31
0.0
  0
LINE
  5
35D0
330
1E
100
AcDbEntity
  8
7
100
AcDbLine
 10
12.99164860995737
 20
14.08225893701283
 30
0.0
 11
12.99164860995737
 21
14.09275762467688
 31
0.0
  0
LINE
  5
35D1
330
1E
100
AcDbEntity
  8
7
100
AcDbLine
 10
12.99164860995737
 20
14.10325631234092
 30
0.0
 11
12.99164860995737
 21
14.122941351711
 31
0.0
  0
LINE
  5
35D2
330
1E
100
AcDbEntity
  8
7
100
AcDbLine
 10
12.99164860995737
 20
14.122941351711
 30
0.0
 11
12.99164860995737
 21
14.14000171916506
 31
0.0
  0
LINE
  5
35D3
330
1E
100
AcDbEntity
  8
7
100
AcDbLine
 10
12.78692420050855
 20
14.10325631234092
 30
0.0
 11
12.78692420050855
 21
14.122941351711
 31
0.0
  0
LINE
  5
35D4
330
1E
100
AcDbEntity
  8
7
100
AcDbLine
 10
12.78692420050855
 20
14.122941351711
 30
0.0
 11
12.78561186455055
 21
14.14000171916506
 31
0.0
  0
LINE
  5
35D5
330
1E
100
AcDbEntity
  8
7
100
AcDbLine
 10
12.76198981730645
 20
14.06519856955877
 30
0.0
 11
12.78561186455055
 21
14.07700959318081
 31
0.0
  0
LINE
  5
35D6
330
1E
100
AcDbEntity
  8
7
100
AcDbLine
 10
12.78561186455055
 20
14.07700959318081
 30
0.0
 11
12.78692420050855
 21
14.08225893701283
 31
0.0
  0
LINE
  5
35D7
330
1E
100
AcDbEntity
  8
7
100
AcDbLine
 10
12.78692420050855
 20
14.08225893701283
 30
0.0
 11
12.78692420050855
 21
14.09275762467688
 31
0.0
  0
LINE
  5
35D8
330
1E
100
AcDbEntity
  8
7
100
AcDbLine
 10
13.62681921363191
 20
14.14393872703908
 30
0.0
 11
13.62681921363191
 21
14.14000171916506
 31
0.0
  0
LINE
  5
35D9
330
1E
100
AcDbEntity
  8
7
100
AcDbLine
 10
13.62681921363191
 20
14.14000171916506
 30
0.0
 11
13.62681921363191
 21
14.122941351711
 31
0.0
  0
LINE
  5
35DA
330
1E
100
AcDbEntity
  8
7
100
AcDbLine
 10
13.62681921363191
 20
14.122941351711
 30
0.0
 11
13.62681921363191
 21
14.10325631234092
 31
0.0
  0
LINE
  5
35DB
330
1E
100
AcDbEntity
  8
7
100
AcDbLine
 10
13.62681921363191
 20
14.10325631234092
 30
0.0
 11
13.62681921363191
 21
14.09275762467688
 31
0.0
  0
LINE
  5
35DC
330
1E
100
AcDbEntity
  8
7
100
AcDbLine
 10
13.62681921363191
 20
14.09275762467688
 30
0.0
 11
13.62681921363191
 21
14.08225893701283
 31
0.0
  0
LINE
  5
35DD
330
1E
100
AcDbEntity
  8
7
100
AcDbLine
 10
13.62681921363191
 20
14.08225893701283
 30
0.0
 11
13.62681921363191
 21
14.07700959318081
 31
0.0
  0
LINE
  5
35DE
330
1E
100
AcDbEntity
  8
7
100
AcDbLine
 10
13.62681921363191
 20
14.07700959318081
 30
0.0
 11
13.65175359683401
 21
14.06519856955877
 31
0.0
  0
LINE
  5
35DF
330
1E
100
AcDbEntity
  8
7
100
AcDbLine
 10
13.42209480418309
 20
14.10325631234092
 30
0.0
 11
13.42209480418309
 21
14.122941351711
 31
0.0
  0
LINE
  5
35E0
330
1E
100
AcDbEntity
  8
7
100
AcDbLine
 10
13.42209480418309
 20
14.122941351711
 30
0.0
 11
13.42078246822509
 21
14.14000171916506
 31
0.0
  0
LINE
  5
35E1
330
1E
100
AcDbEntity
  8
7
100
AcDbLine
 10
13.42078246822509
 20
14.14000171916506
 30
0.0
 11
13.42078246822509
 21
14.14393872703908
 31
0.0
  0
LINE
  5
35E2
330
1E
100
AcDbEntity
  8
7
100
AcDbLine
 10
13.39716042098099
 20
14.06519856955877
 30
0.0
 11
13.42078246822509
 21
14.07700959318081
 31
0.0
  0
LINE
  5
35E3
330
1E
100
AcDbEntity
  8
7
100
AcDbLine
 10
13.42078246822509
 20
14.07700959318081
 30
0.0
 11
13.42209480418309
 21
14.08225893701283
 31
0.0
  0
LINE
  5
35E4
330
1E
100
AcDbEntity
  8
7
100
AcDbLine
 10
13.42209480418309
 20
14.08225893701283
 30
0.0
 11
13.42209480418309
 21
14.09275762467688
 31
0.0
  0
LINE
  5
35E5
330
1E
100
AcDbEntity
  8
7
100
AcDbLine
 10
11.5743257753117
 20
16.14131405512307
 30
0.0
 11
11.55070372806761
 21
16.13606471129105
 31
0.0
  0
LINE
  5
35E6
330
1E
100
AcDbEntity
  8
7
100
AcDbLine
 10
11.55070372806761
 20
16.13606471129105
 30
0.0
 11
11.53101868869753
 21
16.122941351711
 31
0.0
  0
LINE
  5
35E7
330
1E
100
AcDbEntity
  8
7
100
AcDbLine
 10
11.53101868869753
 20
16.122941351711
 30
0.0
 11
11.51920766507548
 21
16.10456864829892
 31
0.0
  0
LINE
  5
35E8
330
1E
100
AcDbEntity
  8
7
100
AcDbLine
 10
11.51920766507548
 20
16.10456864829892
 30
0.0
 11
11.51395832124346
 21
16.08094660105483
 31
0.0
  0
LINE
  5
35E9
330
1E
100
AcDbEntity
  8
7
100
AcDbLine
 10
14.20424703515422
 20
16.14131405512307
 30
0.0
 11
14.22655674644031
 21
16.13606471129105
 31
0.0
  0
LINE
  5
35EA
330
1E
100
AcDbEntity
  8
7
100
AcDbLine
 10
14.22655674644031
 20
16.13606471129105
 30
0.0
 11
14.24624178581039
 21
16.122941351711
 31
0.0
  0
LINE
  5
35EB
330
1E
100
AcDbEntity
  8
7
100
AcDbLine
 10
14.24624178581039
 20
16.122941351711
 30
0.0
 11
14.25936514539044
 21
16.10456864829892
 31
0.0
  0
LINE
  5
35EC
330
1E
100
AcDbEntity
  8
7
100
AcDbLine
 10
14.25936514539044
 20
16.10456864829892
 30
0.0
 11
14.26461448922246
 21
16.08094660105483
 31
0.0
  0
LINE
  5
35ED
330
1E
100
AcDbEntity
  8
7
100
AcDbLine
 10
14.26461448922246
 20
11.70036917323331
 30
0.0
 11
14.26461448922246
 21
16.08094660105483
 31
0.0
  0
LINE
  5
35EE
330
1E
100
AcDbEntity
  8
7
100
AcDbLine
 10
14.26461448922246
 20
16.08094660105483
 30
0.0
 11
14.26067748134845
 21
16.07832192913882
 31
0.0
  0
LINE
  5
35EF
330
1E
100
AcDbEntity
  8
7
100
AcDbLine
 10
11.51789532911748
 20
16.07832192913882
 30
0.0
 11
11.5231446729495
 21
16.0730725853068
 31
0.0
  0
LINE
  5
35F0
330
1E
100
AcDbEntity
  8
7
100
AcDbLine
 10
11.5231446729495
 20
16.0730725853068
 30
0.0
 11
11.53758036848756
 21
16.06257389764276
 31
0.0
  0
LINE
  5
35F1
330
1E
100
AcDbEntity
  8
7
100
AcDbLine
 10
11.53758036848756
 20
16.06257389764276
 30
0.0
 11
11.55857774381564
 21
16.04682586614669
 31
0.0
  0
LINE
  5
35F2
330
1E
100
AcDbEntity
  8
7
100
AcDbLine
 10
11.55857774381564
 20
16.04682586614669
 30
0.0
 11
11.58744913489176
 21
16.02714082677661
 31
0.0
  0
LINE
  5
35F3
330
1E
100
AcDbEntity
  8
7
100
AcDbLine
 10
11.58744913489176
 20
16.02714082677661
 30
0.0
 11
11.62025753384189
 21
16.00220644357452
 31
0.0
  0
LINE
  5
35F4
330
1E
100
AcDbEntity
  8
7
100
AcDbLine
 10
11.62025753384189
 20
16.00220644357452
 30
0.0
 11
11.65831527662404
 21
15.9746473884564
 31
0.0
  0
LINE
  5
35F5
330
1E
100
AcDbEntity
  8
7
100
AcDbLine
 10
11.65831527662404
 20
15.9746473884564
 30
0.0
 11
11.6989976913222
 21
15.94446366142229
 31
0.0
  0
LINE
  5
35F6
330
1E
100
AcDbEntity
  8
7
100
AcDbLine
 10
12.56645175956367
 20
15.60325631234092
 30
0.0
 11
12.56645175956367
 21
15.65312507874512
 31
0.0
  0
LINE
  5
35F7
330
1E
100
AcDbEntity
  8
7
100
AcDbLine
 10
12.56645175956367
 20
15.65312507874512
 30
0.0
 11
13.21080871494425
 21
15.65312507874512
 31
0.0
  0
LINE
  5
35F8
330
1E
100
AcDbEntity
  8
7
100
AcDbLine
 10
13.21080871494425
 20
15.40903059055614
 30
0.0
 11
12.56645175956367
 21
15.40903059055614
 31
0.0
  0
LINE
  5
35F9
330
1E
100
AcDbEntity
  8
7
100
AcDbLine
 10
12.56645175956367
 20
15.40903059055614
 30
0.0
 11
12.56645175956367
 21
15.46021169291835
 31
0.0
  0
LINE
  5
35FA
330
1E
100
AcDbEntity
  8
7
100
AcDbLine
 10
12.56645175956367
 20
15.46021169291835
 30
0.0
 11
12.54282971231958
 21
15.46021169291835
 31
0.0
  0
LINE
  5
35FB
330
1E
100
AcDbEntity
  8
7
100
AcDbLine
 10
12.54282971231958
 20
15.46021169291835
 30
0.0
 11
12.54282971231958
 21
15.60325631234092
 31
0.0
  0
LINE
  5
35FC
330
1E
100
AcDbEntity
  8
7
100
AcDbLine
 10
13.86960136586289
 20
14.95102534121231
 30
0.0
 11
13.84597931861879
 21
14.95102534121231
 31
0.0
  0
LINE
  5
35FD
330
1E
100
AcDbEntity
  8
7
100
AcDbLine
 10
13.84597931861879
 20
14.95102534121231
 30
0.0
 11
13.84597931861879
 21
14.89984423885011
 31
0.0
  0
LINE
  5
35FE
330
1E
100
AcDbEntity
  8
7
100
AcDbLine
 10
13.84597931861879
 20
14.89984423885011
 30
0.0
 11
11.93259349184714
 21
14.89984423885011
 31
0.0
  0
LINE
  5
35FF
330
1E
100
AcDbEntity
  8
7
100
AcDbLine
 10
11.93259349184714
 20
14.89984423885011
 30
0.0
 11
11.93259349184714
 21
14.95102534121231
 31
0.0
  0
LINE
  5
3600
330
1E
100
AcDbEntity
  8
7
100
AcDbLine
 10
11.93259349184714
 20
14.95102534121231
 30
0.0
 11
11.90765910864504
 21
14.95102534121231
 31
0.0
  0
LINE
  5
3601
330
1E
100
AcDbEntity
  8
7
100
AcDbLine
 10
11.90765910864504
 20
14.95102534121231
 30
0.0
 11
11.90765910864504
 21
15.09275762467687
 31
0.0
  0
LINE
  5
3602
330
1E
100
AcDbEntity
  8
7
100
AcDbLine
 10
11.90765910864504
 20
15.09275762467687
 30
0.0
 11
11.93259349184714
 21
15.09275762467687
 31
0.0
  0
LINE
  5
3603
330
1E
100
AcDbEntity
  8
7
100
AcDbLine
 10
11.93259349184714
 20
15.09275762467687
 30
0.0
 11
11.93259349184714
 21
15.14393872703908
 31
0.0
  0
LINE
  5
3604
330
1E
100
AcDbEntity
  8
7
100
AcDbLine
 10
11.93259349184714
 20
15.14393872703908
 30
0.0
 11
13.84597931861879
 21
15.14393872703908
 31
0.0
  0
LINE
  5
3605
330
1E
100
AcDbEntity
  8
7
100
AcDbLine
 10
13.84597931861879
 20
15.14393872703908
 30
0.0
 11
13.84597931861879
 21
15.09275762467687
 31
0.0
  0
LINE
  5
3606
330
1E
100
AcDbEntity
  8
7
100
AcDbLine
 10
13.84597931861879
 20
15.09275762467687
 30
0.0
 11
13.86960136586289
 21
15.09275762467687
 31
0.0
  0
LINE
  5
3607
330
1E
100
AcDbEntity
  8
7
100
AcDbLine
 10
12.4995226257054
 20
14.12950303150102
 30
0.0
 11
12.4995226257054
 21
14.06388623360076
 31
0.0
  0
LINE
  5
3608
330
1E
100
AcDbEntity
  8
7
100
AcDbLine
 10
12.4995226257054
 20
14.06388623360076
 30
0.0
 11
12.00870897741144
 21
14.06388623360076
 31
0.0
  0
LINE
  5
3609
330
1E
100
AcDbEntity
  8
7
100
AcDbLine
 10
12.00870897741144
 20
14.06388623360076
 30
0.0
 11
12.00870897741144
 21
14.12950303150102
 31
0.0
  0
LINE
  5
360A
330
1E
100
AcDbEntity
  8
7
100
AcDbLine
 10
12.00870897741144
 20
14.12950303150102
 30
0.0
 11
11.94046750759517
 21
14.12950303150102
 31
0.0
  0
LINE
  5
360B
330
1E
100
AcDbEntity
  8
7
100
AcDbLine
 10
13.13469322937995
 20
14.12950303150102
 30
0.0
 11
13.13469322937995
 21
14.06388623360076
 31
0.0
  0
LINE
  5
360C
330
1E
100
AcDbEntity
  8
7
100
AcDbLine
 10
13.13469322937995
 20
14.06388623360076
 30
0.0
 11
12.64387958108598
 21
14.06388623360076
 31
0.0
  0
LINE
  5
360D
330
1E
100
AcDbEntity
  8
7
100
AcDbLine
 10
11.90765910864504
 20
13.5245161548606
 30
0.0
 11
11.90765910864504
 21
13.66756077428318
 31
0.0
  0
LINE
  5
360E
330
1E
100
AcDbEntity
  8
7
100
AcDbLine
 10
11.90765910864504
 20
13.66756077428318
 30
0.0
 11
11.93259349184714
 21
13.66756077428318
 31
0.0
  0
LINE
  5
360F
330
1E
100
AcDbEntity
  8
7
100
AcDbLine
 10
11.93259349184714
 20
13.66756077428318
 30
0.0
 11
11.93259349184714
 21
13.71874187664538
 31
0.0
  0
LINE
  5
3610
330
1E
100
AcDbEntity
  8
7
100
AcDbLine
 10
13.84597931861879
 20
13.4746473884564
 30
0.0
 11
11.93259349184714
 21
13.4746473884564
 31
0.0
  0
LINE
  5
3611
330
1E
100
AcDbEntity
  8
7
100
AcDbLine
 10
11.93259349184714
 20
13.4746473884564
 30
0.0
 11
11.93259349184714
 21
13.5245161548606
 31
0.0
  0
LINE
  5
3612
330
1E
100
AcDbEntity
  8
7
100
AcDbLine
 10
11.93259349184714
 20
13.71874187664538
 30
0.0
 11
13.84597931861879
 21
13.71874187664538
 31
0.0
  0
LINE
  5
3613
330
1E
100
AcDbEntity
  8
7
100
AcDbLine
 10
13.84597931861879
 20
13.71874187664538
 30
0.0
 11
13.84597931861879
 21
13.66756077428318
 31
0.0
  0
LINE
  5
3614
330
1E
100
AcDbEntity
  8
7
100
AcDbLine
 10
13.84597931861879
 20
13.66756077428318
 30
0.0
 11
13.86960136586289
 21
13.66756077428318
 31
0.0
  0
LINE
  5
3615
330
1E
100
AcDbEntity
  8
7
100
AcDbLine
 10
12.4995226257054
 20
12.70430618110732
 30
0.0
 11
12.4995226257054
 21
12.63868938320706
 31
0.0
  0
LINE
  5
3616
330
1E
100
AcDbEntity
  8
7
100
AcDbLine
 10
12.4995226257054
 20
12.63868938320706
 30
0.0
 11
12.00870897741144
 21
12.63868938320706
 31
0.0
  0
LINE
  5
3617
330
1E
100
AcDbEntity
  8
7
100
AcDbLine
 10
12.00870897741144
 20
12.63868938320706
 30
0.0
 11
12.00870897741144
 21
12.70430618110732
 31
0.0
  0
LINE
  5
3618
330
1E
100
AcDbEntity
  8
7
100
AcDbLine
 10
12.00870897741144
 20
12.70430618110732
 30
0.0
 11
11.94046750759517
 21
12.70430618110732
 31
0.0
  0
LINE
  5
3619
330
1E
100
AcDbEntity
  8
7
100
AcDbLine
 10
13.13469322937995
 20
12.70430618110732
 30
0.0
 11
13.13469322937995
 21
12.63868938320706
 31
0.0
  0
LINE
  5
361A
330
1E
100
AcDbEntity
  8
7
100
AcDbLine
 10
13.13469322937995
 20
12.63868938320706
 30
0.0
 11
12.64387958108598
 21
12.63868938320706
 31
0.0
  0
LINE
  5
361B
330
1E
100
AcDbEntity
  8
7
100
AcDbLine
 10
14.21868273069228
 20
16.04682586614669
 30
0.0
 11
14.19112367557417
 21
16.02714082677661
 31
0.0
  0
LINE
  5
361C
330
1E
100
AcDbEntity
  8
7
100
AcDbLine
 10
14.19112367557417
 20
16.02714082677661
 30
0.0
 11
14.15700294066603
 21
16.00220644357452
 31
0.0
  0
LINE
  5
361D
330
1E
100
AcDbEntity
  8
7
100
AcDbLine
 10
14.15700294066603
 20
16.00220644357452
 30
0.0
 11
14.11894519788388
 21
15.9746473884564
 31
0.0
  0
LINE
  5
361E
330
1E
100
AcDbEntity
  8
7
100
AcDbLine
 10
14.11894519788388
 20
15.9746473884564
 30
0.0
 11
14.07826278318572
 21
15.94446366142229
 31
0.0
  0
LINE
  5
361F
330
1E
100
AcDbEntity
  8
7
100
AcDbLine
 10
14.07826278318572
 20
15.94446366142229
 30
0.0
 11
14.03626803252955
 21
15.91296759843016
 31
0.0
  0
LINE
  5
3620
330
1E
100
AcDbEntity
  8
7
100
AcDbLine
 10
14.26067748134845
 20
16.07832192913882
 30
0.0
 11
14.25411580155842
 21
16.0730725853068
 31
0.0
  0
LINE
  5
3621
330
1E
100
AcDbEntity
  8
7
100
AcDbLine
 10
14.25411580155842
 20
16.0730725853068
 30
0.0
 11
14.24099244197837
 21
16.06257389764276
 31
0.0
  0
LINE
  5
3622
330
1E
100
AcDbEntity
  8
7
100
AcDbLine
 10
14.24099244197837
 20
16.06257389764276
 30
0.0
 11
14.21868273069228
 21
16.04682586614669
 31
0.0
  0
LINE
  5
3623
330
1E
100
AcDbEntity
  8
7
100
AcDbLine
 10
13.42209480418309
 20
12.67805946194722
 30
0.0
 11
13.42209480418309
 21
12.69643216535929
 31
0.0
  0
LINE
  5
3624
330
1E
100
AcDbEntity
  8
7
100
AcDbLine
 10
13.42209480418309
 20
12.69643216535929
 30
0.0
 11
13.42078246822509
 21
12.71349253281336
 31
0.0
  0
LINE
  5
3625
330
1E
100
AcDbEntity
  8
7
100
AcDbLine
 10
13.42078246822509
 20
12.71349253281336
 30
0.0
 11
13.42078246822509
 21
12.71874187664538
 31
0.0
  0
LINE
  5
3626
330
1E
100
AcDbEntity
  8
7
100
AcDbLine
 10
13.39716042098099
 20
12.64000171916507
 30
0.0
 11
13.42078246822509
 21
12.65181274278711
 31
0.0
  0
LINE
  5
3627
330
1E
100
AcDbEntity
  8
7
100
AcDbLine
 10
13.42078246822509
 20
12.65181274278711
 30
0.0
 11
13.42209480418309
 21
12.65574975066113
 31
0.0
  0
LINE
  5
3628
330
1E
100
AcDbEntity
  8
7
100
AcDbLine
 10
13.42209480418309
 20
12.65574975066113
 30
0.0
 11
13.42209480418309
 21
12.66624843832517
 31
0.0
  0
LINE
  5
3629
330
1E
100
AcDbEntity
  8
7
100
AcDbLine
 10
13.62681921363191
 20
12.7476132677215
 30
0.0
 11
13.62681921363191
 21
12.71874187664538
 31
0.0
  0
LINE
  5
362A
330
1E
100
AcDbEntity
  8
7
100
AcDbLine
 10
13.62681921363191
 20
12.71874187664538
 30
0.0
 11
13.62681921363191
 21
12.71349253281336
 31
0.0
  0
LINE
  5
362B
330
1E
100
AcDbEntity
  8
7
100
AcDbLine
 10
13.62681921363191
 20
12.71349253281336
 30
0.0
 11
13.62681921363191
 21
12.69643216535929
 31
0.0
  0
LINE
  5
362C
330
1E
100
AcDbEntity
  8
7
100
AcDbLine
 10
13.62681921363191
 20
12.69643216535929
 30
0.0
 11
13.62681921363191
 21
12.67805946194722
 31
0.0
  0
LINE
  5
362D
330
1E
100
AcDbEntity
  8
7
100
AcDbLine
 10
13.62681921363191
 20
12.67805946194722
 30
0.0
 11
13.62681921363191
 21
12.66624843832517
 31
0.0
  0
LINE
  5
362E
330
1E
100
AcDbEntity
  8
7
100
AcDbLine
 10
13.62681921363191
 20
12.66624843832517
 30
0.0
 11
13.62681921363191
 21
12.65574975066113
 31
0.0
  0
LINE
  5
362F
330
1E
100
AcDbEntity
  8
7
100
AcDbLine
 10
13.62681921363191
 20
12.65574975066113
 30
0.0
 11
13.62681921363191
 21
12.65181274278711
 31
0.0
  0
LINE
  5
3630
330
1E
100
AcDbEntity
  8
7
100
AcDbLine
 10
13.62681921363191
 20
12.65181274278711
 30
0.0
 11
13.65175359683401
 21
12.64000171916507
 31
0.0
  0
LINE
  5
3631
330
1E
100
AcDbEntity
  8
7
100
AcDbLine
 10
12.78692420050855
 20
12.67805946194722
 30
0.0
 11
12.78692420050855
 21
12.69643216535929
 31
0.0
  0
LINE
  5
3632
330
1E
100
AcDbEntity
  8
7
100
AcDbLine
 10
12.78692420050855
 20
12.69643216535929
 30
0.0
 11
12.78561186455055
 21
12.71349253281336
 31
0.0
  0
LINE
  5
3633
330
1E
100
AcDbEntity
  8
7
100
AcDbLine
 10
12.78561186455055
 20
12.71349253281336
 30
0.0
 11
12.78561186455055
 21
12.71874187664538
 31
0.0
  0
LINE
  5
3634
330
1E
100
AcDbEntity
  8
7
100
AcDbLine
 10
12.76198981730645
 20
12.64000171916507
 30
0.0
 11
12.78561186455055
 21
12.65181274278711
 31
0.0
  0
LINE
  5
3635
330
1E
100
AcDbEntity
  8
7
100
AcDbLine
 10
12.78561186455055
 20
12.65181274278711
 30
0.0
 11
12.78692420050855
 21
12.65574975066113
 31
0.0
  0
LINE
  5
3636
330
1E
100
AcDbEntity
  8
7
100
AcDbLine
 10
12.78692420050855
 20
12.65574975066113
 30
0.0
 11
12.78692420050855
 21
12.66624843832517
 31
0.0
  0
LINE
  5
3637
330
1E
100
AcDbEntity
  8
7
100
AcDbLine
 10
12.99296094591538
 20
12.65181274278711
 30
0.0
 11
12.99164860995737
 21
12.65574975066113
 31
0.0
  0
LINE
  5
3638
330
1E
100
AcDbEntity
  8
7
100
AcDbLine
 10
12.99164860995737
 20
12.65574975066113
 30
0.0
 11
12.99164860995737
 21
12.66624843832517
 31
0.0
  0
LINE
  5
3639
330
1E
100
AcDbEntity
  8
7
100
AcDbLine
 10
12.99164860995737
 20
12.67805946194722
 30
0.0
 11
12.99164860995737
 21
12.69643216535929
 31
0.0
  0
LINE
  5
363A
330
1E
100
AcDbEntity
  8
7
100
AcDbLine
 10
12.99164860995737
 20
12.69643216535929
 30
0.0
 11
12.99164860995737
 21
12.71349253281336
 31
0.0
  0
LINE
  5
363B
330
1E
100
AcDbEntity
  8
7
100
AcDbLine
 10
12.15175359683401
 20
12.71349253281336
 30
0.0
 11
12.15175359683401
 21
12.69643216535929
 31
0.0
  0
LINE
  5
363C
330
1E
100
AcDbEntity
  8
7
100
AcDbLine
 10
12.15175359683401
 20
12.69643216535929
 30
0.0
 11
12.15175359683401
 21
12.67805946194722
 31
0.0
  0
LINE
  5
363D
330
1E
100
AcDbEntity
  8
7
100
AcDbLine
 10
12.15175359683401
 20
12.66624843832517
 30
0.0
 11
12.15175359683401
 21
12.65574975066113
 31
0.0
  0
LINE
  5
363E
330
1E
100
AcDbEntity
  8
7
100
AcDbLine
 10
12.15175359683401
 20
12.65574975066113
 30
0.0
 11
12.15044126087601
 21
12.65181274278711
 31
0.0
  0
LINE
  5
363F
330
1E
100
AcDbEntity
  8
7
100
AcDbLine
 10
12.35779034224083
 20
12.65181274278711
 30
0.0
 11
12.35647800628283
 21
12.65574975066113
 31
0.0
  0
LINE
  5
3640
330
1E
100
AcDbEntity
  8
7
100
AcDbLine
 10
12.35647800628283
 20
12.65574975066113
 30
0.0
 11
12.35647800628283
 21
12.66624843832517
 31
0.0
  0
LINE
  5
3641
330
1E
100
AcDbEntity
  8
7
100
AcDbLine
 10
12.35647800628283
 20
12.67805946194722
 30
0.0
 11
12.35647800628283
 21
12.69643216535929
 31
0.0
  0
LINE
  5
3642
330
1E
100
AcDbEntity
  8
7
100
AcDbLine
 10
12.35647800628283
 20
12.69643216535929
 30
0.0
 11
12.35647800628283
 21
12.71349253281336
 31
0.0
  0
LINE
  5
3643
330
1E
100
AcDbEntity
  8
7
100
AcDbLine
 10
14.03626803252955
 20
11.86966051181599
 30
0.0
 11
14.07826278318572
 21
11.83816444882386
 31
0.0
  0
LINE
  5
3644
330
1E
100
AcDbEntity
  8
7
100
AcDbLine
 10
14.07826278318572
 20
11.83816444882386
 30
0.0
 11
14.11894519788388
 21
11.80798072178974
 31
0.0
  0
LINE
  5
3645
330
1E
100
AcDbEntity
  8
7
100
AcDbLine
 10
14.11894519788388
 20
11.80798072178974
 30
0.0
 11
14.15700294066603
 21
11.78042166667163
 31
0.0
  0
LINE
  5
3646
330
1E
100
AcDbEntity
  8
7
100
AcDbLine
 10
14.15700294066603
 20
11.78042166667163
 30
0.0
 11
14.19112367557417
 21
11.75548728346953
 31
0.0
  0
LINE
  5
3647
330
1E
100
AcDbEntity
  8
7
100
AcDbLine
 10
14.19112367557417
 20
11.75548728346953
 30
0.0
 11
14.21868273069228
 21
11.73448990814144
 31
0.0
  0
LINE
  5
3648
330
1E
100
AcDbEntity
  8
7
100
AcDbLine
 10
14.21868273069228
 20
11.73448990814144
 30
0.0
 11
14.24099244197837
 21
11.71874187664538
 31
0.0
  0
LINE
  5
3649
330
1E
100
AcDbEntity
  8
7
100
AcDbLine
 10
14.24099244197837
 20
11.71874187664538
 30
0.0
 11
14.25411580155842
 21
11.70824318898134
 31
0.0
  0
LINE
  5
364A
330
1E
100
AcDbEntity
  8
7
100
AcDbLine
 10
14.149128924918
 20
11.71480486877137
 30
0.0
 11
14.12550687767391
 21
11.7476132677215
 31
0.0
  0
LINE
  5
364B
330
1E
100
AcDbEntity
  8
7
100
AcDbLine
 10
14.12550687767391
 20
11.7476132677215
 30
0.0
 11
14.0979478225558
 21
11.78567101050365
 31
0.0
  0
LINE
  5
364C
330
1E
100
AcDbEntity
  8
7
100
AcDbLine
 10
14.0979478225558
 20
11.78567101050365
 30
0.0
 11
14.06776409552167
 21
11.82635342520181
 31
0.0
  0
LINE
  5
364D
330
1E
100
AcDbEntity
  8
7
100
AcDbLine
 10
14.06776409552167
 20
11.82635342520181
 30
0.0
 11
14.03626803252955
 21
11.86966051181599
 31
0.0
  0
LINE
  5
364E
330
1E
100
AcDbEntity
  8
7
100
AcDbLine
 10
14.03626803252955
 20
11.86966051181599
 30
0.0
 11
11.74230477793637
 21
11.86966051181599
 31
0.0
  0
LINE
  5
364F
330
1E
100
AcDbEntity
  8
7
100
AcDbLine
 10
14.20162236323821
 20
11.64393872703908
 30
0.0
 11
14.19637301940619
 21
11.65050040682911
 31
0.0
  0
LINE
  5
3650
330
1E
100
AcDbEntity
  8
7
100
AcDbLine
 10
14.19637301940619
 20
11.65050040682911
 30
0.0
 11
14.18587433174215
 21
11.66493610236716
 31
0.0
  0
LINE
  5
3651
330
1E
100
AcDbEntity
  8
7
100
AcDbLine
 10
14.18587433174215
 20
11.66493610236716
 30
0.0
 11
14.17012630024609
 21
11.68593347769525
 31
0.0
  0
LINE
  5
3652
330
1E
100
AcDbEntity
  8
7
100
AcDbLine
 10
14.17012630024609
 20
11.68593347769525
 30
0.0
 11
14.149128924918
 21
11.71480486877137
 31
0.0
  0
LINE
  5
3653
330
1E
100
AcDbEntity
  8
7
100
AcDbLine
 10
13.21080871494425
 20
12.37228518373199
 30
0.0
 11
12.56645175956367
 21
12.37228518373199
 31
0.0
  0
LINE
  5
3654
330
1E
100
AcDbEntity
  8
7
100
AcDbLine
 10
12.56645175956367
 20
12.37228518373199
 30
0.0
 11
12.56645175956367
 21
12.32110408136979
 31
0.0
  0
LINE
  5
3655
330
1E
100
AcDbEntity
  8
7
100
AcDbLine
 10
12.56645175956367
 20
12.32110408136979
 30
0.0
 11
12.56776409552168
 21
12.32110408136979
 31
0.0
  0
LINE
  5
3656
330
1E
100
AcDbEntity
  8
7
100
AcDbLine
 10
13.23443076218834
 20
12.32110408136979
 30
0.0
 11
13.23574309814635
 21
12.32110408136979
 31
0.0
  0
LINE
  5
3657
330
1E
100
AcDbEntity
  8
7
100
AcDbLine
 10
13.23574309814635
 20
12.32110408136979
 30
0.0
 11
13.23574309814635
 21
12.17937179790522
 31
0.0
  0
LINE
  5
3658
330
1E
100
AcDbEntity
  8
7
100
AcDbLine
 10
13.20949637898624
 20
12.18068413386323
 30
0.0
 11
13.21080871494425
 21
12.17937179790522
 31
0.0
  0
LINE
  5
3659
330
1E
100
AcDbEntity
  8
7
100
AcDbLine
 10
13.21080871494425
 20
12.17937179790522
 30
0.0
 11
13.23574309814635
 21
12.17937179790522
 31
0.0
  0
LINE
  5
365A
330
1E
100
AcDbEntity
  8
7
100
AcDbLine
 10
11.62813154958992
 20
11.71480486877137
 30
0.0
 11
11.65306593279202
 21
11.7476132677215
 31
0.0
  0
LINE
  5
365B
330
1E
100
AcDbEntity
  8
7
100
AcDbLine
 10
11.65306593279202
 20
11.7476132677215
 30
0.0
 11
11.68062498791013
 21
11.78567101050365
 31
0.0
  0
LINE
  5
365C
330
1E
100
AcDbEntity
  8
7
100
AcDbLine
 10
11.68062498791013
 20
11.78567101050365
 30
0.0
 11
11.71080871494425
 21
11.82635342520181
 31
0.0
  0
LINE
  5
365D
330
1E
100
AcDbEntity
  8
7
100
AcDbLine
 10
11.71080871494425
 20
11.82635342520181
 30
0.0
 11
11.74230477793637
 21
11.86966051181599
 31
0.0
  0
LINE
  5
365E
330
1E
100
AcDbEntity
  8
7
100
AcDbLine
 10
11.57695044722772
 20
11.64393872703908
 30
0.0
 11
11.58219979105973
 21
11.65050040682911
 31
0.0
  0
LINE
  5
365F
330
1E
100
AcDbEntity
  8
7
100
AcDbLine
 10
11.58219979105973
 20
11.65050040682911
 30
0.0
 11
11.59269847872378
 21
11.66493610236716
 31
0.0
  0
LINE
  5
3660
330
1E
100
AcDbEntity
  8
7
100
AcDbLine
 10
11.59269847872378
 20
11.66493610236716
 30
0.0
 11
11.60844651021984
 21
11.68593347769525
 31
0.0
  0
LINE
  5
3661
330
1E
100
AcDbEntity
  8
7
100
AcDbLine
 10
11.60844651021984
 20
11.68593347769525
 30
0.0
 11
11.62813154958992
 21
11.71480486877137
 31
0.0
  0
LINE
  5
3662
330
1E
100
AcDbEntity
  8
7
100
AcDbLine
 10
11.74230477793637
 20
11.86966051181599
 30
0.0
 11
11.6989976913222
 21
11.83816444882386
 31
0.0
  0
LINE
  5
3663
330
1E
100
AcDbEntity
  8
7
100
AcDbLine
 10
11.6989976913222
 20
11.83816444882386
 30
0.0
 11
11.65831527662404
 21
11.80798072178974
 31
0.0
  0
LINE
  5
3664
330
1E
100
AcDbEntity
  8
7
100
AcDbLine
 10
11.65831527662404
 20
11.80798072178974
 30
0.0
 11
11.62025753384189
 21
11.78042166667163
 31
0.0
  0
LINE
  5
3665
330
1E
100
AcDbEntity
  8
7
100
AcDbLine
 10
11.62025753384189
 20
11.78042166667163
 30
0.0
 11
11.58744913489176
 21
11.75548728346953
 31
0.0
  0
LINE
  5
3666
330
1E
100
AcDbEntity
  8
7
100
AcDbLine
 10
11.58744913489176
 20
11.75548728346953
 30
0.0
 11
11.55857774381564
 21
11.73448990814144
 31
0.0
  0
LINE
  5
3667
330
1E
100
AcDbEntity
  8
7
100
AcDbLine
 10
11.55857774381564
 20
11.73448990814144
 30
0.0
 11
11.53758036848756
 21
11.71874187664538
 31
0.0
  0
LINE
  5
3668
330
1E
100
AcDbEntity
  8
7
100
AcDbLine
 10
11.53758036848756
 20
11.71874187664538
 30
0.0
 11
11.5231446729495
 21
11.70824318898134
 31
0.0
  0
LINE
  5
3669
330
1E
100
AcDbEntity
  8
7
100
AcDbLine
 10
11.5231446729495
 20
11.70824318898134
 30
0.0
 11
11.51789532911748
 21
11.70430618110732
 31
0.0
  0
LINE
  5
366A
330
1E
100
AcDbEntity
  8
7
100
AcDbLine
 10
14.20162236323821
 20
11.64393872703908
 30
0.0
 11
14.23049375431433
 21
11.65181274278711
 31
0.0
  0
LINE
  5
366B
330
1E
100
AcDbEntity
  8
7
100
AcDbLine
 10
14.23049375431433
 20
11.65181274278711
 30
0.0
 11
14.25280346560042
 21
11.6741224540732
 31
0.0
  0
LINE
  5
366C
330
1E
100
AcDbEntity
  8
7
100
AcDbLine
 10
14.25280346560042
 20
11.6741224540732
 30
0.0
 11
14.26067748134845
 21
11.70430618110732
 31
0.0
  0
LINE
  5
366D
330
1E
100
AcDbEntity
  8
7
100
AcDbLine
 10
14.26461448922246
 20
11.70036917323331
 30
0.0
 11
14.25936514539044
 21
11.67805946194722
 31
0.0
  0
LINE
  5
366E
330
1E
100
AcDbEntity
  8
7
100
AcDbLine
 10
14.25936514539044
 20
11.67805946194722
 30
0.0
 11
14.24624178581039
 21
11.65837442257714
 31
0.0
  0
LINE
  5
366F
330
1E
100
AcDbEntity
  8
7
100
AcDbLine
 10
14.24624178581039
 20
11.65837442257714
 30
0.0
 11
14.22655674644031
 21
11.64525106299709
 31
0.0
  0
LINE
  5
3670
330
1E
100
AcDbEntity
  8
7
100
AcDbLine
 10
14.22655674644031
 20
11.64525106299709
 30
0.0
 11
14.20424703515422
 21
11.64131405512307
 31
0.0
  0
LINE
  5
3671
330
1E
100
AcDbEntity
  8
7
100
AcDbLine
 10
11.57695044722772
 20
11.64393872703908
 30
0.0
 11
11.54676672019359
 21
11.65181274278711
 31
0.0
  0
LINE
  5
3672
330
1E
100
AcDbEntity
  8
7
100
AcDbLine
 10
11.54676672019359
 20
11.65181274278711
 30
0.0
 11
11.52576934486551
 21
11.6741224540732
 31
0.0
  0
LINE
  5
3673
330
1E
100
AcDbEntity
  8
7
100
AcDbLine
 10
11.52576934486551
 20
11.6741224540732
 30
0.0
 11
11.51789532911748
 21
11.70430618110732
 31
0.0
  0
LINE
  5
3674
330
1E
100
AcDbEntity
  8
7
100
AcDbLine
 10
11.51789532911748
 20
11.70430618110732
 30
0.0
 11
11.51395832124346
 21
11.70036917323331
 31
0.0
  0
LINE
  5
3675
330
1E
100
AcDbEntity
  8
7
100
AcDbLine
 10
11.51395832124346
 20
11.70036917323331
 30
0.0
 11
11.51920766507548
 21
11.67805946194722
 31
0.0
  0
LINE
  5
3676
330
1E
100
AcDbEntity
  8
7
100
AcDbLine
 10
11.51920766507548
 20
11.67805946194722
 30
0.0
 11
11.53101868869753
 21
11.65837442257714
 31
0.0
  0
LINE
  5
3677
330
1E
100
AcDbEntity
  8
7
100
AcDbLine
 10
11.53101868869753
 20
11.65837442257714
 30
0.0
 11
11.55070372806761
 21
11.64525106299709
 31
0.0
  0
LINE
  5
3678
330
1E
100
AcDbEntity
  8
7
100
AcDbLine
 10
11.55070372806761
 20
11.64525106299709
 30
0.0
 11
11.5743257753117
 21
11.64131405512307
 31
0.0
  0
LINE
  5
3679
330
1E
100
AcDbEntity
  8
7
100
AcDbLine
 10
13.80135989604661
 20
12.124253687669
 30
0.0
 11
13.80135989604661
 21
12.03763951444066
 31
0.0
  0
LINE
  5
367A
330
1E
100
AcDbEntity
  8
7
100
AcDbLine
 10
13.80135989604661
 20
12.03763951444066
 30
0.0
 11
13.82498194329071
 21
12.03763951444066
 31
0.0
  0
LINE
  5
367B
330
1E
100
AcDbEntity
  8
7
100
AcDbLine
 10
13.71080871494425
 20
12.10850565617294
 30
0.0
 11
13.70687170707023
 21
12.11900434383698
 31
0.0
  0
LINE
  5
367C
330
1E
100
AcDbEntity
  8
7
100
AcDbLine
 10
13.70687170707023
 20
12.11900434383698
 30
0.0
 11
13.69637301940619
 21
12.122941351711
 31
0.0
  0
LINE
  5
367D
330
1E
100
AcDbEntity
  8
7
100
AcDbLine
 10
13.69637301940619
 20
12.03895185039866
 30
0.0
 11
13.70687170707023
 21
12.04288885827268
 31
0.0
  0
LINE
  5
367E
330
1E
100
AcDbEntity
  8
7
100
AcDbLine
 10
13.70687170707023
 20
12.04288885827268
 30
0.0
 11
13.71080871494425
 21
12.05338754593672
 31
0.0
  0
LINE
  5
367F
330
1E
100
AcDbEntity
  8
7
100
AcDbLine
 10
13.60844651021984
 20
12.03763951444066
 30
0.0
 11
13.63469322937994
 21
12.03763951444066
 31
0.0
  0
LINE
  5
3680
330
1E
100
AcDbEntity
  8
7
100
AcDbLine
 10
13.63469322937994
 20
12.03763951444066
 30
0.0
 11
13.63469322937994
 21
12.124253687669
 31
0.0
  0
LINE
  5
3681
330
1E
100
AcDbEntity
  8
7
100
AcDbLine
 10
13.63469322937994
 20
12.124253687669
 30
0.0
 11
13.61238351809386
 21
12.124253687669
 31
0.0
  0
LINE
  5
3682
330
1E
100
AcDbEntity
  8
7
100
AcDbLine
 10
13.61238351809386
 20
12.124253687669
 30
0.0
 11
13.61238351809386
 21
12.09144528871887
 31
0.0
  0
LINE
  5
3683
330
1E
100
AcDbEntity
  8
7
100
AcDbLine
 10
13.61238351809386
 20
12.09144528871887
 30
0.0
 11
13.59663548659779
 21
12.124253687669
 31
0.0
  0
LINE
  5
3684
330
1E
100
AcDbEntity
  8
7
100
AcDbLine
 10
13.59663548659779
 20
12.124253687669
 30
0.0
 11
13.56776409552168
 21
12.124253687669
 31
0.0
  0
LINE
  5
3685
330
1E
100
AcDbEntity
  8
7
100
AcDbLine
 10
13.56776409552168
 20
12.124253687669
 30
0.0
 11
13.56776409552168
 21
12.06782324147478
 31
0.0
  0
LINE
  5
3686
330
1E
100
AcDbEntity
  8
7
100
AcDbLine
 10
13.48246225825133
 20
12.0730725853068
 30
0.0
 11
13.49164860995737
 21
12.0743849212648
 31
0.0
  0
LINE
  5
3687
330
1E
100
AcDbEntity
  8
7
100
AcDbLine
 10
13.49164860995737
 20
12.0743849212648
 30
0.0
 11
13.4995226257054
 21
12.07700959318081
 31
0.0
  0
LINE
  5
3688
330
1E
100
AcDbEntity
  8
7
100
AcDbLine
 10
13.51789532911748
 20
12.122941351711
 30
0.0
 11
13.50477196953742
 21
12.14262639108108
 31
0.0
  0
LINE
  5
3689
330
1E
100
AcDbEntity
  8
7
100
AcDbLine
 10
13.50477196953742
 20
12.14262639108108
 30
0.0
 11
13.48246225825133
 21
12.1491880708711
 31
0.0
  0
LINE
  5
368A
330
1E
100
AcDbEntity
  8
7
100
AcDbLine
 10
13.75411580155842
 20
12.06126156168475
 30
0.0
 11
13.75411580155842
 21
12.124253687669
 31
0.0
  0
LINE
  5
368B
330
1E
100
AcDbEntity
  8
7
100
AcDbLine
 10
13.75411580155842
 20
12.124253687669
 30
0.0
 11
13.72524441048231
 21
12.124253687669
 31
0.0
  0
LINE
  5
368C
330
1E
100
AcDbEntity
  8
7
100
AcDbLine
 10
13.75542813751643
 20
12.06126156168475
 30
0.0
 11
13.75674047347443
 21
12.05863688976874
 31
0.0
  0
LINE
  5
368D
330
1E
100
AcDbEntity
  8
7
100
AcDbLine
 10
13.75674047347443
 20
12.05863688976874
 30
0.0
 11
13.75936514539044
 21
12.05732455381073
 31
0.0
  0
LINE
  5
368E
330
1E
100
AcDbEntity
  8
7
100
AcDbLine
 10
13.76461448922246
 20
12.05732455381073
 30
0.0
 11
13.76723916113848
 21
12.05863688976874
 31
0.0
  0
LINE
  5
368F
330
1E
100
AcDbEntity
  8
7
100
AcDbLine
 10
13.76723916113848
 20
12.05863688976874
 30
0.0
 11
13.76855149709648
 21
12.06126156168475
 31
0.0
  0
LINE
  5
3690
330
1E
100
AcDbEntity
  8
7
100
AcDbLine
 10
13.78823653646656
 20
12.05338754593672
 30
0.0
 11
13.78823653646656
 21
12.124253687669
 31
0.0
  0
LINE
  5
3691
330
1E
100
AcDbEntity
  8
7
100
AcDbLine
 10
13.78823653646656
 20
12.124253687669
 30
0.0
 11
13.76986383305448
 21
12.124253687669
 31
0.0
  0
LINE
  5
3692
330
1E
100
AcDbEntity
  8
7
100
AcDbLine
 10
13.76986383305448
 20
12.124253687669
 30
0.0
 11
13.76986383305448
 21
12.06126156168475
 31
0.0
  0
LINE
  5
3693
330
1E
100
AcDbEntity
  8
7
100
AcDbLine
 10
13.77248850497049
 20
12.03895185039866
 30
0.0
 11
13.78298719263454
 21
12.04288885827268
 31
0.0
  0
LINE
  5
3694
330
1E
100
AcDbEntity
  8
7
100
AcDbLine
 10
13.78298719263454
 20
12.04288885827268
 30
0.0
 11
13.78692420050855
 21
12.05338754593672
 31
0.0
  0
LINE
  5
3695
330
1E
100
AcDbEntity
  8
7
100
AcDbLine
 10
13.72655674644031
 20
12.05338754593672
 30
0.0
 11
13.73049375431433
 21
12.04288885827268
 31
0.0
  0
LINE
  5
3696
330
1E
100
AcDbEntity
  8
7
100
AcDbLine
 10
13.73049375431433
 20
12.04288885827268
 30
0.0
 11
13.74099244197837
 21
12.03895185039866
 31
0.0
  0
LINE
  5
3697
330
1E
100
AcDbEntity
  8
7
100
AcDbLine
 10
13.20949637898624
 20
12.12819069554302
 30
0.0
 11
13.20949637898624
 21
12.18068413386323
 31
0.0
  0
LINE
  5
3698
330
1E
100
AcDbEntity
  8
7
100
AcDbLine
 10
13.20949637898624
 20
12.18068413386323
 30
0.0
 11
13.23443076218834
 21
12.18068413386323
 31
0.0
  0
LINE
  5
3699
330
1E
100
AcDbEntity
  8
7
100
AcDbLine
 10
13.20949637898624
 20
12.37228518373199
 30
0.0
 11
13.20818404302824
 21
12.37097284777399
 31
0.0
  0
LINE
  5
369A
330
1E
100
AcDbEntity
  8
7
100
AcDbLine
 10
13.20818404302824
 20
12.37097284777399
 30
0.0
 11
13.20818404302824
 21
12.31847940945378
 31
0.0
  0
LINE
  5
369B
330
1E
100
AcDbEntity
  8
7
100
AcDbLine
 10
13.88403706140094
 20
12.10588098425693
 30
0.0
 11
13.90372210077102
 21
12.10588098425693
 31
0.0
  0
LINE
  5
369C
330
1E
100
AcDbEntity
  8
7
100
AcDbLine
 10
13.90372210077102
 20
12.10588098425693
 30
0.0
 11
13.90372210077102
 21
12.124253687669
 31
0.0
  0
LINE
  5
369D
330
1E
100
AcDbEntity
  8
7
100
AcDbLine
 10
13.90372210077102
 20
12.124253687669
 30
0.0
 11
13.83941763882877
 21
12.124253687669
 31
0.0
  0
LINE
  5
369E
330
1E
100
AcDbEntity
  8
7
100
AcDbLine
 10
13.85647800628283
 20
12.10588098425693
 30
0.0
 11
13.85647800628283
 21
12.03763951444066
 31
0.0
  0
LINE
  5
369F
330
1E
100
AcDbEntity
  8
7
100
AcDbLine
 10
13.85647800628283
 20
12.03763951444066
 30
0.0
 11
13.88403706140094
 21
12.03763951444066
 31
0.0
  0
LINE
  5
36A0
330
1E
100
AcDbEntity
  8
7
100
AcDbLine
 10
13.68193732386814
 20
12.10588098425693
 30
0.0
 11
13.6740633081201
 21
12.10588098425693
 31
0.0
  0
LINE
  5
36A1
330
1E
100
AcDbEntity
  8
7
100
AcDbLine
 10
13.6740633081201
 20
12.10588098425693
 30
0.0
 11
13.6740633081201
 21
12.05732455381073
 31
0.0
  0
LINE
  5
36A2
330
1E
100
AcDbEntity
  8
7
100
AcDbLine
 10
13.68587433174215
 20
12.10194397638291
 30
0.0
 11
13.68456199578415
 21
12.10456864829892
 31
0.0
  0
LINE
  5
36A3
330
1E
100
AcDbEntity
  8
7
100
AcDbLine
 10
13.68456199578415
 20
12.10456864829892
 30
0.0
 11
13.68193732386814
 21
12.10588098425693
 31
0.0
  0
LINE
  5
36A4
330
1E
100
AcDbEntity
  8
7
100
AcDbLine
 10
13.68193732386814
 20
12.05732455381073
 30
0.0
 11
13.68456199578415
 21
12.05863688976874
 31
0.0
  0
LINE
  5
36A5
330
1E
100
AcDbEntity
  8
7
100
AcDbLine
 10
13.68456199578415
 20
12.05863688976874
 30
0.0
 11
13.68587433174215
 21
12.06126156168475
 31
0.0
  0
LINE
  5
36A6
330
1E
100
AcDbEntity
  8
7
100
AcDbLine
 10
13.46540189079727
 20
12.13081536745903
 30
0.0
 11
13.45490320313323
 21
12.13081536745903
 31
0.0
  0
LINE
  5
36A7
330
1E
100
AcDbEntity
  8
7
100
AcDbLine
 10
13.45490320313323
 20
12.13081536745903
 30
0.0
 11
13.45490320313323
 21
12.09144528871887
 31
0.0
  0
LINE
  5
36A8
330
1E
100
AcDbEntity
  8
7
100
AcDbLine
 10
13.47065123462929
 20
12.12556602362701
 30
0.0
 11
13.46933889867128
 21
12.12950303150102
 31
0.0
  0
LINE
  5
36A9
330
1E
100
AcDbEntity
  8
7
100
AcDbLine
 10
13.46933889867128
 20
12.12950303150102
 30
0.0
 11
13.46540189079727
 21
12.13081536745903
 31
0.0
  0
LINE
  5
36AA
330
1E
100
AcDbEntity
  8
7
100
AcDbLine
 10
13.46540189079727
 20
12.09144528871887
 30
0.0
 11
13.46933889867128
 21
12.09275762467687
 31
0.0
  0
LINE
  5
36AB
330
1E
100
AcDbEntity
  8
7
100
AcDbLine
 10
13.46933889867128
 20
12.09275762467687
 30
0.0
 11
13.47065123462929
 21
12.09669463255089
 31
0.0
  0
LINE
  5
36AC
330
1E
100
AcDbEntity
  8
7
100
AcDbLine
 10
12.9496538593012
 20
12.13606471129105
 30
0.0
 11
12.98508693016735
 21
12.14131405512307
 31
0.0
  0
LINE
  5
36AD
330
1E
100
AcDbEntity
  8
7
100
AcDbLine
 10
12.98508693016735
 20
12.14131405512307
 30
0.0
 11
13.01658299315947
 21
12.15837442257714
 31
0.0
  0
LINE
  5
36AE
330
1E
100
AcDbEntity
  8
7
100
AcDbLine
 10
13.01658299315947
 20
12.15837442257714
 30
0.0
 11
13.04151737636157
 21
12.18330880577924
 31
0.0
  0
LINE
  5
36AF
330
1E
100
AcDbEntity
  8
7
100
AcDbLine
 10
13.04151737636157
 20
12.18330880577924
 30
0.0
 11
13.05857774381564
 21
12.21480486877136
 31
0.0
  0
LINE
  5
36B0
330
1E
100
AcDbEntity
  8
7
100
AcDbLine
 10
13.05857774381564
 20
12.21480486877136
 30
0.0
 11
13.06382708764766
 21
12.2502379396375
 31
0.0
  0
LINE
  5
36B1
330
1E
100
AcDbEntity
  8
7
100
AcDbLine
 10
13.06382708764766
 20
12.2502379396375
 30
0.0
 11
13.05857774381564
 21
12.28567101050365
 31
0.0
  0
LINE
  5
36B2
330
1E
100
AcDbEntity
  8
7
100
AcDbLine
 10
13.05857774381564
 20
12.28567101050365
 30
0.0
 11
13.04151737636157
 21
12.31716707349578
 31
0.0
  0
LINE
  5
36B3
330
1E
100
AcDbEntity
  8
7
100
AcDbLine
 10
13.04151737636157
 20
12.31716707349578
 30
0.0
 11
13.01658299315947
 21
12.34210145669787
 31
0.0
  0
LINE
  5
36B4
330
1E
100
AcDbEntity
  8
7
100
AcDbLine
 10
13.01658299315947
 20
12.34210145669787
 30
0.0
 11
12.98508693016735
 21
12.35916182415194
 31
0.0
  0
LINE
  5
36B5
330
1E
100
AcDbEntity
  8
7
100
AcDbLine
 10
12.98508693016735
 20
12.35916182415194
 30
0.0
 11
12.9496538593012
 21
12.36441116798396
 31
0.0
  0
LINE
  5
36B6
330
1E
100
AcDbEntity
  8
7
100
AcDbLine
 10
12.71999506665029
 20
12.21480486877136
 30
0.0
 11
12.73705543410435
 21
12.18330880577924
 31
0.0
  0
LINE
  5
36B7
330
1E
100
AcDbEntity
  8
7
100
AcDbLine
 10
12.73705543410435
 20
12.18330880577924
 30
0.0
 11
12.76198981730645
 21
12.15837442257714
 31
0.0
  0
LINE
  5
36B8
330
1E
100
AcDbEntity
  8
7
100
AcDbLine
 10
12.76198981730645
 20
12.15837442257714
 30
0.0
 11
12.79348588029858
 21
12.14131405512307
 31
0.0
  0
LINE
  5
36B9
330
1E
100
AcDbEntity
  8
7
100
AcDbLine
 10
12.79348588029858
 20
12.14131405512307
 30
0.0
 11
12.82891895116472
 21
12.13606471129105
 31
0.0
  0
LINE
  5
36BA
330
1E
100
AcDbEntity
  8
7
100
AcDbLine
 10
12.82891895116472
 20
12.36441116798396
 30
0.0
 11
12.79348588029858
 21
12.35916182415194
 31
0.0
  0
LINE
  5
36BB
330
1E
100
AcDbEntity
  8
7
100
AcDbLine
 10
12.79348588029858
 20
12.35916182415194
 30
0.0
 11
12.76198981730645
 21
12.34210145669787
 31
0.0
  0
LINE
  5
36BC
330
1E
100
AcDbEntity
  8
7
100
AcDbLine
 10
12.76198981730645
 20
12.34210145669787
 30
0.0
 11
12.73705543410435
 21
12.31716707349578
 31
0.0
  0
LINE
  5
36BD
330
1E
100
AcDbEntity
  8
7
100
AcDbLine
 10
12.73705543410435
 20
12.31716707349578
 30
0.0
 11
12.71999506665029
 21
12.28567101050365
 31
0.0
  0
LINE
  5
36BE
330
1E
100
AcDbEntity
  8
7
100
AcDbLine
 10
12.71999506665029
 20
12.28567101050365
 30
0.0
 11
12.71474572281827
 21
12.2502379396375
 31
0.0
  0
LINE
  5
36BF
330
1E
100
AcDbEntity
  8
7
100
AcDbLine
 10
12.71474572281827
 20
12.2502379396375
 30
0.0
 11
12.71999506665029
 21
12.21480486877136
 31
0.0
  0
LINE
  5
36C0
330
1E
100
AcDbEntity
  8
7
100
AcDbLine
 10
12.9496538593012
 20
12.13737704724906
 30
0.0
 11
12.82891895116472
 21
12.13737704724906
 31
0.0
  0
LINE
  5
36C1
330
1E
100
AcDbEntity
  8
7
100
AcDbLine
 10
12.82891895116472
 20
12.13737704724906
 30
0.0
 11
12.82891895116472
 21
12.13606471129105
 31
0.0
  0
LINE
  5
36C2
330
1E
100
AcDbEntity
  8
7
100
AcDbLine
 10
12.82891895116472
 20
12.36309883202596
 30
0.0
 11
12.79348588029858
 21
12.35784948819394
 31
0.0
  0
LINE
  5
36C3
330
1E
100
AcDbEntity
  8
7
100
AcDbLine
 10
12.79348588029858
 20
12.35784948819394
 30
0.0
 11
12.76198981730645
 21
12.34210145669787
 31
0.0
  0
LINE
  5
36C4
330
1E
100
AcDbEntity
  8
7
100
AcDbLine
 10
12.76198981730645
 20
12.34210145669787
 30
0.0
 11
12.73705543410435
 21
12.31716707349578
 31
0.0
  0
LINE
  5
36C5
330
1E
100
AcDbEntity
  8
7
100
AcDbLine
 10
12.73705543410435
 20
12.31716707349578
 30
0.0
 11
12.72130740260829
 21
12.28567101050365
 31
0.0
  0
LINE
  5
36C6
330
1E
100
AcDbEntity
  8
7
100
AcDbLine
 10
12.72130740260829
 20
12.28567101050365
 30
0.0
 11
12.71605805877627
 21
12.2502379396375
 31
0.0
  0
LINE
  5
36C7
330
1E
100
AcDbEntity
  8
7
100
AcDbLine
 10
12.71605805877627
 20
12.2502379396375
 30
0.0
 11
12.72130740260829
 21
12.21480486877136
 31
0.0
  0
LINE
  5
36C8
330
1E
100
AcDbEntity
  8
7
100
AcDbLine
 10
12.72130740260829
 20
12.21480486877136
 30
0.0
 11
12.73705543410435
 21
12.18330880577924
 31
0.0
  0
LINE
  5
36C9
330
1E
100
AcDbEntity
  8
7
100
AcDbLine
 10
12.73705543410435
 20
12.18330880577924
 30
0.0
 11
12.76198981730645
 21
12.15837442257714
 31
0.0
  0
LINE
  5
36CA
330
1E
100
AcDbEntity
  8
7
100
AcDbLine
 10
12.76198981730645
 20
12.15837442257714
 30
0.0
 11
12.79348588029858
 21
12.14262639108108
 31
0.0
  0
LINE
  5
36CB
330
1E
100
AcDbEntity
  8
7
100
AcDbLine
 10
12.79348588029858
 20
12.14262639108108
 30
0.0
 11
12.82891895116472
 21
12.13737704724906
 31
0.0
  0
LINE
  5
36CC
330
1E
100
AcDbEntity
  8
7
100
AcDbLine
 10
12.9496538593012
 20
12.13737704724906
 30
0.0
 11
12.98508693016735
 21
12.14262639108108
 31
0.0
  0
LINE
  5
36CD
330
1E
100
AcDbEntity
  8
7
100
AcDbLine
 10
12.98508693016735
 20
12.14262639108108
 30
0.0
 11
13.01658299315947
 21
12.15837442257714
 31
0.0
  0
LINE
  5
36CE
330
1E
100
AcDbEntity
  8
7
100
AcDbLine
 10
13.01658299315947
 20
12.15837442257714
 30
0.0
 11
13.04151737636157
 21
12.18330880577924
 31
0.0
  0
LINE
  5
36CF
330
1E
100
AcDbEntity
  8
7
100
AcDbLine
 10
13.04151737636157
 20
12.18330880577924
 30
0.0
 11
13.05726540785764
 21
12.21480486877136
 31
0.0
  0
LINE
  5
36D0
330
1E
100
AcDbEntity
  8
7
100
AcDbLine
 10
13.05726540785764
 20
12.21480486877136
 30
0.0
 11
13.06251475168966
 21
12.2502379396375
 31
0.0
  0
LINE
  5
36D1
330
1E
100
AcDbEntity
  8
7
100
AcDbLine
 10
13.06251475168966
 20
12.2502379396375
 30
0.0
 11
13.05726540785764
 21
12.28567101050365
 31
0.0
  0
LINE
  5
36D2
330
1E
100
AcDbEntity
  8
7
100
AcDbLine
 10
13.05726540785764
 20
12.28567101050365
 30
0.0
 11
13.04151737636157
 21
12.31716707349578
 31
0.0
  0
LINE
  5
36D3
330
1E
100
AcDbEntity
  8
7
100
AcDbLine
 10
13.04151737636157
 20
12.31716707349578
 30
0.0
 11
13.01658299315947
 21
12.34210145669787
 31
0.0
  0
LINE
  5
36D4
330
1E
100
AcDbEntity
  8
7
100
AcDbLine
 10
13.01658299315947
 20
12.34210145669787
 30
0.0
 11
12.98508693016735
 21
12.35784948819394
 31
0.0
  0
LINE
  5
36D5
330
1E
100
AcDbEntity
  8
7
100
AcDbLine
 10
12.98508693016735
 20
12.35784948819394
 30
0.0
 11
12.9496538593012
 21
12.36309883202596
 31
0.0
  0
LINE
  5
36D6
330
1E
100
AcDbEntity
  8
7
100
AcDbLine
 10
12.82891895116472
 20
12.32504108924381
 30
0.0
 11
12.8000475600886
 21
12.31979174541179
 31
0.0
  0
LINE
  5
36D7
330
1E
100
AcDbEntity
  8
7
100
AcDbLine
 10
12.8000475600886
 20
12.31979174541179
 30
0.0
 11
12.77642551284451
 21
12.30273137795772
 31
0.0
  0
LINE
  5
36D8
330
1E
100
AcDbEntity
  8
7
100
AcDbLine
 10
12.77642551284451
 20
12.30273137795772
 30
0.0
 11
12.75936514539044
 21
12.27910933071362
 31
0.0
  0
LINE
  5
36D9
330
1E
100
AcDbEntity
  8
7
100
AcDbLine
 10
12.75936514539044
 20
12.27910933071362
 30
0.0
 11
12.75411580155842
 21
12.2502379396375
 31
0.0
  0
LINE
  5
36DA
330
1E
100
AcDbEntity
  8
7
100
AcDbLine
 10
12.75411580155842
 20
12.2502379396375
 30
0.0
 11
12.75936514539044
 21
12.22136654856139
 31
0.0
  0
LINE
  5
36DB
330
1E
100
AcDbEntity
  8
7
100
AcDbLine
 10
12.75936514539044
 20
12.22136654856139
 30
0.0
 11
12.77642551284451
 21
12.1977445013173
 31
0.0
  0
LINE
  5
36DC
330
1E
100
AcDbEntity
  8
7
100
AcDbLine
 10
12.77642551284451
 20
12.1977445013173
 30
0.0
 11
12.8000475600886
 21
12.18068413386323
 31
0.0
  0
LINE
  5
36DD
330
1E
100
AcDbEntity
  8
7
100
AcDbLine
 10
12.8000475600886
 20
12.18068413386323
 30
0.0
 11
12.82891895116472
 21
12.17543479003121
 31
0.0
  0
LINE
  5
36DE
330
1E
100
AcDbEntity
  8
7
100
AcDbLine
 10
12.9496538593012
 20
12.17543479003121
 30
0.0
 11
12.97852525037732
 21
12.18068413386323
 31
0.0
  0
LINE
  5
36DF
330
1E
100
AcDbEntity
  8
7
100
AcDbLine
 10
12.97852525037732
 20
12.18068413386323
 30
0.0
 11
13.00214729762141
 21
12.1977445013173
 31
0.0
  0
LINE
  5
36E0
330
1E
100
AcDbEntity
  8
7
100
AcDbLine
 10
13.00214729762141
 20
12.1977445013173
 30
0.0
 11
13.01920766507548
 21
12.22136654856139
 31
0.0
  0
LINE
  5
36E1
330
1E
100
AcDbEntity
  8
7
100
AcDbLine
 10
13.01920766507548
 20
12.22136654856139
 30
0.0
 11
13.0244570089075
 21
12.2502379396375
 31
0.0
  0
LINE
  5
36E2
330
1E
100
AcDbEntity
  8
7
100
AcDbLine
 10
13.0244570089075
 20
12.2502379396375
 30
0.0
 11
13.01920766507548
 21
12.27910933071362
 31
0.0
  0
LINE
  5
36E3
330
1E
100
AcDbEntity
  8
7
100
AcDbLine
 10
13.01920766507548
 20
12.27910933071362
 30
0.0
 11
13.00214729762141
 21
12.30273137795772
 31
0.0
  0
LINE
  5
36E4
330
1E
100
AcDbEntity
  8
7
100
AcDbLine
 10
13.00214729762141
 20
12.30273137795772
 30
0.0
 11
12.97852525037732
 21
12.31979174541179
 31
0.0
  0
LINE
  5
36E5
330
1E
100
AcDbEntity
  8
7
100
AcDbLine
 10
12.97852525037732
 20
12.31979174541179
 30
0.0
 11
12.9496538593012
 21
12.32504108924381
 31
0.0
  0
ENDSEC
  0
SECTION
  2
OBJECTS
  0
DICTIONARY
  5
C
330
0
100
AcDbDictionary
  3
ACAD_GROUP
350
D
  3
ACAD_MLINESTYLE
350
16
  3
ACAD_PLOTSETTINGS
350
18
  3
ACAD_LAYOUT
350
19
1001
ACAD
1000
TREAT_AS_HARD
1070
     0
  0
DICTIONARY
  5
4938
330
1E
100
AcDbDictionary
  3
ACAD_LAYOUTSELFREF
350
4939
  0
DICTIONARY
  5
4936
330
1A
100
AcDbDictionary
  3
ACAD_LAYOUTSELFREF
350
4937
  0
DICTIONARY
  5
D
102
{ACAD_REACTORS
330
C
102
}
330
C
100
AcDbDictionary
1001
ACAD
1000
TREAT_AS_HARD
1070
     0
  0
DICTIONARY
  5
16
102
{ACAD_REACTORS
330
C
102
}
330
C
100
AcDbDictionary
  3
STANDARD
350
17
1001
ACAD
1000
TREAT_AS_HARD
1070
     0
  0
DICTIONARY
  5
18
102
{ACAD_REACTORS
330
C
102
}
330
C
100
AcDbDictionary
1001
ACAD
1000
TREAT_AS_HARD
1070
     0
  0
DICTIONARY
  5
19
102
{ACAD_REACTORS
330
C
102
}
330
C
100
AcDbDictionary
1001
ACAD
1000
TREAT_AS_HARD
1070
     0
  0
XRECORD
  5
4939
102
{ACAD_REACTORS
330
4938
102
}
330
4938
100
AcDbXrecord
340
1E
  0
XRECORD
  5
4937
102
{ACAD_REACTORS
330
4936
102
}
330
4936
100
AcDbXrecord
340
1A
  0
MLINESTYLE
  5
17
102
{ACAD_REACTORS
330
16
102
}
330
16
100
AcDbMlineStyle
  2
STANDARD
 70
     0
  3

 62
   256
 51
90.0
 52
90.0
 71
     2
 49
0.5
 62
   256
  6
BYLAYER
 49
-0.5
 62
   256
  6
BYLAYER
  0
ENDSEC
  0
EOF
