ISO-10303-21;
HEADER;
/* Generated by software containing ST-Developer
 * from STEP Tools, Inc. (www.steptools.com) 
 */
/* OPTION: using custom schema-name function */

FILE_DESCRIPTION(
/* description */ (''),
/* implementation_level */ '2;1');

FILE_NAME(
/* name */ 'HBN2-T (14L203CG_03).stp',
/* time_stamp */ '2015-10-22T13:16:26-04:00',
/* author */ (''),
/* organization */ (''),
/* preprocessor_version */ 'ST-DEVELOPER v15',
/* originating_system */ 'SIEMENS PLM Software NX 8.5',
/* authorisation */ '');

FILE_SCHEMA (('CONFIG_CONTROL_DESIGN'));
ENDSEC;

DATA;
#10=SHAPE_REPRESENTATION_RELATIONSHIP('None',
'relationship between 14L203CG_03-None and 14L203CG_03-None',#92,#11);
#11=ADVANCED_BREP_SHAPE_REPRESENTATION('14L203CG_03-None',(#93),#245);
#12=CC_DESIGN_APPROVAL(#24,(#82));
#13=CC_DESIGN_APPROVAL(#25,(#84));
#14=CC_DESIGN_APPROVAL(#26,(#31));
#15=APPROVAL_PERSON_ORGANIZATION(#69,#24,#18);
#16=APPROVAL_PERSON_ORGANIZATION(#70,#25,#19);
#17=APPROVAL_PERSON_ORGANIZATION(#71,#26,#20);
#18=APPROVAL_ROLE('approver');
#19=APPROVAL_ROLE('approver');
#20=APPROVAL_ROLE('approver');
#21=APPROVAL_DATE_TIME(#39,#24);
#22=APPROVAL_DATE_TIME(#40,#25);
#23=APPROVAL_DATE_TIME(#41,#26);
#24=APPROVAL(#27,' ');
#25=APPROVAL(#28,' ');
#26=APPROVAL(#29,' ');
#27=APPROVAL_STATUS('not_yet_approved');
#28=APPROVAL_STATUS('not_yet_approved');
#29=APPROVAL_STATUS('not_yet_approved');
#30=CC_DESIGN_SECURITY_CLASSIFICATION(#31,(#84));
#31=SECURITY_CLASSIFICATION(' ',' ',#32);
#32=SECURITY_CLASSIFICATION_LEVEL('confidential');
#33=CC_DESIGN_DATE_AND_TIME_ASSIGNMENT(#37,#35,(#82));
#34=CC_DESIGN_DATE_AND_TIME_ASSIGNMENT(#38,#36,(#31));
#35=DATE_TIME_ROLE('creation_date');
#36=DATE_TIME_ROLE('classification_date');
#37=DATE_AND_TIME(#52,#42);
#38=DATE_AND_TIME(#53,#43);
#39=DATE_AND_TIME(#54,#44);
#40=DATE_AND_TIME(#55,#45);
#41=DATE_AND_TIME(#56,#46);
#42=LOCAL_TIME(0,0,0.,#47);
#43=LOCAL_TIME(0,0,0.,#48);
#44=LOCAL_TIME(0,0,0.,#49);
#45=LOCAL_TIME(0,0,0.,#50);
#46=LOCAL_TIME(0,0,0.,#51);
#47=COORDINATED_UNIVERSAL_TIME_OFFSET(0,0,.BEHIND.);
#48=COORDINATED_UNIVERSAL_TIME_OFFSET(0,0,.BEHIND.);
#49=COORDINATED_UNIVERSAL_TIME_OFFSET(0,0,.BEHIND.);
#50=COORDINATED_UNIVERSAL_TIME_OFFSET(0,0,.BEHIND.);
#51=COORDINATED_UNIVERSAL_TIME_OFFSET(0,0,.BEHIND.);
#52=CALENDAR_DATE(0,1,1);
#53=CALENDAR_DATE(0,1,1);
#54=CALENDAR_DATE(0,1,1);
#55=CALENDAR_DATE(0,1,1);
#56=CALENDAR_DATE(0,1,1);
#57=CC_DESIGN_PERSON_AND_ORGANIZATION_ASSIGNMENT(#65,#61,(#82,#84));
#58=CC_DESIGN_PERSON_AND_ORGANIZATION_ASSIGNMENT(#66,#62,(#86));
#59=CC_DESIGN_PERSON_AND_ORGANIZATION_ASSIGNMENT(#67,#63,(#84));
#60=CC_DESIGN_PERSON_AND_ORGANIZATION_ASSIGNMENT(#68,#64,(#31));
#61=PERSON_AND_ORGANIZATION_ROLE('creator');
#62=PERSON_AND_ORGANIZATION_ROLE('design_owner');
#63=PERSON_AND_ORGANIZATION_ROLE('design_supplier');
#64=PERSON_AND_ORGANIZATION_ROLE('classification_officer');
#65=PERSON_AND_ORGANIZATION(#79,#72);
#66=PERSON_AND_ORGANIZATION(#79,#73);
#67=PERSON_AND_ORGANIZATION(#79,#74);
#68=PERSON_AND_ORGANIZATION(#79,#75);
#69=PERSON_AND_ORGANIZATION(#79,#76);
#70=PERSON_AND_ORGANIZATION(#79,#77);
#71=PERSON_AND_ORGANIZATION(#79,#78);
#72=ORGANIZATION(' ',' ',' ');
#73=ORGANIZATION(' ',' ',' ');
#74=ORGANIZATION(' ',' ',' ');
#75=ORGANIZATION(' ',' ',' ');
#76=ORGANIZATION(' ',' ',' ');
#77=ORGANIZATION(' ',' ',' ');
#78=ORGANIZATION(' ',' ',' ');
#79=PERSON(' ',' ',' ',(' '),$,$);
#80=SHAPE_DEFINITION_REPRESENTATION(#81,#92);
#81=PRODUCT_DEFINITION_SHAPE('','',#82);
#82=PRODUCT_DEFINITION(' ','',#84,#83);
#83=DESIGN_CONTEXT('',#91,'design');
#84=PRODUCT_DEFINITION_FORMATION_WITH_SPECIFIED_SOURCE(' ',' ',#86,
 .NOT_KNOWN.);
#85=PRODUCT_RELATED_PRODUCT_CATEGORY('detail','',(#86));
#86=PRODUCT('14L203CG_03','14L203CG_03',' ',(#89));
#87=PRODUCT_CATEGORY('part',' ');
#88=PRODUCT_CATEGORY(' ','');
#89=MECHANICAL_CONTEXT(' ',#91,'mechanical');
#90=APPLICATION_PROTOCOL_DEFINITION('international standard',
'config_control_design',2010,#91);
#91=APPLICATION_CONTEXT(
'configuration controlled 3D designs of mechanical parts and assemblie
s');
#92=SHAPE_REPRESENTATION('14L203CG_03-None',(#174),#245);
#93=MANIFOLD_SOLID_BREP('',#94);
#94=CLOSED_SHELL('',(#102,#103,#104,#105,#106,#107,#108,#109));
#95=TOROIDAL_SURFACE('',#189,0.071,0.0165);
#96=SPHERICAL_SURFACE('',#188,0.045);
#97=CONICAL_SURFACE('',#185,0.000999999999999994,30.0000000000001);
#98=CYLINDRICAL_SURFACE('',#184,0.047);
#99=CYLINDRICAL_SURFACE('',#187,0.045);
#100=FACE_OUTER_BOUND('',#129,.T.);
#101=FACE_OUTER_BOUND('',#136,.T.);
#102=ADVANCED_FACE('',(#113,#114),#110,.T.);
#103=ADVANCED_FACE('',(#115,#116),#111,.T.);
#104=ADVANCED_FACE('',(#100),#112,.T.);
#105=ADVANCED_FACE('',(#117,#118),#98,.T.);
#106=ADVANCED_FACE('',(#119,#120),#97,.T.);
#107=ADVANCED_FACE('',(#121,#122),#99,.T.);
#108=ADVANCED_FACE('',(#101),#96,.T.);
#109=ADVANCED_FACE('',(#123,#124),#95,.T.);
#110=PLANE('',#177);
#111=PLANE('',#180);
#112=PLANE('',#182);
#113=FACE_BOUND('',#125,.T.);
#114=FACE_BOUND('',#126,.T.);
#115=FACE_BOUND('',#127,.T.);
#116=FACE_BOUND('',#128,.T.);
#117=FACE_BOUND('',#130,.T.);
#118=FACE_BOUND('',#131,.T.);
#119=FACE_BOUND('',#132,.T.);
#120=FACE_BOUND('',#133,.T.);
#121=FACE_BOUND('',#134,.T.);
#122=FACE_BOUND('',#135,.T.);
#123=FACE_BOUND('',#137,.T.);
#124=FACE_BOUND('',#138,.T.);
#125=EDGE_LOOP('',(#139));
#126=EDGE_LOOP('',(#140));
#127=EDGE_LOOP('',(#141));
#128=EDGE_LOOP('',(#142));
#129=EDGE_LOOP('',(#143));
#130=EDGE_LOOP('',(#144));
#131=EDGE_LOOP('',(#145));
#132=EDGE_LOOP('',(#146));
#133=EDGE_LOOP('',(#147));
#134=EDGE_LOOP('',(#148));
#135=EDGE_LOOP('',(#149));
#136=EDGE_LOOP('',(#150));
#137=EDGE_LOOP('',(#151));
#138=EDGE_LOOP('',(#152));
#139=ORIENTED_EDGE('',*,*,#160,.T.);
#140=ORIENTED_EDGE('',*,*,#161,.F.);
#141=ORIENTED_EDGE('',*,*,#162,.T.);
#142=ORIENTED_EDGE('',*,*,#163,.F.);
#143=ORIENTED_EDGE('',*,*,#164,.T.);
#144=ORIENTED_EDGE('',*,*,#165,.T.);
#145=ORIENTED_EDGE('',*,*,#163,.T.);
#146=ORIENTED_EDGE('',*,*,#165,.F.);
#147=ORIENTED_EDGE('',*,*,#164,.F.);
#148=ORIENTED_EDGE('',*,*,#166,.T.);
#149=ORIENTED_EDGE('',*,*,#161,.T.);
#150=ORIENTED_EDGE('',*,*,#166,.F.);
#151=ORIENTED_EDGE('',*,*,#162,.F.);
#152=ORIENTED_EDGE('',*,*,#160,.F.);
#153=VERTEX_POINT('',#224);
#154=VERTEX_POINT('',#226);
#155=VERTEX_POINT('',#229);
#156=VERTEX_POINT('',#231);
#157=VERTEX_POINT('',#234);
#158=VERTEX_POINT('',#237);
#159=VERTEX_POINT('',#241);
#160=EDGE_CURVE('',#153,#153,#167,.T.);
#161=EDGE_CURVE('',#154,#154,#168,.T.);
#162=EDGE_CURVE('',#155,#155,#169,.T.);
#163=EDGE_CURVE('',#156,#156,#170,.T.);
#164=EDGE_CURVE('',#157,#157,#171,.T.);
#165=EDGE_CURVE('',#158,#158,#172,.T.);
#166=EDGE_CURVE('',#159,#159,#173,.T.);
#167=CIRCLE('',#175,0.071);
#168=CIRCLE('',#176,0.045);
#169=CIRCLE('',#178,0.071);
#170=CIRCLE('',#179,0.047);
#171=CIRCLE('',#181,0.000999999999999994);
#172=CIRCLE('',#183,0.047);
#173=CIRCLE('',#186,0.045);
#174=AXIS2_PLACEMENT_3D('',#222,#190,#191);
#175=AXIS2_PLACEMENT_3D('',#223,#192,#193);
#176=AXIS2_PLACEMENT_3D('',#225,#194,#195);
#177=AXIS2_PLACEMENT_3D('',#227,#196,#197);
#178=AXIS2_PLACEMENT_3D('',#228,#198,#199);
#179=AXIS2_PLACEMENT_3D('',#230,#200,#201);
#180=AXIS2_PLACEMENT_3D('',#232,#202,#203);
#181=AXIS2_PLACEMENT_3D('',#233,#204,#205);
#182=AXIS2_PLACEMENT_3D('',#235,#206,#207);
#183=AXIS2_PLACEMENT_3D('',#236,#208,#209);
#184=AXIS2_PLACEMENT_3D('',#238,#210,#211);
#185=AXIS2_PLACEMENT_3D('',#239,#212,#213);
#186=AXIS2_PLACEMENT_3D('',#240,#214,#215);
#187=AXIS2_PLACEMENT_3D('',#242,#216,#217);
#188=AXIS2_PLACEMENT_3D('',#243,#218,#219);
#189=AXIS2_PLACEMENT_3D('',#244,#220,#221);
#190=DIRECTION('',(0.,0.,1.));
#191=DIRECTION('',(1.,0.,0.));
#192=DIRECTION('',(0.,0.,1.));
#193=DIRECTION('',(1.,0.,0.));
#194=DIRECTION('',(0.,0.,1.));
#195=DIRECTION('',(1.,0.,0.));
#196=DIRECTION('',(0.,0.,1.));
#197=DIRECTION('',(1.,0.,0.));
#198=DIRECTION('',(0.,0.,-1.));
#199=DIRECTION('',(-1.,0.,0.));
#200=DIRECTION('',(0.,0.,-1.));
#201=DIRECTION('',(-1.,0.,0.));
#202=DIRECTION('',(0.,0.,-1.));
#203=DIRECTION('',(-1.,0.,0.));
#204=DIRECTION('',(0.,0.,-1.));
#205=DIRECTION('',(-1.,0.,0.));
#206=DIRECTION('',(0.,0.,-1.));
#207=DIRECTION('',(-1.,0.,0.));
#208=DIRECTION('',(0.,0.,1.));
#209=DIRECTION('',(-1.,0.,0.));
#210=DIRECTION('',(0.,0.,-1.));
#211=DIRECTION('',(-1.,0.,0.));
#212=DIRECTION('',(0.,0.,1.));
#213=DIRECTION('',(1.,0.,6.60989343819329E-017));
#214=DIRECTION('',(0.,0.,-1.));
#215=DIRECTION('',(1.,0.,0.));
#216=DIRECTION('',(0.,0.,1.));
#217=DIRECTION('',(1.,0.,0.));
#218=DIRECTION('',(6.12323399573677E-017,0.,0.999999999999998));
#219=DIRECTION('',(1.,0.,0.));
#220=DIRECTION('',(0.,0.,-1.));
#221=DIRECTION('',(-1.,0.,0.));
#222=CARTESIAN_POINT('',(0.,0.,0.));
#223=CARTESIAN_POINT('',(0.,0.,0.033));
#224=CARTESIAN_POINT('',(0.071,0.,0.033));
#225=CARTESIAN_POINT('',(-4.26851249010041E-018,5.33564061262551E-019,0.033));
#226=CARTESIAN_POINT('',(0.045,5.33564061262551E-019,0.033));
#227=CARTESIAN_POINT('',(0.,0.,0.033));
#228=CARTESIAN_POINT('',(0.,0.,0.));
#229=CARTESIAN_POINT('',(-0.071,0.,0.));
#230=CARTESIAN_POINT('',(0.,8.53702498020082E-018,0.));
#231=CARTESIAN_POINT('',(-0.047,8.53702498020082E-018,0.));
#232=CARTESIAN_POINT('',(0.,0.,0.));
#233=CARTESIAN_POINT('',(0.,8.53702498020082E-018,-0.63));
#234=CARTESIAN_POINT('',(-0.000999999999999994,8.53702498020082E-018,-0.63));
#235=CARTESIAN_POINT('',(0.,8.53702498020082E-018,-0.63));
#236=CARTESIAN_POINT('',(0.,8.53702498020082E-018,-0.550325662851832));
#237=CARTESIAN_POINT('',(-0.047,8.53702498020082E-018,-0.550325662851832));
#238=CARTESIAN_POINT('',(0.,8.53702498020082E-018,0.));
#239=CARTESIAN_POINT('',(0.,8.53702498020082E-018,-0.63));
#240=CARTESIAN_POINT('',(-4.26851249010041E-018,5.33564061262551E-019,1.988));
#241=CARTESIAN_POINT('',(0.045,5.33564061262551E-019,1.988));
#242=CARTESIAN_POINT('',(-4.26851249010041E-018,5.33564061262551E-019,0.033));
#243=CARTESIAN_POINT('',(-4.26851249010041E-018,5.33564061262551E-019,1.988));
#244=CARTESIAN_POINT('',(0.,0.,0.0165));
#245=(
GEOMETRIC_REPRESENTATION_CONTEXT(3)
GLOBAL_UNCERTAINTY_ASSIGNED_CONTEXT((#246))
GLOBAL_UNIT_ASSIGNED_CONTEXT((#251,#248,#247))
REPRESENTATION_CONTEXT('HBN2-T (14L203CG_03)','TOP_LEVEL_ASSEMBLY_PART')
);
#246=UNCERTAINTY_MEASURE_WITH_UNIT(LENGTH_MEASURE(7.8740157480315E-007),
#251,'DISTANCE_ACCURACY_VALUE','Maximum Tolerance applied to model');
#247=(
NAMED_UNIT(*)
SI_UNIT($,.STERADIAN.)
SOLID_ANGLE_UNIT()
);
#248=(
CONVERSION_BASED_UNIT('DEGREE',#249)
NAMED_UNIT(#253)
PLANE_ANGLE_UNIT()
);
#249=PLANE_ANGLE_MEASURE_WITH_UNIT(PLANE_ANGLE_MEASURE(0.0174532925),#250);
#250=(
NAMED_UNIT(*)
PLANE_ANGLE_UNIT()
SI_UNIT($,.RADIAN.)
);
#251=(
CONVERSION_BASED_UNIT('INCH',#254)
LENGTH_UNIT()
NAMED_UNIT(#252)
);
#252=DIMENSIONAL_EXPONENTS(1.,0.,0.,0.,0.,0.,0.);
#253=DIMENSIONAL_EXPONENTS(0.,0.,0.,0.,0.,0.,0.);
#254=LENGTH_MEASURE_WITH_UNIT(LENGTH_MEASURE(25.4),#255);
#255=(
LENGTH_UNIT()
NAMED_UNIT(*)
SI_UNIT(.MILLI.,.METRE.)
);
ENDSEC;
END-ISO-10303-21;
