  0
SECTION
  2
HEADER
  9
$ACADVER
  1
AC1012
  9
$DWGCODEPAGE
  3
ANSI_1252
  9
$INSBASE
 10
0.0
 20
0.0
 30
0.0
  9
$EXTMIN
 10
0.836425810163405
 20
11.07806399869507
 30
-0.0015258207003583
  9
$EXTMAX
 10
6.080566427298549
 20
14.89237978855658
 30
0.0000000349246037
  9
$LIMMIN
 10
0.0
 20
0.0
  9
$LIMMAX
 10
12.0
 20
9.0
  9
$ORTHOMODE
 70
     0
  9
$REGENMODE
 70
     1
  9
$FILLMODE
 70
     1
  9
$QTEXTMODE
 70
     0
  9
$MIRRTEXT
 70
     1
  9
$DRAGMODE
 70
     2
  9
$LTSCALE
 40
1.0
  9
$OSMODE
 70
    33
  9
$ATTMODE
 70
     1
  9
$TEXTSIZE
 40
0.2
  9
$TRACEWID
 40
0.05
  9
$TEXTSTYLE
  7
STANDARD
  9
$CLAYER
  8
0
  9
$CELTYPE
  6
BYLAYER
  9
$CECOLOR
 62
   256
  9
$CELTSCALE
 40
1.0
  9
$DELOBJ
 70
     1
  9
$DISPSILH
 70
     0
  9
$DIMSCALE
 40
1.0
  9
$DIMASZ
 40
0.18
  9
$DIMEXO
 40
0.0625
  9
$DIMDLI
 40
0.38
  9
$DIMRND
 40
0.0
  9
$DIMDLE
 40
0.0
  9
$DIMEXE
 40
0.18
  9
$DIMTP
 40
0.0
  9
$DIMTM
 40
0.0
  9
$DIMTXT
 40
0.18
  9
$DIMCEN
 40
0.09
  9
$DIMTSZ
 40
0.0
  9
$DIMTOL
 70
     0
  9
$DIMLIM
 70
     0
  9
$DIMTIH
 70
     1
  9
$DIMTOH
 70
     1
  9
$DIMSE1
 70
     0
  9
$DIMSE2
 70
     0
  9
$DIMTAD
 70
     0
  9
$DIMZIN
 70
     0
  9
$DIMBLK
  1

  9
$DIMASO
 70
     1
  9
$DIMSHO
 70
     1
  9
$DIMPOST
  1

  9
$DIMAPOST
  1

  9
$DIMALT
 70
     0
  9
$DIMALTD
 70
     2
  9
$DIMALTF
 40
25.4
  9
$DIMLFAC
 40
1.0
  9
$DIMTOFL
 70
     0
  9
$DIMTVP
 40
0.0
  9
$DIMTIX
 70
     0
  9
$DIMSOXD
 70
     0
  9
$DIMSAH
 70
     0
  9
$DIMBLK1
  1

  9
$DIMBLK2
  1

  9
$DIMSTYLE
  2
STANDARD
  9
$DIMCLRD
 70
     0
  9
$DIMCLRE
 70
     0
  9
$DIMCLRT
 70
     0
  9
$DIMTFAC
 40
1.0
  9
$DIMGAP
 40
0.09
  9
$DIMJUST
 70
     0
  9
$DIMSD1
 70
     0
  9
$DIMSD2
 70
     0
  9
$DIMTOLJ
 70
     1
  9
$DIMTZIN
 70
     0
  9
$DIMALTZ
 70
     0
  9
$DIMALTTZ
 70
     0
  9
$DIMFIT
 70
     5
  9
$DIMUPT
 70
     0
  9
$DIMUNIT
 70
     2
  9
$DIMDEC
 70
     4
  9
$DIMTDEC
 70
     4
  9
$DIMALTU
 70
     2
  9
$DIMALTTD
 70
     2
  9
$DIMTXSTY
  7
STANDARD
  9
$DIMAUNIT
 70
     0
  9
$LUNITS
 70
     2
  9
$LUPREC
 70
     4
  9
$SKETCHINC
 40
0.1
  9
$FILLETRAD
 40
0.0
  9
$AUNITS
 70
     0
  9
$AUPREC
 70
     0
  9
$MENU
  1
acad
  9
$ELEVATION
 40
0.0
  9
$PELEVATION
 40
0.0
  9
$THICKNESS
 40
0.0
  9
$LIMCHECK
 70
     0
  9
$BLIPMODE
 70
     0
  9
$CHAMFERA
 40
0.0
  9
$CHAMFERB
 40
0.0
  9
$CHAMFERC
 40
0.0
  9
$CHAMFERD
 40
0.0
  9
$SKPOLY
 70
     0
  9
$TDCREATE
 40
2452359.402777778
  9
$TDUPDATE
 40
2452359.407248796
  9
$TDINDWG
 40
0.0012006250
  9
$TDUSRTIMER
 40
0.0012006250
  9
$USRTIMER
 70
     1
  9
$ANGBASE
 50
0.0
  9
$ANGDIR
 70
     0
  9
$PDMODE
 70
     0
  9
$PDSIZE
 40
0.0
  9
$PLINEWID
 40
0.0
  9
$COORDS
 70
     2
  9
$SPLFRAME
 70
     0
  9
$SPLINETYPE
 70
     6
  9
$SPLINESEGS
 70
     8
  9
$ATTDIA
 70
     0
  9
$ATTREQ
 70
     1
  9
$HANDLING
 70
  4097
  9
$HANDSEED
  5
4683
  9
$SURFTAB1
 70
     6
  9
$SURFTAB2
 70
     6
  9
$SURFTYPE
 70
     6
  9
$SURFU
 70
     6
  9
$SURFV
 70
     6
  9
$UCSNAME
  2

  9
$UCSORG
 10
0.0
 20
0.0
 30
0.0
  9
$UCSXDIR
 10
1.0
 20
0.0
 30
0.0
  9
$UCSYDIR
 10
0.0
 20
1.0
 30
0.0
  9
$PUCSNAME
  2

  9
$PUCSORG
 10
0.0
 20
0.0
 30
0.0
  9
$PUCSXDIR
 10
1.0
 20
0.0
 30
0.0
  9
$PUCSYDIR
 10
0.0
 20
1.0
 30
0.0
  9
$USERI1
 70
     0
  9
$USERI2
 70
     0
  9
$USERI3
 70
     0
  9
$USERI4
 70
     0
  9
$USERI5
 70
     0
  9
$USERR1
 40
0.0
  9
$USERR2
 40
0.0
  9
$USERR3
 40
0.0
  9
$USERR4
 40
0.0
  9
$USERR5
 40
0.0
  9
$WORLDVIEW
 70
     1
  9
$SHADEDGE
 70
     3
  9
$SHADEDIF
 70
    70
  9
$TILEMODE
 70
     1
  9
$MAXACTVP
 70
    16
  9
$PINSBASE
 10
0.0
 20
0.0
 30
0.0
  9
$PLIMCHECK
 70
     0
  9
$PEXTMIN
 10
1.000000000000000E+20
 20
1.000000000000000E+20
 30
1.000000000000000E+20
  9
$PEXTMAX
 10
-1.000000000000000E+20
 20
-1.000000000000000E+20
 30
-1.000000000000000E+20
  9
$PLIMMIN
 10
0.0
 20
0.0
  9
$PLIMMAX
 10
12.0
 20
9.0
  9
$UNITMODE
 70
     0
  9
$VISRETAIN
 70
     0
  9
$PLINEGEN
 70
     0
  9
$PSLTSCALE
 70
     1
  9
$TREEDEPTH
 70
  3020
  9
$PICKSTYLE
 70
     1
  9
$CMLSTYLE
  2
STANDARD
  9
$CMLJUST
 70
     0
  9
$CMLSCALE
 40
1.0
  9
$SAVEIMAGES
 70
     1
  0
ENDSEC
  0
SECTION
  2
CLASSES
  0
CLASS
  1
ACDBDICTIONARYWDFLT
  2
AcDbDictionaryWithDefault
  3
AutoCAD 2000
 90
    32768
280
     0
281
     0
  0
CLASS
  1
ACDBPLACEHOLDER
  2
AcDbPlaceHolder
  3
AutoCAD 2000
 90
    32768
280
     0
281
     0
  0
CLASS
  1
LAYOUT
  2
AcDbLayout
  3
AutoCAD 2000
 90
    32768
280
     0
281
     0
  0
CLASS
  1
LONG_TRANSACTION
  2
AcDbLongTransaction
  3
AutoCAD 2000
 90
    32768
280
     0
281
     0
  0
CLASS
  1
LWPOLYLINE
  2
AcDbPolyline
  3
AutoCAD 2000
 90
    32768
280
     0
281
     1
  0
CLASS
  1
HATCH
  2
AcDbHatch
  3
AutoCAD 2000
 90
    32768
280
     0
281
     1
  0
CLASS
  1
XRECORD
  2
AcDbXrecord
  3
AutoCAD 2000
 90
    32768
280
     0
281
     0
  0
ENDSEC
  0
SECTION
  2
TABLES
  0
TABLE
  2
VPORT
  5
8
330
0
100
AcDbSymbolTable
 70
     3
  0
VPORT
  5
467E
330
8
100
AcDbSymbolTableRecord
100
AcDbViewportTableRecord
  2
*ACTIVE
 70
     0
 10
0.0
 20
0.0
 11
1.0
 21
1.0
 12
3.458496118730978
 22
12.98522189362582
 13
0.0
 23
0.0
 14
1.0
 24
1.0
 15
0.0
 25
0.0
 16
0.0
 26
0.0
 36
1.0
 17
0.0
 27
0.0
 37
0.0
 40
3.84407638119983
 41
1.639322916666666
 42
50.0
 43
0.0
 44
0.0
 50
0.0
 51
0.0
 71
     0
 72
   100
 73
     1
 74
     1
 75
     0
 76
     0
 77
     0
 78
     0
  0
ENDTAB
  0
TABLE
  2
LTYPE
  5
5
330
0
100
AcDbSymbolTable
 70
    25
  0
LTYPE
  5
13
330
5
100
AcDbSymbolTableRecord
100
AcDbLinetypeTableRecord
  2
BYBLOCK
 70
     0
  3

 72
    65
 73
     0
 40
0.0
  0
LTYPE
  5
14
330
5
100
AcDbSymbolTableRecord
100
AcDbLinetypeTableRecord
  2
BYLAYER
 70
     0
  3

 72
    65
 73
     0
 40
0.0
  0
LTYPE
  5
15
330
5
100
AcDbSymbolTableRecord
100
AcDbLinetypeTableRecord
  2
CONTINUOUS
 70
     0
  3
Solid line
 72
    65
 73
     0
 40
0.0
  0
LTYPE
  5
22
330
5
100
AcDbSymbolTableRecord
100
AcDbLinetypeTableRecord
  2
BORDER
 70
     0
  3
__ __ . __ __ . __ __ . __ __ . __ __ . __ __ .
 72
    65
 73
     6
 40
1.75
 49
0.5
 74
     0
 49
-0.25
 74
     0
 49
0.5
 74
     0
 49
-0.25
 74
     0
 49
0.5
 74
     0
 49
-0.25
 74
     0
  0
LTYPE
  5
23
330
5
100
AcDbSymbolTableRecord
100
AcDbLinetypeTableRecord
  2
BORDER2
 70
     0
  3
__.__.__.__.__.__.__.__.__.__.__.__.__.__.__.__
 72
    65
 73
     6
 40
0.875
 49
0.25
 74
     0
 49
-0.125
 74
     0
 49
0.25
 74
     0
 49
-0.125
 74
     0
 49
0.25
 74
     0
 49
-0.125
 74
     0
  0
LTYPE
  5
24
330
5
100
AcDbSymbolTableRecord
100
AcDbLinetypeTableRecord
  2
BORDERX2
 70
     0
  3
____  ____  .  ____  ____  .  
 72
    65
 73
     6
 40
3.5
 49
1.0
 74
     0
 49
-0.5
 74
     0
 49
1.0
 74
     0
 49
-0.5
 74
     0
 49
1.0
 74
     0
 49
-0.5
 74
     0
  0
LTYPE
  5
25
330
5
100
AcDbSymbolTableRecord
100
AcDbLinetypeTableRecord
  2
CENTER
 70
     0
  3
____ _ ____ _ ____ _ ____ _ ____ _ ____ _ ____
 72
    65
 73
     4
 40
2.0
 49
1.25
 74
     0
 49
-0.25
 74
     0
 49
0.25
 74
     0
 49
-0.25
 74
     0
  0
LTYPE
  5
26
330
5
100
AcDbSymbolTableRecord
100
AcDbLinetypeTableRecord
  2
CENTER2
 70
     0
  3
____ _ ____ _ ____ _ ____ _ ____ _ ____ _ ____
 72
    65
 73
     4
 40
1.125
 49
0.75
 74
     0
 49
-0.125
 74
     0
 49
0.125
 74
     0
 49
-0.125
 74
     0
  0
LTYPE
  5
27
330
5
100
AcDbSymbolTableRecord
100
AcDbLinetypeTableRecord
  2
CENTERX2
 70
     0
  3
________  __  ________  __  ________  __  
 72
    65
 73
     4
 40
4.0
 49
2.5
 74
     0
 49
-0.5
 74
     0
 49
0.5
 74
     0
 49
-0.5
 74
     0
  0
LTYPE
  5
28
330
5
100
AcDbSymbolTableRecord
100
AcDbLinetypeTableRecord
  2
DASHDOT
 70
     0
  3
__ . __ . __ . __ . __ . __ . __ . 
 72
    65
 73
     4
 40
1.0
 49
0.5
 74
     0
 49
-0.25
 74
     0
 49
0.0
 74
     0
 49
-0.25
 74
     0
  0
LTYPE
  5
29
330
5
100
AcDbSymbolTableRecord
100
AcDbLinetypeTableRecord
  2
DASHDOT2
 70
     0
  3
_._._._._._._._._._._._._._._._.
 72
    65
 73
     4
 40
0.5
 49
0.25
 74
     0
 49
-0.125
 74
     0
 49
0.0
 74
     0
 49
-0.125
 74
     0
  0
LTYPE
  5
2A
330
5
100
AcDbSymbolTableRecord
100
AcDbLinetypeTableRecord
  2
DASHDOTX2
 70
     0
  3
____  .  ____  .  ____  .  ____  .  
 72
    65
 73
     4
 40
2.0
 49
1.0
 74
     0
 49
-0.5
 74
     0
 49
0.0
 74
     0
 49
-0.5
 74
     0
  0
LTYPE
  5
2B
330
5
100
AcDbSymbolTableRecord
100
AcDbLinetypeTableRecord
  2
DASHED
 70
     0
  3
__ __ __ __ __ __ __ __ __ __ __ __ 
 72
    65
 73
     2
 40
0.75
 49
0.5
 74
     0
 49
-0.25
 74
     0
  0
LTYPE
  5
2C
330
5
100
AcDbSymbolTableRecord
100
AcDbLinetypeTableRecord
  2
DASHED2
 70
     0
  3
_ _ _ _ _ _ _ _ _ _ _ _ _ _ _ _ _ _ 
 72
    65
 73
     2
 40
0.375
 49
0.25
 74
     0
 49
-0.125
 74
     0
  0
LTYPE
  5
2D
330
5
100
AcDbSymbolTableRecord
100
AcDbLinetypeTableRecord
  2
DASHEDX2
 70
     0
  3
____  ____  ____  ____  ____  ____  
 72
    65
 73
     2
 40
1.5
 49
1.0
 74
     0
 49
-0.5
 74
     0
  0
LTYPE
  5
2E
330
5
100
AcDbSymbolTableRecord
100
AcDbLinetypeTableRecord
  2
DIVIDE
 70
     0
  3
____ . . ____ . . ____ . . ____ . . 
 72
    65
 73
     6
 40
1.25
 49
0.5
 74
     0
 49
-0.25
 74
     0
 49
0.0
 74
     0
 49
-0.25
 74
     0
 49
0.0
 74
     0
 49
-0.25
 74
     0
  0
LTYPE
  5
2F
330
5
100
AcDbSymbolTableRecord
100
AcDbLinetypeTableRecord
  2
DIVIDE2
 70
     0
  3
__..__..__..__..__..__..__..__..__..
 72
    65
 73
     6
 40
0.625
 49
0.25
 74
     0
 49
-0.125
 74
     0
 49
0.0
 74
     0
 49
-0.125
 74
     0
 49
0.0
 74
     0
 49
-0.125
 74
     0
  0
LTYPE
  5
30
330
5
100
AcDbSymbolTableRecord
100
AcDbLinetypeTableRecord
  2
DIVIDEX2
 70
     0
  3
________  .  .  ________  .  .  ________  .  . 
 72
    65
 73
     6
 40
2.5
 49
1.0
 74
     0
 49
-0.5
 74
     0
 49
0.0
 74
     0
 49
-0.5
 74
     0
 49
0.0
 74
     0
 49
-0.5
 74
     0
  0
LTYPE
  5
31
330
5
100
AcDbSymbolTableRecord
100
AcDbLinetypeTableRecord
  2
DOT
 70
     0
  3
. . . . . . . . . . . . . . . . . . 
 72
    65
 73
     2
 40
0.25
 49
0.0
 74
     0
 49
-0.25
 74
     0
  0
LTYPE
  5
32
330
5
100
AcDbSymbolTableRecord
100
AcDbLinetypeTableRecord
  2
DOT2
 70
     0
  3
....................................
 72
    65
 73
     2
 40
0.125
 49
0.0
 74
     0
 49
-0.125
 74
     0
  0
LTYPE
  5
33
330
5
100
AcDbSymbolTableRecord
100
AcDbLinetypeTableRecord
  2
DOTX2
 70
     0
  3
.  .  .  .  .  .  .  .  .  .  .  .  .  
 72
    65
 73
     2
 40
0.5
 49
0.0
 74
     0
 49
-0.5
 74
     0
  0
LTYPE
  5
34
330
5
100
AcDbSymbolTableRecord
100
AcDbLinetypeTableRecord
  2
HIDDEN
 70
     0
  3
__ __ __ __ __ __ __ __ __ __ __ __ 
 72
    65
 73
     2
 40
0.375
 49
0.25
 74
     0
 49
-0.125
 74
     0
  0
LTYPE
  5
35
330
5
100
AcDbSymbolTableRecord
100
AcDbLinetypeTableRecord
  2
HIDDEN2
 70
     0
  3
_ _ _ _ _ _ _ _ _ _ _ _ _ _ _ _ _ _ 
 72
    65
 73
     2
 40
0.1875
 49
0.125
 74
     0
 49
-0.0625
 74
     0
  0
LTYPE
  5
36
330
5
100
AcDbSymbolTableRecord
100
AcDbLinetypeTableRecord
  2
HIDDENX2
 70
     0
  3
____ ____ ____ ____ ____ ____ ____ 
 72
    65
 73
     2
 40
0.75
 49
0.5
 74
     0
 49
-0.25
 74
     0
  0
LTYPE
  5
37
330
5
100
AcDbSymbolTableRecord
100
AcDbLinetypeTableRecord
  2
PHANTOM
 70
     0
  3
______  __  __  ______  __  __  
 72
    65
 73
     6
 40
2.5
 49
1.25
 74
     0
 49
-0.25
 74
     0
 49
0.25
 74
     0
 49
-0.25
 74
     0
 49
0.25
 74
     0
 49
-0.25
 74
     0
  0
LTYPE
  5
38
330
5
100
AcDbSymbolTableRecord
100
AcDbLinetypeTableRecord
  2
PHANTOM2
 70
     0
  3
___ _ _ ___ _ _ ___ _ _ ___ _ _ 
 72
    65
 73
     6
 40
1.25
 49
0.625
 74
     0
 49
-0.125
 74
     0
 49
0.125
 74
     0
 49
-0.125
 74
     0
 49
0.125
 74
     0
 49
-0.125
 74
     0
  0
LTYPE
  5
39
330
5
100
AcDbSymbolTableRecord
100
AcDbLinetypeTableRecord
  2
PHANTOMX2
 70
     0
  3
___ _ _ ___ _ _ ___ _ _ ___ _ _ 
 72
    65
 73
     6
 40
5.0
 49
2.5
 74
     0
 49
-0.5
 74
     0
 49
0.5
 74
     0
 49
-0.5
 74
     0
 49
0.5
 74
     0
 49
-0.5
 74
     0
  0
ENDTAB
  0
TABLE
  2
LAYER
  5
2
330
0
100
AcDbSymbolTable
 70
   256
  0
LAYER
  5
10
330
2
100
AcDbSymbolTableRecord
100
AcDbLayerTableRecord
  2
0
 70
     0
 62
     7
  6
CONTINUOUS
  0
LAYER
  5
3A
330
2
100
AcDbSymbolTableRecord
100
AcDbLayerTableRecord
  2
1
 70
     0
 62
     1
  6
CONTINUOUS
  0
LAYER
  5
3B
330
2
100
AcDbSymbolTableRecord
100
AcDbLayerTableRecord
  2
2
 70
     0
 62
     2
  6
CONTINUOUS
  0
LAYER
  5
3C
330
2
100
AcDbSymbolTableRecord
100
AcDbLayerTableRecord
  2
3
 70
     0
 62
     3
  6
CONTINUOUS
  0
LAYER
  5
3D
330
2
100
AcDbSymbolTableRecord
100
AcDbLayerTableRecord
  2
4
 70
     0
 62
     4
  6
CONTINUOUS
  0
LAYER
  5
3E
330
2
100
AcDbSymbolTableRecord
100
AcDbLayerTableRecord
  2
5
 70
     0
 62
     5
  6
CONTINUOUS
  0
LAYER
  5
3F
330
2
100
AcDbSymbolTableRecord
100
AcDbLayerTableRecord
  2
6
 70
     0
 62
     6
  6
CONTINUOUS
  0
LAYER
  5
40
330
2
100
AcDbSymbolTableRecord
100
AcDbLayerTableRecord
  2
7
 70
     0
 62
     7
  6
CONTINUOUS
  0
LAYER
  5
41
330
2
100
AcDbSymbolTableRecord
100
AcDbLayerTableRecord
  2
8
 70
     0
 62
     8
  6
CONTINUOUS
  0
LAYER
  5
42
330
2
100
AcDbSymbolTableRecord
100
AcDbLayerTableRecord
  2
9
 70
     0
 62
     9
  6
CONTINUOUS
  0
LAYER
  5
43
330
2
100
AcDbSymbolTableRecord
100
AcDbLayerTableRecord
  2
10
 70
     0
 62
    10
  6
CONTINUOUS
  0
LAYER
  5
44
330
2
100
AcDbSymbolTableRecord
100
AcDbLayerTableRecord
  2
11
 70
     0
 62
    11
  6
CONTINUOUS
  0
LAYER
  5
45
330
2
100
AcDbSymbolTableRecord
100
AcDbLayerTableRecord
  2
12
 70
     0
 62
    12
  6
CONTINUOUS
  0
LAYER
  5
46
330
2
100
AcDbSymbolTableRecord
100
AcDbLayerTableRecord
  2
13
 70
     0
 62
    13
  6
CONTINUOUS
  0
LAYER
  5
47
330
2
100
AcDbSymbolTableRecord
100
AcDbLayerTableRecord
  2
14
 70
     0
 62
    14
  6
CONTINUOUS
  0
LAYER
  5
48
330
2
100
AcDbSymbolTableRecord
100
AcDbLayerTableRecord
  2
15
 70
     0
 62
    15
  6
CONTINUOUS
  0
LAYER
  5
49
330
2
100
AcDbSymbolTableRecord
100
AcDbLayerTableRecord
  2
16
 70
     0
 62
    16
  6
CONTINUOUS
  0
LAYER
  5
4A
330
2
100
AcDbSymbolTableRecord
100
AcDbLayerTableRecord
  2
17
 70
     0
 62
    17
  6
CONTINUOUS
  0
LAYER
  5
4B
330
2
100
AcDbSymbolTableRecord
100
AcDbLayerTableRecord
  2
18
 70
     0
 62
    18
  6
CONTINUOUS
  0
LAYER
  5
4C
330
2
100
AcDbSymbolTableRecord
100
AcDbLayerTableRecord
  2
19
 70
     0
 62
    19
  6
CONTINUOUS
  0
LAYER
  5
4D
330
2
100
AcDbSymbolTableRecord
100
AcDbLayerTableRecord
  2
20
 70
     0
 62
    20
  6
CONTINUOUS
  0
LAYER
  5
4E
330
2
100
AcDbSymbolTableRecord
100
AcDbLayerTableRecord
  2
21
 70
     0
 62
    21
  6
CONTINUOUS
  0
LAYER
  5
4F
330
2
100
AcDbSymbolTableRecord
100
AcDbLayerTableRecord
  2
22
 70
     0
 62
    22
  6
CONTINUOUS
  0
LAYER
  5
50
330
2
100
AcDbSymbolTableRecord
100
AcDbLayerTableRecord
  2
23
 70
     0
 62
    23
  6
CONTINUOUS
  0
LAYER
  5
51
330
2
100
AcDbSymbolTableRecord
100
AcDbLayerTableRecord
  2
24
 70
     0
 62
    24
  6
CONTINUOUS
  0
LAYER
  5
52
330
2
100
AcDbSymbolTableRecord
100
AcDbLayerTableRecord
  2
25
 70
     0
 62
    25
  6
CONTINUOUS
  0
LAYER
  5
53
330
2
100
AcDbSymbolTableRecord
100
AcDbLayerTableRecord
  2
26
 70
     0
 62
    26
  6
CONTINUOUS
  0
LAYER
  5
54
330
2
100
AcDbSymbolTableRecord
100
AcDbLayerTableRecord
  2
27
 70
     0
 62
    27
  6
CONTINUOUS
  0
LAYER
  5
55
330
2
100
AcDbSymbolTableRecord
100
AcDbLayerTableRecord
  2
28
 70
     0
 62
    28
  6
CONTINUOUS
  0
LAYER
  5
56
330
2
100
AcDbSymbolTableRecord
100
AcDbLayerTableRecord
  2
29
 70
     0
 62
    29
  6
CONTINUOUS
  0
LAYER
  5
57
330
2
100
AcDbSymbolTableRecord
100
AcDbLayerTableRecord
  2
30
 70
     0
 62
    30
  6
CONTINUOUS
  0
LAYER
  5
58
330
2
100
AcDbSymbolTableRecord
100
AcDbLayerTableRecord
  2
31
 70
     0
 62
    31
  6
CONTINUOUS
  0
LAYER
  5
59
330
2
100
AcDbSymbolTableRecord
100
AcDbLayerTableRecord
  2
32
 70
     0
 62
    32
  6
CONTINUOUS
  0
LAYER
  5
5A
330
2
100
AcDbSymbolTableRecord
100
AcDbLayerTableRecord
  2
33
 70
     0
 62
    33
  6
CONTINUOUS
  0
LAYER
  5
5B
330
2
100
AcDbSymbolTableRecord
100
AcDbLayerTableRecord
  2
34
 70
     0
 62
    34
  6
CONTINUOUS
  0
LAYER
  5
5C
330
2
100
AcDbSymbolTableRecord
100
AcDbLayerTableRecord
  2
35
 70
     0
 62
    35
  6
CONTINUOUS
  0
LAYER
  5
5D
330
2
100
AcDbSymbolTableRecord
100
AcDbLayerTableRecord
  2
36
 70
     0
 62
    36
  6
CONTINUOUS
  0
LAYER
  5
5E
330
2
100
AcDbSymbolTableRecord
100
AcDbLayerTableRecord
  2
37
 70
     0
 62
    37
  6
CONTINUOUS
  0
LAYER
  5
5F
330
2
100
AcDbSymbolTableRecord
100
AcDbLayerTableRecord
  2
38
 70
     0
 62
    38
  6
CONTINUOUS
  0
LAYER
  5
60
330
2
100
AcDbSymbolTableRecord
100
AcDbLayerTableRecord
  2
39
 70
     0
 62
    39
  6
CONTINUOUS
  0
LAYER
  5
61
330
2
100
AcDbSymbolTableRecord
100
AcDbLayerTableRecord
  2
40
 70
     0
 62
    40
  6
CONTINUOUS
  0
LAYER
  5
62
330
2
100
AcDbSymbolTableRecord
100
AcDbLayerTableRecord
  2
41
 70
     0
 62
    41
  6
CONTINUOUS
  0
LAYER
  5
63
330
2
100
AcDbSymbolTableRecord
100
AcDbLayerTableRecord
  2
42
 70
     0
 62
    42
  6
CONTINUOUS
  0
LAYER
  5
64
330
2
100
AcDbSymbolTableRecord
100
AcDbLayerTableRecord
  2
43
 70
     0
 62
    43
  6
CONTINUOUS
  0
LAYER
  5
65
330
2
100
AcDbSymbolTableRecord
100
AcDbLayerTableRecord
  2
44
 70
     0
 62
    44
  6
CONTINUOUS
  0
LAYER
  5
66
330
2
100
AcDbSymbolTableRecord
100
AcDbLayerTableRecord
  2
45
 70
     0
 62
    45
  6
CONTINUOUS
  0
LAYER
  5
67
330
2
100
AcDbSymbolTableRecord
100
AcDbLayerTableRecord
  2
46
 70
     0
 62
    46
  6
CONTINUOUS
  0
LAYER
  5
68
330
2
100
AcDbSymbolTableRecord
100
AcDbLayerTableRecord
  2
47
 70
     0
 62
    47
  6
CONTINUOUS
  0
LAYER
  5
69
330
2
100
AcDbSymbolTableRecord
100
AcDbLayerTableRecord
  2
48
 70
     0
 62
    48
  6
CONTINUOUS
  0
LAYER
  5
6A
330
2
100
AcDbSymbolTableRecord
100
AcDbLayerTableRecord
  2
49
 70
     0
 62
    49
  6
CONTINUOUS
  0
LAYER
  5
6B
330
2
100
AcDbSymbolTableRecord
100
AcDbLayerTableRecord
  2
50
 70
     0
 62
    50
  6
CONTINUOUS
  0
LAYER
  5
6C
330
2
100
AcDbSymbolTableRecord
100
AcDbLayerTableRecord
  2
51
 70
     0
 62
    51
  6
CONTINUOUS
  0
LAYER
  5
6D
330
2
100
AcDbSymbolTableRecord
100
AcDbLayerTableRecord
  2
52
 70
     0
 62
    52
  6
CONTINUOUS
  0
LAYER
  5
6E
330
2
100
AcDbSymbolTableRecord
100
AcDbLayerTableRecord
  2
53
 70
     0
 62
    53
  6
CONTINUOUS
  0
LAYER
  5
6F
330
2
100
AcDbSymbolTableRecord
100
AcDbLayerTableRecord
  2
54
 70
     0
 62
    54
  6
CONTINUOUS
  0
LAYER
  5
70
330
2
100
AcDbSymbolTableRecord
100
AcDbLayerTableRecord
  2
55
 70
     0
 62
    55
  6
CONTINUOUS
  0
LAYER
  5
71
330
2
100
AcDbSymbolTableRecord
100
AcDbLayerTableRecord
  2
56
 70
     0
 62
    56
  6
CONTINUOUS
  0
LAYER
  5
72
330
2
100
AcDbSymbolTableRecord
100
AcDbLayerTableRecord
  2
57
 70
     0
 62
    57
  6
CONTINUOUS
  0
LAYER
  5
73
330
2
100
AcDbSymbolTableRecord
100
AcDbLayerTableRecord
  2
58
 70
     0
 62
    58
  6
CONTINUOUS
  0
LAYER
  5
74
330
2
100
AcDbSymbolTableRecord
100
AcDbLayerTableRecord
  2
59
 70
     0
 62
    59
  6
CONTINUOUS
  0
LAYER
  5
75
330
2
100
AcDbSymbolTableRecord
100
AcDbLayerTableRecord
  2
60
 70
     0
 62
    60
  6
CONTINUOUS
  0
LAYER
  5
76
330
2
100
AcDbSymbolTableRecord
100
AcDbLayerTableRecord
  2
61
 70
     0
 62
    61
  6
CONTINUOUS
  0
LAYER
  5
77
330
2
100
AcDbSymbolTableRecord
100
AcDbLayerTableRecord
  2
62
 70
     0
 62
    62
  6
CONTINUOUS
  0
LAYER
  5
78
330
2
100
AcDbSymbolTableRecord
100
AcDbLayerTableRecord
  2
63
 70
     0
 62
    63
  6
CONTINUOUS
  0
LAYER
  5
79
330
2
100
AcDbSymbolTableRecord
100
AcDbLayerTableRecord
  2
64
 70
     0
 62
    64
  6
CONTINUOUS
  0
LAYER
  5
7A
330
2
100
AcDbSymbolTableRecord
100
AcDbLayerTableRecord
  2
65
 70
     0
 62
    65
  6
CONTINUOUS
  0
LAYER
  5
7B
330
2
100
AcDbSymbolTableRecord
100
AcDbLayerTableRecord
  2
66
 70
     0
 62
    66
  6
CONTINUOUS
  0
LAYER
  5
7C
330
2
100
AcDbSymbolTableRecord
100
AcDbLayerTableRecord
  2
67
 70
     0
 62
    67
  6
CONTINUOUS
  0
LAYER
  5
7D
330
2
100
AcDbSymbolTableRecord
100
AcDbLayerTableRecord
  2
68
 70
     0
 62
    68
  6
CONTINUOUS
  0
LAYER
  5
7E
330
2
100
AcDbSymbolTableRecord
100
AcDbLayerTableRecord
  2
69
 70
     0
 62
    69
  6
CONTINUOUS
  0
LAYER
  5
7F
330
2
100
AcDbSymbolTableRecord
100
AcDbLayerTableRecord
  2
70
 70
     0
 62
    70
  6
CONTINUOUS
  0
LAYER
  5
80
330
2
100
AcDbSymbolTableRecord
100
AcDbLayerTableRecord
  2
71
 70
     0
 62
    71
  6
CONTINUOUS
  0
LAYER
  5
81
330
2
100
AcDbSymbolTableRecord
100
AcDbLayerTableRecord
  2
72
 70
     0
 62
    72
  6
CONTINUOUS
  0
LAYER
  5
82
330
2
100
AcDbSymbolTableRecord
100
AcDbLayerTableRecord
  2
73
 70
     0
 62
    73
  6
CONTINUOUS
  0
LAYER
  5
83
330
2
100
AcDbSymbolTableRecord
100
AcDbLayerTableRecord
  2
74
 70
     0
 62
    74
  6
CONTINUOUS
  0
LAYER
  5
84
330
2
100
AcDbSymbolTableRecord
100
AcDbLayerTableRecord
  2
75
 70
     0
 62
    75
  6
CONTINUOUS
  0
LAYER
  5
85
330
2
100
AcDbSymbolTableRecord
100
AcDbLayerTableRecord
  2
76
 70
     0
 62
    76
  6
CONTINUOUS
  0
LAYER
  5
86
330
2
100
AcDbSymbolTableRecord
100
AcDbLayerTableRecord
  2
77
 70
     0
 62
    77
  6
CONTINUOUS
  0
LAYER
  5
87
330
2
100
AcDbSymbolTableRecord
100
AcDbLayerTableRecord
  2
78
 70
     0
 62
    78
  6
CONTINUOUS
  0
LAYER
  5
88
330
2
100
AcDbSymbolTableRecord
100
AcDbLayerTableRecord
  2
79
 70
     0
 62
    79
  6
CONTINUOUS
  0
LAYER
  5
89
330
2
100
AcDbSymbolTableRecord
100
AcDbLayerTableRecord
  2
80
 70
     0
 62
    80
  6
CONTINUOUS
  0
LAYER
  5
8A
330
2
100
AcDbSymbolTableRecord
100
AcDbLayerTableRecord
  2
81
 70
     0
 62
    81
  6
CONTINUOUS
  0
LAYER
  5
8B
330
2
100
AcDbSymbolTableRecord
100
AcDbLayerTableRecord
  2
82
 70
     0
 62
    82
  6
CONTINUOUS
  0
LAYER
  5
8C
330
2
100
AcDbSymbolTableRecord
100
AcDbLayerTableRecord
  2
83
 70
     0
 62
    83
  6
CONTINUOUS
  0
LAYER
  5
8D
330
2
100
AcDbSymbolTableRecord
100
AcDbLayerTableRecord
  2
84
 70
     0
 62
    84
  6
CONTINUOUS
  0
LAYER
  5
8E
330
2
100
AcDbSymbolTableRecord
100
AcDbLayerTableRecord
  2
85
 70
     0
 62
    85
  6
CONTINUOUS
  0
LAYER
  5
8F
330
2
100
AcDbSymbolTableRecord
100
AcDbLayerTableRecord
  2
86
 70
     0
 62
    86
  6
CONTINUOUS
  0
LAYER
  5
90
330
2
100
AcDbSymbolTableRecord
100
AcDbLayerTableRecord
  2
87
 70
     0
 62
    87
  6
CONTINUOUS
  0
LAYER
  5
91
330
2
100
AcDbSymbolTableRecord
100
AcDbLayerTableRecord
  2
88
 70
     0
 62
    88
  6
CONTINUOUS
  0
LAYER
  5
92
330
2
100
AcDbSymbolTableRecord
100
AcDbLayerTableRecord
  2
89
 70
     0
 62
    89
  6
CONTINUOUS
  0
LAYER
  5
93
330
2
100
AcDbSymbolTableRecord
100
AcDbLayerTableRecord
  2
90
 70
     0
 62
    90
  6
CONTINUOUS
  0
LAYER
  5
94
330
2
100
AcDbSymbolTableRecord
100
AcDbLayerTableRecord
  2
91
 70
     0
 62
    91
  6
CONTINUOUS
  0
LAYER
  5
95
330
2
100
AcDbSymbolTableRecord
100
AcDbLayerTableRecord
  2
92
 70
     0
 62
    92
  6
CONTINUOUS
  0
LAYER
  5
96
330
2
100
AcDbSymbolTableRecord
100
AcDbLayerTableRecord
  2
93
 70
     0
 62
    93
  6
CONTINUOUS
  0
LAYER
  5
97
330
2
100
AcDbSymbolTableRecord
100
AcDbLayerTableRecord
  2
94
 70
     0
 62
    94
  6
CONTINUOUS
  0
LAYER
  5
98
330
2
100
AcDbSymbolTableRecord
100
AcDbLayerTableRecord
  2
95
 70
     0
 62
    95
  6
CONTINUOUS
  0
LAYER
  5
99
330
2
100
AcDbSymbolTableRecord
100
AcDbLayerTableRecord
  2
96
 70
     0
 62
    96
  6
CONTINUOUS
  0
LAYER
  5
9A
330
2
100
AcDbSymbolTableRecord
100
AcDbLayerTableRecord
  2
97
 70
     0
 62
    97
  6
CONTINUOUS
  0
LAYER
  5
9B
330
2
100
AcDbSymbolTableRecord
100
AcDbLayerTableRecord
  2
98
 70
     0
 62
    98
  6
CONTINUOUS
  0
LAYER
  5
9C
330
2
100
AcDbSymbolTableRecord
100
AcDbLayerTableRecord
  2
99
 70
     0
 62
    99
  6
CONTINUOUS
  0
LAYER
  5
9D
330
2
100
AcDbSymbolTableRecord
100
AcDbLayerTableRecord
  2
100
 70
     0
 62
   100
  6
CONTINUOUS
  0
LAYER
  5
9E
330
2
100
AcDbSymbolTableRecord
100
AcDbLayerTableRecord
  2
101
 70
     0
 62
   101
  6
CONTINUOUS
  0
LAYER
  5
9F
330
2
100
AcDbSymbolTableRecord
100
AcDbLayerTableRecord
  2
102
 70
     0
 62
   102
  6
CONTINUOUS
  0
LAYER
  5
A0
330
2
100
AcDbSymbolTableRecord
100
AcDbLayerTableRecord
  2
103
 70
     0
 62
   103
  6
CONTINUOUS
  0
LAYER
  5
A1
330
2
100
AcDbSymbolTableRecord
100
AcDbLayerTableRecord
  2
104
 70
     0
 62
   104
  6
CONTINUOUS
  0
LAYER
  5
A2
330
2
100
AcDbSymbolTableRecord
100
AcDbLayerTableRecord
  2
105
 70
     0
 62
   105
  6
CONTINUOUS
  0
LAYER
  5
A3
330
2
100
AcDbSymbolTableRecord
100
AcDbLayerTableRecord
  2
106
 70
     0
 62
   106
  6
CONTINUOUS
  0
LAYER
  5
A4
330
2
100
AcDbSymbolTableRecord
100
AcDbLayerTableRecord
  2
107
 70
     0
 62
   107
  6
CONTINUOUS
  0
LAYER
  5
A5
330
2
100
AcDbSymbolTableRecord
100
AcDbLayerTableRecord
  2
108
 70
     0
 62
   108
  6
CONTINUOUS
  0
LAYER
  5
A6
330
2
100
AcDbSymbolTableRecord
100
AcDbLayerTableRecord
  2
109
 70
     0
 62
   109
  6
CONTINUOUS
  0
LAYER
  5
A7
330
2
100
AcDbSymbolTableRecord
100
AcDbLayerTableRecord
  2
110
 70
     0
 62
   110
  6
CONTINUOUS
  0
LAYER
  5
A8
330
2
100
AcDbSymbolTableRecord
100
AcDbLayerTableRecord
  2
111
 70
     0
 62
   111
  6
CONTINUOUS
  0
LAYER
  5
A9
330
2
100
AcDbSymbolTableRecord
100
AcDbLayerTableRecord
  2
112
 70
     0
 62
   112
  6
CONTINUOUS
  0
LAYER
  5
AA
330
2
100
AcDbSymbolTableRecord
100
AcDbLayerTableRecord
  2
113
 70
     0
 62
   113
  6
CONTINUOUS
  0
LAYER
  5
AB
330
2
100
AcDbSymbolTableRecord
100
AcDbLayerTableRecord
  2
114
 70
     0
 62
   114
  6
CONTINUOUS
  0
LAYER
  5
AC
330
2
100
AcDbSymbolTableRecord
100
AcDbLayerTableRecord
  2
115
 70
     0
 62
   115
  6
CONTINUOUS
  0
LAYER
  5
AD
330
2
100
AcDbSymbolTableRecord
100
AcDbLayerTableRecord
  2
116
 70
     0
 62
   116
  6
CONTINUOUS
  0
LAYER
  5
AE
330
2
100
AcDbSymbolTableRecord
100
AcDbLayerTableRecord
  2
117
 70
     0
 62
   117
  6
CONTINUOUS
  0
LAYER
  5
AF
330
2
100
AcDbSymbolTableRecord
100
AcDbLayerTableRecord
  2
118
 70
     0
 62
   118
  6
CONTINUOUS
  0
LAYER
  5
B0
330
2
100
AcDbSymbolTableRecord
100
AcDbLayerTableRecord
  2
119
 70
     0
 62
   119
  6
CONTINUOUS
  0
LAYER
  5
B1
330
2
100
AcDbSymbolTableRecord
100
AcDbLayerTableRecord
  2
120
 70
     0
 62
   120
  6
CONTINUOUS
  0
LAYER
  5
B2
330
2
100
AcDbSymbolTableRecord
100
AcDbLayerTableRecord
  2
121
 70
     0
 62
   121
  6
CONTINUOUS
  0
LAYER
  5
B3
330
2
100
AcDbSymbolTableRecord
100
AcDbLayerTableRecord
  2
122
 70
     0
 62
   122
  6
CONTINUOUS
  0
LAYER
  5
B4
330
2
100
AcDbSymbolTableRecord
100
AcDbLayerTableRecord
  2
123
 70
     0
 62
   123
  6
CONTINUOUS
  0
LAYER
  5
B5
330
2
100
AcDbSymbolTableRecord
100
AcDbLayerTableRecord
  2
124
 70
     0
 62
   124
  6
CONTINUOUS
  0
LAYER
  5
B6
330
2
100
AcDbSymbolTableRecord
100
AcDbLayerTableRecord
  2
125
 70
     0
 62
   125
  6
CONTINUOUS
  0
LAYER
  5
B7
330
2
100
AcDbSymbolTableRecord
100
AcDbLayerTableRecord
  2
126
 70
     0
 62
   126
  6
CONTINUOUS
  0
LAYER
  5
B8
330
2
100
AcDbSymbolTableRecord
100
AcDbLayerTableRecord
  2
127
 70
     0
 62
   127
  6
CONTINUOUS
  0
LAYER
  5
B9
330
2
100
AcDbSymbolTableRecord
100
AcDbLayerTableRecord
  2
128
 70
     0
 62
   128
  6
CONTINUOUS
  0
LAYER
  5
BA
330
2
100
AcDbSymbolTableRecord
100
AcDbLayerTableRecord
  2
129
 70
     0
 62
   129
  6
CONTINUOUS
  0
LAYER
  5
BB
330
2
100
AcDbSymbolTableRecord
100
AcDbLayerTableRecord
  2
130
 70
     0
 62
   130
  6
CONTINUOUS
  0
LAYER
  5
BC
330
2
100
AcDbSymbolTableRecord
100
AcDbLayerTableRecord
  2
131
 70
     0
 62
   131
  6
CONTINUOUS
  0
LAYER
  5
BD
330
2
100
AcDbSymbolTableRecord
100
AcDbLayerTableRecord
  2
132
 70
     0
 62
   132
  6
CONTINUOUS
  0
LAYER
  5
BE
330
2
100
AcDbSymbolTableRecord
100
AcDbLayerTableRecord
  2
133
 70
     0
 62
   133
  6
CONTINUOUS
  0
LAYER
  5
BF
330
2
100
AcDbSymbolTableRecord
100
AcDbLayerTableRecord
  2
134
 70
     0
 62
   134
  6
CONTINUOUS
  0
LAYER
  5
C0
330
2
100
AcDbSymbolTableRecord
100
AcDbLayerTableRecord
  2
135
 70
     0
 62
   135
  6
CONTINUOUS
  0
LAYER
  5
C1
330
2
100
AcDbSymbolTableRecord
100
AcDbLayerTableRecord
  2
136
 70
     0
 62
   136
  6
CONTINUOUS
  0
LAYER
  5
C2
330
2
100
AcDbSymbolTableRecord
100
AcDbLayerTableRecord
  2
137
 70
     0
 62
   137
  6
CONTINUOUS
  0
LAYER
  5
C3
330
2
100
AcDbSymbolTableRecord
100
AcDbLayerTableRecord
  2
138
 70
     0
 62
   138
  6
CONTINUOUS
  0
LAYER
  5
C4
330
2
100
AcDbSymbolTableRecord
100
AcDbLayerTableRecord
  2
139
 70
     0
 62
   139
  6
CONTINUOUS
  0
LAYER
  5
C5
330
2
100
AcDbSymbolTableRecord
100
AcDbLayerTableRecord
  2
140
 70
     0
 62
   140
  6
CONTINUOUS
  0
LAYER
  5
C6
330
2
100
AcDbSymbolTableRecord
100
AcDbLayerTableRecord
  2
141
 70
     0
 62
   141
  6
CONTINUOUS
  0
LAYER
  5
C7
330
2
100
AcDbSymbolTableRecord
100
AcDbLayerTableRecord
  2
142
 70
     0
 62
   142
  6
CONTINUOUS
  0
LAYER
  5
C8
330
2
100
AcDbSymbolTableRecord
100
AcDbLayerTableRecord
  2
143
 70
     0
 62
   143
  6
CONTINUOUS
  0
LAYER
  5
C9
330
2
100
AcDbSymbolTableRecord
100
AcDbLayerTableRecord
  2
144
 70
     0
 62
   144
  6
CONTINUOUS
  0
LAYER
  5
CA
330
2
100
AcDbSymbolTableRecord
100
AcDbLayerTableRecord
  2
145
 70
     0
 62
   145
  6
CONTINUOUS
  0
LAYER
  5
CB
330
2
100
AcDbSymbolTableRecord
100
AcDbLayerTableRecord
  2
146
 70
     0
 62
   146
  6
CONTINUOUS
  0
LAYER
  5
CC
330
2
100
AcDbSymbolTableRecord
100
AcDbLayerTableRecord
  2
147
 70
     0
 62
   147
  6
CONTINUOUS
  0
LAYER
  5
CD
330
2
100
AcDbSymbolTableRecord
100
AcDbLayerTableRecord
  2
148
 70
     0
 62
   148
  6
CONTINUOUS
  0
LAYER
  5
CE
330
2
100
AcDbSymbolTableRecord
100
AcDbLayerTableRecord
  2
149
 70
     0
 62
   149
  6
CONTINUOUS
  0
LAYER
  5
CF
330
2
100
AcDbSymbolTableRecord
100
AcDbLayerTableRecord
  2
150
 70
     0
 62
   150
  6
CONTINUOUS
  0
LAYER
  5
D0
330
2
100
AcDbSymbolTableRecord
100
AcDbLayerTableRecord
  2
151
 70
     0
 62
   151
  6
CONTINUOUS
  0
LAYER
  5
D1
330
2
100
AcDbSymbolTableRecord
100
AcDbLayerTableRecord
  2
152
 70
     0
 62
   152
  6
CONTINUOUS
  0
LAYER
  5
D2
330
2
100
AcDbSymbolTableRecord
100
AcDbLayerTableRecord
  2
153
 70
     0
 62
   153
  6
CONTINUOUS
  0
LAYER
  5
D3
330
2
100
AcDbSymbolTableRecord
100
AcDbLayerTableRecord
  2
154
 70
     0
 62
   154
  6
CONTINUOUS
  0
LAYER
  5
D4
330
2
100
AcDbSymbolTableRecord
100
AcDbLayerTableRecord
  2
155
 70
     0
 62
   155
  6
CONTINUOUS
  0
LAYER
  5
D5
330
2
100
AcDbSymbolTableRecord
100
AcDbLayerTableRecord
  2
156
 70
     0
 62
   156
  6
CONTINUOUS
  0
LAYER
  5
D6
330
2
100
AcDbSymbolTableRecord
100
AcDbLayerTableRecord
  2
157
 70
     0
 62
   157
  6
CONTINUOUS
  0
LAYER
  5
D7
330
2
100
AcDbSymbolTableRecord
100
AcDbLayerTableRecord
  2
158
 70
     0
 62
   158
  6
CONTINUOUS
  0
LAYER
  5
D8
330
2
100
AcDbSymbolTableRecord
100
AcDbLayerTableRecord
  2
159
 70
     0
 62
   159
  6
CONTINUOUS
  0
LAYER
  5
D9
330
2
100
AcDbSymbolTableRecord
100
AcDbLayerTableRecord
  2
160
 70
     0
 62
   160
  6
CONTINUOUS
  0
LAYER
  5
DA
330
2
100
AcDbSymbolTableRecord
100
AcDbLayerTableRecord
  2
161
 70
     0
 62
   161
  6
CONTINUOUS
  0
LAYER
  5
DB
330
2
100
AcDbSymbolTableRecord
100
AcDbLayerTableRecord
  2
162
 70
     0
 62
   162
  6
CONTINUOUS
  0
LAYER
  5
DC
330
2
100
AcDbSymbolTableRecord
100
AcDbLayerTableRecord
  2
163
 70
     0
 62
   163
  6
CONTINUOUS
  0
LAYER
  5
DD
330
2
100
AcDbSymbolTableRecord
100
AcDbLayerTableRecord
  2
164
 70
     0
 62
   164
  6
CONTINUOUS
  0
LAYER
  5
DE
330
2
100
AcDbSymbolTableRecord
100
AcDbLayerTableRecord
  2
165
 70
     0
 62
   165
  6
CONTINUOUS
  0
LAYER
  5
DF
330
2
100
AcDbSymbolTableRecord
100
AcDbLayerTableRecord
  2
166
 70
     0
 62
   166
  6
CONTINUOUS
  0
LAYER
  5
E0
330
2
100
AcDbSymbolTableRecord
100
AcDbLayerTableRecord
  2
167
 70
     0
 62
   167
  6
CONTINUOUS
  0
LAYER
  5
E1
330
2
100
AcDbSymbolTableRecord
100
AcDbLayerTableRecord
  2
168
 70
     0
 62
   168
  6
CONTINUOUS
  0
LAYER
  5
E2
330
2
100
AcDbSymbolTableRecord
100
AcDbLayerTableRecord
  2
169
 70
     0
 62
   169
  6
CONTINUOUS
  0
LAYER
  5
E3
330
2
100
AcDbSymbolTableRecord
100
AcDbLayerTableRecord
  2
170
 70
     0
 62
   170
  6
CONTINUOUS
  0
LAYER
  5
E4
330
2
100
AcDbSymbolTableRecord
100
AcDbLayerTableRecord
  2
171
 70
     0
 62
   171
  6
CONTINUOUS
  0
LAYER
  5
E5
330
2
100
AcDbSymbolTableRecord
100
AcDbLayerTableRecord
  2
172
 70
     0
 62
   172
  6
CONTINUOUS
  0
LAYER
  5
E6
330
2
100
AcDbSymbolTableRecord
100
AcDbLayerTableRecord
  2
173
 70
     0
 62
   173
  6
CONTINUOUS
  0
LAYER
  5
E7
330
2
100
AcDbSymbolTableRecord
100
AcDbLayerTableRecord
  2
174
 70
     0
 62
   174
  6
CONTINUOUS
  0
LAYER
  5
E8
330
2
100
AcDbSymbolTableRecord
100
AcDbLayerTableRecord
  2
175
 70
     0
 62
   175
  6
CONTINUOUS
  0
LAYER
  5
E9
330
2
100
AcDbSymbolTableRecord
100
AcDbLayerTableRecord
  2
176
 70
     0
 62
   176
  6
CONTINUOUS
  0
LAYER
  5
EA
330
2
100
AcDbSymbolTableRecord
100
AcDbLayerTableRecord
  2
177
 70
     0
 62
   177
  6
CONTINUOUS
  0
LAYER
  5
EB
330
2
100
AcDbSymbolTableRecord
100
AcDbLayerTableRecord
  2
178
 70
     0
 62
   178
  6
CONTINUOUS
  0
LAYER
  5
EC
330
2
100
AcDbSymbolTableRecord
100
AcDbLayerTableRecord
  2
179
 70
     0
 62
   179
  6
CONTINUOUS
  0
LAYER
  5
ED
330
2
100
AcDbSymbolTableRecord
100
AcDbLayerTableRecord
  2
180
 70
     0
 62
   180
  6
CONTINUOUS
  0
LAYER
  5
EE
330
2
100
AcDbSymbolTableRecord
100
AcDbLayerTableRecord
  2
181
 70
     0
 62
   181
  6
CONTINUOUS
  0
LAYER
  5
EF
330
2
100
AcDbSymbolTableRecord
100
AcDbLayerTableRecord
  2
182
 70
     0
 62
   182
  6
CONTINUOUS
  0
LAYER
  5
F0
330
2
100
AcDbSymbolTableRecord
100
AcDbLayerTableRecord
  2
183
 70
     0
 62
   183
  6
CONTINUOUS
  0
LAYER
  5
F1
330
2
100
AcDbSymbolTableRecord
100
AcDbLayerTableRecord
  2
184
 70
     0
 62
   184
  6
CONTINUOUS
  0
LAYER
  5
F2
330
2
100
AcDbSymbolTableRecord
100
AcDbLayerTableRecord
  2
185
 70
     0
 62
   185
  6
CONTINUOUS
  0
LAYER
  5
F3
330
2
100
AcDbSymbolTableRecord
100
AcDbLayerTableRecord
  2
186
 70
     0
 62
   186
  6
CONTINUOUS
  0
LAYER
  5
F4
330
2
100
AcDbSymbolTableRecord
100
AcDbLayerTableRecord
  2
187
 70
     0
 62
   187
  6
CONTINUOUS
  0
LAYER
  5
F5
330
2
100
AcDbSymbolTableRecord
100
AcDbLayerTableRecord
  2
188
 70
     0
 62
   188
  6
CONTINUOUS
  0
LAYER
  5
F6
330
2
100
AcDbSymbolTableRecord
100
AcDbLayerTableRecord
  2
189
 70
     0
 62
   189
  6
CONTINUOUS
  0
LAYER
  5
F7
330
2
100
AcDbSymbolTableRecord
100
AcDbLayerTableRecord
  2
190
 70
     0
 62
   190
  6
CONTINUOUS
  0
LAYER
  5
F8
330
2
100
AcDbSymbolTableRecord
100
AcDbLayerTableRecord
  2
191
 70
     0
 62
   191
  6
CONTINUOUS
  0
LAYER
  5
F9
330
2
100
AcDbSymbolTableRecord
100
AcDbLayerTableRecord
  2
192
 70
     0
 62
   192
  6
CONTINUOUS
  0
LAYER
  5
FA
330
2
100
AcDbSymbolTableRecord
100
AcDbLayerTableRecord
  2
193
 70
     0
 62
   193
  6
CONTINUOUS
  0
LAYER
  5
FB
330
2
100
AcDbSymbolTableRecord
100
AcDbLayerTableRecord
  2
194
 70
     0
 62
   194
  6
CONTINUOUS
  0
LAYER
  5
FC
330
2
100
AcDbSymbolTableRecord
100
AcDbLayerTableRecord
  2
195
 70
     0
 62
   195
  6
CONTINUOUS
  0
LAYER
  5
FD
330
2
100
AcDbSymbolTableRecord
100
AcDbLayerTableRecord
  2
196
 70
     0
 62
   196
  6
CONTINUOUS
  0
LAYER
  5
FE
330
2
100
AcDbSymbolTableRecord
100
AcDbLayerTableRecord
  2
197
 70
     0
 62
   197
  6
CONTINUOUS
  0
LAYER
  5
FF
330
2
100
AcDbSymbolTableRecord
100
AcDbLayerTableRecord
  2
198
 70
     0
 62
   198
  6
CONTINUOUS
  0
LAYER
  5
100
330
2
100
AcDbSymbolTableRecord
100
AcDbLayerTableRecord
  2
199
 70
     0
 62
   199
  6
CONTINUOUS
  0
LAYER
  5
101
330
2
100
AcDbSymbolTableRecord
100
AcDbLayerTableRecord
  2
200
 70
     0
 62
   200
  6
CONTINUOUS
  0
LAYER
  5
102
330
2
100
AcDbSymbolTableRecord
100
AcDbLayerTableRecord
  2
201
 70
     0
 62
   201
  6
CONTINUOUS
  0
LAYER
  5
103
330
2
100
AcDbSymbolTableRecord
100
AcDbLayerTableRecord
  2
202
 70
     0
 62
   202
  6
CONTINUOUS
  0
LAYER
  5
104
330
2
100
AcDbSymbolTableRecord
100
AcDbLayerTableRecord
  2
203
 70
     0
 62
   203
  6
CONTINUOUS
  0
LAYER
  5
105
330
2
100
AcDbSymbolTableRecord
100
AcDbLayerTableRecord
  2
204
 70
     0
 62
   204
  6
CONTINUOUS
  0
LAYER
  5
106
330
2
100
AcDbSymbolTableRecord
100
AcDbLayerTableRecord
  2
205
 70
     0
 62
   205
  6
CONTINUOUS
  0
LAYER
  5
107
330
2
100
AcDbSymbolTableRecord
100
AcDbLayerTableRecord
  2
206
 70
     0
 62
   206
  6
CONTINUOUS
  0
LAYER
  5
108
330
2
100
AcDbSymbolTableRecord
100
AcDbLayerTableRecord
  2
207
 70
     0
 62
   207
  6
CONTINUOUS
  0
LAYER
  5
109
330
2
100
AcDbSymbolTableRecord
100
AcDbLayerTableRecord
  2
208
 70
     0
 62
   208
  6
CONTINUOUS
  0
LAYER
  5
10A
330
2
100
AcDbSymbolTableRecord
100
AcDbLayerTableRecord
  2
209
 70
     0
 62
   209
  6
CONTINUOUS
  0
LAYER
  5
10B
330
2
100
AcDbSymbolTableRecord
100
AcDbLayerTableRecord
  2
210
 70
     0
 62
   210
  6
CONTINUOUS
  0
LAYER
  5
10C
330
2
100
AcDbSymbolTableRecord
100
AcDbLayerTableRecord
  2
211
 70
     0
 62
   211
  6
CONTINUOUS
  0
LAYER
  5
10D
330
2
100
AcDbSymbolTableRecord
100
AcDbLayerTableRecord
  2
212
 70
     0
 62
   212
  6
CONTINUOUS
  0
LAYER
  5
10E
330
2
100
AcDbSymbolTableRecord
100
AcDbLayerTableRecord
  2
213
 70
     0
 62
   213
  6
CONTINUOUS
  0
LAYER
  5
10F
330
2
100
AcDbSymbolTableRecord
100
AcDbLayerTableRecord
  2
214
 70
     0
 62
   214
  6
CONTINUOUS
  0
LAYER
  5
110
330
2
100
AcDbSymbolTableRecord
100
AcDbLayerTableRecord
  2
215
 70
     0
 62
   215
  6
CONTINUOUS
  0
LAYER
  5
111
330
2
100
AcDbSymbolTableRecord
100
AcDbLayerTableRecord
  2
216
 70
     0
 62
   216
  6
CONTINUOUS
  0
LAYER
  5
112
330
2
100
AcDbSymbolTableRecord
100
AcDbLayerTableRecord
  2
217
 70
     0
 62
   217
  6
CONTINUOUS
  0
LAYER
  5
113
330
2
100
AcDbSymbolTableRecord
100
AcDbLayerTableRecord
  2
218
 70
     0
 62
   218
  6
CONTINUOUS
  0
LAYER
  5
114
330
2
100
AcDbSymbolTableRecord
100
AcDbLayerTableRecord
  2
219
 70
     0
 62
   219
  6
CONTINUOUS
  0
LAYER
  5
115
330
2
100
AcDbSymbolTableRecord
100
AcDbLayerTableRecord
  2
220
 70
     0
 62
   220
  6
CONTINUOUS
  0
LAYER
  5
116
330
2
100
AcDbSymbolTableRecord
100
AcDbLayerTableRecord
  2
221
 70
     0
 62
   221
  6
CONTINUOUS
  0
LAYER
  5
117
330
2
100
AcDbSymbolTableRecord
100
AcDbLayerTableRecord
  2
222
 70
     0
 62
   222
  6
CONTINUOUS
  0
LAYER
  5
118
330
2
100
AcDbSymbolTableRecord
100
AcDbLayerTableRecord
  2
223
 70
     0
 62
   223
  6
CONTINUOUS
  0
LAYER
  5
119
330
2
100
AcDbSymbolTableRecord
100
AcDbLayerTableRecord
  2
224
 70
     0
 62
   224
  6
CONTINUOUS
  0
LAYER
  5
11A
330
2
100
AcDbSymbolTableRecord
100
AcDbLayerTableRecord
  2
225
 70
     0
 62
   225
  6
CONTINUOUS
  0
LAYER
  5
11B
330
2
100
AcDbSymbolTableRecord
100
AcDbLayerTableRecord
  2
226
 70
     0
 62
   226
  6
CONTINUOUS
  0
LAYER
  5
11C
330
2
100
AcDbSymbolTableRecord
100
AcDbLayerTableRecord
  2
227
 70
     0
 62
   227
  6
CONTINUOUS
  0
LAYER
  5
11D
330
2
100
AcDbSymbolTableRecord
100
AcDbLayerTableRecord
  2
228
 70
     0
 62
   228
  6
CONTINUOUS
  0
LAYER
  5
11E
330
2
100
AcDbSymbolTableRecord
100
AcDbLayerTableRecord
  2
229
 70
     0
 62
   229
  6
CONTINUOUS
  0
LAYER
  5
11F
330
2
100
AcDbSymbolTableRecord
100
AcDbLayerTableRecord
  2
230
 70
     0
 62
   230
  6
CONTINUOUS
  0
LAYER
  5
120
330
2
100
AcDbSymbolTableRecord
100
AcDbLayerTableRecord
  2
231
 70
     0
 62
   231
  6
CONTINUOUS
  0
LAYER
  5
121
330
2
100
AcDbSymbolTableRecord
100
AcDbLayerTableRecord
  2
232
 70
     0
 62
   232
  6
CONTINUOUS
  0
LAYER
  5
122
330
2
100
AcDbSymbolTableRecord
100
AcDbLayerTableRecord
  2
233
 70
     0
 62
   233
  6
CONTINUOUS
  0
LAYER
  5
123
330
2
100
AcDbSymbolTableRecord
100
AcDbLayerTableRecord
  2
234
 70
     0
 62
   234
  6
CONTINUOUS
  0
LAYER
  5
124
330
2
100
AcDbSymbolTableRecord
100
AcDbLayerTableRecord
  2
235
 70
     0
 62
   235
  6
CONTINUOUS
  0
LAYER
  5
125
330
2
100
AcDbSymbolTableRecord
100
AcDbLayerTableRecord
  2
236
 70
     0
 62
   236
  6
CONTINUOUS
  0
LAYER
  5
126
330
2
100
AcDbSymbolTableRecord
100
AcDbLayerTableRecord
  2
237
 70
     0
 62
   237
  6
CONTINUOUS
  0
LAYER
  5
127
330
2
100
AcDbSymbolTableRecord
100
AcDbLayerTableRecord
  2
238
 70
     0
 62
   238
  6
CONTINUOUS
  0
LAYER
  5
128
330
2
100
AcDbSymbolTableRecord
100
AcDbLayerTableRecord
  2
239
 70
     0
 62
   239
  6
CONTINUOUS
  0
LAYER
  5
129
330
2
100
AcDbSymbolTableRecord
100
AcDbLayerTableRecord
  2
240
 70
     0
 62
   240
  6
CONTINUOUS
  0
LAYER
  5
12A
330
2
100
AcDbSymbolTableRecord
100
AcDbLayerTableRecord
  2
241
 70
     0
 62
   241
  6
CONTINUOUS
  0
LAYER
  5
12B
330
2
100
AcDbSymbolTableRecord
100
AcDbLayerTableRecord
  2
242
 70
     0
 62
   242
  6
CONTINUOUS
  0
LAYER
  5
12C
330
2
100
AcDbSymbolTableRecord
100
AcDbLayerTableRecord
  2
243
 70
     0
 62
   243
  6
CONTINUOUS
  0
LAYER
  5
12D
330
2
100
AcDbSymbolTableRecord
100
AcDbLayerTableRecord
  2
244
 70
     0
 62
   244
  6
CONTINUOUS
  0
LAYER
  5
12E
330
2
100
AcDbSymbolTableRecord
100
AcDbLayerTableRecord
  2
245
 70
     0
 62
   245
  6
CONTINUOUS
  0
LAYER
  5
12F
330
2
100
AcDbSymbolTableRecord
100
AcDbLayerTableRecord
  2
246
 70
     0
 62
   246
  6
CONTINUOUS
  0
LAYER
  5
130
330
2
100
AcDbSymbolTableRecord
100
AcDbLayerTableRecord
  2
247
 70
     0
 62
   247
  6
CONTINUOUS
  0
LAYER
  5
131
330
2
100
AcDbSymbolTableRecord
100
AcDbLayerTableRecord
  2
248
 70
     0
 62
   248
  6
CONTINUOUS
  0
LAYER
  5
132
330
2
100
AcDbSymbolTableRecord
100
AcDbLayerTableRecord
  2
249
 70
     0
 62
   249
  6
CONTINUOUS
  0
LAYER
  5
133
330
2
100
AcDbSymbolTableRecord
100
AcDbLayerTableRecord
  2
250
 70
     0
 62
   250
  6
CONTINUOUS
  0
LAYER
  5
134
330
2
100
AcDbSymbolTableRecord
100
AcDbLayerTableRecord
  2
251
 70
     0
 62
   251
  6
CONTINUOUS
  0
LAYER
  5
135
330
2
100
AcDbSymbolTableRecord
100
AcDbLayerTableRecord
  2
252
 70
     0
 62
   252
  6
CONTINUOUS
  0
LAYER
  5
136
330
2
100
AcDbSymbolTableRecord
100
AcDbLayerTableRecord
  2
253
 70
     0
 62
   253
  6
CONTINUOUS
  0
LAYER
  5
137
330
2
100
AcDbSymbolTableRecord
100
AcDbLayerTableRecord
  2
254
 70
     0
 62
   254
  6
CONTINUOUS
  0
LAYER
  5
138
330
2
100
AcDbSymbolTableRecord
100
AcDbLayerTableRecord
  2
255
 70
     0
 62
   255
  6
CONTINUOUS
  0
ENDTAB
  0
TABLE
  2
STYLE
  5
3
330
0
100
AcDbSymbolTable
 70
     1
  0
STYLE
  5
11
330
3
100
AcDbSymbolTableRecord
100
AcDbTextStyleTableRecord
  2
STANDARD
 70
     0
 40
0.0
 41
1.0
 50
0.0
 71
     0
 42
0.2
  3
monotxt
  4

  0
ENDTAB
  0
TABLE
  2
VIEW
  5
6
330
0
100
AcDbSymbolTable
 70
     0
  0
ENDTAB
  0
TABLE
  2
UCS
  5
7
330
0
100
AcDbSymbolTable
 70
     0
  0
ENDTAB
  0
TABLE
  2
APPID
  5
9
330
0
100
AcDbSymbolTable
 70
     1
  0
APPID
  5
12
330
9
100
AcDbSymbolTableRecord
100
AcDbRegAppTableRecord
  2
ACAD
 70
     0
  0
ENDTAB
  0
TABLE
  2
DIMSTYLE
  5
A
330
0
100
AcDbSymbolTable
 70
     1
  0
DIMSTYLE
105
3151
330
A
100
AcDbSymbolTableRecord
100
AcDbDimStyleTableRecord
  2
STANDARD
 70
     0
  3

  4

  5

  6

  7

 40
1.0
 41
0.18
 42
0.0625
 43
0.38
 44
0.18
 45
0.0
 46
0.0
 47
0.0
 48
0.0
140
0.18
141
0.09
142
0.0
143
25.4
144
1.0
145
0.0
146
1.0
147
0.09
 71
     0
 72
     0
 73
     1
 74
     1
 75
     0
 76
     0
 77
     0
 78
     0
170
     0
171
     2
172
     0
173
     0
174
     0
175
     0
176
     0
177
     0
178
     0
270
     2
271
     4
272
     4
273
     2
274
     2
340
11
275
     0
280
     0
281
     0
282
     0
283
     1
284
     0
285
     0
286
     0
287
     3
288
     0
  0
ENDTAB
  0
TABLE
  2
BLOCK_RECORD
  5
1
330
0
100
AcDbSymbolTable
 70
     0
  0
BLOCK_RECORD
  5
1E
102
{ACAD_XDICTIONARY
360
4681
102
}
330
1
100
AcDbSymbolTableRecord
100
AcDbBlockTableRecord
  2
*MODEL_SPACE
  0
BLOCK_RECORD
  5
1A
102
{ACAD_XDICTIONARY
360
467F
102
}
330
1
100
AcDbSymbolTableRecord
100
AcDbBlockTableRecord
  2
*PAPER_SPACE
  0
ENDTAB
  0
ENDSEC
  0
SECTION
  2
BLOCKS
  0
BLOCK
  5
13B
330
1E
100
AcDbEntity
  8
0
100
AcDbBlockBegin
  2
*MODEL_SPACE
 70
     0
 10
0.0
 20
0.0
 30
0.0
  3
*MODEL_SPACE
  1

  0
ENDBLK
  5
13C
330
1E
100
AcDbEntity
  8
0
100
AcDbBlockEnd
  0
BLOCK
  5
139
330
1A
100
AcDbEntity
 67
     1
  8
0
100
AcDbBlockBegin
  2
*PAPER_SPACE
 70
     0
 10
0.0
 20
0.0
 30
0.0
  3
*PAPER_SPACE
  1

  0
ENDBLK
  5
13A
330
1A
100
AcDbEntity
 67
     1
  8
0
100
AcDbBlockEnd
  0
ENDSEC
  0
SECTION
  2
ENTITIES
  0
LINE
  5
28FB
330
1E
100
AcDbEntity
  8
7
100
AcDbLine
 10
2.138779527559055
 20
13.80314960629921
 30
0.0
 11
2.132874015748031
 21
13.61515748031496
 31
0.0
  0
LINE
  5
28FC
330
1E
100
AcDbEntity
  8
7
100
AcDbLine
 10
3.649606299212598
 20
14.56299212598425
 30
0.0
 11
0.9340551181102361
 21
14.56299212598425
 31
0.0
  0
LINE
  5
28FD
330
1E
100
AcDbEntity
  8
7
100
AcDbLine
 10
3.649606299212598
 20
14.56299212598425
 30
0.0
 11
3.649606299212598
 21
14.79429133858267
 31
0.0
  0
LINE
  5
2903
330
1E
100
AcDbEntity
  8
7
100
AcDbLine
 10
3.509842519685038
 20
13.80314960629921
 30
0.0
 11
3.515748031496062
 21
13.61515748031496
 31
0.0
  0
LINE
  5
2904
330
1E
100
AcDbEntity
  8
7
100
AcDbLine
 10
1.889763779527559
 20
13.19389763779527
 30
0.0
 11
2.693897637795275
 21
13.19389763779527
 31
0.0
  0
LINE
  5
2905
330
1E
100
AcDbEntity
  8
7
100
AcDbLine
 10
2.322834645669291
 20
13.80314960629921
 30
0.0
 11
2.444881889763779
 21
13.80314960629921
 31
0.0
  0
LINE
  5
2906
330
1E
100
AcDbEntity
  8
7
100
AcDbLine
 10
2.322834645669291
 20
13.67224409448819
 30
0.0
 11
2.390748031496062
 21
13.67224409448819
 31
0.0
  0
LINE
  5
2907
330
1E
100
AcDbEntity
  8
7
100
AcDbLine
 10
2.390748031496062
 20
13.67224409448819
 30
0.0
 11
2.390748031496062
 21
13.66535433070866
 31
0.0
  0
LINE
  5
2908
330
1E
100
AcDbEntity
  8
7
100
AcDbLine
 10
2.390748031496062
 20
13.61515748031496
 30
0.0
 11
2.449803149606299
 21
13.61515748031496
 31
0.0
  0
LINE
  5
2909
330
1E
100
AcDbEntity
  8
7
100
AcDbLine
 10
2.444881889763779
 20
13.80314960629921
 30
0.0
 11
2.449803149606299
 21
13.61515748031496
 31
0.0
  0
LINE
  5
292C
330
1E
100
AcDbEntity
  8
7
100
AcDbLine
 10
3.145669291338582
 20
13.61515748031496
 30
0.0
 11
3.085629921259842
 21
13.61515748031496
 31
0.0
  0
LINE
  5
292D
330
1E
100
AcDbEntity
  8
7
100
AcDbLine
 10
3.025590551181102
 20
13.66535433070866
 30
0.0
 11
2.879921259842519
 21
13.66535433070866
 31
0.0
  0
LINE
  5
292E
330
1E
100
AcDbEntity
  8
7
100
AcDbLine
 10
1.822834645669291
 20
13.61515748031496
 30
0.0
 11
1.762795275590551
 21
13.61515748031496
 31
0.0
  0
LINE
  5
292F
330
1E
100
AcDbEntity
  8
7
100
AcDbLine
 10
1.703740157480314
 20
13.66535433070866
 30
0.0
 11
1.558070866141732
 21
13.66535433070866
 31
0.0
  0
LINE
  5
2930
330
1E
100
AcDbEntity
  8
7
100
AcDbLine
 10
1.000984251968503
 20
14.18602362204724
 30
0.0
 11
2.260826771653543
 21
14.18602362204724
 31
0.0
  0
LINE
  5
2931
330
1E
100
AcDbEntity
  8
7
100
AcDbLine
 10
2.192913385826771
 20
13.66535433070866
 30
0.0
 11
2.192913385826771
 21
13.67224409448819
 31
0.0
  0
LINE
  5
2932
330
1E
100
AcDbEntity
  8
7
100
AcDbLine
 10
3.58267716535433
 20
13.66535433070866
 30
0.0
 11
3.515748031496062
 21
13.66535433070866
 31
0.0
  0
LINE
  5
2933
330
1E
100
AcDbEntity
  8
7
100
AcDbLine
 10
3.455708661417323
 20
13.61515748031496
 30
0.0
 11
3.395669291338582
 21
13.61515748031496
 31
0.0
  0
LINE
  5
2934
330
1E
100
AcDbEntity
  8
7
100
AcDbLine
 10
2.509842519685038
 20
13.61515748031496
 30
0.0
 11
2.449803149606299
 21
13.61515748031496
 31
0.0
  0
LINE
  5
2935
330
1E
100
AcDbEntity
  8
7
100
AcDbLine
 10
2.260826771653543
 20
13.66535433070866
 30
0.0
 11
2.192913385826771
 21
13.66535433070866
 31
0.0
  0
LINE
  5
2936
330
1E
100
AcDbEntity
  8
7
100
AcDbLine
 10
2.390748031496062
 20
13.66535433070866
 30
0.0
 11
2.322834645669291
 21
13.66535433070866
 31
0.0
  0
LINE
  5
2937
330
1E
100
AcDbEntity
  8
7
100
AcDbLine
 10
2.132874015748031
 20
13.61515748031496
 30
0.0
 11
2.072834645669291
 21
13.61515748031496
 31
0.0
  0
LINE
  5
2938
330
1E
100
AcDbEntity
  8
7
100
AcDbLine
 10
1.187992125984251
 20
13.61515748031496
 30
0.0
 11
1.127952755905511
 21
13.61515748031496
 31
0.0
  0
LINE
  5
2939
330
1E
100
AcDbEntity
  8
7
100
AcDbLine
 10
1.067913385826771
 20
13.66535433070866
 30
0.0
 11
1.000984251968503
 21
13.66535433070866
 31
0.0
  0
LINE
  5
293A
330
1E
100
AcDbEntity
  8
7
100
AcDbLine
 10
2.322834645669291
 20
14.18602362204724
 30
0.0
 11
3.58267716535433
 21
14.18602362204724
 31
0.0
  0
LINE
  5
293B
330
1E
100
AcDbEntity
  8
7
100
AcDbLine
 10
3.5501968503937
 20
14.32775590551181
 30
0.0
 11
3.551181102362204
 21
14.35629921259842
 31
0.0
  0
LINE
  5
293C
330
1E
100
AcDbEntity
  8
7
100
AcDbLine
 10
3.551181102362204
 20
14.53641732283464
 30
0.0
 11
3.551181102362204
 21
14.56200787401574
 31
0.0
  0
LINE
  5
293D
330
1E
100
AcDbEntity
  8
7
100
AcDbLine
 10
3.551181102362204
 20
14.35629921259842
 30
0.0
 11
3.551181102362204
 21
14.53641732283464
 31
0.0
  0
LINE
  5
293E
330
1E
100
AcDbEntity
  8
7
100
AcDbLine
 10
3.5501968503937
 20
14.32775590551181
 30
0.0
 11
3.551181102362204
 21
14.3257874015748
 31
0.0
  0
LINE
  5
293F
330
1E
100
AcDbEntity
  8
7
100
AcDbLine
 10
3.551181102362204
 20
14.56200787401574
 30
0.0
 11
3.551181102362204
 21
14.3257874015748
 31
0.0
  0
LINE
  5
2940
330
1E
100
AcDbEntity
  8
7
100
AcDbLine
 10
1.032480314960629
 20
14.3257874015748
 30
0.0
 11
1.032480314960629
 21
14.56200787401574
 31
0.0
  0
LINE
  5
2941
330
1E
100
AcDbEntity
  8
7
100
AcDbLine
 10
1.033464566929133
 20
14.32775590551181
 30
0.0
 11
1.032480314960629
 21
14.3257874015748
 31
0.0
  0
LINE
  5
2942
330
1E
100
AcDbEntity
  8
7
100
AcDbLine
 10
1.033464566929133
 20
14.32775590551181
 30
0.0
 11
1.032480314960629
 21
14.35629921259842
 31
0.0
  0
LINE
  5
2943
330
1E
100
AcDbEntity
  8
7
100
AcDbLine
 10
1.032480314960629
 20
14.53641732283464
 30
0.0
 11
1.032480314960629
 21
14.35629921259842
 31
0.0
  0
LINE
  5
2944
330
1E
100
AcDbEntity
  8
7
100
AcDbLine
 10
1.032480314960629
 20
14.53641732283464
 30
0.0
 11
1.032480314960629
 21
14.56200787401574
 31
0.0
  0
LINE
  5
2950
330
1E
100
AcDbEntity
  8
7
100
AcDbLine
 10
3.551181102362204
 20
14.3257874015748
 30
0.0
 11
1.032480314960629
 21
14.3257874015748
 31
0.0
  0
LINE
  5
2951
330
1E
100
AcDbEntity
  8
7
100
AcDbLine
 10
1.032480314960629
 20
14.56200787401574
 30
0.0
 11
3.551181102362204
 21
14.56200787401574
 31
0.0
  0
LINE
  5
2958
330
1E
100
AcDbEntity
  8
7
100
AcDbLine
 10
1.889763779527559
 20
13.18700787401574
 30
0.0
 11
1.889763779527559
 21
13.19389763779527
 31
0.0
  0
LINE
  5
2959
330
1E
100
AcDbEntity
  8
7
100
AcDbLine
 10
2.693897637795275
 20
13.18700787401574
 30
0.0
 11
2.693897637795275
 21
13.19389763779527
 31
0.0
  0
LINE
  5
295A
330
1E
100
AcDbEntity
  8
7
100
AcDbLine
 10
1.498031496062992
 20
13.61515748031496
 30
0.0
 11
1.437992125984251
 21
13.61515748031496
 31
0.0
  0
LINE
  5
295B
330
1E
100
AcDbEntity
  8
7
100
AcDbLine
 10
2.819881889763779
 20
13.61515748031496
 30
0.0
 11
2.759842519685038
 21
13.61515748031496
 31
0.0
  0
LINE
  5
2962
330
1E
100
AcDbEntity
  8
7
100
AcDbLine
 10
3.025590551181102
 20
13.56692913385826
 30
0.0
 11
2.879921259842519
 21
13.56692913385826
 31
0.0
  0
LINE
  5
2968
330
1E
100
AcDbEntity
  8
7
100
AcDbLine
 10
1.067913385826771
 20
13.56692913385826
 30
0.0
 11
0.9340551181102361
 21
13.56692913385826
 31
0.0
  0
LINE
  5
2975
330
1E
100
AcDbEntity
  8
7
100
AcDbLine
 10
2.390748031496062
 20
13.56692913385826
 30
0.0
 11
2.192913385826771
 21
13.56692913385826
 31
0.0
  0
LINE
  5
297B
330
1E
100
AcDbEntity
  8
7
100
AcDbLine
 10
2.322834645669291
 20
13.61909448818897
 30
0.0
 11
2.322834645669291
 21
14.18602362204724
 31
0.0
  0
LINE
  5
2982
330
1E
100
AcDbEntity
  8
7
100
AcDbLine
 10
3.649606299212598
 20
13.56692913385826
 30
0.0
 11
3.515748031496062
 21
13.56692913385826
 31
0.0
  0
LINE
  5
298F
330
1E
100
AcDbEntity
  8
7
100
AcDbLine
 10
1.703740157480314
 20
13.56692913385826
 30
0.0
 11
1.558070866141732
 21
13.56692913385826
 31
0.0
  0
LINE
  5
29A7
330
1E
100
AcDbEntity
  8
7
100
AcDbLine
 10
3.515748031496062
 20
13.56692913385826
 30
0.0
 11
3.025590551181102
 21
13.56692913385826
 31
0.0
  0
LINE
  5
29A8
330
1E
100
AcDbEntity
  8
7
100
AcDbLine
 10
2.879921259842519
 20
13.56692913385826
 30
0.0
 11
2.390748031496062
 21
13.56692913385826
 31
0.0
  0
LINE
  5
29A9
330
1E
100
AcDbEntity
  8
7
100
AcDbLine
 10
2.192913385826771
 20
13.56692913385826
 30
0.0
 11
1.703740157480314
 21
13.56692913385826
 31
0.0
  0
LINE
  5
29AA
330
1E
100
AcDbEntity
  8
7
100
AcDbLine
 10
1.558070866141732
 20
13.56692913385826
 30
0.0
 11
1.067913385826771
 21
13.56692913385826
 31
0.0
  0
LINE
  5
29AB
330
1E
100
AcDbEntity
  8
7
100
AcDbLine
 10
0.9340551181102361
 20
13.56692913385826
 30
0.0
 11
0.9340551181102361
 21
13.28444881889763
 31
0.0
  0
LINE
  5
29B8
330
1E
100
AcDbEntity
  8
7
100
AcDbLine
 10
1.067913385826771
 20
13.61909448818897
 30
0.0
 11
1.067913385826771
 21
13.66535433070866
 31
0.0
  0
LINE
  5
29B9
330
1E
100
AcDbEntity
  8
7
100
AcDbLine
 10
1.558070866141732
 20
13.61909448818897
 30
0.0
 11
1.558070866141732
 21
13.66535433070866
 31
0.0
  0
LINE
  5
29BA
330
1E
100
AcDbEntity
  8
7
100
AcDbLine
 10
1.703740157480314
 20
13.61909448818897
 30
0.0
 11
1.703740157480314
 21
13.66535433070866
 31
0.0
  0
LINE
  5
29BB
330
1E
100
AcDbEntity
  8
7
100
AcDbLine
 10
2.192913385826771
 20
13.61909448818897
 30
0.0
 11
2.192913385826771
 21
13.66535433070866
 31
0.0
  0
LINE
  5
29BC
330
1E
100
AcDbEntity
  8
7
100
AcDbLine
 10
1.187992125984251
 20
13.61515748031496
 30
0.0
 11
1.206692913385826
 21
13.83366141732283
 31
0.0
  0
LINE
  5
29BD
330
1E
100
AcDbEntity
  8
7
100
AcDbLine
 10
1.067913385826771
 20
13.61515748031496
 30
0.0
 11
1.127952755905511
 21
13.61515748031496
 31
0.0
  0
LINE
  5
29BE
330
1E
100
AcDbEntity
  8
7
100
AcDbLine
 10
1.558070866141732
 20
13.61515748031496
 30
0.0
 11
1.498031496062992
 21
13.61515748031496
 31
0.0
  0
LINE
  5
29C4
330
1E
100
AcDbEntity
  8
7
100
AcDbLine
 10
1.822834645669291
 20
13.61515748031496
 30
0.0
 11
1.841535433070866
 21
13.83366141732283
 31
0.0
  0
LINE
  5
29C5
330
1E
100
AcDbEntity
  8
7
100
AcDbLine
 10
1.762795275590551
 20
13.61515748031496
 30
0.0
 11
1.703740157480314
 21
13.61515748031496
 31
0.0
  0
LINE
  5
29C6
330
1E
100
AcDbEntity
  8
7
100
AcDbLine
 10
2.192913385826771
 20
13.61515748031496
 30
0.0
 11
2.132874015748031
 21
13.61515748031496
 31
0.0
  0
LINE
  5
29CC
330
1E
100
AcDbEntity
  8
7
100
AcDbLine
 10
2.390748031496062
 20
13.61909448818897
 30
0.0
 11
2.390748031496062
 21
13.66535433070866
 31
0.0
  0
LINE
  5
29CD
330
1E
100
AcDbEntity
  8
7
100
AcDbLine
 10
2.879921259842519
 20
13.61909448818897
 30
0.0
 11
2.879921259842519
 21
13.66535433070866
 31
0.0
  0
LINE
  5
29CE
330
1E
100
AcDbEntity
  8
7
100
AcDbLine
 10
3.025590551181102
 20
13.61909448818897
 30
0.0
 11
3.025590551181102
 21
13.66535433070866
 31
0.0
  0
LINE
  5
29CF
330
1E
100
AcDbEntity
  8
7
100
AcDbLine
 10
3.515748031496062
 20
13.61909448818897
 30
0.0
 11
3.515748031496062
 21
13.66535433070866
 31
0.0
  0
LINE
  5
29D0
330
1E
100
AcDbEntity
  8
7
100
AcDbLine
 10
2.509842519685038
 20
13.61515748031496
 30
0.0
 11
2.528543307086613
 21
13.83366141732283
 31
0.0
  0
LINE
  5
29D1
330
1E
100
AcDbEntity
  8
7
100
AcDbLine
 10
2.879921259842519
 20
13.61515748031496
 30
0.0
 11
2.819881889763779
 21
13.61515748031496
 31
0.0
  0
LINE
  5
29D7
330
1E
100
AcDbEntity
  8
7
100
AcDbLine
 10
3.145669291338582
 20
13.61515748031496
 30
0.0
 11
3.164370078740157
 21
13.83366141732283
 31
0.0
  0
LINE
  5
29D8
330
1E
100
AcDbEntity
  8
7
100
AcDbLine
 10
3.085629921259842
 20
13.61515748031496
 30
0.0
 11
3.025590551181102
 21
13.61515748031496
 31
0.0
  0
LINE
  5
29D9
330
1E
100
AcDbEntity
  8
7
100
AcDbLine
 10
3.515748031496062
 20
13.61515748031496
 30
0.0
 11
3.455708661417323
 21
13.61515748031496
 31
0.0
  0
LINE
  5
29DF
330
1E
100
AcDbEntity
  8
7
100
AcDbLine
 10
1.410433070866141
 20
13.96948818897637
 30
0.0
 11
1.419291338582677
 21
13.92322834645669
 31
0.0
  0
LINE
  5
29E0
330
1E
100
AcDbEntity
  8
7
100
AcDbLine
 10
1.421259842519685
 20
13.91043307086614
 30
0.0
 11
1.419291338582677
 21
13.92322834645669
 31
0.0
  0
LINE
  5
29E1
330
1E
100
AcDbEntity
  8
7
100
AcDbLine
 10
1.421259842519685
 20
13.91043307086614
 30
0.0
 11
1.421259842519685
 21
13.90255905511811
 31
0.0
  0
LINE
  5
29E2
330
1E
100
AcDbEntity
  8
7
100
AcDbLine
 10
1.421259842519685
 20
13.89271653543307
 30
0.0
 11
1.421259842519685
 21
13.90255905511811
 31
0.0
  0
LINE
  5
29E3
330
1E
100
AcDbEntity
  8
7
100
AcDbLine
 10
1.421259842519685
 20
13.89271653543307
 30
0.0
 11
1.421259842519685
 21
13.88976377952755
 31
0.0
  0
LINE
  5
29E4
330
1E
100
AcDbEntity
  8
7
100
AcDbLine
 10
1.420275590551181
 20
13.86811023622047
 30
0.0
 11
1.420275590551181
 21
13.88090551181102
 31
0.0
  0
LINE
  5
29E5
330
1E
100
AcDbEntity
  8
7
100
AcDbLine
 10
1.420275590551181
 20
13.88090551181102
 30
0.0
 11
1.421259842519685
 21
13.88976377952755
 31
0.0
  0
LINE
  5
29E6
330
1E
100
AcDbEntity
  8
7
100
AcDbLine
 10
1.419291338582677
 20
13.85334645669291
 30
0.0
 11
1.420275590551181
 21
13.86811023622047
 31
0.0
  0
LINE
  5
29F7
330
1E
100
AcDbEntity
  8
7
100
AcDbLine
 10
1.204724409448818
 20
13.91043307086614
 30
0.0
 11
1.206692913385826
 21
13.92322834645669
 31
0.0
  0
LINE
  5
29F8
330
1E
100
AcDbEntity
  8
7
100
AcDbLine
 10
1.215551181102362
 20
13.96948818897637
 30
0.0
 11
1.206692913385826
 21
13.92322834645669
 31
0.0
  0
LINE
  5
29F9
330
1E
100
AcDbEntity
  8
7
100
AcDbLine
 10
1.410433070866141
 20
13.96948818897637
 30
0.0
 11
1.215551181102362
 21
13.96948818897637
 31
0.0
  0
LINE
  5
29FA
330
1E
100
AcDbEntity
  8
7
100
AcDbLine
 10
1.419291338582677
 20
13.92322834645669
 30
0.0
 11
1.206692913385826
 21
13.92322834645669
 31
0.0
  0
LINE
  5
29FB
330
1E
100
AcDbEntity
  8
7
100
AcDbLine
 10
1.204724409448818
 20
13.91043307086614
 30
0.0
 11
1.421259842519685
 21
13.91043307086614
 31
0.0
  0
LINE
  5
29FC
330
1E
100
AcDbEntity
  8
7
100
AcDbLine
 10
1.421259842519685
 20
13.90255905511811
 30
0.0
 11
1.204724409448818
 21
13.90255905511811
 31
0.0
  0
LINE
  5
29FD
330
1E
100
AcDbEntity
  8
7
100
AcDbLine
 10
1.204724409448818
 20
13.89271653543307
 30
0.0
 11
1.421259842519685
 21
13.89271653543307
 31
0.0
  0
LINE
  5
29FE
330
1E
100
AcDbEntity
  8
7
100
AcDbLine
 10
1.421259842519685
 20
13.88976377952755
 30
0.0
 11
1.205708661417322
 21
13.88976377952755
 31
0.0
  0
LINE
  5
29FF
330
1E
100
AcDbEntity
  8
7
100
AcDbLine
 10
1.420275590551181
 20
13.86811023622047
 30
0.0
 11
1.206692913385826
 21
13.86811023622047
 31
0.0
  0
LINE
  5
2A00
330
1E
100
AcDbEntity
  8
7
100
AcDbLine
 10
1.206692913385826
 20
13.85334645669291
 30
0.0
 11
1.419291338582677
 21
13.85334645669291
 31
0.0
  0
LINE
  5
2A01
330
1E
100
AcDbEntity
  8
7
100
AcDbLine
 10
2.045275590551181
 20
13.96948818897637
 30
0.0
 11
2.054133858267716
 21
13.92322834645669
 31
0.0
  0
LINE
  5
2A02
330
1E
100
AcDbEntity
  8
7
100
AcDbLine
 10
2.056102362204724
 20
13.91043307086614
 30
0.0
 11
2.054133858267716
 21
13.92322834645669
 31
0.0
  0
LINE
  5
2A03
330
1E
100
AcDbEntity
  8
7
100
AcDbLine
 10
2.056102362204724
 20
13.91043307086614
 30
0.0
 11
2.057086614173228
 21
13.90255905511811
 31
0.0
  0
LINE
  5
2A04
330
1E
100
AcDbEntity
  8
7
100
AcDbLine
 10
2.056102362204724
 20
13.89271653543307
 30
0.0
 11
2.057086614173228
 21
13.90255905511811
 31
0.0
  0
LINE
  5
2A05
330
1E
100
AcDbEntity
  8
7
100
AcDbLine
 10
2.056102362204724
 20
13.89271653543307
 30
0.0
 11
2.056102362204724
 21
13.88976377952755
 31
0.0
  0
LINE
  5
2A0B
330
1E
100
AcDbEntity
  8
7
100
AcDbLine
 10
2.054133858267716
 20
13.85334645669291
 30
0.0
 11
2.05511811023622
 21
13.86811023622047
 31
0.0
  0
LINE
  5
2A1D
330
1E
100
AcDbEntity
  8
7
100
AcDbLine
 10
1.851377952755905
 20
13.96948818897637
 30
0.0
 11
1.841535433070866
 21
13.92322834645669
 31
0.0
  0
LINE
  5
2A1E
330
1E
100
AcDbEntity
  8
7
100
AcDbLine
 10
2.045275590551181
 20
13.96948818897637
 30
0.0
 11
1.851377952755905
 21
13.96948818897637
 31
0.0
  0
LINE
  5
2A1F
330
1E
100
AcDbEntity
  8
7
100
AcDbLine
 10
2.054133858267716
 20
13.92322834645669
 30
0.0
 11
1.841535433070866
 21
13.92322834645669
 31
0.0
  0
LINE
  5
2A20
330
1E
100
AcDbEntity
  8
7
100
AcDbLine
 10
1.839566929133858
 20
13.91043307086614
 30
0.0
 11
2.056102362204724
 21
13.91043307086614
 31
0.0
  0
LINE
  5
2A21
330
1E
100
AcDbEntity
  8
7
100
AcDbLine
 10
2.057086614173228
 20
13.90255905511811
 30
0.0
 11
1.839566929133858
 21
13.90255905511811
 31
0.0
  0
LINE
  5
2A22
330
1E
100
AcDbEntity
  8
7
100
AcDbLine
 10
1.840551181102362
 20
13.89271653543307
 30
0.0
 11
2.056102362204724
 21
13.89271653543307
 31
0.0
  0
LINE
  5
2A23
330
1E
100
AcDbEntity
  8
7
100
AcDbLine
 10
2.056102362204724
 20
13.88976377952755
 30
0.0
 11
1.840551181102362
 21
13.88976377952755
 31
0.0
  0
LINE
  5
2A24
330
1E
100
AcDbEntity
  8
7
100
AcDbLine
 10
2.05511811023622
 20
13.86811023622047
 30
0.0
 11
1.841535433070866
 21
13.86811023622047
 31
0.0
  0
LINE
  5
2A25
330
1E
100
AcDbEntity
  8
7
100
AcDbLine
 10
1.84251968503937
 20
13.85334645669291
 30
0.0
 11
2.054133858267716
 21
13.85334645669291
 31
0.0
  0
LINE
  5
2A26
330
1E
100
AcDbEntity
  8
7
100
AcDbLine
 10
3.367125984251968
 20
13.96948818897637
 30
0.0
 11
3.376968503937007
 21
13.92322834645669
 31
0.0
  0
LINE
  5
2A27
330
1E
100
AcDbEntity
  8
7
100
AcDbLine
 10
3.378937007874015
 20
13.91043307086614
 30
0.0
 11
3.376968503937007
 21
13.92322834645669
 31
0.0
  0
LINE
  5
2A28
330
1E
100
AcDbEntity
  8
7
100
AcDbLine
 10
3.378937007874015
 20
13.91043307086614
 30
0.0
 11
3.378937007874015
 21
13.90255905511811
 31
0.0
  0
LINE
  5
2A29
330
1E
100
AcDbEntity
  8
7
100
AcDbLine
 10
3.377952755905512
 20
13.89271653543307
 30
0.0
 11
3.378937007874015
 21
13.90255905511811
 31
0.0
  0
LINE
  5
2A2A
330
1E
100
AcDbEntity
  8
7
100
AcDbLine
 10
3.377952755905512
 20
13.89271653543307
 30
0.0
 11
3.377952755905512
 21
13.88976377952755
 31
0.0
  0
LINE
  5
2A30
330
1E
100
AcDbEntity
  8
7
100
AcDbLine
 10
3.375984251968503
 20
13.85334645669291
 30
0.0
 11
3.376968503937007
 21
13.86811023622047
 31
0.0
  0
LINE
  5
2A42
330
1E
100
AcDbEntity
  8
7
100
AcDbLine
 10
3.173228346456692
 20
13.96948818897637
 30
0.0
 11
3.164370078740157
 21
13.92322834645669
 31
0.0
  0
LINE
  5
2A43
330
1E
100
AcDbEntity
  8
7
100
AcDbLine
 10
3.367125984251968
 20
13.96948818897637
 30
0.0
 11
3.173228346456692
 21
13.96948818897637
 31
0.0
  0
LINE
  5
2A44
330
1E
100
AcDbEntity
  8
7
100
AcDbLine
 10
3.376968503937007
 20
13.92322834645669
 30
0.0
 11
3.164370078740157
 21
13.92322834645669
 31
0.0
  0
LINE
  5
2A45
330
1E
100
AcDbEntity
  8
7
100
AcDbLine
 10
3.162401574803149
 20
13.91043307086614
 30
0.0
 11
3.378937007874015
 21
13.91043307086614
 31
0.0
  0
LINE
  5
2A46
330
1E
100
AcDbEntity
  8
7
100
AcDbLine
 10
3.378937007874015
 20
13.90255905511811
 30
0.0
 11
3.161417322834645
 21
13.90255905511811
 31
0.0
  0
LINE
  5
2A47
330
1E
100
AcDbEntity
  8
7
100
AcDbLine
 10
3.162401574803149
 20
13.89271653543307
 30
0.0
 11
3.377952755905512
 21
13.89271653543307
 31
0.0
  0
LINE
  5
2A48
330
1E
100
AcDbEntity
  8
7
100
AcDbLine
 10
3.377952755905512
 20
13.88976377952755
 30
0.0
 11
3.162401574803149
 21
13.88976377952755
 31
0.0
  0
LINE
  5
2A49
330
1E
100
AcDbEntity
  8
7
100
AcDbLine
 10
3.376968503937007
 20
13.86811023622047
 30
0.0
 11
3.163385826771653
 21
13.86811023622047
 31
0.0
  0
LINE
  5
2A4A
330
1E
100
AcDbEntity
  8
7
100
AcDbLine
 10
3.164370078740157
 20
13.85334645669291
 30
0.0
 11
3.375984251968503
 21
13.85334645669291
 31
0.0
  0
LINE
  5
2A4B
330
1E
100
AcDbEntity
  8
7
100
AcDbLine
 10
2.732283464566928
 20
13.96948818897637
 30
0.0
 11
2.741141732283464
 21
13.92322834645669
 31
0.0
  0
LINE
  5
2A4C
330
1E
100
AcDbEntity
  8
7
100
AcDbLine
 10
2.743110236220472
 20
13.91043307086614
 30
0.0
 11
2.741141732283464
 21
13.92322834645669
 31
0.0
  0
LINE
  5
2A4D
330
1E
100
AcDbEntity
  8
7
100
AcDbLine
 10
2.743110236220472
 20
13.91043307086614
 30
0.0
 11
2.744094488188975
 21
13.90255905511811
 31
0.0
  0
LINE
  5
2A4E
330
1E
100
AcDbEntity
  8
7
100
AcDbLine
 10
2.743110236220472
 20
13.89271653543307
 30
0.0
 11
2.744094488188975
 21
13.90255905511811
 31
0.0
  0
LINE
  5
2A4F
330
1E
100
AcDbEntity
  8
7
100
AcDbLine
 10
2.743110236220472
 20
13.89271653543307
 30
0.0
 11
2.743110236220472
 21
13.88976377952755
 31
0.0
  0
LINE
  5
2A55
330
1E
100
AcDbEntity
  8
7
100
AcDbLine
 10
2.741141732283464
 20
13.85334645669291
 30
0.0
 11
2.742125984251968
 21
13.86811023622047
 31
0.0
  0
LINE
  5
2A6A
330
1E
100
AcDbEntity
  8
7
100
AcDbLine
 10
2.538385826771653
 20
13.96948818897637
 30
0.0
 11
2.528543307086613
 21
13.92322834645669
 31
0.0
  0
LINE
  5
2A6B
330
1E
100
AcDbEntity
  8
7
100
AcDbLine
 10
2.741141732283464
 20
13.92322834645669
 30
0.0
 11
2.528543307086613
 21
13.92322834645669
 31
0.0
  0
LINE
  5
2A6C
330
1E
100
AcDbEntity
  8
7
100
AcDbLine
 10
2.732283464566928
 20
13.96948818897637
 30
0.0
 11
2.538385826771653
 21
13.96948818897637
 31
0.0
  0
LINE
  5
2A6D
330
1E
100
AcDbEntity
  8
7
100
AcDbLine
 10
2.526574803149606
 20
13.91043307086614
 30
0.0
 11
2.743110236220472
 21
13.91043307086614
 31
0.0
  0
LINE
  5
2A6E
330
1E
100
AcDbEntity
  8
7
100
AcDbLine
 10
2.52755905511811
 20
13.89271653543307
 30
0.0
 11
2.743110236220472
 21
13.89271653543307
 31
0.0
  0
LINE
  5
2A6F
330
1E
100
AcDbEntity
  8
7
100
AcDbLine
 10
2.744094488188975
 20
13.90255905511811
 30
0.0
 11
2.526574803149606
 21
13.90255905511811
 31
0.0
  0
LINE
  5
2A70
330
1E
100
AcDbEntity
  8
7
100
AcDbLine
 10
2.742125984251968
 20
13.86811023622047
 30
0.0
 11
2.528543307086613
 21
13.86811023622047
 31
0.0
  0
LINE
  5
2A71
330
1E
100
AcDbEntity
  8
7
100
AcDbLine
 10
2.743110236220472
 20
13.88976377952755
 30
0.0
 11
2.52755905511811
 21
13.88976377952755
 31
0.0
  0
LINE
  5
2A72
330
1E
100
AcDbEntity
  8
7
100
AcDbLine
 10
2.529527559055118
 20
13.85334645669291
 30
0.0
 11
2.741141732283464
 21
13.85334645669291
 31
0.0
  0
LINE
  5
2A78
330
1E
100
AcDbEntity
  8
7
100
AcDbLine
 10
2.496062992125984
 20
13.19389763779527
 30
0.0
 11
2.492125984251968
 21
13.12204724409449
 31
0.0
  0
LINE
  5
2A84
330
1E
100
AcDbEntity
  8
7
100
AcDbLine
 10
3.5501968503937
 20
14.50590551181102
 30
0.0
 11
3.551181102362204
 21
14.53641732283464
 31
0.0
  0
LINE
  5
2A85
330
1E
100
AcDbEntity
  8
7
100
AcDbLine
 10
1.033464566929133
 20
14.50590551181102
 30
0.0
 11
1.032480314960629
 21
14.53641732283464
 31
0.0
  0
LINE
  5
2A86
330
1E
100
AcDbEntity
  8
7
100
AcDbLine
 10
1.033464566929133
 20
14.50590551181102
 30
0.0
 11
3.5501968503937
 21
14.50590551181102
 31
0.0
  0
LINE
  5
2A87
330
1E
100
AcDbEntity
  8
7
100
AcDbLine
 10
3.5501968503937
 20
14.32775590551181
 30
0.0
 11
1.033464566929133
 21
14.32775590551181
 31
0.0
  0
LINE
  5
2A88
330
1E
100
AcDbEntity
  8
7
100
AcDbLine
 10
1.033464566929133
 20
14.32775590551181
 30
0.0
 11
1.033464566929133
 21
14.50590551181102
 31
0.0
  0
LINE
  5
2A89
330
1E
100
AcDbEntity
  8
7
100
AcDbLine
 10
3.5501968503937
 20
14.50590551181102
 30
0.0
 11
3.5501968503937
 21
14.32775590551181
 31
0.0
  0
LINE
  5
2A8A
330
1E
100
AcDbEntity
  8
7
100
AcDbLine
 10
1.123031496062992
 20
13.80314960629921
 30
0.0
 11
1.127952755905511
 21
13.61515748031496
 31
0.0
  0
LINE
  5
2A8B
330
1E
100
AcDbEntity
  8
7
100
AcDbLine
 10
1.073818897637795
 20
13.80314960629921
 30
0.0
 11
1.067913385826771
 21
13.61515748031496
 31
0.0
  0
LINE
  5
2A8C
330
1E
100
AcDbEntity
  8
7
100
AcDbLine
 10
1.073818897637795
 20
13.80314960629921
 30
0.0
 11
1.123031496062992
 21
13.80314960629921
 31
0.0
  0
LINE
  5
2A8D
330
1E
100
AcDbEntity
  8
7
100
AcDbLine
 10
2.138779527559055
 20
13.80314960629921
 30
0.0
 11
2.260826771653543
 21
13.80314960629921
 31
0.0
  0
LINE
  5
2A8E
330
1E
100
AcDbEntity
  8
7
100
AcDbLine
 10
2.192913385826771
 20
13.67224409448819
 30
0.0
 11
2.260826771653543
 21
13.67224409448819
 31
0.0
  0
LINE
  5
2A8F
330
1E
100
AcDbEntity
  8
7
100
AcDbLine
 10
3.460629921259842
 20
13.80314960629921
 30
0.0
 11
3.455708661417323
 21
13.61515748031496
 31
0.0
  0
LINE
  5
2A90
330
1E
100
AcDbEntity
  8
7
100
AcDbLine
 10
3.460629921259842
 20
13.80314960629921
 30
0.0
 11
3.509842519685038
 21
13.80314960629921
 31
0.0
  0
LINE
  5
2A91
330
1E
100
AcDbEntity
  8
7
100
AcDbLine
 10
1.757874015748031
 20
13.80314960629921
 30
0.0
 11
1.762795275590551
 21
13.61515748031496
 31
0.0
  0
LINE
  5
2A92
330
1E
100
AcDbEntity
  8
7
100
AcDbLine
 10
1.503937007874015
 20
13.80314960629921
 30
0.0
 11
1.498031496062992
 21
13.61515748031496
 31
0.0
  0
LINE
  5
2A93
330
1E
100
AcDbEntity
  8
7
100
AcDbLine
 10
1.703740157480314
 20
13.61515748031496
 30
0.0
 11
1.704724409448818
 21
13.67224409448819
 31
0.0
  0
LINE
  5
2A94
330
1E
100
AcDbEntity
  8
7
100
AcDbLine
 10
1.556102362204724
 20
13.67224409448819
 30
0.0
 11
1.558070866141732
 21
13.61515748031496
 31
0.0
  0
LINE
  5
2A95
330
1E
100
AcDbEntity
  8
7
100
AcDbLine
 10
1.757874015748031
 20
13.80314960629921
 30
0.0
 11
1.503937007874015
 21
13.80314960629921
 31
0.0
  0
LINE
  5
2A96
330
1E
100
AcDbEntity
  8
7
100
AcDbLine
 10
1.704724409448818
 20
13.67224409448819
 30
0.0
 11
1.556102362204724
 21
13.67224409448819
 31
0.0
  0
LINE
  5
2A97
330
1E
100
AcDbEntity
  8
7
100
AcDbLine
 10
3.079724409448818
 20
13.80314960629921
 30
0.0
 11
3.085629921259842
 21
13.61515748031496
 31
0.0
  0
LINE
  5
2A98
330
1E
100
AcDbEntity
  8
7
100
AcDbLine
 10
2.825787401574802
 20
13.80314960629921
 30
0.0
 11
2.819881889763779
 21
13.61515748031496
 31
0.0
  0
LINE
  5
2A99
330
1E
100
AcDbEntity
  8
7
100
AcDbLine
 10
3.025590551181102
 20
13.61515748031496
 30
0.0
 11
3.026574803149606
 21
13.67224409448819
 31
0.0
  0
LINE
  5
2A9A
330
1E
100
AcDbEntity
  8
7
100
AcDbLine
 10
2.878937007874015
 20
13.67224409448819
 30
0.0
 11
2.879921259842519
 21
13.61515748031496
 31
0.0
  0
LINE
  5
2A9B
330
1E
100
AcDbEntity
  8
7
100
AcDbLine
 10
3.079724409448818
 20
13.80314960629921
 30
0.0
 11
2.825787401574802
 21
13.80314960629921
 31
0.0
  0
LINE
  5
2A9C
330
1E
100
AcDbEntity
  8
7
100
AcDbLine
 10
3.026574803149606
 20
13.67224409448819
 30
0.0
 11
2.878937007874015
 21
13.67224409448819
 31
0.0
  0
LINE
  5
2AB0
330
1E
100
AcDbEntity
  8
7
100
AcDbLine
 10
0.9419291338582677
 20
14.32185039370078
 30
0.0
 11
0.9232283464566927
 21
14.31988188976378
 31
0.0
  0
LINE
  5
2B34
330
1E
100
AcDbEntity
  8
7
100
AcDbLine
 10
0.9340551181102361
 20
13.1998031496063
 30
0.0
 11
0.9340551181102361
 21
13.19389763779527
 31
0.0
  0
LINE
  5
2B55
330
1E
100
AcDbEntity
  8
7
100
AcDbLine
 10
1.709645669291338
 20
11.39763779527559
 30
0.0
 11
1.756889763779527
 21
11.39763779527559
 31
0.0
  0
LINE
  5
2B56
330
1E
100
AcDbEntity
  8
7
100
AcDbLine
 10
1.504921259842519
 20
11.39763779527559
 30
0.0
 11
1.552165354330708
 21
11.39763779527559
 31
0.0
  0
LINE
  5
2B57
330
1E
100
AcDbEntity
  8
7
100
AcDbLine
 10
2.826771653543307
 20
11.39763779527559
 30
0.0
 11
2.874015748031496
 21
11.39763779527559
 31
0.0
  0
LINE
  5
2B58
330
1E
100
AcDbEntity
  8
7
100
AcDbLine
 10
3.031496062992125
 20
11.39763779527559
 30
0.0
 11
3.078740157480314
 21
11.39763779527559
 31
0.0
  0
LINE
  5
2B59
330
1E
100
AcDbEntity
  8
7
100
AcDbLine
 10
3.461614173228346
 20
11.39763779527559
 30
0.0
 11
3.508858267716535
 21
11.39763779527559
 31
0.0
  0
LINE
  5
2B5A
330
1E
100
AcDbEntity
  8
7
100
AcDbLine
 10
1.074803149606299
 20
11.39763779527559
 30
0.0
 11
1.122047244094488
 21
11.39763779527559
 31
0.0
  0
LINE
  5
2B5B
330
1E
100
AcDbEntity
  8
7
100
AcDbLine
 10
3.176181102362204
 20
11.18799212598425
 30
0.0
 11
3.364173228346456
 21
11.18799212598425
 31
0.0
  0
LINE
  5
2B5C
330
1E
100
AcDbEntity
  8
7
100
AcDbLine
 10
1.219488188976378
 20
11.18799212598425
 30
0.0
 11
1.407480314960629
 21
11.18799212598425
 31
0.0
  0
LINE
  5
2B5D
330
1E
100
AcDbEntity
  8
7
100
AcDbLine
 10
3.641732283464566
 20
12.28051181102362
 30
0.0
 11
0.9419291338582677
 21
12.28051181102362
 31
0.0
  0
LINE
  5
2B78
330
1E
100
AcDbEntity
  8
7
100
AcDbLine
 10
2.134842519685039
 20
11.66141732283464
 30
0.0
 11
2.133858267716535
 21
11.76082677165354
 31
0.0
  0
LINE
  5
2B87
330
1E
100
AcDbEntity
  8
7
100
AcDbLine
 10
1.889763779527559
 20
11.76082677165354
 30
0.0
 11
2.693897637795275
 21
11.76082677165354
 31
0.0
  0
LINE
  5
2B88
330
1E
100
AcDbEntity
  8
7
100
AcDbLine
 10
1.071850393700787
 20
11.55413385826771
 30
0.0
 11
1.072834645669291
 21
11.51476377952755
 31
0.0
  0
LINE
  5
2B89
330
1E
100
AcDbEntity
  8
7
100
AcDbLine
 10
2.071850393700787
 20
11.55413385826771
 30
0.0
 11
2.062007874015748
 21
11.55413385826771
 31
0.0
  0
LINE
  5
2B8A
330
1E
100
AcDbEntity
  8
7
100
AcDbLine
 10
1.889763779527559
 20
11.55413385826771
 30
0.0
 11
1.898622047244094
 21
11.55413385826771
 31
0.0
  0
LINE
  5
2BA0
330
1E
100
AcDbEntity
  8
7
100
AcDbLine
 10
2.685039370078739
 20
11.55413385826771
 30
0.0
 11
2.693897637795275
 21
11.55413385826771
 31
0.0
  0
LINE
  5
2BA1
330
1E
100
AcDbEntity
  8
7
100
AcDbLine
 10
2.521653543307087
 20
11.55413385826771
 30
0.0
 11
2.511811023622047
 21
11.55413385826771
 31
0.0
  0
LINE
  5
2BA2
330
1E
100
AcDbEntity
  8
7
100
AcDbLine
 10
3.029527559055118
 20
11.54527559055118
 30
0.0
 11
2.875984251968503
 21
11.54527559055118
 31
0.0
  0
LINE
  5
2BA3
330
1E
100
AcDbEntity
  8
7
100
AcDbLine
 10
2.874015748031496
 20
11.42027559055118
 30
0.0
 11
3.031496062992125
 21
11.42027559055118
 31
0.0
  0
LINE
  5
2BA4
330
1E
100
AcDbEntity
  8
7
100
AcDbLine
 10
1.70767716535433
 20
11.54527559055118
 30
0.0
 11
1.554133858267716
 21
11.54527559055118
 31
0.0
  0
LINE
  5
2BA5
330
1E
100
AcDbEntity
  8
7
100
AcDbLine
 10
1.552165354330708
 20
11.42027559055118
 30
0.0
 11
1.709645669291338
 21
11.42027559055118
 31
0.0
  0
LINE
  5
2BA6
330
1E
100
AcDbEntity
  8
7
100
AcDbLine
 10
1.167322834645669
 20
11.55413385826771
 30
0.0
 11
1.170275590551181
 21
11.36417322834645
 31
0.0
  0
LINE
  5
2BA7
330
1E
100
AcDbEntity
  8
7
100
AcDbLine
 10
1.456692913385826
 20
11.36417322834645
 30
0.0
 11
1.416338582677165
 21
11.36417322834645
 31
0.0
  0
LINE
  5
2BA8
330
1E
100
AcDbEntity
  8
7
100
AcDbLine
 10
1.209645669291338
 20
11.36417322834645
 30
0.0
 11
1.170275590551181
 21
11.36417322834645
 31
0.0
  0
LINE
  5
2BA9
330
1E
100
AcDbEntity
  8
7
100
AcDbLine
 10
1.459645669291338
 20
11.55413385826771
 30
0.0
 11
1.456692913385826
 21
11.36417322834645
 31
0.0
  0
LINE
  5
2BAA
330
1E
100
AcDbEntity
  8
7
100
AcDbLine
 10
2.062992125984251
 20
11.58366141732283
 30
0.0
 11
2.071850393700787
 21
11.58366141732283
 31
0.0
  0
LINE
  5
2BAB
330
1E
100
AcDbEntity
  8
7
100
AcDbLine
 10
2.098425196850393
 20
11.76082677165354
 30
0.0
 11
2.096456692913386
 21
11.63582677165354
 31
0.0
  0
LINE
  5
2BAC
330
1E
100
AcDbEntity
  8
7
100
AcDbLine
 10
1.000984251968503
 20
12.21161417322834
 30
0.0
 11
2.260826771653543
 21
12.21161417322834
 31
0.0
  0
LINE
  5
2BAD
330
1E
100
AcDbEntity
  8
7
100
AcDbLine
 10
1.034448818897637
 20
12.09448818897637
 30
0.0
 11
1.000984251968503
 21
12.09448818897637
 31
0.0
  0
LINE
  5
2BAE
330
1E
100
AcDbEntity
  8
7
100
AcDbLine
 10
1.034448818897637
 20
11.88385826771653
 30
0.0
 11
1.034448818897637
 21
12.09448818897637
 31
0.0
  0
LINE
  5
2BAF
330
1E
100
AcDbEntity
  8
7
100
AcDbLine
 10
2.192913385826771
 20
11.66633858267716
 30
0.0
 11
2.192913385826771
 21
11.65452755905511
 31
0.0
  0
LINE
  5
2BBA
330
1E
100
AcDbEntity
  8
7
100
AcDbLine
 10
2.390748031496062
 20
11.66633858267716
 30
0.0
 11
2.390748031496062
 21
11.65452755905511
 31
0.0
  0
LINE
  5
2BBB
330
1E
100
AcDbEntity
  8
7
100
AcDbLine
 10
3.124015748031496
 20
11.55413385826771
 30
0.0
 11
3.126968503937007
 21
11.36417322834645
 31
0.0
  0
LINE
  5
2BBC
330
1E
100
AcDbEntity
  8
7
100
AcDbLine
 10
3.413385826771653
 20
11.36417322834645
 30
0.0
 11
3.374015748031496
 21
11.36417322834645
 31
0.0
  0
LINE
  5
2BBD
330
1E
100
AcDbEntity
  8
7
100
AcDbLine
 10
3.166338582677165
 20
11.36417322834645
 30
0.0
 11
3.126968503937007
 21
11.36417322834645
 31
0.0
  0
LINE
  5
2BBE
330
1E
100
AcDbEntity
  8
7
100
AcDbLine
 10
3.416338582677165
 20
11.55413385826771
 30
0.0
 11
3.413385826771653
 21
11.36417322834645
 31
0.0
  0
LINE
  5
2BC4
330
1E
100
AcDbEntity
  8
7
100
AcDbLine
 10
2.322834645669291
 20
12.21161417322834
 30
0.0
 11
3.58267716535433
 21
12.21161417322834
 31
0.0
  0
LINE
  5
2BC5
330
1E
100
AcDbEntity
  8
7
100
AcDbLine
 10
2.48523622047244
 20
11.76082677165354
 30
0.0
 11
2.487204724409449
 21
11.63582677165354
 31
0.0
  0
LINE
  5
2BC6
330
1E
100
AcDbEntity
  8
7
100
AcDbLine
 10
2.511811023622047
 20
11.58366141732283
 30
0.0
 11
2.520669291338582
 21
11.58366141732283
 31
0.0
  0
LINE
  5
2BC7
330
1E
100
AcDbEntity
  8
7
100
AcDbLine
 10
3.551181102362204
 20
12.09448818897637
 30
0.0
 11
3.551181102362204
 21
11.88385826771653
 31
0.0
  0
LINE
  5
2BC8
330
1E
100
AcDbEntity
  8
7
100
AcDbLine
 10
1.032480314960629
 20
11.88385826771653
 30
0.0
 11
1.032480314960629
 21
12.09448818897637
 31
0.0
  0
LINE
  5
2BC9
330
1E
100
AcDbEntity
  8
7
100
AcDbLine
 10
2.750984251968503
 20
11.49409448818897
 30
0.0
 11
2.746062992125984
 21
11.19685039370078
 31
0.0
  0
LINE
  5
2BDB
330
1E
100
AcDbEntity
  8
7
100
AcDbLine
 10
2.507874015748031
 20
11.23129921259842
 30
0.0
 11
2.507874015748031
 21
11.26279527559055
 31
0.0
  0
LINE
  5
2BE1
330
1E
100
AcDbEntity
  8
7
100
AcDbLine
 10
2.507874015748031
 20
11.55413385826771
 30
0.0
 11
2.432086614173228
 21
11.55413385826771
 31
0.0
  0
LINE
  5
2BE9
330
1E
100
AcDbEntity
  8
7
100
AcDbLine
 10
2.151574803149606
 20
11.23129921259842
 30
0.0
 11
2.151574803149606
 21
11.55413385826771
 31
0.0
  0
LINE
  5
2BEA
330
1E
100
AcDbEntity
  8
7
100
AcDbLine
 10
2.075787401574802
 20
11.23129921259842
 30
0.0
 11
2.151574803149606
 21
11.23129921259842
 31
0.0
  0
LINE
  5
2BFA
330
1E
100
AcDbEntity
  8
7
100
AcDbLine
 10
1.901574803149606
 20
11.64665354330708
 30
0.0
 11
1.988188976377952
 21
11.64665354330708
 31
0.0
  0
LINE
  5
2BFB
330
1E
100
AcDbEntity
  8
7
100
AcDbLine
 10
1.901574803149606
 20
11.49409448818897
 30
0.0
 11
1.901574803149606
 21
11.64665354330708
 31
0.0
  0
LINE
  5
2C01
330
1E
100
AcDbEntity
  8
7
100
AcDbLine
 10
2.746062992125984
 20
11.19685039370078
 30
0.0
 11
1.83759842519685
 21
11.19685039370078
 31
0.0
  0
LINE
  5
2C07
330
1E
100
AcDbEntity
  8
7
100
AcDbLine
 10
2.595472440944881
 20
11.64665354330708
 30
0.0
 11
2.594488188976377
 21
11.76082677165354
 31
0.0
  0
LINE
  5
2C08
330
1E
100
AcDbEntity
  8
7
100
AcDbLine
 10
1.992125984251968
 20
11.26574803149606
 30
0.0
 11
1.992125984251968
 21
11.76082677165354
 31
0.0
  0
LINE
  5
2C0F
330
1E
100
AcDbEntity
  8
7
100
AcDbLine
 10
2.041338582677165
 20
11.23622047244094
 30
0.0
 11
2.021653543307087
 21
11.23622047244094
 31
0.0
  0
LINE
  5
2C16
330
1E
100
AcDbEntity
  8
7
100
AcDbLine
 10
2.071850393700787
 20
11.63582677165354
 30
0.0
 11
2.071850393700787
 21
11.26574803149606
 31
0.0
  0
LINE
  5
2C17
330
1E
100
AcDbEntity
  8
7
100
AcDbLine
 10
2.511811023622047
 20
11.63582677165354
 30
0.0
 11
2.071850393700787
 21
11.63582677165354
 31
0.0
  0
LINE
  5
2C18
330
1E
100
AcDbEntity
  8
7
100
AcDbLine
 10
2.511811023622047
 20
11.26574803149606
 30
0.0
 11
2.511811023622047
 21
11.63582677165354
 31
0.0
  0
LINE
  5
2C1F
330
1E
100
AcDbEntity
  8
7
100
AcDbLine
 10
2.562007874015748
 20
11.23622047244094
 30
0.0
 11
2.541338582677165
 21
11.23622047244094
 31
0.0
  0
LINE
  5
2C2C
330
1E
100
AcDbEntity
  8
7
100
AcDbLine
 10
1.889763779527559
 20
11.55413385826771
 30
0.0
 11
1.889763779527559
 21
11.76082677165354
 31
0.0
  0
LINE
  5
2C2D
330
1E
100
AcDbEntity
  8
7
100
AcDbLine
 10
2.693897637795275
 20
11.55413385826771
 30
0.0
 11
2.693897637795275
 21
11.76082677165354
 31
0.0
  0
LINE
  5
2C33
330
1E
100
AcDbEntity
  8
7
100
AcDbLine
 10
2.879921259842519
 20
11.88385826771653
 30
0.0
 11
2.879921259842519
 21
11.85433070866141
 31
0.0
  0
LINE
  5
2C34
330
1E
100
AcDbEntity
  8
7
100
AcDbLine
 10
0.9419291338582677
 20
12.27854330708661
 30
0.0
 11
0.9271653543307085
 21
11.85334645669291
 31
0.0
  0
LINE
  5
2C52
330
1E
100
AcDbEntity
  8
7
100
AcDbLine
 10
1.703740157480314
 20
11.85433070866141
 30
0.0
 11
1.703740157480314
 21
11.88385826771653
 31
0.0
  0
LINE
  5
2C58
330
1E
100
AcDbEntity
  8
7
100
AcDbLine
 10
0.8366141732283464
 20
11.55413385826771
 30
0.0
 11
0.8444881889763779
 21
11.76771653543307
 31
0.0
  0
LINE
  5
2C59
330
1E
100
AcDbEntity
  8
7
100
AcDbLine
 10
3.739173228346456
 20
11.76771653543307
 30
0.0
 11
3.747047244094487
 21
11.55413385826771
 31
0.0
  0
LINE
  5
2C5A
330
1E
100
AcDbEntity
  8
7
100
AcDbLine
 10
0.9340551181102361
 20
11.85433070866141
 30
0.0
 11
3.649606299212598
 21
11.85433070866141
 31
0.0
  0
LINE
  5
2C5B
330
1E
100
AcDbEntity
  8
7
100
AcDbLine
 10
3.702755905511811
 20
12.20570866141732
 30
0.0
 11
3.715551181102362
 21
11.82480314960629
 31
0.0
  0
LINE
  5
2C5C
330
1E
100
AcDbEntity
  8
7
100
AcDbLine
 10
0.8681102362204724
 20
11.82480314960629
 30
0.0
 11
0.8809055118110237
 21
12.20570866141732
 31
0.0
  0
LINE
  5
2C5D
330
1E
100
AcDbEntity
  8
7
100
AcDbLine
 10
1.415354330708661
 20
11.33366141732283
 30
0.0
 11
1.427165354330708
 21
11.55413385826771
 31
0.0
  0
LINE
  5
2C66
330
1E
100
AcDbEntity
  8
7
100
AcDbLine
 10
1.211614173228346
 20
11.33366141732283
 30
0.0
 11
1.199803149606299
 21
11.55413385826771
 31
0.0
  0
LINE
  5
2C67
330
1E
100
AcDbEntity
  8
7
100
AcDbLine
 10
1.219488188976378
 20
11.18799212598425
 30
0.0
 11
1.218503937007874
 21
11.19488188976377
 31
0.0
  0
LINE
  5
2C68
330
1E
100
AcDbEntity
  8
7
100
AcDbLine
 10
1.214566929133858
 20
11.28248031496063
 30
0.0
 11
1.218503937007874
 21
11.19488188976377
 31
0.0
  0
LINE
  5
2C69
330
1E
100
AcDbEntity
  8
7
100
AcDbLine
 10
1.214566929133858
 20
11.28248031496063
 30
0.0
 11
1.213582677165354
 21
11.29429133858267
 31
0.0
  0
LINE
  5
2C6A
330
1E
100
AcDbEntity
  8
7
100
AcDbLine
 10
1.211614173228346
 20
11.32381889763779
 30
0.0
 11
1.213582677165354
 21
11.29429133858267
 31
0.0
  0
LINE
  5
2C6B
330
1E
100
AcDbEntity
  8
7
100
AcDbLine
 10
1.211614173228346
 20
11.32381889763779
 30
0.0
 11
1.211614173228346
 21
11.33366141732283
 31
0.0
  0
LINE
  5
2C6C
330
1E
100
AcDbEntity
  8
7
100
AcDbLine
 10
1.414370078740157
 20
11.32381889763779
 30
0.0
 11
1.211614173228346
 21
11.32381889763779
 31
0.0
  0
LINE
  5
2C6D
330
1E
100
AcDbEntity
  8
7
100
AcDbLine
 10
1.213582677165354
 20
11.29429133858267
 30
0.0
 11
1.413385826771653
 21
11.29429133858267
 31
0.0
  0
LINE
  5
2C6E
330
1E
100
AcDbEntity
  8
7
100
AcDbLine
 10
1.412401574803149
 20
11.28248031496063
 30
0.0
 11
1.214566929133858
 21
11.28248031496063
 31
0.0
  0
LINE
  5
2C6F
330
1E
100
AcDbEntity
  8
7
100
AcDbLine
 10
1.218503937007874
 20
11.19488188976377
 30
0.0
 11
1.407480314960629
 21
11.19488188976377
 31
0.0
  0
LINE
  5
2C70
330
1E
100
AcDbEntity
  8
7
100
AcDbLine
 10
1.211614173228346
 20
11.33366141732283
 30
0.0
 11
1.415354330708661
 21
11.33366141732283
 31
0.0
  0
LINE
  5
2C71
330
1E
100
AcDbEntity
  8
7
100
AcDbLine
 10
2.0501968503937
 20
11.33366141732283
 30
0.0
 11
2.072834645669291
 21
11.76082677165354
 31
0.0
  0
LINE
  5
2C79
330
1E
100
AcDbEntity
  8
7
100
AcDbLine
 10
2.049212598425197
 20
11.32381889763779
 30
0.0
 11
1.992125984251968
 21
11.32381889763779
 31
0.0
  0
LINE
  5
2C7A
330
1E
100
AcDbEntity
  8
7
100
AcDbLine
 10
1.992125984251968
 20
11.29429133858267
 30
0.0
 11
2.048228346456692
 21
11.29429133858267
 31
0.0
  0
LINE
  5
2C7B
330
1E
100
AcDbEntity
  8
7
100
AcDbLine
 10
2.047244094488188
 20
11.28248031496063
 30
0.0
 11
1.992125984251968
 21
11.28248031496063
 31
0.0
  0
LINE
  5
2C7C
330
1E
100
AcDbEntity
  8
7
100
AcDbLine
 10
1.992125984251968
 20
11.33366141732283
 30
0.0
 11
2.0501968503937
 21
11.33366141732283
 31
0.0
  0
LINE
  5
2C7D
330
1E
100
AcDbEntity
  8
7
100
AcDbLine
 10
3.372047244094487
 20
11.33366141732283
 30
0.0
 11
3.383858267716535
 21
11.55413385826771
 31
0.0
  0
LINE
  5
2C86
330
1E
100
AcDbEntity
  8
7
100
AcDbLine
 10
3.168307086614173
 20
11.33366141732283
 30
0.0
 11
3.156496062992125
 21
11.55413385826771
 31
0.0
  0
LINE
  5
2C87
330
1E
100
AcDbEntity
  8
7
100
AcDbLine
 10
3.176181102362204
 20
11.18799212598425
 30
0.0
 11
3.1751968503937
 21
11.19488188976377
 31
0.0
  0
LINE
  5
2C88
330
1E
100
AcDbEntity
  8
7
100
AcDbLine
 10
3.171259842519685
 20
11.28248031496063
 30
0.0
 11
3.1751968503937
 21
11.19488188976377
 31
0.0
  0
LINE
  5
2C89
330
1E
100
AcDbEntity
  8
7
100
AcDbLine
 10
3.171259842519685
 20
11.28248031496063
 30
0.0
 11
3.170275590551181
 21
11.29429133858267
 31
0.0
  0
LINE
  5
2C8A
330
1E
100
AcDbEntity
  8
7
100
AcDbLine
 10
3.169291338582676
 20
11.32381889763779
 30
0.0
 11
3.170275590551181
 21
11.29429133858267
 31
0.0
  0
LINE
  5
2C8B
330
1E
100
AcDbEntity
  8
7
100
AcDbLine
 10
3.169291338582676
 20
11.32381889763779
 30
0.0
 11
3.168307086614173
 21
11.33366141732283
 31
0.0
  0
LINE
  5
2C8C
330
1E
100
AcDbEntity
  8
7
100
AcDbLine
 10
3.170275590551181
 20
11.29429133858267
 30
0.0
 11
3.37007874015748
 21
11.29429133858267
 31
0.0
  0
LINE
  5
2C8D
330
1E
100
AcDbEntity
  8
7
100
AcDbLine
 10
3.372047244094487
 20
11.32381889763779
 30
0.0
 11
3.169291338582676
 21
11.32381889763779
 31
0.0
  0
LINE
  5
2C8E
330
1E
100
AcDbEntity
  8
7
100
AcDbLine
 10
3.369094488188975
 20
11.28248031496063
 30
0.0
 11
3.171259842519685
 21
11.28248031496063
 31
0.0
  0
LINE
  5
2C8F
330
1E
100
AcDbEntity
  8
7
100
AcDbLine
 10
3.1751968503937
 20
11.19488188976377
 30
0.0
 11
3.36515748031496
 21
11.19488188976377
 31
0.0
  0
LINE
  5
2C90
330
1E
100
AcDbEntity
  8
7
100
AcDbLine
 10
3.168307086614173
 20
11.33366141732283
 30
0.0
 11
3.372047244094487
 21
11.33366141732283
 31
0.0
  0
LINE
  5
2C91
330
1E
100
AcDbEntity
  8
7
100
AcDbLine
 10
2.533464566929134
 20
11.33366141732283
 30
0.0
 11
2.510826771653543
 21
11.76082677165354
 31
0.0
  0
LINE
  5
2C92
330
1E
100
AcDbEntity
  8
7
100
AcDbLine
 10
2.536417322834645
 20
11.28248031496063
 30
0.0
 11
2.538385826771653
 21
11.23622047244094
 31
0.0
  0
LINE
  5
2C93
330
1E
100
AcDbEntity
  8
7
100
AcDbLine
 10
2.536417322834645
 20
11.28248031496063
 30
0.0
 11
2.535433070866141
 21
11.29429133858267
 31
0.0
  0
LINE
  5
2C94
330
1E
100
AcDbEntity
  8
7
100
AcDbLine
 10
2.533464566929134
 20
11.32381889763779
 30
0.0
 11
2.535433070866141
 21
11.29429133858267
 31
0.0
  0
LINE
  5
2C95
330
1E
100
AcDbEntity
  8
7
100
AcDbLine
 10
2.533464566929134
 20
11.32381889763779
 30
0.0
 11
2.533464566929134
 21
11.33366141732283
 31
0.0
  0
LINE
  5
2C96
330
1E
100
AcDbEntity
  8
7
100
AcDbLine
 10
2.535433070866141
 20
11.29429133858267
 30
0.0
 11
2.591535433070865
 21
11.29429133858267
 31
0.0
  0
LINE
  5
2C97
330
1E
100
AcDbEntity
  8
7
100
AcDbLine
 10
2.591535433070865
 20
11.32381889763779
 30
0.0
 11
2.533464566929134
 21
11.32381889763779
 31
0.0
  0
LINE
  5
2C98
330
1E
100
AcDbEntity
  8
7
100
AcDbLine
 10
2.591535433070865
 20
11.28248031496063
 30
0.0
 11
2.536417322834645
 21
11.28248031496063
 31
0.0
  0
LINE
  5
2C99
330
1E
100
AcDbEntity
  8
7
100
AcDbLine
 10
2.533464566929134
 20
11.33366141732283
 30
0.0
 11
2.591535433070865
 21
11.33366141732283
 31
0.0
  0
LINE
  5
2C9A
330
1E
100
AcDbEntity
  8
7
100
AcDbLine
 10
2.623031496062991
 20
11.07874015748031
 30
0.0
 11
1.960629921259842
 21
11.07874015748031
 31
0.0
  0
LINE
  5
2CB6
330
1E
100
AcDbEntity
  8
7
100
AcDbLine
 10
2.750984251968503
 20
11.51673228346456
 30
0.0
 11
2.750984251968503
 21
11.49409448818897
 31
0.0
  0
LINE
  5
2CC5
330
1E
100
AcDbEntity
  8
7
100
AcDbLine
 10
2.682086614173228
 20
11.64665354330708
 30
0.0
 11
2.681102362204724
 21
11.76082677165354
 31
0.0
  0
LINE
  5
2CC6
330
1E
100
AcDbEntity
  8
7
100
AcDbLine
 10
1.901574803149606
 20
11.64665354330708
 30
0.0
 11
1.90255905511811
 21
11.76082677165354
 31
0.0
  0
LINE
  5
2CD3
330
1E
100
AcDbEntity
  8
7
100
AcDbLine
 10
2.511811023622047
 20
11.63582677165354
 30
0.0
 11
2.492125984251968
 21
11.62992125984251
 31
0.0
  0
LINE
  5
2CD4
330
1E
100
AcDbEntity
  8
7
100
AcDbLine
 10
2.071850393700787
 20
11.26574803149606
 30
0.0
 11
2.075787401574802
 21
11.26279527559055
 31
0.0
  0
LINE
  5
2CD5
330
1E
100
AcDbEntity
  8
7
100
AcDbLine
 10
2.08267716535433
 20
11.40452755905511
 30
0.0
 11
2.075787401574802
 21
11.23129921259842
 31
0.0
  0
LINE
  5
2CD6
330
1E
100
AcDbEntity
  8
7
100
AcDbLine
 10
2.08267716535433
 20
11.43405511811023
 30
0.0
 11
2.08267716535433
 21
11.40452755905511
 31
0.0
  0
LINE
  5
2CD7
330
1E
100
AcDbEntity
  8
7
100
AcDbLine
 10
2.081692913385826
 20
11.43405511811023
 30
0.0
 11
2.08267716535433
 21
11.43405511811023
 31
0.0
  0
LINE
  5
2CD8
330
1E
100
AcDbEntity
  8
7
100
AcDbLine
 10
2.081692913385826
 20
11.54330708661417
 30
0.0
 11
2.081692913385826
 21
11.43405511811023
 31
0.0
  0
LINE
  5
2CD9
330
1E
100
AcDbEntity
  8
7
100
AcDbLine
 10
2.075787401574802
 20
11.55413385826771
 30
0.0
 11
2.081692913385826
 21
11.54330708661417
 31
0.0
  0
LINE
  5
2CDA
330
1E
100
AcDbEntity
  8
7
100
AcDbLine
 10
2.091535433070865
 20
11.59153543307086
 30
0.0
 11
2.075787401574802
 21
11.5757874015748
 31
0.0
  0
LINE
  5
2CE0
330
1E
100
AcDbEntity
  8
7
100
AcDbLine
 10
2.091535433070865
 20
11.61515748031495
 30
0.0
 11
2.091535433070865
 21
11.60629921259842
 31
0.0
  0
LINE
  5
2CE6
330
1E
100
AcDbEntity
  8
7
100
AcDbLine
 10
2.507874015748031
 20
11.26279527559055
 30
0.0
 11
2.511811023622047
 21
11.26574803149606
 31
0.0
  0
LINE
  5
2CF8
330
1E
100
AcDbEntity
  8
7
100
AcDbLine
 10
2.565944881889763
 20
11.23228346456693
 30
0.0
 11
2.562007874015748
 21
11.23622047244094
 31
0.0
  0
LINE
  5
2CF9
330
1E
100
AcDbEntity
  8
7
100
AcDbLine
 10
2.541338582677165
 20
11.23622047244094
 30
0.0
 11
2.538385826771653
 21
11.23228346456693
 31
0.0
  0
LINE
  5
2CFA
330
1E
100
AcDbEntity
  8
7
100
AcDbLine
 10
2.045275590551181
 20
11.23228346456693
 30
0.0
 11
2.041338582677165
 21
11.23622047244094
 31
0.0
  0
LINE
  5
2CFB
330
1E
100
AcDbEntity
  8
7
100
AcDbLine
 10
2.021653543307087
 20
11.23622047244094
 30
0.0
 11
2.017716535433071
 21
11.23228346456693
 31
0.0
  0
LINE
  5
2CFC
330
1E
100
AcDbEntity
  8
7
100
AcDbLine
 10
1.988188976377952
 20
11.64665354330708
 30
0.0
 11
1.988188976377952
 21
11.76082677165354
 31
0.0
  0
LINE
  5
2CFD
330
1E
100
AcDbEntity
  8
7
100
AcDbLine
 10
1.988188976377952
 20
11.26279527559055
 30
0.0
 11
1.992125984251968
 21
11.26574803149606
 31
0.0
  0
LINE
  5
2CFE
330
1E
100
AcDbEntity
  8
7
100
AcDbLine
 10
2.08267716535433
 20
11.40452755905511
 30
0.0
 11
2.149606299212598
 21
11.40452755905511
 31
0.0
  0
LINE
  5
2CFF
330
1E
100
AcDbEntity
  8
7
100
AcDbLine
 10
2.149606299212598
 20
11.43405511811023
 30
0.0
 11
2.149606299212598
 21
11.40452755905511
 31
0.0
  0
LINE
  5
2D00
330
1E
100
AcDbEntity
  8
7
100
AcDbLine
 10
2.08267716535433
 20
11.43405511811023
 30
0.0
 11
2.149606299212598
 21
11.43405511811023
 31
0.0
  0
LINE
  5
2D01
330
1E
100
AcDbEntity
  8
7
100
AcDbLine
 10
2.149606299212598
 20
11.40452755905511
 30
0.0
 11
2.151574803149606
 21
11.23129921259842
 31
0.0
  0
LINE
  5
2D02
330
1E
100
AcDbEntity
  8
7
100
AcDbLine
 10
2.081692913385826
 20
11.54330708661417
 30
0.0
 11
2.149606299212598
 21
11.54330708661417
 31
0.0
  0
LINE
  5
2D08
330
1E
100
AcDbEntity
  8
7
100
AcDbLine
 10
2.500984251968503
 20
11.40452755905511
 30
0.0
 11
2.434055118110236
 21
11.40452755905511
 31
0.0
  0
LINE
  5
2D0F
330
1E
100
AcDbEntity
  8
7
100
AcDbLine
 10
2.501968503937007
 20
11.54330708661417
 30
0.0
 11
2.434055118110236
 21
11.54330708661417
 31
0.0
  0
LINE
  5
2D15
330
1E
100
AcDbEntity
  8
7
100
AcDbLine
 10
2.091535433070865
 20
11.60629921259842
 30
0.0
 11
2.492125984251968
 21
11.60629921259842
 31
0.0
  0
LINE
  5
2D16
330
1E
100
AcDbEntity
  8
7
100
AcDbLine
 10
2.492125984251968
 20
11.61515748031495
 30
0.0
 11
2.091535433070865
 21
11.61515748031495
 31
0.0
  0
LINE
  5
2D17
330
1E
100
AcDbEntity
  8
7
100
AcDbLine
 10
2.492125984251968
 20
11.59153543307086
 30
0.0
 11
2.091535433070865
 21
11.59153543307086
 31
0.0
  0
LINE
  5
2D18
330
1E
100
AcDbEntity
  8
7
100
AcDbLine
 10
1.033464566929133
 20
12.09448818897637
 30
0.0
 11
1.033464566929133
 21
11.88385826771653
 31
0.0
  0
LINE
  5
2D19
330
1E
100
AcDbEntity
  8
7
100
AcDbLine
 10
3.5501968503937
 20
11.88385826771653
 30
0.0
 11
3.5501968503937
 21
12.09448818897637
 31
0.0
  0
LINE
  5
2D2C
330
1E
100
AcDbEntity
  8
7
100
AcDbLine
 10
2.447834645669291
 20
11.66141732283464
 30
0.0
 11
2.449803149606299
 21
11.76082677165354
 31
0.0
  0
LINE
  5
2D33
330
1E
100
AcDbEntity
  8
7
100
AcDbLine
 10
2.390748031496062
 20
11.76082677165354
 30
0.0
 11
2.392716535433071
 21
11.66141732283464
 31
0.0
  0
LINE
  5
2D34
330
1E
100
AcDbEntity
  8
7
100
AcDbLine
 10
2.392716535433071
 20
11.65551181102362
 30
0.0
 11
2.392716535433071
 21
11.66141732283464
 31
0.0
  0
LINE
  5
2D3B
330
1E
100
AcDbEntity
  8
7
100
AcDbLine
 10
3.458661417322834
 20
11.55413385826771
 30
0.0
 11
3.461614173228346
 21
11.42421259842519
 31
0.0
  0
LINE
  5
2D3C
330
1E
100
AcDbEntity
  8
7
100
AcDbLine
 10
3.511811023622047
 20
11.55413385826771
 30
0.0
 11
3.510826771653543
 21
11.51476377952755
 31
0.0
  0
LINE
  5
2D3D
330
1E
100
AcDbEntity
  8
7
100
AcDbLine
 10
3.461614173228346
 20
11.42421259842519
 30
0.0
 11
3.508858267716535
 21
11.42421259842519
 31
0.0
  0
LINE
  5
2D3E
330
1E
100
AcDbEntity
  8
7
100
AcDbLine
 10
2.447834645669291
 20
11.66141732283464
 30
0.0
 11
2.392716535433071
 21
11.66141732283464
 31
0.0
  0
LINE
  5
2D3F
330
1E
100
AcDbEntity
  8
7
100
AcDbLine
 10
2.192913385826771
 20
11.65551181102362
 30
0.0
 11
2.190944881889763
 21
11.65551181102362
 31
0.0
  0
LINE
  5
2D40
330
1E
100
AcDbEntity
  8
7
100
AcDbLine
 10
2.390748031496062
 20
11.65551181102362
 30
0.0
 11
2.392716535433071
 21
11.65551181102362
 31
0.0
  0
LINE
  5
2D41
330
1E
100
AcDbEntity
  8
7
100
AcDbLine
 10
2.390748031496062
 20
11.66732283464566
 30
0.0
 11
2.192913385826771
 21
11.66732283464566
 31
0.0
  0
LINE
  5
2D42
330
1E
100
AcDbEntity
  8
7
100
AcDbLine
 10
2.192913385826771
 20
11.74507874015747
 30
0.0
 11
2.390748031496062
 21
11.74507874015747
 31
0.0
  0
LINE
  5
2D4A
330
1E
100
AcDbEntity
  8
7
100
AcDbLine
 10
1.501968503937007
 20
11.55413385826771
 30
0.0
 11
1.503937007874015
 21
11.42421259842519
 31
0.0
  0
LINE
  5
2D51
330
1E
100
AcDbEntity
  8
7
100
AcDbLine
 10
1.706692913385826
 20
11.55413385826771
 30
0.0
 11
1.709645669291338
 21
11.42421259842519
 31
0.0
  0
LINE
  5
2D59
330
1E
100
AcDbEntity
  8
7
100
AcDbLine
 10
1.503937007874015
 20
11.42421259842519
 30
0.0
 11
1.552165354330708
 21
11.42421259842519
 31
0.0
  0
LINE
  5
2D68
330
1E
100
AcDbEntity
  8
7
100
AcDbLine
 10
2.823818897637795
 20
11.55413385826771
 30
0.0
 11
2.826771653543307
 21
11.42421259842519
 31
0.0
  0
LINE
  5
2D69
330
1E
100
AcDbEntity
  8
7
100
AcDbLine
 10
2.826771653543307
 20
11.39763779527559
 30
0.0
 11
2.826771653543307
 21
11.4005905511811
 31
0.0
  0
LINE
  5
2D6F
330
1E
100
AcDbEntity
  8
7
100
AcDbLine
 10
3.029527559055118
 20
11.55413385826771
 30
0.0
 11
3.031496062992125
 21
11.42421259842519
 31
0.0
  0
LINE
  5
2D77
330
1E
100
AcDbEntity
  8
7
100
AcDbLine
 10
2.826771653543307
 20
11.42421259842519
 30
0.0
 11
2.874015748031496
 21
11.42421259842519
 31
0.0
  0
LINE
  5
2D91
330
1E
100
AcDbEntity
  8
7
100
AcDbLine
 10
0.9419291338582677
 20
12.27854330708661
 30
0.0
 11
0.9232283464566927
 21
12.27460629921259
 31
0.0
  0
LINE
  5
2DA6
330
1E
100
AcDbEntity
  8
7
100
AcDbLine
 10
1.33759842519685
 20
11.45374015748031
 30
0.0
 11
1.288385826771653
 21
11.45374015748031
 31
0.0
  0
LINE
  5
2DA7
330
1E
100
AcDbEntity
  8
7
100
AcDbLine
 10
1.288385826771653
 20
11.46456692913385
 30
0.0
 11
1.287401574803149
 21
11.53444881889763
 31
0.0
  0
LINE
  5
2DC2
330
1E
100
AcDbEntity
  8
7
100
AcDbLine
 10
3.295275590551181
 20
11.45374015748031
 30
0.0
 11
3.246062992125984
 21
11.45374015748031
 31
0.0
  0
LINE
  5
2DC3
330
1E
100
AcDbEntity
  8
7
100
AcDbLine
 10
3.24507874015748
 20
11.46456692913385
 30
0.0
 11
3.244094488188975
 21
11.53444881889763
 31
0.0
  0
LINE
  5
2DC9
330
1E
100
AcDbEntity
  8
7
100
AcDbLine
 10
3.296259842519685
 20
11.53444881889763
 30
0.0
 11
3.244094488188975
 21
11.53444881889763
 31
0.0
  0
LINE
  5
2DDE
330
1E
100
AcDbEntity
  8
7
100
AcDbLine
 10
0.9812992125984251
 20
11.43405511811023
 30
0.0
 11
1.063976377952756
 21
11.43405511811023
 31
0.0
  0
LINE
  5
2DDF
330
1E
100
AcDbEntity
  8
7
100
AcDbLine
 10
1.073818897637795
 20
11.44389763779527
 30
0.0
 11
1.072834645669291
 21
11.51476377952755
 31
0.0
  0
LINE
  5
2DE0
330
1E
100
AcDbEntity
  8
7
100
AcDbLine
 10
0.9714566929133859
 20
11.53444881889763
 30
0.0
 11
0.9714566929133859
 21
11.44389763779527
 31
0.0
  0
LINE
  5
2DF0
330
1E
100
AcDbEntity
  8
7
100
AcDbLine
 10
3.509842519685038
 20
11.46456692913385
 30
0.0
 11
3.510826771653543
 21
11.51476377952755
 31
0.0
  0
LINE
  5
2DF1
330
1E
100
AcDbEntity
  8
7
100
AcDbLine
 10
3.612204724409449
 20
11.53444881889763
 30
0.0
 11
3.612204724409449
 21
11.46456692913385
 31
0.0
  0
LINE
  5
2DF2
330
1E
100
AcDbEntity
  8
7
100
AcDbLine
 10
3.601377952755905
 20
11.45374015748031
 30
0.0
 11
3.519685039370078
 21
11.45374015748031
 31
0.0
  0
LINE
  5
2E1D
330
1E
100
AcDbEntity
  8
7
100
AcDbLine
 10
0.9340551181102361
 20
11.85433070866141
 30
0.0
 11
0.9340551181102361
 21
11.8503937007874
 31
0.0
  0
LINE
  5
2E38
330
1E
100
AcDbEntity
  8
7
100
AcDbLine
 10
5.751968503937008
 20
11.85433070866141
 30
0.0
 11
5.982283464566929
 21
11.85433070866141
 31
0.0
  0
LINE
  5
2E41
330
1E
100
AcDbEntity
  8
7
100
AcDbLine
 10
4.991141732283464
 20
11.4498031496063
 30
0.0
 11
4.921259842519685
 21
11.40944881889763
 31
0.0
  0
LINE
  5
2E42
330
1E
100
AcDbEntity
  8
7
100
AcDbLine
 10
4.991141732283464
 20
11.4498031496063
 30
0.0
 11
4.931102362204724
 21
11.55413385826771
 31
0.0
  0
LINE
  5
2E54
330
1E
100
AcDbEntity
  8
7
100
AcDbLine
 10
5.753937007874015
 20
11.55413385826771
 30
0.0
 11
5.864173228346456
 21
11.36417322834645
 31
0.0
  0
LINE
  5
2E55
330
1E
100
AcDbEntity
  8
7
100
AcDbLine
 10
5.509842519685039
 20
12.27263779527559
 30
0.0
 11
5.751968503937008
 21
11.85433070866141
 31
0.0
  0
LINE
  5
2E56
330
1E
100
AcDbEntity
  8
7
100
AcDbLine
 10
4.607283464566929
 20
11.45374015748031
 30
0.0
 11
4.607283464566929
 21
11.19685039370078
 31
0.0
  0
LINE
  5
2E57
330
1E
100
AcDbEntity
  8
7
100
AcDbLine
 10
4.677165354330709
 20
11.19685039370078
 30
0.0
 11
4.677165354330709
 21
11.55413385826771
 31
0.0
  0
LINE
  5
2E61
330
1E
100
AcDbEntity
  8
7
100
AcDbLine
 10
4.375
 20
11.55413385826771
 30
0.0
 11
4.382874015748031
 21
11.76771653543307
 31
0.0
  0
LINE
  5
2E62
330
1E
100
AcDbEntity
  8
7
100
AcDbLine
 10
6.01279527559055
 20
11.36417322834645
 30
0.0
 11
5.864173228346456
 21
11.36417322834645
 31
0.0
  0
LINE
  5
2E63
330
1E
100
AcDbEntity
  8
7
100
AcDbLine
 10
6.01279527559055
 20
11.41732283464566
 30
0.0
 11
6.01279527559055
 21
11.36417322834645
 31
0.0
  0
LINE
  5
2E6B
330
1E
100
AcDbEntity
  8
7
100
AcDbLine
 10
4.754921259842519
 20
11.85334645669291
 30
0.0
 11
5.489173228346456
 21
12.27854330708661
 31
0.0
  0
LINE
  5
2E6C
330
1E
100
AcDbEntity
  8
7
100
AcDbLine
 10
6.072834645669291
 20
11.76771653543307
 30
0.0
 11
6.079724409448819
 21
11.55413385826771
 31
0.0
  0
LINE
  5
2E73
330
1E
100
AcDbEntity
  8
7
100
AcDbLine
 10
4.472440944881889
 20
11.85433070866141
 30
0.0
 11
4.754921259842519
 21
11.85433070866141
 31
0.0
  0
LINE
  5
2E7A
330
1E
100
AcDbEntity
  8
7
100
AcDbLine
 10
5.0
 20
11.45472440944881
 30
0.0
 11
5.171259842519685
 21
11.55413385826771
 31
0.0
  0
LINE
  5
2E7B
330
1E
100
AcDbEntity
  8
7
100
AcDbLine
 10
4.938976377952756
 20
11.55413385826771
 30
0.0
 11
5.021653543307087
 21
11.41929133858267
 31
0.0
  0
LINE
  5
2E7C
330
1E
100
AcDbEntity
  8
7
100
AcDbLine
 10
4.989173228346456
 20
11.33366141732283
 30
0.0
 11
4.933070866141732
 21
11.41633858267716
 31
0.0
  0
LINE
  5
2E8D
330
1E
100
AcDbEntity
  8
7
100
AcDbLine
 10
5.098425196850393
 20
11.45570866141732
 30
0.0
 11
5.112204724409449
 21
11.41830708661417
 31
0.0
  0
LINE
  5
2E8E
330
1E
100
AcDbEntity
  8
7
100
AcDbLine
 10
5.098425196850393
 20
11.45570866141732
 30
0.0
 11
5.091535433070866
 21
11.45767716535432
 31
0.0
  0
LINE
  5
2E8F
330
1E
100
AcDbEntity
  8
7
100
AcDbLine
 10
5.080708661417323
 20
11.4517716535433
 30
0.0
 11
5.091535433070866
 21
11.45767716535432
 31
0.0
  0
LINE
  5
2E90
330
1E
100
AcDbEntity
  8
7
100
AcDbLine
 10
5.080708661417323
 20
11.4517716535433
 30
0.0
 11
5.078740157480314
 21
11.44881889763779
 31
0.0
  0
LINE
  5
2E96
330
1E
100
AcDbEntity
  8
7
100
AcDbLine
 10
5.041338582677165
 20
11.41437007874015
 30
0.0
 11
5.056102362204724
 21
11.42322834645669
 31
0.0
  0
LINE
  5
2EA8
330
1E
100
AcDbEntity
  8
7
100
AcDbLine
 10
4.677165354330709
 20
11.07874015748031
 30
0.0
 11
4.662401574803149
 21
11.07874015748031
 31
0.0
  0
LINE
  5
2EAE
330
1E
100
AcDbEntity
  8
7
100
AcDbLine
 10
4.607283464566929
 20
11.19685039370078
 30
0.0
 11
4.677165354330709
 21
11.19685039370078
 31
0.0
  0
LINE
  5
2EC1
330
1E
100
AcDbEntity
  8
7
100
AcDbLine
 10
4.682086614173228
 20
11.55413385826771
 30
0.0
 11
4.721456692913386
 21
11.51476377952755
 31
0.0
  0
LINE
  5
2ECF
330
1E
100
AcDbEntity
  8
7
100
AcDbLine
 10
4.802165354330709
 20
11.8257874015748
 30
0.0
 11
4.820866141732283
 21
11.82480314960629
 31
0.0
  0
LINE
  5
2EEE
330
1E
100
AcDbEntity
  8
7
100
AcDbLine
 10
4.674212598425197
 20
11.55413385826771
 30
0.0
 11
4.673228346456693
 21
11.46358267716535
 31
0.0
  0
LINE
  5
2EEF
330
1E
100
AcDbEntity
  8
7
100
AcDbLine
 10
4.662401574803149
 20
11.45374015748031
 30
0.0
 11
4.59251968503937
 21
11.45374015748031
 31
0.0
  0
LINE
  5
2EF0
330
1E
100
AcDbEntity
  8
7
100
AcDbLine
 10
4.58267716535433
 20
11.46456692913385
 30
0.0
 11
4.58267716535433
 21
11.53444881889763
 31
0.0
  0
LINE
  5
2F00
330
1E
100
AcDbEntity
  8
7
100
AcDbLine
 10
4.761811023622047
 20
11.43405511811023
 30
0.0
 11
4.723425196850393
 21
11.43405511811023
 31
0.0
  0
LINE
  5
2F01
330
1E
100
AcDbEntity
  8
7
100
AcDbLine
 10
4.723425196850393
 20
11.44389763779527
 30
0.0
 11
4.723425196850393
 21
11.45374015748031
 31
0.0
  0
LINE
  5
2F16
330
1E
100
AcDbEntity
  8
7
100
AcDbLine
 10
4.763779527559055
 20
11.53444881889763
 30
0.0
 11
4.76279527559055
 21
11.46456692913385
 31
0.0
  0
LINE
  5
2F17
330
1E
100
AcDbEntity
  8
7
100
AcDbLine
 10
4.763779527559055
 20
11.53444881889763
 30
0.0
 11
4.721456692913386
 21
11.53444881889763
 31
0.0
  0
LINE
  5
2F35
330
1E
100
AcDbEntity
  8
7
100
AcDbLine
 10
4.472440944881889
 20
11.76771653543307
 30
0.0
 11
4.444881889763779
 21
11.76771653543307
 31
0.0
  0
LINE
  5
31DC
330
1E
100
AcDbEntity
  8
7
100
AcDbLine
 10
4.472440944881889
 20
11.85433070866141
 30
0.0
 11
4.472440944881889
 21
11.8503937007874
 31
0.0
  0
LINE
  5
31DD
330
1E
100
AcDbEntity
  8
7
100
AcDbLine
 10
4.472440944881889
 20
11.8503937007874
 30
0.0
 11
4.472440944881889
 21
11.83759842519685
 31
0.0
  0
LINE
  5
31DE
330
1E
100
AcDbEntity
  8
7
100
AcDbLine
 10
4.472440944881889
 20
11.83759842519685
 30
0.0
 11
4.472440944881889
 21
11.81889763779527
 31
0.0
  0
LINE
  5
31DF
330
1E
100
AcDbEntity
  8
7
100
AcDbLine
 10
4.472440944881889
 20
11.81889763779527
 30
0.0
 11
4.472440944881889
 21
11.79429133858267
 31
0.0
  0
LINE
  5
31E0
330
1E
100
AcDbEntity
  8
7
100
AcDbLine
 10
4.472440944881889
 20
11.79429133858267
 30
0.0
 11
4.472440944881889
 21
11.76771653543307
 31
0.0
  0
LINE
  5
31E1
330
1E
100
AcDbEntity
  8
7
100
AcDbLine
 10
5.982283464566929
 20
11.76771653543307
 30
0.0
 11
5.982283464566929
 21
11.79429133858267
 31
0.0
  0
LINE
  5
31E2
330
1E
100
AcDbEntity
  8
7
100
AcDbLine
 10
5.982283464566929
 20
11.79429133858267
 30
0.0
 11
5.982283464566929
 21
11.81889763779527
 31
0.0
  0
LINE
  5
31E3
330
1E
100
AcDbEntity
  8
7
100
AcDbLine
 10
5.982283464566929
 20
11.81889763779527
 30
0.0
 11
5.982283464566929
 21
11.83759842519685
 31
0.0
  0
LINE
  5
31E4
330
1E
100
AcDbEntity
  8
7
100
AcDbLine
 10
5.982283464566929
 20
11.83759842519685
 30
0.0
 11
5.982283464566929
 21
11.8503937007874
 31
0.0
  0
LINE
  5
31E5
330
1E
100
AcDbEntity
  8
7
100
AcDbLine
 10
5.982283464566929
 20
11.8503937007874
 30
0.0
 11
5.982283464566929
 21
11.85433070866141
 31
0.0
  0
LINE
  5
31E6
330
1E
100
AcDbEntity
  8
7
100
AcDbLine
 10
4.472440944881889
 20
11.85334645669291
 30
0.0
 11
4.444881889763779
 21
11.84940944881889
 31
0.0
  0
LINE
  5
31E7
330
1E
100
AcDbEntity
  8
7
100
AcDbLine
 10
4.444881889763779
 20
11.84940944881889
 30
0.0
 11
4.421259842519685
 21
11.83661417322834
 31
0.0
  0
LINE
  5
31E8
330
1E
100
AcDbEntity
  8
7
100
AcDbLine
 10
4.421259842519685
 20
11.83661417322834
 30
0.0
 11
4.401574803149606
 21
11.81791338582677
 31
0.0
  0
LINE
  5
31E9
330
1E
100
AcDbEntity
  8
7
100
AcDbLine
 10
4.401574803149606
 20
11.81791338582677
 30
0.0
 11
4.38779527559055
 21
11.79429133858267
 31
0.0
  0
LINE
  5
31EA
330
1E
100
AcDbEntity
  8
7
100
AcDbLine
 10
4.38779527559055
 20
11.79429133858267
 30
0.0
 11
4.382874015748031
 21
11.76673228346456
 31
0.0
  0
LINE
  5
31EB
330
1E
100
AcDbEntity
  8
7
100
AcDbLine
 10
6.071850393700787
 20
11.76673228346456
 30
0.0
 11
6.066929133858267
 21
11.79429133858267
 31
0.0
  0
LINE
  5
31EC
330
1E
100
AcDbEntity
  8
7
100
AcDbLine
 10
6.066929133858267
 20
11.79429133858267
 30
0.0
 11
6.053149606299212
 21
11.81791338582677
 31
0.0
  0
LINE
  5
31ED
330
1E
100
AcDbEntity
  8
7
100
AcDbLine
 10
6.053149606299212
 20
11.81791338582677
 30
0.0
 11
6.033464566929134
 21
11.83661417322834
 31
0.0
  0
LINE
  5
31EE
330
1E
100
AcDbEntity
  8
7
100
AcDbLine
 10
6.033464566929134
 20
11.83661417322834
 30
0.0
 11
6.009842519685039
 21
11.84940944881889
 31
0.0
  0
LINE
  5
31EF
330
1E
100
AcDbEntity
  8
7
100
AcDbLine
 10
6.009842519685039
 20
11.84940944881889
 30
0.0
 11
5.982283464566929
 21
11.85334645669291
 31
0.0
  0
LINE
  5
31F0
330
1E
100
AcDbEntity
  8
7
100
AcDbLine
 10
4.444881889763779
 20
11.76771653543307
 30
0.0
 11
4.419291338582677
 21
11.76870078740157
 31
0.0
  0
LINE
  5
31F1
330
1E
100
AcDbEntity
  8
7
100
AcDbLine
 10
4.419291338582677
 20
11.76870078740157
 30
0.0
 11
4.399606299212598
 21
11.76870078740157
 31
0.0
  0
LINE
  5
31F2
330
1E
100
AcDbEntity
  8
7
100
AcDbLine
 10
4.399606299212598
 20
11.76870078740157
 30
0.0
 11
4.386811023622047
 21
11.76771653543307
 31
0.0
  0
LINE
  5
31F3
330
1E
100
AcDbEntity
  8
7
100
AcDbLine
 10
4.386811023622047
 20
11.76771653543307
 30
0.0
 11
4.382874015748031
 21
11.76771653543307
 31
0.0
  0
LINE
  5
31F4
330
1E
100
AcDbEntity
  8
7
100
AcDbLine
 10
6.072834645669291
 20
11.76771653543307
 30
0.0
 11
6.067913385826772
 21
11.76771653543307
 31
0.0
  0
LINE
  5
31F5
330
1E
100
AcDbEntity
  8
7
100
AcDbLine
 10
6.067913385826772
 20
11.76771653543307
 30
0.0
 11
6.05511811023622
 21
11.76870078740157
 31
0.0
  0
LINE
  5
31F6
330
1E
100
AcDbEntity
  8
7
100
AcDbLine
 10
6.05511811023622
 20
11.76870078740157
 30
0.0
 11
6.035433070866141
 21
11.76870078740157
 31
0.0
  0
LINE
  5
31F7
330
1E
100
AcDbEntity
  8
7
100
AcDbLine
 10
6.035433070866141
 20
11.76870078740157
 30
0.0
 11
6.010826771653543
 21
11.76771653543307
 31
0.0
  0
LINE
  5
31F8
330
1E
100
AcDbEntity
  8
7
100
AcDbLine
 10
6.010826771653543
 20
11.76771653543307
 30
0.0
 11
5.982283464566929
 21
11.76771653543307
 31
0.0
  0
LINE
  5
31F9
330
1E
100
AcDbEntity
  8
7
100
AcDbLine
 10
4.763779527559055
 20
11.55413385826771
 30
0.0
 11
4.763779527559055
 21
11.54822834645669
 31
0.0
  0
LINE
  5
31FA
330
1E
100
AcDbEntity
  8
7
100
AcDbLine
 10
4.763779527559055
 20
11.54822834645669
 30
0.0
 11
4.763779527559055
 21
11.53444881889763
 31
0.0
  0
LINE
  5
31FB
330
1E
100
AcDbEntity
  8
7
100
AcDbLine
 10
4.76279527559055
 20
11.46456692913385
 30
0.0
 11
4.761811023622047
 21
11.45669291338582
 31
0.0
  0
LINE
  5
31FC
330
1E
100
AcDbEntity
  8
7
100
AcDbLine
 10
4.761811023622047
 20
11.45669291338582
 30
0.0
 11
4.761811023622047
 21
11.45374015748031
 31
0.0
  0
LINE
  5
31FD
330
1E
100
AcDbEntity
  8
7
100
AcDbLine
 10
4.721456692913386
 20
11.53444881889763
 30
0.0
 11
4.721456692913386
 21
11.54822834645669
 31
0.0
  0
LINE
  5
31FE
330
1E
100
AcDbEntity
  8
7
100
AcDbLine
 10
4.721456692913386
 20
11.54822834645669
 30
0.0
 11
4.721456692913386
 21
11.55413385826771
 31
0.0
  0
LINE
  5
31FF
330
1E
100
AcDbEntity
  8
7
100
AcDbLine
 10
4.761811023622047
 20
11.45374015748031
 30
0.0
 11
4.723425196850393
 21
11.45374015748031
 31
0.0
  0
LINE
  5
3200
330
1E
100
AcDbEntity
  8
7
100
AcDbLine
 10
4.723425196850393
 20
11.45374015748031
 30
0.0
 11
4.722440944881889
 21
11.45669291338582
 31
0.0
  0
LINE
  5
3201
330
1E
100
AcDbEntity
  8
7
100
AcDbLine
 10
4.722440944881889
 20
11.45669291338582
 30
0.0
 11
4.722440944881889
 21
11.46456692913385
 31
0.0
  0
LINE
  5
3202
330
1E
100
AcDbEntity
  8
7
100
AcDbLine
 10
4.721456692913386
 20
11.53444881889763
 30
0.0
 11
4.722440944881889
 21
11.46456692913385
 31
0.0
  0
LINE
  5
3203
330
1E
100
AcDbEntity
  8
7
100
AcDbLine
 10
4.722440944881889
 20
11.46456692913385
 30
0.0
 11
4.76279527559055
 21
11.46456692913385
 31
0.0
  0
LINE
  5
3204
330
1E
100
AcDbEntity
  8
7
100
AcDbLine
 10
4.761811023622047
 20
11.44389763779527
 30
0.0
 11
4.761811023622047
 21
11.43700787401574
 31
0.0
  0
LINE
  5
3205
330
1E
100
AcDbEntity
  8
7
100
AcDbLine
 10
4.761811023622047
 20
11.43700787401574
 30
0.0
 11
4.761811023622047
 21
11.43405511811023
 31
0.0
  0
LINE
  5
3206
330
1E
100
AcDbEntity
  8
7
100
AcDbLine
 10
4.723425196850393
 20
11.43405511811023
 30
0.0
 11
4.723425196850393
 21
11.43700787401574
 31
0.0
  0
LINE
  5
3207
330
1E
100
AcDbEntity
  8
7
100
AcDbLine
 10
4.723425196850393
 20
11.43700787401574
 30
0.0
 11
4.723425196850393
 21
11.44389763779527
 31
0.0
  0
LINE
  5
3208
330
1E
100
AcDbEntity
  8
7
100
AcDbLine
 10
4.723425196850393
 20
11.44389763779527
 30
0.0
 11
4.761811023622047
 21
11.44389763779527
 31
0.0
  0
LINE
  5
3209
330
1E
100
AcDbEntity
  8
7
100
AcDbLine
 10
4.761811023622047
 20
11.44389763779527
 30
0.0
 11
4.761811023622047
 21
11.45374015748031
 31
0.0
  0
LINE
  5
320A
330
1E
100
AcDbEntity
  8
7
100
AcDbLine
 10
4.662401574803149
 20
11.45374015748031
 30
0.0
 11
4.669291338582677
 21
11.45669291338582
 31
0.0
  0
LINE
  5
320B
330
1E
100
AcDbEntity
  8
7
100
AcDbLine
 10
4.669291338582677
 20
11.45669291338582
 30
0.0
 11
4.673228346456693
 21
11.46358267716535
 31
0.0
  0
LINE
  5
320C
330
1E
100
AcDbEntity
  8
7
100
AcDbLine
 10
4.58267716535433
 20
11.46456692913385
 30
0.0
 11
4.585629921259842
 21
11.45669291338582
 31
0.0
  0
LINE
  5
320D
330
1E
100
AcDbEntity
  8
7
100
AcDbLine
 10
4.585629921259842
 20
11.45669291338582
 30
0.0
 11
4.59251968503937
 21
11.45374015748031
 31
0.0
  0
LINE
  5
320E
330
1E
100
AcDbEntity
  8
7
100
AcDbLine
 10
4.562992125984251
 20
11.55413385826771
 30
0.0
 11
4.576771653543307
 21
11.54822834645669
 31
0.0
  0
LINE
  5
320F
330
1E
100
AcDbEntity
  8
7
100
AcDbLine
 10
4.576771653543307
 20
11.54822834645669
 30
0.0
 11
4.58267716535433
 21
11.53444881889763
 31
0.0
  0
LINE
  5
3210
330
1E
100
AcDbEntity
  8
7
100
AcDbLine
 10
5.700787401574803
 20
11.82480314960629
 30
0.0
 11
5.715551181102362
 21
11.8267716535433
 31
0.0
  0
LINE
  5
3211
330
1E
100
AcDbEntity
  8
7
100
AcDbLine
 10
5.715551181102362
 20
11.8267716535433
 30
0.0
 11
5.728346456692913
 21
11.83169291338582
 31
0.0
  0
LINE
  5
3212
330
1E
100
AcDbEntity
  8
7
100
AcDbLine
 10
5.728346456692913
 20
11.83169291338582
 30
0.0
 11
5.738188976377952
 21
11.83759842519685
 31
0.0
  0
LINE
  5
3213
330
1E
100
AcDbEntity
  8
7
100
AcDbLine
 10
5.738188976377952
 20
11.83759842519685
 30
0.0
 11
5.746062992125984
 21
11.84547244094488
 31
0.0
  0
LINE
  5
3214
330
1E
100
AcDbEntity
  8
7
100
AcDbLine
 10
5.746062992125984
 20
11.84547244094488
 30
0.0
 11
5.750984251968503
 21
11.8523622047244
 31
0.0
  0
LINE
  5
3215
330
1E
100
AcDbEntity
  8
7
100
AcDbLine
 10
5.750984251968503
 20
11.8523622047244
 30
0.0
 11
5.751968503937008
 21
11.85433070866141
 31
0.0
  0
LINE
  5
3216
330
1E
100
AcDbEntity
  8
7
100
AcDbLine
 10
5.498031496062992
 20
12.24507874015748
 30
0.0
 11
5.489173228346456
 21
12.2263779527559
 31
0.0
  0
LINE
  5
3217
330
1E
100
AcDbEntity
  8
7
100
AcDbLine
 10
5.489173228346456
 20
12.2263779527559
 30
0.0
 11
5.480314960629921
 21
12.20570866141732
 31
0.0
  0
LINE
  5
3218
330
1E
100
AcDbEntity
  8
7
100
AcDbLine
 10
5.489173228346456
 20
12.27854330708661
 30
0.0
 11
5.500984251968503
 21
12.27952755905511
 31
0.0
  0
LINE
  5
3219
330
1E
100
AcDbEntity
  8
7
100
AcDbLine
 10
5.500984251968503
 20
12.27952755905511
 30
0.0
 11
5.509842519685039
 21
12.27263779527559
 31
0.0
  0
LINE
  5
321A
330
1E
100
AcDbEntity
  8
7
100
AcDbLine
 10
5.509842519685039
 20
12.27263779527559
 30
0.0
 11
5.508858267716535
 21
12.26968503937007
 31
0.0
  0
LINE
  5
321B
330
1E
100
AcDbEntity
  8
7
100
AcDbLine
 10
5.508858267716535
 20
12.26968503937007
 30
0.0
 11
5.503937007874015
 21
12.25984251968504
 31
0.0
  0
LINE
  5
321C
330
1E
100
AcDbEntity
  8
7
100
AcDbLine
 10
5.503937007874015
 20
12.25984251968504
 30
0.0
 11
5.498031496062992
 21
12.24507874015748
 31
0.0
  0
LINE
  5
321D
330
1E
100
AcDbEntity
  8
7
100
AcDbLine
 10
5.489173228346456
 20
12.27854330708661
 30
0.0
 11
5.489173228346456
 21
12.27460629921259
 31
0.0
  0
LINE
  5
321E
330
1E
100
AcDbEntity
  8
7
100
AcDbLine
 10
5.489173228346456
 20
12.27460629921259
 30
0.0
 11
5.488188976377952
 21
12.26476377952756
 31
0.0
  0
LINE
  5
321F
330
1E
100
AcDbEntity
  8
7
100
AcDbLine
 10
5.488188976377952
 20
12.26476377952756
 30
0.0
 11
5.486220472440945
 21
12.24803149606299
 31
0.0
  0
LINE
  5
3220
330
1E
100
AcDbEntity
  8
7
100
AcDbLine
 10
5.486220472440945
 20
12.24803149606299
 30
0.0
 11
5.483267716535433
 21
12.22834645669291
 31
0.0
  0
LINE
  5
3221
330
1E
100
AcDbEntity
  8
7
100
AcDbLine
 10
5.483267716535433
 20
12.22834645669291
 30
0.0
 11
5.480314960629921
 21
12.20570866141732
 31
0.0
  0
LINE
  5
3222
330
1E
100
AcDbEntity
  8
7
100
AcDbLine
 10
4.754921259842519
 20
11.85334645669291
 30
0.0
 11
4.754921259842519
 21
11.8503937007874
 31
0.0
  0
LINE
  5
3223
330
1E
100
AcDbEntity
  8
7
100
AcDbLine
 10
4.754921259842519
 20
11.8503937007874
 30
0.0
 11
4.758858267716535
 21
11.84350393700787
 31
0.0
  0
LINE
  5
3224
330
1E
100
AcDbEntity
  8
7
100
AcDbLine
 10
4.758858267716535
 20
11.84350393700787
 30
0.0
 11
4.768700787401574
 21
11.83562992125984
 31
0.0
  0
LINE
  5
3225
330
1E
100
AcDbEntity
  8
7
100
AcDbLine
 10
4.768700787401574
 20
11.83562992125984
 30
0.0
 11
4.781496062992125
 21
11.83070866141732
 31
0.0
  0
LINE
  5
3226
330
1E
100
AcDbEntity
  8
7
100
AcDbLine
 10
4.781496062992125
 20
11.83070866141732
 30
0.0
 11
4.802165354330709
 21
11.8257874015748
 31
0.0
  0
LINE
  5
3227
330
1E
100
AcDbEntity
  8
7
100
AcDbLine
 10
5.509842519685039
 20
12.27165354330708
 30
0.0
 11
5.500984251968503
 21
12.27854330708661
 31
0.0
  0
LINE
  5
3228
330
1E
100
AcDbEntity
  8
7
100
AcDbLine
 10
5.500984251968503
 20
12.27854330708661
 30
0.0
 11
5.490157480314961
 21
12.27755905511811
 31
0.0
  0
LINE
  5
3229
330
1E
100
AcDbEntity
  8
7
100
AcDbLine
 10
4.567913385826772
 20
11.5501968503937
 30
0.0
 11
4.487204724409449
 21
11.54330708661417
 31
0.0
  0
LINE
  5
322A
330
1E
100
AcDbEntity
  8
7
100
AcDbLine
 10
4.487204724409449
 20
11.54330708661417
 30
0.0
 11
4.487204724409449
 21
11.43405511811023
 31
0.0
  0
LINE
  5
322B
330
1E
100
AcDbEntity
  8
7
100
AcDbLine
 10
4.487204724409449
 20
11.43405511811023
 30
0.0
 11
4.46259842519685
 21
11.43405511811023
 31
0.0
  0
LINE
  5
322C
330
1E
100
AcDbEntity
  8
7
100
AcDbLine
 10
4.46259842519685
 20
11.43405511811023
 30
0.0
 11
4.46259842519685
 21
11.40452755905511
 31
0.0
  0
LINE
  5
322D
330
1E
100
AcDbEntity
  8
7
100
AcDbLine
 10
4.46259842519685
 20
11.40452755905511
 30
0.0
 11
4.607283464566929
 21
11.23129921259842
 31
0.0
  0
LINE
  5
322E
330
1E
100
AcDbEntity
  8
7
100
AcDbLine
 10
4.377952755905512
 20
11.63090551181102
 30
0.0
 11
4.31003937007874
 21
11.62992125984251
 31
0.0
  0
LINE
  5
322F
330
1E
100
AcDbEntity
  8
7
100
AcDbLine
 10
4.31003937007874
 20
11.62992125984251
 30
0.0
 11
4.3001968503937
 21
11.625
 31
0.0
  0
LINE
  5
3230
330
1E
100
AcDbEntity
  8
7
100
AcDbLine
 10
4.3001968503937
 20
11.625
 30
0.0
 11
4.295275590551181
 21
11.61515748031495
 31
0.0
  0
LINE
  5
3231
330
1E
100
AcDbEntity
  8
7
100
AcDbLine
 10
4.295275590551181
 20
11.61515748031495
 30
0.0
 11
4.295275590551181
 21
11.60629921259842
 31
0.0
  0
LINE
  5
3232
330
1E
100
AcDbEntity
  8
7
100
AcDbLine
 10
4.295275590551181
 20
11.60629921259842
 30
0.0
 11
4.3001968503937
 21
11.59645669291338
 31
0.0
  0
LINE
  5
3233
330
1E
100
AcDbEntity
  8
7
100
AcDbLine
 10
4.3001968503937
 20
11.59645669291338
 30
0.0
 11
4.31003937007874
 21
11.59153543307086
 31
0.0
  0
LINE
  5
3234
330
1E
100
AcDbEntity
  8
7
100
AcDbLine
 10
4.31003937007874
 20
11.59153543307086
 30
0.0
 11
4.375984251968503
 21
11.58858267716535
 31
0.0
  0
LINE
  5
3235
330
1E
100
AcDbEntity
  8
7
100
AcDbLine
 10
4.547244094488188
 20
11.55413385826771
 30
0.0
 11
4.563976377952756
 21
11.5521653543307
 31
0.0
  0
LINE
  5
3236
330
1E
100
AcDbEntity
  8
7
100
AcDbLine
 10
4.563976377952756
 20
11.5521653543307
 30
0.0
 11
4.579724409448819
 21
11.54527559055118
 31
0.0
  0
LINE
  5
3237
330
1E
100
AcDbEntity
  8
7
100
AcDbLine
 10
4.646653543307087
 20
11.11318897637795
 30
0.0
 11
4.634842519685039
 21
11.13779527559055
 31
0.0
  0
LINE
  5
3238
330
1E
100
AcDbEntity
  8
7
100
AcDbLine
 10
4.634842519685039
 20
11.13779527559055
 30
0.0
 11
4.622047244094487
 21
11.16633858267716
 31
0.0
  0
LINE
  5
3239
330
1E
100
AcDbEntity
  8
7
100
AcDbLine
 10
4.622047244094487
 20
11.16633858267716
 30
0.0
 11
4.607283464566929
 21
11.19685039370078
 31
0.0
  0
LINE
  5
323A
330
1E
100
AcDbEntity
  8
7
100
AcDbLine
 10
4.662401574803149
 20
11.07874015748031
 30
0.0
 11
4.660433070866141
 21
11.08267716535433
 31
0.0
  0
LINE
  5
323B
330
1E
100
AcDbEntity
  8
7
100
AcDbLine
 10
4.660433070866141
 20
11.08267716535433
 30
0.0
 11
4.655511811023622
 21
11.09448818897637
 31
0.0
  0
LINE
  5
323C
330
1E
100
AcDbEntity
  8
7
100
AcDbLine
 10
4.655511811023622
 20
11.09448818897637
 30
0.0
 11
4.646653543307087
 21
11.11318897637795
 31
0.0
  0
LINE
  5
323D
330
1E
100
AcDbEntity
  8
7
100
AcDbLine
 10
5.041338582677165
 20
11.41437007874015
 30
0.0
 11
5.030511811023622
 21
11.41338582677165
 31
0.0
  0
LINE
  5
323E
330
1E
100
AcDbEntity
  8
7
100
AcDbLine
 10
5.030511811023622
 20
11.41338582677165
 30
0.0
 11
5.021653543307087
 21
11.41929133858267
 31
0.0
  0
LINE
  5
323F
330
1E
100
AcDbEntity
  8
7
100
AcDbLine
 10
5.056102362204724
 20
11.42322834645669
 30
0.0
 11
5.069881889763779
 21
11.43405511811023
 31
0.0
  0
LINE
  5
3240
330
1E
100
AcDbEntity
  8
7
100
AcDbLine
 10
5.069881889763779
 20
11.43405511811023
 30
0.0
 11
5.078740157480314
 21
11.44881889763779
 31
0.0
  0
LINE
  5
3241
330
1E
100
AcDbEntity
  8
7
100
AcDbLine
 10
5.14763779527559
 20
11.18996062992126
 30
0.0
 11
5.153543307086613
 21
11.19192913385826
 31
0.0
  0
LINE
  5
3242
330
1E
100
AcDbEntity
  8
7
100
AcDbLine
 10
5.153543307086613
 20
11.19192913385826
 30
0.0
 11
5.158464566929134
 21
11.2007874015748
 31
0.0
  0
LINE
  5
3243
330
1E
100
AcDbEntity
  8
7
100
AcDbLine
 10
5.158464566929134
 20
11.2007874015748
 30
0.0
 11
5.158464566929134
 21
11.24507874015747
 31
0.0
  0
LINE
  5
3244
330
1E
100
AcDbEntity
  8
7
100
AcDbLine
 10
5.158464566929134
 20
11.24507874015747
 30
0.0
 11
5.112204724409449
 21
11.41830708661417
 31
0.0
  0
LINE
  5
3245
330
1E
100
AcDbEntity
  8
7
100
AcDbLine
 10
4.989173228346456
 20
11.33366141732283
 30
0.0
 11
5.000984251968503
 21
11.32381889763779
 31
0.0
  0
LINE
  5
3246
330
1E
100
AcDbEntity
  8
7
100
AcDbLine
 10
5.000984251968503
 20
11.32381889763779
 30
0.0
 11
5.063976377952756
 21
11.29429133858267
 31
0.0
  0
LINE
  5
3247
330
1E
100
AcDbEntity
  8
7
100
AcDbLine
 10
5.063976377952756
 20
11.29429133858267
 30
0.0
 11
5.077755905511811
 21
11.28248031496063
 31
0.0
  0
LINE
  5
3248
330
1E
100
AcDbEntity
  8
7
100
AcDbLine
 10
5.077755905511811
 20
11.28248031496063
 30
0.0
 11
5.127952755905512
 21
11.19488188976377
 31
0.0
  0
LINE
  5
3249
330
1E
100
AcDbEntity
  8
7
100
AcDbLine
 10
5.127952755905512
 20
11.19488188976377
 30
0.0
 11
5.136811023622047
 21
11.18799212598425
 31
0.0
  0
LINE
  5
324A
330
1E
100
AcDbEntity
  8
7
100
AcDbLine
 10
5.136811023622047
 20
11.18799212598425
 30
0.0
 11
5.14763779527559
 21
11.18996062992126
 31
0.0
  0
LINE
  5
324B
330
1E
100
AcDbEntity
  8
7
100
AcDbLine
 10
5.480314960629921
 20
12.20570866141732
 30
0.0
 11
4.820866141732283
 21
11.82480314960629
 31
0.0
  0
LINE
  5
324C
330
1E
100
AcDbEntity
  8
7
100
AcDbLine
 10
4.820866141732283
 20
11.82480314960629
 30
0.0
 11
5.700787401574803
 21
11.82480314960629
 31
0.0
  0
LINE
  5
324D
330
1E
100
AcDbEntity
  8
7
100
AcDbLine
 10
5.700787401574803
 20
11.82480314960629
 30
0.0
 11
5.480314960629921
 21
12.20570866141732
 31
0.0
  0
LINE
  5
324E
330
1E
100
AcDbEntity
  8
7
100
AcDbLine
 10
5.990157480314961
 20
11.55413385826771
 30
0.0
 11
5.982283464566929
 21
11.76771653543307
 31
0.0
  0
LINE
  5
324F
330
1E
100
AcDbEntity
  8
7
100
AcDbLine
 10
5.982283464566929
 20
11.76771653543307
 30
0.0
 11
4.472440944881889
 21
11.76771653543307
 31
0.0
  0
LINE
  5
3250
330
1E
100
AcDbEntity
  8
7
100
AcDbLine
 10
4.472440944881889
 20
11.76771653543307
 30
0.0
 11
4.464566929133858
 21
11.55413385826771
 31
0.0
  0
LINE
  5
3251
330
1E
100
AcDbEntity
  8
7
100
AcDbLine
 10
6.01279527559055
 20
11.41732283464566
 30
0.0
 11
5.927165354330709
 21
11.43996062992125
 31
0.0
  0
LINE
  5
3252
330
1E
100
AcDbEntity
  8
7
100
AcDbLine
 10
5.927165354330709
 20
11.43996062992125
 30
0.0
 11
5.916338582677165
 21
11.44685039370078
 31
0.0
  0
LINE
  5
3253
330
1E
100
AcDbEntity
  8
7
100
AcDbLine
 10
5.916338582677165
 20
11.44685039370078
 30
0.0
 11
5.912401574803149
 21
11.45964566929133
 31
0.0
  0
LINE
  5
3254
330
1E
100
AcDbEntity
  8
7
100
AcDbLine
 10
5.912401574803149
 20
11.45964566929133
 30
0.0
 11
5.912401574803149
 21
11.55413385826771
 31
0.0
  0
LINE
  5
3255
330
1E
100
AcDbEntity
  8
7
100
AcDbLine
 10
4.677165354330709
 20
11.19685039370078
 30
0.0
 11
4.677165354330709
 21
11.16633858267716
 31
0.0
  0
LINE
  5
3256
330
1E
100
AcDbEntity
  8
7
100
AcDbLine
 10
4.677165354330709
 20
11.16633858267716
 30
0.0
 11
4.677165354330709
 21
11.13779527559055
 31
0.0
  0
LINE
  5
3257
330
1E
100
AcDbEntity
  8
7
100
AcDbLine
 10
4.677165354330709
 20
11.13779527559055
 30
0.0
 11
4.677165354330709
 21
11.11318897637795
 31
0.0
  0
LINE
  5
3258
330
1E
100
AcDbEntity
  8
7
100
AcDbLine
 10
4.677165354330709
 20
11.11318897637795
 30
0.0
 11
4.677165354330709
 21
11.09448818897637
 31
0.0
  0
LINE
  5
3259
330
1E
100
AcDbEntity
  8
7
100
AcDbLine
 10
4.677165354330709
 20
11.09448818897637
 30
0.0
 11
4.677165354330709
 21
11.08267716535433
 31
0.0
  0
LINE
  5
325A
330
1E
100
AcDbEntity
  8
7
100
AcDbLine
 10
4.677165354330709
 20
11.08267716535433
 30
0.0
 11
4.677165354330709
 21
11.07874015748031
 31
0.0
  0
LINE
  5
325B
330
1E
100
AcDbEntity
  8
7
100
AcDbLine
 10
4.412401574803149
 20
11.55413385826771
 30
0.0
 11
4.392716535433071
 21
11.55413385826771
 31
0.0
  0
LINE
  5
325C
330
1E
100
AcDbEntity
  8
7
100
AcDbLine
 10
4.392716535433071
 20
11.55413385826771
 30
0.0
 11
4.379921259842519
 21
11.55413385826771
 31
0.0
  0
LINE
  5
325D
330
1E
100
AcDbEntity
  8
7
100
AcDbLine
 10
4.379921259842519
 20
11.55413385826771
 30
0.0
 11
4.375
 21
11.55413385826771
 31
0.0
  0
LINE
  5
325E
330
1E
100
AcDbEntity
  8
7
100
AcDbLine
 10
6.079724409448819
 20
11.55413385826771
 30
0.0
 11
6.075787401574803
 21
11.55413385826771
 31
0.0
  0
LINE
  5
325F
330
1E
100
AcDbEntity
  8
7
100
AcDbLine
 10
6.075787401574803
 20
11.55413385826771
 30
0.0
 11
6.062992125984251
 21
11.55413385826771
 31
0.0
  0
LINE
  5
3260
330
1E
100
AcDbEntity
  8
7
100
AcDbLine
 10
6.062992125984251
 20
11.55413385826771
 30
0.0
 11
6.043307086614173
 21
11.55413385826771
 31
0.0
  0
LINE
  5
3261
330
1E
100
AcDbEntity
  8
7
100
AcDbLine
 10
6.043307086614173
 20
11.55413385826771
 30
0.0
 11
6.017716535433071
 21
11.55413385826771
 31
0.0
  0
LINE
  5
3262
330
1E
100
AcDbEntity
  8
7
100
AcDbLine
 10
6.017716535433071
 20
11.55413385826771
 30
0.0
 11
5.990157480314961
 21
11.55413385826771
 31
0.0
  0
LINE
  5
3263
330
1E
100
AcDbEntity
  8
7
100
AcDbLine
 10
5.990157480314961
 20
11.55413385826771
 30
0.0
 11
4.464566929133858
 21
11.55413385826771
 31
0.0
  0
LINE
  5
3264
330
1E
100
AcDbEntity
  8
7
100
AcDbLine
 10
4.464566929133858
 20
11.55413385826771
 30
0.0
 11
4.437007874015748
 21
11.55413385826771
 31
0.0
  0
LINE
  5
3265
330
1E
100
AcDbEntity
  8
7
100
AcDbLine
 10
4.437007874015748
 20
11.55413385826771
 30
0.0
 11
4.412401574803149
 21
11.55413385826771
 31
0.0
  0
LINE
  5
3266
330
1E
100
AcDbEntity
  8
7
100
AcDbLine
 10
4.76279527559055
 20
11.47342519685039
 30
0.0
 11
4.812992125984251
 21
11.42421259842519
 31
0.0
  0
LINE
  5
3267
330
1E
100
AcDbEntity
  8
7
100
AcDbLine
 10
4.812992125984251
 20
11.42421259842519
 30
0.0
 11
4.836614173228346
 21
11.40649606299212
 31
0.0
  0
LINE
  5
3268
330
1E
100
AcDbEntity
  8
7
100
AcDbLine
 10
4.836614173228346
 20
11.40649606299212
 30
0.0
 11
4.864173228346456
 21
11.39862204724409
 31
0.0
  0
LINE
  5
3269
330
1E
100
AcDbEntity
  8
7
100
AcDbLine
 10
4.864173228346456
 20
11.39862204724409
 30
0.0
 11
4.893700787401574
 21
11.39960629921259
 31
0.0
  0
LINE
  5
326A
330
1E
100
AcDbEntity
  8
7
100
AcDbLine
 10
4.893700787401574
 20
11.39960629921259
 30
0.0
 11
4.921259842519685
 21
11.40944881889763
 31
0.0
  0
LINE
  5
326B
330
1E
100
AcDbEntity
  8
7
100
AcDbLine
 10
3.720472440944881
 20
11.81791338582677
 30
0.0
 11
3.700787401574802
 21
11.83661417322834
 31
0.0
  0
LINE
  5
326C
330
1E
100
AcDbEntity
  8
7
100
AcDbLine
 10
3.700787401574802
 20
11.83661417322834
 30
0.0
 11
3.677165354330708
 21
11.84940944881889
 31
0.0
  0
LINE
  5
326D
330
1E
100
AcDbEntity
  8
7
100
AcDbLine
 10
3.677165354330708
 20
11.84940944881889
 30
0.0
 11
3.649606299212598
 21
11.85334645669291
 31
0.0
  0
LINE
  5
326E
330
1E
100
AcDbEntity
  8
7
100
AcDbLine
 10
3.739173228346456
 20
11.76673228346456
 30
0.0
 11
3.734251968503937
 21
11.79429133858267
 31
0.0
  0
LINE
  5
326F
330
1E
100
AcDbEntity
  8
7
100
AcDbLine
 10
3.734251968503937
 20
11.79429133858267
 30
0.0
 11
3.720472440944881
 21
11.81791338582677
 31
0.0
  0
LINE
  5
3270
330
1E
100
AcDbEntity
  8
7
100
AcDbLine
 10
3.649606299212598
 20
11.85433070866141
 30
0.0
 11
3.649606299212598
 21
11.8503937007874
 31
0.0
  0
LINE
  5
3271
330
1E
100
AcDbEntity
  8
7
100
AcDbLine
 10
3.649606299212598
 20
11.8503937007874
 30
0.0
 11
3.649606299212598
 21
11.83759842519685
 31
0.0
  0
LINE
  5
3272
330
1E
100
AcDbEntity
  8
7
100
AcDbLine
 10
3.649606299212598
 20
11.83759842519685
 30
0.0
 11
3.649606299212598
 21
11.81889763779527
 31
0.0
  0
LINE
  5
3273
330
1E
100
AcDbEntity
  8
7
100
AcDbLine
 10
3.649606299212598
 20
11.81889763779527
 30
0.0
 11
3.649606299212598
 21
11.79429133858267
 31
0.0
  0
LINE
  5
3274
330
1E
100
AcDbEntity
  8
7
100
AcDbLine
 10
3.649606299212598
 20
11.79429133858267
 30
0.0
 11
3.649606299212598
 21
11.76771653543307
 31
0.0
  0
LINE
  5
3275
330
1E
100
AcDbEntity
  8
7
100
AcDbLine
 10
0.9340551181102361
 20
11.8503937007874
 30
0.0
 11
0.9340551181102361
 21
11.83759842519685
 31
0.0
  0
LINE
  5
3276
330
1E
100
AcDbEntity
  8
7
100
AcDbLine
 10
0.9340551181102361
 20
11.83759842519685
 30
0.0
 11
0.9340551181102361
 21
11.81889763779527
 31
0.0
  0
LINE
  5
3277
330
1E
100
AcDbEntity
  8
7
100
AcDbLine
 10
0.9340551181102361
 20
11.81889763779527
 30
0.0
 11
0.9340551181102361
 21
11.79429133858267
 31
0.0
  0
LINE
  5
3278
330
1E
100
AcDbEntity
  8
7
100
AcDbLine
 10
0.9340551181102361
 20
11.79429133858267
 30
0.0
 11
0.9340551181102361
 21
11.76771653543307
 31
0.0
  0
LINE
  5
3279
330
1E
100
AcDbEntity
  8
7
100
AcDbLine
 10
0.9340551181102361
 20
11.85334645669291
 30
0.0
 11
0.9064960629921259
 21
11.84940944881889
 31
0.0
  0
LINE
  5
327A
330
1E
100
AcDbEntity
  8
7
100
AcDbLine
 10
0.9064960629921259
 20
11.84940944881889
 30
0.0
 11
0.8828740157480314
 21
11.83661417322834
 31
0.0
  0
LINE
  5
327B
330
1E
100
AcDbEntity
  8
7
100
AcDbLine
 10
0.8828740157480314
 20
11.83661417322834
 30
0.0
 11
0.8631889763779527
 21
11.81791338582677
 31
0.0
  0
LINE
  5
327C
330
1E
100
AcDbEntity
  8
7
100
AcDbLine
 10
0.8631889763779527
 20
11.81791338582677
 30
0.0
 11
0.8494094488188977
 21
11.79429133858267
 31
0.0
  0
LINE
  5
327D
330
1E
100
AcDbEntity
  8
7
100
AcDbLine
 10
0.8494094488188977
 20
11.79429133858267
 30
0.0
 11
0.8444881889763779
 21
11.76673228346456
 31
0.0
  0
LINE
  5
327E
330
1E
100
AcDbEntity
  8
7
100
AcDbLine
 10
0.8809055118110237
 20
11.76870078740157
 30
0.0
 11
0.8612204724409448
 21
11.76870078740157
 31
0.0
  0
LINE
  5
327F
330
1E
100
AcDbEntity
  8
7
100
AcDbLine
 10
0.8612204724409448
 20
11.76870078740157
 30
0.0
 11
0.8484251968503937
 21
11.76771653543307
 31
0.0
  0
LINE
  5
3280
330
1E
100
AcDbEntity
  8
7
100
AcDbLine
 10
0.8484251968503937
 20
11.76771653543307
 30
0.0
 11
0.8444881889763779
 21
11.76771653543307
 31
0.0
  0
LINE
  5
3281
330
1E
100
AcDbEntity
  8
7
100
AcDbLine
 10
0.9340551181102361
 20
11.76771653543307
 30
0.0
 11
0.9064960629921259
 21
11.76771653543307
 31
0.0
  0
LINE
  5
3282
330
1E
100
AcDbEntity
  8
7
100
AcDbLine
 10
0.9064960629921259
 20
11.76771653543307
 30
0.0
 11
0.8809055118110237
 21
11.76870078740157
 31
0.0
  0
LINE
  5
3283
330
1E
100
AcDbEntity
  8
7
100
AcDbLine
 10
3.739173228346456
 20
11.76771653543307
 30
0.0
 11
3.73523622047244
 21
11.76771653543307
 31
0.0
  0
LINE
  5
3284
330
1E
100
AcDbEntity
  8
7
100
AcDbLine
 10
3.73523622047244
 20
11.76771653543307
 30
0.0
 11
3.722440944881889
 21
11.76870078740157
 31
0.0
  0
LINE
  5
3285
330
1E
100
AcDbEntity
  8
7
100
AcDbLine
 10
3.722440944881889
 20
11.76870078740157
 30
0.0
 11
3.701771653543307
 21
11.76870078740157
 31
0.0
  0
LINE
  5
3286
330
1E
100
AcDbEntity
  8
7
100
AcDbLine
 10
3.701771653543307
 20
11.76870078740157
 30
0.0
 11
3.677165354330708
 21
11.76771653543307
 31
0.0
  0
LINE
  5
3287
330
1E
100
AcDbEntity
  8
7
100
AcDbLine
 10
3.677165354330708
 20
11.76771653543307
 30
0.0
 11
3.649606299212598
 21
11.76771653543307
 31
0.0
  0
LINE
  5
3288
330
1E
100
AcDbEntity
  8
7
100
AcDbLine
 10
3.612204724409449
 20
11.53444881889763
 30
0.0
 11
3.618110236220472
 21
11.54822834645669
 31
0.0
  0
LINE
  5
3289
330
1E
100
AcDbEntity
  8
7
100
AcDbLine
 10
3.618110236220472
 20
11.54822834645669
 30
0.0
 11
3.631889763779527
 21
11.55413385826771
 31
0.0
  0
LINE
  5
328A
330
1E
100
AcDbEntity
  8
7
100
AcDbLine
 10
3.601377952755905
 20
11.45374015748031
 30
0.0
 11
3.609251968503937
 21
11.45669291338582
 31
0.0
  0
LINE
  5
328B
330
1E
100
AcDbEntity
  8
7
100
AcDbLine
 10
3.609251968503937
 20
11.45669291338582
 30
0.0
 11
3.612204724409449
 21
11.46456692913385
 31
0.0
  0
LINE
  5
328C
330
1E
100
AcDbEntity
  8
7
100
AcDbLine
 10
3.509842519685038
 20
11.46456692913385
 30
0.0
 11
3.51279527559055
 21
11.45669291338582
 31
0.0
  0
LINE
  5
328D
330
1E
100
AcDbEntity
  8
7
100
AcDbLine
 10
3.51279527559055
 20
11.45669291338582
 30
0.0
 11
3.519685039370078
 21
11.45374015748031
 31
0.0
  0
LINE
  5
328E
330
1E
100
AcDbEntity
  8
7
100
AcDbLine
 10
1.063976377952756
 20
11.43405511811023
 30
0.0
 11
1.070866141732283
 21
11.43700787401574
 31
0.0
  0
LINE
  5
328F
330
1E
100
AcDbEntity
  8
7
100
AcDbLine
 10
1.070866141732283
 20
11.43700787401574
 30
0.0
 11
1.073818897637795
 21
11.44389763779527
 31
0.0
  0
LINE
  5
3290
330
1E
100
AcDbEntity
  8
7
100
AcDbLine
 10
0.9714566929133859
 20
11.44389763779527
 30
0.0
 11
0.9744094488188977
 21
11.43700787401574
 31
0.0
  0
LINE
  5
3291
330
1E
100
AcDbEntity
  8
7
100
AcDbLine
 10
0.9744094488188977
 20
11.43700787401574
 30
0.0
 11
0.9812992125984251
 21
11.43405511811023
 31
0.0
  0
LINE
  5
3292
330
1E
100
AcDbEntity
  8
7
100
AcDbLine
 10
0.9517716535433072
 20
11.55413385826771
 30
0.0
 11
0.9655511811023622
 21
11.54822834645669
 31
0.0
  0
LINE
  5
3293
330
1E
100
AcDbEntity
  8
7
100
AcDbLine
 10
0.9655511811023622
 20
11.54822834645669
 30
0.0
 11
0.9714566929133859
 21
11.53444881889763
 31
0.0
  0
LINE
  5
3294
330
1E
100
AcDbEntity
  8
7
100
AcDbLine
 10
3.295275590551181
 20
11.46456692913385
 30
0.0
 11
3.295275590551181
 21
11.45669291338582
 31
0.0
  0
LINE
  5
3295
330
1E
100
AcDbEntity
  8
7
100
AcDbLine
 10
3.295275590551181
 20
11.45669291338582
 30
0.0
 11
3.295275590551181
 21
11.45374015748031
 31
0.0
  0
LINE
  5
3296
330
1E
100
AcDbEntity
  8
7
100
AcDbLine
 10
3.296259842519685
 20
11.55413385826771
 30
0.0
 11
3.296259842519685
 21
11.54822834645669
 31
0.0
  0
LINE
  5
3297
330
1E
100
AcDbEntity
  8
7
100
AcDbLine
 10
3.296259842519685
 20
11.54822834645669
 30
0.0
 11
3.296259842519685
 21
11.53444881889763
 31
0.0
  0
LINE
  5
3298
330
1E
100
AcDbEntity
  8
7
100
AcDbLine
 10
3.244094488188975
 20
11.53444881889763
 30
0.0
 11
3.244094488188975
 21
11.54822834645669
 31
0.0
  0
LINE
  5
3299
330
1E
100
AcDbEntity
  8
7
100
AcDbLine
 10
3.244094488188975
 20
11.54822834645669
 30
0.0
 11
3.244094488188975
 21
11.55413385826771
 31
0.0
  0
LINE
  5
329A
330
1E
100
AcDbEntity
  8
7
100
AcDbLine
 10
3.246062992125984
 20
11.45374015748031
 30
0.0
 11
3.246062992125984
 21
11.45669291338582
 31
0.0
  0
LINE
  5
329B
330
1E
100
AcDbEntity
  8
7
100
AcDbLine
 10
3.246062992125984
 20
11.45669291338582
 30
0.0
 11
3.24507874015748
 21
11.46456692913385
 31
0.0
  0
LINE
  5
329C
330
1E
100
AcDbEntity
  8
7
100
AcDbLine
 10
3.24507874015748
 20
11.46456692913385
 30
0.0
 11
3.295275590551181
 21
11.46456692913385
 31
0.0
  0
LINE
  5
329D
330
1E
100
AcDbEntity
  8
7
100
AcDbLine
 10
3.295275590551181
 20
11.46456692913385
 30
0.0
 11
3.296259842519685
 21
11.53444881889763
 31
0.0
  0
LINE
  5
329E
330
1E
100
AcDbEntity
  8
7
100
AcDbLine
 10
1.338582677165354
 20
11.46456692913385
 30
0.0
 11
1.33759842519685
 21
11.45669291338582
 31
0.0
  0
LINE
  5
329F
330
1E
100
AcDbEntity
  8
7
100
AcDbLine
 10
1.33759842519685
 20
11.45669291338582
 30
0.0
 11
1.33759842519685
 21
11.45374015748031
 31
0.0
  0
LINE
  5
32A0
330
1E
100
AcDbEntity
  8
7
100
AcDbLine
 10
1.339566929133858
 20
11.55413385826771
 30
0.0
 11
1.339566929133858
 21
11.54822834645669
 31
0.0
  0
LINE
  5
32A1
330
1E
100
AcDbEntity
  8
7
100
AcDbLine
 10
1.339566929133858
 20
11.54822834645669
 30
0.0
 11
1.339566929133858
 21
11.53444881889763
 31
0.0
  0
LINE
  5
32A2
330
1E
100
AcDbEntity
  8
7
100
AcDbLine
 10
1.287401574803149
 20
11.53444881889763
 30
0.0
 11
1.287401574803149
 21
11.54822834645669
 31
0.0
  0
LINE
  5
32A3
330
1E
100
AcDbEntity
  8
7
100
AcDbLine
 10
1.287401574803149
 20
11.54822834645669
 30
0.0
 11
1.286417322834645
 21
11.55413385826771
 31
0.0
  0
LINE
  5
32A4
330
1E
100
AcDbEntity
  8
7
100
AcDbLine
 10
1.288385826771653
 20
11.45374015748031
 30
0.0
 11
1.288385826771653
 21
11.45669291338582
 31
0.0
  0
LINE
  5
32A5
330
1E
100
AcDbEntity
  8
7
100
AcDbLine
 10
1.288385826771653
 20
11.45669291338582
 30
0.0
 11
1.288385826771653
 21
11.46456692913385
 31
0.0
  0
LINE
  5
32A6
330
1E
100
AcDbEntity
  8
7
100
AcDbLine
 10
1.288385826771653
 20
11.46456692913385
 30
0.0
 11
1.338582677165354
 21
11.46456692913385
 31
0.0
  0
LINE
  5
32A7
330
1E
100
AcDbEntity
  8
7
100
AcDbLine
 10
1.338582677165354
 20
11.46456692913385
 30
0.0
 11
1.339566929133858
 21
11.53444881889763
 31
0.0
  0
LINE
  5
32A8
330
1E
100
AcDbEntity
  8
7
100
AcDbLine
 10
1.339566929133858
 20
11.53444881889763
 30
0.0
 11
1.287401574803149
 21
11.53444881889763
 31
0.0
  0
LINE
  5
32A9
330
1E
100
AcDbEntity
  8
7
100
AcDbLine
 10
3.641732283464566
 20
12.27854330708661
 30
0.0
 11
3.641732283464566
 21
12.27952755905511
 31
0.0
  0
LINE
  5
32AA
330
1E
100
AcDbEntity
  8
7
100
AcDbLine
 10
3.641732283464566
 20
12.27952755905511
 30
0.0
 11
3.641732283464566
 21
12.28051181102362
 31
0.0
  0
LINE
  5
32AB
330
1E
100
AcDbEntity
  8
7
100
AcDbLine
 10
3.641732283464566
 20
12.27854330708661
 30
0.0
 11
3.660433070866141
 21
12.27460629921259
 31
0.0
  0
LINE
  5
32AC
330
1E
100
AcDbEntity
  8
7
100
AcDbLine
 10
3.660433070866141
 20
12.27460629921259
 30
0.0
 11
3.676181102362204
 21
12.26476377952756
 31
0.0
  0
LINE
  5
32AD
330
1E
100
AcDbEntity
  8
7
100
AcDbLine
 10
3.676181102362204
 20
12.26476377952756
 30
0.0
 11
3.68996062992126
 21
12.24803149606299
 31
0.0
  0
LINE
  5
32AE
330
1E
100
AcDbEntity
  8
7
100
AcDbLine
 10
3.68996062992126
 20
12.24803149606299
 30
0.0
 11
3.698818897637795
 21
12.22834645669291
 31
0.0
  0
LINE
  5
32AF
330
1E
100
AcDbEntity
  8
7
100
AcDbLine
 10
3.698818897637795
 20
12.22834645669291
 30
0.0
 11
3.702755905511811
 21
12.20570866141732
 31
0.0
  0
LINE
  5
32B0
330
1E
100
AcDbEntity
  8
7
100
AcDbLine
 10
0.9232283464566927
 20
12.27460629921259
 30
0.0
 11
0.9064960629921259
 21
12.26476377952756
 31
0.0
  0
LINE
  5
32B1
330
1E
100
AcDbEntity
  8
7
100
AcDbLine
 10
0.9064960629921259
 20
12.26476377952756
 30
0.0
 11
0.8937007874015748
 21
12.24803149606299
 31
0.0
  0
LINE
  5
32B2
330
1E
100
AcDbEntity
  8
7
100
AcDbLine
 10
0.8937007874015748
 20
12.24803149606299
 30
0.0
 11
0.8848425196850392
 21
12.22834645669291
 31
0.0
  0
LINE
  5
32B3
330
1E
100
AcDbEntity
  8
7
100
AcDbLine
 10
0.8848425196850392
 20
12.22834645669291
 30
0.0
 11
0.8809055118110237
 21
12.20570866141732
 31
0.0
  0
LINE
  5
32B4
330
1E
100
AcDbEntity
  8
7
100
AcDbLine
 10
0.9419291338582677
 20
12.27854330708661
 30
0.0
 11
0.9419291338582677
 21
12.27952755905511
 31
0.0
  0
LINE
  5
32B5
330
1E
100
AcDbEntity
  8
7
100
AcDbLine
 10
0.9419291338582677
 20
12.27952755905511
 30
0.0
 11
0.9419291338582677
 21
12.28051181102362
 31
0.0
  0
LINE
  5
32B6
330
1E
100
AcDbEntity
  8
7
100
AcDbLine
 10
3.641732283464566
 20
12.27854330708661
 30
0.0
 11
3.641732283464566
 21
12.27952755905511
 31
0.0
  0
LINE
  5
32B7
330
1E
100
AcDbEntity
  8
7
100
AcDbLine
 10
3.641732283464566
 20
12.27952755905511
 30
0.0
 11
3.641732283464566
 21
12.28051181102362
 31
0.0
  0
LINE
  5
32B8
330
1E
100
AcDbEntity
  8
7
100
AcDbLine
 10
0.9419291338582677
 20
12.28051181102362
 30
0.0
 11
0.9419291338582677
 21
12.27952755905511
 31
0.0
  0
LINE
  5
32B9
330
1E
100
AcDbEntity
  8
7
100
AcDbLine
 10
0.9419291338582677
 20
12.27952755905511
 30
0.0
 11
0.9419291338582677
 21
12.27854330708661
 31
0.0
  0
LINE
  5
32BA
330
1E
100
AcDbEntity
  8
7
100
AcDbLine
 10
2.874015748031496
 20
11.40944881889763
 30
0.0
 11
2.874015748031496
 21
11.4005905511811
 31
0.0
  0
LINE
  5
32BB
330
1E
100
AcDbEntity
  8
7
100
AcDbLine
 10
2.874015748031496
 20
11.4005905511811
 30
0.0
 11
2.874015748031496
 21
11.39763779527559
 31
0.0
  0
LINE
  5
32BC
330
1E
100
AcDbEntity
  8
7
100
AcDbLine
 10
2.875984251968503
 20
11.55413385826771
 30
0.0
 11
2.874015748031496
 21
11.42421259842519
 31
0.0
  0
LINE
  5
32BD
330
1E
100
AcDbEntity
  8
7
100
AcDbLine
 10
2.874015748031496
 20
11.42421259842519
 30
0.0
 11
2.874015748031496
 21
11.40944881889763
 31
0.0
  0
LINE
  5
32BE
330
1E
100
AcDbEntity
  8
7
100
AcDbLine
 10
3.031496062992125
 20
11.39763779527559
 30
0.0
 11
3.031496062992125
 21
11.4005905511811
 31
0.0
  0
LINE
  5
32BF
330
1E
100
AcDbEntity
  8
7
100
AcDbLine
 10
3.031496062992125
 20
11.4005905511811
 30
0.0
 11
3.031496062992125
 21
11.40944881889763
 31
0.0
  0
LINE
  5
32C0
330
1E
100
AcDbEntity
  8
7
100
AcDbLine
 10
3.031496062992125
 20
11.40944881889763
 30
0.0
 11
3.031496062992125
 21
11.42421259842519
 31
0.0
  0
LINE
  5
32C1
330
1E
100
AcDbEntity
  8
7
100
AcDbLine
 10
3.031496062992125
 20
11.42421259842519
 30
0.0
 11
3.078740157480314
 21
11.42421259842519
 31
0.0
  0
LINE
  5
32C2
330
1E
100
AcDbEntity
  8
7
100
AcDbLine
 10
2.826771653543307
 20
11.4005905511811
 30
0.0
 11
2.826771653543307
 21
11.40944881889763
 31
0.0
  0
LINE
  5
32C3
330
1E
100
AcDbEntity
  8
7
100
AcDbLine
 10
2.826771653543307
 20
11.40944881889763
 30
0.0
 11
2.826771653543307
 21
11.42421259842519
 31
0.0
  0
LINE
  5
32C4
330
1E
100
AcDbEntity
  8
7
100
AcDbLine
 10
3.081692913385826
 20
11.55413385826771
 30
0.0
 11
3.078740157480314
 21
11.42421259842519
 31
0.0
  0
LINE
  5
32C5
330
1E
100
AcDbEntity
  8
7
100
AcDbLine
 10
3.078740157480314
 20
11.42421259842519
 30
0.0
 11
3.078740157480314
 21
11.40944881889763
 31
0.0
  0
LINE
  5
32C6
330
1E
100
AcDbEntity
  8
7
100
AcDbLine
 10
3.078740157480314
 20
11.40944881889763
 30
0.0
 11
3.078740157480314
 21
11.4005905511811
 31
0.0
  0
LINE
  5
32C7
330
1E
100
AcDbEntity
  8
7
100
AcDbLine
 10
3.078740157480314
 20
11.4005905511811
 30
0.0
 11
3.078740157480314
 21
11.39763779527559
 31
0.0
  0
LINE
  5
32C8
330
1E
100
AcDbEntity
  8
7
100
AcDbLine
 10
1.554133858267716
 20
11.55413385826771
 30
0.0
 11
1.552165354330708
 21
11.42421259842519
 31
0.0
  0
LINE
  5
32C9
330
1E
100
AcDbEntity
  8
7
100
AcDbLine
 10
1.552165354330708
 20
11.42421259842519
 30
0.0
 11
1.552165354330708
 21
11.40944881889763
 31
0.0
  0
LINE
  5
32CA
330
1E
100
AcDbEntity
  8
7
100
AcDbLine
 10
1.552165354330708
 20
11.40944881889763
 30
0.0
 11
1.552165354330708
 21
11.4005905511811
 31
0.0
  0
LINE
  5
32CB
330
1E
100
AcDbEntity
  8
7
100
AcDbLine
 10
1.552165354330708
 20
11.4005905511811
 30
0.0
 11
1.552165354330708
 21
11.39763779527559
 31
0.0
  0
LINE
  5
32CC
330
1E
100
AcDbEntity
  8
7
100
AcDbLine
 10
1.709645669291338
 20
11.39763779527559
 30
0.0
 11
1.709645669291338
 21
11.4005905511811
 31
0.0
  0
LINE
  5
32CD
330
1E
100
AcDbEntity
  8
7
100
AcDbLine
 10
1.709645669291338
 20
11.4005905511811
 30
0.0
 11
1.709645669291338
 21
11.40944881889763
 31
0.0
  0
LINE
  5
32CE
330
1E
100
AcDbEntity
  8
7
100
AcDbLine
 10
1.709645669291338
 20
11.40944881889763
 30
0.0
 11
1.709645669291338
 21
11.42421259842519
 31
0.0
  0
LINE
  5
32CF
330
1E
100
AcDbEntity
  8
7
100
AcDbLine
 10
1.709645669291338
 20
11.42421259842519
 30
0.0
 11
1.756889763779527
 21
11.42421259842519
 31
0.0
  0
LINE
  5
32D0
330
1E
100
AcDbEntity
  8
7
100
AcDbLine
 10
1.504921259842519
 20
11.39763779527559
 30
0.0
 11
1.504921259842519
 21
11.4005905511811
 31
0.0
  0
LINE
  5
32D1
330
1E
100
AcDbEntity
  8
7
100
AcDbLine
 10
1.504921259842519
 20
11.4005905511811
 30
0.0
 11
1.504921259842519
 21
11.40944881889763
 31
0.0
  0
LINE
  5
32D2
330
1E
100
AcDbEntity
  8
7
100
AcDbLine
 10
1.504921259842519
 20
11.40944881889763
 30
0.0
 11
1.503937007874015
 21
11.42421259842519
 31
0.0
  0
LINE
  5
32D3
330
1E
100
AcDbEntity
  8
7
100
AcDbLine
 10
1.759842519685039
 20
11.55413385826771
 30
0.0
 11
1.756889763779527
 21
11.42421259842519
 31
0.0
  0
LINE
  5
32D4
330
1E
100
AcDbEntity
  8
7
100
AcDbLine
 10
1.756889763779527
 20
11.42421259842519
 30
0.0
 11
1.756889763779527
 21
11.40944881889763
 31
0.0
  0
LINE
  5
32D5
330
1E
100
AcDbEntity
  8
7
100
AcDbLine
 10
1.756889763779527
 20
11.40944881889763
 30
0.0
 11
1.756889763779527
 21
11.4005905511811
 31
0.0
  0
LINE
  5
32D6
330
1E
100
AcDbEntity
  8
7
100
AcDbLine
 10
1.756889763779527
 20
11.4005905511811
 30
0.0
 11
1.756889763779527
 21
11.39763779527559
 31
0.0
  0
LINE
  5
32D7
330
1E
100
AcDbEntity
  8
7
100
AcDbLine
 10
3.461614173228346
 20
11.39763779527559
 30
0.0
 11
3.461614173228346
 21
11.4005905511811
 31
0.0
  0
LINE
  5
32D8
330
1E
100
AcDbEntity
  8
7
100
AcDbLine
 10
3.461614173228346
 20
11.4005905511811
 30
0.0
 11
3.461614173228346
 21
11.40944881889763
 31
0.0
  0
LINE
  5
32D9
330
1E
100
AcDbEntity
  8
7
100
AcDbLine
 10
3.461614173228346
 20
11.40944881889763
 30
0.0
 11
3.461614173228346
 21
11.42421259842519
 31
0.0
  0
LINE
  5
32DA
330
1E
100
AcDbEntity
  8
7
100
AcDbLine
 10
2.447834645669291
 20
11.66141732283464
 30
0.0
 11
2.447834645669291
 21
11.65846456692913
 31
0.0
  0
LINE
  5
32DB
330
1E
100
AcDbEntity
  8
7
100
AcDbLine
 10
2.447834645669291
 20
11.65846456692913
 30
0.0
 11
2.447834645669291
 21
11.64960629921259
 31
0.0
  0
LINE
  5
32DC
330
1E
100
AcDbEntity
  8
7
100
AcDbLine
 10
2.447834645669291
 20
11.64960629921259
 30
0.0
 11
2.447834645669291
 21
11.63582677165354
 31
0.0
  0
LINE
  5
32DD
330
1E
100
AcDbEntity
  8
7
100
AcDbLine
 10
1.073818897637795
 20
11.44389763779527
 30
0.0
 11
1.074803149606299
 21
11.42421259842519
 31
0.0
  0
LINE
  5
32DE
330
1E
100
AcDbEntity
  8
7
100
AcDbLine
 10
1.074803149606299
 20
11.42421259842519
 30
0.0
 11
1.122047244094488
 21
11.42421259842519
 31
0.0
  0
LINE
  5
32DF
330
1E
100
AcDbEntity
  8
7
100
AcDbLine
 10
1.074803149606299
 20
11.39763779527559
 30
0.0
 11
1.074803149606299
 21
11.4005905511811
 31
0.0
  0
LINE
  5
32E0
330
1E
100
AcDbEntity
  8
7
100
AcDbLine
 10
1.074803149606299
 20
11.4005905511811
 30
0.0
 11
1.074803149606299
 21
11.40944881889763
 31
0.0
  0
LINE
  5
32E1
330
1E
100
AcDbEntity
  8
7
100
AcDbLine
 10
1.074803149606299
 20
11.40944881889763
 30
0.0
 11
1.074803149606299
 21
11.42421259842519
 31
0.0
  0
LINE
  5
32E2
330
1E
100
AcDbEntity
  8
7
100
AcDbLine
 10
1.124015748031496
 20
11.55413385826771
 30
0.0
 11
1.122047244094488
 21
11.42421259842519
 31
0.0
  0
LINE
  5
32E3
330
1E
100
AcDbEntity
  8
7
100
AcDbLine
 10
1.122047244094488
 20
11.42421259842519
 30
0.0
 11
1.122047244094488
 21
11.40944881889763
 31
0.0
  0
LINE
  5
32E4
330
1E
100
AcDbEntity
  8
7
100
AcDbLine
 10
1.122047244094488
 20
11.40944881889763
 30
0.0
 11
1.122047244094488
 21
11.4005905511811
 31
0.0
  0
LINE
  5
32E5
330
1E
100
AcDbEntity
  8
7
100
AcDbLine
 10
1.122047244094488
 20
11.4005905511811
 30
0.0
 11
1.122047244094488
 21
11.39763779527559
 31
0.0
  0
LINE
  5
32E6
330
1E
100
AcDbEntity
  8
7
100
AcDbLine
 10
2.432086614173228
 20
11.55413385826771
 30
0.0
 11
2.434055118110236
 21
11.54330708661417
 31
0.0
  0
LINE
  5
32E7
330
1E
100
AcDbEntity
  8
7
100
AcDbLine
 10
2.434055118110236
 20
11.54330708661417
 30
0.0
 11
2.434055118110236
 21
11.43405511811023
 31
0.0
  0
LINE
  5
32E8
330
1E
100
AcDbEntity
  8
7
100
AcDbLine
 10
2.500984251968503
 20
11.43405511811023
 30
0.0
 11
2.434055118110236
 21
11.43405511811023
 31
0.0
  0
LINE
  5
32E9
330
1E
100
AcDbEntity
  8
7
100
AcDbLine
 10
2.434055118110236
 20
11.43405511811023
 30
0.0
 11
2.434055118110236
 21
11.40452755905511
 31
0.0
  0
LINE
  5
32EA
330
1E
100
AcDbEntity
  8
7
100
AcDbLine
 10
2.434055118110236
 20
11.40452755905511
 30
0.0
 11
2.432086614173228
 21
11.23129921259842
 31
0.0
  0
LINE
  5
32EB
330
1E
100
AcDbEntity
  8
7
100
AcDbLine
 10
2.151574803149606
 20
11.55413385826771
 30
0.0
 11
2.149606299212598
 21
11.54330708661417
 31
0.0
  0
LINE
  5
32EC
330
1E
100
AcDbEntity
  8
7
100
AcDbLine
 10
2.149606299212598
 20
11.54330708661417
 30
0.0
 11
2.149606299212598
 21
11.43405511811023
 31
0.0
  0
LINE
  5
32ED
330
1E
100
AcDbEntity
  8
7
100
AcDbLine
 10
2.507874015748031
 20
11.55413385826771
 30
0.0
 11
2.501968503937007
 21
11.54330708661417
 31
0.0
  0
LINE
  5
32EE
330
1E
100
AcDbEntity
  8
7
100
AcDbLine
 10
2.501968503937007
 20
11.54330708661417
 30
0.0
 11
2.501968503937007
 21
11.43405511811023
 31
0.0
  0
LINE
  5
32EF
330
1E
100
AcDbEntity
  8
7
100
AcDbLine
 10
2.501968503937007
 20
11.43405511811023
 30
0.0
 11
2.500984251968503
 21
11.43405511811023
 31
0.0
  0
LINE
  5
32F0
330
1E
100
AcDbEntity
  8
7
100
AcDbLine
 10
2.500984251968503
 20
11.43405511811023
 30
0.0
 11
2.500984251968503
 21
11.40452755905511
 31
0.0
  0
LINE
  5
32F1
330
1E
100
AcDbEntity
  8
7
100
AcDbLine
 10
2.500984251968503
 20
11.40452755905511
 30
0.0
 11
2.507874015748031
 21
11.23129921259842
 31
0.0
  0
LINE
  5
32F2
330
1E
100
AcDbEntity
  8
7
100
AcDbLine
 10
2.492125984251968
 20
11.62992125984251
 30
0.0
 11
2.492125984251968
 21
11.625
 31
0.0
  0
LINE
  5
32F3
330
1E
100
AcDbEntity
  8
7
100
AcDbLine
 10
2.492125984251968
 20
11.625
 30
0.0
 11
2.492125984251968
 21
11.61515748031495
 31
0.0
  0
LINE
  5
32F4
330
1E
100
AcDbEntity
  8
7
100
AcDbLine
 10
2.492125984251968
 20
11.61515748031495
 30
0.0
 11
2.492125984251968
 21
11.60629921259842
 31
0.0
  0
LINE
  5
32F5
330
1E
100
AcDbEntity
  8
7
100
AcDbLine
 10
2.492125984251968
 20
11.60629921259842
 30
0.0
 11
2.492125984251968
 21
11.59645669291338
 31
0.0
  0
LINE
  5
32F6
330
1E
100
AcDbEntity
  8
7
100
AcDbLine
 10
2.492125984251968
 20
11.59645669291338
 30
0.0
 11
2.492125984251968
 21
11.59153543307086
 31
0.0
  0
LINE
  5
32F7
330
1E
100
AcDbEntity
  8
7
100
AcDbLine
 10
2.492125984251968
 20
11.59153543307086
 30
0.0
 11
2.507874015748031
 21
11.5757874015748
 31
0.0
  0
LINE
  5
32F8
330
1E
100
AcDbEntity
  8
7
100
AcDbLine
 10
2.091535433070865
 20
11.61515748031495
 30
0.0
 11
2.091535433070865
 21
11.625
 31
0.0
  0
LINE
  5
32F9
330
1E
100
AcDbEntity
  8
7
100
AcDbLine
 10
2.091535433070865
 20
11.625
 30
0.0
 11
2.090551181102362
 21
11.62992125984251
 31
0.0
  0
LINE
  5
32FA
330
1E
100
AcDbEntity
  8
7
100
AcDbLine
 10
2.091535433070865
 20
11.59153543307086
 30
0.0
 11
2.091535433070865
 21
11.59645669291338
 31
0.0
  0
LINE
  5
32FB
330
1E
100
AcDbEntity
  8
7
100
AcDbLine
 10
2.091535433070865
 20
11.59645669291338
 30
0.0
 11
2.091535433070865
 21
11.60629921259842
 31
0.0
  0
LINE
  5
32FC
330
1E
100
AcDbEntity
  8
7
100
AcDbLine
 10
2.071850393700787
 20
11.63582677165354
 30
0.0
 11
2.090551181102362
 21
11.62992125984251
 31
0.0
  0
LINE
  5
32FD
330
1E
100
AcDbEntity
  8
7
100
AcDbLine
 10
2.090551181102362
 20
11.62992125984251
 30
0.0
 11
2.492125984251968
 21
11.62992125984251
 31
0.0
  0
LINE
  5
32FE
330
1E
100
AcDbEntity
  8
7
100
AcDbLine
 10
1.898622047244094
 20
11.55413385826771
 30
0.0
 11
1.899606299212598
 21
11.54921259842519
 31
0.0
  0
LINE
  5
32FF
330
1E
100
AcDbEntity
  8
7
100
AcDbLine
 10
1.899606299212598
 20
11.54921259842519
 30
0.0
 11
1.900590551181102
 21
11.53641732283464
 31
0.0
  0
LINE
  5
3300
330
1E
100
AcDbEntity
  8
7
100
AcDbLine
 10
1.900590551181102
 20
11.53641732283464
 30
0.0
 11
1.901574803149606
 21
11.51673228346456
 31
0.0
  0
LINE
  5
3301
330
1E
100
AcDbEntity
  8
7
100
AcDbLine
 10
1.901574803149606
 20
11.51673228346456
 30
0.0
 11
1.901574803149606
 21
11.49409448818897
 31
0.0
  0
LINE
  5
3302
330
1E
100
AcDbEntity
  8
7
100
AcDbLine
 10
2.682086614173228
 20
11.49409448818897
 30
0.0
 11
2.682086614173228
 21
11.51673228346456
 31
0.0
  0
LINE
  5
3303
330
1E
100
AcDbEntity
  8
7
100
AcDbLine
 10
2.682086614173228
 20
11.51673228346456
 30
0.0
 11
2.683070866141732
 21
11.53641732283464
 31
0.0
  0
LINE
  5
3304
330
1E
100
AcDbEntity
  8
7
100
AcDbLine
 10
2.683070866141732
 20
11.53641732283464
 30
0.0
 11
2.684055118110236
 21
11.54921259842519
 31
0.0
  0
LINE
  5
3305
330
1E
100
AcDbEntity
  8
7
100
AcDbLine
 10
2.684055118110236
 20
11.54921259842519
 30
0.0
 11
2.685039370078739
 21
11.55413385826771
 31
0.0
  0
LINE
  5
3306
330
1E
100
AcDbEntity
  8
7
100
AcDbLine
 10
1.83267716535433
 20
11.49409448818897
 30
0.0
 11
1.831692913385826
 21
11.51673228346456
 31
0.0
  0
LINE
  5
3307
330
1E
100
AcDbEntity
  8
7
100
AcDbLine
 10
1.831692913385826
 20
11.51673228346456
 30
0.0
 11
1.830708661417322
 21
11.53641732283464
 31
0.0
  0
LINE
  5
3308
330
1E
100
AcDbEntity
  8
7
100
AcDbLine
 10
1.830708661417322
 20
11.53641732283464
 30
0.0
 11
1.829724409448818
 21
11.54921259842519
 31
0.0
  0
LINE
  5
3309
330
1E
100
AcDbEntity
  8
7
100
AcDbLine
 10
1.829724409448818
 20
11.54921259842519
 30
0.0
 11
1.828740157480314
 21
11.55413385826771
 31
0.0
  0
LINE
  5
330A
330
1E
100
AcDbEntity
  8
7
100
AcDbLine
 10
2.754921259842519
 20
11.55413385826771
 30
0.0
 11
2.753937007874015
 21
11.54921259842519
 31
0.0
  0
LINE
  5
330B
330
1E
100
AcDbEntity
  8
7
100
AcDbLine
 10
2.753937007874015
 20
11.54921259842519
 30
0.0
 11
2.751968503937007
 21
11.53641732283464
 31
0.0
  0
LINE
  5
330C
330
1E
100
AcDbEntity
  8
7
100
AcDbLine
 10
2.751968503937007
 20
11.53641732283464
 30
0.0
 11
2.750984251968503
 21
11.51673228346456
 31
0.0
  0
LINE
  5
330D
330
1E
100
AcDbEntity
  8
7
100
AcDbLine
 10
1.83759842519685
 20
11.19685039370078
 30
0.0
 11
1.843503937007874
 21
11.16633858267716
 31
0.0
  0
LINE
  5
330E
330
1E
100
AcDbEntity
  8
7
100
AcDbLine
 10
1.843503937007874
 20
11.16633858267716
 30
0.0
 11
1.856299212598425
 21
11.13779527559055
 31
0.0
  0
LINE
  5
330F
330
1E
100
AcDbEntity
  8
7
100
AcDbLine
 10
1.856299212598425
 20
11.13779527559055
 30
0.0
 11
1.875984251968503
 21
11.11318897637795
 31
0.0
  0
LINE
  5
3310
330
1E
100
AcDbEntity
  8
7
100
AcDbLine
 10
1.875984251968503
 20
11.11318897637795
 30
0.0
 11
1.901574803149606
 21
11.09448818897637
 31
0.0
  0
LINE
  5
3311
330
1E
100
AcDbEntity
  8
7
100
AcDbLine
 10
1.901574803149606
 20
11.09448818897637
 30
0.0
 11
1.93011811023622
 21
11.08267716535433
 31
0.0
  0
LINE
  5
3312
330
1E
100
AcDbEntity
  8
7
100
AcDbLine
 10
1.93011811023622
 20
11.08267716535433
 30
0.0
 11
1.960629921259842
 21
11.07874015748031
 31
0.0
  0
LINE
  5
3313
330
1E
100
AcDbEntity
  8
7
100
AcDbLine
 10
2.727362204724409
 20
11.13779527559055
 30
0.0
 11
2.74015748031496
 21
11.16633858267716
 31
0.0
  0
LINE
  5
3314
330
1E
100
AcDbEntity
  8
7
100
AcDbLine
 10
2.74015748031496
 20
11.16633858267716
 30
0.0
 11
2.746062992125984
 21
11.19685039370078
 31
0.0
  0
LINE
  5
3315
330
1E
100
AcDbEntity
  8
7
100
AcDbLine
 10
2.623031496062991
 20
11.07874015748031
 30
0.0
 11
2.653543307086613
 21
11.08267716535433
 31
0.0
  0
LINE
  5
3316
330
1E
100
AcDbEntity
  8
7
100
AcDbLine
 10
2.653543307086613
 20
11.08267716535433
 30
0.0
 11
2.682086614173228
 21
11.09448818897637
 31
0.0
  0
LINE
  5
3317
330
1E
100
AcDbEntity
  8
7
100
AcDbLine
 10
2.682086614173228
 20
11.09448818897637
 30
0.0
 11
2.70767716535433
 21
11.11318897637795
 31
0.0
  0
LINE
  5
3318
330
1E
100
AcDbEntity
  8
7
100
AcDbLine
 10
2.70767716535433
 20
11.11318897637795
 30
0.0
 11
2.727362204724409
 21
11.13779527559055
 31
0.0
  0
LINE
  5
3319
330
1E
100
AcDbEntity
  8
7
100
AcDbLine
 10
3.372047244094487
 20
11.33366141732283
 30
0.0
 11
3.372047244094487
 21
11.32381889763779
 31
0.0
  0
LINE
  5
331A
330
1E
100
AcDbEntity
  8
7
100
AcDbLine
 10
3.372047244094487
 20
11.32381889763779
 30
0.0
 11
3.37007874015748
 21
11.29429133858267
 31
0.0
  0
LINE
  5
331B
330
1E
100
AcDbEntity
  8
7
100
AcDbLine
 10
3.37007874015748
 20
11.29429133858267
 30
0.0
 11
3.369094488188975
 21
11.28248031496063
 31
0.0
  0
LINE
  5
331C
330
1E
100
AcDbEntity
  8
7
100
AcDbLine
 10
3.369094488188975
 20
11.28248031496063
 30
0.0
 11
3.36515748031496
 21
11.19488188976377
 31
0.0
  0
LINE
  5
331D
330
1E
100
AcDbEntity
  8
7
100
AcDbLine
 10
3.36515748031496
 20
11.19488188976377
 30
0.0
 11
3.364173228346456
 21
11.18799212598425
 31
0.0
  0
LINE
  5
331E
330
1E
100
AcDbEntity
  8
7
100
AcDbLine
 10
2.0501968503937
 20
11.33366141732283
 30
0.0
 11
2.049212598425197
 21
11.32381889763779
 31
0.0
  0
LINE
  5
331F
330
1E
100
AcDbEntity
  8
7
100
AcDbLine
 10
2.049212598425197
 20
11.32381889763779
 30
0.0
 11
2.048228346456692
 21
11.29429133858267
 31
0.0
  0
LINE
  5
3320
330
1E
100
AcDbEntity
  8
7
100
AcDbLine
 10
2.048228346456692
 20
11.29429133858267
 30
0.0
 11
2.047244094488188
 21
11.28248031496063
 31
0.0
  0
LINE
  5
3321
330
1E
100
AcDbEntity
  8
7
100
AcDbLine
 10
2.047244094488188
 20
11.28248031496063
 30
0.0
 11
2.045275590551181
 21
11.23622047244094
 31
0.0
  0
LINE
  5
3322
330
1E
100
AcDbEntity
  8
7
100
AcDbLine
 10
1.415354330708661
 20
11.33366141732283
 30
0.0
 11
1.414370078740157
 21
11.32381889763779
 31
0.0
  0
LINE
  5
3323
330
1E
100
AcDbEntity
  8
7
100
AcDbLine
 10
1.414370078740157
 20
11.32381889763779
 30
0.0
 11
1.413385826771653
 21
11.29429133858267
 31
0.0
  0
LINE
  5
3324
330
1E
100
AcDbEntity
  8
7
100
AcDbLine
 10
1.413385826771653
 20
11.29429133858267
 30
0.0
 11
1.412401574803149
 21
11.28248031496063
 31
0.0
  0
LINE
  5
3325
330
1E
100
AcDbEntity
  8
7
100
AcDbLine
 10
1.412401574803149
 20
11.28248031496063
 30
0.0
 11
1.407480314960629
 21
11.19488188976377
 31
0.0
  0
LINE
  5
3326
330
1E
100
AcDbEntity
  8
7
100
AcDbLine
 10
1.407480314960629
 20
11.19488188976377
 30
0.0
 11
1.407480314960629
 21
11.18799212598425
 31
0.0
  0
LINE
  5
3327
330
1E
100
AcDbEntity
  8
7
100
AcDbLine
 10
1.703740157480314
 20
11.88385826771653
 30
0.0
 11
1.558070866141732
 21
11.88385826771653
 31
0.0
  0
LINE
  5
3328
330
1E
100
AcDbEntity
  8
7
100
AcDbLine
 10
1.558070866141732
 20
11.88385826771653
 30
0.0
 11
1.558070866141732
 21
11.85433070866141
 31
0.0
  0
LINE
  5
3329
330
1E
100
AcDbEntity
  8
7
100
AcDbLine
 10
3.656496062992125
 20
11.85334645669291
 30
0.0
 11
3.641732283464566
 21
12.27854330708661
 31
0.0
  0
LINE
  5
332A
330
1E
100
AcDbEntity
  8
7
100
AcDbLine
 10
3.641732283464566
 20
12.27854330708661
 30
0.0
 11
0.9419291338582677
 21
12.27854330708661
 31
0.0
  0
LINE
  5
332B
330
1E
100
AcDbEntity
  8
7
100
AcDbLine
 10
3.58267716535433
 20
12.21161417322834
 30
0.0
 11
3.58267716535433
 21
11.88385826771653
 31
0.0
  0
LINE
  5
332C
330
1E
100
AcDbEntity
  8
7
100
AcDbLine
 10
3.58267716535433
 20
11.88385826771653
 30
0.0
 11
3.515748031496062
 21
11.88385826771653
 31
0.0
  0
LINE
  5
332D
330
1E
100
AcDbEntity
  8
7
100
AcDbLine
 10
3.515748031496062
 20
11.88385826771653
 30
0.0
 11
3.515748031496062
 21
11.85433070866141
 31
0.0
  0
LINE
  5
332E
330
1E
100
AcDbEntity
  8
7
100
AcDbLine
 10
2.390748031496062
 20
11.85433070866141
 30
0.0
 11
2.390748031496062
 21
11.88385826771653
 31
0.0
  0
LINE
  5
332F
330
1E
100
AcDbEntity
  8
7
100
AcDbLine
 10
2.390748031496062
 20
11.88385826771653
 30
0.0
 11
2.322834645669291
 21
11.88385826771653
 31
0.0
  0
LINE
  5
3330
330
1E
100
AcDbEntity
  8
7
100
AcDbLine
 10
2.322834645669291
 20
11.88385826771653
 30
0.0
 11
2.322834645669291
 21
12.21161417322834
 31
0.0
  0
LINE
  5
3331
330
1E
100
AcDbEntity
  8
7
100
AcDbLine
 10
2.260826771653543
 20
12.21161417322834
 30
0.0
 11
2.260826771653543
 21
11.88385826771653
 31
0.0
  0
LINE
  5
3332
330
1E
100
AcDbEntity
  8
7
100
AcDbLine
 10
2.260826771653543
 20
11.88385826771653
 30
0.0
 11
2.192913385826771
 21
11.88385826771653
 31
0.0
  0
LINE
  5
3333
330
1E
100
AcDbEntity
  8
7
100
AcDbLine
 10
2.192913385826771
 20
11.88385826771653
 30
0.0
 11
2.192913385826771
 21
11.85433070866141
 31
0.0
  0
LINE
  5
3334
330
1E
100
AcDbEntity
  8
7
100
AcDbLine
 10
1.067913385826771
 20
11.85433070866141
 30
0.0
 11
1.067913385826771
 21
11.88385826771653
 31
0.0
  0
LINE
  5
3335
330
1E
100
AcDbEntity
  8
7
100
AcDbLine
 10
1.067913385826771
 20
11.88385826771653
 30
0.0
 11
1.000984251968503
 21
11.88385826771653
 31
0.0
  0
LINE
  5
3336
330
1E
100
AcDbEntity
  8
7
100
AcDbLine
 10
1.000984251968503
 20
11.88385826771653
 30
0.0
 11
1.000984251968503
 21
12.21161417322834
 31
0.0
  0
LINE
  5
3337
330
1E
100
AcDbEntity
  8
7
100
AcDbLine
 10
3.025590551181102
 20
11.85433070866141
 30
0.0
 11
3.025590551181102
 21
11.88385826771653
 31
0.0
  0
LINE
  5
3338
330
1E
100
AcDbEntity
  8
7
100
AcDbLine
 10
3.025590551181102
 20
11.88385826771653
 30
0.0
 11
2.879921259842519
 21
11.88385826771653
 31
0.0
  0
LINE
  5
3339
330
1E
100
AcDbEntity
  8
7
100
AcDbLine
 10
3.656496062992125
 20
11.55413385826771
 30
0.0
 11
3.649606299212598
 21
11.76771653543307
 31
0.0
  0
LINE
  5
333A
330
1E
100
AcDbEntity
  8
7
100
AcDbLine
 10
3.649606299212598
 20
11.76771653543307
 30
0.0
 11
0.9340551181102361
 21
11.76771653543307
 31
0.0
  0
LINE
  5
333B
330
1E
100
AcDbEntity
  8
7
100
AcDbLine
 10
0.9340551181102361
 20
11.76771653543307
 30
0.0
 11
0.9271653543307085
 21
11.55413385826771
 31
0.0
  0
LINE
  5
333C
330
1E
100
AcDbEntity
  8
7
100
AcDbLine
 10
2.562007874015748
 20
11.23622047244094
 30
0.0
 11
2.576771653543307
 21
11.24015748031496
 31
0.0
  0
LINE
  5
333D
330
1E
100
AcDbEntity
  8
7
100
AcDbLine
 10
2.576771653543307
 20
11.24015748031496
 30
0.0
 11
2.58759842519685
 21
11.2509842519685
 31
0.0
  0
LINE
  5
333E
330
1E
100
AcDbEntity
  8
7
100
AcDbLine
 10
2.58759842519685
 20
11.2509842519685
 30
0.0
 11
2.591535433070865
 21
11.26574803149606
 31
0.0
  0
LINE
  5
333F
330
1E
100
AcDbEntity
  8
7
100
AcDbLine
 10
2.511811023622047
 20
11.26574803149606
 30
0.0
 11
2.515748031496062
 21
11.2509842519685
 31
0.0
  0
LINE
  5
3340
330
1E
100
AcDbEntity
  8
7
100
AcDbLine
 10
2.515748031496062
 20
11.2509842519685
 30
0.0
 11
2.526574803149606
 21
11.24015748031496
 31
0.0
  0
LINE
  5
3341
330
1E
100
AcDbEntity
  8
7
100
AcDbLine
 10
2.526574803149606
 20
11.24015748031496
 30
0.0
 11
2.541338582677165
 21
11.23622047244094
 31
0.0
  0
LINE
  5
3342
330
1E
100
AcDbEntity
  8
7
100
AcDbLine
 10
2.041338582677165
 20
11.23622047244094
 30
0.0
 11
2.057086614173228
 21
11.24015748031496
 31
0.0
  0
LINE
  5
3343
330
1E
100
AcDbEntity
  8
7
100
AcDbLine
 10
2.057086614173228
 20
11.24015748031496
 30
0.0
 11
2.067913385826771
 21
11.2509842519685
 31
0.0
  0
LINE
  5
3344
330
1E
100
AcDbEntity
  8
7
100
AcDbLine
 10
2.067913385826771
 20
11.2509842519685
 30
0.0
 11
2.071850393700787
 21
11.26574803149606
 31
0.0
  0
LINE
  5
3345
330
1E
100
AcDbEntity
  8
7
100
AcDbLine
 10
1.992125984251968
 20
11.26574803149606
 30
0.0
 11
1.996062992125984
 21
11.2509842519685
 31
0.0
  0
LINE
  5
3346
330
1E
100
AcDbEntity
  8
7
100
AcDbLine
 10
1.996062992125984
 20
11.2509842519685
 30
0.0
 11
2.006889763779527
 21
11.24015748031496
 31
0.0
  0
LINE
  5
3347
330
1E
100
AcDbEntity
  8
7
100
AcDbLine
 10
2.006889763779527
 20
11.24015748031496
 30
0.0
 11
2.021653543307087
 21
11.23622047244094
 31
0.0
  0
LINE
  5
3348
330
1E
100
AcDbEntity
  8
7
100
AcDbLine
 10
2.591535433070865
 20
11.76082677165354
 30
0.0
 11
2.591535433070865
 21
11.26574803149606
 31
0.0
  0
LINE
  5
3349
330
1E
100
AcDbEntity
  8
7
100
AcDbLine
 10
2.591535433070865
 20
11.26574803149606
 30
0.0
 11
2.595472440944881
 21
11.26279527559055
 31
0.0
  0
LINE
  5
334A
330
1E
100
AcDbEntity
  8
7
100
AcDbLine
 10
1.901574803149606
 20
11.49409448818897
 30
0.0
 11
1.83267716535433
 21
11.49409448818897
 31
0.0
  0
LINE
  5
334B
330
1E
100
AcDbEntity
  8
7
100
AcDbLine
 10
1.83267716535433
 20
11.49409448818897
 30
0.0
 11
1.83759842519685
 21
11.19685039370078
 31
0.0
  0
LINE
  5
334C
330
1E
100
AcDbEntity
  8
7
100
AcDbLine
 10
2.071850393700787
 20
11.24704724409449
 30
0.0
 11
2.060039370078739
 21
11.23622047244094
 31
0.0
  0
LINE
  5
334D
330
1E
100
AcDbEntity
  8
7
100
AcDbLine
 10
2.060039370078739
 20
11.23622047244094
 30
0.0
 11
2.045275590551181
 21
11.23228346456693
 31
0.0
  0
LINE
  5
334E
330
1E
100
AcDbEntity
  8
7
100
AcDbLine
 10
2.045275590551181
 20
11.23228346456693
 30
0.0
 11
2.017716535433071
 21
11.23228346456693
 31
0.0
  0
LINE
  5
334F
330
1E
100
AcDbEntity
  8
7
100
AcDbLine
 10
2.017716535433071
 20
11.23228346456693
 30
0.0
 11
2.002952755905512
 21
11.23622047244094
 31
0.0
  0
LINE
  5
3350
330
1E
100
AcDbEntity
  8
7
100
AcDbLine
 10
2.002952755905512
 20
11.23622047244094
 30
0.0
 11
1.992125984251968
 21
11.24704724409449
 31
0.0
  0
LINE
  5
3351
330
1E
100
AcDbEntity
  8
7
100
AcDbLine
 10
1.992125984251968
 20
11.24704724409449
 30
0.0
 11
1.988188976377952
 21
11.26279527559055
 31
0.0
  0
LINE
  5
3352
330
1E
100
AcDbEntity
  8
7
100
AcDbLine
 10
1.988188976377952
 20
11.26279527559055
 30
0.0
 11
1.988188976377952
 21
11.64665354330708
 31
0.0
  0
LINE
  5
3353
330
1E
100
AcDbEntity
  8
7
100
AcDbLine
 10
2.075787401574802
 20
11.23129921259842
 30
0.0
 11
2.075787401574802
 21
11.26279527559055
 31
0.0
  0
LINE
  5
3354
330
1E
100
AcDbEntity
  8
7
100
AcDbLine
 10
2.075787401574802
 20
11.26279527559055
 30
0.0
 11
2.071850393700787
 21
11.24704724409449
 31
0.0
  0
LINE
  5
3355
330
1E
100
AcDbEntity
  8
7
100
AcDbLine
 10
2.507874015748031
 20
11.55413385826771
 30
0.0
 11
2.507874015748031
 21
11.5757874015748
 31
0.0
  0
LINE
  5
3356
330
1E
100
AcDbEntity
  8
7
100
AcDbLine
 10
2.507874015748031
 20
11.5757874015748
 30
0.0
 11
2.075787401574802
 21
11.5757874015748
 31
0.0
  0
LINE
  5
3357
330
1E
100
AcDbEntity
  8
7
100
AcDbLine
 10
2.075787401574802
 20
11.5757874015748
 30
0.0
 11
2.075787401574802
 21
11.55413385826771
 31
0.0
  0
LINE
  5
3358
330
1E
100
AcDbEntity
  8
7
100
AcDbLine
 10
2.075787401574802
 20
11.55413385826771
 30
0.0
 11
2.151574803149606
 21
11.55413385826771
 31
0.0
  0
LINE
  5
3359
330
1E
100
AcDbEntity
  8
7
100
AcDbLine
 10
2.507874015748031
 20
11.23129921259842
 30
0.0
 11
2.432086614173228
 21
11.23129921259842
 31
0.0
  0
LINE
  5
335A
330
1E
100
AcDbEntity
  8
7
100
AcDbLine
 10
2.432086614173228
 20
11.23129921259842
 30
0.0
 11
2.432086614173228
 21
11.55413385826771
 31
0.0
  0
LINE
  5
335B
330
1E
100
AcDbEntity
  8
7
100
AcDbLine
 10
2.595472440944881
 20
11.26279527559055
 30
0.0
 11
2.591535433070865
 21
11.24704724409449
 31
0.0
  0
LINE
  5
335C
330
1E
100
AcDbEntity
  8
7
100
AcDbLine
 10
2.591535433070865
 20
11.24704724409449
 30
0.0
 11
2.580708661417323
 21
11.23622047244094
 31
0.0
  0
LINE
  5
335D
330
1E
100
AcDbEntity
  8
7
100
AcDbLine
 10
2.580708661417323
 20
11.23622047244094
 30
0.0
 11
2.565944881889763
 21
11.23228346456693
 31
0.0
  0
LINE
  5
335E
330
1E
100
AcDbEntity
  8
7
100
AcDbLine
 10
2.565944881889763
 20
11.23228346456693
 30
0.0
 11
2.538385826771653
 21
11.23228346456693
 31
0.0
  0
LINE
  5
335F
330
1E
100
AcDbEntity
  8
7
100
AcDbLine
 10
2.538385826771653
 20
11.23228346456693
 30
0.0
 11
2.52263779527559
 21
11.23622047244094
 31
0.0
  0
LINE
  5
3360
330
1E
100
AcDbEntity
  8
7
100
AcDbLine
 10
2.52263779527559
 20
11.23622047244094
 30
0.0
 11
2.511811023622047
 21
11.24704724409449
 31
0.0
  0
LINE
  5
3361
330
1E
100
AcDbEntity
  8
7
100
AcDbLine
 10
2.511811023622047
 20
11.24704724409449
 30
0.0
 11
2.507874015748031
 21
11.26279527559055
 31
0.0
  0
LINE
  5
3362
330
1E
100
AcDbEntity
  8
7
100
AcDbLine
 10
2.750984251968503
 20
11.49409448818897
 30
0.0
 11
2.682086614173228
 21
11.49409448818897
 31
0.0
  0
LINE
  5
3363
330
1E
100
AcDbEntity
  8
7
100
AcDbLine
 10
2.682086614173228
 20
11.49409448818897
 30
0.0
 11
2.682086614173228
 21
11.64665354330708
 31
0.0
  0
LINE
  5
3364
330
1E
100
AcDbEntity
  8
7
100
AcDbLine
 10
2.682086614173228
 20
11.64665354330708
 30
0.0
 11
2.595472440944881
 21
11.64665354330708
 31
0.0
  0
LINE
  5
3365
330
1E
100
AcDbEntity
  8
7
100
AcDbLine
 10
2.595472440944881
 20
11.64665354330708
 30
0.0
 11
2.595472440944881
 21
11.26279527559055
 31
0.0
  0
LINE
  5
3366
330
1E
100
AcDbEntity
  8
7
100
AcDbLine
 10
3.548228346456692
 20
11.88385826771653
 30
0.0
 11
3.548228346456692
 21
12.09448818897637
 31
0.0
  0
LINE
  5
3367
330
1E
100
AcDbEntity
  8
7
100
AcDbLine
 10
3.548228346456692
 20
12.09448818897637
 30
0.0
 11
3.58267716535433
 21
12.09448818897637
 31
0.0
  0
LINE
  5
3368
330
1E
100
AcDbEntity
  8
7
100
AcDbLine
 10
2.390748031496062
 20
11.63582677165354
 30
0.0
 11
2.390748031496062
 21
11.64665354330708
 31
0.0
  0
LINE
  5
3369
330
1E
100
AcDbEntity
  8
7
100
AcDbLine
 10
2.390748031496062
 20
11.64665354330708
 30
0.0
 11
2.390748031496062
 21
11.65551181102362
 31
0.0
  0
LINE
  5
336A
330
1E
100
AcDbEntity
  8
7
100
AcDbLine
 10
2.192913385826771
 20
11.63582677165354
 30
0.0
 11
2.192913385826771
 21
11.64665354330708
 31
0.0
  0
LINE
  5
336B
330
1E
100
AcDbEntity
  8
7
100
AcDbLine
 10
2.192913385826771
 20
11.64665354330708
 30
0.0
 11
2.192913385826771
 21
11.65551181102362
 31
0.0
  0
LINE
  5
336C
330
1E
100
AcDbEntity
  8
7
100
AcDbLine
 10
3.747047244094487
 20
11.55413385826771
 30
0.0
 11
3.742125984251968
 21
11.55413385826771
 31
0.0
  0
LINE
  5
336D
330
1E
100
AcDbEntity
  8
7
100
AcDbLine
 10
3.742125984251968
 20
11.55413385826771
 30
0.0
 11
3.729330708661417
 21
11.55413385826771
 31
0.0
  0
LINE
  5
336E
330
1E
100
AcDbEntity
  8
7
100
AcDbLine
 10
3.729330708661417
 20
11.55413385826771
 30
0.0
 11
3.709645669291338
 21
11.55413385826771
 31
0.0
  0
LINE
  5
336F
330
1E
100
AcDbEntity
  8
7
100
AcDbLine
 10
3.709645669291338
 20
11.55413385826771
 30
0.0
 11
3.685039370078739
 21
11.55413385826771
 31
0.0
  0
LINE
  5
3370
330
1E
100
AcDbEntity
  8
7
100
AcDbLine
 10
3.685039370078739
 20
11.55413385826771
 30
0.0
 11
3.656496062992125
 21
11.55413385826771
 31
0.0
  0
LINE
  5
3371
330
1E
100
AcDbEntity
  8
7
100
AcDbLine
 10
3.656496062992125
 20
11.55413385826771
 30
0.0
 11
2.693897637795275
 21
11.55413385826771
 31
0.0
  0
LINE
  5
3372
330
1E
100
AcDbEntity
  8
7
100
AcDbLine
 10
0.8543307086614174
 20
11.55413385826771
 30
0.0
 11
0.8415354330708661
 21
11.55413385826771
 31
0.0
  0
LINE
  5
3373
330
1E
100
AcDbEntity
  8
7
100
AcDbLine
 10
0.8415354330708661
 20
11.55413385826771
 30
0.0
 11
0.8366141732283464
 21
11.55413385826771
 31
0.0
  0
LINE
  5
3374
330
1E
100
AcDbEntity
  8
7
100
AcDbLine
 10
1.889763779527559
 20
11.55413385826771
 30
0.0
 11
0.9271653543307085
 21
11.55413385826771
 31
0.0
  0
LINE
  5
3375
330
1E
100
AcDbEntity
  8
7
100
AcDbLine
 10
0.9271653543307085
 20
11.55413385826771
 30
0.0
 11
0.8986220472440944
 21
11.55413385826771
 31
0.0
  0
LINE
  5
3376
330
1E
100
AcDbEntity
  8
7
100
AcDbLine
 10
0.8986220472440944
 20
11.55413385826771
 30
0.0
 11
0.8740157480314961
 21
11.55413385826771
 31
0.0
  0
LINE
  5
3377
330
1E
100
AcDbEntity
  8
7
100
AcDbLine
 10
0.8740157480314961
 20
11.55413385826771
 30
0.0
 11
0.8543307086614174
 21
11.55413385826771
 31
0.0
  0
LINE
  5
3378
330
1E
100
AcDbEntity
  8
7
100
AcDbLine
 10
3.509842519685038
 20
11.46456692913385
 30
0.0
 11
3.508858267716535
 21
11.42421259842519
 31
0.0
  0
LINE
  5
3379
330
1E
100
AcDbEntity
  8
7
100
AcDbLine
 10
3.508858267716535
 20
11.42421259842519
 30
0.0
 11
3.508858267716535
 21
11.40944881889763
 31
0.0
  0
LINE
  5
337A
330
1E
100
AcDbEntity
  8
7
100
AcDbLine
 10
3.508858267716535
 20
11.40944881889763
 30
0.0
 11
3.508858267716535
 21
11.4005905511811
 31
0.0
  0
LINE
  5
337B
330
1E
100
AcDbEntity
  8
7
100
AcDbLine
 10
3.508858267716535
 20
11.4005905511811
 30
0.0
 11
3.508858267716535
 21
11.39763779527559
 31
0.0
  0
LINE
  5
337C
330
1E
100
AcDbEntity
  8
7
100
AcDbLine
 10
2.135826771653543
 20
11.63582677165354
 30
0.0
 11
2.135826771653543
 21
11.64960629921259
 31
0.0
  0
LINE
  5
337D
330
1E
100
AcDbEntity
  8
7
100
AcDbLine
 10
2.135826771653543
 20
11.64960629921259
 30
0.0
 11
2.134842519685039
 21
11.65846456692913
 31
0.0
  0
LINE
  5
337E
330
1E
100
AcDbEntity
  8
7
100
AcDbLine
 10
2.134842519685039
 20
11.65846456692913
 30
0.0
 11
2.134842519685039
 21
11.66141732283464
 31
0.0
  0
LINE
  5
337F
330
1E
100
AcDbEntity
  8
7
100
AcDbLine
 10
2.134842519685039
 20
11.66141732283464
 30
0.0
 11
2.190944881889763
 21
11.66141732283464
 31
0.0
  0
LINE
  5
3380
330
1E
100
AcDbEntity
  8
7
100
AcDbLine
 10
2.192913385826771
 20
11.76082677165354
 30
0.0
 11
2.190944881889763
 21
11.66141732283464
 31
0.0
  0
LINE
  5
3381
330
1E
100
AcDbEntity
  8
7
100
AcDbLine
 10
2.190944881889763
 20
11.66141732283464
 30
0.0
 11
2.190944881889763
 21
11.65551181102362
 31
0.0
  0
LINE
  5
3382
330
1E
100
AcDbEntity
  8
7
100
AcDbLine
 10
0.9419291338582677
 20
12.28051181102362
 30
0.0
 11
0.9311023622047242
 21
12.27854330708661
 31
0.0
  0
LINE
  5
3383
330
1E
100
AcDbEntity
  8
7
100
AcDbLine
 10
0.9311023622047242
 20
12.27854330708661
 30
0.0
 11
0.9202755905511811
 21
12.2755905511811
 31
0.0
  0
LINE
  5
3384
330
1E
100
AcDbEntity
  8
7
100
AcDbLine
 10
0.9202755905511811
 20
12.2755905511811
 30
0.0
 11
0.9104330708661416
 21
12.26870078740157
 31
0.0
  0
LINE
  5
3385
330
1E
100
AcDbEntity
  8
7
100
AcDbLine
 10
0.9104330708661416
 20
12.26870078740157
 30
0.0
 11
0.9005905511811022
 21
12.25984251968504
 31
0.0
  0
LINE
  5
3386
330
1E
100
AcDbEntity
  8
7
100
AcDbLine
 10
0.9005905511811022
 20
12.25984251968504
 30
0.0
 11
0.8927165354330707
 21
12.24901574803149
 31
0.0
  0
LINE
  5
3387
330
1E
100
AcDbEntity
  8
7
100
AcDbLine
 10
0.8927165354330707
 20
12.24901574803149
 30
0.0
 11
0.8868110236220472
 21
12.23622047244094
 31
0.0
  0
LINE
  5
3388
330
1E
100
AcDbEntity
  8
7
100
AcDbLine
 10
0.8868110236220472
 20
12.23622047244094
 30
0.0
 11
0.8828740157480314
 21
12.22145669291338
 31
0.0
  0
LINE
  5
3389
330
1E
100
AcDbEntity
  8
7
100
AcDbLine
 10
0.8828740157480314
 20
12.22145669291338
 30
0.0
 11
0.8809055118110237
 21
12.20570866141732
 31
0.0
  0
LINE
  5
338A
330
1E
100
AcDbEntity
  8
7
100
AcDbLine
 10
3.702755905511811
 20
12.20570866141732
 30
0.0
 11
3.700787401574802
 21
12.22244094488188
 31
0.0
  0
LINE
  5
338B
330
1E
100
AcDbEntity
  8
7
100
AcDbLine
 10
3.700787401574802
 20
12.22244094488188
 30
0.0
 11
3.697834645669291
 21
12.23326771653543
 31
0.0
  0
LINE
  5
338C
330
1E
100
AcDbEntity
  8
7
100
AcDbLine
 10
3.697834645669291
 20
12.23326771653543
 30
0.0
 11
3.692913385826771
 21
12.24507874015748
 31
0.0
  0
LINE
  5
338D
330
1E
100
AcDbEntity
  8
7
100
AcDbLine
 10
3.692913385826771
 20
12.24507874015748
 30
0.0
 11
3.685039370078739
 21
12.25688976377952
 31
0.0
  0
LINE
  5
338E
330
1E
100
AcDbEntity
  8
7
100
AcDbLine
 10
3.685039370078739
 20
12.25688976377952
 30
0.0
 11
3.674212598425197
 21
12.26771653543307
 31
0.0
  0
LINE
  5
338F
330
1E
100
AcDbEntity
  8
7
100
AcDbLine
 10
3.674212598425197
 20
12.26771653543307
 30
0.0
 11
3.659448818897637
 21
12.2765748031496
 31
0.0
  0
LINE
  5
3390
330
1E
100
AcDbEntity
  8
7
100
AcDbLine
 10
3.659448818897637
 20
12.2765748031496
 30
0.0
 11
3.641732283464566
 21
12.28051181102362
 31
0.0
  0
LINE
  5
3391
330
1E
100
AcDbEntity
  8
7
100
AcDbLine
 10
3.649606299212598
 20
13.28444881889763
 30
0.0
 11
3.676181102362204
 21
13.28444881889763
 31
0.0
  0
LINE
  5
3392
330
1E
100
AcDbEntity
  8
7
100
AcDbLine
 10
3.676181102362204
 20
13.28444881889763
 30
0.0
 11
3.700787401574802
 21
13.28444881889763
 31
0.0
  0
LINE
  5
3393
330
1E
100
AcDbEntity
  8
7
100
AcDbLine
 10
3.700787401574802
 20
13.28444881889763
 30
0.0
 11
3.721456692913386
 21
13.28444881889763
 31
0.0
  0
LINE
  5
3394
330
1E
100
AcDbEntity
  8
7
100
AcDbLine
 10
3.721456692913386
 20
13.28444881889763
 30
0.0
 11
3.734251968503937
 21
13.28444881889763
 31
0.0
  0
LINE
  5
3395
330
1E
100
AcDbEntity
  8
7
100
AcDbLine
 10
3.734251968503937
 20
13.28444881889763
 30
0.0
 11
3.739173228346456
 21
13.28444881889763
 31
0.0
  0
LINE
  5
3396
330
1E
100
AcDbEntity
  8
7
100
AcDbLine
 10
3.739173228346456
 20
14.79429133858267
 30
0.0
 11
3.734251968503937
 21
14.79429133858267
 31
0.0
  0
LINE
  5
3397
330
1E
100
AcDbEntity
  8
7
100
AcDbLine
 10
3.734251968503937
 20
14.79429133858267
 30
0.0
 11
3.721456692913386
 21
14.79429133858267
 31
0.0
  0
LINE
  5
3398
330
1E
100
AcDbEntity
  8
7
100
AcDbLine
 10
3.721456692913386
 20
14.79429133858267
 30
0.0
 11
3.700787401574802
 21
14.79429133858267
 31
0.0
  0
LINE
  5
3399
330
1E
100
AcDbEntity
  8
7
100
AcDbLine
 10
3.700787401574802
 20
14.79429133858267
 30
0.0
 11
3.676181102362204
 21
14.79429133858267
 31
0.0
  0
LINE
  5
339A
330
1E
100
AcDbEntity
  8
7
100
AcDbLine
 10
3.676181102362204
 20
14.79429133858267
 30
0.0
 11
3.649606299212598
 21
14.79429133858267
 31
0.0
  0
LINE
  5
339B
330
1E
100
AcDbEntity
  8
7
100
AcDbLine
 10
3.649606299212598
 20
13.28444881889763
 30
0.0
 11
3.649606299212598
 21
13.25688976377952
 31
0.0
  0
LINE
  5
339C
330
1E
100
AcDbEntity
  8
7
100
AcDbLine
 10
3.649606299212598
 20
13.25688976377952
 30
0.0
 11
3.649606299212598
 21
13.23228346456692
 31
0.0
  0
LINE
  5
339D
330
1E
100
AcDbEntity
  8
7
100
AcDbLine
 10
3.649606299212598
 20
13.23228346456692
 30
0.0
 11
3.649606299212598
 21
13.21259842519685
 31
0.0
  0
LINE
  5
339E
330
1E
100
AcDbEntity
  8
7
100
AcDbLine
 10
3.649606299212598
 20
13.21259842519685
 30
0.0
 11
3.649606299212598
 21
13.1998031496063
 31
0.0
  0
LINE
  5
339F
330
1E
100
AcDbEntity
  8
7
100
AcDbLine
 10
3.649606299212598
 20
13.1998031496063
 30
0.0
 11
3.649606299212598
 21
13.19389763779527
 31
0.0
  0
LINE
  5
33A0
330
1E
100
AcDbEntity
  8
7
100
AcDbLine
 10
3.649606299212598
 20
14.88484251968503
 30
0.0
 11
3.649606299212598
 21
14.87893700787401
 31
0.0
  0
LINE
  5
33A1
330
1E
100
AcDbEntity
  8
7
100
AcDbLine
 10
3.649606299212598
 20
14.87893700787401
 30
0.0
 11
3.649606299212598
 21
14.86614173228346
 31
0.0
  0
LINE
  5
33A2
330
1E
100
AcDbEntity
  8
7
100
AcDbLine
 10
3.649606299212598
 20
14.86614173228346
 30
0.0
 11
3.649606299212598
 21
14.84645669291338
 31
0.0
  0
LINE
  5
33A3
330
1E
100
AcDbEntity
  8
7
100
AcDbLine
 10
3.649606299212598
 20
14.84645669291338
 30
0.0
 11
3.649606299212598
 21
14.82185039370078
 31
0.0
  0
LINE
  5
33A4
330
1E
100
AcDbEntity
  8
7
100
AcDbLine
 10
3.649606299212598
 20
14.82185039370078
 30
0.0
 11
3.649606299212598
 21
14.79429133858267
 31
0.0
  0
LINE
  5
33A5
330
1E
100
AcDbEntity
  8
7
100
AcDbLine
 10
0.9340551181102361
 20
13.28444881889763
 30
0.0
 11
0.9340551181102361
 21
13.25688976377952
 31
0.0
  0
LINE
  5
33A6
330
1E
100
AcDbEntity
  8
7
100
AcDbLine
 10
0.9340551181102361
 20
13.25688976377952
 30
0.0
 11
0.9340551181102361
 21
13.23228346456692
 31
0.0
  0
LINE
  5
33A7
330
1E
100
AcDbEntity
  8
7
100
AcDbLine
 10
0.9340551181102361
 20
13.23228346456692
 30
0.0
 11
0.9340551181102361
 21
13.21259842519685
 31
0.0
  0
LINE
  5
33A8
330
1E
100
AcDbEntity
  8
7
100
AcDbLine
 10
0.9340551181102361
 20
13.21259842519685
 30
0.0
 11
0.9340551181102361
 21
13.1998031496063
 31
0.0
  0
LINE
  5
33A9
330
1E
100
AcDbEntity
  8
7
100
AcDbLine
 10
0.9340551181102361
 20
14.88484251968503
 30
0.0
 11
0.9340551181102361
 21
14.87893700787401
 31
0.0
  0
LINE
  5
33AA
330
1E
100
AcDbEntity
  8
7
100
AcDbLine
 10
0.9340551181102361
 20
14.87893700787401
 30
0.0
 11
0.9340551181102361
 21
14.86614173228346
 31
0.0
  0
LINE
  5
33AB
330
1E
100
AcDbEntity
  8
7
100
AcDbLine
 10
0.9340551181102361
 20
14.86614173228346
 30
0.0
 11
0.9340551181102361
 21
14.84645669291338
 31
0.0
  0
LINE
  5
33AC
330
1E
100
AcDbEntity
  8
7
100
AcDbLine
 10
0.9340551181102361
 20
14.84645669291338
 30
0.0
 11
0.9340551181102361
 21
14.82185039370078
 31
0.0
  0
LINE
  5
33AD
330
1E
100
AcDbEntity
  8
7
100
AcDbLine
 10
0.9340551181102361
 20
14.82185039370078
 30
0.0
 11
0.9340551181102361
 21
14.79429133858267
 31
0.0
  0
LINE
  5
33AE
330
1E
100
AcDbEntity
  8
7
100
AcDbLine
 10
0.8818897637795275
 20
13.28444881889763
 30
0.0
 11
0.8622047244094488
 21
13.28444881889763
 31
0.0
  0
LINE
  5
33AF
330
1E
100
AcDbEntity
  8
7
100
AcDbLine
 10
0.8622047244094488
 20
13.28444881889763
 30
0.0
 11
0.8494094488188977
 21
13.28444881889763
 31
0.0
  0
LINE
  5
33B0
330
1E
100
AcDbEntity
  8
7
100
AcDbLine
 10
0.8494094488188977
 20
13.28444881889763
 30
0.0
 11
0.8444881889763779
 21
13.28444881889763
 31
0.0
  0
LINE
  5
33B1
330
1E
100
AcDbEntity
  8
7
100
AcDbLine
 10
0.9340551181102361
 20
13.28444881889763
 30
0.0
 11
0.9064960629921259
 21
13.28444881889763
 31
0.0
  0
LINE
  5
33B2
330
1E
100
AcDbEntity
  8
7
100
AcDbLine
 10
0.9064960629921259
 20
13.28444881889763
 30
0.0
 11
0.8818897637795275
 21
13.28444881889763
 31
0.0
  0
LINE
  5
33B3
330
1E
100
AcDbEntity
  8
7
100
AcDbLine
 10
0.8444881889763779
 20
14.79429133858267
 30
0.0
 11
0.8494094488188977
 21
14.79429133858267
 31
0.0
  0
LINE
  5
33B4
330
1E
100
AcDbEntity
  8
7
100
AcDbLine
 10
0.8494094488188977
 20
14.79429133858267
 30
0.0
 11
0.8622047244094488
 21
14.79429133858267
 31
0.0
  0
LINE
  5
33B5
330
1E
100
AcDbEntity
  8
7
100
AcDbLine
 10
0.8622047244094488
 20
14.79429133858267
 30
0.0
 11
0.8818897637795275
 21
14.79429133858267
 31
0.0
  0
LINE
  5
33B6
330
1E
100
AcDbEntity
  8
7
100
AcDbLine
 10
0.8818897637795275
 20
14.79429133858267
 30
0.0
 11
0.9064960629921259
 21
14.79429133858267
 31
0.0
  0
LINE
  5
33B7
330
1E
100
AcDbEntity
  8
7
100
AcDbLine
 10
0.9064960629921259
 20
14.79429133858267
 30
0.0
 11
0.9340551181102361
 21
14.79429133858267
 31
0.0
  0
LINE
  5
33B8
330
1E
100
AcDbEntity
  8
7
100
AcDbLine
 10
0.9340551181102361
 20
13.19389763779527
 30
0.0
 11
0.9064960629921259
 21
13.19881889763779
 31
0.0
  0
LINE
  5
33B9
330
1E
100
AcDbEntity
  8
7
100
AcDbLine
 10
0.9064960629921259
 20
13.19881889763779
 30
0.0
 11
0.8809055118110237
 21
13.21161417322834
 31
0.0
  0
LINE
  5
33BA
330
1E
100
AcDbEntity
  8
7
100
AcDbLine
 10
0.8809055118110237
 20
13.21161417322834
 30
0.0
 11
0.8612204724409448
 21
13.23129921259842
 31
0.0
  0
LINE
  5
33BB
330
1E
100
AcDbEntity
  8
7
100
AcDbLine
 10
0.8612204724409448
 20
13.23129921259842
 30
0.0
 11
0.8484251968503937
 21
13.25688976377952
 31
0.0
  0
LINE
  5
33BC
330
1E
100
AcDbEntity
  8
7
100
AcDbLine
 10
0.8484251968503937
 20
13.25688976377952
 30
0.0
 11
0.8444881889763779
 21
13.28444881889763
 31
0.0
  0
LINE
  5
33BD
330
1E
100
AcDbEntity
  8
7
100
AcDbLine
 10
3.739173228346456
 20
13.28444881889763
 30
0.0
 11
3.73523622047244
 21
13.25688976377952
 31
0.0
  0
LINE
  5
33BE
330
1E
100
AcDbEntity
  8
7
100
AcDbLine
 10
3.73523622047244
 20
13.25688976377952
 30
0.0
 11
3.722440944881889
 21
13.23129921259842
 31
0.0
  0
LINE
  5
33BF
330
1E
100
AcDbEntity
  8
7
100
AcDbLine
 10
3.722440944881889
 20
13.23129921259842
 30
0.0
 11
3.701771653543307
 21
13.21161417322834
 31
0.0
  0
LINE
  5
33C0
330
1E
100
AcDbEntity
  8
7
100
AcDbLine
 10
3.701771653543307
 20
13.21161417322834
 30
0.0
 11
3.677165354330708
 21
13.19881889763779
 31
0.0
  0
LINE
  5
33C1
330
1E
100
AcDbEntity
  8
7
100
AcDbLine
 10
3.677165354330708
 20
13.19881889763779
 30
0.0
 11
3.649606299212598
 21
13.19389763779527
 31
0.0
  0
LINE
  5
33C2
330
1E
100
AcDbEntity
  8
7
100
AcDbLine
 10
3.649606299212598
 20
14.88484251968503
 30
0.0
 11
3.677165354330708
 21
14.87992125984251
 31
0.0
  0
LINE
  5
33C3
330
1E
100
AcDbEntity
  8
7
100
AcDbLine
 10
3.677165354330708
 20
14.87992125984251
 30
0.0
 11
3.701771653543307
 21
14.86712598425197
 31
0.0
  0
LINE
  5
33C4
330
1E
100
AcDbEntity
  8
7
100
AcDbLine
 10
3.701771653543307
 20
14.86712598425197
 30
0.0
 11
3.722440944881889
 21
14.84744094488188
 31
0.0
  0
LINE
  5
33C5
330
1E
100
AcDbEntity
  8
7
100
AcDbLine
 10
3.722440944881889
 20
14.84744094488188
 30
0.0
 11
3.73523622047244
 21
14.82185039370078
 31
0.0
  0
LINE
  5
33C6
330
1E
100
AcDbEntity
  8
7
100
AcDbLine
 10
3.73523622047244
 20
14.82185039370078
 30
0.0
 11
3.739173228346456
 21
14.79429133858267
 31
0.0
  0
LINE
  5
33C7
330
1E
100
AcDbEntity
  8
7
100
AcDbLine
 10
0.8444881889763779
 20
14.79429133858267
 30
0.0
 11
0.8484251968503937
 21
14.82185039370078
 31
0.0
  0
LINE
  5
33C8
330
1E
100
AcDbEntity
  8
7
100
AcDbLine
 10
0.8484251968503937
 20
14.82185039370078
 30
0.0
 11
0.8612204724409448
 21
14.84744094488188
 31
0.0
  0
LINE
  5
33C9
330
1E
100
AcDbEntity
  8
7
100
AcDbLine
 10
0.8612204724409448
 20
14.84744094488188
 30
0.0
 11
0.8809055118110237
 21
14.86712598425197
 31
0.0
  0
LINE
  5
33CA
330
1E
100
AcDbEntity
  8
7
100
AcDbLine
 10
0.8809055118110237
 20
14.86712598425197
 30
0.0
 11
0.9064960629921259
 21
14.87992125984251
 31
0.0
  0
LINE
  5
33CB
330
1E
100
AcDbEntity
  8
7
100
AcDbLine
 10
0.9064960629921259
 20
14.87992125984251
 30
0.0
 11
0.9340551181102361
 21
14.88484251968503
 31
0.0
  0
LINE
  5
33CC
330
1E
100
AcDbEntity
  8
7
100
AcDbLine
 10
3.715551181102362
 20
14.51279527559055
 30
0.0
 11
3.714566929133858
 21
14.5265748031496
 31
0.0
  0
LINE
  5
33CD
330
1E
100
AcDbEntity
  8
7
100
AcDbLine
 10
3.714566929133858
 20
14.5265748031496
 30
0.0
 11
3.708661417322834
 21
14.54035433070866
 31
0.0
  0
LINE
  5
33CE
330
1E
100
AcDbEntity
  8
7
100
AcDbLine
 10
3.708661417322834
 20
14.54035433070866
 30
0.0
 11
3.700787401574802
 21
14.54921259842519
 31
0.0
  0
LINE
  5
33CF
330
1E
100
AcDbEntity
  8
7
100
AcDbLine
 10
3.700787401574802
 20
14.54921259842519
 30
0.0
 11
3.687992125984251
 21
14.55807086614173
 31
0.0
  0
LINE
  5
33D0
330
1E
100
AcDbEntity
  8
7
100
AcDbLine
 10
3.687992125984251
 20
14.55807086614173
 30
0.0
 11
3.669291338582676
 21
14.56299212598425
 31
0.0
  0
LINE
  5
33D1
330
1E
100
AcDbEntity
  8
7
100
AcDbLine
 10
3.669291338582676
 20
14.56299212598425
 30
0.0
 11
3.655511811023622
 21
14.56397637795275
 31
0.0
  0
LINE
  5
33D2
330
1E
100
AcDbEntity
  8
7
100
AcDbLine
 10
3.641732283464566
 20
14.3011811023622
 30
0.0
 11
3.641732283464566
 21
14.31299212598425
 31
0.0
  0
LINE
  5
33D3
330
1E
100
AcDbEntity
  8
7
100
AcDbLine
 10
3.641732283464566
 20
14.31299212598425
 30
0.0
 11
3.641732283464566
 21
14.32185039370078
 31
0.0
  0
LINE
  5
33D4
330
1E
100
AcDbEntity
  8
7
100
AcDbLine
 10
3.641732283464566
 20
14.32185039370078
 30
0.0
 11
3.660433070866141
 21
14.31988188976378
 31
0.0
  0
LINE
  5
33D5
330
1E
100
AcDbEntity
  8
7
100
AcDbLine
 10
3.660433070866141
 20
14.31988188976378
 30
0.0
 11
3.677165354330708
 21
14.31594488188976
 31
0.0
  0
LINE
  5
33D6
330
1E
100
AcDbEntity
  8
7
100
AcDbLine
 10
3.677165354330708
 20
14.31594488188976
 30
0.0
 11
3.68996062992126
 21
14.30905511811023
 31
0.0
  0
LINE
  5
33D7
330
1E
100
AcDbEntity
  8
7
100
AcDbLine
 10
3.68996062992126
 20
14.30905511811023
 30
0.0
 11
3.698818897637795
 21
14.3011811023622
 31
0.0
  0
LINE
  5
33D8
330
1E
100
AcDbEntity
  8
7
100
AcDbLine
 10
3.698818897637795
 20
14.3011811023622
 30
0.0
 11
3.702755905511811
 21
14.29232283464567
 31
0.0
  0
LINE
  5
33D9
330
1E
100
AcDbEntity
  8
7
100
AcDbLine
 10
3.641732283464566
 20
14.3011811023622
 30
0.0
 11
3.660433070866141
 21
14.3011811023622
 31
0.0
  0
LINE
  5
33DA
330
1E
100
AcDbEntity
  8
7
100
AcDbLine
 10
3.660433070866141
 20
14.3011811023622
 30
0.0
 11
3.676181102362204
 21
14.29921259842519
 31
0.0
  0
LINE
  5
33DB
330
1E
100
AcDbEntity
  8
7
100
AcDbLine
 10
3.676181102362204
 20
14.29921259842519
 30
0.0
 11
3.68996062992126
 21
14.29724409448819
 31
0.0
  0
LINE
  5
33DC
330
1E
100
AcDbEntity
  8
7
100
AcDbLine
 10
3.68996062992126
 20
14.29724409448819
 30
0.0
 11
3.698818897637795
 21
14.29527559055118
 31
0.0
  0
LINE
  5
33DD
330
1E
100
AcDbEntity
  8
7
100
AcDbLine
 10
3.698818897637795
 20
14.29527559055118
 30
0.0
 11
3.702755905511811
 21
14.29232283464567
 31
0.0
  0
LINE
  5
33DE
330
1E
100
AcDbEntity
  8
7
100
AcDbLine
 10
3.656496062992125
 20
13.56692913385826
 30
0.0
 11
3.6751968503937
 21
13.56594488188976
 31
0.0
  0
LINE
  5
33DF
330
1E
100
AcDbEntity
  8
7
100
AcDbLine
 10
3.6751968503937
 20
13.56594488188976
 30
0.0
 11
3.690944881889763
 21
13.57086614173228
 31
0.0
  0
LINE
  5
33E0
330
1E
100
AcDbEntity
  8
7
100
AcDbLine
 10
3.690944881889763
 20
13.57086614173228
 30
0.0
 11
3.703740157480314
 21
13.58070866141732
 31
0.0
  0
LINE
  5
33E1
330
1E
100
AcDbEntity
  8
7
100
AcDbLine
 10
3.703740157480314
 20
13.58070866141732
 30
0.0
 11
3.710629921259842
 21
13.59350393700787
 31
0.0
  0
LINE
  5
33E2
330
1E
100
AcDbEntity
  8
7
100
AcDbLine
 10
3.710629921259842
 20
13.59350393700787
 30
0.0
 11
3.714566929133858
 21
13.61417322834645
 31
0.0
  0
LINE
  5
33E3
330
1E
100
AcDbEntity
  8
7
100
AcDbLine
 10
3.714566929133858
 20
13.61417322834645
 30
0.0
 11
3.715551181102362
 21
13.63287401574803
 31
0.0
  0
LINE
  5
33E4
330
1E
100
AcDbEntity
  8
7
100
AcDbLine
 10
0.8681102362204724
 20
13.63287401574803
 30
0.0
 11
0.8700787401574803
 21
13.6023622047244
 31
0.0
  0
LINE
  5
33E5
330
1E
100
AcDbEntity
  8
7
100
AcDbLine
 10
0.8700787401574803
 20
13.6023622047244
 30
0.0
 11
0.8759842519685038
 21
13.58759842519685
 31
0.0
  0
LINE
  5
33E6
330
1E
100
AcDbEntity
  8
7
100
AcDbLine
 10
0.8759842519685038
 20
13.58759842519685
 30
0.0
 11
0.8858267716535433
 21
13.5757874015748
 31
0.0
  0
LINE
  5
33E7
330
1E
100
AcDbEntity
  8
7
100
AcDbLine
 10
0.8858267716535433
 20
13.5757874015748
 30
0.0
 11
0.8976377952755905
 21
13.56889763779527
 31
0.0
  0
LINE
  5
33E8
330
1E
100
AcDbEntity
  8
7
100
AcDbLine
 10
0.8976377952755905
 20
13.56889763779527
 30
0.0
 11
0.9124015748031496
 21
13.56594488188976
 31
0.0
  0
LINE
  5
33E9
330
1E
100
AcDbEntity
  8
7
100
AcDbLine
 10
0.9124015748031496
 20
13.56594488188976
 30
0.0
 11
0.9271653543307085
 21
13.56692913385826
 31
0.0
  0
LINE
  5
33EA
330
1E
100
AcDbEntity
  8
7
100
AcDbLine
 10
0.9419291338582677
 20
14.3011811023622
 30
0.0
 11
0.9232283464566927
 21
14.3011811023622
 31
0.0
  0
LINE
  5
33EB
330
1E
100
AcDbEntity
  8
7
100
AcDbLine
 10
0.9232283464566927
 20
14.3011811023622
 30
0.0
 11
0.9064960629921259
 21
14.29921259842519
 31
0.0
  0
LINE
  5
33EC
330
1E
100
AcDbEntity
  8
7
100
AcDbLine
 10
0.9064960629921259
 20
14.29921259842519
 30
0.0
 11
0.8937007874015748
 21
14.29724409448819
 31
0.0
  0
LINE
  5
33ED
330
1E
100
AcDbEntity
  8
7
100
AcDbLine
 10
0.8937007874015748
 20
14.29724409448819
 30
0.0
 11
0.8848425196850392
 21
14.29527559055118
 31
0.0
  0
LINE
  5
33EE
330
1E
100
AcDbEntity
  8
7
100
AcDbLine
 10
0.8848425196850392
 20
14.29527559055118
 30
0.0
 11
0.8809055118110237
 21
14.29232283464567
 31
0.0
  0
LINE
  5
33EF
330
1E
100
AcDbEntity
  8
7
100
AcDbLine
 10
0.9419291338582677
 20
14.3011811023622
 30
0.0
 11
0.9419291338582677
 21
14.31299212598425
 31
0.0
  0
LINE
  5
33F0
330
1E
100
AcDbEntity
  8
7
100
AcDbLine
 10
0.9419291338582677
 20
14.31299212598425
 30
0.0
 11
0.9419291338582677
 21
14.32185039370078
 31
0.0
  0
LINE
  5
33F1
330
1E
100
AcDbEntity
  8
7
100
AcDbLine
 10
0.9232283464566927
 20
14.31988188976378
 30
0.0
 11
0.9064960629921259
 21
14.31594488188976
 31
0.0
  0
LINE
  5
33F2
330
1E
100
AcDbEntity
  8
7
100
AcDbLine
 10
0.9064960629921259
 20
14.31594488188976
 30
0.0
 11
0.8937007874015748
 21
14.30905511811023
 31
0.0
  0
LINE
  5
33F3
330
1E
100
AcDbEntity
  8
7
100
AcDbLine
 10
0.8937007874015748
 20
14.30905511811023
 30
0.0
 11
0.8848425196850392
 21
14.3011811023622
 31
0.0
  0
LINE
  5
33F4
330
1E
100
AcDbEntity
  8
7
100
AcDbLine
 10
0.8848425196850392
 20
14.3011811023622
 30
0.0
 11
0.8809055118110237
 21
14.29232283464567
 31
0.0
  0
LINE
  5
33F5
330
1E
100
AcDbEntity
  8
7
100
AcDbLine
 10
0.9281496062992125
 20
14.56397637795275
 30
0.0
 11
0.9074803149606298
 21
14.56200787401574
 31
0.0
  0
LINE
  5
33F6
330
1E
100
AcDbEntity
  8
7
100
AcDbLine
 10
0.9074803149606298
 20
14.56200787401574
 30
0.0
 11
0.889763779527559
 21
14.55511811023622
 31
0.0
  0
LINE
  5
33F7
330
1E
100
AcDbEntity
  8
7
100
AcDbLine
 10
0.889763779527559
 20
14.55511811023622
 30
0.0
 11
0.8759842519685038
 21
14.54232283464567
 31
0.0
  0
LINE
  5
33F8
330
1E
100
AcDbEntity
  8
7
100
AcDbLine
 10
0.8759842519685038
 20
14.54232283464567
 30
0.0
 11
0.8700787401574803
 21
14.53051181102362
 31
0.0
  0
LINE
  5
33F9
330
1E
100
AcDbEntity
  8
7
100
AcDbLine
 10
0.8700787401574803
 20
14.53051181102362
 30
0.0
 11
0.8681102362204724
 21
14.51574803149606
 31
0.0
  0
LINE
  5
33FA
330
1E
100
AcDbEntity
  8
7
100
AcDbLine
 10
0.8681102362204724
 20
14.51574803149606
 30
0.0
 11
0.8681102362204724
 21
14.51279527559055
 31
0.0
  0
LINE
  5
33FB
330
1E
100
AcDbEntity
  8
7
100
AcDbLine
 10
3.641732283464566
 20
14.3011811023622
 30
0.0
 11
3.641732283464566
 21
14.31299212598425
 31
0.0
  0
LINE
  5
33FC
330
1E
100
AcDbEntity
  8
7
100
AcDbLine
 10
3.641732283464566
 20
14.31299212598425
 30
0.0
 11
3.641732283464566
 21
14.32185039370078
 31
0.0
  0
LINE
  5
33FD
330
1E
100
AcDbEntity
  8
7
100
AcDbLine
 10
0.9419291338582677
 20
14.32185039370078
 30
0.0
 11
0.9419291338582677
 21
14.31299212598425
 31
0.0
  0
LINE
  5
33FE
330
1E
100
AcDbEntity
  8
7
100
AcDbLine
 10
0.9419291338582677
 20
14.31299212598425
 30
0.0
 11
0.9419291338582677
 21
14.3011811023622
 31
0.0
  0
LINE
  5
33FF
330
1E
100
AcDbEntity
  8
7
100
AcDbLine
 10
2.492125984251968
 20
13.12204724409449
 30
0.0
 11
2.492125984251968
 21
13.11122047244094
 31
0.0
  0
LINE
  5
3400
330
1E
100
AcDbEntity
  8
7
100
AcDbLine
 10
2.492125984251968
 20
13.11122047244094
 30
0.0
 11
2.492125984251968
 21
13.10728346456693
 31
0.0
  0
LINE
  5
3401
330
1E
100
AcDbEntity
  8
7
100
AcDbLine
 10
2.492125984251968
 20
13.10728346456693
 30
0.0
 11
2.091535433070865
 21
13.10728346456693
 31
0.0
  0
LINE
  5
3402
330
1E
100
AcDbEntity
  8
7
100
AcDbLine
 10
2.091535433070865
 20
13.10728346456693
 30
0.0
 11
2.091535433070865
 21
13.11122047244094
 31
0.0
  0
LINE
  5
3403
330
1E
100
AcDbEntity
  8
7
100
AcDbLine
 10
2.091535433070865
 20
13.11122047244094
 30
0.0
 11
2.090551181102362
 21
13.12204724409449
 31
0.0
  0
LINE
  5
3404
330
1E
100
AcDbEntity
  8
7
100
AcDbLine
 10
2.08759842519685
 20
13.19389763779527
 30
0.0
 11
2.090551181102362
 21
13.12204724409449
 31
0.0
  0
LINE
  5
3405
330
1E
100
AcDbEntity
  8
7
100
AcDbLine
 10
2.090551181102362
 20
13.12204724409449
 30
0.0
 11
2.492125984251968
 21
13.12204724409449
 31
0.0
  0
LINE
  5
3406
330
1E
100
AcDbEntity
  8
7
100
AcDbLine
 10
2.52755905511811
 20
13.89271653543307
 30
0.0
 11
2.526574803149606
 21
13.90255905511811
 31
0.0
  0
LINE
  5
3407
330
1E
100
AcDbEntity
  8
7
100
AcDbLine
 10
2.526574803149606
 20
13.90255905511811
 30
0.0
 11
2.526574803149606
 21
13.91043307086614
 31
0.0
  0
LINE
  5
3408
330
1E
100
AcDbEntity
  8
7
100
AcDbLine
 10
2.526574803149606
 20
13.91043307086614
 30
0.0
 11
2.528543307086613
 21
13.92322834645669
 31
0.0
  0
LINE
  5
3409
330
1E
100
AcDbEntity
  8
7
100
AcDbLine
 10
2.528543307086613
 20
13.83366141732283
 30
0.0
 11
2.529527559055118
 21
13.84251968503937
 31
0.0
  0
LINE
  5
340A
330
1E
100
AcDbEntity
  8
7
100
AcDbLine
 10
2.529527559055118
 20
13.84251968503937
 30
0.0
 11
2.529527559055118
 21
13.85334645669291
 31
0.0
  0
LINE
  5
340B
330
1E
100
AcDbEntity
  8
7
100
AcDbLine
 10
2.529527559055118
 20
13.85334645669291
 30
0.0
 11
2.528543307086613
 21
13.86811023622047
 31
0.0
  0
LINE
  5
340C
330
1E
100
AcDbEntity
  8
7
100
AcDbLine
 10
2.528543307086613
 20
13.86811023622047
 30
0.0
 11
2.528543307086613
 21
13.88090551181102
 31
0.0
  0
LINE
  5
340D
330
1E
100
AcDbEntity
  8
7
100
AcDbLine
 10
2.528543307086613
 20
13.88090551181102
 30
0.0
 11
2.52755905511811
 21
13.88976377952755
 31
0.0
  0
LINE
  5
340E
330
1E
100
AcDbEntity
  8
7
100
AcDbLine
 10
2.52755905511811
 20
13.88976377952755
 30
0.0
 11
2.52755905511811
 21
13.89271653543307
 31
0.0
  0
LINE
  5
340F
330
1E
100
AcDbEntity
  8
7
100
AcDbLine
 10
2.741141732283464
 20
13.85334645669291
 30
0.0
 11
2.741141732283464
 21
13.84251968503937
 31
0.0
  0
LINE
  5
3410
330
1E
100
AcDbEntity
  8
7
100
AcDbLine
 10
2.741141732283464
 20
13.84251968503937
 30
0.0
 11
2.742125984251968
 21
13.83366141732283
 31
0.0
  0
LINE
  5
3411
330
1E
100
AcDbEntity
  8
7
100
AcDbLine
 10
2.742125984251968
 20
13.86811023622047
 30
0.0
 11
2.742125984251968
 21
13.88090551181102
 31
0.0
  0
LINE
  5
3412
330
1E
100
AcDbEntity
  8
7
100
AcDbLine
 10
2.742125984251968
 20
13.88090551181102
 30
0.0
 11
2.743110236220472
 21
13.88976377952755
 31
0.0
  0
LINE
  5
3413
330
1E
100
AcDbEntity
  8
7
100
AcDbLine
 10
3.164370078740157
 20
13.83366141732283
 30
0.0
 11
3.164370078740157
 21
13.84251968503937
 31
0.0
  0
LINE
  5
3414
330
1E
100
AcDbEntity
  8
7
100
AcDbLine
 10
3.164370078740157
 20
13.84251968503937
 30
0.0
 11
3.164370078740157
 21
13.85334645669291
 31
0.0
  0
LINE
  5
3415
330
1E
100
AcDbEntity
  8
7
100
AcDbLine
 10
3.164370078740157
 20
13.85334645669291
 30
0.0
 11
3.163385826771653
 21
13.86811023622047
 31
0.0
  0
LINE
  5
3416
330
1E
100
AcDbEntity
  8
7
100
AcDbLine
 10
3.163385826771653
 20
13.86811023622047
 30
0.0
 11
3.163385826771653
 21
13.88090551181102
 31
0.0
  0
LINE
  5
3417
330
1E
100
AcDbEntity
  8
7
100
AcDbLine
 10
3.163385826771653
 20
13.88090551181102
 30
0.0
 11
3.162401574803149
 21
13.88976377952755
 31
0.0
  0
LINE
  5
3418
330
1E
100
AcDbEntity
  8
7
100
AcDbLine
 10
3.162401574803149
 20
13.88976377952755
 30
0.0
 11
3.162401574803149
 21
13.89271653543307
 31
0.0
  0
LINE
  5
3419
330
1E
100
AcDbEntity
  8
7
100
AcDbLine
 10
3.162401574803149
 20
13.89271653543307
 30
0.0
 11
3.161417322834645
 21
13.90255905511811
 31
0.0
  0
LINE
  5
341A
330
1E
100
AcDbEntity
  8
7
100
AcDbLine
 10
3.161417322834645
 20
13.90255905511811
 30
0.0
 11
3.162401574803149
 21
13.91043307086614
 31
0.0
  0
LINE
  5
341B
330
1E
100
AcDbEntity
  8
7
100
AcDbLine
 10
3.162401574803149
 20
13.91043307086614
 30
0.0
 11
3.164370078740157
 21
13.92322834645669
 31
0.0
  0
LINE
  5
341C
330
1E
100
AcDbEntity
  8
7
100
AcDbLine
 10
3.375984251968503
 20
13.85334645669291
 30
0.0
 11
3.375984251968503
 21
13.84251968503937
 31
0.0
  0
LINE
  5
341D
330
1E
100
AcDbEntity
  8
7
100
AcDbLine
 10
3.375984251968503
 20
13.84251968503937
 30
0.0
 11
3.376968503937007
 21
13.83366141732283
 31
0.0
  0
LINE
  5
341E
330
1E
100
AcDbEntity
  8
7
100
AcDbLine
 10
3.376968503937007
 20
13.86811023622047
 30
0.0
 11
3.376968503937007
 21
13.88090551181102
 31
0.0
  0
LINE
  5
341F
330
1E
100
AcDbEntity
  8
7
100
AcDbLine
 10
3.376968503937007
 20
13.88090551181102
 30
0.0
 11
3.377952755905512
 21
13.88976377952755
 31
0.0
  0
LINE
  5
3420
330
1E
100
AcDbEntity
  8
7
100
AcDbLine
 10
1.841535433070866
 20
13.83366141732283
 30
0.0
 11
1.84251968503937
 21
13.84251968503937
 31
0.0
  0
LINE
  5
3421
330
1E
100
AcDbEntity
  8
7
100
AcDbLine
 10
1.84251968503937
 20
13.84251968503937
 30
0.0
 11
1.84251968503937
 21
13.85334645669291
 31
0.0
  0
LINE
  5
3422
330
1E
100
AcDbEntity
  8
7
100
AcDbLine
 10
1.84251968503937
 20
13.85334645669291
 30
0.0
 11
1.841535433070866
 21
13.86811023622047
 31
0.0
  0
LINE
  5
3423
330
1E
100
AcDbEntity
  8
7
100
AcDbLine
 10
1.841535433070866
 20
13.86811023622047
 30
0.0
 11
1.841535433070866
 21
13.88090551181102
 31
0.0
  0
LINE
  5
3424
330
1E
100
AcDbEntity
  8
7
100
AcDbLine
 10
1.841535433070866
 20
13.88090551181102
 30
0.0
 11
1.840551181102362
 21
13.88976377952755
 31
0.0
  0
LINE
  5
3425
330
1E
100
AcDbEntity
  8
7
100
AcDbLine
 10
1.840551181102362
 20
13.88976377952755
 30
0.0
 11
1.840551181102362
 21
13.89271653543307
 31
0.0
  0
LINE
  5
3426
330
1E
100
AcDbEntity
  8
7
100
AcDbLine
 10
1.840551181102362
 20
13.89271653543307
 30
0.0
 11
1.839566929133858
 21
13.90255905511811
 31
0.0
  0
LINE
  5
3427
330
1E
100
AcDbEntity
  8
7
100
AcDbLine
 10
1.839566929133858
 20
13.90255905511811
 30
0.0
 11
1.839566929133858
 21
13.91043307086614
 31
0.0
  0
LINE
  5
3428
330
1E
100
AcDbEntity
  8
7
100
AcDbLine
 10
1.839566929133858
 20
13.91043307086614
 30
0.0
 11
1.841535433070866
 21
13.92322834645669
 31
0.0
  0
LINE
  5
3429
330
1E
100
AcDbEntity
  8
7
100
AcDbLine
 10
2.054133858267716
 20
13.85334645669291
 30
0.0
 11
2.054133858267716
 21
13.84251968503937
 31
0.0
  0
LINE
  5
342A
330
1E
100
AcDbEntity
  8
7
100
AcDbLine
 10
2.054133858267716
 20
13.84251968503937
 30
0.0
 11
2.05511811023622
 21
13.83366141732283
 31
0.0
  0
LINE
  5
342B
330
1E
100
AcDbEntity
  8
7
100
AcDbLine
 10
2.05511811023622
 20
13.86811023622047
 30
0.0
 11
2.05511811023622
 21
13.88090551181102
 31
0.0
  0
LINE
  5
342C
330
1E
100
AcDbEntity
  8
7
100
AcDbLine
 10
2.05511811023622
 20
13.88090551181102
 30
0.0
 11
2.056102362204724
 21
13.88976377952755
 31
0.0
  0
LINE
  5
342D
330
1E
100
AcDbEntity
  8
7
100
AcDbLine
 10
1.206692913385826
 20
13.83366141732283
 30
0.0
 11
1.20767716535433
 21
13.84251968503937
 31
0.0
  0
LINE
  5
342E
330
1E
100
AcDbEntity
  8
7
100
AcDbLine
 10
1.20767716535433
 20
13.84251968503937
 30
0.0
 11
1.206692913385826
 21
13.85334645669291
 31
0.0
  0
LINE
  5
342F
330
1E
100
AcDbEntity
  8
7
100
AcDbLine
 10
1.206692913385826
 20
13.85334645669291
 30
0.0
 11
1.206692913385826
 21
13.86811023622047
 31
0.0
  0
LINE
  5
3430
330
1E
100
AcDbEntity
  8
7
100
AcDbLine
 10
1.206692913385826
 20
13.86811023622047
 30
0.0
 11
1.205708661417322
 21
13.88090551181102
 31
0.0
  0
LINE
  5
3431
330
1E
100
AcDbEntity
  8
7
100
AcDbLine
 10
1.205708661417322
 20
13.88090551181102
 30
0.0
 11
1.205708661417322
 21
13.88976377952755
 31
0.0
  0
LINE
  5
3432
330
1E
100
AcDbEntity
  8
7
100
AcDbLine
 10
1.205708661417322
 20
13.88976377952755
 30
0.0
 11
1.204724409448818
 21
13.89271653543307
 31
0.0
  0
LINE
  5
3433
330
1E
100
AcDbEntity
  8
7
100
AcDbLine
 10
1.204724409448818
 20
13.89271653543307
 30
0.0
 11
1.204724409448818
 21
13.90255905511811
 31
0.0
  0
LINE
  5
3434
330
1E
100
AcDbEntity
  8
7
100
AcDbLine
 10
1.204724409448818
 20
13.90255905511811
 30
0.0
 11
1.204724409448818
 21
13.91043307086614
 31
0.0
  0
LINE
  5
3435
330
1E
100
AcDbEntity
  8
7
100
AcDbLine
 10
1.419291338582677
 20
13.85334645669291
 30
0.0
 11
1.419291338582677
 21
13.84251968503937
 31
0.0
  0
LINE
  5
3436
330
1E
100
AcDbEntity
  8
7
100
AcDbLine
 10
1.419291338582677
 20
13.84251968503937
 30
0.0
 11
1.419291338582677
 21
13.83366141732283
 31
0.0
  0
LINE
  5
3437
330
1E
100
AcDbEntity
  8
7
100
AcDbLine
 10
3.395669291338582
 20
13.61515748031496
 30
0.0
 11
3.376968503937007
 21
13.83366141732283
 31
0.0
  0
LINE
  5
3438
330
1E
100
AcDbEntity
  8
7
100
AcDbLine
 10
3.376968503937007
 20
13.83366141732283
 30
0.0
 11
3.164370078740157
 21
13.83366141732283
 31
0.0
  0
LINE
  5
3439
330
1E
100
AcDbEntity
  8
7
100
AcDbLine
 10
2.759842519685038
 20
13.61515748031496
 30
0.0
 11
2.742125984251968
 21
13.83366141732283
 31
0.0
  0
LINE
  5
343A
330
1E
100
AcDbEntity
  8
7
100
AcDbLine
 10
2.742125984251968
 20
13.83366141732283
 30
0.0
 11
2.528543307086613
 21
13.83366141732283
 31
0.0
  0
LINE
  5
343B
330
1E
100
AcDbEntity
  8
7
100
AcDbLine
 10
2.072834645669291
 20
13.61515748031496
 30
0.0
 11
2.05511811023622
 21
13.83366141732283
 31
0.0
  0
LINE
  5
343C
330
1E
100
AcDbEntity
  8
7
100
AcDbLine
 10
2.05511811023622
 20
13.83366141732283
 30
0.0
 11
1.841535433070866
 21
13.83366141732283
 31
0.0
  0
LINE
  5
343D
330
1E
100
AcDbEntity
  8
7
100
AcDbLine
 10
1.437992125984251
 20
13.61515748031496
 30
0.0
 11
1.419291338582677
 21
13.83366141732283
 31
0.0
  0
LINE
  5
343E
330
1E
100
AcDbEntity
  8
7
100
AcDbLine
 10
1.419291338582677
 20
13.83366141732283
 30
0.0
 11
1.206692913385826
 21
13.83366141732283
 31
0.0
  0
LINE
  5
343F
330
1E
100
AcDbEntity
  8
7
100
AcDbLine
 10
0.8809055118110237
 20
14.29232283464567
 30
0.0
 11
0.8681102362204724
 21
14.51279527559055
 31
0.0
  0
LINE
  5
3440
330
1E
100
AcDbEntity
  8
7
100
AcDbLine
 10
0.8681102362204724
 20
14.51279527559055
 30
0.0
 11
0.8681102362204724
 21
13.63287401574803
 31
0.0
  0
LINE
  5
3441
330
1E
100
AcDbEntity
  8
7
100
AcDbLine
 10
0.8681102362204724
 20
13.63287401574803
 30
0.0
 11
0.8809055118110237
 21
14.29232283464567
 31
0.0
  0
LINE
  5
3442
330
1E
100
AcDbEntity
  8
7
100
AcDbLine
 10
3.702755905511811
 20
14.29232283464567
 30
0.0
 11
3.715551181102362
 21
13.63287401574803
 31
0.0
  0
LINE
  5
3443
330
1E
100
AcDbEntity
  8
7
100
AcDbLine
 10
3.715551181102362
 20
13.63287401574803
 30
0.0
 11
3.715551181102362
 21
14.51279527559055
 31
0.0
  0
LINE
  5
3444
330
1E
100
AcDbEntity
  8
7
100
AcDbLine
 10
3.715551181102362
 20
14.51279527559055
 30
0.0
 11
3.702755905511811
 21
14.29232283464567
 31
0.0
  0
LINE
  5
3445
330
1E
100
AcDbEntity
  8
7
100
AcDbLine
 10
0.9340551181102361
 20
13.28444881889763
 30
0.0
 11
3.649606299212598
 21
13.28444881889763
 31
0.0
  0
LINE
  5
3446
330
1E
100
AcDbEntity
  8
7
100
AcDbLine
 10
3.649606299212598
 20
13.28444881889763
 30
0.0
 11
3.649606299212598
 21
13.56692913385826
 31
0.0
  0
LINE
  5
3447
330
1E
100
AcDbEntity
  8
7
100
AcDbLine
 10
3.747047244094487
 20
14.8021653543307
 30
0.0
 11
3.739173228346456
 21
14.79429133858267
 31
0.0
  0
LINE
  5
3448
330
1E
100
AcDbEntity
  8
7
100
AcDbLine
 10
3.739173228346456
 20
14.79429133858267
 30
0.0
 11
3.739173228346456
 21
13.28444881889763
 31
0.0
  0
LINE
  5
3449
330
1E
100
AcDbEntity
  8
7
100
AcDbLine
 10
3.739173228346456
 20
13.28444881889763
 30
0.0
 11
3.747047244094487
 21
13.2765748031496
 31
0.0
  0
LINE
  5
344A
330
1E
100
AcDbEntity
  8
7
100
AcDbLine
 10
0.9271653543307085
 20
14.89173228346456
 30
0.0
 11
0.9340551181102361
 21
14.88484251968503
 31
0.0
  0
LINE
  5
344B
330
1E
100
AcDbEntity
  8
7
100
AcDbLine
 10
0.9340551181102361
 20
14.88484251968503
 30
0.0
 11
3.649606299212598
 21
14.88484251968503
 31
0.0
  0
LINE
  5
344C
330
1E
100
AcDbEntity
  8
7
100
AcDbLine
 10
3.649606299212598
 20
14.88484251968503
 30
0.0
 11
3.656496062992125
 21
14.89173228346456
 31
0.0
  0
LINE
  5
344D
330
1E
100
AcDbEntity
  8
7
100
AcDbLine
 10
0.8366141732283464
 20
13.2765748031496
 30
0.0
 11
0.8444881889763779
 21
13.28444881889763
 31
0.0
  0
LINE
  5
344E
330
1E
100
AcDbEntity
  8
7
100
AcDbLine
 10
0.8444881889763779
 20
13.28444881889763
 30
0.0
 11
0.8444881889763779
 21
14.79429133858267
 31
0.0
  0
LINE
  5
344F
330
1E
100
AcDbEntity
  8
7
100
AcDbLine
 10
0.8444881889763779
 20
14.79429133858267
 30
0.0
 11
0.8366141732283464
 21
14.8021653543307
 31
0.0
  0
LINE
  5
3450
330
1E
100
AcDbEntity
  8
7
100
AcDbLine
 10
1.703740157480314
 20
13.56692913385826
 30
0.0
 11
1.703740157480314
 21
13.61909448818897
 31
0.0
  0
LINE
  5
3451
330
1E
100
AcDbEntity
  8
7
100
AcDbLine
 10
1.703740157480314
 20
13.61909448818897
 30
0.0
 11
1.558070866141732
 21
13.61909448818897
 31
0.0
  0
LINE
  5
3452
330
1E
100
AcDbEntity
  8
7
100
AcDbLine
 10
1.558070866141732
 20
13.61909448818897
 30
0.0
 11
1.558070866141732
 21
13.56692913385826
 31
0.0
  0
LINE
  5
3453
330
1E
100
AcDbEntity
  8
7
100
AcDbLine
 10
3.649606299212598
 20
13.56692913385826
 30
0.0
 11
3.656496062992125
 21
13.56692913385826
 31
0.0
  0
LINE
  5
3454
330
1E
100
AcDbEntity
  8
7
100
AcDbLine
 10
3.656496062992125
 20
13.56692913385826
 30
0.0
 11
3.641732283464566
 21
14.3011811023622
 31
0.0
  0
LINE
  5
3455
330
1E
100
AcDbEntity
  8
7
100
AcDbLine
 10
3.641732283464566
 20
14.3011811023622
 30
0.0
 11
0.9419291338582677
 21
14.3011811023622
 31
0.0
  0
LINE
  5
3456
330
1E
100
AcDbEntity
  8
7
100
AcDbLine
 10
3.58267716535433
 20
14.18602362204724
 30
0.0
 11
3.58267716535433
 21
13.61909448818897
 31
0.0
  0
LINE
  5
3457
330
1E
100
AcDbEntity
  8
7
100
AcDbLine
 10
3.58267716535433
 20
13.61909448818897
 30
0.0
 11
3.515748031496062
 21
13.61909448818897
 31
0.0
  0
LINE
  5
3458
330
1E
100
AcDbEntity
  8
7
100
AcDbLine
 10
3.515748031496062
 20
13.61909448818897
 30
0.0
 11
3.515748031496062
 21
13.56692913385826
 31
0.0
  0
LINE
  5
3459
330
1E
100
AcDbEntity
  8
7
100
AcDbLine
 10
2.390748031496062
 20
13.56692913385826
 30
0.0
 11
2.390748031496062
 21
13.61909448818897
 31
0.0
  0
LINE
  5
345A
330
1E
100
AcDbEntity
  8
7
100
AcDbLine
 10
2.390748031496062
 20
13.61909448818897
 30
0.0
 11
2.322834645669291
 21
13.61909448818897
 31
0.0
  0
LINE
  5
345B
330
1E
100
AcDbEntity
  8
7
100
AcDbLine
 10
2.260826771653543
 20
14.18602362204724
 30
0.0
 11
2.260826771653543
 21
13.61909448818897
 31
0.0
  0
LINE
  5
345C
330
1E
100
AcDbEntity
  8
7
100
AcDbLine
 10
2.260826771653543
 20
13.61909448818897
 30
0.0
 11
2.192913385826771
 21
13.61909448818897
 31
0.0
  0
LINE
  5
345D
330
1E
100
AcDbEntity
  8
7
100
AcDbLine
 10
2.192913385826771
 20
13.61909448818897
 30
0.0
 11
2.192913385826771
 21
13.56692913385826
 31
0.0
  0
LINE
  5
345E
330
1E
100
AcDbEntity
  8
7
100
AcDbLine
 10
1.067913385826771
 20
13.56692913385826
 30
0.0
 11
1.067913385826771
 21
13.61909448818897
 31
0.0
  0
LINE
  5
345F
330
1E
100
AcDbEntity
  8
7
100
AcDbLine
 10
1.067913385826771
 20
13.61909448818897
 30
0.0
 11
1.000984251968503
 21
13.61909448818897
 31
0.0
  0
LINE
  5
3460
330
1E
100
AcDbEntity
  8
7
100
AcDbLine
 10
1.000984251968503
 20
13.61909448818897
 30
0.0
 11
1.000984251968503
 21
14.18602362204724
 31
0.0
  0
LINE
  5
3461
330
1E
100
AcDbEntity
  8
7
100
AcDbLine
 10
0.9419291338582677
 20
14.3011811023622
 30
0.0
 11
0.9271653543307085
 21
13.56692913385826
 31
0.0
  0
LINE
  5
3462
330
1E
100
AcDbEntity
  8
7
100
AcDbLine
 10
0.9271653543307085
 20
13.56692913385826
 30
0.0
 11
0.9340551181102361
 21
13.56692913385826
 31
0.0
  0
LINE
  5
3463
330
1E
100
AcDbEntity
  8
7
100
AcDbLine
 10
3.025590551181102
 20
13.56692913385826
 30
0.0
 11
3.025590551181102
 21
13.61909448818897
 31
0.0
  0
LINE
  5
3464
330
1E
100
AcDbEntity
  8
7
100
AcDbLine
 10
3.025590551181102
 20
13.61909448818897
 30
0.0
 11
2.879921259842519
 21
13.61909448818897
 31
0.0
  0
LINE
  5
3465
330
1E
100
AcDbEntity
  8
7
100
AcDbLine
 10
2.879921259842519
 20
13.61909448818897
 30
0.0
 11
2.879921259842519
 21
13.56692913385826
 31
0.0
  0
LINE
  5
3466
330
1E
100
AcDbEntity
  8
7
100
AcDbLine
 10
3.656496062992125
 20
13.18700787401574
 30
0.0
 11
3.649606299212598
 21
13.19389763779527
 31
0.0
  0
LINE
  5
3467
330
1E
100
AcDbEntity
  8
7
100
AcDbLine
 10
3.649606299212598
 20
13.19389763779527
 30
0.0
 11
0.9340551181102361
 21
13.19389763779527
 31
0.0
  0
LINE
  5
3468
330
1E
100
AcDbEntity
  8
7
100
AcDbLine
 10
0.9340551181102361
 20
13.19389763779527
 30
0.0
 11
0.9271653543307085
 21
13.18700787401574
 31
0.0
  0
LINE
  5
3469
330
1E
100
AcDbEntity
  8
7
100
AcDbLine
 10
0.9340551181102361
 20
14.56299212598425
 30
0.0
 11
0.9281496062992125
 21
14.56397637795275
 31
0.0
  0
LINE
  5
346A
330
1E
100
AcDbEntity
  8
7
100
AcDbLine
 10
0.9281496062992125
 20
14.56397637795275
 30
0.0
 11
0.9419291338582677
 21
14.32185039370078
 31
0.0
  0
LINE
  5
346B
330
1E
100
AcDbEntity
  8
7
100
AcDbLine
 10
0.9419291338582677
 20
14.32185039370078
 30
0.0
 11
3.641732283464566
 21
14.32185039370078
 31
0.0
  0
LINE
  5
346C
330
1E
100
AcDbEntity
  8
7
100
AcDbLine
 10
3.641732283464566
 20
14.32185039370078
 30
0.0
 11
3.655511811023622
 21
14.56397637795275
 31
0.0
  0
LINE
  5
346D
330
1E
100
AcDbEntity
  8
7
100
AcDbLine
 10
3.655511811023622
 20
14.56397637795275
 30
0.0
 11
3.649606299212598
 21
14.56299212598425
 31
0.0
  0
LINE
  5
346E
330
1E
100
AcDbEntity
  8
7
100
AcDbLine
 10
3.742125984251968
 20
13.24901574803149
 30
0.0
 11
3.729330708661417
 21
13.22342519685039
 31
0.0
  0
LINE
  5
346F
330
1E
100
AcDbEntity
  8
7
100
AcDbLine
 10
3.729330708661417
 20
13.22342519685039
 30
0.0
 11
3.709645669291338
 21
13.20374015748031
 31
0.0
  0
LINE
  5
3470
330
1E
100
AcDbEntity
  8
7
100
AcDbLine
 10
3.709645669291338
 20
13.20374015748031
 30
0.0
 11
3.685039370078739
 21
13.19094488188976
 31
0.0
  0
LINE
  5
3471
330
1E
100
AcDbEntity
  8
7
100
AcDbLine
 10
3.685039370078739
 20
13.19094488188976
 30
0.0
 11
3.656496062992125
 21
13.18700787401574
 31
0.0
  0
LINE
  5
3472
330
1E
100
AcDbEntity
  8
7
100
AcDbLine
 10
3.656496062992125
 20
13.18700787401574
 30
0.0
 11
2.693897637795275
 21
13.18700787401574
 31
0.0
  0
LINE
  5
3473
330
1E
100
AcDbEntity
  8
7
100
AcDbLine
 10
0.8366141732283464
 20
13.2765748031496
 30
0.0
 11
0.8366141732283464
 21
14.8021653543307
 31
0.0
  0
LINE
  5
3474
330
1E
100
AcDbEntity
  8
7
100
AcDbLine
 10
0.8366141732283464
 20
14.8021653543307
 30
0.0
 11
0.8415354330708661
 21
14.82972440944881
 31
0.0
  0
LINE
  5
3475
330
1E
100
AcDbEntity
  8
7
100
AcDbLine
 10
0.8415354330708661
 20
14.82972440944881
 30
0.0
 11
0.8543307086614174
 21
14.85433070866141
 31
0.0
  0
LINE
  5
3476
330
1E
100
AcDbEntity
  8
7
100
AcDbLine
 10
0.8543307086614174
 20
14.85433070866141
 30
0.0
 11
0.8740157480314961
 21
14.875
 31
0.0
  0
LINE
  5
3477
330
1E
100
AcDbEntity
  8
7
100
AcDbLine
 10
0.8740157480314961
 20
14.875
 30
0.0
 11
0.8986220472440944
 21
14.88779527559055
 31
0.0
  0
LINE
  5
3478
330
1E
100
AcDbEntity
  8
7
100
AcDbLine
 10
0.8986220472440944
 20
14.88779527559055
 30
0.0
 11
0.9271653543307085
 21
14.89173228346456
 31
0.0
  0
LINE
  5
3479
330
1E
100
AcDbEntity
  8
7
100
AcDbLine
 10
0.9271653543307085
 20
14.89173228346456
 30
0.0
 11
3.656496062992125
 21
14.89173228346456
 31
0.0
  0
LINE
  5
347A
330
1E
100
AcDbEntity
  8
7
100
AcDbLine
 10
3.656496062992125
 20
14.89173228346456
 30
0.0
 11
3.685039370078739
 21
14.88779527559055
 31
0.0
  0
LINE
  5
347B
330
1E
100
AcDbEntity
  8
7
100
AcDbLine
 10
3.685039370078739
 20
14.88779527559055
 30
0.0
 11
3.709645669291338
 21
14.875
 31
0.0
  0
LINE
  5
347C
330
1E
100
AcDbEntity
  8
7
100
AcDbLine
 10
3.709645669291338
 20
14.875
 30
0.0
 11
3.729330708661417
 21
14.85433070866141
 31
0.0
  0
LINE
  5
347D
330
1E
100
AcDbEntity
  8
7
100
AcDbLine
 10
3.729330708661417
 20
14.85433070866141
 30
0.0
 11
3.742125984251968
 21
14.82972440944881
 31
0.0
  0
LINE
  5
347E
330
1E
100
AcDbEntity
  8
7
100
AcDbLine
 10
3.742125984251968
 20
14.82972440944881
 30
0.0
 11
3.747047244094487
 21
14.8021653543307
 31
0.0
  0
LINE
  5
347F
330
1E
100
AcDbEntity
  8
7
100
AcDbLine
 10
3.747047244094487
 20
14.8021653543307
 30
0.0
 11
3.747047244094487
 21
13.2765748031496
 31
0.0
  0
LINE
  5
3480
330
1E
100
AcDbEntity
  8
7
100
AcDbLine
 10
3.747047244094487
 20
13.2765748031496
 30
0.0
 11
3.742125984251968
 21
13.24901574803149
 31
0.0
  0
LINE
  5
3481
330
1E
100
AcDbEntity
  8
7
100
AcDbLine
 10
1.889763779527559
 20
13.18700787401574
 30
0.0
 11
0.9271653543307085
 21
13.18700787401574
 31
0.0
  0
LINE
  5
3482
330
1E
100
AcDbEntity
  8
7
100
AcDbLine
 10
0.9271653543307085
 20
13.18700787401574
 30
0.0
 11
0.8986220472440944
 21
13.19094488188976
 31
0.0
  0
LINE
  5
3483
330
1E
100
AcDbEntity
  8
7
100
AcDbLine
 10
0.8986220472440944
 20
13.19094488188976
 30
0.0
 11
0.8740157480314961
 21
13.20374015748031
 31
0.0
  0
LINE
  5
3484
330
1E
100
AcDbEntity
  8
7
100
AcDbLine
 10
0.8740157480314961
 20
13.20374015748031
 30
0.0
 11
0.8543307086614174
 21
13.22342519685039
 31
0.0
  0
LINE
  5
3485
330
1E
100
AcDbEntity
  8
7
100
AcDbLine
 10
0.8543307086614174
 20
13.22342519685039
 30
0.0
 11
0.8415354330708661
 21
13.24901574803149
 31
0.0
  0
LINE
  5
3486
330
1E
100
AcDbEntity
  8
7
100
AcDbLine
 10
0.8415354330708661
 20
13.24901574803149
 30
0.0
 11
0.8366141732283464
 21
13.2765748031496
 31
0.0
  0
LINE
  5
3487
330
1E
100
AcDbEntity
  8
7
100
AcDbLine
 10
3.649606299212598
 20
14.79429133858267
 30
0.0
 11
0.9340551181102361
 21
14.79429133858267
 31
0.0
  0
LINE
  5
3488
330
1E
100
AcDbEntity
  8
7
100
AcDbLine
 10
0.9340551181102361
 20
14.79429133858267
 30
0.0
 11
0.9340551181102361
 21
14.56299212598425
 31
0.0
  0
ENDSEC
  0
SECTION
  2
OBJECTS
  0
DICTIONARY
  5
C
330
0
100
AcDbDictionary
  3
ACAD_GROUP
350
D
  3
ACAD_MLINESTYLE
350
16
  3
ACAD_PLOTSETTINGS
350
18
  3
ACAD_LAYOUT
350
19
1001
ACAD
1000
TREAT_AS_HARD
1070
     0
  0
DICTIONARY
  5
4681
330
1E
100
AcDbDictionary
  3
ACAD_LAYOUTSELFREF
350
4682
  0
DICTIONARY
  5
467F
330
1A
100
AcDbDictionary
  3
ACAD_LAYOUTSELFREF
350
4680
  0
DICTIONARY
  5
D
102
{ACAD_REACTORS
330
C
102
}
330
C
100
AcDbDictionary
1001
ACAD
1000
TREAT_AS_HARD
1070
     0
  0
DICTIONARY
  5
16
102
{ACAD_REACTORS
330
C
102
}
330
C
100
AcDbDictionary
  3
STANDARD
350
17
1001
ACAD
1000
TREAT_AS_HARD
1070
     0
  0
DICTIONARY
  5
18
102
{ACAD_REACTORS
330
C
102
}
330
C
100
AcDbDictionary
1001
ACAD
1000
TREAT_AS_HARD
1070
     0
  0
DICTIONARY
  5
19
102
{ACAD_REACTORS
330
C
102
}
330
C
100
AcDbDictionary
1001
ACAD
1000
TREAT_AS_HARD
1070
     0
  0
XRECORD
  5
4682
102
{ACAD_REACTORS
330
4681
102
}
330
4681
100
AcDbXrecord
340
1E
  0
XRECORD
  5
4680
102
{ACAD_REACTORS
330
467F
102
}
330
467F
100
AcDbXrecord
340
1A
  0
MLINESTYLE
  5
17
102
{ACAD_REACTORS
330
16
102
}
330
16
100
AcDbMlineStyle
  2
STANDARD
 70
     0
  3

 62
   256
 51
90.0
 52
90.0
 71
     2
 49
0.5
 62
   256
  6
BYLAYER
 49
-0.5
 62
   256
  6
BYLAYER
  0
ENDSEC
  0
EOF
