  0
SECTION
  2
HEADER
  9
$ACADVER
  1
AC1012
  9
$DWGCODEPAGE
  3
ANSI_1252
  9
$INSBASE
 10
0.0
 20
0.0
 30
0.0
  9
$EXTMIN
 10
1.395813017845867
 20
2.838317895352744
 30
-0.0015258207003583
  9
$EXTMAX
 10
4.15338136646126
 20
7.431289691980101
 30
0.0000000349246037
  9
$LIMMIN
 10
0.0
 20
0.0
  9
$LIMMAX
 10
12.0
 20
9.0
  9
$ORTHOMODE
 70
     0
  9
$REGENMODE
 70
     1
  9
$FILLMODE
 70
     1
  9
$QTEXTMODE
 70
     0
  9
$MIRRTEXT
 70
     1
  9
$DRAGMODE
 70
     2
  9
$LTSCALE
 40
1.0
  9
$OSMODE
 70
   547
  9
$ATTMODE
 70
     1
  9
$TEXTSIZE
 40
0.2
  9
$TRACEWID
 40
0.05
  9
$TEXTSTYLE
  7
STANDARD
  9
$CLAYER
  8
0
  9
$CELTYPE
  6
BYLAYER
  9
$CECOLOR
 62
   256
  9
$CELTSCALE
 40
1.0
  9
$DELOBJ
 70
     1
  9
$DISPSILH
 70
     0
  9
$DIMSCALE
 40
1.0
  9
$DIMASZ
 40
0.18
  9
$DIMEXO
 40
0.0625
  9
$DIMDLI
 40
0.38
  9
$DIMRND
 40
0.0
  9
$DIMDLE
 40
0.0
  9
$DIMEXE
 40
0.18
  9
$DIMTP
 40
0.0
  9
$DIMTM
 40
0.0
  9
$DIMTXT
 40
0.18
  9
$DIMCEN
 40
0.09
  9
$DIMTSZ
 40
0.0
  9
$DIMTOL
 70
     0
  9
$DIMLIM
 70
     0
  9
$DIMTIH
 70
     1
  9
$DIMTOH
 70
     1
  9
$DIMSE1
 70
     0
  9
$DIMSE2
 70
     0
  9
$DIMTAD
 70
     0
  9
$DIMZIN
 70
     0
  9
$DIMBLK
  1

  9
$DIMASO
 70
     1
  9
$DIMSHO
 70
     1
  9
$DIMPOST
  1

  9
$DIMAPOST
  1

  9
$DIMALT
 70
     0
  9
$DIMALTD
 70
     2
  9
$DIMALTF
 40
25.4
  9
$DIMLFAC
 40
1.0
  9
$DIMTOFL
 70
     0
  9
$DIMTVP
 40
0.0
  9
$DIMTIX
 70
     0
  9
$DIMSOXD
 70
     0
  9
$DIMSAH
 70
     0
  9
$DIMBLK1
  1

  9
$DIMBLK2
  1

  9
$DIMSTYLE
  2
STANDARD
  9
$DIMCLRD
 70
     0
  9
$DIMCLRE
 70
     0
  9
$DIMCLRT
 70
     0
  9
$DIMTFAC
 40
1.0
  9
$DIMGAP
 40
0.09
  9
$DIMJUST
 70
     0
  9
$DIMSD1
 70
     0
  9
$DIMSD2
 70
     0
  9
$DIMTOLJ
 70
     1
  9
$DIMTZIN
 70
     0
  9
$DIMALTZ
 70
     0
  9
$DIMALTTZ
 70
     0
  9
$DIMFIT
 70
     5
  9
$DIMUPT
 70
     0
  9
$DIMUNIT
 70
     2
  9
$DIMDEC
 70
     4
  9
$DIMTDEC
 70
     4
  9
$DIMALTU
 70
     2
  9
$DIMALTTD
 70
     2
  9
$DIMTXSTY
  7
STANDARD
  9
$DIMAUNIT
 70
     0
  9
$LUNITS
 70
     2
  9
$LUPREC
 70
     4
  9
$SKETCHINC
 40
0.1
  9
$FILLETRAD
 40
0.0
  9
$AUNITS
 70
     0
  9
$AUPREC
 70
     0
  9
$MENU
  1
acad
  9
$ELEVATION
 40
0.0
  9
$PELEVATION
 40
0.0
  9
$THICKNESS
 40
0.0
  9
$LIMCHECK
 70
     0
  9
$BLIPMODE
 70
     0
  9
$CHAMFERA
 40
0.0
  9
$CHAMFERB
 40
0.0
  9
$CHAMFERC
 40
0.0
  9
$CHAMFERD
 40
0.0
  9
$SKPOLY
 70
     0
  9
$TDCREATE
 40
2453528.388692129
  9
$TDUPDATE
 40
2453528.407211875
  9
$TDINDWG
 40
0.0006179167
  9
$TDUSRTIMER
 40
0.0006179167
  9
$USRTIMER
 70
     1
  9
$ANGBASE
 50
0.0
  9
$ANGDIR
 70
     0
  9
$PDMODE
 70
     0
  9
$PDSIZE
 40
0.0
  9
$PLINEWID
 40
0.0
  9
$COORDS
 70
     1
  9
$SPLFRAME
 70
     0
  9
$SPLINETYPE
 70
     6
  9
$SPLINESEGS
 70
     8
  9
$ATTDIA
 70
     0
  9
$ATTREQ
 70
     1
  9
$HANDLING
 70
  4097
  9
$HANDSEED
  5
479C
  9
$SURFTAB1
 70
     6
  9
$SURFTAB2
 70
     6
  9
$SURFTYPE
 70
     6
  9
$SURFU
 70
     6
  9
$SURFV
 70
     6
  9
$UCSNAME
  2

  9
$UCSORG
 10
0.0
 20
0.0
 30
0.0
  9
$UCSXDIR
 10
1.0
 20
0.0
 30
0.0
  9
$UCSYDIR
 10
0.0
 20
1.0
 30
0.0
  9
$PUCSNAME
  2

  9
$PUCSORG
 10
0.0
 20
0.0
 30
0.0
  9
$PUCSXDIR
 10
1.0
 20
0.0
 30
0.0
  9
$PUCSYDIR
 10
0.0
 20
1.0
 30
0.0
  9
$USERI1
 70
     0
  9
$USERI2
 70
     0
  9
$USERI3
 70
     0
  9
$USERI4
 70
     0
  9
$USERI5
 70
     0
  9
$USERR1
 40
0.0
  9
$USERR2
 40
0.0
  9
$USERR3
 40
0.0
  9
$USERR4
 40
0.0
  9
$USERR5
 40
0.0
  9
$WORLDVIEW
 70
     1
  9
$SHADEDGE
 70
     3
  9
$SHADEDIF
 70
    70
  9
$TILEMODE
 70
     1
  9
$MAXACTVP
 70
    16
  9
$PINSBASE
 10
0.0
 20
0.0
 30
0.0
  9
$PLIMCHECK
 70
     0
  9
$PEXTMIN
 10
1.000000000000000E+20
 20
1.000000000000000E+20
 30
1.000000000000000E+20
  9
$PEXTMAX
 10
-1.000000000000000E+20
 20
-1.000000000000000E+20
 30
-1.000000000000000E+20
  9
$PLIMMIN
 10
0.0
 20
0.0
  9
$PLIMMAX
 10
12.0
 20
9.0
  9
$UNITMODE
 70
     0
  9
$VISRETAIN
 70
     0
  9
$PLINEGEN
 70
     0
  9
$PSLTSCALE
 70
     1
  9
$TREEDEPTH
 70
  3020
  9
$PICKSTYLE
 70
     1
  9
$CMLSTYLE
  2
STANDARD
  9
$CMLJUST
 70
     0
  9
$CMLSCALE
 40
1.0
  9
$SAVEIMAGES
 70
     1
  0
ENDSEC
  0
SECTION
  2
CLASSES
  0
CLASS
  1
ACDBDICTIONARYWDFLT
  2
AcDbDictionaryWithDefault
  3
AutoCAD 2000
 90
    32768
280
     0
281
     0
  0
CLASS
  1
ACDBPLACEHOLDER
  2
AcDbPlaceHolder
  3
AutoCAD 2000
 90
    32768
280
     0
281
     0
  0
CLASS
  1
LAYOUT
  2
AcDbLayout
  3
AutoCAD 2000
 90
    32768
280
     0
281
     0
  0
CLASS
  1
LONG_TRANSACTION
  2
AcDbLongTransaction
  3
AutoCAD 2000
 90
    32768
280
     0
281
     0
  0
CLASS
  1
LWPOLYLINE
  2
AcDbPolyline
  3
AutoCAD 2000
 90
    32768
280
     0
281
     1
  0
CLASS
  1
HATCH
  2
AcDbHatch
  3
AutoCAD 2000
 90
    32768
280
     0
281
     1
  0
CLASS
  1
XRECORD
  2
AcDbXrecord
  3
AutoCAD 2000
 90
    32768
280
     0
281
     0
  0
ENDSEC
  0
SECTION
  2
TABLES
  0
TABLE
  2
VPORT
  5
8
330
0
100
AcDbSymbolTable
 70
     4
  0
VPORT
  5
4797
330
8
100
AcDbSymbolTableRecord
100
AcDbViewportTableRecord
  2
*ACTIVE
 70
     0
 10
0.0
 20
0.0
 11
1.0
 21
1.0
 12
2.774597192153563
 22
5.134803793666423
 13
0.0
 23
0.0
 14
1.0
 24
1.0
 15
0.0
 25
0.0
 16
0.0
 26
0.0
 36
1.0
 17
0.0
 27
0.0
 37
0.0
 40
4.643816502863083
 41
1.724584103512014
 42
50.0
 43
0.0
 44
0.0
 50
0.0
 51
0.0
 71
     0
 72
   100
 73
     1
 74
     1
 75
     0
 76
     0
 77
     0
 78
     0
  0
ENDTAB
  0
TABLE
  2
LTYPE
  5
5
330
0
100
AcDbSymbolTable
 70
    25
  0
LTYPE
  5
13
330
5
100
AcDbSymbolTableRecord
100
AcDbLinetypeTableRecord
  2
BYBLOCK
 70
     0
  3

 72
    65
 73
     0
 40
0.0
  0
LTYPE
  5
14
330
5
100
AcDbSymbolTableRecord
100
AcDbLinetypeTableRecord
  2
BYLAYER
 70
     0
  3

 72
    65
 73
     0
 40
0.0
  0
LTYPE
  5
15
330
5
100
AcDbSymbolTableRecord
100
AcDbLinetypeTableRecord
  2
CONTINUOUS
 70
     0
  3
Solid line
 72
    65
 73
     0
 40
0.0
  0
LTYPE
  5
22
330
5
100
AcDbSymbolTableRecord
100
AcDbLinetypeTableRecord
  2
BORDER
 70
     0
  3
__ __ . __ __ . __ __ . __ __ . __ __ . __ __ .
 72
    65
 73
     6
 40
1.75
 49
0.5
 74
     0
 49
-0.25
 74
     0
 49
0.5
 74
     0
 49
-0.25
 74
     0
 49
0.5
 74
     0
 49
-0.25
 74
     0
  0
LTYPE
  5
23
330
5
100
AcDbSymbolTableRecord
100
AcDbLinetypeTableRecord
  2
BORDER2
 70
     0
  3
__.__.__.__.__.__.__.__.__.__.__.__.__.__.__.__
 72
    65
 73
     6
 40
0.875
 49
0.25
 74
     0
 49
-0.125
 74
     0
 49
0.25
 74
     0
 49
-0.125
 74
     0
 49
0.25
 74
     0
 49
-0.125
 74
     0
  0
LTYPE
  5
24
330
5
100
AcDbSymbolTableRecord
100
AcDbLinetypeTableRecord
  2
BORDERX2
 70
     0
  3
____  ____  .  ____  ____  .  
 72
    65
 73
     6
 40
3.5
 49
1.0
 74
     0
 49
-0.5
 74
     0
 49
1.0
 74
     0
 49
-0.5
 74
     0
 49
1.0
 74
     0
 49
-0.5
 74
     0
  0
LTYPE
  5
25
330
5
100
AcDbSymbolTableRecord
100
AcDbLinetypeTableRecord
  2
CENTER
 70
     0
  3
____ _ ____ _ ____ _ ____ _ ____ _ ____ _ ____
 72
    65
 73
     4
 40
2.0
 49
1.25
 74
     0
 49
-0.25
 74
     0
 49
0.25
 74
     0
 49
-0.25
 74
     0
  0
LTYPE
  5
26
330
5
100
AcDbSymbolTableRecord
100
AcDbLinetypeTableRecord
  2
CENTER2
 70
     0
  3
____ _ ____ _ ____ _ ____ _ ____ _ ____ _ ____
 72
    65
 73
     4
 40
1.125
 49
0.75
 74
     0
 49
-0.125
 74
     0
 49
0.125
 74
     0
 49
-0.125
 74
     0
  0
LTYPE
  5
27
330
5
100
AcDbSymbolTableRecord
100
AcDbLinetypeTableRecord
  2
CENTERX2
 70
     0
  3
________  __  ________  __  ________  __  
 72
    65
 73
     4
 40
4.0
 49
2.5
 74
     0
 49
-0.5
 74
     0
 49
0.5
 74
     0
 49
-0.5
 74
     0
  0
LTYPE
  5
28
330
5
100
AcDbSymbolTableRecord
100
AcDbLinetypeTableRecord
  2
DASHDOT
 70
     0
  3
__ . __ . __ . __ . __ . __ . __ . 
 72
    65
 73
     4
 40
1.0
 49
0.5
 74
     0
 49
-0.25
 74
     0
 49
0.0
 74
     0
 49
-0.25
 74
     0
  0
LTYPE
  5
29
330
5
100
AcDbSymbolTableRecord
100
AcDbLinetypeTableRecord
  2
DASHDOT2
 70
     0
  3
_._._._._._._._._._._._._._._._.
 72
    65
 73
     4
 40
0.5
 49
0.25
 74
     0
 49
-0.125
 74
     0
 49
0.0
 74
     0
 49
-0.125
 74
     0
  0
LTYPE
  5
2A
330
5
100
AcDbSymbolTableRecord
100
AcDbLinetypeTableRecord
  2
DASHDOTX2
 70
     0
  3
____  .  ____  .  ____  .  ____  .  
 72
    65
 73
     4
 40
2.0
 49
1.0
 74
     0
 49
-0.5
 74
     0
 49
0.0
 74
     0
 49
-0.5
 74
     0
  0
LTYPE
  5
2B
330
5
100
AcDbSymbolTableRecord
100
AcDbLinetypeTableRecord
  2
DASHED
 70
     0
  3
__ __ __ __ __ __ __ __ __ __ __ __ 
 72
    65
 73
     2
 40
0.75
 49
0.5
 74
     0
 49
-0.25
 74
     0
  0
LTYPE
  5
2C
330
5
100
AcDbSymbolTableRecord
100
AcDbLinetypeTableRecord
  2
DASHED2
 70
     0
  3
_ _ _ _ _ _ _ _ _ _ _ _ _ _ _ _ _ _ 
 72
    65
 73
     2
 40
0.375
 49
0.25
 74
     0
 49
-0.125
 74
     0
  0
LTYPE
  5
2D
330
5
100
AcDbSymbolTableRecord
100
AcDbLinetypeTableRecord
  2
DASHEDX2
 70
     0
  3
____  ____  ____  ____  ____  ____  
 72
    65
 73
     2
 40
1.5
 49
1.0
 74
     0
 49
-0.5
 74
     0
  0
LTYPE
  5
2E
330
5
100
AcDbSymbolTableRecord
100
AcDbLinetypeTableRecord
  2
DIVIDE
 70
     0
  3
____ . . ____ . . ____ . . ____ . . 
 72
    65
 73
     6
 40
1.25
 49
0.5
 74
     0
 49
-0.25
 74
     0
 49
0.0
 74
     0
 49
-0.25
 74
     0
 49
0.0
 74
     0
 49
-0.25
 74
     0
  0
LTYPE
  5
2F
330
5
100
AcDbSymbolTableRecord
100
AcDbLinetypeTableRecord
  2
DIVIDE2
 70
     0
  3
__..__..__..__..__..__..__..__..__..
 72
    65
 73
     6
 40
0.625
 49
0.25
 74
     0
 49
-0.125
 74
     0
 49
0.0
 74
     0
 49
-0.125
 74
     0
 49
0.0
 74
     0
 49
-0.125
 74
     0
  0
LTYPE
  5
30
330
5
100
AcDbSymbolTableRecord
100
AcDbLinetypeTableRecord
  2
DIVIDEX2
 70
     0
  3
________  .  .  ________  .  .  ________  .  . 
 72
    65
 73
     6
 40
2.5
 49
1.0
 74
     0
 49
-0.5
 74
     0
 49
0.0
 74
     0
 49
-0.5
 74
     0
 49
0.0
 74
     0
 49
-0.5
 74
     0
  0
LTYPE
  5
31
330
5
100
AcDbSymbolTableRecord
100
AcDbLinetypeTableRecord
  2
DOT
 70
     0
  3
. . . . . . . . . . . . . . . . . . 
 72
    65
 73
     2
 40
0.25
 49
0.0
 74
     0
 49
-0.25
 74
     0
  0
LTYPE
  5
32
330
5
100
AcDbSymbolTableRecord
100
AcDbLinetypeTableRecord
  2
DOT2
 70
     0
  3
....................................
 72
    65
 73
     2
 40
0.125
 49
0.0
 74
     0
 49
-0.125
 74
     0
  0
LTYPE
  5
33
330
5
100
AcDbSymbolTableRecord
100
AcDbLinetypeTableRecord
  2
DOTX2
 70
     0
  3
.  .  .  .  .  .  .  .  .  .  .  .  .  
 72
    65
 73
     2
 40
0.5
 49
0.0
 74
     0
 49
-0.5
 74
     0
  0
LTYPE
  5
34
330
5
100
AcDbSymbolTableRecord
100
AcDbLinetypeTableRecord
  2
HIDDEN
 70
     0
  3
__ __ __ __ __ __ __ __ __ __ __ __ 
 72
    65
 73
     2
 40
0.375
 49
0.25
 74
     0
 49
-0.125
 74
     0
  0
LTYPE
  5
35
330
5
100
AcDbSymbolTableRecord
100
AcDbLinetypeTableRecord
  2
HIDDEN2
 70
     0
  3
_ _ _ _ _ _ _ _ _ _ _ _ _ _ _ _ _ _ 
 72
    65
 73
     2
 40
0.1875
 49
0.125
 74
     0
 49
-0.0625
 74
     0
  0
LTYPE
  5
36
330
5
100
AcDbSymbolTableRecord
100
AcDbLinetypeTableRecord
  2
HIDDENX2
 70
     0
  3
____ ____ ____ ____ ____ ____ ____ 
 72
    65
 73
     2
 40
0.75
 49
0.5
 74
     0
 49
-0.25
 74
     0
  0
LTYPE
  5
37
330
5
100
AcDbSymbolTableRecord
100
AcDbLinetypeTableRecord
  2
PHANTOM
 70
     0
  3
______  __  __  ______  __  __  
 72
    65
 73
     6
 40
2.5
 49
1.25
 74
     0
 49
-0.25
 74
     0
 49
0.25
 74
     0
 49
-0.25
 74
     0
 49
0.25
 74
     0
 49
-0.25
 74
     0
  0
LTYPE
  5
38
330
5
100
AcDbSymbolTableRecord
100
AcDbLinetypeTableRecord
  2
PHANTOM2
 70
     0
  3
___ _ _ ___ _ _ ___ _ _ ___ _ _ 
 72
    65
 73
     6
 40
1.25
 49
0.625
 74
     0
 49
-0.125
 74
     0
 49
0.125
 74
     0
 49
-0.125
 74
     0
 49
0.125
 74
     0
 49
-0.125
 74
     0
  0
LTYPE
  5
39
330
5
100
AcDbSymbolTableRecord
100
AcDbLinetypeTableRecord
  2
PHANTOMX2
 70
     0
  3
___ _ _ ___ _ _ ___ _ _ ___ _ _ 
 72
    65
 73
     6
 40
5.0
 49
2.5
 74
     0
 49
-0.5
 74
     0
 49
0.5
 74
     0
 49
-0.5
 74
     0
 49
0.5
 74
     0
 49
-0.5
 74
     0
  0
ENDTAB
  0
TABLE
  2
LAYER
  5
2
330
0
100
AcDbSymbolTable
 70
   256
  0
LAYER
  5
10
330
2
100
AcDbSymbolTableRecord
100
AcDbLayerTableRecord
  2
0
 70
     0
 62
     7
  6
CONTINUOUS
  0
LAYER
  5
3A
330
2
100
AcDbSymbolTableRecord
100
AcDbLayerTableRecord
  2
1
 70
     0
 62
     1
  6
CONTINUOUS
  0
LAYER
  5
3B
330
2
100
AcDbSymbolTableRecord
100
AcDbLayerTableRecord
  2
2
 70
     0
 62
     2
  6
CONTINUOUS
  0
LAYER
  5
3C
330
2
100
AcDbSymbolTableRecord
100
AcDbLayerTableRecord
  2
3
 70
     0
 62
     3
  6
CONTINUOUS
  0
LAYER
  5
3D
330
2
100
AcDbSymbolTableRecord
100
AcDbLayerTableRecord
  2
4
 70
     0
 62
     4
  6
CONTINUOUS
  0
LAYER
  5
3E
330
2
100
AcDbSymbolTableRecord
100
AcDbLayerTableRecord
  2
5
 70
     0
 62
     5
  6
CONTINUOUS
  0
LAYER
  5
3F
330
2
100
AcDbSymbolTableRecord
100
AcDbLayerTableRecord
  2
6
 70
     0
 62
     6
  6
CONTINUOUS
  0
LAYER
  5
40
330
2
100
AcDbSymbolTableRecord
100
AcDbLayerTableRecord
  2
7
 70
     0
 62
     7
  6
CONTINUOUS
  0
LAYER
  5
41
330
2
100
AcDbSymbolTableRecord
100
AcDbLayerTableRecord
  2
8
 70
     0
 62
     8
  6
CONTINUOUS
  0
LAYER
  5
42
330
2
100
AcDbSymbolTableRecord
100
AcDbLayerTableRecord
  2
9
 70
     0
 62
     9
  6
CONTINUOUS
  0
LAYER
  5
43
330
2
100
AcDbSymbolTableRecord
100
AcDbLayerTableRecord
  2
10
 70
     0
 62
    10
  6
CONTINUOUS
  0
LAYER
  5
44
330
2
100
AcDbSymbolTableRecord
100
AcDbLayerTableRecord
  2
11
 70
     0
 62
    11
  6
CONTINUOUS
  0
LAYER
  5
45
330
2
100
AcDbSymbolTableRecord
100
AcDbLayerTableRecord
  2
12
 70
     0
 62
    12
  6
CONTINUOUS
  0
LAYER
  5
46
330
2
100
AcDbSymbolTableRecord
100
AcDbLayerTableRecord
  2
13
 70
     0
 62
    13
  6
CONTINUOUS
  0
LAYER
  5
47
330
2
100
AcDbSymbolTableRecord
100
AcDbLayerTableRecord
  2
14
 70
     0
 62
    14
  6
CONTINUOUS
  0
LAYER
  5
48
330
2
100
AcDbSymbolTableRecord
100
AcDbLayerTableRecord
  2
15
 70
     0
 62
    15
  6
CONTINUOUS
  0
LAYER
  5
49
330
2
100
AcDbSymbolTableRecord
100
AcDbLayerTableRecord
  2
16
 70
     0
 62
    16
  6
CONTINUOUS
  0
LAYER
  5
4A
330
2
100
AcDbSymbolTableRecord
100
AcDbLayerTableRecord
  2
17
 70
     0
 62
    17
  6
CONTINUOUS
  0
LAYER
  5
4B
330
2
100
AcDbSymbolTableRecord
100
AcDbLayerTableRecord
  2
18
 70
     0
 62
    18
  6
CONTINUOUS
  0
LAYER
  5
4C
330
2
100
AcDbSymbolTableRecord
100
AcDbLayerTableRecord
  2
19
 70
     0
 62
    19
  6
CONTINUOUS
  0
LAYER
  5
4D
330
2
100
AcDbSymbolTableRecord
100
AcDbLayerTableRecord
  2
20
 70
     0
 62
    20
  6
CONTINUOUS
  0
LAYER
  5
4E
330
2
100
AcDbSymbolTableRecord
100
AcDbLayerTableRecord
  2
21
 70
     0
 62
    21
  6
CONTINUOUS
  0
LAYER
  5
4F
330
2
100
AcDbSymbolTableRecord
100
AcDbLayerTableRecord
  2
22
 70
     0
 62
    22
  6
CONTINUOUS
  0
LAYER
  5
50
330
2
100
AcDbSymbolTableRecord
100
AcDbLayerTableRecord
  2
23
 70
     0
 62
    23
  6
CONTINUOUS
  0
LAYER
  5
51
330
2
100
AcDbSymbolTableRecord
100
AcDbLayerTableRecord
  2
24
 70
     0
 62
    24
  6
CONTINUOUS
  0
LAYER
  5
52
330
2
100
AcDbSymbolTableRecord
100
AcDbLayerTableRecord
  2
25
 70
     0
 62
    25
  6
CONTINUOUS
  0
LAYER
  5
53
330
2
100
AcDbSymbolTableRecord
100
AcDbLayerTableRecord
  2
26
 70
     0
 62
    26
  6
CONTINUOUS
  0
LAYER
  5
54
330
2
100
AcDbSymbolTableRecord
100
AcDbLayerTableRecord
  2
27
 70
     0
 62
    27
  6
CONTINUOUS
  0
LAYER
  5
55
330
2
100
AcDbSymbolTableRecord
100
AcDbLayerTableRecord
  2
28
 70
     0
 62
    28
  6
CONTINUOUS
  0
LAYER
  5
56
330
2
100
AcDbSymbolTableRecord
100
AcDbLayerTableRecord
  2
29
 70
     0
 62
    29
  6
CONTINUOUS
  0
LAYER
  5
57
330
2
100
AcDbSymbolTableRecord
100
AcDbLayerTableRecord
  2
30
 70
     0
 62
    30
  6
CONTINUOUS
  0
LAYER
  5
58
330
2
100
AcDbSymbolTableRecord
100
AcDbLayerTableRecord
  2
31
 70
     0
 62
    31
  6
CONTINUOUS
  0
LAYER
  5
59
330
2
100
AcDbSymbolTableRecord
100
AcDbLayerTableRecord
  2
32
 70
     0
 62
    32
  6
CONTINUOUS
  0
LAYER
  5
5A
330
2
100
AcDbSymbolTableRecord
100
AcDbLayerTableRecord
  2
33
 70
     0
 62
    33
  6
CONTINUOUS
  0
LAYER
  5
5B
330
2
100
AcDbSymbolTableRecord
100
AcDbLayerTableRecord
  2
34
 70
     0
 62
    34
  6
CONTINUOUS
  0
LAYER
  5
5C
330
2
100
AcDbSymbolTableRecord
100
AcDbLayerTableRecord
  2
35
 70
     0
 62
    35
  6
CONTINUOUS
  0
LAYER
  5
5D
330
2
100
AcDbSymbolTableRecord
100
AcDbLayerTableRecord
  2
36
 70
     0
 62
    36
  6
CONTINUOUS
  0
LAYER
  5
5E
330
2
100
AcDbSymbolTableRecord
100
AcDbLayerTableRecord
  2
37
 70
     0
 62
    37
  6
CONTINUOUS
  0
LAYER
  5
5F
330
2
100
AcDbSymbolTableRecord
100
AcDbLayerTableRecord
  2
38
 70
     0
 62
    38
  6
CONTINUOUS
  0
LAYER
  5
60
330
2
100
AcDbSymbolTableRecord
100
AcDbLayerTableRecord
  2
39
 70
     0
 62
    39
  6
CONTINUOUS
  0
LAYER
  5
61
330
2
100
AcDbSymbolTableRecord
100
AcDbLayerTableRecord
  2
40
 70
     0
 62
    40
  6
CONTINUOUS
  0
LAYER
  5
62
330
2
100
AcDbSymbolTableRecord
100
AcDbLayerTableRecord
  2
41
 70
     0
 62
    41
  6
CONTINUOUS
  0
LAYER
  5
63
330
2
100
AcDbSymbolTableRecord
100
AcDbLayerTableRecord
  2
42
 70
     0
 62
    42
  6
CONTINUOUS
  0
LAYER
  5
64
330
2
100
AcDbSymbolTableRecord
100
AcDbLayerTableRecord
  2
43
 70
     0
 62
    43
  6
CONTINUOUS
  0
LAYER
  5
65
330
2
100
AcDbSymbolTableRecord
100
AcDbLayerTableRecord
  2
44
 70
     0
 62
    44
  6
CONTINUOUS
  0
LAYER
  5
66
330
2
100
AcDbSymbolTableRecord
100
AcDbLayerTableRecord
  2
45
 70
     0
 62
    45
  6
CONTINUOUS
  0
LAYER
  5
67
330
2
100
AcDbSymbolTableRecord
100
AcDbLayerTableRecord
  2
46
 70
     0
 62
    46
  6
CONTINUOUS
  0
LAYER
  5
68
330
2
100
AcDbSymbolTableRecord
100
AcDbLayerTableRecord
  2
47
 70
     0
 62
    47
  6
CONTINUOUS
  0
LAYER
  5
69
330
2
100
AcDbSymbolTableRecord
100
AcDbLayerTableRecord
  2
48
 70
     0
 62
    48
  6
CONTINUOUS
  0
LAYER
  5
6A
330
2
100
AcDbSymbolTableRecord
100
AcDbLayerTableRecord
  2
49
 70
     0
 62
    49
  6
CONTINUOUS
  0
LAYER
  5
6B
330
2
100
AcDbSymbolTableRecord
100
AcDbLayerTableRecord
  2
50
 70
     0
 62
    50
  6
CONTINUOUS
  0
LAYER
  5
6C
330
2
100
AcDbSymbolTableRecord
100
AcDbLayerTableRecord
  2
51
 70
     0
 62
    51
  6
CONTINUOUS
  0
LAYER
  5
6D
330
2
100
AcDbSymbolTableRecord
100
AcDbLayerTableRecord
  2
52
 70
     0
 62
    52
  6
CONTINUOUS
  0
LAYER
  5
6E
330
2
100
AcDbSymbolTableRecord
100
AcDbLayerTableRecord
  2
53
 70
     0
 62
    53
  6
CONTINUOUS
  0
LAYER
  5
6F
330
2
100
AcDbSymbolTableRecord
100
AcDbLayerTableRecord
  2
54
 70
     0
 62
    54
  6
CONTINUOUS
  0
LAYER
  5
70
330
2
100
AcDbSymbolTableRecord
100
AcDbLayerTableRecord
  2
55
 70
     0
 62
    55
  6
CONTINUOUS
  0
LAYER
  5
71
330
2
100
AcDbSymbolTableRecord
100
AcDbLayerTableRecord
  2
56
 70
     0
 62
    56
  6
CONTINUOUS
  0
LAYER
  5
72
330
2
100
AcDbSymbolTableRecord
100
AcDbLayerTableRecord
  2
57
 70
     0
 62
    57
  6
CONTINUOUS
  0
LAYER
  5
73
330
2
100
AcDbSymbolTableRecord
100
AcDbLayerTableRecord
  2
58
 70
     0
 62
    58
  6
CONTINUOUS
  0
LAYER
  5
74
330
2
100
AcDbSymbolTableRecord
100
AcDbLayerTableRecord
  2
59
 70
     0
 62
    59
  6
CONTINUOUS
  0
LAYER
  5
75
330
2
100
AcDbSymbolTableRecord
100
AcDbLayerTableRecord
  2
60
 70
     0
 62
    60
  6
CONTINUOUS
  0
LAYER
  5
76
330
2
100
AcDbSymbolTableRecord
100
AcDbLayerTableRecord
  2
61
 70
     0
 62
    61
  6
CONTINUOUS
  0
LAYER
  5
77
330
2
100
AcDbSymbolTableRecord
100
AcDbLayerTableRecord
  2
62
 70
     0
 62
    62
  6
CONTINUOUS
  0
LAYER
  5
78
330
2
100
AcDbSymbolTableRecord
100
AcDbLayerTableRecord
  2
63
 70
     0
 62
    63
  6
CONTINUOUS
  0
LAYER
  5
79
330
2
100
AcDbSymbolTableRecord
100
AcDbLayerTableRecord
  2
64
 70
     0
 62
    64
  6
CONTINUOUS
  0
LAYER
  5
7A
330
2
100
AcDbSymbolTableRecord
100
AcDbLayerTableRecord
  2
65
 70
     0
 62
    65
  6
CONTINUOUS
  0
LAYER
  5
7B
330
2
100
AcDbSymbolTableRecord
100
AcDbLayerTableRecord
  2
66
 70
     0
 62
    66
  6
CONTINUOUS
  0
LAYER
  5
7C
330
2
100
AcDbSymbolTableRecord
100
AcDbLayerTableRecord
  2
67
 70
     0
 62
    67
  6
CONTINUOUS
  0
LAYER
  5
7D
330
2
100
AcDbSymbolTableRecord
100
AcDbLayerTableRecord
  2
68
 70
     0
 62
    68
  6
CONTINUOUS
  0
LAYER
  5
7E
330
2
100
AcDbSymbolTableRecord
100
AcDbLayerTableRecord
  2
69
 70
     0
 62
    69
  6
CONTINUOUS
  0
LAYER
  5
7F
330
2
100
AcDbSymbolTableRecord
100
AcDbLayerTableRecord
  2
70
 70
     0
 62
    70
  6
CONTINUOUS
  0
LAYER
  5
80
330
2
100
AcDbSymbolTableRecord
100
AcDbLayerTableRecord
  2
71
 70
     0
 62
    71
  6
CONTINUOUS
  0
LAYER
  5
81
330
2
100
AcDbSymbolTableRecord
100
AcDbLayerTableRecord
  2
72
 70
     0
 62
    72
  6
CONTINUOUS
  0
LAYER
  5
82
330
2
100
AcDbSymbolTableRecord
100
AcDbLayerTableRecord
  2
73
 70
     0
 62
    73
  6
CONTINUOUS
  0
LAYER
  5
83
330
2
100
AcDbSymbolTableRecord
100
AcDbLayerTableRecord
  2
74
 70
     0
 62
    74
  6
CONTINUOUS
  0
LAYER
  5
84
330
2
100
AcDbSymbolTableRecord
100
AcDbLayerTableRecord
  2
75
 70
     0
 62
    75
  6
CONTINUOUS
  0
LAYER
  5
85
330
2
100
AcDbSymbolTableRecord
100
AcDbLayerTableRecord
  2
76
 70
     0
 62
    76
  6
CONTINUOUS
  0
LAYER
  5
86
330
2
100
AcDbSymbolTableRecord
100
AcDbLayerTableRecord
  2
77
 70
     0
 62
    77
  6
CONTINUOUS
  0
LAYER
  5
87
330
2
100
AcDbSymbolTableRecord
100
AcDbLayerTableRecord
  2
78
 70
     0
 62
    78
  6
CONTINUOUS
  0
LAYER
  5
88
330
2
100
AcDbSymbolTableRecord
100
AcDbLayerTableRecord
  2
79
 70
     0
 62
    79
  6
CONTINUOUS
  0
LAYER
  5
89
330
2
100
AcDbSymbolTableRecord
100
AcDbLayerTableRecord
  2
80
 70
     0
 62
    80
  6
CONTINUOUS
  0
LAYER
  5
8A
330
2
100
AcDbSymbolTableRecord
100
AcDbLayerTableRecord
  2
81
 70
     0
 62
    81
  6
CONTINUOUS
  0
LAYER
  5
8B
330
2
100
AcDbSymbolTableRecord
100
AcDbLayerTableRecord
  2
82
 70
     0
 62
    82
  6
CONTINUOUS
  0
LAYER
  5
8C
330
2
100
AcDbSymbolTableRecord
100
AcDbLayerTableRecord
  2
83
 70
     0
 62
    83
  6
CONTINUOUS
  0
LAYER
  5
8D
330
2
100
AcDbSymbolTableRecord
100
AcDbLayerTableRecord
  2
84
 70
     0
 62
    84
  6
CONTINUOUS
  0
LAYER
  5
8E
330
2
100
AcDbSymbolTableRecord
100
AcDbLayerTableRecord
  2
85
 70
     0
 62
    85
  6
CONTINUOUS
  0
LAYER
  5
8F
330
2
100
AcDbSymbolTableRecord
100
AcDbLayerTableRecord
  2
86
 70
     0
 62
    86
  6
CONTINUOUS
  0
LAYER
  5
90
330
2
100
AcDbSymbolTableRecord
100
AcDbLayerTableRecord
  2
87
 70
     0
 62
    87
  6
CONTINUOUS
  0
LAYER
  5
91
330
2
100
AcDbSymbolTableRecord
100
AcDbLayerTableRecord
  2
88
 70
     0
 62
    88
  6
CONTINUOUS
  0
LAYER
  5
92
330
2
100
AcDbSymbolTableRecord
100
AcDbLayerTableRecord
  2
89
 70
     0
 62
    89
  6
CONTINUOUS
  0
LAYER
  5
93
330
2
100
AcDbSymbolTableRecord
100
AcDbLayerTableRecord
  2
90
 70
     0
 62
    90
  6
CONTINUOUS
  0
LAYER
  5
94
330
2
100
AcDbSymbolTableRecord
100
AcDbLayerTableRecord
  2
91
 70
     0
 62
    91
  6
CONTINUOUS
  0
LAYER
  5
95
330
2
100
AcDbSymbolTableRecord
100
AcDbLayerTableRecord
  2
92
 70
     0
 62
    92
  6
CONTINUOUS
  0
LAYER
  5
96
330
2
100
AcDbSymbolTableRecord
100
AcDbLayerTableRecord
  2
93
 70
     0
 62
    93
  6
CONTINUOUS
  0
LAYER
  5
97
330
2
100
AcDbSymbolTableRecord
100
AcDbLayerTableRecord
  2
94
 70
     0
 62
    94
  6
CONTINUOUS
  0
LAYER
  5
98
330
2
100
AcDbSymbolTableRecord
100
AcDbLayerTableRecord
  2
95
 70
     0
 62
    95
  6
CONTINUOUS
  0
LAYER
  5
99
330
2
100
AcDbSymbolTableRecord
100
AcDbLayerTableRecord
  2
96
 70
     0
 62
    96
  6
CONTINUOUS
  0
LAYER
  5
9A
330
2
100
AcDbSymbolTableRecord
100
AcDbLayerTableRecord
  2
97
 70
     0
 62
    97
  6
CONTINUOUS
  0
LAYER
  5
9B
330
2
100
AcDbSymbolTableRecord
100
AcDbLayerTableRecord
  2
98
 70
     0
 62
    98
  6
CONTINUOUS
  0
LAYER
  5
9C
330
2
100
AcDbSymbolTableRecord
100
AcDbLayerTableRecord
  2
99
 70
     0
 62
    99
  6
CONTINUOUS
  0
LAYER
  5
9D
330
2
100
AcDbSymbolTableRecord
100
AcDbLayerTableRecord
  2
100
 70
     0
 62
   100
  6
CONTINUOUS
  0
LAYER
  5
9E
330
2
100
AcDbSymbolTableRecord
100
AcDbLayerTableRecord
  2
101
 70
     0
 62
   101
  6
CONTINUOUS
  0
LAYER
  5
9F
330
2
100
AcDbSymbolTableRecord
100
AcDbLayerTableRecord
  2
102
 70
     0
 62
   102
  6
CONTINUOUS
  0
LAYER
  5
A0
330
2
100
AcDbSymbolTableRecord
100
AcDbLayerTableRecord
  2
103
 70
     0
 62
   103
  6
CONTINUOUS
  0
LAYER
  5
A1
330
2
100
AcDbSymbolTableRecord
100
AcDbLayerTableRecord
  2
104
 70
     0
 62
   104
  6
CONTINUOUS
  0
LAYER
  5
A2
330
2
100
AcDbSymbolTableRecord
100
AcDbLayerTableRecord
  2
105
 70
     0
 62
   105
  6
CONTINUOUS
  0
LAYER
  5
A3
330
2
100
AcDbSymbolTableRecord
100
AcDbLayerTableRecord
  2
106
 70
     0
 62
   106
  6
CONTINUOUS
  0
LAYER
  5
A4
330
2
100
AcDbSymbolTableRecord
100
AcDbLayerTableRecord
  2
107
 70
     0
 62
   107
  6
CONTINUOUS
  0
LAYER
  5
A5
330
2
100
AcDbSymbolTableRecord
100
AcDbLayerTableRecord
  2
108
 70
     0
 62
   108
  6
CONTINUOUS
  0
LAYER
  5
A6
330
2
100
AcDbSymbolTableRecord
100
AcDbLayerTableRecord
  2
109
 70
     0
 62
   109
  6
CONTINUOUS
  0
LAYER
  5
A7
330
2
100
AcDbSymbolTableRecord
100
AcDbLayerTableRecord
  2
110
 70
     0
 62
   110
  6
CONTINUOUS
  0
LAYER
  5
A8
330
2
100
AcDbSymbolTableRecord
100
AcDbLayerTableRecord
  2
111
 70
     0
 62
   111
  6
CONTINUOUS
  0
LAYER
  5
A9
330
2
100
AcDbSymbolTableRecord
100
AcDbLayerTableRecord
  2
112
 70
     0
 62
   112
  6
CONTINUOUS
  0
LAYER
  5
AA
330
2
100
AcDbSymbolTableRecord
100
AcDbLayerTableRecord
  2
113
 70
     0
 62
   113
  6
CONTINUOUS
  0
LAYER
  5
AB
330
2
100
AcDbSymbolTableRecord
100
AcDbLayerTableRecord
  2
114
 70
     0
 62
   114
  6
CONTINUOUS
  0
LAYER
  5
AC
330
2
100
AcDbSymbolTableRecord
100
AcDbLayerTableRecord
  2
115
 70
     0
 62
   115
  6
CONTINUOUS
  0
LAYER
  5
AD
330
2
100
AcDbSymbolTableRecord
100
AcDbLayerTableRecord
  2
116
 70
     0
 62
   116
  6
CONTINUOUS
  0
LAYER
  5
AE
330
2
100
AcDbSymbolTableRecord
100
AcDbLayerTableRecord
  2
117
 70
     0
 62
   117
  6
CONTINUOUS
  0
LAYER
  5
AF
330
2
100
AcDbSymbolTableRecord
100
AcDbLayerTableRecord
  2
118
 70
     0
 62
   118
  6
CONTINUOUS
  0
LAYER
  5
B0
330
2
100
AcDbSymbolTableRecord
100
AcDbLayerTableRecord
  2
119
 70
     0
 62
   119
  6
CONTINUOUS
  0
LAYER
  5
B1
330
2
100
AcDbSymbolTableRecord
100
AcDbLayerTableRecord
  2
120
 70
     0
 62
   120
  6
CONTINUOUS
  0
LAYER
  5
B2
330
2
100
AcDbSymbolTableRecord
100
AcDbLayerTableRecord
  2
121
 70
     0
 62
   121
  6
CONTINUOUS
  0
LAYER
  5
B3
330
2
100
AcDbSymbolTableRecord
100
AcDbLayerTableRecord
  2
122
 70
     0
 62
   122
  6
CONTINUOUS
  0
LAYER
  5
B4
330
2
100
AcDbSymbolTableRecord
100
AcDbLayerTableRecord
  2
123
 70
     0
 62
   123
  6
CONTINUOUS
  0
LAYER
  5
B5
330
2
100
AcDbSymbolTableRecord
100
AcDbLayerTableRecord
  2
124
 70
     0
 62
   124
  6
CONTINUOUS
  0
LAYER
  5
B6
330
2
100
AcDbSymbolTableRecord
100
AcDbLayerTableRecord
  2
125
 70
     0
 62
   125
  6
CONTINUOUS
  0
LAYER
  5
B7
330
2
100
AcDbSymbolTableRecord
100
AcDbLayerTableRecord
  2
126
 70
     0
 62
   126
  6
CONTINUOUS
  0
LAYER
  5
B8
330
2
100
AcDbSymbolTableRecord
100
AcDbLayerTableRecord
  2
127
 70
     0
 62
   127
  6
CONTINUOUS
  0
LAYER
  5
B9
330
2
100
AcDbSymbolTableRecord
100
AcDbLayerTableRecord
  2
128
 70
     0
 62
   128
  6
CONTINUOUS
  0
LAYER
  5
BA
330
2
100
AcDbSymbolTableRecord
100
AcDbLayerTableRecord
  2
129
 70
     0
 62
   129
  6
CONTINUOUS
  0
LAYER
  5
BB
330
2
100
AcDbSymbolTableRecord
100
AcDbLayerTableRecord
  2
130
 70
     0
 62
   130
  6
CONTINUOUS
  0
LAYER
  5
BC
330
2
100
AcDbSymbolTableRecord
100
AcDbLayerTableRecord
  2
131
 70
     0
 62
   131
  6
CONTINUOUS
  0
LAYER
  5
BD
330
2
100
AcDbSymbolTableRecord
100
AcDbLayerTableRecord
  2
132
 70
     0
 62
   132
  6
CONTINUOUS
  0
LAYER
  5
BE
330
2
100
AcDbSymbolTableRecord
100
AcDbLayerTableRecord
  2
133
 70
     0
 62
   133
  6
CONTINUOUS
  0
LAYER
  5
BF
330
2
100
AcDbSymbolTableRecord
100
AcDbLayerTableRecord
  2
134
 70
     0
 62
   134
  6
CONTINUOUS
  0
LAYER
  5
C0
330
2
100
AcDbSymbolTableRecord
100
AcDbLayerTableRecord
  2
135
 70
     0
 62
   135
  6
CONTINUOUS
  0
LAYER
  5
C1
330
2
100
AcDbSymbolTableRecord
100
AcDbLayerTableRecord
  2
136
 70
     0
 62
   136
  6
CONTINUOUS
  0
LAYER
  5
C2
330
2
100
AcDbSymbolTableRecord
100
AcDbLayerTableRecord
  2
137
 70
     0
 62
   137
  6
CONTINUOUS
  0
LAYER
  5
C3
330
2
100
AcDbSymbolTableRecord
100
AcDbLayerTableRecord
  2
138
 70
     0
 62
   138
  6
CONTINUOUS
  0
LAYER
  5
C4
330
2
100
AcDbSymbolTableRecord
100
AcDbLayerTableRecord
  2
139
 70
     0
 62
   139
  6
CONTINUOUS
  0
LAYER
  5
C5
330
2
100
AcDbSymbolTableRecord
100
AcDbLayerTableRecord
  2
140
 70
     0
 62
   140
  6
CONTINUOUS
  0
LAYER
  5
C6
330
2
100
AcDbSymbolTableRecord
100
AcDbLayerTableRecord
  2
141
 70
     0
 62
   141
  6
CONTINUOUS
  0
LAYER
  5
C7
330
2
100
AcDbSymbolTableRecord
100
AcDbLayerTableRecord
  2
142
 70
     0
 62
   142
  6
CONTINUOUS
  0
LAYER
  5
C8
330
2
100
AcDbSymbolTableRecord
100
AcDbLayerTableRecord
  2
143
 70
     0
 62
   143
  6
CONTINUOUS
  0
LAYER
  5
C9
330
2
100
AcDbSymbolTableRecord
100
AcDbLayerTableRecord
  2
144
 70
     0
 62
   144
  6
CONTINUOUS
  0
LAYER
  5
CA
330
2
100
AcDbSymbolTableRecord
100
AcDbLayerTableRecord
  2
145
 70
     0
 62
   145
  6
CONTINUOUS
  0
LAYER
  5
CB
330
2
100
AcDbSymbolTableRecord
100
AcDbLayerTableRecord
  2
146
 70
     0
 62
   146
  6
CONTINUOUS
  0
LAYER
  5
CC
330
2
100
AcDbSymbolTableRecord
100
AcDbLayerTableRecord
  2
147
 70
     0
 62
   147
  6
CONTINUOUS
  0
LAYER
  5
CD
330
2
100
AcDbSymbolTableRecord
100
AcDbLayerTableRecord
  2
148
 70
     0
 62
   148
  6
CONTINUOUS
  0
LAYER
  5
CE
330
2
100
AcDbSymbolTableRecord
100
AcDbLayerTableRecord
  2
149
 70
     0
 62
   149
  6
CONTINUOUS
  0
LAYER
  5
CF
330
2
100
AcDbSymbolTableRecord
100
AcDbLayerTableRecord
  2
150
 70
     0
 62
   150
  6
CONTINUOUS
  0
LAYER
  5
D0
330
2
100
AcDbSymbolTableRecord
100
AcDbLayerTableRecord
  2
151
 70
     0
 62
   151
  6
CONTINUOUS
  0
LAYER
  5
D1
330
2
100
AcDbSymbolTableRecord
100
AcDbLayerTableRecord
  2
152
 70
     0
 62
   152
  6
CONTINUOUS
  0
LAYER
  5
D2
330
2
100
AcDbSymbolTableRecord
100
AcDbLayerTableRecord
  2
153
 70
     0
 62
   153
  6
CONTINUOUS
  0
LAYER
  5
D3
330
2
100
AcDbSymbolTableRecord
100
AcDbLayerTableRecord
  2
154
 70
     0
 62
   154
  6
CONTINUOUS
  0
LAYER
  5
D4
330
2
100
AcDbSymbolTableRecord
100
AcDbLayerTableRecord
  2
155
 70
     0
 62
   155
  6
CONTINUOUS
  0
LAYER
  5
D5
330
2
100
AcDbSymbolTableRecord
100
AcDbLayerTableRecord
  2
156
 70
     0
 62
   156
  6
CONTINUOUS
  0
LAYER
  5
D6
330
2
100
AcDbSymbolTableRecord
100
AcDbLayerTableRecord
  2
157
 70
     0
 62
   157
  6
CONTINUOUS
  0
LAYER
  5
D7
330
2
100
AcDbSymbolTableRecord
100
AcDbLayerTableRecord
  2
158
 70
     0
 62
   158
  6
CONTINUOUS
  0
LAYER
  5
D8
330
2
100
AcDbSymbolTableRecord
100
AcDbLayerTableRecord
  2
159
 70
     0
 62
   159
  6
CONTINUOUS
  0
LAYER
  5
D9
330
2
100
AcDbSymbolTableRecord
100
AcDbLayerTableRecord
  2
160
 70
     0
 62
   160
  6
CONTINUOUS
  0
LAYER
  5
DA
330
2
100
AcDbSymbolTableRecord
100
AcDbLayerTableRecord
  2
161
 70
     0
 62
   161
  6
CONTINUOUS
  0
LAYER
  5
DB
330
2
100
AcDbSymbolTableRecord
100
AcDbLayerTableRecord
  2
162
 70
     0
 62
   162
  6
CONTINUOUS
  0
LAYER
  5
DC
330
2
100
AcDbSymbolTableRecord
100
AcDbLayerTableRecord
  2
163
 70
     0
 62
   163
  6
CONTINUOUS
  0
LAYER
  5
DD
330
2
100
AcDbSymbolTableRecord
100
AcDbLayerTableRecord
  2
164
 70
     0
 62
   164
  6
CONTINUOUS
  0
LAYER
  5
DE
330
2
100
AcDbSymbolTableRecord
100
AcDbLayerTableRecord
  2
165
 70
     0
 62
   165
  6
CONTINUOUS
  0
LAYER
  5
DF
330
2
100
AcDbSymbolTableRecord
100
AcDbLayerTableRecord
  2
166
 70
     0
 62
   166
  6
CONTINUOUS
  0
LAYER
  5
E0
330
2
100
AcDbSymbolTableRecord
100
AcDbLayerTableRecord
  2
167
 70
     0
 62
   167
  6
CONTINUOUS
  0
LAYER
  5
E1
330
2
100
AcDbSymbolTableRecord
100
AcDbLayerTableRecord
  2
168
 70
     0
 62
   168
  6
CONTINUOUS
  0
LAYER
  5
E2
330
2
100
AcDbSymbolTableRecord
100
AcDbLayerTableRecord
  2
169
 70
     0
 62
   169
  6
CONTINUOUS
  0
LAYER
  5
E3
330
2
100
AcDbSymbolTableRecord
100
AcDbLayerTableRecord
  2
170
 70
     0
 62
   170
  6
CONTINUOUS
  0
LAYER
  5
E4
330
2
100
AcDbSymbolTableRecord
100
AcDbLayerTableRecord
  2
171
 70
     0
 62
   171
  6
CONTINUOUS
  0
LAYER
  5
E5
330
2
100
AcDbSymbolTableRecord
100
AcDbLayerTableRecord
  2
172
 70
     0
 62
   172
  6
CONTINUOUS
  0
LAYER
  5
E6
330
2
100
AcDbSymbolTableRecord
100
AcDbLayerTableRecord
  2
173
 70
     0
 62
   173
  6
CONTINUOUS
  0
LAYER
  5
E7
330
2
100
AcDbSymbolTableRecord
100
AcDbLayerTableRecord
  2
174
 70
     0
 62
   174
  6
CONTINUOUS
  0
LAYER
  5
E8
330
2
100
AcDbSymbolTableRecord
100
AcDbLayerTableRecord
  2
175
 70
     0
 62
   175
  6
CONTINUOUS
  0
LAYER
  5
E9
330
2
100
AcDbSymbolTableRecord
100
AcDbLayerTableRecord
  2
176
 70
     0
 62
   176
  6
CONTINUOUS
  0
LAYER
  5
EA
330
2
100
AcDbSymbolTableRecord
100
AcDbLayerTableRecord
  2
177
 70
     0
 62
   177
  6
CONTINUOUS
  0
LAYER
  5
EB
330
2
100
AcDbSymbolTableRecord
100
AcDbLayerTableRecord
  2
178
 70
     0
 62
   178
  6
CONTINUOUS
  0
LAYER
  5
EC
330
2
100
AcDbSymbolTableRecord
100
AcDbLayerTableRecord
  2
179
 70
     0
 62
   179
  6
CONTINUOUS
  0
LAYER
  5
ED
330
2
100
AcDbSymbolTableRecord
100
AcDbLayerTableRecord
  2
180
 70
     0
 62
   180
  6
CONTINUOUS
  0
LAYER
  5
EE
330
2
100
AcDbSymbolTableRecord
100
AcDbLayerTableRecord
  2
181
 70
     0
 62
   181
  6
CONTINUOUS
  0
LAYER
  5
EF
330
2
100
AcDbSymbolTableRecord
100
AcDbLayerTableRecord
  2
182
 70
     0
 62
   182
  6
CONTINUOUS
  0
LAYER
  5
F0
330
2
100
AcDbSymbolTableRecord
100
AcDbLayerTableRecord
  2
183
 70
     0
 62
   183
  6
CONTINUOUS
  0
LAYER
  5
F1
330
2
100
AcDbSymbolTableRecord
100
AcDbLayerTableRecord
  2
184
 70
     0
 62
   184
  6
CONTINUOUS
  0
LAYER
  5
F2
330
2
100
AcDbSymbolTableRecord
100
AcDbLayerTableRecord
  2
185
 70
     0
 62
   185
  6
CONTINUOUS
  0
LAYER
  5
F3
330
2
100
AcDbSymbolTableRecord
100
AcDbLayerTableRecord
  2
186
 70
     0
 62
   186
  6
CONTINUOUS
  0
LAYER
  5
F4
330
2
100
AcDbSymbolTableRecord
100
AcDbLayerTableRecord
  2
187
 70
     0
 62
   187
  6
CONTINUOUS
  0
LAYER
  5
F5
330
2
100
AcDbSymbolTableRecord
100
AcDbLayerTableRecord
  2
188
 70
     0
 62
   188
  6
CONTINUOUS
  0
LAYER
  5
F6
330
2
100
AcDbSymbolTableRecord
100
AcDbLayerTableRecord
  2
189
 70
     0
 62
   189
  6
CONTINUOUS
  0
LAYER
  5
F7
330
2
100
AcDbSymbolTableRecord
100
AcDbLayerTableRecord
  2
190
 70
     0
 62
   190
  6
CONTINUOUS
  0
LAYER
  5
F8
330
2
100
AcDbSymbolTableRecord
100
AcDbLayerTableRecord
  2
191
 70
     0
 62
   191
  6
CONTINUOUS
  0
LAYER
  5
F9
330
2
100
AcDbSymbolTableRecord
100
AcDbLayerTableRecord
  2
192
 70
     0
 62
   192
  6
CONTINUOUS
  0
LAYER
  5
FA
330
2
100
AcDbSymbolTableRecord
100
AcDbLayerTableRecord
  2
193
 70
     0
 62
   193
  6
CONTINUOUS
  0
LAYER
  5
FB
330
2
100
AcDbSymbolTableRecord
100
AcDbLayerTableRecord
  2
194
 70
     0
 62
   194
  6
CONTINUOUS
  0
LAYER
  5
FC
330
2
100
AcDbSymbolTableRecord
100
AcDbLayerTableRecord
  2
195
 70
     0
 62
   195
  6
CONTINUOUS
  0
LAYER
  5
FD
330
2
100
AcDbSymbolTableRecord
100
AcDbLayerTableRecord
  2
196
 70
     0
 62
   196
  6
CONTINUOUS
  0
LAYER
  5
FE
330
2
100
AcDbSymbolTableRecord
100
AcDbLayerTableRecord
  2
197
 70
     0
 62
   197
  6
CONTINUOUS
  0
LAYER
  5
FF
330
2
100
AcDbSymbolTableRecord
100
AcDbLayerTableRecord
  2
198
 70
     0
 62
   198
  6
CONTINUOUS
  0
LAYER
  5
100
330
2
100
AcDbSymbolTableRecord
100
AcDbLayerTableRecord
  2
199
 70
     0
 62
   199
  6
CONTINUOUS
  0
LAYER
  5
101
330
2
100
AcDbSymbolTableRecord
100
AcDbLayerTableRecord
  2
200
 70
     0
 62
   200
  6
CONTINUOUS
  0
LAYER
  5
102
330
2
100
AcDbSymbolTableRecord
100
AcDbLayerTableRecord
  2
201
 70
     0
 62
   201
  6
CONTINUOUS
  0
LAYER
  5
103
330
2
100
AcDbSymbolTableRecord
100
AcDbLayerTableRecord
  2
202
 70
     0
 62
   202
  6
CONTINUOUS
  0
LAYER
  5
104
330
2
100
AcDbSymbolTableRecord
100
AcDbLayerTableRecord
  2
203
 70
     0
 62
   203
  6
CONTINUOUS
  0
LAYER
  5
105
330
2
100
AcDbSymbolTableRecord
100
AcDbLayerTableRecord
  2
204
 70
     0
 62
   204
  6
CONTINUOUS
  0
LAYER
  5
106
330
2
100
AcDbSymbolTableRecord
100
AcDbLayerTableRecord
  2
205
 70
     0
 62
   205
  6
CONTINUOUS
  0
LAYER
  5
107
330
2
100
AcDbSymbolTableRecord
100
AcDbLayerTableRecord
  2
206
 70
     0
 62
   206
  6
CONTINUOUS
  0
LAYER
  5
108
330
2
100
AcDbSymbolTableRecord
100
AcDbLayerTableRecord
  2
207
 70
     0
 62
   207
  6
CONTINUOUS
  0
LAYER
  5
109
330
2
100
AcDbSymbolTableRecord
100
AcDbLayerTableRecord
  2
208
 70
     0
 62
   208
  6
CONTINUOUS
  0
LAYER
  5
10A
330
2
100
AcDbSymbolTableRecord
100
AcDbLayerTableRecord
  2
209
 70
     0
 62
   209
  6
CONTINUOUS
  0
LAYER
  5
10B
330
2
100
AcDbSymbolTableRecord
100
AcDbLayerTableRecord
  2
210
 70
     0
 62
   210
  6
CONTINUOUS
  0
LAYER
  5
10C
330
2
100
AcDbSymbolTableRecord
100
AcDbLayerTableRecord
  2
211
 70
     0
 62
   211
  6
CONTINUOUS
  0
LAYER
  5
10D
330
2
100
AcDbSymbolTableRecord
100
AcDbLayerTableRecord
  2
212
 70
     0
 62
   212
  6
CONTINUOUS
  0
LAYER
  5
10E
330
2
100
AcDbSymbolTableRecord
100
AcDbLayerTableRecord
  2
213
 70
     0
 62
   213
  6
CONTINUOUS
  0
LAYER
  5
10F
330
2
100
AcDbSymbolTableRecord
100
AcDbLayerTableRecord
  2
214
 70
     0
 62
   214
  6
CONTINUOUS
  0
LAYER
  5
110
330
2
100
AcDbSymbolTableRecord
100
AcDbLayerTableRecord
  2
215
 70
     0
 62
   215
  6
CONTINUOUS
  0
LAYER
  5
111
330
2
100
AcDbSymbolTableRecord
100
AcDbLayerTableRecord
  2
216
 70
     0
 62
   216
  6
CONTINUOUS
  0
LAYER
  5
112
330
2
100
AcDbSymbolTableRecord
100
AcDbLayerTableRecord
  2
217
 70
     0
 62
   217
  6
CONTINUOUS
  0
LAYER
  5
113
330
2
100
AcDbSymbolTableRecord
100
AcDbLayerTableRecord
  2
218
 70
     0
 62
   218
  6
CONTINUOUS
  0
LAYER
  5
114
330
2
100
AcDbSymbolTableRecord
100
AcDbLayerTableRecord
  2
219
 70
     0
 62
   219
  6
CONTINUOUS
  0
LAYER
  5
115
330
2
100
AcDbSymbolTableRecord
100
AcDbLayerTableRecord
  2
220
 70
     0
 62
   220
  6
CONTINUOUS
  0
LAYER
  5
116
330
2
100
AcDbSymbolTableRecord
100
AcDbLayerTableRecord
  2
221
 70
     0
 62
   221
  6
CONTINUOUS
  0
LAYER
  5
117
330
2
100
AcDbSymbolTableRecord
100
AcDbLayerTableRecord
  2
222
 70
     0
 62
   222
  6
CONTINUOUS
  0
LAYER
  5
118
330
2
100
AcDbSymbolTableRecord
100
AcDbLayerTableRecord
  2
223
 70
     0
 62
   223
  6
CONTINUOUS
  0
LAYER
  5
119
330
2
100
AcDbSymbolTableRecord
100
AcDbLayerTableRecord
  2
224
 70
     0
 62
   224
  6
CONTINUOUS
  0
LAYER
  5
11A
330
2
100
AcDbSymbolTableRecord
100
AcDbLayerTableRecord
  2
225
 70
     0
 62
   225
  6
CONTINUOUS
  0
LAYER
  5
11B
330
2
100
AcDbSymbolTableRecord
100
AcDbLayerTableRecord
  2
226
 70
     0
 62
   226
  6
CONTINUOUS
  0
LAYER
  5
11C
330
2
100
AcDbSymbolTableRecord
100
AcDbLayerTableRecord
  2
227
 70
     0
 62
   227
  6
CONTINUOUS
  0
LAYER
  5
11D
330
2
100
AcDbSymbolTableRecord
100
AcDbLayerTableRecord
  2
228
 70
     0
 62
   228
  6
CONTINUOUS
  0
LAYER
  5
11E
330
2
100
AcDbSymbolTableRecord
100
AcDbLayerTableRecord
  2
229
 70
     0
 62
   229
  6
CONTINUOUS
  0
LAYER
  5
11F
330
2
100
AcDbSymbolTableRecord
100
AcDbLayerTableRecord
  2
230
 70
     0
 62
   230
  6
CONTINUOUS
  0
LAYER
  5
120
330
2
100
AcDbSymbolTableRecord
100
AcDbLayerTableRecord
  2
231
 70
     0
 62
   231
  6
CONTINUOUS
  0
LAYER
  5
121
330
2
100
AcDbSymbolTableRecord
100
AcDbLayerTableRecord
  2
232
 70
     0
 62
   232
  6
CONTINUOUS
  0
LAYER
  5
122
330
2
100
AcDbSymbolTableRecord
100
AcDbLayerTableRecord
  2
233
 70
     0
 62
   233
  6
CONTINUOUS
  0
LAYER
  5
123
330
2
100
AcDbSymbolTableRecord
100
AcDbLayerTableRecord
  2
234
 70
     0
 62
   234
  6
CONTINUOUS
  0
LAYER
  5
124
330
2
100
AcDbSymbolTableRecord
100
AcDbLayerTableRecord
  2
235
 70
     0
 62
   235
  6
CONTINUOUS
  0
LAYER
  5
125
330
2
100
AcDbSymbolTableRecord
100
AcDbLayerTableRecord
  2
236
 70
     0
 62
   236
  6
CONTINUOUS
  0
LAYER
  5
126
330
2
100
AcDbSymbolTableRecord
100
AcDbLayerTableRecord
  2
237
 70
     0
 62
   237
  6
CONTINUOUS
  0
LAYER
  5
127
330
2
100
AcDbSymbolTableRecord
100
AcDbLayerTableRecord
  2
238
 70
     0
 62
   238
  6
CONTINUOUS
  0
LAYER
  5
128
330
2
100
AcDbSymbolTableRecord
100
AcDbLayerTableRecord
  2
239
 70
     0
 62
   239
  6
CONTINUOUS
  0
LAYER
  5
129
330
2
100
AcDbSymbolTableRecord
100
AcDbLayerTableRecord
  2
240
 70
     0
 62
   240
  6
CONTINUOUS
  0
LAYER
  5
12A
330
2
100
AcDbSymbolTableRecord
100
AcDbLayerTableRecord
  2
241
 70
     0
 62
   241
  6
CONTINUOUS
  0
LAYER
  5
12B
330
2
100
AcDbSymbolTableRecord
100
AcDbLayerTableRecord
  2
242
 70
     0
 62
   242
  6
CONTINUOUS
  0
LAYER
  5
12C
330
2
100
AcDbSymbolTableRecord
100
AcDbLayerTableRecord
  2
243
 70
     0
 62
   243
  6
CONTINUOUS
  0
LAYER
  5
12D
330
2
100
AcDbSymbolTableRecord
100
AcDbLayerTableRecord
  2
244
 70
     0
 62
   244
  6
CONTINUOUS
  0
LAYER
  5
12E
330
2
100
AcDbSymbolTableRecord
100
AcDbLayerTableRecord
  2
245
 70
     0
 62
   245
  6
CONTINUOUS
  0
LAYER
  5
12F
330
2
100
AcDbSymbolTableRecord
100
AcDbLayerTableRecord
  2
246
 70
     0
 62
   246
  6
CONTINUOUS
  0
LAYER
  5
130
330
2
100
AcDbSymbolTableRecord
100
AcDbLayerTableRecord
  2
247
 70
     0
 62
   247
  6
CONTINUOUS
  0
LAYER
  5
131
330
2
100
AcDbSymbolTableRecord
100
AcDbLayerTableRecord
  2
248
 70
     0
 62
   248
  6
CONTINUOUS
  0
LAYER
  5
132
330
2
100
AcDbSymbolTableRecord
100
AcDbLayerTableRecord
  2
249
 70
     0
 62
   249
  6
CONTINUOUS
  0
LAYER
  5
133
330
2
100
AcDbSymbolTableRecord
100
AcDbLayerTableRecord
  2
250
 70
     0
 62
   250
  6
CONTINUOUS
  0
LAYER
  5
134
330
2
100
AcDbSymbolTableRecord
100
AcDbLayerTableRecord
  2
251
 70
     0
 62
   251
  6
CONTINUOUS
  0
LAYER
  5
135
330
2
100
AcDbSymbolTableRecord
100
AcDbLayerTableRecord
  2
252
 70
     0
 62
   252
  6
CONTINUOUS
  0
LAYER
  5
136
330
2
100
AcDbSymbolTableRecord
100
AcDbLayerTableRecord
  2
253
 70
     0
 62
   253
  6
CONTINUOUS
  0
LAYER
  5
137
330
2
100
AcDbSymbolTableRecord
100
AcDbLayerTableRecord
  2
254
 70
     0
 62
   254
  6
CONTINUOUS
  0
LAYER
  5
138
330
2
100
AcDbSymbolTableRecord
100
AcDbLayerTableRecord
  2
255
 70
     0
 62
   255
  6
CONTINUOUS
  0
ENDTAB
  0
TABLE
  2
STYLE
  5
3
330
0
100
AcDbSymbolTable
 70
     1
  0
STYLE
  5
11
330
3
100
AcDbSymbolTableRecord
100
AcDbTextStyleTableRecord
  2
STANDARD
 70
     0
 40
0.0
 41
1.0
 50
0.0
 71
     0
 42
0.2
  3
monotxt
  4

  0
ENDTAB
  0
TABLE
  2
VIEW
  5
6
330
0
100
AcDbSymbolTable
 70
     0
  0
ENDTAB
  0
TABLE
  2
UCS
  5
7
330
0
100
AcDbSymbolTable
 70
     0
  0
ENDTAB
  0
TABLE
  2
APPID
  5
9
330
0
100
AcDbSymbolTable
 70
     1
  0
APPID
  5
12
330
9
100
AcDbSymbolTableRecord
100
AcDbRegAppTableRecord
  2
ACAD
 70
     0
  0
ENDTAB
  0
TABLE
  2
DIMSTYLE
  5
A
330
0
100
AcDbSymbolTable
 70
     1
  0
DIMSTYLE
105
3268
330
A
100
AcDbSymbolTableRecord
100
AcDbDimStyleTableRecord
  2
STANDARD
 70
     0
  3

  4

  5

  6

  7

 40
1.0
 41
0.18
 42
0.0625
 43
0.38
 44
0.18
 45
0.0
 46
0.0
 47
0.0
 48
0.0
140
0.18
141
0.09
142
0.0
143
25.4
144
1.0
145
0.0
146
1.0
147
0.09
 71
     0
 72
     0
 73
     1
 74
     1
 75
     0
 76
     0
 77
     0
 78
     0
170
     0
171
     2
172
     0
173
     0
174
     0
175
     0
176
     0
177
     0
178
     0
270
     2
271
     4
272
     4
273
     2
274
     2
340
11
275
     0
280
     0
281
     0
282
     0
283
     1
284
     0
285
     0
286
     0
287
     3
288
     0
  0
ENDTAB
  0
TABLE
  2
BLOCK_RECORD
  5
1
330
0
100
AcDbSymbolTable
 70
     0
  0
BLOCK_RECORD
  5
1E
102
{ACAD_XDICTIONARY
360
479A
102
}
330
1
100
AcDbSymbolTableRecord
100
AcDbBlockTableRecord
  2
*MODEL_SPACE
  0
BLOCK_RECORD
  5
1A
102
{ACAD_XDICTIONARY
360
4798
102
}
330
1
100
AcDbSymbolTableRecord
100
AcDbBlockTableRecord
  2
*PAPER_SPACE
  0
ENDTAB
  0
ENDSEC
  0
SECTION
  2
BLOCKS
  0
BLOCK
  5
13B
330
1E
100
AcDbEntity
  8
0
100
AcDbBlockBegin
  2
*MODEL_SPACE
 70
     0
 10
0.0
 20
0.0
 30
0.0
  3
*MODEL_SPACE
  1

  0
ENDBLK
  5
13C
330
1E
100
AcDbEntity
  8
0
100
AcDbBlockEnd
  0
BLOCK
  5
139
330
1A
100
AcDbEntity
 67
     1
  8
0
100
AcDbBlockBegin
  2
*PAPER_SPACE
 70
     0
 10
0.0
 20
0.0
 30
0.0
  3
*PAPER_SPACE
  1

  0
ENDBLK
  5
13A
330
1A
100
AcDbEntity
 67
     1
  8
0
100
AcDbBlockEnd
  0
ENDSEC
  0
SECTION
  2
ENTITIES
  0
LINE
  5
2634
330
1E
100
AcDbEntity
  8
7
100
AcDbLine
 10
2.478346456692913
 20
5.891732283464566
 30
0.0
 11
2.303149606299212
 21
5.891732283464566
 31
0.0
  0
LINE
  5
2635
330
1E
100
AcDbEntity
  8
7
100
AcDbLine
 10
3.246062992125984
 20
5.891732283464566
 30
0.0
 11
3.071850393700787
 21
5.891732283464566
 31
0.0
  0
LINE
  5
2636
330
1E
100
AcDbEntity
  8
7
100
AcDbLine
 10
3.070866141732283
 20
6.656496062992125
 30
0.0
 11
3.249015748031495
 21
6.656496062992125
 31
0.0
  0
LINE
  5
2637
330
1E
100
AcDbEntity
  8
7
100
AcDbLine
 10
2.301181102362204
 20
6.656496062992125
 30
0.0
 11
2.478346456692913
 21
6.656496062992125
 31
0.0
  0
LINE
  5
2638
330
1E
100
AcDbEntity
  8
7
100
AcDbLine
 10
3.807086614173228
 20
4.913385826771653
 30
0.0
 11
3.808070866141732
 21
4.894685039370078
 31
0.0
  0
LINE
  5
2639
330
1E
100
AcDbEntity
  8
7
100
AcDbLine
 10
3.698818897637795
 20
7.177165354330708
 30
0.0
 11
3.716535433070866
 21
7.195866141732283
 31
0.0
  0
LINE
  5
263A
330
1E
100
AcDbEntity
  8
7
100
AcDbLine
 10
3.87007874015748
 20
4.93996062992126
 30
0.0
 11
3.852362204724409
 21
4.948818897637795
 31
0.0
  0
LINE
  5
263B
330
1E
100
AcDbEntity
  8
7
100
AcDbLine
 10
3.469488188976377
 20
4.859251968503937
 30
0.0
 11
3.487204724409448
 21
4.876968503937007
 31
0.0
  0
LINE
  5
263C
330
1E
100
AcDbEntity
  8
7
100
AcDbLine
 10
3.808070866141732
 20
4.894685039370078
 30
0.0
 11
3.816929133858267
 21
4.869094488188975
 31
0.0
  0
LINE
  5
263D
330
1E
100
AcDbEntity
  8
7
100
AcDbLine
 10
3.977362204724409
 20
4.922244094488188
 30
0.0
 11
3.905511811023622
 21
4.876968503937007
 31
0.0
  0
LINE
  5
263E
330
1E
100
AcDbEntity
  8
7
100
AcDbLine
 10
3.513779527559055
 20
4.894685039370078
 30
0.0
 11
3.52263779527559
 21
4.869094488188975
 31
0.0
  0
LINE
  5
263F
330
1E
100
AcDbEntity
  8
7
100
AcDbLine
 10
3.246062992125984
 20
4.859251968503937
 30
0.0
 11
3.263779527559055
 21
4.859251968503937
 31
0.0
  0
LINE
  5
2640
330
1E
100
AcDbEntity
  8
7
100
AcDbLine
 10
3.977362204724409
 20
4.93996062992126
 30
0.0
 11
3.977362204724409
 21
4.922244094488188
 31
0.0
  0
LINE
  5
2641
330
1E
100
AcDbEntity
  8
7
100
AcDbLine
 10
1.853346456692913
 20
7.177165354330708
 30
0.0
 11
1.853346456692913
 21
7.266732283464566
 31
0.0
  0
LINE
  5
2642
330
1E
100
AcDbEntity
  8
7
100
AcDbLine
 10
1.754921259842519
 20
7.177165354330708
 30
0.0
 11
1.790354330708661
 21
7.266732283464566
 31
0.0
  0
LINE
  5
2643
330
1E
100
AcDbEntity
  8
7
100
AcDbLine
 10
2.280511811023622
 20
7.266732283464566
 30
0.0
 11
2.280511811023622
 21
7.177165354330708
 31
0.0
  0
LINE
  5
2644
330
1E
100
AcDbEntity
  8
7
100
AcDbLine
 10
2.003937007874015
 20
7.266732283464566
 30
0.0
 11
1.950787401574803
 21
7.266732283464566
 31
0.0
  0
LINE
  5
2645
330
1E
100
AcDbEntity
  8
7
100
AcDbLine
 10
3.291338582677165
 20
4.894685039370078
 30
0.0
 11
3.291338582677165
 21
4.913385826771653
 31
0.0
  0
LINE
  5
2646
330
1E
100
AcDbEntity
  8
7
100
AcDbLine
 10
2.101377952755905
 20
7.177165354330708
 30
0.0
 11
2.12007874015748
 21
7.195866141732283
 31
0.0
  0
LINE
  5
2647
330
1E
100
AcDbEntity
  8
7
100
AcDbLine
 10
3.743110236220472
 20
7.266732283464566
 30
0.0
 11
3.796259842519685
 21
7.266732283464566
 31
0.0
  0
LINE
  5
2648
330
1E
100
AcDbEntity
  8
7
100
AcDbLine
 10
3.834645669291338
 20
4.859251968503937
 30
0.0
 11
3.852362204724409
 21
4.859251968503937
 31
0.0
  0
LINE
  5
2649
330
1E
100
AcDbEntity
  8
7
100
AcDbLine
 10
3.342519685039369
 20
4.859251968503937
 30
0.0
 11
3.36515748031496
 21
4.859251968503937
 31
0.0
  0
LINE
  5
264A
330
1E
100
AcDbEntity
  8
7
100
AcDbLine
 10
3.246062992125984
 20
4.948818897637795
 30
0.0
 11
3.228346456692913
 21
4.93996062992126
 31
0.0
  0
LINE
  5
264B
330
1E
100
AcDbEntity
  8
7
100
AcDbLine
 10
3.487204724409448
 20
4.931102362204724
 30
0.0
 11
3.469488188976377
 21
4.948818897637795
 31
0.0
  0
LINE
  5
264C
330
1E
100
AcDbEntity
  8
7
100
AcDbLine
 10
3.698818897637795
 20
7.266732283464566
 30
0.0
 11
3.662401574803149
 21
7.266732283464566
 31
0.0
  0
LINE
  5
264D
330
1E
100
AcDbEntity
  8
7
100
AcDbLine
 10
3.58267716535433
 20
7.266732283464566
 30
0.0
 11
3.58267716535433
 21
7.177165354330708
 31
0.0
  0
LINE
  5
264E
330
1E
100
AcDbEntity
  8
7
100
AcDbLine
 10
3.879921259842519
 20
4.913385826771653
 30
0.0
 11
3.87007874015748
 21
4.93996062992126
 31
0.0
  0
LINE
  5
264F
330
1E
100
AcDbEntity
  8
7
100
AcDbLine
 10
3.906496062992125
 20
4.859251968503937
 30
0.0
 11
3.977362204724409
 21
4.859251968503937
 31
0.0
  0
LINE
  5
2650
330
1E
100
AcDbEntity
  8
7
100
AcDbLine
 10
3.683070866141732
 20
4.948818897637795
 30
0.0
 11
3.612204724409448
 21
4.948818897637795
 31
0.0
  0
LINE
  5
2651
330
1E
100
AcDbEntity
  8
7
100
AcDbLine
 10
1.853346456692913
 20
7.266732283464566
 30
0.0
 11
1.924212598425196
 21
7.177165354330708
 31
0.0
  0
LINE
  5
2652
330
1E
100
AcDbEntity
  8
7
100
AcDbLine
 10
2.02263779527559
 20
7.249015748031496
 30
0.0
 11
2.003937007874015
 21
7.266732283464566
 31
0.0
  0
LINE
  5
2653
330
1E
100
AcDbEntity
  8
7
100
AcDbLine
 10
2.049212598425196
 20
7.195866141732283
 30
0.0
 11
2.065944881889763
 21
7.177165354330708
 31
0.0
  0
LINE
  5
2654
330
1E
100
AcDbEntity
  8
7
100
AcDbLine
 10
1.950787401574803
 20
7.177165354330708
 30
0.0
 11
2.003937007874015
 21
7.177165354330708
 31
0.0
  0
LINE
  5
2655
330
1E
100
AcDbEntity
  8
7
100
AcDbLine
 10
2.065944881889763
 20
7.177165354330708
 30
0.0
 11
2.101377952755905
 21
7.177165354330708
 31
0.0
  0
LINE
  5
2656
330
1E
100
AcDbEntity
  8
7
100
AcDbLine
 10
1.950787401574803
 20
7.266732283464566
 30
0.0
 11
1.950787401574803
 21
7.177165354330708
 31
0.0
  0
LINE
  5
2657
330
1E
100
AcDbEntity
  8
7
100
AcDbLine
 10
3.469488188976377
 20
4.948818897637795
 30
0.0
 11
3.433070866141732
 21
4.948818897637795
 31
0.0
  0
LINE
  5
2658
330
1E
100
AcDbEntity
  8
7
100
AcDbLine
 10
3.716535433070866
 20
7.249015748031496
 30
0.0
 11
3.698818897637795
 21
7.266732283464566
 31
0.0
  0
LINE
  5
2659
330
1E
100
AcDbEntity
  8
7
100
AcDbLine
 10
3.228346456692913
 20
4.93996062992126
 30
0.0
 11
3.218503937007874
 21
4.913385826771653
 31
0.0
  0
LINE
  5
265A
330
1E
100
AcDbEntity
  8
7
100
AcDbLine
 10
3.834645669291338
 20
4.948818897637795
 30
0.0
 11
3.816929133858267
 21
4.93996062992126
 31
0.0
  0
LINE
  5
265B
330
1E
100
AcDbEntity
  8
7
100
AcDbLine
 10
3.51279527559055
 20
4.913385826771653
 30
0.0
 11
3.513779527559055
 21
4.894685039370078
 31
0.0
  0
LINE
  5
265C
330
1E
100
AcDbEntity
  8
7
100
AcDbLine
 10
3.558070866141732
 20
4.948818897637795
 30
0.0
 11
3.540354330708661
 21
4.948818897637795
 31
0.0
  0
LINE
  5
265D
330
1E
100
AcDbEntity
  8
7
100
AcDbLine
 10
3.469488188976377
 20
4.894685039370078
 30
0.0
 11
3.487204724409448
 21
4.913385826771653
 31
0.0
  0
LINE
  5
265E
330
1E
100
AcDbEntity
  8
7
100
AcDbLine
 10
3.487204724409448
 20
4.876968503937007
 30
0.0
 11
3.487204724409448
 21
4.931102362204724
 31
0.0
  0
LINE
  5
265F
330
1E
100
AcDbEntity
  8
7
100
AcDbLine
 10
3.415354330708661
 20
4.913385826771653
 30
0.0
 11
3.433070866141732
 21
4.894685039370078
 31
0.0
  0
LINE
  5
2660
330
1E
100
AcDbEntity
  8
7
100
AcDbLine
 10
2.003937007874015
 20
7.177165354330708
 30
0.0
 11
2.02263779527559
 21
7.195866141732283
 31
0.0
  0
LINE
  5
2661
330
1E
100
AcDbEntity
  8
7
100
AcDbLine
 10
3.281496062992125
 20
4.869094488188975
 30
0.0
 11
3.291338582677165
 21
4.894685039370078
 31
0.0
  0
LINE
  5
2662
330
1E
100
AcDbEntity
  8
7
100
AcDbLine
 10
1.709645669291338
 20
7.222440944881889
 30
0.0
 11
1.656496062992125
 21
7.222440944881889
 31
0.0
  0
LINE
  5
2663
330
1E
100
AcDbEntity
  8
7
100
AcDbLine
 10
2.173228346456693
 20
7.177165354330708
 30
0.0
 11
2.190944881889763
 21
7.177165354330708
 31
0.0
  0
LINE
  5
2669
330
1E
100
AcDbEntity
  8
7
100
AcDbLine
 10
3.416338582677165
 20
4.876968503937007
 30
0.0
 11
3.433070866141732
 21
4.859251968503937
 31
0.0
  0
LINE
  5
266A
330
1E
100
AcDbEntity
  8
7
100
AcDbLine
 10
3.852362204724409
 20
4.948818897637795
 30
0.0
 11
3.834645669291338
 21
4.948818897637795
 31
0.0
  0
LINE
  5
266B
330
1E
100
AcDbEntity
  8
7
100
AcDbLine
 10
3.585629921259842
 20
4.894685039370078
 30
0.0
 11
3.585629921259842
 21
4.913385826771653
 31
0.0
  0
LINE
  5
266C
330
1E
100
AcDbEntity
  8
7
100
AcDbLine
 10
3.416338582677165
 20
4.931102362204724
 30
0.0
 11
3.415354330708661
 21
4.913385826771653
 31
0.0
  0
LINE
  5
266D
330
1E
100
AcDbEntity
  8
7
100
AcDbLine
 10
3.879921259842519
 20
4.894685039370078
 30
0.0
 11
3.879921259842519
 21
4.913385826771653
 31
0.0
  0
LINE
  5
266E
330
1E
100
AcDbEntity
  8
7
100
AcDbLine
 10
3.716535433070866
 20
7.195866141732283
 30
0.0
 11
3.716535433070866
 21
7.249015748031496
 31
0.0
  0
LINE
  5
266F
330
1E
100
AcDbEntity
  8
7
100
AcDbLine
 10
3.433070866141732
 20
4.948818897637795
 30
0.0
 11
3.416338582677165
 21
4.931102362204724
 31
0.0
  0
LINE
  5
2670
330
1E
100
AcDbEntity
  8
7
100
AcDbLine
 10
3.638779527559055
 20
4.859251968503937
 30
0.0
 11
3.683070866141732
 21
4.948818897637795
 31
0.0
  0
LINE
  5
2671
330
1E
100
AcDbEntity
  8
7
100
AcDbLine
 10
3.816929133858267
 20
4.869094488188975
 30
0.0
 11
3.834645669291338
 21
4.859251968503937
 31
0.0
  0
LINE
  5
2672
330
1E
100
AcDbEntity
  8
7
100
AcDbLine
 10
3.433070866141732
 20
4.859251968503937
 30
0.0
 11
3.469488188976377
 21
4.859251968503937
 31
0.0
  0
LINE
  5
2673
330
1E
100
AcDbEntity
  8
7
100
AcDbLine
 10
1.790354330708661
 20
7.266732283464566
 30
0.0
 11
1.825787401574803
 21
7.177165354330708
 31
0.0
  0
LINE
  5
2679
330
1E
100
AcDbEntity
  8
7
100
AcDbLine
 10
3.743110236220472
 20
7.177165354330708
 30
0.0
 11
3.743110236220472
 21
7.266732283464566
 31
0.0
  0
LINE
  5
267A
330
1E
100
AcDbEntity
  8
7
100
AcDbLine
 10
3.558070866141732
 20
4.859251968503937
 30
0.0
 11
3.575787401574803
 21
4.869094488188975
 31
0.0
  0
LINE
  5
267B
330
1E
100
AcDbEntity
  8
7
100
AcDbLine
 10
3.662401574803149
 20
7.177165354330708
 30
0.0
 11
3.698818897637795
 21
7.177165354330708
 31
0.0
  0
LINE
  5
267C
330
1E
100
AcDbEntity
  8
7
100
AcDbLine
 10
3.852362204724409
 20
4.859251968503937
 30
0.0
 11
3.87007874015748
 21
4.869094488188975
 31
0.0
  0
LINE
  5
267D
330
1E
100
AcDbEntity
  8
7
100
AcDbLine
 10
3.662401574803149
 20
7.266732283464566
 30
0.0
 11
3.643700787401574
 21
7.249015748031496
 31
0.0
  0
LINE
  5
267E
330
1E
100
AcDbEntity
  8
7
100
AcDbLine
 10
3.906496062992125
 20
4.93996062992126
 30
0.0
 11
3.923228346456692
 21
4.948818897637795
 31
0.0
  0
LINE
  5
267F
330
1E
100
AcDbEntity
  8
7
100
AcDbLine
 10
3.433070866141732
 20
4.894685039370078
 30
0.0
 11
3.469488188976377
 21
4.894685039370078
 31
0.0
  0
LINE
  5
2680
330
1E
100
AcDbEntity
  8
7
100
AcDbLine
 10
3.575787401574803
 20
4.93996062992126
 30
0.0
 11
3.558070866141732
 21
4.948818897637795
 31
0.0
  0
LINE
  5
2681
330
1E
100
AcDbEntity
  8
7
100
AcDbLine
 10
3.219488188976377
 20
4.894685039370078
 30
0.0
 11
3.228346456692913
 21
4.869094488188975
 31
0.0
  0
LINE
  5
2682
330
1E
100
AcDbEntity
  8
7
100
AcDbLine
 10
3.218503937007874
 20
4.913385826771653
 30
0.0
 11
3.219488188976377
 21
4.894685039370078
 31
0.0
  0
LINE
  5
2683
330
1E
100
AcDbEntity
  8
7
100
AcDbLine
 10
3.281496062992125
 20
4.93996062992126
 30
0.0
 11
3.263779527559055
 21
4.948818897637795
 31
0.0
  0
LINE
  5
2684
330
1E
100
AcDbEntity
  8
7
100
AcDbLine
 10
1.710629921259842
 20
7.266732283464566
 30
0.0
 11
1.728346456692913
 21
7.257874015748031
 31
0.0
  0
LINE
  5
2685
330
1E
100
AcDbEntity
  8
7
100
AcDbLine
 10
2.316929133858267
 20
7.266732283464566
 30
0.0
 11
2.24507874015748
 21
7.266732283464566
 31
0.0
  0
LINE
  5
2686
330
1E
100
AcDbEntity
  8
7
100
AcDbLine
 10
1.924212598425196
 20
7.177165354330708
 30
0.0
 11
1.924212598425196
 21
7.266732283464566
 31
0.0
  0
LINE
  5
2687
330
1E
100
AcDbEntity
  8
7
100
AcDbLine
 10
1.77263779527559
 20
7.222440944881889
 30
0.0
 11
1.808070866141732
 21
7.222440944881889
 31
0.0
  0
LINE
  5
2688
330
1E
100
AcDbEntity
  8
7
100
AcDbLine
 10
3.643700787401574
 20
7.195866141732283
 30
0.0
 11
3.662401574803149
 21
7.177165354330708
 31
0.0
  0
LINE
  5
2689
330
1E
100
AcDbEntity
  8
7
100
AcDbLine
 10
3.763779527559055
 20
4.904527559055117
 30
0.0
 11
3.728346456692913
 21
4.904527559055117
 31
0.0
  0
LINE
  5
268A
330
1E
100
AcDbEntity
  8
7
100
AcDbLine
 10
3.540354330708661
 20
4.948818897637795
 30
0.0
 11
3.52263779527559
 21
4.93996062992126
 31
0.0
  0
LINE
  5
268B
330
1E
100
AcDbEntity
  8
7
100
AcDbLine
 10
3.540354330708661
 20
4.859251968503937
 30
0.0
 11
3.558070866141732
 21
4.859251968503937
 31
0.0
  0
LINE
  5
268C
330
1E
100
AcDbEntity
  8
7
100
AcDbLine
 10
3.905511811023622
 20
4.876968503937007
 30
0.0
 11
3.906496062992125
 21
4.859251968503937
 31
0.0
  0
LINE
  5
268D
330
1E
100
AcDbEntity
  8
7
100
AcDbLine
 10
3.228346456692913
 20
4.869094488188975
 30
0.0
 11
3.246062992125984
 21
4.859251968503937
 31
0.0
  0
LINE
  5
268E
330
1E
100
AcDbEntity
  8
7
100
AcDbLine
 10
3.575787401574803
 20
4.869094488188975
 30
0.0
 11
3.585629921259842
 21
4.894685039370078
 31
0.0
  0
LINE
  5
268F
330
1E
100
AcDbEntity
  8
7
100
AcDbLine
 10
3.87007874015748
 20
4.869094488188975
 30
0.0
 11
3.879921259842519
 21
4.894685039370078
 31
0.0
  0
LINE
  5
2690
330
1E
100
AcDbEntity
  8
7
100
AcDbLine
 10
3.959645669291338
 20
4.948818897637795
 30
0.0
 11
3.977362204724409
 21
4.93996062992126
 31
0.0
  0
LINE
  5
2691
330
1E
100
AcDbEntity
  8
7
100
AcDbLine
 10
3.263779527559055
 20
4.948818897637795
 30
0.0
 11
3.246062992125984
 21
4.948818897637795
 31
0.0
  0
LINE
  5
2692
330
1E
100
AcDbEntity
  8
7
100
AcDbLine
 10
2.049212598425196
 20
7.266732283464566
 30
0.0
 11
2.049212598425196
 21
7.195866141732283
 31
0.0
  0
LINE
  5
2693
330
1E
100
AcDbEntity
  8
7
100
AcDbLine
 10
2.173228346456693
 20
7.266732283464566
 30
0.0
 11
2.190944881889763
 21
7.266732283464566
 31
0.0
  0
LINE
  5
2694
330
1E
100
AcDbEntity
  8
7
100
AcDbLine
 10
2.02263779527559
 20
7.195866141732283
 30
0.0
 11
2.02263779527559
 21
7.249015748031496
 31
0.0
  0
LINE
  5
2695
330
1E
100
AcDbEntity
  8
7
100
AcDbLine
 10
3.263779527559055
 20
4.859251968503937
 30
0.0
 11
3.281496062992125
 21
4.869094488188975
 31
0.0
  0
LINE
  5
2696
330
1E
100
AcDbEntity
  8
7
100
AcDbLine
 10
3.795275590551181
 20
7.222440944881889
 30
0.0
 11
3.743110236220472
 21
7.222440944881889
 31
0.0
  0
LINE
  5
2697
330
1E
100
AcDbEntity
  8
7
100
AcDbLine
 10
3.813976377952755
 20
7.231299212598425
 30
0.0
 11
3.795275590551181
 21
7.222440944881889
 31
0.0
  0
LINE
  5
2698
330
1E
100
AcDbEntity
  8
7
100
AcDbLine
 10
3.618110236220472
 20
7.266732283464566
 30
0.0
 11
3.547244094488188
 21
7.266732283464566
 31
0.0
  0
LINE
  5
2699
330
1E
100
AcDbEntity
  8
7
100
AcDbLine
 10
3.643700787401574
 20
7.249015748031496
 30
0.0
 11
3.643700787401574
 21
7.195866141732283
 31
0.0
  0
LINE
  5
269A
330
1E
100
AcDbEntity
  8
7
100
AcDbLine
 10
3.353346456692913
 20
4.948818897637795
 30
0.0
 11
3.353346456692913
 21
4.859251968503937
 31
0.0
  0
LINE
  5
269B
330
1E
100
AcDbEntity
  8
7
100
AcDbLine
 10
3.346456692913385
 20
4.940944881889763
 30
0.0
 11
3.353346456692913
 21
4.948818897637795
 31
0.0
  0
LINE
  5
269C
330
1E
100
AcDbEntity
  8
7
100
AcDbLine
 10
3.923228346456692
 20
4.948818897637795
 30
0.0
 11
3.959645669291338
 21
4.948818897637795
 31
0.0
  0
LINE
  5
269D
330
1E
100
AcDbEntity
  8
7
100
AcDbLine
 10
3.816929133858267
 20
4.93996062992126
 30
0.0
 11
3.807086614173228
 21
4.913385826771653
 31
0.0
  0
LINE
  5
269E
330
1E
100
AcDbEntity
  8
7
100
AcDbLine
 10
3.52263779527559
 20
4.869094488188975
 30
0.0
 11
3.540354330708661
 21
4.859251968503937
 31
0.0
  0
LINE
  5
269F
330
1E
100
AcDbEntity
  8
7
100
AcDbLine
 10
3.585629921259842
 20
4.913385826771653
 30
0.0
 11
3.575787401574803
 21
4.93996062992126
 31
0.0
  0
LINE
  5
26A0
330
1E
100
AcDbEntity
  8
7
100
AcDbLine
 10
3.52263779527559
 20
4.93996062992126
 30
0.0
 11
3.51279527559055
 21
4.913385826771653
 31
0.0
  0
LINE
  5
26A1
330
1E
100
AcDbEntity
  8
7
100
AcDbLine
 10
2.183070866141732
 20
7.266732283464566
 30
0.0
 11
2.183070866141732
 21
7.177165354330708
 31
0.0
  0
LINE
  5
26A2
330
1E
100
AcDbEntity
  8
7
100
AcDbLine
 10
1.728346456692913
 20
7.231299212598425
 30
0.0
 11
1.709645669291338
 21
7.222440944881889
 31
0.0
  0
LINE
  5
26A3
330
1E
100
AcDbEntity
  8
7
100
AcDbLine
 10
3.291338582677165
 20
4.913385826771653
 30
0.0
 11
3.281496062992125
 21
4.93996062992126
 31
0.0
  0
LINE
  5
26A4
330
1E
100
AcDbEntity
  8
7
100
AcDbLine
 10
2.12007874015748
 20
7.195866141732283
 30
0.0
 11
2.12007874015748
 21
7.266732283464566
 31
0.0
  0
LINE
  5
26A5
330
1E
100
AcDbEntity
  8
7
100
AcDbLine
 10
1.728346456692913
 20
7.257874015748031
 30
0.0
 11
1.728346456692913
 21
7.231299212598425
 31
0.0
  0
LINE
  5
26A6
330
1E
100
AcDbEntity
  8
7
100
AcDbLine
 10
1.803149606299212
 20
5.948818897637795
 30
0.0
 11
1.803149606299212
 21
5.732283464566928
 31
0.0
  0
LINE
  5
26A7
330
1E
100
AcDbEntity
  8
7
100
AcDbLine
 10
1.96751968503937
 20
5.088582677165354
 30
0.0
 11
1.96751968503937
 21
5.732283464566928
 31
0.0
  0
LINE
  5
26A8
330
1E
100
AcDbEntity
  8
7
100
AcDbLine
 10
3.747047244094487
 20
6.157480314960629
 30
0.0
 11
3.747047244094487
 21
6.374015748031496
 31
0.0
  0
LINE
  5
26A9
330
1E
100
AcDbEntity
  8
7
100
AcDbLine
 10
3.58267716535433
 20
5.732283464566928
 30
0.0
 11
3.58267716535433
 21
5.088582677165354
 31
0.0
  0
LINE
  5
26AA
330
1E
100
AcDbEntity
  8
7
100
AcDbLine
 10
3.58267716535433
 20
7.037401574803149
 30
0.0
 11
3.58267716535433
 21
6.374015748031496
 31
0.0
  0
LINE
  5
26AB
330
1E
100
AcDbEntity
  8
7
100
AcDbLine
 10
3.747047244094487
 20
6.374015748031496
 30
0.0
 11
3.58267716535433
 21
6.374015748031496
 31
0.0
  0
LINE
  5
26B7
330
1E
100
AcDbEntity
  8
7
100
AcDbLine
 10
3.747047244094487
 20
5.732283464566928
 30
0.0
 11
3.747047244094487
 21
5.948818897637795
 31
0.0
  0
LINE
  5
26B8
330
1E
100
AcDbEntity
  8
7
100
AcDbLine
 10
3.58267716535433
 20
5.732283464566928
 30
0.0
 11
3.747047244094487
 21
5.732283464566928
 31
0.0
  0
LINE
  5
26B9
330
1E
100
AcDbEntity
  8
7
100
AcDbLine
 10
3.58267716535433
 20
5.088582677165354
 30
0.0
 11
1.96751968503937
 21
5.088582677165354
 31
0.0
  0
LINE
  5
26BA
330
1E
100
AcDbEntity
  8
7
100
AcDbLine
 10
1.803149606299212
 20
5.732283464566928
 30
0.0
 11
1.96751968503937
 21
5.732283464566928
 31
0.0
  0
LINE
  5
26C9
330
1E
100
AcDbEntity
  8
7
100
AcDbLine
 10
1.803149606299212
 20
6.374015748031496
 30
0.0
 11
1.803149606299212
 21
6.157480314960629
 31
0.0
  0
LINE
  5
26CA
330
1E
100
AcDbEntity
  8
7
100
AcDbLine
 10
1.96751968503937
 20
6.374015748031496
 30
0.0
 11
1.803149606299212
 21
6.374015748031496
 31
0.0
  0
LINE
  5
26CB
330
1E
100
AcDbEntity
  8
7
100
AcDbLine
 10
1.96751968503937
 20
6.374015748031496
 30
0.0
 11
1.96751968503937
 21
7.037401574803149
 31
0.0
  0
LINE
  5
26CC
330
1E
100
AcDbEntity
  8
7
100
AcDbLine
 10
1.96751968503937
 20
7.037401574803149
 30
0.0
 11
3.58267716535433
 21
7.037401574803149
 31
0.0
  0
LINE
  5
270E
330
1E
100
AcDbEntity
  8
7
100
AcDbLine
 10
1.523622047244094
 20
6.003937007874015
 30
0.0
 11
1.534448818897637
 21
5.878937007874015
 31
0.0
  0
LINE
  5
272A
330
1E
100
AcDbEntity
  8
7
100
AcDbLine
 10
1.520669291338582
 20
6.304133858267716
 30
0.0
 11
1.534448818897637
 21
6.275590551181101
 31
0.0
  0
LINE
  5
2735
330
1E
100
AcDbEntity
  8
7
100
AcDbLine
 10
1.666338582677165
 20
6.005905511811023
 30
0.0
 11
1.676181102362204
 21
5.898622047244094
 31
0.0
  0
LINE
  5
2742
330
1E
100
AcDbEntity
  8
7
100
AcDbLine
 10
1.396653543307086
 20
4.862204724409449
 30
0.0
 11
1.396653543307086
 21
7.243110236220472
 31
0.0
  0
LINE
  5
274D
330
1E
100
AcDbEntity
  8
7
100
AcDbLine
 10
3.965551181102362
 20
4.6751968503937
 30
0.0
 11
1.584645669291338
 21
4.6751968503937
 31
0.0
  0
LINE
  5
2758
330
1E
100
AcDbEntity
  8
7
100
AcDbLine
 10
4.15255905511811
 20
7.243110236220472
 30
0.0
 11
4.15255905511811
 21
4.862204724409449
 31
0.0
  0
LINE
  5
2763
330
1E
100
AcDbEntity
  8
7
100
AcDbLine
 10
1.584645669291338
 20
7.431102362204724
 30
0.0
 11
3.965551181102362
 21
7.431102362204724
 31
0.0
  0
LINE
  5
27EB
330
1E
100
AcDbEntity
  8
7
100
AcDbLine
 10
2.848425196850393
 20
7.037401574803149
 30
0.0
 11
2.848425196850393
 21
7.028543307086613
 31
0.0
  0
LINE
  5
27EC
330
1E
100
AcDbEntity
  8
7
100
AcDbLine
 10
2.697834645669291
 20
6.984251968503937
 30
0.0
 11
2.697834645669291
 21
6.833661417322834
 31
0.0
  0
LINE
  5
27F3
330
1E
100
AcDbEntity
  8
7
100
AcDbLine
 10
2.701771653543306
 20
7.028543307086613
 30
0.0
 11
2.698818897637795
 21
7.013779527559054
 31
0.0
  0
LINE
  5
27F4
330
1E
100
AcDbEntity
  8
7
100
AcDbLine
 10
2.701771653543306
 20
7.037401574803149
 30
0.0
 11
2.701771653543306
 21
7.028543307086613
 31
0.0
  0
LINE
  5
27F5
330
1E
100
AcDbEntity
  8
7
100
AcDbLine
 10
3.571850393700787
 20
5.348425196850393
 30
0.0
 11
3.569881889763779
 21
5.350393700787401
 31
0.0
  0
LINE
  5
27FB
330
1E
100
AcDbEntity
  8
7
100
AcDbLine
 10
3.569881889763779
 20
5.350393700787401
 30
0.0
 11
3.569881889763779
 21
5.355314960629921
 31
0.0
  0
LINE
  5
27FC
330
1E
100
AcDbEntity
  8
7
100
AcDbLine
 10
1.977362204724409
 20
5.282480314960629
 30
0.0
 11
1.980314960629921
 21
5.280511811023622
 31
0.0
  0
LINE
  5
27FD
330
1E
100
AcDbEntity
  8
7
100
AcDbLine
 10
1.977362204724409
 20
5.348425196850393
 30
0.0
 11
1.977362204724409
 21
5.282480314960629
 31
0.0
  0
LINE
  5
2803
330
1E
100
AcDbEntity
  8
7
100
AcDbLine
 10
2.067913385826771
 20
5.911417322834645
 30
0.0
 11
2.071850393700787
 21
6.36515748031496
 31
0.0
  0
LINE
  5
2804
330
1E
100
AcDbEntity
  8
7
100
AcDbLine
 10
2.067913385826771
 20
5.911417322834645
 30
0.0
 11
2.067913385826771
 21
5.910433070866141
 31
0.0
  0
LINE
  5
280F
330
1E
100
AcDbEntity
  8
7
100
AcDbLine
 10
3.482283464566929
 20
5.911417322834645
 30
0.0
 11
3.477362204724409
 21
6.36515748031496
 31
0.0
  0
LINE
  5
2810
330
1E
100
AcDbEntity
  8
7
100
AcDbLine
 10
3.482283464566929
 20
5.911417322834645
 30
0.0
 11
3.482283464566929
 21
5.910433070866141
 31
0.0
  0
LINE
  5
2811
330
1E
100
AcDbEntity
  8
7
100
AcDbLine
 10
3.562992125984251
 20
6.644685039370078
 30
0.0
 11
3.567913385826771
 21
6.785433070866141
 31
0.0
  0
LINE
  5
2812
330
1E
100
AcDbEntity
  8
7
100
AcDbLine
 10
3.562992125984251
 20
6.644685039370078
 30
0.0
 11
3.562007874015748
 21
6.64271653543307
 31
0.0
  0
LINE
  5
2818
330
1E
100
AcDbEntity
  8
7
100
AcDbLine
 10
3.564960629921259
 20
5.81496062992126
 30
0.0
 11
3.564960629921259
 21
6.065944881889763
 31
0.0
  0
LINE
  5
2819
330
1E
100
AcDbEntity
  8
7
100
AcDbLine
 10
3.567913385826771
 20
5.812992125984251
 30
0.0
 11
3.564960629921259
 21
5.81496062992126
 31
0.0
  0
LINE
  5
281A
330
1E
100
AcDbEntity
  8
7
100
AcDbLine
 10
3.568897637795275
 20
5.733267716535433
 30
0.0
 11
3.567913385826771
 21
5.812992125984251
 31
0.0
  0
LINE
  5
2822
330
1E
100
AcDbEntity
  8
7
100
AcDbLine
 10
3.567913385826771
 20
6.779527559055117
 30
0.0
 11
3.567913385826771
 21
6.785433070866141
 31
0.0
  0
LINE
  5
2828
330
1E
100
AcDbEntity
  8
7
100
AcDbLine
 10
1.989173228346456
 20
6.469488188976377
 30
0.0
 11
1.98523622047244
 21
6.065944881889763
 31
0.0
  0
LINE
  5
2829
330
1E
100
AcDbEntity
  8
7
100
AcDbLine
 10
1.988188976377952
 20
6.64271653543307
 30
0.0
 11
1.989173228346456
 21
6.469488188976377
 31
0.0
  0
LINE
  5
282A
330
1E
100
AcDbEntity
  8
7
100
AcDbLine
 10
1.987204724409448
 20
6.644685039370078
 30
0.0
 11
1.988188976377952
 21
6.64271653543307
 31
0.0
  0
LINE
  5
282B
330
1E
100
AcDbEntity
  8
7
100
AcDbLine
 10
1.987204724409448
 20
6.644685039370078
 30
0.0
 11
1.982283464566929
 21
6.785433070866141
 31
0.0
  0
LINE
  5
2831
330
1E
100
AcDbEntity
  8
7
100
AcDbLine
 10
1.980314960629921
 20
6.371062992125984
 30
0.0
 11
1.982283464566929
 21
6.374015748031496
 31
0.0
  0
LINE
  5
2832
330
1E
100
AcDbEntity
  8
7
100
AcDbLine
 10
1.980314960629921
 20
5.73523622047244
 30
0.0
 11
1.980314960629921
 21
6.371062992125984
 31
0.0
  0
LINE
  5
2833
330
1E
100
AcDbEntity
  8
7
100
AcDbLine
 10
1.981299212598425
 20
5.733267716535433
 30
0.0
 11
1.980314960629921
 21
5.73523622047244
 31
0.0
  0
LINE
  5
2834
330
1E
100
AcDbEntity
  8
7
100
AcDbLine
 10
1.981299212598425
 20
5.733267716535433
 30
0.0
 11
1.982283464566929
 21
5.812992125984251
 31
0.0
  0
LINE
  5
2835
330
1E
100
AcDbEntity
  8
7
100
AcDbLine
 10
2.807086614173228
 20
6.873031496062991
 30
0.0
 11
2.807086614173228
 21
6.984251968503937
 31
0.0
  0
LINE
  5
283C
330
1E
100
AcDbEntity
  8
7
100
AcDbLine
 10
2.811023622047244
 20
7.028543307086613
 30
0.0
 11
2.808070866141732
 21
7.013779527559054
 31
0.0
  0
LINE
  5
283D
330
1E
100
AcDbEntity
  8
7
100
AcDbLine
 10
2.811023622047244
 20
7.028543307086613
 30
0.0
 11
2.811023622047244
 21
7.037401574803149
 31
0.0
  0
LINE
  5
283E
330
1E
100
AcDbEntity
  8
7
100
AcDbLine
 10
2.739173228346456
 20
7.028543307086613
 30
0.0
 11
2.742125984251968
 21
7.013779527559054
 31
0.0
  0
LINE
  5
2845
330
1E
100
AcDbEntity
  8
7
100
AcDbLine
 10
2.743110236220472
 20
6.873031496062991
 30
0.0
 11
2.743110236220472
 21
6.984251968503937
 31
0.0
  0
LINE
  5
2846
330
1E
100
AcDbEntity
  8
7
100
AcDbLine
 10
2.739173228346456
 20
7.028543307086613
 30
0.0
 11
2.739173228346456
 21
7.037401574803149
 31
0.0
  0
LINE
  5
2847
330
1E
100
AcDbEntity
  8
7
100
AcDbLine
 10
3.390748031496062
 20
6.718503937007874
 30
0.0
 11
3.39271653543307
 21
6.8001968503937
 31
0.0
  0
LINE
  5
2848
330
1E
100
AcDbEntity
  8
7
100
AcDbLine
 10
3.252952755905511
 20
6.718503937007874
 30
0.0
 11
3.390748031496062
 21
6.718503937007874
 31
0.0
  0
LINE
  5
2849
330
1E
100
AcDbEntity
  8
7
100
AcDbLine
 10
3.252952755905511
 20
6.644685039370078
 30
0.0
 11
3.252952755905511
 21
6.718503937007874
 31
0.0
  0
LINE
  5
284A
330
1E
100
AcDbEntity
  8
7
100
AcDbLine
 10
3.562992125984251
 20
6.644685039370078
 30
0.0
 11
3.252952755905511
 21
6.644685039370078
 31
0.0
  0
LINE
  5
2850
330
1E
100
AcDbEntity
  8
7
100
AcDbLine
 10
3.39271653543307
 20
6.8001968503937
 30
0.0
 11
3.39271653543307
 21
6.947834645669291
 31
0.0
  0
LINE
  5
2859
330
1E
100
AcDbEntity
  8
7
100
AcDbLine
 10
1.987204724409448
 20
6.947834645669291
 30
0.0
 11
2.15748031496063
 21
6.947834645669291
 31
0.0
  0
LINE
  5
285A
330
1E
100
AcDbEntity
  8
7
100
AcDbLine
 10
1.982283464566929
 20
6.785433070866141
 30
0.0
 11
1.987204724409448
 21
6.947834645669291
 31
0.0
  0
LINE
  5
285B
330
1E
100
AcDbEntity
  8
7
100
AcDbLine
 10
2.297244094488188
 20
6.718503937007874
 30
0.0
 11
2.297244094488188
 21
6.830708661417323
 31
0.0
  0
LINE
  5
285C
330
1E
100
AcDbEntity
  8
7
100
AcDbLine
 10
2.487204724409448
 20
6.656496062992125
 30
0.0
 11
2.487204724409448
 21
6.644685039370078
 31
0.0
  0
LINE
  5
285D
330
1E
100
AcDbEntity
  8
7
100
AcDbLine
 10
2.487204724409448
 20
6.656496062992125
 30
0.0
 11
2.487204724409448
 21
6.83267716535433
 31
0.0
  0
LINE
  5
285E
330
1E
100
AcDbEntity
  8
7
100
AcDbLine
 10
2.487204724409448
 20
6.83759842519685
 30
0.0
 11
2.487204724409448
 21
6.83267716535433
 31
0.0
  0
LINE
  5
285F
330
1E
100
AcDbEntity
  8
7
100
AcDbLine
 10
3.252952755905511
 20
6.718503937007874
 30
0.0
 11
3.252952755905511
 21
6.830708661417323
 31
0.0
  0
LINE
  5
2860
330
1E
100
AcDbEntity
  8
7
100
AcDbLine
 10
3.062992125984251
 20
6.83759842519685
 30
0.0
 11
3.062992125984251
 21
6.83267716535433
 31
0.0
  0
LINE
  5
2861
330
1E
100
AcDbEntity
  8
7
100
AcDbLine
 10
3.062992125984251
 20
6.656496062992125
 30
0.0
 11
3.062992125984251
 21
6.83267716535433
 31
0.0
  0
LINE
  5
2862
330
1E
100
AcDbEntity
  8
7
100
AcDbLine
 10
3.062992125984251
 20
6.656496062992125
 30
0.0
 11
3.062992125984251
 21
6.644685039370078
 31
0.0
  0
LINE
  5
2863
330
1E
100
AcDbEntity
  8
7
100
AcDbLine
 10
2.143700787401574
 20
5.81496062992126
 30
0.0
 11
2.146653543307086
 21
5.812992125984251
 31
0.0
  0
LINE
  5
2864
330
1E
100
AcDbEntity
  8
7
100
AcDbLine
 10
1.98523622047244
 20
5.81496062992126
 30
0.0
 11
2.143700787401574
 21
5.81496062992126
 31
0.0
  0
LINE
  5
2865
330
1E
100
AcDbEntity
  8
7
100
AcDbLine
 10
1.982283464566929
 20
5.812992125984251
 30
0.0
 11
2.146653543307086
 21
5.812992125984251
 31
0.0
  0
LINE
  5
286B
330
1E
100
AcDbEntity
  8
7
100
AcDbLine
 10
3.567913385826771
 20
5.812992125984251
 30
0.0
 11
3.403543307086614
 21
5.812992125984251
 31
0.0
  0
LINE
  5
286C
330
1E
100
AcDbEntity
  8
7
100
AcDbLine
 10
2.911417322834645
 20
5.81496062992126
 30
0.0
 11
2.914370078740157
 21
5.812992125984251
 31
0.0
  0
LINE
  5
286D
330
1E
100
AcDbEntity
  8
7
100
AcDbLine
 10
2.63779527559055
 20
5.81496062992126
 30
0.0
 11
2.911417322834645
 21
5.81496062992126
 31
0.0
  0
LINE
  5
2873
330
1E
100
AcDbEntity
  8
7
100
AcDbLine
 10
2.914370078740157
 20
5.910433070866141
 30
0.0
 11
2.911417322834645
 21
5.86515748031496
 31
0.0
  0
LINE
  5
2874
330
1E
100
AcDbEntity
  8
7
100
AcDbLine
 10
2.911417322834645
 20
5.81496062992126
 30
0.0
 11
2.911417322834645
 21
5.86515748031496
 31
0.0
  0
LINE
  5
2875
330
1E
100
AcDbEntity
  8
7
100
AcDbLine
 10
2.914370078740157
 20
5.795275590551181
 30
0.0
 11
2.914370078740157
 21
5.812992125984251
 31
0.0
  0
LINE
  5
2876
330
1E
100
AcDbEntity
  8
7
100
AcDbLine
 10
2.914370078740157
 20
5.910433070866141
 30
0.0
 11
2.915354330708661
 21
5.795275590551181
 31
0.0
  0
LINE
  5
287C
330
1E
100
AcDbEntity
  8
7
100
AcDbLine
 10
2.914370078740157
 20
5.910433070866141
 30
0.0
 11
2.830708661417322
 21
5.910433070866141
 31
0.0
  0
LINE
  5
287D
330
1E
100
AcDbEntity
  8
7
100
AcDbLine
 10
2.830708661417322
 20
5.911417322834645
 30
0.0
 11
2.719488188976377
 21
5.911417322834645
 31
0.0
  0
LINE
  5
287E
330
1E
100
AcDbEntity
  8
7
100
AcDbLine
 10
2.719488188976377
 20
5.910433070866141
 30
0.0
 11
2.635826771653543
 21
5.910433070866141
 31
0.0
  0
LINE
  5
287F
330
1E
100
AcDbEntity
  8
7
100
AcDbLine
 10
3.406496062992125
 20
5.81496062992126
 30
0.0
 11
3.406496062992125
 21
5.86515748031496
 31
0.0
  0
LINE
  5
2880
330
1E
100
AcDbEntity
  8
7
100
AcDbLine
 10
3.403543307086614
 20
5.910433070866141
 30
0.0
 11
3.406496062992125
 21
5.86515748031496
 31
0.0
  0
LINE
  5
2881
330
1E
100
AcDbEntity
  8
7
100
AcDbLine
 10
3.403543307086614
 20
5.910433070866141
 30
0.0
 11
3.40255905511811
 21
5.795275590551181
 31
0.0
  0
LINE
  5
2882
330
1E
100
AcDbEntity
  8
7
100
AcDbLine
 10
3.403543307086614
 20
5.795275590551181
 30
0.0
 11
3.403543307086614
 21
5.812992125984251
 31
0.0
  0
LINE
  5
2883
330
1E
100
AcDbEntity
  8
7
100
AcDbLine
 10
3.51279527559055
 20
5.86515748031496
 30
0.0
 11
3.406496062992125
 21
5.86515748031496
 31
0.0
  0
LINE
  5
2884
330
1E
100
AcDbEntity
  8
7
100
AcDbLine
 10
3.51279527559055
 20
5.86515748031496
 30
0.0
 11
3.510826771653543
 21
5.911417322834645
 31
0.0
  0
LINE
  5
2885
330
1E
100
AcDbEntity
  8
7
100
AcDbLine
 10
3.482283464566929
 20
5.911417322834645
 30
0.0
 11
3.510826771653543
 21
5.911417322834645
 31
0.0
  0
LINE
  5
2886
330
1E
100
AcDbEntity
  8
7
100
AcDbLine
 10
3.403543307086614
 20
5.910433070866141
 30
0.0
 11
3.482283464566929
 21
5.910433070866141
 31
0.0
  0
LINE
  5
2887
330
1E
100
AcDbEntity
  8
7
100
AcDbLine
 10
2.63779527559055
 20
5.81496062992126
 30
0.0
 11
2.63779527559055
 21
5.86515748031496
 31
0.0
  0
LINE
  5
2888
330
1E
100
AcDbEntity
  8
7
100
AcDbLine
 10
2.634842519685039
 20
5.795275590551181
 30
0.0
 11
2.635826771653543
 21
5.910433070866141
 31
0.0
  0
LINE
  5
2889
330
1E
100
AcDbEntity
  8
7
100
AcDbLine
 10
2.635826771653543
 20
5.795275590551181
 30
0.0
 11
2.635826771653543
 21
5.812992125984251
 31
0.0
  0
LINE
  5
288A
330
1E
100
AcDbEntity
  8
7
100
AcDbLine
 10
2.146653543307086
 20
5.910433070866141
 30
0.0
 11
2.143700787401574
 21
5.86515748031496
 31
0.0
  0
LINE
  5
288B
330
1E
100
AcDbEntity
  8
7
100
AcDbLine
 10
2.143700787401574
 20
5.81496062992126
 30
0.0
 11
2.143700787401574
 21
5.86515748031496
 31
0.0
  0
LINE
  5
288C
330
1E
100
AcDbEntity
  8
7
100
AcDbLine
 10
2.146653543307086
 20
5.795275590551181
 30
0.0
 11
2.146653543307086
 21
5.812992125984251
 31
0.0
  0
LINE
  5
288D
330
1E
100
AcDbEntity
  8
7
100
AcDbLine
 10
2.14763779527559
 20
5.795275590551181
 30
0.0
 11
2.146653543307086
 21
5.910433070866141
 31
0.0
  0
LINE
  5
288E
330
1E
100
AcDbEntity
  8
7
100
AcDbLine
 10
2.037401574803149
 20
5.86515748031496
 30
0.0
 11
2.039370078740157
 21
5.911417322834645
 31
0.0
  0
LINE
  5
288F
330
1E
100
AcDbEntity
  8
7
100
AcDbLine
 10
2.037401574803149
 20
5.86515748031496
 30
0.0
 11
2.143700787401574
 21
5.86515748031496
 31
0.0
  0
LINE
  5
2890
330
1E
100
AcDbEntity
  8
7
100
AcDbLine
 10
2.146653543307086
 20
5.910433070866141
 30
0.0
 11
2.067913385826771
 21
5.910433070866141
 31
0.0
  0
LINE
  5
2891
330
1E
100
AcDbEntity
  8
7
100
AcDbLine
 10
2.067913385826771
 20
5.911417322834645
 30
0.0
 11
2.039370078740157
 21
5.911417322834645
 31
0.0
  0
LINE
  5
2892
330
1E
100
AcDbEntity
  8
7
100
AcDbLine
 10
2.033464566929133
 20
6.548228346456692
 30
0.0
 11
2.039370078740157
 21
5.911417322834645
 31
0.0
  0
LINE
  5
2893
330
1E
100
AcDbEntity
  8
7
100
AcDbLine
 10
2.03248031496063
 20
6.469488188976377
 30
0.0
 11
2.033464566929133
 21
6.548228346456692
 31
0.0
  0
LINE
  5
2894
330
1E
100
AcDbEntity
  8
7
100
AcDbLine
 10
2.037401574803149
 20
6.065944881889763
 30
0.0
 11
2.03248031496063
 21
6.469488188976377
 31
0.0
  0
LINE
  5
2895
330
1E
100
AcDbEntity
  8
7
100
AcDbLine
 10
2.037401574803149
 20
6.065944881889763
 30
0.0
 11
2.037401574803149
 21
5.86515748031496
 31
0.0
  0
LINE
  5
2896
330
1E
100
AcDbEntity
  8
7
100
AcDbLine
 10
3.51279527559055
 20
6.065944881889763
 30
0.0
 11
3.51279527559055
 21
5.86515748031496
 31
0.0
  0
LINE
  5
289D
330
1E
100
AcDbEntity
  8
7
100
AcDbLine
 10
2.139763779527559
 20
6.36515748031496
 30
0.0
 11
2.071850393700787
 21
6.36515748031496
 31
0.0
  0
LINE
  5
28A3
330
1E
100
AcDbEntity
  8
7
100
AcDbLine
 10
2.64763779527559
 20
6.36515748031496
 30
0.0
 11
2.646653543307086
 21
6.422244094488188
 31
0.0
  0
LINE
  5
28A4
330
1E
100
AcDbEntity
  8
7
100
AcDbLine
 10
2.714566929133858
 20
6.36515748031496
 30
0.0
 11
2.64763779527559
 21
6.36515748031496
 31
0.0
  0
LINE
  5
28AA
330
1E
100
AcDbEntity
  8
7
100
AcDbLine
 10
3.409448818897637
 20
6.422244094488188
 30
0.0
 11
2.903543307086614
 21
6.422244094488188
 31
0.0
  0
LINE
  5
28AB
330
1E
100
AcDbEntity
  8
7
100
AcDbLine
 10
3.410433070866141
 20
6.36515748031496
 30
0.0
 11
3.409448818897637
 21
6.422244094488188
 31
0.0
  0
LINE
  5
28AC
330
1E
100
AcDbEntity
  8
7
100
AcDbLine
 10
3.410433070866141
 20
6.36515748031496
 30
0.0
 11
3.477362204724409
 21
6.36515748031496
 31
0.0
  0
LINE
  5
28AD
330
1E
100
AcDbEntity
  8
7
100
AcDbLine
 10
3.516732283464566
 20
6.548228346456692
 30
0.0
 11
2.033464566929133
 21
6.548228346456692
 31
0.0
  0
LINE
  5
28AE
330
1E
100
AcDbEntity
  8
7
100
AcDbLine
 10
2.808070866141732
 20
7.013779527559054
 30
0.0
 11
2.851377952755905
 21
7.013779527559054
 31
0.0
  0
LINE
  5
28AF
330
1E
100
AcDbEntity
  8
7
100
AcDbLine
 10
2.848425196850393
 20
7.028543307086613
 30
0.0
 11
2.811023622047244
 21
7.028543307086613
 31
0.0
  0
LINE
  5
28B0
330
1E
100
AcDbEntity
  8
7
100
AcDbLine
 10
2.807086614173228
 20
6.873031496062991
 30
0.0
 11
2.743110236220472
 21
6.873031496062991
 31
0.0
  0
LINE
  5
28B1
330
1E
100
AcDbEntity
  8
7
100
AcDbLine
 10
2.742125984251968
 20
7.013779527559054
 30
0.0
 11
2.698818897637795
 21
7.013779527559054
 31
0.0
  0
LINE
  5
28B2
330
1E
100
AcDbEntity
  8
7
100
AcDbLine
 10
2.701771653543306
 20
7.028543307086613
 30
0.0
 11
2.739173228346456
 21
7.028543307086613
 31
0.0
  0
LINE
  5
28B3
330
1E
100
AcDbEntity
  8
7
100
AcDbLine
 10
3.39271653543307
 20
6.830708661417323
 30
0.0
 11
3.390748031496062
 21
6.718503937007874
 31
0.0
  0
LINE
  5
28B4
330
1E
100
AcDbEntity
  8
7
100
AcDbLine
 10
3.39271653543307
 20
6.8001968503937
 30
0.0
 11
3.39271653543307
 21
6.830708661417323
 31
0.0
  0
LINE
  5
28B5
330
1E
100
AcDbEntity
  8
7
100
AcDbLine
 10
2.15748031496063
 20
6.830708661417323
 30
0.0
 11
2.159448818897637
 21
6.718503937007874
 31
0.0
  0
LINE
  5
28B6
330
1E
100
AcDbEntity
  8
7
100
AcDbLine
 10
2.15748031496063
 20
6.8001968503937
 30
0.0
 11
2.15748031496063
 21
6.830708661417323
 31
0.0
  0
LINE
  5
28B7
330
1E
100
AcDbEntity
  8
7
100
AcDbLine
 10
2.487204724409448
 20
6.83267716535433
 30
0.0
 11
3.062992125984251
 21
6.83267716535433
 31
0.0
  0
LINE
  5
28B8
330
1E
100
AcDbEntity
  8
7
100
AcDbLine
 10
2.852362204724409
 20
6.83759842519685
 30
0.0
 11
3.062992125984251
 21
6.83759842519685
 31
0.0
  0
LINE
  5
28B9
330
1E
100
AcDbEntity
  8
7
100
AcDbLine
 10
2.852362204724409
 20
6.833661417322834
 30
0.0
 11
2.697834645669291
 21
6.833661417322834
 31
0.0
  0
LINE
  5
28BA
330
1E
100
AcDbEntity
  8
7
100
AcDbLine
 10
2.697834645669291
 20
6.83759842519685
 30
0.0
 11
2.487204724409448
 21
6.83759842519685
 31
0.0
  0
LINE
  5
28BB
330
1E
100
AcDbEntity
  8
7
100
AcDbLine
 10
2.297244094488188
 20
6.830708661417323
 30
0.0
 11
2.15748031496063
 21
6.830708661417323
 31
0.0
  0
LINE
  5
28BC
330
1E
100
AcDbEntity
  8
7
100
AcDbLine
 10
3.252952755905511
 20
6.830708661417323
 30
0.0
 11
3.39271653543307
 21
6.830708661417323
 31
0.0
  0
LINE
  5
28C3
330
1E
100
AcDbEntity
  8
7
100
AcDbLine
 10
2.035433070866141
 20
5.350393700787401
 30
0.0
 11
2.040354330708661
 21
5.355314960629921
 31
0.0
  0
LINE
  5
28C4
330
1E
100
AcDbEntity
  8
7
100
AcDbLine
 10
2.035433070866141
 20
5.350393700787401
 30
0.0
 11
1.980314960629921
 21
5.350393700787401
 31
0.0
  0
LINE
  5
28CA
330
1E
100
AcDbEntity
  8
7
100
AcDbLine
 10
2.419291338582677
 20
5.355314960629921
 30
0.0
 11
2.420275590551181
 21
5.315944881889763
 31
0.0
  0
LINE
  5
28CB
330
1E
100
AcDbEntity
  8
7
100
AcDbLine
 10
3.13779527559055
 20
5.308070866141732
 30
0.0
 11
2.412401574803149
 21
5.308070866141732
 31
0.0
  0
LINE
  5
28CC
330
1E
100
AcDbEntity
  8
7
100
AcDbLine
 10
3.13779527559055
 20
5.308070866141732
 30
0.0
 11
3.129921259842519
 21
5.315944881889763
 31
0.0
  0
LINE
  5
28CD
330
1E
100
AcDbEntity
  8
7
100
AcDbLine
 10
2.420275590551181
 20
5.315944881889763
 30
0.0
 11
3.129921259842519
 21
5.315944881889763
 31
0.0
  0
LINE
  5
28CE
330
1E
100
AcDbEntity
  8
7
100
AcDbLine
 10
3.13779527559055
 20
5.348425196850393
 30
0.0
 11
3.13779527559055
 21
5.308070866141732
 31
0.0
  0
LINE
  5
28D4
330
1E
100
AcDbEntity
  8
7
100
AcDbLine
 10
3.571850393700787
 20
5.348425196850393
 30
0.0
 11
3.13779527559055
 21
5.348425196850393
 31
0.0
  0
LINE
  5
28DA
330
1E
100
AcDbEntity
  8
7
100
AcDbLine
 10
3.129921259842519
 20
5.355314960629921
 30
0.0
 11
3.509842519685039
 21
5.355314960629921
 31
0.0
  0
LINE
  5
28DB
330
1E
100
AcDbEntity
  8
7
100
AcDbLine
 10
2.144685039370078
 20
5.280511811023622
 30
0.0
 11
2.14271653543307
 21
5.282480314960629
 31
0.0
  0
LINE
  5
28DC
330
1E
100
AcDbEntity
  8
7
100
AcDbLine
 10
1.977362204724409
 20
5.282480314960629
 30
0.0
 11
2.14271653543307
 21
5.282480314960629
 31
0.0
  0
LINE
  5
28E2
330
1E
100
AcDbEntity
  8
7
100
AcDbLine
 10
3.571850393700787
 20
5.282480314960629
 30
0.0
 11
3.40748031496063
 21
5.282480314960629
 31
0.0
  0
LINE
  5
28E3
330
1E
100
AcDbEntity
  8
7
100
AcDbLine
 10
3.405511811023622
 20
5.280511811023622
 30
0.0
 11
3.40748031496063
 21
5.282480314960629
 31
0.0
  0
LINE
  5
28E4
330
1E
100
AcDbEntity
  8
7
100
AcDbLine
 10
3.405511811023622
 20
5.280511811023622
 30
0.0
 11
3.404527559055118
 21
5.280511811023622
 31
0.0
  0
LINE
  5
28E5
330
1E
100
AcDbEntity
  8
7
100
AcDbLine
 10
3.569881889763779
 20
5.280511811023622
 30
0.0
 11
3.405511811023622
 21
5.280511811023622
 31
0.0
  0
LINE
  5
28E6
330
1E
100
AcDbEntity
  8
7
100
AcDbLine
 10
2.144685039370078
 20
5.296259842519685
 30
0.0
 11
2.14271653543307
 21
5.298228346456692
 31
0.0
  0
LINE
  5
28E7
330
1E
100
AcDbEntity
  8
7
100
AcDbLine
 10
2.14271653543307
 20
5.282480314960629
 30
0.0
 11
2.14271653543307
 21
5.298228346456692
 31
0.0
  0
LINE
  5
28E8
330
1E
100
AcDbEntity
  8
7
100
AcDbLine
 10
2.144685039370078
 20
5.280511811023622
 30
0.0
 11
2.144685039370078
 21
5.296259842519685
 31
0.0
  0
LINE
  5
28E9
330
1E
100
AcDbEntity
  8
7
100
AcDbLine
 10
3.40748031496063
 20
5.282480314960629
 30
0.0
 11
3.40748031496063
 21
5.298228346456692
 31
0.0
  0
LINE
  5
28EA
330
1E
100
AcDbEntity
  8
7
100
AcDbLine
 10
3.405511811023622
 20
5.296259842519685
 30
0.0
 11
3.40748031496063
 21
5.298228346456692
 31
0.0
  0
LINE
  5
28EB
330
1E
100
AcDbEntity
  8
7
100
AcDbLine
 10
3.405511811023622
 20
5.280511811023622
 30
0.0
 11
3.405511811023622
 21
5.296259842519685
 31
0.0
  0
LINE
  5
28EC
330
1E
100
AcDbEntity
  8
7
100
AcDbLine
 10
3.191929133858267
 20
5.296259842519685
 30
0.0
 11
3.190944881889763
 21
5.298228346456692
 31
0.0
  0
LINE
  5
28ED
330
1E
100
AcDbEntity
  8
7
100
AcDbLine
 10
3.190944881889763
 20
5.254921259842519
 30
0.0
 11
3.190944881889763
 21
5.298228346456692
 31
0.0
  0
LINE
  5
28EE
330
1E
100
AcDbEntity
  8
7
100
AcDbLine
 10
3.192913385826771
 20
5.252952755905512
 30
0.0
 11
3.190944881889763
 21
5.254921259842519
 31
0.0
  0
LINE
  5
28EF
330
1E
100
AcDbEntity
  8
7
100
AcDbLine
 10
3.192913385826771
 20
5.259842519685038
 30
0.0
 11
3.192913385826771
 21
5.252952755905512
 31
0.0
  0
LINE
  5
28F0
330
1E
100
AcDbEntity
  8
7
100
AcDbLine
 10
3.191929133858267
 20
5.296259842519685
 30
0.0
 11
3.192913385826771
 21
5.259842519685038
 31
0.0
  0
LINE
  5
28F1
330
1E
100
AcDbEntity
  8
7
100
AcDbLine
 10
2.851377952755905
 20
5.136811023622047
 30
0.0
 11
2.851377952755905
 21
5.254921259842519
 31
0.0
  0
LINE
  5
28F8
330
1E
100
AcDbEntity
  8
7
100
AcDbLine
 10
2.848425196850393
 20
5.097440944881889
 30
0.0
 11
2.850393700787401
 21
5.106299212598425
 31
0.0
  0
LINE
  5
28F9
330
1E
100
AcDbEntity
  8
7
100
AcDbLine
 10
2.848425196850393
 20
5.097440944881889
 30
0.0
 11
2.848425196850393
 21
5.088582677165354
 31
0.0
  0
LINE
  5
28FA
330
1E
100
AcDbEntity
  8
7
100
AcDbLine
 10
2.851377952755905
 20
5.254921259842519
 30
0.0
 11
3.190944881889763
 21
5.254921259842519
 31
0.0
  0
LINE
  5
28FB
330
1E
100
AcDbEntity
  8
7
100
AcDbLine
 10
3.192913385826771
 20
5.252952755905512
 30
0.0
 11
2.851377952755905
 21
5.252952755905512
 31
0.0
  0
LINE
  5
28FC
330
1E
100
AcDbEntity
  8
7
100
AcDbLine
 10
2.803149606299212
 20
5.256889763779527
 30
0.0
 11
2.747047244094487
 21
5.256889763779527
 31
0.0
  0
LINE
  5
28FD
330
1E
100
AcDbEntity
  8
7
100
AcDbLine
 10
2.747047244094487
 20
5.136811023622047
 30
0.0
 11
2.747047244094487
 21
5.256889763779527
 31
0.0
  0
LINE
  5
2904
330
1E
100
AcDbEntity
  8
7
100
AcDbLine
 10
2.746062992125984
 20
5.106299212598425
 30
0.0
 11
2.744094488188976
 21
5.097440944881889
 31
0.0
  0
LINE
  5
2905
330
1E
100
AcDbEntity
  8
7
100
AcDbLine
 10
2.744094488188976
 20
5.088582677165354
 30
0.0
 11
2.744094488188976
 21
5.097440944881889
 31
0.0
  0
LINE
  5
2906
330
1E
100
AcDbEntity
  8
7
100
AcDbLine
 10
2.804133858267716
 20
5.106299212598425
 30
0.0
 11
2.806102362204724
 21
5.097440944881889
 31
0.0
  0
LINE
  5
290E
330
1E
100
AcDbEntity
  8
7
100
AcDbLine
 10
2.806102362204724
 20
5.088582677165354
 30
0.0
 11
2.806102362204724
 21
5.097440944881889
 31
0.0
  0
LINE
  5
290F
330
1E
100
AcDbEntity
  8
7
100
AcDbLine
 10
2.701771653543306
 20
5.097440944881889
 30
0.0
 11
2.699803149606299
 21
5.106299212598425
 31
0.0
  0
LINE
  5
2916
330
1E
100
AcDbEntity
  8
7
100
AcDbLine
 10
2.698818897637795
 20
5.136811023622047
 30
0.0
 11
2.698818897637795
 21
5.254921259842519
 31
0.0
  0
LINE
  5
2917
330
1E
100
AcDbEntity
  8
7
100
AcDbLine
 10
2.701771653543306
 20
5.097440944881889
 30
0.0
 11
2.701771653543306
 21
5.088582677165354
 31
0.0
  0
LINE
  5
291D
330
1E
100
AcDbEntity
  8
7
100
AcDbLine
 10
2.357283464566929
 20
5.296259842519685
 30
0.0
 11
2.359251968503937
 21
5.298228346456692
 31
0.0
  0
LINE
  5
2923
330
1E
100
AcDbEntity
  8
7
100
AcDbLine
 10
2.698818897637795
 20
5.254921259842519
 30
0.0
 11
2.359251968503937
 21
5.254921259842519
 31
0.0
  0
LINE
  5
2924
330
1E
100
AcDbEntity
  8
7
100
AcDbLine
 10
2.357283464566929
 20
5.252952755905512
 30
0.0
 11
2.698818897637795
 21
5.252952755905512
 31
0.0
  0
LINE
  5
2925
330
1E
100
AcDbEntity
  8
7
100
AcDbLine
 10
2.699803149606299
 20
5.106299212598425
 30
0.0
 11
2.746062992125984
 21
5.106299212598425
 31
0.0
  0
LINE
  5
2926
330
1E
100
AcDbEntity
  8
7
100
AcDbLine
 10
2.744094488188976
 20
5.097440944881889
 30
0.0
 11
2.701771653543306
 21
5.097440944881889
 31
0.0
  0
LINE
  5
2927
330
1E
100
AcDbEntity
  8
7
100
AcDbLine
 10
2.850393700787401
 20
5.106299212598425
 30
0.0
 11
2.804133858267716
 21
5.106299212598425
 31
0.0
  0
LINE
  5
2928
330
1E
100
AcDbEntity
  8
7
100
AcDbLine
 10
2.806102362204724
 20
5.097440944881889
 30
0.0
 11
2.848425196850393
 21
5.097440944881889
 31
0.0
  0
LINE
  5
2929
330
1E
100
AcDbEntity
  8
7
100
AcDbLine
 10
2.14271653543307
 20
5.298228346456692
 30
0.0
 11
2.359251968503937
 21
5.298228346456692
 31
0.0
  0
LINE
  5
292A
330
1E
100
AcDbEntity
  8
7
100
AcDbLine
 10
2.357283464566929
 20
5.296259842519685
 30
0.0
 11
2.144685039370078
 21
5.296259842519685
 31
0.0
  0
LINE
  5
292B
330
1E
100
AcDbEntity
  8
7
100
AcDbLine
 10
3.40748031496063
 20
5.298228346456692
 30
0.0
 11
3.190944881889763
 21
5.298228346456692
 31
0.0
  0
LINE
  5
292C
330
1E
100
AcDbEntity
  8
7
100
AcDbLine
 10
3.191929133858267
 20
5.296259842519685
 30
0.0
 11
3.405511811023622
 21
5.296259842519685
 31
0.0
  0
LINE
  5
292D
330
1E
100
AcDbEntity
  8
7
100
AcDbLine
 10
2.146653543307086
 20
5.795275590551181
 30
0.0
 11
2.635826771653543
 21
5.795275590551181
 31
0.0
  0
LINE
  5
292E
330
1E
100
AcDbEntity
  8
7
100
AcDbLine
 10
3.403543307086614
 20
5.795275590551181
 30
0.0
 11
2.914370078740157
 21
5.795275590551181
 31
0.0
  0
LINE
  5
2934
330
1E
100
AcDbEntity
  8
7
100
AcDbLine
 10
2.478346456692913
 20
5.824803149606299
 30
0.0
 11
2.479330708661417
 21
5.861220472440944
 31
0.0
  0
LINE
  5
293A
330
1E
100
AcDbEntity
  8
7
100
AcDbLine
 10
2.153543307086614
 20
5.861220472440944
 30
0.0
 11
2.303149606299212
 21
5.861220472440944
 31
0.0
  0
LINE
  5
293B
330
1E
100
AcDbEntity
  8
7
100
AcDbLine
 10
2.155511811023622
 20
5.795275590551181
 30
0.0
 11
2.153543307086614
 21
5.861220472440944
 31
0.0
  0
LINE
  5
2941
330
1E
100
AcDbEntity
  8
7
100
AcDbLine
 10
3.246062992125984
 20
5.824803149606299
 30
0.0
 11
3.247047244094487
 21
5.861220472440944
 31
0.0
  0
LINE
  5
2942
330
1E
100
AcDbEntity
  8
7
100
AcDbLine
 10
3.071850393700787
 20
5.824803149606299
 30
0.0
 11
3.246062992125984
 21
5.824803149606299
 31
0.0
  0
LINE
  5
2943
330
1E
100
AcDbEntity
  8
7
100
AcDbLine
 10
3.071850393700787
 20
5.824803149606299
 30
0.0
 11
3.070866141732283
 21
5.861220472440944
 31
0.0
  0
LINE
  5
2944
330
1E
100
AcDbEntity
  8
7
100
AcDbLine
 10
2.921259842519685
 20
5.861220472440944
 30
0.0
 11
3.070866141732283
 21
5.861220472440944
 31
0.0
  0
LINE
  5
2945
330
1E
100
AcDbEntity
  8
7
100
AcDbLine
 10
2.923228346456692
 20
5.795275590551181
 30
0.0
 11
2.921259842519685
 21
5.861220472440944
 31
0.0
  0
LINE
  5
2946
330
1E
100
AcDbEntity
  8
7
100
AcDbLine
 10
3.509842519685039
 20
5.355314960629921
 30
0.0
 11
3.513779527559055
 21
5.733267716535433
 31
0.0
  0
LINE
  5
2947
330
1E
100
AcDbEntity
  8
7
100
AcDbLine
 10
3.514763779527558
 20
5.350393700787401
 30
0.0
 11
3.514763779527558
 21
5.732283464566928
 31
0.0
  0
LINE
  5
2948
330
1E
100
AcDbEntity
  8
7
100
AcDbLine
 10
3.513779527559055
 20
5.733267716535433
 30
0.0
 11
3.514763779527558
 21
5.732283464566928
 31
0.0
  0
LINE
  5
2949
330
1E
100
AcDbEntity
  8
7
100
AcDbLine
 10
2.035433070866141
 20
5.350393700787401
 30
0.0
 11
2.035433070866141
 21
5.732283464566928
 31
0.0
  0
LINE
  5
294F
330
1E
100
AcDbEntity
  8
7
100
AcDbLine
 10
3.744094488188976
 20
5.73523622047244
 30
0.0
 11
3.747047244094487
 21
5.732283464566928
 31
0.0
  0
LINE
  5
2950
330
1E
100
AcDbEntity
  8
7
100
AcDbLine
 10
3.569881889763779
 20
5.73523622047244
 30
0.0
 11
3.744094488188976
 21
5.73523622047244
 31
0.0
  0
LINE
  5
2951
330
1E
100
AcDbEntity
  8
7
100
AcDbLine
 10
3.513779527559055
 20
5.733267716535433
 30
0.0
 11
3.568897637795275
 21
5.733267716535433
 31
0.0
  0
LINE
  5
2952
330
1E
100
AcDbEntity
  8
7
100
AcDbLine
 10
3.514763779527558
 20
5.732283464566928
 30
0.0
 11
3.58267716535433
 21
5.732283464566928
 31
0.0
  0
LINE
  5
2958
330
1E
100
AcDbEntity
  8
7
100
AcDbLine
 10
2.035433070866141
 20
5.732283464566928
 30
0.0
 11
1.96751968503937
 21
5.732283464566928
 31
0.0
  0
LINE
  5
2959
330
1E
100
AcDbEntity
  8
7
100
AcDbLine
 10
2.036417322834645
 20
5.733267716535433
 30
0.0
 11
1.981299212598425
 21
5.733267716535433
 31
0.0
  0
LINE
  5
297C
330
1E
100
AcDbEntity
  8
7
100
AcDbLine
 10
1.806102362204724
 20
5.73523622047244
 30
0.0
 11
1.806102362204724
 21
5.940944881889763
 31
0.0
  0
LINE
  5
297D
330
1E
100
AcDbEntity
  8
7
100
AcDbLine
 10
1.806102362204724
 20
6.371062992125984
 30
0.0
 11
1.980314960629921
 21
6.371062992125984
 31
0.0
  0
LINE
  5
297E
330
1E
100
AcDbEntity
  8
7
100
AcDbLine
 10
1.806102362204724
 20
6.165354330708661
 30
0.0
 11
1.806102362204724
 21
6.371062992125984
 31
0.0
  0
LINE
  5
297F
330
1E
100
AcDbEntity
  8
7
100
AcDbLine
 10
1.803149606299212
 20
5.940944881889763
 30
0.0
 11
1.806102362204724
 21
5.940944881889763
 31
0.0
  0
LINE
  5
2980
330
1E
100
AcDbEntity
  8
7
100
AcDbLine
 10
1.980314960629921
 20
5.355314960629921
 30
0.0
 11
1.96751968503937
 21
5.355314960629921
 31
0.0
  0
LINE
  5
29A3
330
1E
100
AcDbEntity
  8
7
100
AcDbLine
 10
3.744094488188976
 20
5.73523622047244
 30
0.0
 11
3.744094488188976
 21
5.940944881889763
 31
0.0
  0
LINE
  5
29A9
330
1E
100
AcDbEntity
  8
7
100
AcDbLine
 10
3.747047244094487
 20
5.940944881889763
 30
0.0
 11
3.744094488188976
 21
5.940944881889763
 31
0.0
  0
LINE
  5
29AA
330
1E
100
AcDbEntity
  8
7
100
AcDbLine
 10
3.569881889763779
 20
5.355314960629921
 30
0.0
 11
3.58267716535433
 21
5.355314960629921
 31
0.0
  0
LINE
  5
29AB
330
1E
100
AcDbEntity
  8
7
100
AcDbLine
 10
3.561023622047243
 20
7.002952755905512
 30
0.0
 11
3.56003937007874
 21
7.003937007874015
 31
0.0
  0
LINE
  5
29AC
330
1E
100
AcDbEntity
  8
7
100
AcDbLine
 10
3.561023622047243
 20
6.968503937007874
 30
0.0
 11
3.561023622047243
 21
7.002952755905512
 31
0.0
  0
LINE
  5
29AD
330
1E
100
AcDbEntity
  8
7
100
AcDbLine
 10
3.562992125984251
 20
6.966535433070865
 30
0.0
 11
3.561023622047243
 21
6.968503937007874
 31
0.0
  0
LINE
  5
29AE
330
1E
100
AcDbEntity
  8
7
100
AcDbLine
 10
3.562992125984251
 20
6.947834645669291
 30
0.0
 11
3.562992125984251
 21
6.966535433070865
 31
0.0
  0
LINE
  5
29B6
330
1E
100
AcDbEntity
  8
7
100
AcDbLine
 10
2.921259842519685
 20
5.861220472440944
 30
0.0
 11
2.920275590551181
 21
5.795275590551181
 31
0.0
  0
LINE
  5
29B7
330
1E
100
AcDbEntity
  8
7
100
AcDbLine
 10
3.396653543307086
 20
5.861220472440944
 30
0.0
 11
3.39763779527559
 21
5.795275590551181
 31
0.0
  0
LINE
  5
29B8
330
1E
100
AcDbEntity
  8
7
100
AcDbLine
 10
2.153543307086614
 20
5.861220472440944
 30
0.0
 11
2.15255905511811
 21
5.795275590551181
 31
0.0
  0
LINE
  5
29B9
330
1E
100
AcDbEntity
  8
7
100
AcDbLine
 10
2.628937007874015
 20
5.861220472440944
 30
0.0
 11
2.629921259842519
 21
5.795275590551181
 31
0.0
  0
LINE
  5
29BA
330
1E
100
AcDbEntity
  8
7
100
AcDbLine
 10
3.58267716535433
 20
6.779527559055117
 30
0.0
 11
3.567913385826771
 21
6.779527559055117
 31
0.0
  0
LINE
  5
29BB
330
1E
100
AcDbEntity
  8
7
100
AcDbLine
 10
3.58267716535433
 20
6.374015748031496
 30
0.0
 11
3.567913385826771
 21
6.374015748031496
 31
0.0
  0
LINE
  5
29BC
330
1E
100
AcDbEntity
  8
7
100
AcDbLine
 10
1.96751968503937
 20
6.374015748031496
 30
0.0
 11
1.982283464566929
 21
6.374015748031496
 31
0.0
  0
LINE
  5
29BD
330
1E
100
AcDbEntity
  8
7
100
AcDbLine
 10
1.96751968503937
 20
6.779527559055117
 30
0.0
 11
1.982283464566929
 21
6.779527559055117
 31
0.0
  0
LINE
  5
29BE
330
1E
100
AcDbEntity
  8
7
100
AcDbLine
 10
1.96751968503937
 20
6.780511811023622
 30
0.0
 11
1.982283464566929
 21
6.780511811023622
 31
0.0
  0
LINE
  5
29BF
330
1E
100
AcDbEntity
  8
7
100
AcDbLine
 10
3.58267716535433
 20
6.780511811023622
 30
0.0
 11
3.567913385826771
 21
6.780511811023622
 31
0.0
  0
LINE
  5
29C0
330
1E
100
AcDbEntity
  8
7
100
AcDbLine
 10
3.744094488188976
 20
6.165354330708661
 30
0.0
 11
3.747047244094487
 21
6.165354330708661
 31
0.0
  0
LINE
  5
29C1
330
1E
100
AcDbEntity
  8
7
100
AcDbLine
 10
3.744094488188976
 20
6.371062992125984
 30
0.0
 11
3.747047244094487
 21
6.374015748031496
 31
0.0
  0
LINE
  5
29C2
330
1E
100
AcDbEntity
  8
7
100
AcDbLine
 10
1.806102362204724
 20
6.371062992125984
 30
0.0
 11
1.803149606299212
 21
6.374015748031496
 31
0.0
  0
LINE
  5
29C3
330
1E
100
AcDbEntity
  8
7
100
AcDbLine
 10
1.806102362204724
 20
6.165354330708661
 30
0.0
 11
1.803149606299212
 21
6.165354330708661
 31
0.0
  0
LINE
  5
29C4
330
1E
100
AcDbEntity
  8
7
100
AcDbLine
 10
3.405511811023622
 20
5.280511811023622
 30
0.0
 11
3.405511811023622
 21
5.259842519685038
 31
0.0
  0
LINE
  5
29CA
330
1E
100
AcDbEntity
  8
7
100
AcDbLine
 10
3.405511811023622
 20
5.259842519685038
 30
0.0
 11
3.192913385826771
 21
5.259842519685038
 31
0.0
  0
LINE
  5
29CB
330
1E
100
AcDbEntity
  8
7
100
AcDbLine
 10
3.404527559055118
 20
5.280511811023622
 30
0.0
 11
3.405511811023622
 21
5.259842519685038
 31
0.0
  0
LINE
  5
29CC
330
1E
100
AcDbEntity
  8
7
100
AcDbLine
 10
2.145669291338582
 20
5.280511811023622
 30
0.0
 11
2.144685039370078
 21
5.259842519685038
 31
0.0
  0
LINE
  5
29CD
330
1E
100
AcDbEntity
  8
7
100
AcDbLine
 10
3.071850393700787
 20
5.889763779527559
 30
0.0
 11
3.071850393700787
 21
5.890748031496062
 31
0.0
  0
LINE
  5
29CE
330
1E
100
AcDbEntity
  8
7
100
AcDbLine
 10
3.071850393700787
 20
5.890748031496062
 30
0.0
 11
3.070866141732283
 21
5.886811023622047
 31
0.0
  0
LINE
  5
29CF
330
1E
100
AcDbEntity
  8
7
100
AcDbLine
 10
3.246062992125984
 20
5.889763779527559
 30
0.0
 11
3.071850393700787
 21
5.889763779527559
 31
0.0
  0
LINE
  5
29D5
330
1E
100
AcDbEntity
  8
7
100
AcDbLine
 10
3.070866141732283
 20
5.886811023622047
 30
0.0
 11
3.070866141732283
 21
5.861220472440944
 31
0.0
  0
LINE
  5
29D6
330
1E
100
AcDbEntity
  8
7
100
AcDbLine
 10
3.247047244094487
 20
5.886811023622047
 30
0.0
 11
3.247047244094487
 21
5.861220472440944
 31
0.0
  0
LINE
  5
29D7
330
1E
100
AcDbEntity
  8
7
100
AcDbLine
 10
2.478346456692913
 20
5.889763779527559
 30
0.0
 11
2.478346456692913
 21
5.890748031496062
 31
0.0
  0
LINE
  5
29D8
330
1E
100
AcDbEntity
  8
7
100
AcDbLine
 10
2.478346456692913
 20
5.890748031496062
 30
0.0
 11
2.478346456692913
 21
5.886811023622047
 31
0.0
  0
LINE
  5
29DF
330
1E
100
AcDbEntity
  8
7
100
AcDbLine
 10
2.303149606299212
 20
5.886811023622047
 30
0.0
 11
2.303149606299212
 21
5.861220472440944
 31
0.0
  0
LINE
  5
29E0
330
1E
100
AcDbEntity
  8
7
100
AcDbLine
 10
2.478346456692913
 20
5.886811023622047
 30
0.0
 11
2.479330708661417
 21
5.861220472440944
 31
0.0
  0
LINE
  5
29E1
330
1E
100
AcDbEntity
  8
7
100
AcDbLine
 10
2.304133858267716
 20
5.863188976377952
 30
0.0
 11
2.303149606299212
 21
5.889763779527559
 31
0.0
  0
LINE
  5
29E2
330
1E
100
AcDbEntity
  8
7
100
AcDbLine
 10
2.477362204724409
 20
5.863188976377952
 30
0.0
 11
2.304133858267716
 21
5.863188976377952
 31
0.0
  0
LINE
  5
29E3
330
1E
100
AcDbEntity
  8
7
100
AcDbLine
 10
2.477362204724409
 20
5.863188976377952
 30
0.0
 11
2.478346456692913
 21
5.889763779527559
 31
0.0
  0
LINE
  5
29E4
330
1E
100
AcDbEntity
  8
7
100
AcDbLine
 10
2.477362204724409
 20
5.856299212598425
 30
0.0
 11
2.478346456692913
 21
5.824803149606299
 31
0.0
  0
LINE
  5
29E5
330
1E
100
AcDbEntity
  8
7
100
AcDbLine
 10
2.304133858267716
 20
5.856299212598425
 30
0.0
 11
2.477362204724409
 21
5.856299212598425
 31
0.0
  0
LINE
  5
29E6
330
1E
100
AcDbEntity
  8
7
100
AcDbLine
 10
2.304133858267716
 20
5.824803149606299
 30
0.0
 11
2.304133858267716
 21
5.856299212598425
 31
0.0
  0
LINE
  5
29E7
330
1E
100
AcDbEntity
  8
7
100
AcDbLine
 10
2.477362204724409
 20
5.856299212598425
 30
0.0
 11
2.477362204724409
 21
5.863188976377952
 31
0.0
  0
LINE
  5
29E8
330
1E
100
AcDbEntity
  8
7
100
AcDbLine
 10
2.304133858267716
 20
5.863188976377952
 30
0.0
 11
2.304133858267716
 21
5.856299212598425
 31
0.0
  0
LINE
  5
29E9
330
1E
100
AcDbEntity
  8
7
100
AcDbLine
 10
3.072834645669291
 20
5.863188976377952
 30
0.0
 11
3.071850393700787
 21
5.889763779527559
 31
0.0
  0
LINE
  5
29F5
330
1E
100
AcDbEntity
  8
7
100
AcDbLine
 10
3.246062992125984
 20
5.863188976377952
 30
0.0
 11
3.24507874015748
 21
5.856299212598425
 31
0.0
  0
LINE
  5
29F6
330
1E
100
AcDbEntity
  8
7
100
AcDbLine
 10
3.072834645669291
 20
5.856299212598425
 30
0.0
 11
3.072834645669291
 21
5.863188976377952
 31
0.0
  0
LINE
  5
29F7
330
1E
100
AcDbEntity
  8
7
100
AcDbLine
 10
2.852362204724409
 20
7.003937007874015
 30
0.0
 11
3.56003937007874
 21
7.003937007874015
 31
0.0
  0
LINE
  5
29F8
330
1E
100
AcDbEntity
  8
7
100
AcDbLine
 10
2.852362204724409
 20
7.002952755905512
 30
0.0
 11
3.561023622047243
 21
7.002952755905512
 31
0.0
  0
LINE
  5
29F9
330
1E
100
AcDbEntity
  8
7
100
AcDbLine
 10
2.852362204724409
 20
6.968503937007874
 30
0.0
 11
3.561023622047243
 21
6.968503937007874
 31
0.0
  0
LINE
  5
29FA
330
1E
100
AcDbEntity
  8
7
100
AcDbLine
 10
2.852362204724409
 20
6.966535433070865
 30
0.0
 11
3.562992125984251
 21
6.966535433070865
 31
0.0
  0
LINE
  5
29FB
330
1E
100
AcDbEntity
  8
7
100
AcDbLine
 10
2.807086614173228
 20
6.943897637795275
 30
0.0
 11
2.743110236220472
 21
6.943897637795275
 31
0.0
  0
LINE
  5
29FC
330
1E
100
AcDbEntity
  8
7
100
AcDbLine
 10
2.807086614173228
 20
6.940944881889763
 30
0.0
 11
2.743110236220472
 21
6.940944881889763
 31
0.0
  0
LINE
  5
29FD
330
1E
100
AcDbEntity
  8
7
100
AcDbLine
 10
2.697834645669291
 20
6.966535433070865
 30
0.0
 11
1.987204724409448
 21
6.966535433070865
 31
0.0
  0
LINE
  5
29FE
330
1E
100
AcDbEntity
  8
7
100
AcDbLine
 10
2.697834645669291
 20
6.968503937007874
 30
0.0
 11
1.989173228346456
 21
6.968503937007874
 31
0.0
  0
LINE
  5
29FF
330
1E
100
AcDbEntity
  8
7
100
AcDbLine
 10
2.697834645669291
 20
7.002952755905512
 30
0.0
 11
1.989173228346456
 21
7.002952755905512
 31
0.0
  0
LINE
  5
2A00
330
1E
100
AcDbEntity
  8
7
100
AcDbLine
 10
2.697834645669291
 20
7.003937007874015
 30
0.0
 11
1.99015748031496
 21
7.003937007874015
 31
0.0
  0
LINE
  5
2A06
330
1E
100
AcDbEntity
  8
7
100
AcDbLine
 10
3.066929133858267
 20
6.89271653543307
 30
0.0
 11
3.066929133858267
 21
6.791338582677164
 31
0.0
  0
LINE
  5
2A0D
330
1E
100
AcDbEntity
  8
7
100
AcDbLine
 10
2.697834645669291
 20
6.89271653543307
 30
0.0
 11
2.481299212598425
 21
6.89271653543307
 31
0.0
  0
LINE
  5
2A0E
330
1E
100
AcDbEntity
  8
7
100
AcDbLine
 10
2.852362204724409
 20
6.89271653543307
 30
0.0
 11
3.068897637795275
 21
6.89271653543307
 31
0.0
  0
LINE
  5
2A0F
330
1E
100
AcDbEntity
  8
7
100
AcDbLine
 10
3.39271653543307
 20
6.89271653543307
 30
0.0
 11
3.249015748031495
 21
6.89271653543307
 31
0.0
  0
LINE
  5
2A10
330
1E
100
AcDbEntity
  8
7
100
AcDbLine
 10
3.069881889763779
 20
6.76279527559055
 30
0.0
 11
3.068897637795275
 21
6.89271653543307
 31
0.0
  0
LINE
  5
2A11
330
1E
100
AcDbEntity
  8
7
100
AcDbLine
 10
3.249015748031495
 20
6.76279527559055
 30
0.0
 11
3.069881889763779
 21
6.76279527559055
 31
0.0
  0
LINE
  5
2A12
330
1E
100
AcDbEntity
  8
7
100
AcDbLine
 10
3.249015748031495
 20
6.76279527559055
 30
0.0
 11
3.249015748031495
 21
6.89271653543307
 31
0.0
  0
LINE
  5
2A13
330
1E
100
AcDbEntity
  8
7
100
AcDbLine
 10
3.069881889763779
 20
6.76279527559055
 30
0.0
 11
3.071850393700787
 21
6.696850393700787
 31
0.0
  0
LINE
  5
2A14
330
1E
100
AcDbEntity
  8
7
100
AcDbLine
 10
3.249015748031495
 20
6.696850393700787
 30
0.0
 11
3.071850393700787
 21
6.696850393700787
 31
0.0
  0
LINE
  5
2A15
330
1E
100
AcDbEntity
  8
7
100
AcDbLine
 10
3.249015748031495
 20
6.696850393700787
 30
0.0
 11
3.249015748031495
 21
6.76279527559055
 31
0.0
  0
LINE
  5
2A1B
330
1E
100
AcDbEntity
  8
7
100
AcDbLine
 10
3.071850393700787
 20
6.68996062992126
 30
0.0
 11
3.071850393700787
 21
6.687992125984251
 31
0.0
  0
LINE
  5
2A21
330
1E
100
AcDbEntity
  8
7
100
AcDbLine
 10
3.070866141732283
 20
6.659448818897637
 30
0.0
 11
3.067913385826771
 21
6.764763779527559
 31
0.0
  0
LINE
  5
2A29
330
1E
100
AcDbEntity
  8
7
100
AcDbLine
 10
3.071850393700787
 20
6.696850393700787
 30
0.0
 11
3.071850393700787
 21
6.68996062992126
 31
0.0
  0
LINE
  5
2A2A
330
1E
100
AcDbEntity
  8
7
100
AcDbLine
 10
3.249015748031495
 20
6.667322834645669
 30
0.0
 11
3.249015748031495
 21
6.682086614173228
 31
0.0
  0
LINE
  5
2A30
330
1E
100
AcDbEntity
  8
7
100
AcDbLine
 10
3.249015748031495
 20
6.68996062992126
 30
0.0
 11
3.249015748031495
 21
6.696850393700787
 31
0.0
  0
LINE
  5
2A31
330
1E
100
AcDbEntity
  8
7
100
AcDbLine
 10
2.480314960629921
 20
6.76279527559055
 30
0.0
 11
2.481299212598425
 21
6.89271653543307
 31
0.0
  0
LINE
  5
2A32
330
1E
100
AcDbEntity
  8
7
100
AcDbLine
 10
2.15748031496063
 20
6.89271653543307
 30
0.0
 11
2.301181102362204
 21
6.89271653543307
 31
0.0
  0
LINE
  5
2A33
330
1E
100
AcDbEntity
  8
7
100
AcDbLine
 10
2.301181102362204
 20
6.76279527559055
 30
0.0
 11
2.301181102362204
 21
6.89271653543307
 31
0.0
  0
LINE
  5
2A34
330
1E
100
AcDbEntity
  8
7
100
AcDbLine
 10
2.301181102362204
 20
6.76279527559055
 30
0.0
 11
2.480314960629921
 21
6.76279527559055
 31
0.0
  0
LINE
  5
2A35
330
1E
100
AcDbEntity
  8
7
100
AcDbLine
 10
2.479330708661417
 20
6.659448818897637
 30
0.0
 11
2.482283464566929
 21
6.764763779527559
 31
0.0
  0
LINE
  5
2A40
330
1E
100
AcDbEntity
  8
7
100
AcDbLine
 10
2.301181102362204
 20
6.682086614173228
 30
0.0
 11
2.478346456692913
 21
6.682086614173228
 31
0.0
  0
LINE
  5
2A41
330
1E
100
AcDbEntity
  8
7
100
AcDbLine
 10
2.301181102362204
 20
6.696850393700787
 30
0.0
 11
2.301181102362204
 21
6.76279527559055
 31
0.0
  0
LINE
  5
2A42
330
1E
100
AcDbEntity
  8
7
100
AcDbLine
 10
2.301181102362204
 20
6.696850393700787
 30
0.0
 11
2.478346456692913
 21
6.696850393700787
 31
0.0
  0
LINE
  5
2A43
330
1E
100
AcDbEntity
  8
7
100
AcDbLine
 10
2.480314960629921
 20
6.76279527559055
 30
0.0
 11
2.478346456692913
 21
6.696850393700787
 31
0.0
  0
LINE
  5
2A4B
330
1E
100
AcDbEntity
  8
7
100
AcDbLine
 10
2.478346456692913
 20
6.696850393700787
 30
0.0
 11
2.478346456692913
 21
6.68996062992126
 31
0.0
  0
LINE
  5
2A51
330
1E
100
AcDbEntity
  8
7
100
AcDbLine
 10
2.301181102362204
 20
6.682086614173228
 30
0.0
 11
2.301181102362204
 21
6.667322834645669
 31
0.0
  0
LINE
  5
2A52
330
1E
100
AcDbEntity
  8
7
100
AcDbLine
 10
2.301181102362204
 20
6.68996062992126
 30
0.0
 11
2.301181102362204
 21
6.696850393700787
 31
0.0
  0
LINE
  5
2A53
330
1E
100
AcDbEntity
  8
7
100
AcDbLine
 10
2.301181102362204
 20
6.667322834645669
 30
0.0
 11
2.478346456692913
 21
6.667322834645669
 31
0.0
  0
LINE
  5
2A54
330
1E
100
AcDbEntity
  8
7
100
AcDbLine
 10
3.071850393700787
 20
6.667322834645669
 30
0.0
 11
3.249015748031495
 21
6.667322834645669
 31
0.0
  0
LINE
  5
2A55
330
1E
100
AcDbEntity
  8
7
100
AcDbLine
 10
3.249015748031495
 20
6.68996062992126
 30
0.0
 11
3.071850393700787
 21
6.68996062992126
 31
0.0
  0
LINE
  5
2A56
330
1E
100
AcDbEntity
  8
7
100
AcDbLine
 10
2.478346456692913
 20
6.68996062992126
 30
0.0
 11
2.301181102362204
 21
6.68996062992126
 31
0.0
  0
LINE
  5
2A57
330
1E
100
AcDbEntity
  8
7
100
AcDbLine
 10
2.747047244094487
 20
5.136811023622047
 30
0.0
 11
2.698818897637795
 21
5.136811023622047
 31
0.0
  0
LINE
  5
2A58
330
1E
100
AcDbEntity
  8
7
100
AcDbLine
 10
2.803149606299212
 20
5.136811023622047
 30
0.0
 11
2.851377952755905
 21
5.136811023622047
 31
0.0
  0
LINE
  5
2A59
330
1E
100
AcDbEntity
  8
7
100
AcDbLine
 10
2.297244094488188
 20
6.644685039370078
 30
0.0
 11
2.487204724409448
 21
6.644685039370078
 31
0.0
  0
LINE
  5
2A5A
330
1E
100
AcDbEntity
  8
7
100
AcDbLine
 10
3.252952755905511
 20
6.644685039370078
 30
0.0
 11
3.062992125984251
 21
6.644685039370078
 31
0.0
  0
LINE
  5
2A5B
330
1E
100
AcDbEntity
  8
7
100
AcDbLine
 10
1.98523622047244
 20
6.065944881889763
 30
0.0
 11
2.037401574803149
 21
6.065944881889763
 31
0.0
  0
LINE
  5
2A5C
330
1E
100
AcDbEntity
  8
7
100
AcDbLine
 10
2.03248031496063
 20
6.469488188976377
 30
0.0
 11
1.989173228346456
 21
6.469488188976377
 31
0.0
  0
LINE
  5
2A5D
330
1E
100
AcDbEntity
  8
7
100
AcDbLine
 10
3.516732283464566
 20
6.469488188976377
 30
0.0
 11
3.561023622047243
 21
6.469488188976377
 31
0.0
  0
LINE
  5
2A5E
330
1E
100
AcDbEntity
  8
7
100
AcDbLine
 10
3.564960629921259
 20
6.065944881889763
 30
0.0
 11
3.51279527559055
 21
6.065944881889763
 31
0.0
  0
LINE
  5
2A5F
330
1E
100
AcDbEntity
  8
7
100
AcDbLine
 10
3.562007874015748
 20
6.64271653543307
 30
0.0
 11
1.988188976377952
 21
6.64271653543307
 31
0.0
  0
LINE
  5
2A60
330
1E
100
AcDbEntity
  8
7
100
AcDbLine
 10
2.852362204724409
 20
6.984251968503937
 30
0.0
 11
2.807086614173228
 21
6.984251968503937
 31
0.0
  0
LINE
  5
2A61
330
1E
100
AcDbEntity
  8
7
100
AcDbLine
 10
2.697834645669291
 20
6.984251968503937
 30
0.0
 11
2.743110236220472
 21
6.984251968503937
 31
0.0
  0
LINE
  5
2A62
330
1E
100
AcDbEntity
  8
7
100
AcDbLine
 10
2.487204724409448
 20
6.644685039370078
 30
0.0
 11
3.062992125984251
 21
6.644685039370078
 31
0.0
  0
LINE
  5
2A69
330
1E
100
AcDbEntity
  8
7
100
AcDbLine
 10
3.028543307086614
 20
6.656496062992125
 30
0.0
 11
3.028543307086614
 21
6.801181102362204
 31
0.0
  0
LINE
  5
2A6A
330
1E
100
AcDbEntity
  8
7
100
AcDbLine
 10
3.062992125984251
 20
6.656496062992125
 30
0.0
 11
3.028543307086614
 21
6.656496062992125
 31
0.0
  0
LINE
  5
2A6B
330
1E
100
AcDbEntity
  8
7
100
AcDbLine
 10
3.025590551181102
 20
6.76771653543307
 30
0.0
 11
2.524606299212598
 21
6.76771653543307
 31
0.0
  0
LINE
  5
2A6C
330
1E
100
AcDbEntity
  8
7
100
AcDbLine
 10
3.025590551181102
 20
6.76771653543307
 30
0.0
 11
3.025590551181102
 21
6.797244094488188
 31
0.0
  0
LINE
  5
2A6D
330
1E
100
AcDbEntity
  8
7
100
AcDbLine
 10
2.524606299212598
 20
6.797244094488188
 30
0.0
 11
3.025590551181102
 21
6.797244094488188
 31
0.0
  0
LINE
  5
2A6E
330
1E
100
AcDbEntity
  8
7
100
AcDbLine
 10
2.524606299212598
 20
6.76771653543307
 30
0.0
 11
2.524606299212598
 21
6.797244094488188
 31
0.0
  0
LINE
  5
2A6F
330
1E
100
AcDbEntity
  8
7
100
AcDbLine
 10
3.028543307086614
 20
6.656496062992125
 30
0.0
 11
3.025590551181102
 21
6.76771653543307
 31
0.0
  0
LINE
  5
2A70
330
1E
100
AcDbEntity
  8
7
100
AcDbLine
 10
3.025590551181102
 20
6.797244094488188
 30
0.0
 11
3.028543307086614
 21
6.801181102362204
 31
0.0
  0
LINE
  5
2A71
330
1E
100
AcDbEntity
  8
7
100
AcDbLine
 10
2.524606299212598
 20
6.797244094488188
 30
0.0
 11
2.521653543307086
 21
6.801181102362204
 31
0.0
  0
LINE
  5
2A72
330
1E
100
AcDbEntity
  8
7
100
AcDbLine
 10
2.521653543307086
 20
6.656496062992125
 30
0.0
 11
2.524606299212598
 21
6.76771653543307
 31
0.0
  0
LINE
  5
2B82
330
1E
100
AcDbEntity
  8
7
100
AcDbLine
 10
3.609251968503937
 20
5.506889763779527
 30
0.0
 11
3.613188976377952
 21
5.481299212598425
 31
0.0
  0
LINE
  5
2B9B
330
1E
100
AcDbEntity
  8
7
100
AcDbLine
 10
3.766732283464566
 20
3.896653543307086
 30
0.0
 11
3.765748031496062
 21
3.9251968503937
 31
0.0
  0
LINE
  5
2B9C
330
1E
100
AcDbEntity
  8
7
100
AcDbLine
 10
3.609251968503937
 20
3.9251968503937
 30
0.0
 11
3.609251968503937
 21
3.896653543307086
 31
0.0
  0
LINE
  5
2B9D
330
1E
100
AcDbEntity
  8
7
100
AcDbLine
 10
1.940944881889763
 20
3.896653543307086
 30
0.0
 11
1.940944881889763
 21
3.9251968503937
 31
0.0
  0
LINE
  5
2B9E
330
1E
100
AcDbEntity
  8
7
100
AcDbLine
 10
1.784448818897637
 20
3.9251968503937
 30
0.0
 11
1.783464566929133
 21
3.896653543307086
 31
0.0
  0
LINE
  5
2B9F
330
1E
100
AcDbEntity
  8
7
100
AcDbLine
 10
3.807086614173228
 20
3.663385826771653
 30
0.0
 11
3.808070866141732
 21
3.713582677165354
 31
0.0
  0
LINE
  5
2BA0
330
1E
100
AcDbEntity
  8
7
100
AcDbLine
 10
1.742125984251968
 20
3.713582677165354
 30
0.0
 11
1.743110236220472
 21
3.663385826771653
 31
0.0
  0
LINE
  5
2BB5
330
1E
100
AcDbEntity
  8
7
100
AcDbLine
 10
3.807086614173228
 20
3.896653543307086
 30
0.0
 11
3.808070866141732
 21
3.896653543307086
 31
0.0
  0
LINE
  5
2BB6
330
1E
100
AcDbEntity
  8
7
100
AcDbLine
 10
3.698818897637795
 20
3.896653543307086
 30
0.0
 11
3.716535433070866
 21
3.896653543307086
 31
0.0
  0
LINE
  5
2BB7
330
1E
100
AcDbEntity
  8
7
100
AcDbLine
 10
3.87007874015748
 20
3.896653543307086
 30
0.0
 11
3.852362204724409
 21
3.896653543307086
 31
0.0
  0
LINE
  5
2BB8
330
1E
100
AcDbEntity
  8
7
100
AcDbLine
 10
3.469488188976377
 20
3.896653543307086
 30
0.0
 11
3.487204724409448
 21
3.896653543307086
 31
0.0
  0
LINE
  5
2BB9
330
1E
100
AcDbEntity
  8
7
100
AcDbLine
 10
3.808070866141732
 20
3.896653543307086
 30
0.0
 11
3.816929133858267
 21
3.896653543307086
 31
0.0
  0
LINE
  5
2BBA
330
1E
100
AcDbEntity
  8
7
100
AcDbLine
 10
3.977362204724409
 20
3.896653543307086
 30
0.0
 11
3.905511811023622
 21
3.896653543307086
 31
0.0
  0
LINE
  5
2BBB
330
1E
100
AcDbEntity
  8
7
100
AcDbLine
 10
3.513779527559055
 20
3.896653543307086
 30
0.0
 11
3.52263779527559
 21
3.896653543307086
 31
0.0
  0
LINE
  5
2BBC
330
1E
100
AcDbEntity
  8
7
100
AcDbLine
 10
3.246062992125984
 20
3.896653543307086
 30
0.0
 11
3.263779527559055
 21
3.896653543307086
 31
0.0
  0
LINE
  5
2BBD
330
1E
100
AcDbEntity
  8
7
100
AcDbLine
 10
1.754921259842519
 20
3.896653543307086
 30
0.0
 11
1.790354330708661
 21
3.896653543307086
 31
0.0
  0
LINE
  5
2BBE
330
1E
100
AcDbEntity
  8
7
100
AcDbLine
 10
2.003937007874015
 20
3.896653543307086
 30
0.0
 11
1.950787401574803
 21
3.896653543307086
 31
0.0
  0
LINE
  5
2BBF
330
1E
100
AcDbEntity
  8
7
100
AcDbLine
 10
2.101377952755905
 20
3.896653543307086
 30
0.0
 11
2.12007874015748
 21
3.896653543307086
 31
0.0
  0
LINE
  5
2BC0
330
1E
100
AcDbEntity
  8
7
100
AcDbLine
 10
3.743110236220472
 20
3.896653543307086
 30
0.0
 11
3.796259842519685
 21
3.896653543307086
 31
0.0
  0
LINE
  5
2BC1
330
1E
100
AcDbEntity
  8
7
100
AcDbLine
 10
3.834645669291338
 20
3.896653543307086
 30
0.0
 11
3.852362204724409
 21
3.896653543307086
 31
0.0
  0
LINE
  5
2BC2
330
1E
100
AcDbEntity
  8
7
100
AcDbLine
 10
3.342519685039369
 20
3.896653543307086
 30
0.0
 11
3.36515748031496
 21
3.896653543307086
 31
0.0
  0
LINE
  5
2BC3
330
1E
100
AcDbEntity
  8
7
100
AcDbLine
 10
3.246062992125984
 20
3.896653543307086
 30
0.0
 11
3.228346456692913
 21
3.896653543307086
 31
0.0
  0
LINE
  5
2BC4
330
1E
100
AcDbEntity
  8
7
100
AcDbLine
 10
3.487204724409448
 20
3.896653543307086
 30
0.0
 11
3.469488188976377
 21
3.896653543307086
 31
0.0
  0
LINE
  5
2BC5
330
1E
100
AcDbEntity
  8
7
100
AcDbLine
 10
3.698818897637795
 20
3.896653543307086
 30
0.0
 11
3.662401574803149
 21
3.896653543307086
 31
0.0
  0
LINE
  5
2BC6
330
1E
100
AcDbEntity
  8
7
100
AcDbLine
 10
3.879921259842519
 20
3.896653543307086
 30
0.0
 11
3.87007874015748
 21
3.896653543307086
 31
0.0
  0
LINE
  5
2BC7
330
1E
100
AcDbEntity
  8
7
100
AcDbLine
 10
3.906496062992125
 20
3.896653543307086
 30
0.0
 11
3.977362204724409
 21
3.896653543307086
 31
0.0
  0
LINE
  5
2BC8
330
1E
100
AcDbEntity
  8
7
100
AcDbLine
 10
3.683070866141732
 20
3.896653543307086
 30
0.0
 11
3.612204724409448
 21
3.896653543307086
 31
0.0
  0
LINE
  5
2BC9
330
1E
100
AcDbEntity
  8
7
100
AcDbLine
 10
1.853346456692913
 20
3.896653543307086
 30
0.0
 11
1.924212598425196
 21
3.896653543307086
 31
0.0
  0
LINE
  5
2BCA
330
1E
100
AcDbEntity
  8
7
100
AcDbLine
 10
2.02263779527559
 20
3.896653543307086
 30
0.0
 11
2.003937007874015
 21
3.896653543307086
 31
0.0
  0
LINE
  5
2BCB
330
1E
100
AcDbEntity
  8
7
100
AcDbLine
 10
2.049212598425196
 20
3.896653543307086
 30
0.0
 11
2.065944881889763
 21
3.896653543307086
 31
0.0
  0
LINE
  5
2BCC
330
1E
100
AcDbEntity
  8
7
100
AcDbLine
 10
1.950787401574803
 20
3.896653543307086
 30
0.0
 11
2.003937007874015
 21
3.896653543307086
 31
0.0
  0
LINE
  5
2BCD
330
1E
100
AcDbEntity
  8
7
100
AcDbLine
 10
2.065944881889763
 20
3.896653543307086
 30
0.0
 11
2.101377952755905
 21
3.896653543307086
 31
0.0
  0
LINE
  5
2BCE
330
1E
100
AcDbEntity
  8
7
100
AcDbLine
 10
3.469488188976377
 20
3.896653543307086
 30
0.0
 11
3.433070866141732
 21
3.896653543307086
 31
0.0
  0
LINE
  5
2BCF
330
1E
100
AcDbEntity
  8
7
100
AcDbLine
 10
3.716535433070866
 20
3.896653543307086
 30
0.0
 11
3.698818897637795
 21
3.896653543307086
 31
0.0
  0
LINE
  5
2BD0
330
1E
100
AcDbEntity
  8
7
100
AcDbLine
 10
3.228346456692913
 20
3.896653543307086
 30
0.0
 11
3.218503937007874
 21
3.896653543307086
 31
0.0
  0
LINE
  5
2BD1
330
1E
100
AcDbEntity
  8
7
100
AcDbLine
 10
3.834645669291338
 20
3.896653543307086
 30
0.0
 11
3.816929133858267
 21
3.896653543307086
 31
0.0
  0
LINE
  5
2BD2
330
1E
100
AcDbEntity
  8
7
100
AcDbLine
 10
3.51279527559055
 20
3.896653543307086
 30
0.0
 11
3.513779527559055
 21
3.896653543307086
 31
0.0
  0
LINE
  5
2BD3
330
1E
100
AcDbEntity
  8
7
100
AcDbLine
 10
3.558070866141732
 20
3.896653543307086
 30
0.0
 11
3.540354330708661
 21
3.896653543307086
 31
0.0
  0
LINE
  5
2BD4
330
1E
100
AcDbEntity
  8
7
100
AcDbLine
 10
3.469488188976377
 20
3.896653543307086
 30
0.0
 11
3.487204724409448
 21
3.896653543307086
 31
0.0
  0
LINE
  5
2BD5
330
1E
100
AcDbEntity
  8
7
100
AcDbLine
 10
3.415354330708661
 20
3.896653543307086
 30
0.0
 11
3.433070866141732
 21
3.896653543307086
 31
0.0
  0
LINE
  5
2BD6
330
1E
100
AcDbEntity
  8
7
100
AcDbLine
 10
2.003937007874015
 20
3.896653543307086
 30
0.0
 11
2.02263779527559
 21
3.896653543307086
 31
0.0
  0
LINE
  5
2BD7
330
1E
100
AcDbEntity
  8
7
100
AcDbLine
 10
3.281496062992125
 20
3.896653543307086
 30
0.0
 11
3.291338582677165
 21
3.896653543307086
 31
0.0
  0
LINE
  5
2BD8
330
1E
100
AcDbEntity
  8
7
100
AcDbLine
 10
1.709645669291338
 20
3.896653543307086
 30
0.0
 11
1.656496062992125
 21
3.896653543307086
 31
0.0
  0
LINE
  5
2BD9
330
1E
100
AcDbEntity
  8
7
100
AcDbLine
 10
2.173228346456693
 20
3.896653543307086
 30
0.0
 11
2.190944881889763
 21
3.896653543307086
 31
0.0
  0
LINE
  5
2BDA
330
1E
100
AcDbEntity
  8
7
100
AcDbLine
 10
3.796259842519685
 20
3.896653543307086
 30
0.0
 11
3.813976377952755
 21
3.896653543307086
 31
0.0
  0
LINE
  5
2BDB
330
1E
100
AcDbEntity
  8
7
100
AcDbLine
 10
3.416338582677165
 20
3.896653543307086
 30
0.0
 11
3.433070866141732
 21
3.896653543307086
 31
0.0
  0
LINE
  5
2BDC
330
1E
100
AcDbEntity
  8
7
100
AcDbLine
 10
3.852362204724409
 20
3.896653543307086
 30
0.0
 11
3.834645669291338
 21
3.896653543307086
 31
0.0
  0
LINE
  5
2BDD
330
1E
100
AcDbEntity
  8
7
100
AcDbLine
 10
3.416338582677165
 20
3.896653543307086
 30
0.0
 11
3.415354330708661
 21
3.896653543307086
 31
0.0
  0
LINE
  5
2BDE
330
1E
100
AcDbEntity
  8
7
100
AcDbLine
 10
3.433070866141732
 20
3.896653543307086
 30
0.0
 11
3.416338582677165
 21
3.896653543307086
 31
0.0
  0
LINE
  5
2BDF
330
1E
100
AcDbEntity
  8
7
100
AcDbLine
 10
3.638779527559055
 20
3.896653543307086
 30
0.0
 11
3.683070866141732
 21
3.896653543307086
 31
0.0
  0
LINE
  5
2BE0
330
1E
100
AcDbEntity
  8
7
100
AcDbLine
 10
3.816929133858267
 20
3.896653543307086
 30
0.0
 11
3.834645669291338
 21
3.896653543307086
 31
0.0
  0
LINE
  5
2BE1
330
1E
100
AcDbEntity
  8
7
100
AcDbLine
 10
3.433070866141732
 20
3.896653543307086
 30
0.0
 11
3.469488188976377
 21
3.896653543307086
 31
0.0
  0
LINE
  5
2BE2
330
1E
100
AcDbEntity
  8
7
100
AcDbLine
 10
1.790354330708661
 20
3.896653543307086
 30
0.0
 11
1.825787401574803
 21
3.896653543307086
 31
0.0
  0
LINE
  5
2BE3
330
1E
100
AcDbEntity
  8
7
100
AcDbLine
 10
1.656496062992125
 20
3.896653543307086
 30
0.0
 11
1.710629921259842
 21
3.896653543307086
 31
0.0
  0
LINE
  5
2BE4
330
1E
100
AcDbEntity
  8
7
100
AcDbLine
 10
3.558070866141732
 20
3.896653543307086
 30
0.0
 11
3.575787401574803
 21
3.896653543307086
 31
0.0
  0
LINE
  5
2BE5
330
1E
100
AcDbEntity
  8
7
100
AcDbLine
 10
3.662401574803149
 20
3.896653543307086
 30
0.0
 11
3.698818897637795
 21
3.896653543307086
 31
0.0
  0
LINE
  5
2BE6
330
1E
100
AcDbEntity
  8
7
100
AcDbLine
 10
3.852362204724409
 20
3.896653543307086
 30
0.0
 11
3.87007874015748
 21
3.896653543307086
 31
0.0
  0
LINE
  5
2BE7
330
1E
100
AcDbEntity
  8
7
100
AcDbLine
 10
3.662401574803149
 20
3.896653543307086
 30
0.0
 11
3.643700787401574
 21
3.896653543307086
 31
0.0
  0
LINE
  5
2BE8
330
1E
100
AcDbEntity
  8
7
100
AcDbLine
 10
3.906496062992125
 20
3.896653543307086
 30
0.0
 11
3.923228346456692
 21
3.896653543307086
 31
0.0
  0
LINE
  5
2BE9
330
1E
100
AcDbEntity
  8
7
100
AcDbLine
 10
3.433070866141732
 20
3.896653543307086
 30
0.0
 11
3.469488188976377
 21
3.896653543307086
 31
0.0
  0
LINE
  5
2BEA
330
1E
100
AcDbEntity
  8
7
100
AcDbLine
 10
3.575787401574803
 20
3.896653543307086
 30
0.0
 11
3.558070866141732
 21
3.896653543307086
 31
0.0
  0
LINE
  5
2BEB
330
1E
100
AcDbEntity
  8
7
100
AcDbLine
 10
3.219488188976377
 20
3.896653543307086
 30
0.0
 11
3.228346456692913
 21
3.896653543307086
 31
0.0
  0
LINE
  5
2BEC
330
1E
100
AcDbEntity
  8
7
100
AcDbLine
 10
3.218503937007874
 20
3.896653543307086
 30
0.0
 11
3.219488188976377
 21
3.896653543307086
 31
0.0
  0
LINE
  5
2BED
330
1E
100
AcDbEntity
  8
7
100
AcDbLine
 10
3.281496062992125
 20
3.896653543307086
 30
0.0
 11
3.263779527559055
 21
3.896653543307086
 31
0.0
  0
LINE
  5
2BEE
330
1E
100
AcDbEntity
  8
7
100
AcDbLine
 10
1.710629921259842
 20
3.896653543307086
 30
0.0
 11
1.728346456692913
 21
3.896653543307086
 31
0.0
  0
LINE
  5
2BEF
330
1E
100
AcDbEntity
  8
7
100
AcDbLine
 10
2.316929133858267
 20
3.896653543307086
 30
0.0
 11
2.24507874015748
 21
3.896653543307086
 31
0.0
  0
LINE
  5
2BF0
330
1E
100
AcDbEntity
  8
7
100
AcDbLine
 10
1.77263779527559
 20
3.896653543307086
 30
0.0
 11
1.808070866141732
 21
3.896653543307086
 31
0.0
  0
LINE
  5
2BF1
330
1E
100
AcDbEntity
  8
7
100
AcDbLine
 10
3.643700787401574
 20
3.896653543307086
 30
0.0
 11
3.662401574803149
 21
3.896653543307086
 31
0.0
  0
LINE
  5
2BF2
330
1E
100
AcDbEntity
  8
7
100
AcDbLine
 10
3.763779527559055
 20
3.896653543307086
 30
0.0
 11
3.728346456692913
 21
3.896653543307086
 31
0.0
  0
LINE
  5
2BF3
330
1E
100
AcDbEntity
  8
7
100
AcDbLine
 10
3.540354330708661
 20
3.896653543307086
 30
0.0
 11
3.52263779527559
 21
3.896653543307086
 31
0.0
  0
LINE
  5
2BF4
330
1E
100
AcDbEntity
  8
7
100
AcDbLine
 10
3.540354330708661
 20
3.896653543307086
 30
0.0
 11
3.558070866141732
 21
3.896653543307086
 31
0.0
  0
LINE
  5
2BF5
330
1E
100
AcDbEntity
  8
7
100
AcDbLine
 10
3.905511811023622
 20
3.896653543307086
 30
0.0
 11
3.906496062992125
 21
3.896653543307086
 31
0.0
  0
LINE
  5
2BF6
330
1E
100
AcDbEntity
  8
7
100
AcDbLine
 10
3.228346456692913
 20
3.896653543307086
 30
0.0
 11
3.246062992125984
 21
3.896653543307086
 31
0.0
  0
LINE
  5
2BF7
330
1E
100
AcDbEntity
  8
7
100
AcDbLine
 10
3.575787401574803
 20
3.896653543307086
 30
0.0
 11
3.585629921259842
 21
3.896653543307086
 31
0.0
  0
LINE
  5
2BF8
330
1E
100
AcDbEntity
  8
7
100
AcDbLine
 10
3.87007874015748
 20
3.896653543307086
 30
0.0
 11
3.879921259842519
 21
3.896653543307086
 31
0.0
  0
LINE
  5
2BF9
330
1E
100
AcDbEntity
  8
7
100
AcDbLine
 10
3.959645669291338
 20
3.896653543307086
 30
0.0
 11
3.977362204724409
 21
3.896653543307086
 31
0.0
  0
LINE
  5
2BFA
330
1E
100
AcDbEntity
  8
7
100
AcDbLine
 10
3.263779527559055
 20
3.896653543307086
 30
0.0
 11
3.246062992125984
 21
3.896653543307086
 31
0.0
  0
LINE
  5
2BFB
330
1E
100
AcDbEntity
  8
7
100
AcDbLine
 10
2.173228346456693
 20
3.896653543307086
 30
0.0
 11
2.190944881889763
 21
3.896653543307086
 31
0.0
  0
LINE
  5
2BFC
330
1E
100
AcDbEntity
  8
7
100
AcDbLine
 10
3.263779527559055
 20
3.896653543307086
 30
0.0
 11
3.281496062992125
 21
3.896653543307086
 31
0.0
  0
LINE
  5
2BFD
330
1E
100
AcDbEntity
  8
7
100
AcDbLine
 10
3.795275590551181
 20
3.896653543307086
 30
0.0
 11
3.743110236220472
 21
3.896653543307086
 31
0.0
  0
LINE
  5
2BFE
330
1E
100
AcDbEntity
  8
7
100
AcDbLine
 10
3.813976377952755
 20
3.896653543307086
 30
0.0
 11
3.795275590551181
 21
3.896653543307086
 31
0.0
  0
LINE
  5
2BFF
330
1E
100
AcDbEntity
  8
7
100
AcDbLine
 10
3.618110236220472
 20
3.896653543307086
 30
0.0
 11
3.547244094488188
 21
3.896653543307086
 31
0.0
  0
LINE
  5
2C00
330
1E
100
AcDbEntity
  8
7
100
AcDbLine
 10
3.346456692913385
 20
3.896653543307086
 30
0.0
 11
3.353346456692913
 21
3.896653543307086
 31
0.0
  0
LINE
  5
2C01
330
1E
100
AcDbEntity
  8
7
100
AcDbLine
 10
3.923228346456692
 20
3.896653543307086
 30
0.0
 11
3.959645669291338
 21
3.896653543307086
 31
0.0
  0
LINE
  5
2C02
330
1E
100
AcDbEntity
  8
7
100
AcDbLine
 10
3.816929133858267
 20
3.896653543307086
 30
0.0
 11
3.807086614173228
 21
3.896653543307086
 31
0.0
  0
LINE
  5
2C03
330
1E
100
AcDbEntity
  8
7
100
AcDbLine
 10
3.52263779527559
 20
3.896653543307086
 30
0.0
 11
3.540354330708661
 21
3.896653543307086
 31
0.0
  0
LINE
  5
2C04
330
1E
100
AcDbEntity
  8
7
100
AcDbLine
 10
3.585629921259842
 20
3.896653543307086
 30
0.0
 11
3.575787401574803
 21
3.896653543307086
 31
0.0
  0
LINE
  5
2C05
330
1E
100
AcDbEntity
  8
7
100
AcDbLine
 10
3.52263779527559
 20
3.896653543307086
 30
0.0
 11
3.51279527559055
 21
3.896653543307086
 31
0.0
  0
LINE
  5
2C06
330
1E
100
AcDbEntity
  8
7
100
AcDbLine
 10
1.728346456692913
 20
3.896653543307086
 30
0.0
 11
1.709645669291338
 21
3.896653543307086
 31
0.0
  0
LINE
  5
2C07
330
1E
100
AcDbEntity
  8
7
100
AcDbLine
 10
3.291338582677165
 20
3.896653543307086
 30
0.0
 11
3.281496062992125
 21
3.896653543307086
 31
0.0
  0
LINE
  5
2C12
330
1E
100
AcDbEntity
  8
7
100
AcDbLine
 10
3.965551181102362
 20
3.896653543307086
 30
0.0
 11
1.584645669291338
 21
3.896653543307086
 31
0.0
  0
LINE
  5
2C1C
330
1E
100
AcDbEntity
  8
7
100
AcDbLine
 10
4.148622047244093
 20
3.896653543307086
 30
0.0
 11
4.15255905511811
 21
3.896653543307086
 31
0.0
  0
LINE
  5
2C1D
330
1E
100
AcDbEntity
  8
7
100
AcDbLine
 10
1.584645669291338
 20
3.855314960629921
 30
0.0
 11
3.965551181102362
 21
3.855314960629921
 31
0.0
  0
LINE
  5
2C28
330
1E
100
AcDbEntity
  8
7
100
AcDbLine
 10
4.15255905511811
 20
3.855314960629921
 30
0.0
 11
4.148622047244093
 21
3.855314960629921
 31
0.0
  0
LINE
  5
2C32
330
1E
100
AcDbEntity
  8
7
100
AcDbLine
 10
4.15255905511811
 20
3.896653543307086
 30
0.0
 11
4.15255905511811
 21
3.855314960629921
 31
0.0
  0
LINE
  5
2C33
330
1E
100
AcDbEntity
  8
7
100
AcDbLine
 10
1.584645669291338
 20
3.896653543307086
 30
0.0
 11
1.584645669291338
 21
3.855314960629921
 31
0.0
  0
LINE
  5
2C34
330
1E
100
AcDbEntity
  8
7
100
AcDbLine
 10
3.965551181102362
 20
3.855314960629921
 30
0.0
 11
3.965551181102362
 21
3.896653543307086
 31
0.0
  0
LINE
  5
2C35
330
1E
100
AcDbEntity
  8
7
100
AcDbLine
 10
1.396653543307086
 20
3.855314960629921
 30
0.0
 11
1.396653543307086
 21
3.896653543307086
 31
0.0
  0
LINE
  5
2C36
330
1E
100
AcDbEntity
  8
7
100
AcDbLine
 10
3.571850393700787
 20
3.98523622047244
 30
0.0
 11
3.570866141732283
 21
3.896653543307086
 31
0.0
  0
LINE
  5
2C37
330
1E
100
AcDbEntity
  8
7
100
AcDbLine
 10
3.562992125984251
 20
3.472440944881889
 30
0.0
 11
3.569881889763779
 21
3.855314960629921
 31
0.0
  0
LINE
  5
2C38
330
1E
100
AcDbEntity
  8
7
100
AcDbLine
 10
3.562992125984251
 20
3.472440944881889
 30
0.0
 11
3.562992125984251
 21
3.469488188976377
 31
0.0
  0
LINE
  5
2C39
330
1E
100
AcDbEntity
  8
7
100
AcDbLine
 10
1.977362204724409
 20
3.98523622047244
 30
0.0
 11
1.979330708661417
 21
3.896653543307086
 31
0.0
  0
LINE
  5
2C3A
330
1E
100
AcDbEntity
  8
7
100
AcDbLine
 10
1.987204724409448
 20
3.472440944881889
 30
0.0
 11
1.987204724409448
 21
3.469488188976377
 31
0.0
  0
LINE
  5
2C3B
330
1E
100
AcDbEntity
  8
7
100
AcDbLine
 10
1.987204724409448
 20
3.472440944881889
 30
0.0
 11
1.980314960629921
 21
3.855314960629921
 31
0.0
  0
LINE
  5
2C3C
330
1E
100
AcDbEntity
  8
7
100
AcDbLine
 10
2.069881889763779
 20
3.98523622047244
 30
0.0
 11
2.071850393700787
 21
4.099409448818897
 31
0.0
  0
LINE
  5
2C3D
330
1E
100
AcDbEntity
  8
7
100
AcDbLine
 10
2.714566929133858
 20
4.099409448818897
 30
0.0
 11
2.716535433070866
 21
3.98523622047244
 31
0.0
  0
LINE
  5
2C3E
330
1E
100
AcDbEntity
  8
7
100
AcDbLine
 10
2.835629921259842
 20
4.099409448818897
 30
0.0
 11
2.833661417322834
 21
3.98523622047244
 31
0.0
  0
LINE
  5
2C3F
330
1E
100
AcDbEntity
  8
7
100
AcDbLine
 10
3.480314960629921
 20
3.98523622047244
 30
0.0
 11
3.477362204724409
 21
4.099409448818897
 31
0.0
  0
LINE
  5
2C40
330
1E
100
AcDbEntity
  8
7
100
AcDbLine
 10
3.561023622047243
 20
4.218503937007874
 30
0.0
 11
3.564960629921259
 21
3.98523622047244
 31
0.0
  0
LINE
  5
2C41
330
1E
100
AcDbEntity
  8
7
100
AcDbLine
 10
1.989173228346456
 20
4.218503937007874
 30
0.0
 11
1.98523622047244
 21
3.98523622047244
 31
0.0
  0
LINE
  5
2C42
330
1E
100
AcDbEntity
  8
7
100
AcDbLine
 10
3.478346456692913
 20
4.033464566929134
 30
0.0
 11
3.479330708661417
 21
3.98523622047244
 31
0.0
  0
LINE
  5
2C49
330
1E
100
AcDbEntity
  8
7
100
AcDbLine
 10
3.503937007874015
 20
3.428149606299212
 30
0.0
 11
3.521653543307086
 21
3.428149606299212
 31
0.0
  0
LINE
  5
2C4A
330
1E
100
AcDbEntity
  8
7
100
AcDbLine
 10
2.072834645669291
 20
4.033464566929134
 30
0.0
 11
2.071850393700787
 21
3.98523622047244
 31
0.0
  0
LINE
  5
2C4B
330
1E
100
AcDbEntity
  8
7
100
AcDbLine
 10
2.062992125984251
 20
3.469488188976377
 30
0.0
 11
2.062007874015748
 21
3.442913385826771
 31
0.0
  0
LINE
  5
2C4C
330
1E
100
AcDbEntity
  8
7
100
AcDbLine
 10
2.047244094488188
 20
3.428149606299212
 30
0.0
 11
2.028543307086614
 21
3.428149606299212
 31
0.0
  0
LINE
  5
2C52
330
1E
100
AcDbEntity
  8
7
100
AcDbLine
 10
3.279527559055118
 20
4.051181102362204
 30
0.0
 11
3.280511811023622
 21
3.98523622047244
 31
0.0
  0
LINE
  5
2C53
330
1E
100
AcDbEntity
  8
7
100
AcDbLine
 10
3.321850393700787
 20
3.98523622047244
 30
0.0
 11
3.320866141732283
 21
4.051181102362204
 31
0.0
  0
LINE
  5
2C54
330
1E
100
AcDbEntity
  8
7
100
AcDbLine
 10
3.319881889763779
 20
4.051181102362204
 30
0.0
 11
3.320866141732283
 21
3.98523622047244
 31
0.0
  0
LINE
  5
2C55
330
1E
100
AcDbEntity
  8
7
100
AcDbLine
 10
3.001968503937007
 20
4.051181102362204
 30
0.0
 11
3.000984251968503
 21
3.98523622047244
 31
0.0
  0
LINE
  5
2C56
330
1E
100
AcDbEntity
  8
7
100
AcDbLine
 10
3.0
 20
3.98523622047244
 30
0.0
 11
3.000984251968503
 21
4.051181102362204
 31
0.0
  0
LINE
  5
2C57
330
1E
100
AcDbEntity
  8
7
100
AcDbLine
 10
3.042322834645669
 20
4.051181102362204
 30
0.0
 11
3.041338582677165
 21
3.98523622047244
 31
0.0
  0
LINE
  5
2C58
330
1E
100
AcDbEntity
  8
7
100
AcDbLine
 10
2.507874015748031
 20
4.051181102362204
 30
0.0
 11
2.508858267716535
 21
3.98523622047244
 31
0.0
  0
LINE
  5
2C59
330
1E
100
AcDbEntity
  8
7
100
AcDbLine
 10
2.5501968503937
 20
3.98523622047244
 30
0.0
 11
2.549212598425196
 21
4.051181102362204
 31
0.0
  0
LINE
  5
2C5A
330
1E
100
AcDbEntity
  8
7
100
AcDbLine
 10
2.548228346456693
 20
4.051181102362204
 30
0.0
 11
2.549212598425196
 21
3.98523622047244
 31
0.0
  0
LINE
  5
2C5B
330
1E
100
AcDbEntity
  8
7
100
AcDbLine
 10
2.230314960629921
 20
4.051181102362204
 30
0.0
 11
2.229330708661417
 21
3.98523622047244
 31
0.0
  0
LINE
  5
2C5C
330
1E
100
AcDbEntity
  8
7
100
AcDbLine
 10
2.228346456692913
 20
3.98523622047244
 30
0.0
 11
2.229330708661417
 21
4.051181102362204
 31
0.0
  0
LINE
  5
2C5D
330
1E
100
AcDbEntity
  8
7
100
AcDbLine
 10
2.270669291338582
 20
4.051181102362204
 30
0.0
 11
2.269685039370078
 21
3.98523622047244
 31
0.0
  0
LINE
  5
2C5E
330
1E
100
AcDbEntity
  8
7
100
AcDbLine
 10
2.785433070866141
 20
3.46259842519685
 30
0.0
 11
2.785433070866141
 21
3.467519685039369
 31
0.0
  0
LINE
  5
2C5F
330
1E
100
AcDbEntity
  8
7
100
AcDbLine
 10
2.297244094488188
 20
3.98523622047244
 30
0.0
 11
2.297244094488188
 21
4.005905511811023
 31
0.0
  0
LINE
  5
2C60
330
1E
100
AcDbEntity
  8
7
100
AcDbLine
 10
2.487204724409448
 20
4.005905511811023
 30
0.0
 11
2.297244094488188
 21
4.005905511811023
 31
0.0
  0
LINE
  5
2C61
330
1E
100
AcDbEntity
  8
7
100
AcDbLine
 10
2.487204724409448
 20
3.98523622047244
 30
0.0
 11
2.487204724409448
 21
4.005905511811023
 31
0.0
  0
LINE
  5
2C62
330
1E
100
AcDbEntity
  8
7
100
AcDbLine
 10
2.764763779527558
 20
3.46259842519685
 30
0.0
 11
2.764763779527558
 21
3.467519685039369
 31
0.0
  0
LINE
  5
2C68
330
1E
100
AcDbEntity
  8
7
100
AcDbLine
 10
3.252952755905511
 20
3.98523622047244
 30
0.0
 11
3.252952755905511
 21
4.005905511811023
 31
0.0
  0
LINE
  5
2C69
330
1E
100
AcDbEntity
  8
7
100
AcDbLine
 10
2.835629921259842
 20
4.033464566929134
 30
0.0
 11
2.834645669291338
 21
3.98523622047244
 31
0.0
  0
LINE
  5
2C6A
330
1E
100
AcDbEntity
  8
7
100
AcDbLine
 10
2.714566929133858
 20
4.033464566929134
 30
0.0
 11
2.715551181102362
 21
3.98523622047244
 31
0.0
  0
LINE
  5
2C6B
330
1E
100
AcDbEntity
  8
7
100
AcDbLine
 10
2.037401574803149
 20
3.98523622047244
 30
0.0
 11
2.03248031496063
 21
4.218503937007874
 31
0.0
  0
LINE
  5
2C6C
330
1E
100
AcDbEntity
  8
7
100
AcDbLine
 10
3.51279527559055
 20
3.98523622047244
 30
0.0
 11
3.516732283464566
 21
4.218503937007874
 31
0.0
  0
LINE
  5
2C6D
330
1E
100
AcDbEntity
  8
7
100
AcDbLine
 10
2.139763779527559
 20
4.099409448818897
 30
0.0
 11
2.071850393700787
 21
4.099409448818897
 31
0.0
  0
LINE
  5
2C73
330
1E
100
AcDbEntity
  8
7
100
AcDbLine
 10
2.64763779527559
 20
4.099409448818897
 30
0.0
 11
2.646653543307086
 21
4.131889763779527
 31
0.0
  0
LINE
  5
2C74
330
1E
100
AcDbEntity
  8
7
100
AcDbLine
 10
2.714566929133858
 20
4.099409448818897
 30
0.0
 11
2.64763779527559
 21
4.099409448818897
 31
0.0
  0
LINE
  5
2C75
330
1E
100
AcDbEntity
  8
7
100
AcDbLine
 10
2.835629921259842
 20
4.099409448818897
 30
0.0
 11
2.90255905511811
 21
4.099409448818897
 31
0.0
  0
LINE
  5
2C76
330
1E
100
AcDbEntity
  8
7
100
AcDbLine
 10
2.90255905511811
 20
4.099409448818897
 30
0.0
 11
2.903543307086614
 21
4.131889763779527
 31
0.0
  0
LINE
  5
2C77
330
1E
100
AcDbEntity
  8
7
100
AcDbLine
 10
3.409448818897637
 20
4.131889763779527
 30
0.0
 11
2.903543307086614
 21
4.131889763779527
 31
0.0
  0
LINE
  5
2C78
330
1E
100
AcDbEntity
  8
7
100
AcDbLine
 10
3.410433070866141
 20
4.099409448818897
 30
0.0
 11
3.409448818897637
 21
4.131889763779527
 31
0.0
  0
LINE
  5
2C79
330
1E
100
AcDbEntity
  8
7
100
AcDbLine
 10
3.410433070866141
 20
4.099409448818897
 30
0.0
 11
3.477362204724409
 21
4.099409448818897
 31
0.0
  0
LINE
  5
2C7A
330
1E
100
AcDbEntity
  8
7
100
AcDbLine
 10
3.516732283464566
 20
4.204724409448818
 30
0.0
 11
2.033464566929133
 21
4.204724409448818
 31
0.0
  0
LINE
  5
2C7B
330
1E
100
AcDbEntity
  8
7
100
AcDbLine
 10
3.319881889763779
 20
4.051181102362204
 30
0.0
 11
3.411417322834645
 21
4.051181102362204
 31
0.0
  0
LINE
  5
2C7C
330
1E
100
AcDbEntity
  8
7
100
AcDbLine
 10
2.901574803149606
 20
4.051181102362204
 30
0.0
 11
3.001968503937007
 21
4.051181102362204
 31
0.0
  0
LINE
  5
2C7D
330
1E
100
AcDbEntity
  8
7
100
AcDbLine
 10
3.042322834645669
 20
4.051181102362204
 30
0.0
 11
3.279527559055118
 21
4.051181102362204
 31
0.0
  0
LINE
  5
2C7E
330
1E
100
AcDbEntity
  8
7
100
AcDbLine
 10
2.64763779527559
 20
4.051181102362204
 30
0.0
 11
2.548228346456693
 21
4.051181102362204
 31
0.0
  0
LINE
  5
2C7F
330
1E
100
AcDbEntity
  8
7
100
AcDbLine
 10
2.230314960629921
 20
4.051181102362204
 30
0.0
 11
2.138779527559055
 21
4.051181102362204
 31
0.0
  0
LINE
  5
2C80
330
1E
100
AcDbEntity
  8
7
100
AcDbLine
 10
2.507874015748031
 20
4.051181102362204
 30
0.0
 11
2.270669291338582
 21
4.051181102362204
 31
0.0
  0
LINE
  5
2C81
330
1E
100
AcDbEntity
  8
7
100
AcDbLine
 10
2.070866141732283
 20
4.033464566929134
 30
0.0
 11
2.138779527559055
 21
4.033464566929134
 31
0.0
  0
LINE
  5
2C82
330
1E
100
AcDbEntity
  8
7
100
AcDbLine
 10
2.648622047244094
 20
4.033464566929134
 30
0.0
 11
2.715551181102362
 21
4.033464566929134
 31
0.0
  0
LINE
  5
2C83
330
1E
100
AcDbEntity
  8
7
100
AcDbLine
 10
3.479330708661417
 20
4.033464566929134
 30
0.0
 11
3.411417322834645
 21
4.033464566929134
 31
0.0
  0
LINE
  5
2C84
330
1E
100
AcDbEntity
  8
7
100
AcDbLine
 10
2.901574803149606
 20
4.033464566929134
 30
0.0
 11
2.834645669291338
 21
4.033464566929134
 31
0.0
  0
LINE
  5
2C85
330
1E
100
AcDbEntity
  8
7
100
AcDbLine
 10
2.144685039370078
 20
3.896653543307086
 30
0.0
 11
2.14271653543307
 21
3.98523622047244
 31
0.0
  0
LINE
  5
2C86
330
1E
100
AcDbEntity
  8
7
100
AcDbLine
 10
1.977362204724409
 20
3.98523622047244
 30
0.0
 11
2.14271653543307
 21
3.98523622047244
 31
0.0
  0
LINE
  5
2C87
330
1E
100
AcDbEntity
  8
7
100
AcDbLine
 10
3.571850393700787
 20
3.98523622047244
 30
0.0
 11
3.40748031496063
 21
3.98523622047244
 31
0.0
  0
LINE
  5
2C88
330
1E
100
AcDbEntity
  8
7
100
AcDbLine
 10
3.405511811023622
 20
3.896653543307086
 30
0.0
 11
3.40748031496063
 21
3.98523622047244
 31
0.0
  0
LINE
  5
2C89
330
1E
100
AcDbEntity
  8
7
100
AcDbLine
 10
3.191929133858267
 20
3.896653543307086
 30
0.0
 11
3.190944881889763
 21
3.98523622047244
 31
0.0
  0
LINE
  5
2C90
330
1E
100
AcDbEntity
  8
7
100
AcDbLine
 10
2.848425196850393
 20
3.853346456692913
 30
0.0
 11
2.848425196850393
 21
3.855314960629921
 31
0.0
  0
LINE
  5
2C91
330
1E
100
AcDbEntity
  8
7
100
AcDbLine
 10
2.849409448818897
 20
3.896653543307086
 30
0.0
 11
2.850393700787401
 21
3.95767716535433
 31
0.0
  0
LINE
  5
2C92
330
1E
100
AcDbEntity
  8
7
100
AcDbLine
 10
2.847440944881889
 20
3.80511811023622
 30
0.0
 11
2.848425196850393
 21
3.853346456692913
 31
0.0
  0
LINE
  5
2C93
330
1E
100
AcDbEntity
  8
7
100
AcDbLine
 10
2.847440944881889
 20
3.80511811023622
 30
0.0
 11
2.846456692913385
 21
3.724409448818897
 31
0.0
  0
LINE
  5
2C94
330
1E
100
AcDbEntity
  8
7
100
AcDbLine
 10
2.84251968503937
 20
3.497047244094487
 30
0.0
 11
2.846456692913385
 21
3.724409448818897
 31
0.0
  0
LINE
  5
2C9B
330
1E
100
AcDbEntity
  8
7
100
AcDbLine
 10
2.851377952755905
 20
3.98523622047244
 30
0.0
 11
3.190944881889763
 21
3.98523622047244
 31
0.0
  0
LINE
  5
2C9C
330
1E
100
AcDbEntity
  8
7
100
AcDbLine
 10
2.803149606299212
 20
3.98523622047244
 30
0.0
 11
2.747047244094487
 21
3.98523622047244
 31
0.0
  0
LINE
  5
2C9D
330
1E
100
AcDbEntity
  8
7
100
AcDbLine
 10
2.812007874015748
 20
3.467519685039369
 30
0.0
 11
2.737204724409448
 21
3.467519685039369
 31
0.0
  0
LINE
  5
2CA4
330
1E
100
AcDbEntity
  8
7
100
AcDbLine
 10
2.746062992125984
 20
3.95767716535433
 30
0.0
 11
2.74507874015748
 21
3.896653543307086
 31
0.0
  0
LINE
  5
2CA5
330
1E
100
AcDbEntity
  8
7
100
AcDbLine
 10
2.744094488188976
 20
3.855314960629921
 30
0.0
 11
2.744094488188976
 21
3.853346456692913
 31
0.0
  0
LINE
  5
2CA6
330
1E
100
AcDbEntity
  8
7
100
AcDbLine
 10
2.743110236220472
 20
3.80511811023622
 30
0.0
 11
2.744094488188976
 21
3.853346456692913
 31
0.0
  0
LINE
  5
2CA7
330
1E
100
AcDbEntity
  8
7
100
AcDbLine
 10
2.742125984251968
 20
3.724409448818897
 30
0.0
 11
2.743110236220472
 21
3.80511811023622
 31
0.0
  0
LINE
  5
2CA8
330
1E
100
AcDbEntity
  8
7
100
AcDbLine
 10
2.738188976377952
 20
3.497047244094487
 30
0.0
 11
2.742125984251968
 21
3.724409448818897
 31
0.0
  0
LINE
  5
2CAF
330
1E
100
AcDbEntity
  8
7
100
AcDbLine
 10
2.804133858267716
 20
3.95767716535433
 30
0.0
 11
2.80511811023622
 21
3.896653543307086
 31
0.0
  0
LINE
  5
2CB0
330
1E
100
AcDbEntity
  8
7
100
AcDbLine
 10
2.806102362204724
 20
3.855314960629921
 30
0.0
 11
2.806102362204724
 21
3.853346456692913
 31
0.0
  0
LINE
  5
2CBF
330
1E
100
AcDbEntity
  8
7
100
AcDbLine
 10
2.806102362204724
 20
3.80511811023622
 30
0.0
 11
2.806102362204724
 21
3.853346456692913
 31
0.0
  0
LINE
  5
2CC0
330
1E
100
AcDbEntity
  8
7
100
AcDbLine
 10
2.701771653543306
 20
3.853346456692913
 30
0.0
 11
2.701771653543306
 21
3.855314960629921
 31
0.0
  0
LINE
  5
2CC1
330
1E
100
AcDbEntity
  8
7
100
AcDbLine
 10
2.700787401574803
 20
3.896653543307086
 30
0.0
 11
2.699803149606299
 21
3.95767716535433
 31
0.0
  0
LINE
  5
2CCE
330
1E
100
AcDbEntity
  8
7
100
AcDbLine
 10
2.70767716535433
 20
3.497047244094487
 30
0.0
 11
2.703740157480314
 21
3.724409448818897
 31
0.0
  0
LINE
  5
2CCF
330
1E
100
AcDbEntity
  8
7
100
AcDbLine
 10
2.702755905511811
 20
3.80511811023622
 30
0.0
 11
2.703740157480314
 21
3.724409448818897
 31
0.0
  0
LINE
  5
2CD0
330
1E
100
AcDbEntity
  8
7
100
AcDbLine
 10
2.702755905511811
 20
3.80511811023622
 30
0.0
 11
2.701771653543306
 21
3.853346456692913
 31
0.0
  0
LINE
  5
2CD1
330
1E
100
AcDbEntity
  8
7
100
AcDbLine
 10
2.357283464566929
 20
3.896653543307086
 30
0.0
 11
2.359251968503937
 21
3.98523622047244
 31
0.0
  0
LINE
  5
2CD2
330
1E
100
AcDbEntity
  8
7
100
AcDbLine
 10
2.698818897637795
 20
3.98523622047244
 30
0.0
 11
2.359251968503937
 21
3.98523622047244
 31
0.0
  0
LINE
  5
2CD3
330
1E
100
AcDbEntity
  8
7
100
AcDbLine
 10
2.699803149606299
 20
3.95767716535433
 30
0.0
 11
2.746062992125984
 21
3.95767716535433
 31
0.0
  0
LINE
  5
2CD4
330
1E
100
AcDbEntity
  8
7
100
AcDbLine
 10
2.850393700787401
 20
3.95767716535433
 30
0.0
 11
2.804133858267716
 21
3.95767716535433
 31
0.0
  0
LINE
  5
2CD5
330
1E
100
AcDbEntity
  8
7
100
AcDbLine
 10
2.14271653543307
 20
3.98523622047244
 30
0.0
 11
2.359251968503937
 21
3.98523622047244
 31
0.0
  0
LINE
  5
2CD6
330
1E
100
AcDbEntity
  8
7
100
AcDbLine
 10
3.40748031496063
 20
3.98523622047244
 30
0.0
 11
3.190944881889763
 21
3.98523622047244
 31
0.0
  0
LINE
  5
2CD7
330
1E
100
AcDbEntity
  8
7
100
AcDbLine
 10
3.568897637795275
 20
3.81003937007874
 30
0.0
 11
3.768700787401574
 21
3.81003937007874
 31
0.0
  0
LINE
  5
2CD8
330
1E
100
AcDbEntity
  8
7
100
AcDbLine
 10
1.981299212598425
 20
3.81003937007874
 30
0.0
 11
1.781496062992125
 21
3.81003937007874
 31
0.0
  0
LINE
  5
2CD9
330
1E
100
AcDbEntity
  8
7
100
AcDbLine
 10
1.795275590551181
 20
2.838582677165354
 30
0.0
 11
1.779527559055118
 21
3.713582677165354
 31
0.0
  0
LINE
  5
2CDA
330
1E
100
AcDbEntity
  8
7
100
AcDbLine
 10
1.93011811023622
 20
2.838582677165354
 30
0.0
 11
1.795275590551181
 21
2.838582677165354
 31
0.0
  0
LINE
  5
2CE3
330
1E
100
AcDbEntity
  8
7
100
AcDbLine
 10
2.029527559055118
 20
3.469488188976377
 30
0.0
 11
2.019685039370078
 21
2.927165354330708
 31
0.0
  0
LINE
  5
2CE4
330
1E
100
AcDbEntity
  8
7
100
AcDbLine
 10
1.779527559055118
 20
3.713582677165354
 30
0.0
 11
1.781496062992125
 21
3.81003937007874
 31
0.0
  0
LINE
  5
2D00
330
1E
100
AcDbEntity
  8
7
100
AcDbLine
 10
1.781496062992125
 20
3.81003937007874
 30
0.0
 11
1.782480314960629
 21
3.855314960629921
 31
0.0
  0
LINE
  5
2D07
330
1E
100
AcDbEntity
  8
7
100
AcDbLine
 10
3.768700787401574
 20
3.81003937007874
 30
0.0
 11
3.76771653543307
 21
3.855314960629921
 31
0.0
  0
LINE
  5
2D0E
330
1E
100
AcDbEntity
  8
7
100
AcDbLine
 10
2.785433070866141
 20
3.46259842519685
 30
0.0
 11
2.764763779527558
 21
3.46259842519685
 31
0.0
  0
LINE
  5
2D0F
330
1E
100
AcDbEntity
  8
7
100
AcDbLine
 10
2.363188976377952
 20
3.480314960629921
 30
0.0
 11
2.138779527559055
 21
3.480314960629921
 31
0.0
  0
LINE
  5
2D10
330
1E
100
AcDbEntity
  8
7
100
AcDbLine
 10
2.357283464566929
 20
3.822834645669291
 30
0.0
 11
2.144685039370078
 21
3.822834645669291
 31
0.0
  0
LINE
  5
2D11
330
1E
100
AcDbEntity
  8
7
100
AcDbLine
 10
3.186023622047243
 20
3.480314960629921
 30
0.0
 11
3.411417322834645
 21
3.480314960629921
 31
0.0
  0
LINE
  5
2D12
330
1E
100
AcDbEntity
  8
7
100
AcDbLine
 10
3.191929133858267
 20
3.822834645669291
 30
0.0
 11
3.405511811023622
 21
3.822834645669291
 31
0.0
  0
LINE
  5
2D13
330
1E
100
AcDbEntity
  8
7
100
AcDbLine
 10
3.404527559055118
 20
3.83759842519685
 30
0.0
 11
3.404527559055118
 21
3.855314960629921
 31
0.0
  0
LINE
  5
2D14
330
1E
100
AcDbEntity
  8
7
100
AcDbLine
 10
2.145669291338582
 20
3.83759842519685
 30
0.0
 11
2.144685039370078
 21
3.855314960629921
 31
0.0
  0
LINE
  5
2D15
330
1E
100
AcDbEntity
  8
7
100
AcDbLine
 10
2.138779527559055
 20
3.472440944881889
 30
0.0
 11
2.144685039370078
 21
3.83759842519685
 31
0.0
  0
LINE
  5
2D16
330
1E
100
AcDbEntity
  8
7
100
AcDbLine
 10
2.137795275590551
 20
3.469488188976377
 30
0.0
 11
2.138779527559055
 21
3.472440944881889
 31
0.0
  0
LINE
  5
2D17
330
1E
100
AcDbEntity
  8
7
100
AcDbLine
 10
2.138779527559055
 20
3.478346456692913
 30
0.0
 11
2.364173228346456
 21
3.478346456692913
 31
0.0
  0
LINE
  5
2D18
330
1E
100
AcDbEntity
  8
7
100
AcDbLine
 10
3.411417322834645
 20
3.478346456692913
 30
0.0
 11
3.186023622047243
 21
3.478346456692913
 31
0.0
  0
LINE
  5
2D1E
330
1E
100
AcDbEntity
  8
7
100
AcDbLine
 10
2.364173228346456
 20
3.467519685039369
 30
0.0
 11
2.357283464566929
 21
3.855314960629921
 31
0.0
  0
LINE
  5
2D1F
330
1E
100
AcDbEntity
  8
7
100
AcDbLine
 10
3.186023622047243
 20
3.467519685039369
 30
0.0
 11
3.192913385826771
 21
3.855314960629921
 31
0.0
  0
LINE
  5
2D20
330
1E
100
AcDbEntity
  8
7
100
AcDbLine
 10
2.841535433070866
 20
3.467519685039369
 30
0.0
 11
3.186023622047243
 21
3.467519685039369
 31
0.0
  0
LINE
  5
2D21
330
1E
100
AcDbEntity
  8
7
100
AcDbLine
 10
2.841535433070866
 20
3.467519685039369
 30
0.0
 11
2.812007874015748
 21
3.467519685039369
 31
0.0
  0
LINE
  5
2D22
330
1E
100
AcDbEntity
  8
7
100
AcDbLine
 10
2.812007874015748
 20
3.497047244094487
 30
0.0
 11
2.84251968503937
 21
3.497047244094487
 31
0.0
  0
LINE
  5
2D23
330
1E
100
AcDbEntity
  8
7
100
AcDbLine
 10
2.808070866141732
 20
3.724409448818897
 30
0.0
 11
2.846456692913385
 21
3.724409448818897
 31
0.0
  0
LINE
  5
2D24
330
1E
100
AcDbEntity
  8
7
100
AcDbLine
 10
2.806102362204724
 20
3.80511811023622
 30
0.0
 11
2.847440944881889
 21
3.80511811023622
 31
0.0
  0
LINE
  5
2D25
330
1E
100
AcDbEntity
  8
7
100
AcDbLine
 10
2.848425196850393
 20
3.853346456692913
 30
0.0
 11
2.806102362204724
 21
3.853346456692913
 31
0.0
  0
LINE
  5
2D26
330
1E
100
AcDbEntity
  8
7
100
AcDbLine
 10
2.708661417322834
 20
3.467519685039369
 30
0.0
 11
2.364173228346456
 21
3.467519685039369
 31
0.0
  0
LINE
  5
2D27
330
1E
100
AcDbEntity
  8
7
100
AcDbLine
 10
2.738188976377952
 20
3.497047244094487
 30
0.0
 11
2.70767716535433
 21
3.497047244094487
 31
0.0
  0
LINE
  5
2D28
330
1E
100
AcDbEntity
  8
7
100
AcDbLine
 10
2.708661417322834
 20
3.467519685039369
 30
0.0
 11
2.737204724409448
 21
3.467519685039369
 31
0.0
  0
LINE
  5
2D29
330
1E
100
AcDbEntity
  8
7
100
AcDbLine
 10
2.742125984251968
 20
3.724409448818897
 30
0.0
 11
2.703740157480314
 21
3.724409448818897
 31
0.0
  0
LINE
  5
2D2A
330
1E
100
AcDbEntity
  8
7
100
AcDbLine
 10
2.743110236220472
 20
3.80511811023622
 30
0.0
 11
2.702755905511811
 21
3.80511811023622
 31
0.0
  0
LINE
  5
2D2B
330
1E
100
AcDbEntity
  8
7
100
AcDbLine
 10
2.701771653543306
 20
3.853346456692913
 30
0.0
 11
2.744094488188976
 21
3.853346456692913
 31
0.0
  0
LINE
  5
2D2C
330
1E
100
AcDbEntity
  8
7
100
AcDbLine
 10
3.562992125984251
 20
3.469488188976377
 30
0.0
 11
3.411417322834645
 21
3.469488188976377
 31
0.0
  0
LINE
  5
2D2D
330
1E
100
AcDbEntity
  8
7
100
AcDbLine
 10
3.411417322834645
 20
3.472440944881889
 30
0.0
 11
3.562992125984251
 21
3.472440944881889
 31
0.0
  0
LINE
  5
2D2E
330
1E
100
AcDbEntity
  8
7
100
AcDbLine
 10
2.138779527559055
 20
3.472440944881889
 30
0.0
 11
1.987204724409448
 21
3.472440944881889
 31
0.0
  0
LINE
  5
2D2F
330
1E
100
AcDbEntity
  8
7
100
AcDbLine
 10
1.987204724409448
 20
3.469488188976377
 30
0.0
 11
2.137795275590551
 21
3.469488188976377
 31
0.0
  0
LINE
  5
2D30
330
1E
100
AcDbEntity
  8
7
100
AcDbLine
 10
3.218503937007874
 20
3.428149606299212
 30
0.0
 11
3.099409448818897
 21
3.428149606299212
 31
0.0
  0
LINE
  5
2D31
330
1E
100
AcDbEntity
  8
7
100
AcDbLine
 10
2.330708661417322
 20
3.428149606299212
 30
0.0
 11
2.450787401574803
 21
3.428149606299212
 31
0.0
  0
LINE
  5
2D38
330
1E
100
AcDbEntity
  8
7
100
AcDbLine
 10
3.099409448818897
 20
3.442913385826771
 30
0.0
 11
3.099409448818897
 21
3.467519685039369
 31
0.0
  0
LINE
  5
2D3E
330
1E
100
AcDbEntity
  8
7
100
AcDbLine
 10
3.249015748031495
 20
3.428149606299212
 30
0.0
 11
3.218503937007874
 21
3.428149606299212
 31
0.0
  0
LINE
  5
2D44
330
1E
100
AcDbEntity
  8
7
100
AcDbLine
 10
3.218503937007874
 20
3.442913385826771
 30
0.0
 11
3.249015748031495
 21
3.442913385826771
 31
0.0
  0
LINE
  5
2D45
330
1E
100
AcDbEntity
  8
7
100
AcDbLine
 10
3.066929133858267
 20
3.428149606299212
 30
0.0
 11
3.067913385826771
 21
3.432086614173228
 31
0.0
  0
LINE
  5
2D46
330
1E
100
AcDbEntity
  8
7
100
AcDbLine
 10
3.067913385826771
 20
3.432086614173228
 30
0.0
 11
3.067913385826771
 21
3.442913385826771
 31
0.0
  0
LINE
  5
2D47
330
1E
100
AcDbEntity
  8
7
100
AcDbLine
 10
3.099409448818897
 20
3.428149606299212
 30
0.0
 11
3.066929133858267
 21
3.428149606299212
 31
0.0
  0
LINE
  5
2D48
330
1E
100
AcDbEntity
  8
7
100
AcDbLine
 10
3.067913385826771
 20
3.442913385826771
 30
0.0
 11
3.099409448818897
 21
3.442913385826771
 31
0.0
  0
LINE
  5
2D49
330
1E
100
AcDbEntity
  8
7
100
AcDbLine
 10
3.249015748031495
 20
3.428149606299212
 30
0.0
 11
3.503937007874015
 21
3.428149606299212
 31
0.0
  0
LINE
  5
2D4A
330
1E
100
AcDbEntity
  8
7
100
AcDbLine
 10
2.483267716535432
 20
3.428149606299212
 30
0.0
 11
3.066929133858267
 21
3.428149606299212
 31
0.0
  0
LINE
  5
2D4B
330
1E
100
AcDbEntity
  8
7
100
AcDbLine
 10
2.483267716535432
 20
3.428149606299212
 30
0.0
 11
2.482283464566929
 21
3.428149606299212
 31
0.0
  0
LINE
  5
2D4C
330
1E
100
AcDbEntity
  8
7
100
AcDbLine
 10
2.450787401574803
 20
3.428149606299212
 30
0.0
 11
2.482283464566929
 21
3.428149606299212
 31
0.0
  0
LINE
  5
2D4D
330
1E
100
AcDbEntity
  8
7
100
AcDbLine
 10
2.301181102362204
 20
3.428149606299212
 30
0.0
 11
2.330708661417322
 21
3.428149606299212
 31
0.0
  0
LINE
  5
2D4E
330
1E
100
AcDbEntity
  8
7
100
AcDbLine
 10
2.301181102362204
 20
3.428149606299212
 30
0.0
 11
2.047244094488188
 21
3.428149606299212
 31
0.0
  0
LINE
  5
2D57
330
1E
100
AcDbEntity
  8
7
100
AcDbLine
 10
2.450787401574803
 20
3.442913385826771
 30
0.0
 11
2.450787401574803
 21
3.467519685039369
 31
0.0
  0
LINE
  5
2D58
330
1E
100
AcDbEntity
  8
7
100
AcDbLine
 10
2.330708661417322
 20
3.442913385826771
 30
0.0
 11
2.330708661417322
 21
3.478346456692913
 31
0.0
  0
LINE
  5
2D61
330
1E
100
AcDbEntity
  8
7
100
AcDbLine
 10
2.483267716535432
 20
3.467519685039369
 30
0.0
 11
2.483267716535432
 21
3.428149606299212
 31
0.0
  0
LINE
  5
2D62
330
1E
100
AcDbEntity
  8
7
100
AcDbLine
 10
3.066929133858267
 20
3.467519685039369
 30
0.0
 11
3.066929133858267
 21
3.428149606299212
 31
0.0
  0
LINE
  5
2D63
330
1E
100
AcDbEntity
  8
7
100
AcDbLine
 10
3.067913385826771
 20
3.467519685039369
 30
0.0
 11
3.067913385826771
 21
3.442913385826771
 31
0.0
  0
LINE
  5
2D64
330
1E
100
AcDbEntity
  8
7
100
AcDbLine
 10
3.249015748031495
 20
3.478346456692913
 30
0.0
 11
3.249015748031495
 21
3.442913385826771
 31
0.0
  0
LINE
  5
2D65
330
1E
100
AcDbEntity
  8
7
100
AcDbLine
 10
2.482283464566929
 20
3.467519685039369
 30
0.0
 11
2.482283464566929
 21
3.442913385826771
 31
0.0
  0
LINE
  5
2D66
330
1E
100
AcDbEntity
  8
7
100
AcDbLine
 10
2.301181102362204
 20
3.478346456692913
 30
0.0
 11
2.301181102362204
 21
3.442913385826771
 31
0.0
  0
LINE
  5
2D67
330
1E
100
AcDbEntity
  8
7
100
AcDbLine
 10
2.747047244094487
 20
3.98523622047244
 30
0.0
 11
2.698818897637795
 21
3.98523622047244
 31
0.0
  0
LINE
  5
2D68
330
1E
100
AcDbEntity
  8
7
100
AcDbLine
 10
2.803149606299212
 20
3.98523622047244
 30
0.0
 11
2.851377952755905
 21
3.98523622047244
 31
0.0
  0
LINE
  5
2D69
330
1E
100
AcDbEntity
  8
7
100
AcDbLine
 10
2.03248031496063
 20
4.218503937007874
 30
0.0
 11
1.989173228346456
 21
4.218503937007874
 31
0.0
  0
LINE
  5
2D6A
330
1E
100
AcDbEntity
  8
7
100
AcDbLine
 10
3.516732283464566
 20
4.218503937007874
 30
0.0
 11
3.561023622047243
 21
4.218503937007874
 31
0.0
  0
LINE
  5
2D70
330
1E
100
AcDbEntity
  8
7
100
AcDbLine
 10
2.834645669291338
 20
4.044291338582676
 30
0.0
 11
2.901574803149606
 21
4.044291338582676
 31
0.0
  0
LINE
  5
2D71
330
1E
100
AcDbEntity
  8
7
100
AcDbLine
 10
2.90255905511811
 20
4.099409448818897
 30
0.0
 11
2.901574803149606
 21
4.044291338582676
 31
0.0
  0
LINE
  5
2D72
330
1E
100
AcDbEntity
  8
7
100
AcDbLine
 10
2.64763779527559
 20
4.099409448818897
 30
0.0
 11
2.648622047244094
 21
4.044291338582676
 31
0.0
  0
LINE
  5
2D73
330
1E
100
AcDbEntity
  8
7
100
AcDbLine
 10
2.715551181102362
 20
4.044291338582676
 30
0.0
 11
2.648622047244094
 21
4.044291338582676
 31
0.0
  0
LINE
  5
2D79
330
1E
100
AcDbEntity
  8
7
100
AcDbLine
 10
2.138779527559055
 20
4.033464566929134
 30
0.0
 11
2.138779527559055
 21
4.044291338582676
 31
0.0
  0
LINE
  5
2D7A
330
1E
100
AcDbEntity
  8
7
100
AcDbLine
 10
2.648622047244094
 20
4.044291338582676
 30
0.0
 11
2.648622047244094
 21
4.033464566929134
 31
0.0
  0
LINE
  5
2D7B
330
1E
100
AcDbEntity
  8
7
100
AcDbLine
 10
3.411417322834645
 20
4.033464566929134
 30
0.0
 11
3.411417322834645
 21
4.044291338582676
 31
0.0
  0
LINE
  5
2D7C
330
1E
100
AcDbEntity
  8
7
100
AcDbLine
 10
2.901574803149606
 20
4.044291338582676
 30
0.0
 11
2.901574803149606
 21
4.033464566929134
 31
0.0
  0
LINE
  5
2D89
330
1E
100
AcDbEntity
  8
7
100
AcDbLine
 10
1.940944881889763
 20
3.9251968503937
 30
0.0
 11
1.936023622047244
 21
3.9251968503937
 31
0.0
  0
LINE
  5
33CF
330
1E
100
AcDbEntity
  8
7
100
AcDbLine
 10
3.765748031496062
 20
3.9251968503937
 30
0.0
 11
3.760826771653543
 21
3.9251968503937
 31
0.0
  0
LINE
  5
33D0
330
1E
100
AcDbEntity
  8
7
100
AcDbLine
 10
3.760826771653543
 20
3.9251968503937
 30
0.0
 11
3.748031496062992
 21
3.9251968503937
 31
0.0
  0
LINE
  5
33D1
330
1E
100
AcDbEntity
  8
7
100
AcDbLine
 10
3.748031496062992
 20
3.9251968503937
 30
0.0
 11
3.726377952755905
 21
3.9251968503937
 31
0.0
  0
LINE
  5
33D2
330
1E
100
AcDbEntity
  8
7
100
AcDbLine
 10
3.726377952755905
 20
3.9251968503937
 30
0.0
 11
3.700787401574803
 21
3.9251968503937
 31
0.0
  0
LINE
  5
33D3
330
1E
100
AcDbEntity
  8
7
100
AcDbLine
 10
3.700787401574803
 20
3.9251968503937
 30
0.0
 11
3.674212598425196
 21
3.9251968503937
 31
0.0
  0
LINE
  5
33D4
330
1E
100
AcDbEntity
  8
7
100
AcDbLine
 10
3.674212598425196
 20
3.9251968503937
 30
0.0
 11
3.648622047244094
 21
3.9251968503937
 31
0.0
  0
LINE
  5
33D5
330
1E
100
AcDbEntity
  8
7
100
AcDbLine
 10
3.648622047244094
 20
3.9251968503937
 30
0.0
 11
3.627952755905511
 21
3.9251968503937
 31
0.0
  0
LINE
  5
33D6
330
1E
100
AcDbEntity
  8
7
100
AcDbLine
 10
3.627952755905511
 20
3.9251968503937
 30
0.0
 11
3.614173228346456
 21
3.9251968503937
 31
0.0
  0
LINE
  5
33D7
330
1E
100
AcDbEntity
  8
7
100
AcDbLine
 10
3.614173228346456
 20
3.9251968503937
 30
0.0
 11
3.609251968503937
 21
3.9251968503937
 31
0.0
  0
LINE
  5
33D8
330
1E
100
AcDbEntity
  8
7
100
AcDbLine
 10
3.74015748031496
 20
3.93503937007874
 30
0.0
 11
3.751968503937007
 21
3.93503937007874
 31
0.0
  0
LINE
  5
33D9
330
1E
100
AcDbEntity
  8
7
100
AcDbLine
 10
3.751968503937007
 20
3.93503937007874
 30
0.0
 11
3.755905511811023
 21
3.93503937007874
 31
0.0
  0
LINE
  5
33DA
330
1E
100
AcDbEntity
  8
7
100
AcDbLine
 10
3.619094488188976
 20
3.93503937007874
 30
0.0
 11
3.623031496062992
 21
3.93503937007874
 31
0.0
  0
LINE
  5
33DB
330
1E
100
AcDbEntity
  8
7
100
AcDbLine
 10
3.623031496062992
 20
3.93503937007874
 30
0.0
 11
3.634842519685039
 21
3.93503937007874
 31
0.0
  0
LINE
  5
33DC
330
1E
100
AcDbEntity
  8
7
100
AcDbLine
 10
3.634842519685039
 20
3.93503937007874
 30
0.0
 11
3.653543307086614
 21
3.93503937007874
 31
0.0
  0
LINE
  5
33DD
330
1E
100
AcDbEntity
  8
7
100
AcDbLine
 10
3.653543307086614
 20
3.93503937007874
 30
0.0
 11
3.676181102362204
 21
3.93503937007874
 31
0.0
  0
LINE
  5
33DE
330
1E
100
AcDbEntity
  8
7
100
AcDbLine
 10
3.676181102362204
 20
3.93503937007874
 30
0.0
 11
3.699803149606299
 21
3.93503937007874
 31
0.0
  0
LINE
  5
33DF
330
1E
100
AcDbEntity
  8
7
100
AcDbLine
 10
3.699803149606299
 20
3.93503937007874
 30
0.0
 11
3.721456692913385
 21
3.93503937007874
 31
0.0
  0
LINE
  5
33E0
330
1E
100
AcDbEntity
  8
7
100
AcDbLine
 10
3.721456692913385
 20
3.93503937007874
 30
0.0
 11
3.74015748031496
 21
3.93503937007874
 31
0.0
  0
LINE
  5
33E1
330
1E
100
AcDbEntity
  8
7
100
AcDbLine
 10
1.936023622047244
 20
3.9251968503937
 30
0.0
 11
1.922244094488188
 21
3.9251968503937
 31
0.0
  0
LINE
  5
33E2
330
1E
100
AcDbEntity
  8
7
100
AcDbLine
 10
1.922244094488188
 20
3.9251968503937
 30
0.0
 11
1.901574803149606
 21
3.9251968503937
 31
0.0
  0
LINE
  5
33E3
330
1E
100
AcDbEntity
  8
7
100
AcDbLine
 10
1.901574803149606
 20
3.9251968503937
 30
0.0
 11
1.875984251968503
 21
3.9251968503937
 31
0.0
  0
LINE
  5
33E4
330
1E
100
AcDbEntity
  8
7
100
AcDbLine
 10
1.875984251968503
 20
3.9251968503937
 30
0.0
 11
1.848425196850393
 21
3.9251968503937
 31
0.0
  0
LINE
  5
33E5
330
1E
100
AcDbEntity
  8
7
100
AcDbLine
 10
1.848425196850393
 20
3.9251968503937
 30
0.0
 11
1.823818897637795
 21
3.9251968503937
 31
0.0
  0
LINE
  5
33E6
330
1E
100
AcDbEntity
  8
7
100
AcDbLine
 10
1.823818897637795
 20
3.9251968503937
 30
0.0
 11
1.802165354330708
 21
3.9251968503937
 31
0.0
  0
LINE
  5
33E7
330
1E
100
AcDbEntity
  8
7
100
AcDbLine
 10
1.802165354330708
 20
3.9251968503937
 30
0.0
 11
1.789370078740157
 21
3.9251968503937
 31
0.0
  0
LINE
  5
33E8
330
1E
100
AcDbEntity
  8
7
100
AcDbLine
 10
1.789370078740157
 20
3.9251968503937
 30
0.0
 11
1.784448818897637
 21
3.9251968503937
 31
0.0
  0
LINE
  5
33E9
330
1E
100
AcDbEntity
  8
7
100
AcDbLine
 10
1.794291338582677
 20
3.93503937007874
 30
0.0
 11
1.798228346456692
 21
3.93503937007874
 31
0.0
  0
LINE
  5
33EA
330
1E
100
AcDbEntity
  8
7
100
AcDbLine
 10
1.798228346456692
 20
3.93503937007874
 30
0.0
 11
1.81003937007874
 21
3.93503937007874
 31
0.0
  0
LINE
  5
33EB
330
1E
100
AcDbEntity
  8
7
100
AcDbLine
 10
1.81003937007874
 20
3.93503937007874
 30
0.0
 11
1.828740157480314
 21
3.93503937007874
 31
0.0
  0
LINE
  5
33EC
330
1E
100
AcDbEntity
  8
7
100
AcDbLine
 10
1.828740157480314
 20
3.93503937007874
 30
0.0
 11
1.850393700787401
 21
3.93503937007874
 31
0.0
  0
LINE
  5
33ED
330
1E
100
AcDbEntity
  8
7
100
AcDbLine
 10
1.850393700787401
 20
3.93503937007874
 30
0.0
 11
1.874015748031496
 21
3.93503937007874
 31
0.0
  0
LINE
  5
33EE
330
1E
100
AcDbEntity
  8
7
100
AcDbLine
 10
1.874015748031496
 20
3.93503937007874
 30
0.0
 11
1.896653543307086
 21
3.93503937007874
 31
0.0
  0
LINE
  5
33EF
330
1E
100
AcDbEntity
  8
7
100
AcDbLine
 10
1.896653543307086
 20
3.93503937007874
 30
0.0
 11
1.914370078740157
 21
3.93503937007874
 31
0.0
  0
LINE
  5
33F0
330
1E
100
AcDbEntity
  8
7
100
AcDbLine
 10
1.914370078740157
 20
3.93503937007874
 30
0.0
 11
1.926181102362204
 21
3.93503937007874
 31
0.0
  0
LINE
  5
33F1
330
1E
100
AcDbEntity
  8
7
100
AcDbLine
 10
1.926181102362204
 20
3.93503937007874
 30
0.0
 11
1.931102362204724
 21
3.93503937007874
 31
0.0
  0
LINE
  5
33F2
330
1E
100
AcDbEntity
  8
7
100
AcDbLine
 10
2.139763779527559
 20
4.099409448818897
 30
0.0
 11
2.138779527559055
 21
4.044291338582676
 31
0.0
  0
LINE
  5
33F3
330
1E
100
AcDbEntity
  8
7
100
AcDbLine
 10
2.138779527559055
 20
4.044291338582676
 30
0.0
 11
2.070866141732283
 21
4.044291338582676
 31
0.0
  0
LINE
  5
33F4
330
1E
100
AcDbEntity
  8
7
100
AcDbLine
 10
3.410433070866141
 20
4.099409448818897
 30
0.0
 11
3.411417322834645
 21
4.044291338582676
 31
0.0
  0
LINE
  5
33F5
330
1E
100
AcDbEntity
  8
7
100
AcDbLine
 10
3.411417322834645
 20
4.044291338582676
 30
0.0
 11
3.478346456692913
 21
4.044291338582676
 31
0.0
  0
LINE
  5
33F6
330
1E
100
AcDbEntity
  8
7
100
AcDbLine
 10
2.330708661417322
 20
3.428149606299212
 30
0.0
 11
2.330708661417322
 21
3.432086614173228
 31
0.0
  0
LINE
  5
33F7
330
1E
100
AcDbEntity
  8
7
100
AcDbLine
 10
2.330708661417322
 20
3.432086614173228
 30
0.0
 11
2.330708661417322
 21
3.442913385826771
 31
0.0
  0
LINE
  5
33F8
330
1E
100
AcDbEntity
  8
7
100
AcDbLine
 10
2.330708661417322
 20
3.442913385826771
 30
0.0
 11
2.301181102362204
 21
3.442913385826771
 31
0.0
  0
LINE
  5
33F9
330
1E
100
AcDbEntity
  8
7
100
AcDbLine
 10
2.301181102362204
 20
3.442913385826771
 30
0.0
 11
2.301181102362204
 21
3.432086614173228
 31
0.0
  0
LINE
  5
33FA
330
1E
100
AcDbEntity
  8
7
100
AcDbLine
 10
2.301181102362204
 20
3.432086614173228
 30
0.0
 11
2.301181102362204
 21
3.428149606299212
 31
0.0
  0
LINE
  5
33FB
330
1E
100
AcDbEntity
  8
7
100
AcDbLine
 10
2.482283464566929
 20
3.428149606299212
 30
0.0
 11
2.482283464566929
 21
3.432086614173228
 31
0.0
  0
LINE
  5
33FC
330
1E
100
AcDbEntity
  8
7
100
AcDbLine
 10
2.482283464566929
 20
3.432086614173228
 30
0.0
 11
2.482283464566929
 21
3.442913385826771
 31
0.0
  0
LINE
  5
33FD
330
1E
100
AcDbEntity
  8
7
100
AcDbLine
 10
2.482283464566929
 20
3.442913385826771
 30
0.0
 11
2.450787401574803
 21
3.442913385826771
 31
0.0
  0
LINE
  5
33FE
330
1E
100
AcDbEntity
  8
7
100
AcDbLine
 10
2.450787401574803
 20
3.442913385826771
 30
0.0
 11
2.450787401574803
 21
3.432086614173228
 31
0.0
  0
LINE
  5
33FF
330
1E
100
AcDbEntity
  8
7
100
AcDbLine
 10
2.450787401574803
 20
3.432086614173228
 30
0.0
 11
2.450787401574803
 21
3.428149606299212
 31
0.0
  0
LINE
  5
3400
330
1E
100
AcDbEntity
  8
7
100
AcDbLine
 10
3.249015748031495
 20
3.442913385826771
 30
0.0
 11
3.249015748031495
 21
3.432086614173228
 31
0.0
  0
LINE
  5
3401
330
1E
100
AcDbEntity
  8
7
100
AcDbLine
 10
3.249015748031495
 20
3.432086614173228
 30
0.0
 11
3.249015748031495
 21
3.428149606299212
 31
0.0
  0
LINE
  5
3402
330
1E
100
AcDbEntity
  8
7
100
AcDbLine
 10
3.099409448818897
 20
3.442913385826771
 30
0.0
 11
3.099409448818897
 21
3.432086614173228
 31
0.0
  0
LINE
  5
3403
330
1E
100
AcDbEntity
  8
7
100
AcDbLine
 10
3.099409448818897
 20
3.432086614173228
 30
0.0
 11
3.099409448818897
 21
3.428149606299212
 31
0.0
  0
LINE
  5
3404
330
1E
100
AcDbEntity
  8
7
100
AcDbLine
 10
3.218503937007874
 20
3.428149606299212
 30
0.0
 11
3.218503937007874
 21
3.432086614173228
 31
0.0
  0
LINE
  5
3405
330
1E
100
AcDbEntity
  8
7
100
AcDbLine
 10
3.218503937007874
 20
3.432086614173228
 30
0.0
 11
3.218503937007874
 21
3.442913385826771
 31
0.0
  0
LINE
  5
3406
330
1E
100
AcDbEntity
  8
7
100
AcDbLine
 10
3.218503937007874
 20
3.442913385826771
 30
0.0
 11
3.218503937007874
 21
3.478346456692913
 31
0.0
  0
LINE
  5
3407
330
1E
100
AcDbEntity
  8
7
100
AcDbLine
 10
3.411417322834645
 20
3.469488188976377
 30
0.0
 11
3.411417322834645
 21
3.472440944881889
 31
0.0
  0
LINE
  5
3408
330
1E
100
AcDbEntity
  8
7
100
AcDbLine
 10
3.411417322834645
 20
3.472440944881889
 30
0.0
 11
3.405511811023622
 21
3.83759842519685
 31
0.0
  0
LINE
  5
3409
330
1E
100
AcDbEntity
  8
7
100
AcDbLine
 10
3.808070866141732
 20
3.713582677165354
 30
0.0
 11
3.804133858267716
 21
3.713582677165354
 31
0.0
  0
LINE
  5
340A
330
1E
100
AcDbEntity
  8
7
100
AcDbLine
 10
3.804133858267716
 20
3.713582677165354
 30
0.0
 11
3.790354330708661
 21
3.713582677165354
 31
0.0
  0
LINE
  5
340B
330
1E
100
AcDbEntity
  8
7
100
AcDbLine
 10
3.790354330708661
 20
3.713582677165354
 30
0.0
 11
3.769685039370078
 21
3.713582677165354
 31
0.0
  0
LINE
  5
340C
330
1E
100
AcDbEntity
  8
7
100
AcDbLine
 10
3.768700787401574
 20
3.653543307086613
 30
0.0
 11
3.789370078740157
 21
3.659448818897637
 31
0.0
  0
LINE
  5
340D
330
1E
100
AcDbEntity
  8
7
100
AcDbLine
 10
3.789370078740157
 20
3.659448818897637
 30
0.0
 11
3.803149606299212
 21
3.662401574803149
 31
0.0
  0
LINE
  5
340E
330
1E
100
AcDbEntity
  8
7
100
AcDbLine
 10
3.803149606299212
 20
3.662401574803149
 30
0.0
 11
3.807086614173228
 21
3.663385826771653
 31
0.0
  0
LINE
  5
340F
330
1E
100
AcDbEntity
  8
7
100
AcDbLine
 10
1.781496062992125
 20
3.653543307086613
 30
0.0
 11
1.760826771653543
 21
3.659448818897637
 31
0.0
  0
LINE
  5
3410
330
1E
100
AcDbEntity
  8
7
100
AcDbLine
 10
1.760826771653543
 20
3.659448818897637
 30
0.0
 11
1.747047244094488
 21
3.662401574803149
 31
0.0
  0
LINE
  5
3411
330
1E
100
AcDbEntity
  8
7
100
AcDbLine
 10
1.747047244094488
 20
3.662401574803149
 30
0.0
 11
1.743110236220472
 21
3.663385826771653
 31
0.0
  0
LINE
  5
3412
330
1E
100
AcDbEntity
  8
7
100
AcDbLine
 10
1.742125984251968
 20
3.713582677165354
 30
0.0
 11
1.746062992125984
 21
3.713582677165354
 31
0.0
  0
LINE
  5
3413
330
1E
100
AcDbEntity
  8
7
100
AcDbLine
 10
1.746062992125984
 20
3.713582677165354
 30
0.0
 11
1.759842519685039
 21
3.713582677165354
 31
0.0
  0
LINE
  5
3414
330
1E
100
AcDbEntity
  8
7
100
AcDbLine
 10
1.759842519685039
 20
3.713582677165354
 30
0.0
 11
1.779527559055118
 21
3.713582677165354
 31
0.0
  0
LINE
  5
3415
330
1E
100
AcDbEntity
  8
7
100
AcDbLine
 10
3.754921259842519
 20
2.838582677165354
 30
0.0
 11
3.769685039370078
 21
3.713582677165354
 31
0.0
  0
LINE
  5
3416
330
1E
100
AcDbEntity
  8
7
100
AcDbLine
 10
3.769685039370078
 20
3.713582677165354
 30
0.0
 11
3.768700787401574
 21
3.81003937007874
 31
0.0
  0
LINE
  5
3417
330
1E
100
AcDbEntity
  8
7
100
AcDbLine
 10
3.520669291338582
 20
3.469488188976377
 30
0.0
 11
3.530511811023622
 21
2.927165354330708
 31
0.0
  0
LINE
  5
3418
330
1E
100
AcDbEntity
  8
7
100
AcDbLine
 10
3.530511811023622
 20
2.927165354330708
 30
0.0
 11
3.535433070866141
 21
2.899606299212598
 31
0.0
  0
LINE
  5
3419
330
1E
100
AcDbEntity
  8
7
100
AcDbLine
 10
3.535433070866141
 20
2.899606299212598
 30
0.0
 11
3.548228346456693
 21
2.875
 31
0.0
  0
LINE
  5
341A
330
1E
100
AcDbEntity
  8
7
100
AcDbLine
 10
3.548228346456693
 20
2.875
 30
0.0
 11
3.567913385826771
 21
2.856299212598425
 31
0.0
  0
LINE
  5
341B
330
1E
100
AcDbEntity
  8
7
100
AcDbLine
 10
3.567913385826771
 20
2.856299212598425
 30
0.0
 11
3.592519685039369
 21
2.843503937007874
 31
0.0
  0
LINE
  5
341C
330
1E
100
AcDbEntity
  8
7
100
AcDbLine
 10
3.592519685039369
 20
2.843503937007874
 30
0.0
 11
3.62007874015748
 21
2.838582677165354
 31
0.0
  0
LINE
  5
341D
330
1E
100
AcDbEntity
  8
7
100
AcDbLine
 10
3.62007874015748
 20
2.838582677165354
 30
0.0
 11
3.754921259842519
 21
2.838582677165354
 31
0.0
  0
LINE
  5
341E
330
1E
100
AcDbEntity
  8
7
100
AcDbLine
 10
2.019685039370078
 20
2.927165354330708
 30
0.0
 11
2.014763779527559
 21
2.899606299212598
 31
0.0
  0
LINE
  5
341F
330
1E
100
AcDbEntity
  8
7
100
AcDbLine
 10
2.014763779527559
 20
2.899606299212598
 30
0.0
 11
2.001968503937007
 21
2.875
 31
0.0
  0
LINE
  5
3420
330
1E
100
AcDbEntity
  8
7
100
AcDbLine
 10
2.001968503937007
 20
2.875
 30
0.0
 11
1.982283464566929
 21
2.856299212598425
 31
0.0
  0
LINE
  5
3421
330
1E
100
AcDbEntity
  8
7
100
AcDbLine
 10
1.982283464566929
 20
2.856299212598425
 30
0.0
 11
1.95767716535433
 21
2.843503937007874
 31
0.0
  0
LINE
  5
3422
330
1E
100
AcDbEntity
  8
7
100
AcDbLine
 10
1.95767716535433
 20
2.843503937007874
 30
0.0
 11
1.93011811023622
 21
2.838582677165354
 31
0.0
  0
LINE
  5
3423
330
1E
100
AcDbEntity
  8
7
100
AcDbLine
 10
2.70767716535433
 20
3.497047244094487
 30
0.0
 11
2.70767716535433
 21
3.482283464566929
 31
0.0
  0
LINE
  5
3424
330
1E
100
AcDbEntity
  8
7
100
AcDbLine
 10
2.70767716535433
 20
3.482283464566929
 30
0.0
 11
2.70767716535433
 21
3.471456692913385
 31
0.0
  0
LINE
  5
3425
330
1E
100
AcDbEntity
  8
7
100
AcDbLine
 10
2.70767716535433
 20
3.471456692913385
 30
0.0
 11
2.708661417322834
 21
3.467519685039369
 31
0.0
  0
LINE
  5
3426
330
1E
100
AcDbEntity
  8
7
100
AcDbLine
 10
2.698818897637795
 20
3.98523622047244
 30
0.0
 11
2.698818897637795
 21
3.982283464566929
 31
0.0
  0
LINE
  5
3427
330
1E
100
AcDbEntity
  8
7
100
AcDbLine
 10
2.698818897637795
 20
3.982283464566929
 30
0.0
 11
2.699803149606299
 21
3.972440944881889
 31
0.0
  0
LINE
  5
3428
330
1E
100
AcDbEntity
  8
7
100
AcDbLine
 10
2.699803149606299
 20
3.972440944881889
 30
0.0
 11
2.699803149606299
 21
3.95767716535433
 31
0.0
  0
LINE
  5
3429
330
1E
100
AcDbEntity
  8
7
100
AcDbLine
 10
2.812007874015748
 20
3.467519685039369
 30
0.0
 11
2.812007874015748
 21
3.471456692913385
 31
0.0
  0
LINE
  5
342A
330
1E
100
AcDbEntity
  8
7
100
AcDbLine
 10
2.812007874015748
 20
3.471456692913385
 30
0.0
 11
2.812007874015748
 21
3.482283464566929
 31
0.0
  0
LINE
  5
342B
330
1E
100
AcDbEntity
  8
7
100
AcDbLine
 10
2.812007874015748
 20
3.482283464566929
 30
0.0
 11
2.812007874015748
 21
3.497047244094487
 31
0.0
  0
LINE
  5
342C
330
1E
100
AcDbEntity
  8
7
100
AcDbLine
 10
2.812007874015748
 20
3.497047244094487
 30
0.0
 11
2.808070866141732
 21
3.724409448818897
 31
0.0
  0
LINE
  5
342D
330
1E
100
AcDbEntity
  8
7
100
AcDbLine
 10
2.808070866141732
 20
3.724409448818897
 30
0.0
 11
2.806102362204724
 21
3.80511811023622
 31
0.0
  0
LINE
  5
342E
330
1E
100
AcDbEntity
  8
7
100
AcDbLine
 10
2.804133858267716
 20
3.95767716535433
 30
0.0
 11
2.803149606299212
 21
3.972440944881889
 31
0.0
  0
LINE
  5
342F
330
1E
100
AcDbEntity
  8
7
100
AcDbLine
 10
2.803149606299212
 20
3.972440944881889
 30
0.0
 11
2.803149606299212
 21
3.982283464566929
 31
0.0
  0
LINE
  5
3430
330
1E
100
AcDbEntity
  8
7
100
AcDbLine
 10
2.803149606299212
 20
3.982283464566929
 30
0.0
 11
2.803149606299212
 21
3.98523622047244
 31
0.0
  0
LINE
  5
3431
330
1E
100
AcDbEntity
  8
7
100
AcDbLine
 10
2.737204724409448
 20
3.467519685039369
 30
0.0
 11
2.738188976377952
 21
3.471456692913385
 31
0.0
  0
LINE
  5
3432
330
1E
100
AcDbEntity
  8
7
100
AcDbLine
 10
2.738188976377952
 20
3.471456692913385
 30
0.0
 11
2.738188976377952
 21
3.482283464566929
 31
0.0
  0
LINE
  5
3433
330
1E
100
AcDbEntity
  8
7
100
AcDbLine
 10
2.738188976377952
 20
3.482283464566929
 30
0.0
 11
2.738188976377952
 21
3.497047244094487
 31
0.0
  0
LINE
  5
3434
330
1E
100
AcDbEntity
  8
7
100
AcDbLine
 10
2.746062992125984
 20
3.95767716535433
 30
0.0
 11
2.746062992125984
 21
3.972440944881889
 31
0.0
  0
LINE
  5
3435
330
1E
100
AcDbEntity
  8
7
100
AcDbLine
 10
2.746062992125984
 20
3.972440944881889
 30
0.0
 11
2.747047244094487
 21
3.982283464566929
 31
0.0
  0
LINE
  5
3436
330
1E
100
AcDbEntity
  8
7
100
AcDbLine
 10
2.747047244094487
 20
3.982283464566929
 30
0.0
 11
2.747047244094487
 21
3.98523622047244
 31
0.0
  0
LINE
  5
3437
330
1E
100
AcDbEntity
  8
7
100
AcDbLine
 10
2.84251968503937
 20
3.497047244094487
 30
0.0
 11
2.84251968503937
 21
3.482283464566929
 31
0.0
  0
LINE
  5
3438
330
1E
100
AcDbEntity
  8
7
100
AcDbLine
 10
2.84251968503937
 20
3.482283464566929
 30
0.0
 11
2.841535433070866
 21
3.471456692913385
 31
0.0
  0
LINE
  5
3439
330
1E
100
AcDbEntity
  8
7
100
AcDbLine
 10
2.841535433070866
 20
3.471456692913385
 30
0.0
 11
2.841535433070866
 21
3.467519685039369
 31
0.0
  0
LINE
  5
343A
330
1E
100
AcDbEntity
  8
7
100
AcDbLine
 10
2.851377952755905
 20
3.98523622047244
 30
0.0
 11
2.850393700787401
 21
3.982283464566929
 31
0.0
  0
LINE
  5
343B
330
1E
100
AcDbEntity
  8
7
100
AcDbLine
 10
2.850393700787401
 20
3.982283464566929
 30
0.0
 11
2.850393700787401
 21
3.972440944881889
 31
0.0
  0
LINE
  5
343C
330
1E
100
AcDbEntity
  8
7
100
AcDbLine
 10
2.850393700787401
 20
3.972440944881889
 30
0.0
 11
2.850393700787401
 21
3.95767716535433
 31
0.0
  0
LINE
  5
343D
330
1E
100
AcDbEntity
  8
7
100
AcDbLine
 10
2.139763779527559
 20
4.099409448818897
 30
0.0
 11
2.139763779527559
 21
4.131889763779527
 31
0.0
  0
LINE
  5
343E
330
1E
100
AcDbEntity
  8
7
100
AcDbLine
 10
2.139763779527559
 20
4.131889763779527
 30
0.0
 11
2.646653543307086
 21
4.131889763779527
 31
0.0
  0
LINE
  5
343F
330
1E
100
AcDbEntity
  8
7
100
AcDbLine
 10
3.062992125984251
 20
3.98523622047244
 30
0.0
 11
3.062992125984251
 21
4.005905511811023
 31
0.0
  0
LINE
  5
3440
330
1E
100
AcDbEntity
  8
7
100
AcDbLine
 10
3.062992125984251
 20
4.005905511811023
 30
0.0
 11
3.252952755905511
 21
4.005905511811023
 31
0.0
  0
LINE
  5
3441
330
1E
100
AcDbEntity
  8
7
100
AcDbLine
 10
2.047244094488188
 20
3.428149606299212
 30
0.0
 11
2.058070866141732
 21
3.433070866141732
 31
0.0
  0
LINE
  5
3442
330
1E
100
AcDbEntity
  8
7
100
AcDbLine
 10
2.058070866141732
 20
3.433070866141732
 30
0.0
 11
2.062007874015748
 21
3.442913385826771
 31
0.0
  0
LINE
  5
3443
330
1E
100
AcDbEntity
  8
7
100
AcDbLine
 10
3.488188976377952
 20
3.469488188976377
 30
0.0
 11
3.488188976377952
 21
3.442913385826771
 31
0.0
  0
LINE
  5
3444
330
1E
100
AcDbEntity
  8
7
100
AcDbLine
 10
3.488188976377952
 20
3.442913385826771
 30
0.0
 11
3.493110236220472
 21
3.433070866141732
 31
0.0
  0
LINE
  5
3445
330
1E
100
AcDbEntity
  8
7
100
AcDbLine
 10
3.493110236220472
 20
3.433070866141732
 30
0.0
 11
3.503937007874015
 21
3.428149606299212
 31
0.0
  0
LINE
  5
3446
330
1E
100
AcDbEntity
  8
7
100
AcDbLine
 10
4.148622047244093
 20
3.855314960629921
 30
0.0
 11
4.134842519685038
 21
3.855314960629921
 31
0.0
  0
LINE
  5
3447
330
1E
100
AcDbEntity
  8
7
100
AcDbLine
 10
4.134842519685038
 20
3.855314960629921
 30
0.0
 11
4.112204724409448
 21
3.855314960629921
 31
0.0
  0
LINE
  5
3448
330
1E
100
AcDbEntity
  8
7
100
AcDbLine
 10
4.112204724409448
 20
3.855314960629921
 30
0.0
 11
4.08267716535433
 21
3.855314960629921
 31
0.0
  0
LINE
  5
3449
330
1E
100
AcDbEntity
  8
7
100
AcDbLine
 10
4.08267716535433
 20
3.855314960629921
 30
0.0
 11
4.047244094488188
 21
3.855314960629921
 31
0.0
  0
LINE
  5
344A
330
1E
100
AcDbEntity
  8
7
100
AcDbLine
 10
4.047244094488188
 20
3.855314960629921
 30
0.0
 11
4.006889763779526
 21
3.855314960629921
 31
0.0
  0
LINE
  5
344B
330
1E
100
AcDbEntity
  8
7
100
AcDbLine
 10
4.006889763779526
 20
3.855314960629921
 30
0.0
 11
3.965551181102362
 21
3.855314960629921
 31
0.0
  0
LINE
  5
344C
330
1E
100
AcDbEntity
  8
7
100
AcDbLine
 10
1.584645669291338
 20
3.855314960629921
 30
0.0
 11
1.543307086614173
 21
3.855314960629921
 31
0.0
  0
LINE
  5
344D
330
1E
100
AcDbEntity
  8
7
100
AcDbLine
 10
1.543307086614173
 20
3.855314960629921
 30
0.0
 11
1.502952755905511
 21
3.855314960629921
 31
0.0
  0
LINE
  5
344E
330
1E
100
AcDbEntity
  8
7
100
AcDbLine
 10
1.502952755905511
 20
3.855314960629921
 30
0.0
 11
1.46751968503937
 21
3.855314960629921
 31
0.0
  0
LINE
  5
344F
330
1E
100
AcDbEntity
  8
7
100
AcDbLine
 10
1.46751968503937
 20
3.855314960629921
 30
0.0
 11
1.437992125984251
 21
3.855314960629921
 31
0.0
  0
LINE
  5
3450
330
1E
100
AcDbEntity
  8
7
100
AcDbLine
 10
1.437992125984251
 20
3.855314960629921
 30
0.0
 11
1.415354330708661
 21
3.855314960629921
 31
0.0
  0
LINE
  5
3451
330
1E
100
AcDbEntity
  8
7
100
AcDbLine
 10
1.415354330708661
 20
3.855314960629921
 30
0.0
 11
1.401574803149606
 21
3.855314960629921
 31
0.0
  0
LINE
  5
3452
330
1E
100
AcDbEntity
  8
7
100
AcDbLine
 10
1.401574803149606
 20
3.855314960629921
 30
0.0
 11
1.396653543307086
 21
3.855314960629921
 31
0.0
  0
LINE
  5
3453
330
1E
100
AcDbEntity
  8
7
100
AcDbLine
 10
3.965551181102362
 20
3.896653543307086
 30
0.0
 11
4.006889763779526
 21
3.896653543307086
 31
0.0
  0
LINE
  5
3454
330
1E
100
AcDbEntity
  8
7
100
AcDbLine
 10
4.006889763779526
 20
3.896653543307086
 30
0.0
 11
4.047244094488188
 21
3.896653543307086
 31
0.0
  0
LINE
  5
3455
330
1E
100
AcDbEntity
  8
7
100
AcDbLine
 10
4.047244094488188
 20
3.896653543307086
 30
0.0
 11
4.08267716535433
 21
3.896653543307086
 31
0.0
  0
LINE
  5
3456
330
1E
100
AcDbEntity
  8
7
100
AcDbLine
 10
4.08267716535433
 20
3.896653543307086
 30
0.0
 11
4.112204724409448
 21
3.896653543307086
 31
0.0
  0
LINE
  5
3457
330
1E
100
AcDbEntity
  8
7
100
AcDbLine
 10
4.112204724409448
 20
3.896653543307086
 30
0.0
 11
4.134842519685038
 21
3.896653543307086
 31
0.0
  0
LINE
  5
3458
330
1E
100
AcDbEntity
  8
7
100
AcDbLine
 10
4.134842519685038
 20
3.896653543307086
 30
0.0
 11
4.148622047244093
 21
3.896653543307086
 31
0.0
  0
LINE
  5
3459
330
1E
100
AcDbEntity
  8
7
100
AcDbLine
 10
1.396653543307086
 20
3.896653543307086
 30
0.0
 11
1.401574803149606
 21
3.896653543307086
 31
0.0
  0
LINE
  5
345A
330
1E
100
AcDbEntity
  8
7
100
AcDbLine
 10
1.401574803149606
 20
3.896653543307086
 30
0.0
 11
1.415354330708661
 21
3.896653543307086
 31
0.0
  0
LINE
  5
345B
330
1E
100
AcDbEntity
  8
7
100
AcDbLine
 10
1.415354330708661
 20
3.896653543307086
 30
0.0
 11
1.437992125984251
 21
3.896653543307086
 31
0.0
  0
LINE
  5
345C
330
1E
100
AcDbEntity
  8
7
100
AcDbLine
 10
1.437992125984251
 20
3.896653543307086
 30
0.0
 11
1.46751968503937
 21
3.896653543307086
 31
0.0
  0
LINE
  5
345D
330
1E
100
AcDbEntity
  8
7
100
AcDbLine
 10
1.46751968503937
 20
3.896653543307086
 30
0.0
 11
1.502952755905511
 21
3.896653543307086
 31
0.0
  0
LINE
  5
345E
330
1E
100
AcDbEntity
  8
7
100
AcDbLine
 10
1.502952755905511
 20
3.896653543307086
 30
0.0
 11
1.543307086614173
 21
3.896653543307086
 31
0.0
  0
LINE
  5
345F
330
1E
100
AcDbEntity
  8
7
100
AcDbLine
 10
1.543307086614173
 20
3.896653543307086
 30
0.0
 11
1.584645669291338
 21
3.896653543307086
 31
0.0
  0
LINE
  5
3460
330
1E
100
AcDbEntity
  8
7
100
AcDbLine
 10
3.765748031496062
 20
3.9251968503937
 30
0.0
 11
3.76279527559055
 21
3.932086614173228
 31
0.0
  0
LINE
  5
3461
330
1E
100
AcDbEntity
  8
7
100
AcDbLine
 10
3.76279527559055
 20
3.932086614173228
 30
0.0
 11
3.755905511811023
 21
3.93503937007874
 31
0.0
  0
LINE
  5
3462
330
1E
100
AcDbEntity
  8
7
100
AcDbLine
 10
3.619094488188976
 20
3.93503937007874
 30
0.0
 11
3.612204724409448
 21
3.932086614173228
 31
0.0
  0
LINE
  5
3463
330
1E
100
AcDbEntity
  8
7
100
AcDbLine
 10
3.612204724409448
 20
3.932086614173228
 30
0.0
 11
3.609251968503937
 21
3.9251968503937
 31
0.0
  0
LINE
  5
3464
330
1E
100
AcDbEntity
  8
7
100
AcDbLine
 10
1.940944881889763
 20
3.9251968503937
 30
0.0
 11
1.937992125984251
 21
3.932086614173228
 31
0.0
  0
LINE
  5
3465
330
1E
100
AcDbEntity
  8
7
100
AcDbLine
 10
1.937992125984251
 20
3.932086614173228
 30
0.0
 11
1.931102362204724
 21
3.93503937007874
 31
0.0
  0
LINE
  5
3466
330
1E
100
AcDbEntity
  8
7
100
AcDbLine
 10
1.794291338582677
 20
3.93503937007874
 30
0.0
 11
1.787401574803149
 21
3.932086614173228
 31
0.0
  0
LINE
  5
3467
330
1E
100
AcDbEntity
  8
7
100
AcDbLine
 10
1.787401574803149
 20
3.932086614173228
 30
0.0
 11
1.784448818897637
 21
3.9251968503937
 31
0.0
  0
LINE
  5
3468
330
1E
100
AcDbEntity
  8
7
100
AcDbLine
 10
3.644685039370078
 20
5.572834645669291
 30
0.0
 11
3.625984251968503
 21
5.55511811023622
 31
0.0
  0
LINE
  5
3469
330
1E
100
AcDbEntity
  8
7
100
AcDbLine
 10
3.625984251968503
 20
5.55511811023622
 30
0.0
 11
3.613188976377952
 21
5.532480314960629
 31
0.0
  0
LINE
  5
346A
330
1E
100
AcDbEntity
  8
7
100
AcDbLine
 10
3.613188976377952
 20
5.532480314960629
 30
0.0
 11
3.609251968503937
 21
5.506889763779527
 31
0.0
  0
LINE
  5
346B
330
1E
100
AcDbEntity
  8
7
100
AcDbLine
 10
3.613188976377952
 20
5.481299212598425
 30
0.0
 11
3.625984251968503
 21
5.458661417322834
 31
0.0
  0
LINE
  5
346C
330
1E
100
AcDbEntity
  8
7
100
AcDbLine
 10
3.625984251968503
 20
5.458661417322834
 30
0.0
 11
3.644685039370078
 21
5.440944881889763
 31
0.0
  0
LINE
  5
346D
330
1E
100
AcDbEntity
  8
7
100
AcDbLine
 10
3.644685039370078
 20
5.440944881889763
 30
0.0
 11
3.668307086614173
 21
5.43011811023622
 31
0.0
  0
LINE
  5
346E
330
1E
100
AcDbEntity
  8
7
100
AcDbLine
 10
3.668307086614173
 20
5.43011811023622
 30
0.0
 11
3.694881889763779
 21
5.428149606299212
 31
0.0
  0
LINE
  5
346F
330
1E
100
AcDbEntity
  8
7
100
AcDbLine
 10
3.694881889763779
 20
5.428149606299212
 30
0.0
 11
3.719488188976377
 21
5.435039370078739
 31
0.0
  0
LINE
  5
3470
330
1E
100
AcDbEntity
  8
7
100
AcDbLine
 10
3.719488188976377
 20
5.435039370078739
 30
0.0
 11
3.741141732283464
 21
5.448818897637795
 31
0.0
  0
LINE
  5
3471
330
1E
100
AcDbEntity
  8
7
100
AcDbLine
 10
3.741141732283464
 20
5.448818897637795
 30
0.0
 11
3.756889763779527
 21
5.469488188976377
 31
0.0
  0
LINE
  5
3472
330
1E
100
AcDbEntity
  8
7
100
AcDbLine
 10
3.756889763779527
 20
5.469488188976377
 30
0.0
 11
3.765748031496062
 21
5.494094488188975
 31
0.0
  0
LINE
  5
3473
330
1E
100
AcDbEntity
  8
7
100
AcDbLine
 10
3.765748031496062
 20
5.494094488188975
 30
0.0
 11
3.765748031496062
 21
5.519685039370078
 31
0.0
  0
LINE
  5
3474
330
1E
100
AcDbEntity
  8
7
100
AcDbLine
 10
3.765748031496062
 20
5.519685039370078
 30
0.0
 11
3.756889763779527
 21
5.544291338582676
 31
0.0
  0
LINE
  5
3475
330
1E
100
AcDbEntity
  8
7
100
AcDbLine
 10
3.756889763779527
 20
5.544291338582676
 30
0.0
 11
3.741141732283464
 21
5.56496062992126
 31
0.0
  0
LINE
  5
3476
330
1E
100
AcDbEntity
  8
7
100
AcDbLine
 10
3.741141732283464
 20
5.56496062992126
 30
0.0
 11
3.719488188976377
 21
5.578740157480314
 31
0.0
  0
LINE
  5
3477
330
1E
100
AcDbEntity
  8
7
100
AcDbLine
 10
3.719488188976377
 20
5.578740157480314
 30
0.0
 11
3.694881889763779
 21
5.585629921259842
 31
0.0
  0
LINE
  5
3478
330
1E
100
AcDbEntity
  8
7
100
AcDbLine
 10
3.694881889763779
 20
5.585629921259842
 30
0.0
 11
3.668307086614173
 21
5.583661417322834
 31
0.0
  0
LINE
  5
3479
330
1E
100
AcDbEntity
  8
7
100
AcDbLine
 10
3.668307086614173
 20
5.583661417322834
 30
0.0
 11
3.644685039370078
 21
5.572834645669291
 31
0.0
  0
LINE
  5
347A
330
1E
100
AcDbEntity
  8
7
100
AcDbLine
 10
3.764763779527558
 20
5.494094488188975
 30
0.0
 11
3.764763779527558
 21
5.519685039370078
 31
0.0
  0
LINE
  5
347B
330
1E
100
AcDbEntity
  8
7
100
AcDbLine
 10
3.764763779527558
 20
5.519685039370078
 30
0.0
 11
3.755905511811023
 21
5.544291338582676
 31
0.0
  0
LINE
  5
347C
330
1E
100
AcDbEntity
  8
7
100
AcDbLine
 10
3.755905511811023
 20
5.544291338582676
 30
0.0
 11
3.741141732283464
 21
5.563976377952755
 31
0.0
  0
LINE
  5
347D
330
1E
100
AcDbEntity
  8
7
100
AcDbLine
 10
3.741141732283464
 20
5.563976377952755
 30
0.0
 11
3.719488188976377
 21
5.577755905511811
 31
0.0
  0
LINE
  5
347E
330
1E
100
AcDbEntity
  8
7
100
AcDbLine
 10
3.719488188976377
 20
5.577755905511811
 30
0.0
 11
3.694881889763779
 21
5.584645669291338
 31
0.0
  0
LINE
  5
347F
330
1E
100
AcDbEntity
  8
7
100
AcDbLine
 10
3.694881889763779
 20
5.584645669291338
 30
0.0
 11
3.669291338582677
 21
5.58267716535433
 31
0.0
  0
LINE
  5
3480
330
1E
100
AcDbEntity
  8
7
100
AcDbLine
 10
3.669291338582677
 20
5.58267716535433
 30
0.0
 11
3.645669291338582
 21
5.571850393700787
 31
0.0
  0
LINE
  5
3481
330
1E
100
AcDbEntity
  8
7
100
AcDbLine
 10
3.645669291338582
 20
5.571850393700787
 30
0.0
 11
3.626968503937007
 21
5.55511811023622
 31
0.0
  0
LINE
  5
3482
330
1E
100
AcDbEntity
  8
7
100
AcDbLine
 10
3.626968503937007
 20
5.55511811023622
 30
0.0
 11
3.614173228346456
 21
5.532480314960629
 31
0.0
  0
LINE
  5
3483
330
1E
100
AcDbEntity
  8
7
100
AcDbLine
 10
3.614173228346456
 20
5.532480314960629
 30
0.0
 11
3.61023622047244
 21
5.506889763779527
 31
0.0
  0
LINE
  5
3484
330
1E
100
AcDbEntity
  8
7
100
AcDbLine
 10
3.61023622047244
 20
5.506889763779527
 30
0.0
 11
3.614173228346456
 21
5.481299212598425
 31
0.0
  0
LINE
  5
3485
330
1E
100
AcDbEntity
  8
7
100
AcDbLine
 10
3.614173228346456
 20
5.481299212598425
 30
0.0
 11
3.626968503937007
 21
5.458661417322834
 31
0.0
  0
LINE
  5
3486
330
1E
100
AcDbEntity
  8
7
100
AcDbLine
 10
3.626968503937007
 20
5.458661417322834
 30
0.0
 11
3.645669291338582
 21
5.441929133858267
 31
0.0
  0
LINE
  5
3487
330
1E
100
AcDbEntity
  8
7
100
AcDbLine
 10
3.645669291338582
 20
5.441929133858267
 30
0.0
 11
3.669291338582677
 21
5.431102362204724
 31
0.0
  0
LINE
  5
3488
330
1E
100
AcDbEntity
  8
7
100
AcDbLine
 10
3.669291338582677
 20
5.431102362204724
 30
0.0
 11
3.694881889763779
 21
5.429133858267716
 31
0.0
  0
LINE
  5
3489
330
1E
100
AcDbEntity
  8
7
100
AcDbLine
 10
3.694881889763779
 20
5.429133858267716
 30
0.0
 11
3.719488188976377
 21
5.436023622047244
 31
0.0
  0
LINE
  5
348A
330
1E
100
AcDbEntity
  8
7
100
AcDbLine
 10
3.719488188976377
 20
5.436023622047244
 30
0.0
 11
3.741141732283464
 21
5.449803149606299
 31
0.0
  0
LINE
  5
348B
330
1E
100
AcDbEntity
  8
7
100
AcDbLine
 10
3.741141732283464
 20
5.449803149606299
 30
0.0
 11
3.755905511811023
 21
5.469488188976377
 31
0.0
  0
LINE
  5
348C
330
1E
100
AcDbEntity
  8
7
100
AcDbLine
 10
3.755905511811023
 20
5.469488188976377
 30
0.0
 11
3.764763779527558
 21
5.494094488188975
 31
0.0
  0
LINE
  5
348D
330
1E
100
AcDbEntity
  8
7
100
AcDbLine
 10
3.699803149606299
 20
5.43996062992126
 30
0.0
 11
3.721456692913385
 21
5.447834645669291
 31
0.0
  0
LINE
  5
348E
330
1E
100
AcDbEntity
  8
7
100
AcDbLine
 10
3.721456692913385
 20
5.447834645669291
 30
0.0
 11
3.74015748031496
 21
5.463582677165354
 31
0.0
  0
LINE
  5
348F
330
1E
100
AcDbEntity
  8
7
100
AcDbLine
 10
3.74015748031496
 20
5.463582677165354
 30
0.0
 11
3.751968503937007
 21
5.483267716535433
 31
0.0
  0
LINE
  5
3490
330
1E
100
AcDbEntity
  8
7
100
AcDbLine
 10
3.751968503937007
 20
5.483267716535433
 30
0.0
 11
3.755905511811023
 21
5.506889763779527
 31
0.0
  0
LINE
  5
3491
330
1E
100
AcDbEntity
  8
7
100
AcDbLine
 10
3.755905511811023
 20
5.506889763779527
 30
0.0
 11
3.751968503937007
 21
5.530511811023622
 31
0.0
  0
LINE
  5
3492
330
1E
100
AcDbEntity
  8
7
100
AcDbLine
 10
3.751968503937007
 20
5.530511811023622
 30
0.0
 11
3.74015748031496
 21
5.5501968503937
 31
0.0
  0
LINE
  5
3493
330
1E
100
AcDbEntity
  8
7
100
AcDbLine
 10
3.74015748031496
 20
5.5501968503937
 30
0.0
 11
3.722440944881889
 21
5.565944881889763
 31
0.0
  0
LINE
  5
3494
330
1E
100
AcDbEntity
  8
7
100
AcDbLine
 10
3.722440944881889
 20
5.565944881889763
 30
0.0
 11
3.699803149606299
 21
5.573818897637795
 31
0.0
  0
LINE
  5
3495
330
1E
100
AcDbEntity
  8
7
100
AcDbLine
 10
3.699803149606299
 20
5.573818897637795
 30
0.0
 11
3.676181102362204
 21
5.573818897637795
 31
0.0
  0
LINE
  5
3496
330
1E
100
AcDbEntity
  8
7
100
AcDbLine
 10
3.676181102362204
 20
5.573818897637795
 30
0.0
 11
3.654527559055118
 21
5.565944881889763
 31
0.0
  0
LINE
  5
3497
330
1E
100
AcDbEntity
  8
7
100
AcDbLine
 10
3.654527559055118
 20
5.565944881889763
 30
0.0
 11
3.635826771653543
 21
5.5501968503937
 31
0.0
  0
LINE
  5
3498
330
1E
100
AcDbEntity
  8
7
100
AcDbLine
 10
3.635826771653543
 20
5.5501968503937
 30
0.0
 11
3.624015748031495
 21
5.530511811023622
 31
0.0
  0
LINE
  5
3499
330
1E
100
AcDbEntity
  8
7
100
AcDbLine
 10
3.624015748031495
 20
5.530511811023622
 30
0.0
 11
3.62007874015748
 21
5.506889763779527
 31
0.0
  0
LINE
  5
349A
330
1E
100
AcDbEntity
  8
7
100
AcDbLine
 10
3.62007874015748
 20
5.506889763779527
 30
0.0
 11
3.624015748031495
 21
5.483267716535433
 31
0.0
  0
LINE
  5
349B
330
1E
100
AcDbEntity
  8
7
100
AcDbLine
 10
3.624015748031495
 20
5.483267716535433
 30
0.0
 11
3.635826771653543
 21
5.463582677165354
 31
0.0
  0
LINE
  5
349C
330
1E
100
AcDbEntity
  8
7
100
AcDbLine
 10
3.635826771653543
 20
5.463582677165354
 30
0.0
 11
3.653543307086614
 21
5.447834645669291
 31
0.0
  0
LINE
  5
349D
330
1E
100
AcDbEntity
  8
7
100
AcDbLine
 10
3.653543307086614
 20
5.447834645669291
 30
0.0
 11
3.676181102362204
 21
5.43996062992126
 31
0.0
  0
LINE
  5
349E
330
1E
100
AcDbEntity
  8
7
100
AcDbLine
 10
3.676181102362204
 20
5.43996062992126
 30
0.0
 11
3.699803149606299
 21
5.43996062992126
 31
0.0
  0
LINE
  5
349F
330
1E
100
AcDbEntity
  8
7
100
AcDbLine
 10
3.756889763779527
 20
6.562007874015748
 30
0.0
 11
3.765748031496062
 21
6.586614173228346
 31
0.0
  0
LINE
  5
34A0
330
1E
100
AcDbEntity
  8
7
100
AcDbLine
 10
3.765748031496062
 20
6.586614173228346
 30
0.0
 11
3.765748031496062
 21
6.612204724409449
 31
0.0
  0
LINE
  5
34A1
330
1E
100
AcDbEntity
  8
7
100
AcDbLine
 10
3.765748031496062
 20
6.612204724409449
 30
0.0
 11
3.756889763779527
 21
6.636811023622047
 31
0.0
  0
LINE
  5
34A2
330
1E
100
AcDbEntity
  8
7
100
AcDbLine
 10
3.756889763779527
 20
6.636811023622047
 30
0.0
 11
3.741141732283464
 21
6.657480314960629
 31
0.0
  0
LINE
  5
34A3
330
1E
100
AcDbEntity
  8
7
100
AcDbLine
 10
3.741141732283464
 20
6.657480314960629
 30
0.0
 11
3.719488188976377
 21
6.671259842519685
 31
0.0
  0
LINE
  5
34A4
330
1E
100
AcDbEntity
  8
7
100
AcDbLine
 10
3.719488188976377
 20
6.671259842519685
 30
0.0
 11
3.694881889763779
 21
6.678149606299212
 31
0.0
  0
LINE
  5
34A5
330
1E
100
AcDbEntity
  8
7
100
AcDbLine
 10
3.694881889763779
 20
6.678149606299212
 30
0.0
 11
3.668307086614173
 21
6.676181102362204
 31
0.0
  0
LINE
  5
34A6
330
1E
100
AcDbEntity
  8
7
100
AcDbLine
 10
3.668307086614173
 20
6.676181102362204
 30
0.0
 11
3.644685039370078
 21
6.665354330708661
 31
0.0
  0
LINE
  5
34A7
330
1E
100
AcDbEntity
  8
7
100
AcDbLine
 10
3.644685039370078
 20
6.665354330708661
 30
0.0
 11
3.625984251968503
 21
6.64763779527559
 31
0.0
  0
LINE
  5
34A8
330
1E
100
AcDbEntity
  8
7
100
AcDbLine
 10
3.625984251968503
 20
6.64763779527559
 30
0.0
 11
3.613188976377952
 21
6.625
 31
0.0
  0
LINE
  5
34A9
330
1E
100
AcDbEntity
  8
7
100
AcDbLine
 10
3.613188976377952
 20
6.625
 30
0.0
 11
3.609251968503937
 21
6.599409448818897
 31
0.0
  0
LINE
  5
34AA
330
1E
100
AcDbEntity
  8
7
100
AcDbLine
 10
3.609251968503937
 20
6.599409448818897
 30
0.0
 11
3.613188976377952
 21
6.573818897637795
 31
0.0
  0
LINE
  5
34AB
330
1E
100
AcDbEntity
  8
7
100
AcDbLine
 10
3.613188976377952
 20
6.573818897637795
 30
0.0
 11
3.625984251968503
 21
6.551181102362204
 31
0.0
  0
LINE
  5
34AC
330
1E
100
AcDbEntity
  8
7
100
AcDbLine
 10
3.625984251968503
 20
6.551181102362204
 30
0.0
 11
3.644685039370078
 21
6.533464566929133
 31
0.0
  0
LINE
  5
34AD
330
1E
100
AcDbEntity
  8
7
100
AcDbLine
 10
3.644685039370078
 20
6.533464566929133
 30
0.0
 11
3.668307086614173
 21
6.52263779527559
 31
0.0
  0
LINE
  5
34AE
330
1E
100
AcDbEntity
  8
7
100
AcDbLine
 10
3.668307086614173
 20
6.52263779527559
 30
0.0
 11
3.694881889763779
 21
6.520669291338582
 31
0.0
  0
LINE
  5
34AF
330
1E
100
AcDbEntity
  8
7
100
AcDbLine
 10
3.694881889763779
 20
6.520669291338582
 30
0.0
 11
3.719488188976377
 21
6.52755905511811
 31
0.0
  0
LINE
  5
34B0
330
1E
100
AcDbEntity
  8
7
100
AcDbLine
 10
3.719488188976377
 20
6.52755905511811
 30
0.0
 11
3.741141732283464
 21
6.541338582677164
 31
0.0
  0
LINE
  5
34B1
330
1E
100
AcDbEntity
  8
7
100
AcDbLine
 10
3.741141732283464
 20
6.541338582677164
 30
0.0
 11
3.756889763779527
 21
6.562007874015748
 31
0.0
  0
LINE
  5
34B2
330
1E
100
AcDbEntity
  8
7
100
AcDbLine
 10
3.669291338582677
 20
6.6751968503937
 30
0.0
 11
3.645669291338582
 21
6.664370078740157
 31
0.0
  0
LINE
  5
34B3
330
1E
100
AcDbEntity
  8
7
100
AcDbLine
 10
3.645669291338582
 20
6.664370078740157
 30
0.0
 11
3.626968503937007
 21
6.64763779527559
 31
0.0
  0
LINE
  5
34B4
330
1E
100
AcDbEntity
  8
7
100
AcDbLine
 10
3.626968503937007
 20
6.64763779527559
 30
0.0
 11
3.614173228346456
 21
6.625
 31
0.0
  0
LINE
  5
34B5
330
1E
100
AcDbEntity
  8
7
100
AcDbLine
 10
3.614173228346456
 20
6.625
 30
0.0
 11
3.61023622047244
 21
6.599409448818897
 31
0.0
  0
LINE
  5
34B6
330
1E
100
AcDbEntity
  8
7
100
AcDbLine
 10
3.61023622047244
 20
6.599409448818897
 30
0.0
 11
3.614173228346456
 21
6.573818897637795
 31
0.0
  0
LINE
  5
34B7
330
1E
100
AcDbEntity
  8
7
100
AcDbLine
 10
3.614173228346456
 20
6.573818897637795
 30
0.0
 11
3.626968503937007
 21
6.551181102362204
 31
0.0
  0
LINE
  5
34B8
330
1E
100
AcDbEntity
  8
7
100
AcDbLine
 10
3.626968503937007
 20
6.551181102362204
 30
0.0
 11
3.645669291338582
 21
6.534448818897637
 31
0.0
  0
LINE
  5
34B9
330
1E
100
AcDbEntity
  8
7
100
AcDbLine
 10
3.645669291338582
 20
6.534448818897637
 30
0.0
 11
3.669291338582677
 21
6.523622047244094
 31
0.0
  0
LINE
  5
34BA
330
1E
100
AcDbEntity
  8
7
100
AcDbLine
 10
3.669291338582677
 20
6.523622047244094
 30
0.0
 11
3.694881889763779
 21
6.521653543307086
 31
0.0
  0
LINE
  5
34BB
330
1E
100
AcDbEntity
  8
7
100
AcDbLine
 10
3.694881889763779
 20
6.521653543307086
 30
0.0
 11
3.719488188976377
 21
6.528543307086613
 31
0.0
  0
LINE
  5
34BC
330
1E
100
AcDbEntity
  8
7
100
AcDbLine
 10
3.719488188976377
 20
6.528543307086613
 30
0.0
 11
3.741141732283464
 21
6.542322834645669
 31
0.0
  0
LINE
  5
34BD
330
1E
100
AcDbEntity
  8
7
100
AcDbLine
 10
3.741141732283464
 20
6.542322834645669
 30
0.0
 11
3.755905511811023
 21
6.562007874015748
 31
0.0
  0
LINE
  5
34BE
330
1E
100
AcDbEntity
  8
7
100
AcDbLine
 10
3.755905511811023
 20
6.562007874015748
 30
0.0
 11
3.764763779527558
 21
6.586614173228346
 31
0.0
  0
LINE
  5
34BF
330
1E
100
AcDbEntity
  8
7
100
AcDbLine
 10
3.764763779527558
 20
6.586614173228346
 30
0.0
 11
3.764763779527558
 21
6.612204724409449
 31
0.0
  0
LINE
  5
34C0
330
1E
100
AcDbEntity
  8
7
100
AcDbLine
 10
3.764763779527558
 20
6.612204724409449
 30
0.0
 11
3.755905511811023
 21
6.636811023622047
 31
0.0
  0
LINE
  5
34C1
330
1E
100
AcDbEntity
  8
7
100
AcDbLine
 10
3.755905511811023
 20
6.636811023622047
 30
0.0
 11
3.741141732283464
 21
6.656496062992125
 31
0.0
  0
LINE
  5
34C2
330
1E
100
AcDbEntity
  8
7
100
AcDbLine
 10
3.741141732283464
 20
6.656496062992125
 30
0.0
 11
3.719488188976377
 21
6.67027559055118
 31
0.0
  0
LINE
  5
34C3
330
1E
100
AcDbEntity
  8
7
100
AcDbLine
 10
3.719488188976377
 20
6.67027559055118
 30
0.0
 11
3.694881889763779
 21
6.677165354330708
 31
0.0
  0
LINE
  5
34C4
330
1E
100
AcDbEntity
  8
7
100
AcDbLine
 10
3.694881889763779
 20
6.677165354330708
 30
0.0
 11
3.669291338582677
 21
6.6751968503937
 31
0.0
  0
LINE
  5
34C5
330
1E
100
AcDbEntity
  8
7
100
AcDbLine
 10
3.654527559055118
 20
6.658464566929133
 30
0.0
 11
3.635826771653543
 21
6.64271653543307
 31
0.0
  0
LINE
  5
34C6
330
1E
100
AcDbEntity
  8
7
100
AcDbLine
 10
3.635826771653543
 20
6.64271653543307
 30
0.0
 11
3.624015748031495
 21
6.623031496062991
 31
0.0
  0
LINE
  5
34C7
330
1E
100
AcDbEntity
  8
7
100
AcDbLine
 10
3.624015748031495
 20
6.623031496062991
 30
0.0
 11
3.62007874015748
 21
6.599409448818897
 31
0.0
  0
LINE
  5
34C8
330
1E
100
AcDbEntity
  8
7
100
AcDbLine
 10
3.62007874015748
 20
6.599409448818897
 30
0.0
 11
3.624015748031495
 21
6.575787401574802
 31
0.0
  0
LINE
  5
34C9
330
1E
100
AcDbEntity
  8
7
100
AcDbLine
 10
3.624015748031495
 20
6.575787401574802
 30
0.0
 11
3.635826771653543
 21
6.556102362204724
 31
0.0
  0
LINE
  5
34CA
330
1E
100
AcDbEntity
  8
7
100
AcDbLine
 10
3.635826771653543
 20
6.556102362204724
 30
0.0
 11
3.653543307086614
 21
6.540354330708661
 31
0.0
  0
LINE
  5
34CB
330
1E
100
AcDbEntity
  8
7
100
AcDbLine
 10
3.653543307086614
 20
6.540354330708661
 30
0.0
 11
3.676181102362204
 21
6.532480314960629
 31
0.0
  0
LINE
  5
34CC
330
1E
100
AcDbEntity
  8
7
100
AcDbLine
 10
3.676181102362204
 20
6.532480314960629
 30
0.0
 11
3.699803149606299
 21
6.532480314960629
 31
0.0
  0
LINE
  5
34CD
330
1E
100
AcDbEntity
  8
7
100
AcDbLine
 10
3.699803149606299
 20
6.532480314960629
 30
0.0
 11
3.721456692913385
 21
6.540354330708661
 31
0.0
  0
LINE
  5
34CE
330
1E
100
AcDbEntity
  8
7
100
AcDbLine
 10
3.721456692913385
 20
6.540354330708661
 30
0.0
 11
3.74015748031496
 21
6.556102362204724
 31
0.0
  0
LINE
  5
34CF
330
1E
100
AcDbEntity
  8
7
100
AcDbLine
 10
3.74015748031496
 20
6.556102362204724
 30
0.0
 11
3.751968503937007
 21
6.575787401574802
 31
0.0
  0
LINE
  5
34D0
330
1E
100
AcDbEntity
  8
7
100
AcDbLine
 10
3.751968503937007
 20
6.575787401574802
 30
0.0
 11
3.755905511811023
 21
6.599409448818897
 31
0.0
  0
LINE
  5
34D1
330
1E
100
AcDbEntity
  8
7
100
AcDbLine
 10
3.755905511811023
 20
6.599409448818897
 30
0.0
 11
3.751968503937007
 21
6.623031496062991
 31
0.0
  0
LINE
  5
34D2
330
1E
100
AcDbEntity
  8
7
100
AcDbLine
 10
3.751968503937007
 20
6.623031496062991
 30
0.0
 11
3.74015748031496
 21
6.64271653543307
 31
0.0
  0
LINE
  5
34D3
330
1E
100
AcDbEntity
  8
7
100
AcDbLine
 10
3.74015748031496
 20
6.64271653543307
 30
0.0
 11
3.722440944881889
 21
6.658464566929133
 31
0.0
  0
LINE
  5
34D4
330
1E
100
AcDbEntity
  8
7
100
AcDbLine
 10
3.722440944881889
 20
6.658464566929133
 30
0.0
 11
3.699803149606299
 21
6.666338582677164
 31
0.0
  0
LINE
  5
34D5
330
1E
100
AcDbEntity
  8
7
100
AcDbLine
 10
3.699803149606299
 20
6.666338582677164
 30
0.0
 11
3.676181102362204
 21
6.666338582677164
 31
0.0
  0
LINE
  5
34D6
330
1E
100
AcDbEntity
  8
7
100
AcDbLine
 10
3.676181102362204
 20
6.666338582677164
 30
0.0
 11
3.654527559055118
 21
6.658464566929133
 31
0.0
  0
LINE
  5
34D7
330
1E
100
AcDbEntity
  8
7
100
AcDbLine
 10
1.84251968503937
 20
6.676181102362204
 30
0.0
 11
1.818897637795275
 21
6.665354330708661
 31
0.0
  0
LINE
  5
34D8
330
1E
100
AcDbEntity
  8
7
100
AcDbLine
 10
1.818897637795275
 20
6.665354330708661
 30
0.0
 11
1.8001968503937
 21
6.64763779527559
 31
0.0
  0
LINE
  5
34D9
330
1E
100
AcDbEntity
  8
7
100
AcDbLine
 10
1.8001968503937
 20
6.64763779527559
 30
0.0
 11
1.787401574803149
 21
6.625
 31
0.0
  0
LINE
  5
34DA
330
1E
100
AcDbEntity
  8
7
100
AcDbLine
 10
1.787401574803149
 20
6.625
 30
0.0
 11
1.783464566929133
 21
6.599409448818897
 31
0.0
  0
LINE
  5
34DB
330
1E
100
AcDbEntity
  8
7
100
AcDbLine
 10
1.783464566929133
 20
6.599409448818897
 30
0.0
 11
1.787401574803149
 21
6.573818897637795
 31
0.0
  0
LINE
  5
34DC
330
1E
100
AcDbEntity
  8
7
100
AcDbLine
 10
1.787401574803149
 20
6.573818897637795
 30
0.0
 11
1.8001968503937
 21
6.551181102362204
 31
0.0
  0
LINE
  5
34DD
330
1E
100
AcDbEntity
  8
7
100
AcDbLine
 10
1.8001968503937
 20
6.551181102362204
 30
0.0
 11
1.818897637795275
 21
6.533464566929133
 31
0.0
  0
LINE
  5
34DE
330
1E
100
AcDbEntity
  8
7
100
AcDbLine
 10
1.818897637795275
 20
6.533464566929133
 30
0.0
 11
1.84251968503937
 21
6.52263779527559
 31
0.0
  0
LINE
  5
34DF
330
1E
100
AcDbEntity
  8
7
100
AcDbLine
 10
1.84251968503937
 20
6.52263779527559
 30
0.0
 11
1.869094488188976
 21
6.520669291338582
 31
0.0
  0
LINE
  5
34E0
330
1E
100
AcDbEntity
  8
7
100
AcDbLine
 10
1.869094488188976
 20
6.520669291338582
 30
0.0
 11
1.893700787401574
 21
6.52755905511811
 31
0.0
  0
LINE
  5
34E1
330
1E
100
AcDbEntity
  8
7
100
AcDbLine
 10
1.893700787401574
 20
6.52755905511811
 30
0.0
 11
1.915354330708661
 21
6.541338582677164
 31
0.0
  0
LINE
  5
34E2
330
1E
100
AcDbEntity
  8
7
100
AcDbLine
 10
1.915354330708661
 20
6.541338582677164
 30
0.0
 11
1.931102362204724
 21
6.562007874015748
 31
0.0
  0
LINE
  5
34E3
330
1E
100
AcDbEntity
  8
7
100
AcDbLine
 10
1.931102362204724
 20
6.562007874015748
 30
0.0
 11
1.939960629921259
 21
6.586614173228346
 31
0.0
  0
LINE
  5
34E4
330
1E
100
AcDbEntity
  8
7
100
AcDbLine
 10
1.939960629921259
 20
6.586614173228346
 30
0.0
 11
1.939960629921259
 21
6.612204724409449
 31
0.0
  0
LINE
  5
34E5
330
1E
100
AcDbEntity
  8
7
100
AcDbLine
 10
1.939960629921259
 20
6.612204724409449
 30
0.0
 11
1.931102362204724
 21
6.636811023622047
 31
0.0
  0
LINE
  5
34E6
330
1E
100
AcDbEntity
  8
7
100
AcDbLine
 10
1.931102362204724
 20
6.636811023622047
 30
0.0
 11
1.915354330708661
 21
6.657480314960629
 31
0.0
  0
LINE
  5
34E7
330
1E
100
AcDbEntity
  8
7
100
AcDbLine
 10
1.915354330708661
 20
6.657480314960629
 30
0.0
 11
1.893700787401574
 21
6.671259842519685
 31
0.0
  0
LINE
  5
34E8
330
1E
100
AcDbEntity
  8
7
100
AcDbLine
 10
1.893700787401574
 20
6.671259842519685
 30
0.0
 11
1.869094488188976
 21
6.678149606299212
 31
0.0
  0
LINE
  5
34E9
330
1E
100
AcDbEntity
  8
7
100
AcDbLine
 10
1.869094488188976
 20
6.678149606299212
 30
0.0
 11
1.84251968503937
 21
6.676181102362204
 31
0.0
  0
LINE
  5
34EA
330
1E
100
AcDbEntity
  8
7
100
AcDbLine
 10
1.915354330708661
 20
6.542322834645669
 30
0.0
 11
1.93011811023622
 21
6.562007874015748
 31
0.0
  0
LINE
  5
34EB
330
1E
100
AcDbEntity
  8
7
100
AcDbLine
 10
1.93011811023622
 20
6.562007874015748
 30
0.0
 11
1.938976377952755
 21
6.586614173228346
 31
0.0
  0
LINE
  5
34EC
330
1E
100
AcDbEntity
  8
7
100
AcDbLine
 10
1.938976377952755
 20
6.586614173228346
 30
0.0
 11
1.938976377952755
 21
6.612204724409449
 31
0.0
  0
LINE
  5
34ED
330
1E
100
AcDbEntity
  8
7
100
AcDbLine
 10
1.938976377952755
 20
6.612204724409449
 30
0.0
 11
1.93011811023622
 21
6.636811023622047
 31
0.0
  0
LINE
  5
34EE
330
1E
100
AcDbEntity
  8
7
100
AcDbLine
 10
1.93011811023622
 20
6.636811023622047
 30
0.0
 11
1.915354330708661
 21
6.656496062992125
 31
0.0
  0
LINE
  5
34EF
330
1E
100
AcDbEntity
  8
7
100
AcDbLine
 10
1.915354330708661
 20
6.656496062992125
 30
0.0
 11
1.893700787401574
 21
6.67027559055118
 31
0.0
  0
LINE
  5
34F0
330
1E
100
AcDbEntity
  8
7
100
AcDbLine
 10
1.893700787401574
 20
6.67027559055118
 30
0.0
 11
1.869094488188976
 21
6.677165354330708
 31
0.0
  0
LINE
  5
34F1
330
1E
100
AcDbEntity
  8
7
100
AcDbLine
 10
1.869094488188976
 20
6.677165354330708
 30
0.0
 11
1.843503937007874
 21
6.6751968503937
 31
0.0
  0
LINE
  5
34F2
330
1E
100
AcDbEntity
  8
7
100
AcDbLine
 10
1.843503937007874
 20
6.6751968503937
 30
0.0
 11
1.819881889763779
 21
6.664370078740157
 31
0.0
  0
LINE
  5
34F3
330
1E
100
AcDbEntity
  8
7
100
AcDbLine
 10
1.819881889763779
 20
6.664370078740157
 30
0.0
 11
1.801181102362204
 21
6.64763779527559
 31
0.0
  0
LINE
  5
34F4
330
1E
100
AcDbEntity
  8
7
100
AcDbLine
 10
1.801181102362204
 20
6.64763779527559
 30
0.0
 11
1.788385826771653
 21
6.625
 31
0.0
  0
LINE
  5
34F5
330
1E
100
AcDbEntity
  8
7
100
AcDbLine
 10
1.788385826771653
 20
6.625
 30
0.0
 11
1.784448818897637
 21
6.599409448818897
 31
0.0
  0
LINE
  5
34F6
330
1E
100
AcDbEntity
  8
7
100
AcDbLine
 10
1.784448818897637
 20
6.599409448818897
 30
0.0
 11
1.788385826771653
 21
6.573818897637795
 31
0.0
  0
LINE
  5
34F7
330
1E
100
AcDbEntity
  8
7
100
AcDbLine
 10
1.788385826771653
 20
6.573818897637795
 30
0.0
 11
1.801181102362204
 21
6.551181102362204
 31
0.0
  0
LINE
  5
34F8
330
1E
100
AcDbEntity
  8
7
100
AcDbLine
 10
1.801181102362204
 20
6.551181102362204
 30
0.0
 11
1.819881889763779
 21
6.534448818897637
 31
0.0
  0
LINE
  5
34F9
330
1E
100
AcDbEntity
  8
7
100
AcDbLine
 10
1.819881889763779
 20
6.534448818897637
 30
0.0
 11
1.843503937007874
 21
6.523622047244094
 31
0.0
  0
LINE
  5
34FA
330
1E
100
AcDbEntity
  8
7
100
AcDbLine
 10
1.843503937007874
 20
6.523622047244094
 30
0.0
 11
1.869094488188976
 21
6.521653543307086
 31
0.0
  0
LINE
  5
34FB
330
1E
100
AcDbEntity
  8
7
100
AcDbLine
 10
1.869094488188976
 20
6.521653543307086
 30
0.0
 11
1.893700787401574
 21
6.528543307086613
 31
0.0
  0
LINE
  5
34FC
330
1E
100
AcDbEntity
  8
7
100
AcDbLine
 10
1.893700787401574
 20
6.528543307086613
 30
0.0
 11
1.915354330708661
 21
6.542322834645669
 31
0.0
  0
LINE
  5
34FD
330
1E
100
AcDbEntity
  8
7
100
AcDbLine
 10
1.827755905511811
 20
6.540354330708661
 30
0.0
 11
1.850393700787401
 21
6.532480314960629
 31
0.0
  0
LINE
  5
34FE
330
1E
100
AcDbEntity
  8
7
100
AcDbLine
 10
1.850393700787401
 20
6.532480314960629
 30
0.0
 11
1.874015748031496
 21
6.532480314960629
 31
0.0
  0
LINE
  5
34FF
330
1E
100
AcDbEntity
  8
7
100
AcDbLine
 10
1.874015748031496
 20
6.532480314960629
 30
0.0
 11
1.895669291338582
 21
6.540354330708661
 31
0.0
  0
LINE
  5
3500
330
1E
100
AcDbEntity
  8
7
100
AcDbLine
 10
1.895669291338582
 20
6.540354330708661
 30
0.0
 11
1.914370078740157
 21
6.556102362204724
 31
0.0
  0
LINE
  5
3501
330
1E
100
AcDbEntity
  8
7
100
AcDbLine
 10
1.914370078740157
 20
6.556102362204724
 30
0.0
 11
1.926181102362204
 21
6.575787401574802
 31
0.0
  0
LINE
  5
3502
330
1E
100
AcDbEntity
  8
7
100
AcDbLine
 10
1.926181102362204
 20
6.575787401574802
 30
0.0
 11
1.93011811023622
 21
6.599409448818897
 31
0.0
  0
LINE
  5
3503
330
1E
100
AcDbEntity
  8
7
100
AcDbLine
 10
1.93011811023622
 20
6.599409448818897
 30
0.0
 11
1.926181102362204
 21
6.623031496062991
 31
0.0
  0
LINE
  5
3504
330
1E
100
AcDbEntity
  8
7
100
AcDbLine
 10
1.926181102362204
 20
6.623031496062991
 30
0.0
 11
1.914370078740157
 21
6.64271653543307
 31
0.0
  0
LINE
  5
3505
330
1E
100
AcDbEntity
  8
7
100
AcDbLine
 10
1.914370078740157
 20
6.64271653543307
 30
0.0
 11
1.896653543307086
 21
6.658464566929133
 31
0.0
  0
LINE
  5
3506
330
1E
100
AcDbEntity
  8
7
100
AcDbLine
 10
1.896653543307086
 20
6.658464566929133
 30
0.0
 11
1.874015748031496
 21
6.666338582677164
 31
0.0
  0
LINE
  5
3507
330
1E
100
AcDbEntity
  8
7
100
AcDbLine
 10
1.874015748031496
 20
6.666338582677164
 30
0.0
 11
1.850393700787401
 21
6.666338582677164
 31
0.0
  0
LINE
  5
3508
330
1E
100
AcDbEntity
  8
7
100
AcDbLine
 10
1.850393700787401
 20
6.666338582677164
 30
0.0
 11
1.828740157480314
 21
6.658464566929133
 31
0.0
  0
LINE
  5
3509
330
1E
100
AcDbEntity
  8
7
100
AcDbLine
 10
1.828740157480314
 20
6.658464566929133
 30
0.0
 11
1.81003937007874
 21
6.64271653543307
 31
0.0
  0
LINE
  5
350A
330
1E
100
AcDbEntity
  8
7
100
AcDbLine
 10
1.81003937007874
 20
6.64271653543307
 30
0.0
 11
1.798228346456692
 21
6.623031496062991
 31
0.0
  0
LINE
  5
350B
330
1E
100
AcDbEntity
  8
7
100
AcDbLine
 10
1.798228346456692
 20
6.623031496062991
 30
0.0
 11
1.794291338582677
 21
6.599409448818897
 31
0.0
  0
LINE
  5
350C
330
1E
100
AcDbEntity
  8
7
100
AcDbLine
 10
1.794291338582677
 20
6.599409448818897
 30
0.0
 11
1.798228346456692
 21
6.575787401574802
 31
0.0
  0
LINE
  5
350D
330
1E
100
AcDbEntity
  8
7
100
AcDbLine
 10
1.798228346456692
 20
6.575787401574802
 30
0.0
 11
1.81003937007874
 21
6.556102362204724
 31
0.0
  0
LINE
  5
350E
330
1E
100
AcDbEntity
  8
7
100
AcDbLine
 10
1.81003937007874
 20
6.556102362204724
 30
0.0
 11
1.827755905511811
 21
6.540354330708661
 31
0.0
  0
LINE
  5
350F
330
1E
100
AcDbEntity
  8
7
100
AcDbLine
 10
1.893700787401574
 20
5.435039370078739
 30
0.0
 11
1.915354330708661
 21
5.448818897637795
 31
0.0
  0
LINE
  5
3510
330
1E
100
AcDbEntity
  8
7
100
AcDbLine
 10
1.915354330708661
 20
5.448818897637795
 30
0.0
 11
1.931102362204724
 21
5.469488188976377
 31
0.0
  0
LINE
  5
3511
330
1E
100
AcDbEntity
  8
7
100
AcDbLine
 10
1.931102362204724
 20
5.469488188976377
 30
0.0
 11
1.939960629921259
 21
5.494094488188975
 31
0.0
  0
LINE
  5
3512
330
1E
100
AcDbEntity
  8
7
100
AcDbLine
 10
1.939960629921259
 20
5.494094488188975
 30
0.0
 11
1.939960629921259
 21
5.519685039370078
 31
0.0
  0
LINE
  5
3513
330
1E
100
AcDbEntity
  8
7
100
AcDbLine
 10
1.939960629921259
 20
5.519685039370078
 30
0.0
 11
1.931102362204724
 21
5.544291338582676
 31
0.0
  0
LINE
  5
3514
330
1E
100
AcDbEntity
  8
7
100
AcDbLine
 10
1.931102362204724
 20
5.544291338582676
 30
0.0
 11
1.915354330708661
 21
5.56496062992126
 31
0.0
  0
LINE
  5
3515
330
1E
100
AcDbEntity
  8
7
100
AcDbLine
 10
1.915354330708661
 20
5.56496062992126
 30
0.0
 11
1.893700787401574
 21
5.578740157480314
 31
0.0
  0
LINE
  5
3516
330
1E
100
AcDbEntity
  8
7
100
AcDbLine
 10
1.893700787401574
 20
5.578740157480314
 30
0.0
 11
1.869094488188976
 21
5.585629921259842
 31
0.0
  0
LINE
  5
3517
330
1E
100
AcDbEntity
  8
7
100
AcDbLine
 10
1.869094488188976
 20
5.585629921259842
 30
0.0
 11
1.84251968503937
 21
5.583661417322834
 31
0.0
  0
LINE
  5
3518
330
1E
100
AcDbEntity
  8
7
100
AcDbLine
 10
1.84251968503937
 20
5.583661417322834
 30
0.0
 11
1.818897637795275
 21
5.572834645669291
 31
0.0
  0
LINE
  5
3519
330
1E
100
AcDbEntity
  8
7
100
AcDbLine
 10
1.818897637795275
 20
5.572834645669291
 30
0.0
 11
1.8001968503937
 21
5.55511811023622
 31
0.0
  0
LINE
  5
351A
330
1E
100
AcDbEntity
  8
7
100
AcDbLine
 10
1.8001968503937
 20
5.55511811023622
 30
0.0
 11
1.787401574803149
 21
5.532480314960629
 31
0.0
  0
LINE
  5
351B
330
1E
100
AcDbEntity
  8
7
100
AcDbLine
 10
1.787401574803149
 20
5.532480314960629
 30
0.0
 11
1.783464566929133
 21
5.506889763779527
 31
0.0
  0
LINE
  5
351C
330
1E
100
AcDbEntity
  8
7
100
AcDbLine
 10
1.783464566929133
 20
5.506889763779527
 30
0.0
 11
1.787401574803149
 21
5.481299212598425
 31
0.0
  0
LINE
  5
351D
330
1E
100
AcDbEntity
  8
7
100
AcDbLine
 10
1.787401574803149
 20
5.481299212598425
 30
0.0
 11
1.8001968503937
 21
5.458661417322834
 31
0.0
  0
LINE
  5
351E
330
1E
100
AcDbEntity
  8
7
100
AcDbLine
 10
1.8001968503937
 20
5.458661417322834
 30
0.0
 11
1.818897637795275
 21
5.440944881889763
 31
0.0
  0
LINE
  5
351F
330
1E
100
AcDbEntity
  8
7
100
AcDbLine
 10
1.818897637795275
 20
5.440944881889763
 30
0.0
 11
1.84251968503937
 21
5.43011811023622
 31
0.0
  0
LINE
  5
3520
330
1E
100
AcDbEntity
  8
7
100
AcDbLine
 10
1.84251968503937
 20
5.43011811023622
 30
0.0
 11
1.869094488188976
 21
5.428149606299212
 31
0.0
  0
LINE
  5
3521
330
1E
100
AcDbEntity
  8
7
100
AcDbLine
 10
1.869094488188976
 20
5.428149606299212
 30
0.0
 11
1.893700787401574
 21
5.435039370078739
 31
0.0
  0
LINE
  5
3522
330
1E
100
AcDbEntity
  8
7
100
AcDbLine
 10
1.869094488188976
 20
5.584645669291338
 30
0.0
 11
1.843503937007874
 21
5.58267716535433
 31
0.0
  0
LINE
  5
3523
330
1E
100
AcDbEntity
  8
7
100
AcDbLine
 10
1.843503937007874
 20
5.58267716535433
 30
0.0
 11
1.819881889763779
 21
5.571850393700787
 31
0.0
  0
LINE
  5
3524
330
1E
100
AcDbEntity
  8
7
100
AcDbLine
 10
1.819881889763779
 20
5.571850393700787
 30
0.0
 11
1.801181102362204
 21
5.55511811023622
 31
0.0
  0
LINE
  5
3525
330
1E
100
AcDbEntity
  8
7
100
AcDbLine
 10
1.801181102362204
 20
5.55511811023622
 30
0.0
 11
1.788385826771653
 21
5.532480314960629
 31
0.0
  0
LINE
  5
3526
330
1E
100
AcDbEntity
  8
7
100
AcDbLine
 10
1.788385826771653
 20
5.532480314960629
 30
0.0
 11
1.784448818897637
 21
5.506889763779527
 31
0.0
  0
LINE
  5
3527
330
1E
100
AcDbEntity
  8
7
100
AcDbLine
 10
1.784448818897637
 20
5.506889763779527
 30
0.0
 11
1.788385826771653
 21
5.481299212598425
 31
0.0
  0
LINE
  5
3528
330
1E
100
AcDbEntity
  8
7
100
AcDbLine
 10
1.788385826771653
 20
5.481299212598425
 30
0.0
 11
1.801181102362204
 21
5.458661417322834
 31
0.0
  0
LINE
  5
3529
330
1E
100
AcDbEntity
  8
7
100
AcDbLine
 10
1.801181102362204
 20
5.458661417322834
 30
0.0
 11
1.819881889763779
 21
5.441929133858267
 31
0.0
  0
LINE
  5
352A
330
1E
100
AcDbEntity
  8
7
100
AcDbLine
 10
1.819881889763779
 20
5.441929133858267
 30
0.0
 11
1.843503937007874
 21
5.431102362204724
 31
0.0
  0
LINE
  5
352B
330
1E
100
AcDbEntity
  8
7
100
AcDbLine
 10
1.843503937007874
 20
5.431102362204724
 30
0.0
 11
1.869094488188976
 21
5.429133858267716
 31
0.0
  0
LINE
  5
352C
330
1E
100
AcDbEntity
  8
7
100
AcDbLine
 10
1.869094488188976
 20
5.429133858267716
 30
0.0
 11
1.893700787401574
 21
5.436023622047244
 31
0.0
  0
LINE
  5
352D
330
1E
100
AcDbEntity
  8
7
100
AcDbLine
 10
1.893700787401574
 20
5.436023622047244
 30
0.0
 11
1.915354330708661
 21
5.449803149606299
 31
0.0
  0
LINE
  5
352E
330
1E
100
AcDbEntity
  8
7
100
AcDbLine
 10
1.915354330708661
 20
5.449803149606299
 30
0.0
 11
1.93011811023622
 21
5.469488188976377
 31
0.0
  0
LINE
  5
352F
330
1E
100
AcDbEntity
  8
7
100
AcDbLine
 10
1.93011811023622
 20
5.469488188976377
 30
0.0
 11
1.938976377952755
 21
5.494094488188975
 31
0.0
  0
LINE
  5
3530
330
1E
100
AcDbEntity
  8
7
100
AcDbLine
 10
1.938976377952755
 20
5.494094488188975
 30
0.0
 11
1.938976377952755
 21
5.519685039370078
 31
0.0
  0
LINE
  5
3531
330
1E
100
AcDbEntity
  8
7
100
AcDbLine
 10
1.938976377952755
 20
5.519685039370078
 30
0.0
 11
1.93011811023622
 21
5.544291338582676
 31
0.0
  0
LINE
  5
3532
330
1E
100
AcDbEntity
  8
7
100
AcDbLine
 10
1.93011811023622
 20
5.544291338582676
 30
0.0
 11
1.915354330708661
 21
5.563976377952755
 31
0.0
  0
LINE
  5
3533
330
1E
100
AcDbEntity
  8
7
100
AcDbLine
 10
1.915354330708661
 20
5.563976377952755
 30
0.0
 11
1.893700787401574
 21
5.577755905511811
 31
0.0
  0
LINE
  5
3534
330
1E
100
AcDbEntity
  8
7
100
AcDbLine
 10
1.893700787401574
 20
5.577755905511811
 30
0.0
 11
1.869094488188976
 21
5.584645669291338
 31
0.0
  0
LINE
  5
3535
330
1E
100
AcDbEntity
  8
7
100
AcDbLine
 10
1.850393700787401
 20
5.573818897637795
 30
0.0
 11
1.828740157480314
 21
5.565944881889763
 31
0.0
  0
LINE
  5
3536
330
1E
100
AcDbEntity
  8
7
100
AcDbLine
 10
1.828740157480314
 20
5.565944881889763
 30
0.0
 11
1.81003937007874
 21
5.5501968503937
 31
0.0
  0
LINE
  5
3537
330
1E
100
AcDbEntity
  8
7
100
AcDbLine
 10
1.81003937007874
 20
5.5501968503937
 30
0.0
 11
1.798228346456692
 21
5.530511811023622
 31
0.0
  0
LINE
  5
3538
330
1E
100
AcDbEntity
  8
7
100
AcDbLine
 10
1.798228346456692
 20
5.530511811023622
 30
0.0
 11
1.794291338582677
 21
5.506889763779527
 31
0.0
  0
LINE
  5
3539
330
1E
100
AcDbEntity
  8
7
100
AcDbLine
 10
1.794291338582677
 20
5.506889763779527
 30
0.0
 11
1.798228346456692
 21
5.483267716535433
 31
0.0
  0
LINE
  5
353A
330
1E
100
AcDbEntity
  8
7
100
AcDbLine
 10
1.798228346456692
 20
5.483267716535433
 30
0.0
 11
1.81003937007874
 21
5.463582677165354
 31
0.0
  0
LINE
  5
353B
330
1E
100
AcDbEntity
  8
7
100
AcDbLine
 10
1.81003937007874
 20
5.463582677165354
 30
0.0
 11
1.827755905511811
 21
5.447834645669291
 31
0.0
  0
LINE
  5
353C
330
1E
100
AcDbEntity
  8
7
100
AcDbLine
 10
1.827755905511811
 20
5.447834645669291
 30
0.0
 11
1.850393700787401
 21
5.43996062992126
 31
0.0
  0
LINE
  5
353D
330
1E
100
AcDbEntity
  8
7
100
AcDbLine
 10
1.850393700787401
 20
5.43996062992126
 30
0.0
 11
1.874015748031496
 21
5.43996062992126
 31
0.0
  0
LINE
  5
353E
330
1E
100
AcDbEntity
  8
7
100
AcDbLine
 10
1.874015748031496
 20
5.43996062992126
 30
0.0
 11
1.895669291338582
 21
5.447834645669291
 31
0.0
  0
LINE
  5
353F
330
1E
100
AcDbEntity
  8
7
100
AcDbLine
 10
1.895669291338582
 20
5.447834645669291
 30
0.0
 11
1.914370078740157
 21
5.463582677165354
 31
0.0
  0
LINE
  5
3540
330
1E
100
AcDbEntity
  8
7
100
AcDbLine
 10
1.914370078740157
 20
5.463582677165354
 30
0.0
 11
1.926181102362204
 21
5.483267716535433
 31
0.0
  0
LINE
  5
3541
330
1E
100
AcDbEntity
  8
7
100
AcDbLine
 10
1.926181102362204
 20
5.483267716535433
 30
0.0
 11
1.93011811023622
 21
5.506889763779527
 31
0.0
  0
LINE
  5
3542
330
1E
100
AcDbEntity
  8
7
100
AcDbLine
 10
1.93011811023622
 20
5.506889763779527
 30
0.0
 11
1.926181102362204
 21
5.530511811023622
 31
0.0
  0
LINE
  5
3543
330
1E
100
AcDbEntity
  8
7
100
AcDbLine
 10
1.926181102362204
 20
5.530511811023622
 30
0.0
 11
1.914370078740157
 21
5.5501968503937
 31
0.0
  0
LINE
  5
3544
330
1E
100
AcDbEntity
  8
7
100
AcDbLine
 10
1.914370078740157
 20
5.5501968503937
 30
0.0
 11
1.896653543307086
 21
5.565944881889763
 31
0.0
  0
LINE
  5
3545
330
1E
100
AcDbEntity
  8
7
100
AcDbLine
 10
1.896653543307086
 20
5.565944881889763
 30
0.0
 11
1.874015748031496
 21
5.573818897637795
 31
0.0
  0
LINE
  5
3546
330
1E
100
AcDbEntity
  8
7
100
AcDbLine
 10
1.874015748031496
 20
5.573818897637795
 30
0.0
 11
1.850393700787401
 21
5.573818897637795
 31
0.0
  0
LINE
  5
3547
330
1E
100
AcDbEntity
  8
7
100
AcDbLine
 10
2.487204724409448
 20
6.656496062992125
 30
0.0
 11
2.521653543307086
 21
6.656496062992125
 31
0.0
  0
LINE
  5
3548
330
1E
100
AcDbEntity
  8
7
100
AcDbLine
 10
2.521653543307086
 20
6.656496062992125
 30
0.0
 11
2.521653543307086
 21
6.801181102362204
 31
0.0
  0
LINE
  5
3549
330
1E
100
AcDbEntity
  8
7
100
AcDbLine
 10
2.521653543307086
 20
6.801181102362204
 30
0.0
 11
3.028543307086614
 21
6.801181102362204
 31
0.0
  0
LINE
  5
354A
330
1E
100
AcDbEntity
  8
7
100
AcDbLine
 10
2.301181102362204
 20
6.656496062992125
 30
0.0
 11
2.301181102362204
 21
6.659448818897637
 31
0.0
  0
LINE
  5
354B
330
1E
100
AcDbEntity
  8
7
100
AcDbLine
 10
2.301181102362204
 20
6.659448818897637
 30
0.0
 11
2.301181102362204
 21
6.667322834645669
 31
0.0
  0
LINE
  5
354C
330
1E
100
AcDbEntity
  8
7
100
AcDbLine
 10
2.478346456692913
 20
6.682086614173228
 30
0.0
 11
2.478346456692913
 21
6.667322834645669
 31
0.0
  0
LINE
  5
354D
330
1E
100
AcDbEntity
  8
7
100
AcDbLine
 10
2.478346456692913
 20
6.667322834645669
 30
0.0
 11
2.478346456692913
 21
6.659448818897637
 31
0.0
  0
LINE
  5
354E
330
1E
100
AcDbEntity
  8
7
100
AcDbLine
 10
2.478346456692913
 20
6.659448818897637
 30
0.0
 11
2.478346456692913
 21
6.656496062992125
 31
0.0
  0
LINE
  5
354F
330
1E
100
AcDbEntity
  8
7
100
AcDbLine
 10
2.478346456692913
 20
6.656496062992125
 30
0.0
 11
2.479330708661417
 21
6.659448818897637
 31
0.0
  0
LINE
  5
3550
330
1E
100
AcDbEntity
  8
7
100
AcDbLine
 10
2.301181102362204
 20
6.682086614173228
 30
0.0
 11
2.301181102362204
 21
6.687992125984251
 31
0.0
  0
LINE
  5
3551
330
1E
100
AcDbEntity
  8
7
100
AcDbLine
 10
2.301181102362204
 20
6.687992125984251
 30
0.0
 11
2.301181102362204
 21
6.68996062992126
 31
0.0
  0
LINE
  5
3552
330
1E
100
AcDbEntity
  8
7
100
AcDbLine
 10
2.478346456692913
 20
6.68996062992126
 30
0.0
 11
2.478346456692913
 21
6.687992125984251
 31
0.0
  0
LINE
  5
3553
330
1E
100
AcDbEntity
  8
7
100
AcDbLine
 10
2.478346456692913
 20
6.687992125984251
 30
0.0
 11
2.478346456692913
 21
6.682086614173228
 31
0.0
  0
LINE
  5
3554
330
1E
100
AcDbEntity
  8
7
100
AcDbLine
 10
3.249015748031495
 20
6.667322834645669
 30
0.0
 11
3.249015748031495
 21
6.659448818897637
 31
0.0
  0
LINE
  5
3555
330
1E
100
AcDbEntity
  8
7
100
AcDbLine
 10
3.249015748031495
 20
6.659448818897637
 30
0.0
 11
3.249015748031495
 21
6.656496062992125
 31
0.0
  0
LINE
  5
3556
330
1E
100
AcDbEntity
  8
7
100
AcDbLine
 10
3.070866141732283
 20
6.659448818897637
 30
0.0
 11
3.070866141732283
 21
6.656496062992125
 31
0.0
  0
LINE
  5
3557
330
1E
100
AcDbEntity
  8
7
100
AcDbLine
 10
3.070866141732283
 20
6.656496062992125
 30
0.0
 11
3.071850393700787
 21
6.659448818897637
 31
0.0
  0
LINE
  5
3558
330
1E
100
AcDbEntity
  8
7
100
AcDbLine
 10
3.071850393700787
 20
6.659448818897637
 30
0.0
 11
3.071850393700787
 21
6.667322834645669
 31
0.0
  0
LINE
  5
3559
330
1E
100
AcDbEntity
  8
7
100
AcDbLine
 10
3.071850393700787
 20
6.667322834645669
 30
0.0
 11
3.071850393700787
 21
6.682086614173228
 31
0.0
  0
LINE
  5
355A
330
1E
100
AcDbEntity
  8
7
100
AcDbLine
 10
3.071850393700787
 20
6.687992125984251
 30
0.0
 11
3.071850393700787
 21
6.682086614173228
 31
0.0
  0
LINE
  5
355B
330
1E
100
AcDbEntity
  8
7
100
AcDbLine
 10
3.071850393700787
 20
6.682086614173228
 30
0.0
 11
3.249015748031495
 21
6.682086614173228
 31
0.0
  0
LINE
  5
355C
330
1E
100
AcDbEntity
  8
7
100
AcDbLine
 10
3.249015748031495
 20
6.682086614173228
 30
0.0
 11
3.249015748031495
 21
6.687992125984251
 31
0.0
  0
LINE
  5
355D
330
1E
100
AcDbEntity
  8
7
100
AcDbLine
 10
3.249015748031495
 20
6.687992125984251
 30
0.0
 11
3.249015748031495
 21
6.68996062992126
 31
0.0
  0
LINE
  5
355E
330
1E
100
AcDbEntity
  8
7
100
AcDbLine
 10
2.483267716535432
 20
6.89271653543307
 30
0.0
 11
2.482283464566929
 21
6.791338582677164
 31
0.0
  0
LINE
  5
355F
330
1E
100
AcDbEntity
  8
7
100
AcDbLine
 10
2.482283464566929
 20
6.791338582677164
 30
0.0
 11
2.482283464566929
 21
6.775590551181101
 31
0.0
  0
LINE
  5
3560
330
1E
100
AcDbEntity
  8
7
100
AcDbLine
 10
2.482283464566929
 20
6.775590551181101
 30
0.0
 11
2.482283464566929
 21
6.764763779527559
 31
0.0
  0
LINE
  5
3561
330
1E
100
AcDbEntity
  8
7
100
AcDbLine
 10
3.066929133858267
 20
6.791338582677164
 30
0.0
 11
3.067913385826771
 21
6.775590551181101
 31
0.0
  0
LINE
  5
3562
330
1E
100
AcDbEntity
  8
7
100
AcDbLine
 10
3.067913385826771
 20
6.775590551181101
 30
0.0
 11
3.067913385826771
 21
6.764763779527559
 31
0.0
  0
LINE
  5
3563
330
1E
100
AcDbEntity
  8
7
100
AcDbLine
 10
3.246062992125984
 20
5.824803149606299
 30
0.0
 11
3.24507874015748
 21
5.856299212598425
 31
0.0
  0
LINE
  5
3564
330
1E
100
AcDbEntity
  8
7
100
AcDbLine
 10
3.24507874015748
 20
5.856299212598425
 30
0.0
 11
3.072834645669291
 21
5.856299212598425
 31
0.0
  0
LINE
  5
3565
330
1E
100
AcDbEntity
  8
7
100
AcDbLine
 10
3.072834645669291
 20
5.856299212598425
 30
0.0
 11
3.071850393700787
 21
5.824803149606299
 31
0.0
  0
LINE
  5
3566
330
1E
100
AcDbEntity
  8
7
100
AcDbLine
 10
3.072834645669291
 20
5.863188976377952
 30
0.0
 11
3.246062992125984
 21
5.863188976377952
 31
0.0
  0
LINE
  5
3567
330
1E
100
AcDbEntity
  8
7
100
AcDbLine
 10
3.246062992125984
 20
5.863188976377952
 30
0.0
 11
3.246062992125984
 21
5.889763779527559
 31
0.0
  0
LINE
  5
3568
330
1E
100
AcDbEntity
  8
7
100
AcDbLine
 10
2.303149606299212
 20
5.886811023622047
 30
0.0
 11
2.303149606299212
 21
5.890748031496062
 31
0.0
  0
LINE
  5
3569
330
1E
100
AcDbEntity
  8
7
100
AcDbLine
 10
2.303149606299212
 20
5.890748031496062
 30
0.0
 11
2.303149606299212
 21
5.889763779527559
 31
0.0
  0
LINE
  5
356A
330
1E
100
AcDbEntity
  8
7
100
AcDbLine
 10
2.303149606299212
 20
5.889763779527559
 30
0.0
 11
2.478346456692913
 21
5.889763779527559
 31
0.0
  0
LINE
  5
356B
330
1E
100
AcDbEntity
  8
7
100
AcDbLine
 10
3.247047244094487
 20
5.886811023622047
 30
0.0
 11
3.247047244094487
 21
5.890748031496062
 31
0.0
  0
LINE
  5
356C
330
1E
100
AcDbEntity
  8
7
100
AcDbLine
 10
3.247047244094487
 20
5.890748031496062
 30
0.0
 11
3.246062992125984
 21
5.889763779527559
 31
0.0
  0
LINE
  5
356D
330
1E
100
AcDbEntity
  8
7
100
AcDbLine
 10
2.144685039370078
 20
5.280511811023622
 30
0.0
 11
2.144685039370078
 21
5.259842519685038
 31
0.0
  0
LINE
  5
356E
330
1E
100
AcDbEntity
  8
7
100
AcDbLine
 10
2.144685039370078
 20
5.259842519685038
 30
0.0
 11
2.357283464566929
 21
5.259842519685038
 31
0.0
  0
LINE
  5
356F
330
1E
100
AcDbEntity
  8
7
100
AcDbLine
 10
1.987204724409448
 20
6.947834645669291
 30
0.0
 11
1.987204724409448
 21
6.966535433070865
 31
0.0
  0
LINE
  5
3570
330
1E
100
AcDbEntity
  8
7
100
AcDbLine
 10
1.987204724409448
 20
6.966535433070865
 30
0.0
 11
1.989173228346456
 21
6.968503937007874
 31
0.0
  0
LINE
  5
3571
330
1E
100
AcDbEntity
  8
7
100
AcDbLine
 10
1.989173228346456
 20
6.968503937007874
 30
0.0
 11
1.989173228346456
 21
7.002952755905512
 31
0.0
  0
LINE
  5
3572
330
1E
100
AcDbEntity
  8
7
100
AcDbLine
 10
1.989173228346456
 20
7.002952755905512
 30
0.0
 11
1.99015748031496
 21
7.003937007874015
 31
0.0
  0
LINE
  5
3573
330
1E
100
AcDbEntity
  8
7
100
AcDbLine
 10
3.744094488188976
 20
6.165354330708661
 30
0.0
 11
3.744094488188976
 21
6.371062992125984
 31
0.0
  0
LINE
  5
3574
330
1E
100
AcDbEntity
  8
7
100
AcDbLine
 10
3.744094488188976
 20
6.371062992125984
 30
0.0
 11
3.569881889763779
 21
6.371062992125984
 31
0.0
  0
LINE
  5
3575
330
1E
100
AcDbEntity
  8
7
100
AcDbLine
 10
3.662401574803149
 20
5.996062992125984
 30
0.0
 11
3.670275590551181
 21
5.996062992125984
 31
0.0
  0
LINE
  5
3576
330
1E
100
AcDbEntity
  8
7
100
AcDbLine
 10
3.670275590551181
 20
5.996062992125984
 30
0.0
 11
3.678149606299212
 21
5.996062992125984
 31
0.0
  0
LINE
  5
3577
330
1E
100
AcDbEntity
  8
7
100
AcDbLine
 10
3.678149606299212
 20
5.996062992125984
 30
0.0
 11
3.699803149606299
 21
5.998031496062991
 31
0.0
  0
LINE
  5
3578
330
1E
100
AcDbEntity
  8
7
100
AcDbLine
 10
3.699803149606299
 20
5.998031496062991
 30
0.0
 11
3.719488188976377
 21
6.006889763779527
 31
0.0
  0
LINE
  5
3579
330
1E
100
AcDbEntity
  8
7
100
AcDbLine
 10
3.719488188976377
 20
6.006889763779527
 30
0.0
 11
3.734251968503937
 21
6.02263779527559
 31
0.0
  0
LINE
  5
357A
330
1E
100
AcDbEntity
  8
7
100
AcDbLine
 10
3.734251968503937
 20
6.02263779527559
 30
0.0
 11
3.742125984251968
 21
6.042322834645669
 31
0.0
  0
LINE
  5
357B
330
1E
100
AcDbEntity
  8
7
100
AcDbLine
 10
3.742125984251968
 20
6.042322834645669
 30
0.0
 11
3.742125984251968
 21
6.063976377952755
 31
0.0
  0
LINE
  5
357C
330
1E
100
AcDbEntity
  8
7
100
AcDbLine
 10
3.742125984251968
 20
6.063976377952755
 30
0.0
 11
3.734251968503937
 21
6.083661417322834
 31
0.0
  0
LINE
  5
357D
330
1E
100
AcDbEntity
  8
7
100
AcDbLine
 10
3.734251968503937
 20
6.083661417322834
 30
0.0
 11
3.719488188976377
 21
6.099409448818897
 31
0.0
  0
LINE
  5
357E
330
1E
100
AcDbEntity
  8
7
100
AcDbLine
 10
3.719488188976377
 20
6.099409448818897
 30
0.0
 11
3.699803149606299
 21
6.108267716535433
 31
0.0
  0
LINE
  5
357F
330
1E
100
AcDbEntity
  8
7
100
AcDbLine
 10
3.699803149606299
 20
6.108267716535433
 30
0.0
 11
3.678149606299212
 21
6.11023622047244
 31
0.0
  0
LINE
  5
3580
330
1E
100
AcDbEntity
  8
7
100
AcDbLine
 10
3.678149606299212
 20
6.11023622047244
 30
0.0
 11
3.670275590551181
 21
6.11023622047244
 31
0.0
  0
LINE
  5
3581
330
1E
100
AcDbEntity
  8
7
100
AcDbLine
 10
3.670275590551181
 20
6.11023622047244
 30
0.0
 11
3.662401574803149
 21
6.11023622047244
 31
0.0
  0
LINE
  5
3582
330
1E
100
AcDbEntity
  8
7
100
AcDbLine
 10
3.663385826771653
 20
6.11023622047244
 30
0.0
 11
3.641732283464566
 21
6.108267716535433
 31
0.0
  0
LINE
  5
3583
330
1E
100
AcDbEntity
  8
7
100
AcDbLine
 10
3.641732283464566
 20
6.108267716535433
 30
0.0
 11
3.622047244094487
 21
6.099409448818897
 31
0.0
  0
LINE
  5
3584
330
1E
100
AcDbEntity
  8
7
100
AcDbLine
 10
3.622047244094487
 20
6.099409448818897
 30
0.0
 11
3.607283464566929
 21
6.083661417322834
 31
0.0
  0
LINE
  5
3585
330
1E
100
AcDbEntity
  8
7
100
AcDbLine
 10
3.607283464566929
 20
6.083661417322834
 30
0.0
 11
3.599409448818897
 21
6.063976377952755
 31
0.0
  0
LINE
  5
3586
330
1E
100
AcDbEntity
  8
7
100
AcDbLine
 10
3.599409448818897
 20
6.063976377952755
 30
0.0
 11
3.599409448818897
 21
6.042322834645669
 31
0.0
  0
LINE
  5
3587
330
1E
100
AcDbEntity
  8
7
100
AcDbLine
 10
3.599409448818897
 20
6.042322834645669
 30
0.0
 11
3.607283464566929
 21
6.02263779527559
 31
0.0
  0
LINE
  5
3588
330
1E
100
AcDbEntity
  8
7
100
AcDbLine
 10
3.607283464566929
 20
6.02263779527559
 30
0.0
 11
3.622047244094487
 21
6.006889763779527
 31
0.0
  0
LINE
  5
3589
330
1E
100
AcDbEntity
  8
7
100
AcDbLine
 10
3.622047244094487
 20
6.006889763779527
 30
0.0
 11
3.641732283464566
 21
5.998031496062991
 31
0.0
  0
LINE
  5
358A
330
1E
100
AcDbEntity
  8
7
100
AcDbLine
 10
3.641732283464566
 20
5.998031496062991
 30
0.0
 11
3.663385826771653
 21
5.996062992125984
 31
0.0
  0
LINE
  5
358B
330
1E
100
AcDbEntity
  8
7
100
AcDbLine
 10
1.887795275590551
 20
6.11023622047244
 30
0.0
 11
1.879921259842519
 21
6.11023622047244
 31
0.0
  0
LINE
  5
358C
330
1E
100
AcDbEntity
  8
7
100
AcDbLine
 10
1.879921259842519
 20
6.11023622047244
 30
0.0
 11
1.872047244094488
 21
6.11023622047244
 31
0.0
  0
LINE
  5
358D
330
1E
100
AcDbEntity
  8
7
100
AcDbLine
 10
1.872047244094488
 20
6.11023622047244
 30
0.0
 11
1.850393700787401
 21
6.108267716535433
 31
0.0
  0
LINE
  5
358E
330
1E
100
AcDbEntity
  8
7
100
AcDbLine
 10
1.850393700787401
 20
6.108267716535433
 30
0.0
 11
1.830708661417322
 21
6.099409448818897
 31
0.0
  0
LINE
  5
358F
330
1E
100
AcDbEntity
  8
7
100
AcDbLine
 10
1.830708661417322
 20
6.099409448818897
 30
0.0
 11
1.815944881889763
 21
6.083661417322834
 31
0.0
  0
LINE
  5
3590
330
1E
100
AcDbEntity
  8
7
100
AcDbLine
 10
1.815944881889763
 20
6.083661417322834
 30
0.0
 11
1.808070866141732
 21
6.063976377952755
 31
0.0
  0
LINE
  5
3591
330
1E
100
AcDbEntity
  8
7
100
AcDbLine
 10
1.808070866141732
 20
6.063976377952755
 30
0.0
 11
1.808070866141732
 21
6.042322834645669
 31
0.0
  0
LINE
  5
3592
330
1E
100
AcDbEntity
  8
7
100
AcDbLine
 10
1.808070866141732
 20
6.042322834645669
 30
0.0
 11
1.815944881889763
 21
6.02263779527559
 31
0.0
  0
LINE
  5
3593
330
1E
100
AcDbEntity
  8
7
100
AcDbLine
 10
1.815944881889763
 20
6.02263779527559
 30
0.0
 11
1.830708661417322
 21
6.006889763779527
 31
0.0
  0
LINE
  5
3594
330
1E
100
AcDbEntity
  8
7
100
AcDbLine
 10
1.830708661417322
 20
6.006889763779527
 30
0.0
 11
1.850393700787401
 21
5.998031496062991
 31
0.0
  0
LINE
  5
3595
330
1E
100
AcDbEntity
  8
7
100
AcDbLine
 10
1.850393700787401
 20
5.998031496062991
 30
0.0
 11
1.872047244094488
 21
5.996062992125984
 31
0.0
  0
LINE
  5
3596
330
1E
100
AcDbEntity
  8
7
100
AcDbLine
 10
1.872047244094488
 20
5.996062992125984
 30
0.0
 11
1.879921259842519
 21
5.996062992125984
 31
0.0
  0
LINE
  5
3597
330
1E
100
AcDbEntity
  8
7
100
AcDbLine
 10
1.879921259842519
 20
5.996062992125984
 30
0.0
 11
1.887795275590551
 21
5.996062992125984
 31
0.0
  0
LINE
  5
3598
330
1E
100
AcDbEntity
  8
7
100
AcDbLine
 10
1.886811023622047
 20
5.996062992125984
 30
0.0
 11
1.908464566929133
 21
5.998031496062991
 31
0.0
  0
LINE
  5
3599
330
1E
100
AcDbEntity
  8
7
100
AcDbLine
 10
1.908464566929133
 20
5.998031496062991
 30
0.0
 11
1.928149606299212
 21
6.006889763779527
 31
0.0
  0
LINE
  5
359A
330
1E
100
AcDbEntity
  8
7
100
AcDbLine
 10
1.928149606299212
 20
6.006889763779527
 30
0.0
 11
1.942913385826771
 21
6.02263779527559
 31
0.0
  0
LINE
  5
359B
330
1E
100
AcDbEntity
  8
7
100
AcDbLine
 10
1.942913385826771
 20
6.02263779527559
 30
0.0
 11
1.950787401574803
 21
6.042322834645669
 31
0.0
  0
LINE
  5
359C
330
1E
100
AcDbEntity
  8
7
100
AcDbLine
 10
1.950787401574803
 20
6.042322834645669
 30
0.0
 11
1.950787401574803
 21
6.063976377952755
 31
0.0
  0
LINE
  5
359D
330
1E
100
AcDbEntity
  8
7
100
AcDbLine
 10
1.950787401574803
 20
6.063976377952755
 30
0.0
 11
1.942913385826771
 21
6.083661417322834
 31
0.0
  0
LINE
  5
359E
330
1E
100
AcDbEntity
  8
7
100
AcDbLine
 10
1.942913385826771
 20
6.083661417322834
 30
0.0
 11
1.928149606299212
 21
6.099409448818897
 31
0.0
  0
LINE
  5
359F
330
1E
100
AcDbEntity
  8
7
100
AcDbLine
 10
1.928149606299212
 20
6.099409448818897
 30
0.0
 11
1.908464566929133
 21
6.108267716535433
 31
0.0
  0
LINE
  5
35A0
330
1E
100
AcDbEntity
  8
7
100
AcDbLine
 10
1.908464566929133
 20
6.108267716535433
 30
0.0
 11
1.886811023622047
 21
6.11023622047244
 31
0.0
  0
LINE
  5
35A1
330
1E
100
AcDbEntity
  8
7
100
AcDbLine
 10
1.980314960629921
 20
5.73523622047244
 30
0.0
 11
1.806102362204724
 21
5.73523622047244
 31
0.0
  0
LINE
  5
35A2
330
1E
100
AcDbEntity
  8
7
100
AcDbLine
 10
1.806102362204724
 20
5.73523622047244
 30
0.0
 11
1.803149606299212
 21
5.732283464566928
 31
0.0
  0
LINE
  5
35A3
330
1E
100
AcDbEntity
  8
7
100
AcDbLine
 10
2.040354330708661
 20
5.355314960629921
 30
0.0
 11
2.036417322834645
 21
5.733267716535433
 31
0.0
  0
LINE
  5
35A4
330
1E
100
AcDbEntity
  8
7
100
AcDbLine
 10
2.036417322834645
 20
5.733267716535433
 30
0.0
 11
2.035433070866141
 21
5.732283464566928
 31
0.0
  0
LINE
  5
35A5
330
1E
100
AcDbEntity
  8
7
100
AcDbLine
 10
3.394685039370078
 20
5.795275590551181
 30
0.0
 11
3.396653543307086
 21
5.861220472440944
 31
0.0
  0
LINE
  5
35A6
330
1E
100
AcDbEntity
  8
7
100
AcDbLine
 10
3.396653543307086
 20
5.861220472440944
 30
0.0
 11
3.247047244094487
 21
5.861220472440944
 31
0.0
  0
LINE
  5
35A7
330
1E
100
AcDbEntity
  8
7
100
AcDbLine
 10
2.478346456692913
 20
5.824803149606299
 30
0.0
 11
2.304133858267716
 21
5.824803149606299
 31
0.0
  0
LINE
  5
35A8
330
1E
100
AcDbEntity
  8
7
100
AcDbLine
 10
2.304133858267716
 20
5.824803149606299
 30
0.0
 11
2.303149606299212
 21
5.861220472440944
 31
0.0
  0
LINE
  5
35A9
330
1E
100
AcDbEntity
  8
7
100
AcDbLine
 10
2.626968503937007
 20
5.795275590551181
 30
0.0
 11
2.628937007874015
 21
5.861220472440944
 31
0.0
  0
LINE
  5
35AA
330
1E
100
AcDbEntity
  8
7
100
AcDbLine
 10
2.628937007874015
 20
5.861220472440944
 30
0.0
 11
2.479330708661417
 21
5.861220472440944
 31
0.0
  0
LINE
  5
35AB
330
1E
100
AcDbEntity
  8
7
100
AcDbLine
 10
2.357283464566929
 20
5.296259842519685
 30
0.0
 11
2.357283464566929
 21
5.259842519685038
 31
0.0
  0
LINE
  5
35AC
330
1E
100
AcDbEntity
  8
7
100
AcDbLine
 10
2.357283464566929
 20
5.259842519685038
 30
0.0
 11
2.357283464566929
 21
5.252952755905512
 31
0.0
  0
LINE
  5
35AD
330
1E
100
AcDbEntity
  8
7
100
AcDbLine
 10
2.357283464566929
 20
5.252952755905512
 30
0.0
 11
2.359251968503937
 21
5.254921259842519
 31
0.0
  0
LINE
  5
35AE
330
1E
100
AcDbEntity
  8
7
100
AcDbLine
 10
2.359251968503937
 20
5.254921259842519
 30
0.0
 11
2.359251968503937
 21
5.298228346456692
 31
0.0
  0
LINE
  5
35AF
330
1E
100
AcDbEntity
  8
7
100
AcDbLine
 10
2.698818897637795
 20
5.136811023622047
 30
0.0
 11
2.698818897637795
 21
5.122047244094487
 31
0.0
  0
LINE
  5
35B0
330
1E
100
AcDbEntity
  8
7
100
AcDbLine
 10
2.698818897637795
 20
5.122047244094487
 30
0.0
 11
2.699803149606299
 21
5.111220472440944
 31
0.0
  0
LINE
  5
35B1
330
1E
100
AcDbEntity
  8
7
100
AcDbLine
 10
2.699803149606299
 20
5.111220472440944
 30
0.0
 11
2.699803149606299
 21
5.106299212598425
 31
0.0
  0
LINE
  5
35B2
330
1E
100
AcDbEntity
  8
7
100
AcDbLine
 10
2.804133858267716
 20
5.106299212598425
 30
0.0
 11
2.803149606299212
 21
5.111220472440944
 31
0.0
  0
LINE
  5
35B3
330
1E
100
AcDbEntity
  8
7
100
AcDbLine
 10
2.803149606299212
 20
5.111220472440944
 30
0.0
 11
2.803149606299212
 21
5.122047244094487
 31
0.0
  0
LINE
  5
35B4
330
1E
100
AcDbEntity
  8
7
100
AcDbLine
 10
2.803149606299212
 20
5.122047244094487
 30
0.0
 11
2.803149606299212
 21
5.136811023622047
 31
0.0
  0
LINE
  5
35B5
330
1E
100
AcDbEntity
  8
7
100
AcDbLine
 10
2.803149606299212
 20
5.136811023622047
 30
0.0
 11
2.803149606299212
 21
5.256889763779527
 31
0.0
  0
LINE
  5
35B6
330
1E
100
AcDbEntity
  8
7
100
AcDbLine
 10
2.746062992125984
 20
5.106299212598425
 30
0.0
 11
2.746062992125984
 21
5.111220472440944
 31
0.0
  0
LINE
  5
35B7
330
1E
100
AcDbEntity
  8
7
100
AcDbLine
 10
2.746062992125984
 20
5.111220472440944
 30
0.0
 11
2.747047244094487
 21
5.122047244094487
 31
0.0
  0
LINE
  5
35B8
330
1E
100
AcDbEntity
  8
7
100
AcDbLine
 10
2.747047244094487
 20
5.122047244094487
 30
0.0
 11
2.747047244094487
 21
5.136811023622047
 31
0.0
  0
LINE
  5
35B9
330
1E
100
AcDbEntity
  8
7
100
AcDbLine
 10
2.851377952755905
 20
5.136811023622047
 30
0.0
 11
2.850393700787401
 21
5.122047244094487
 31
0.0
  0
LINE
  5
35BA
330
1E
100
AcDbEntity
  8
7
100
AcDbLine
 10
2.850393700787401
 20
5.122047244094487
 30
0.0
 11
2.850393700787401
 21
5.111220472440944
 31
0.0
  0
LINE
  5
35BB
330
1E
100
AcDbEntity
  8
7
100
AcDbLine
 10
2.850393700787401
 20
5.111220472440944
 30
0.0
 11
2.850393700787401
 21
5.106299212598425
 31
0.0
  0
LINE
  5
35BC
330
1E
100
AcDbEntity
  8
7
100
AcDbLine
 10
1.980314960629921
 20
5.280511811023622
 30
0.0
 11
2.144685039370078
 21
5.280511811023622
 31
0.0
  0
LINE
  5
35BD
330
1E
100
AcDbEntity
  8
7
100
AcDbLine
 10
2.144685039370078
 20
5.280511811023622
 30
0.0
 11
2.145669291338582
 21
5.280511811023622
 31
0.0
  0
LINE
  5
35BE
330
1E
100
AcDbEntity
  8
7
100
AcDbLine
 10
3.569881889763779
 20
5.350393700787401
 30
0.0
 11
3.514763779527558
 21
5.350393700787401
 31
0.0
  0
LINE
  5
35BF
330
1E
100
AcDbEntity
  8
7
100
AcDbLine
 10
3.514763779527558
 20
5.350393700787401
 30
0.0
 11
3.509842519685039
 21
5.355314960629921
 31
0.0
  0
LINE
  5
35C0
330
1E
100
AcDbEntity
  8
7
100
AcDbLine
 10
3.13779527559055
 20
5.348425196850393
 30
0.0
 11
3.129921259842519
 21
5.355314960629921
 31
0.0
  0
LINE
  5
35C1
330
1E
100
AcDbEntity
  8
7
100
AcDbLine
 10
3.129921259842519
 20
5.355314960629921
 30
0.0
 11
3.129921259842519
 21
5.315944881889763
 31
0.0
  0
LINE
  5
35C2
330
1E
100
AcDbEntity
  8
7
100
AcDbLine
 10
2.412401574803149
 20
5.348425196850393
 30
0.0
 11
2.412401574803149
 21
5.308070866141732
 31
0.0
  0
LINE
  5
35C3
330
1E
100
AcDbEntity
  8
7
100
AcDbLine
 10
2.412401574803149
 20
5.308070866141732
 30
0.0
 11
2.420275590551181
 21
5.315944881889763
 31
0.0
  0
LINE
  5
35C4
330
1E
100
AcDbEntity
  8
7
100
AcDbLine
 10
1.977362204724409
 20
5.348425196850393
 30
0.0
 11
2.412401574803149
 21
5.348425196850393
 31
0.0
  0
LINE
  5
35C5
330
1E
100
AcDbEntity
  8
7
100
AcDbLine
 10
2.412401574803149
 20
5.348425196850393
 30
0.0
 11
2.419291338582677
 21
5.355314960629921
 31
0.0
  0
LINE
  5
35C6
330
1E
100
AcDbEntity
  8
7
100
AcDbLine
 10
2.419291338582677
 20
5.355314960629921
 30
0.0
 11
2.040354330708661
 21
5.355314960629921
 31
0.0
  0
LINE
  5
35C7
330
1E
100
AcDbEntity
  8
7
100
AcDbLine
 10
2.835629921259842
 20
6.36515748031496
 30
0.0
 11
2.90255905511811
 21
6.36515748031496
 31
0.0
  0
LINE
  5
35C8
330
1E
100
AcDbEntity
  8
7
100
AcDbLine
 10
2.90255905511811
 20
6.36515748031496
 30
0.0
 11
2.903543307086614
 21
6.422244094488188
 31
0.0
  0
LINE
  5
35C9
330
1E
100
AcDbEntity
  8
7
100
AcDbLine
 10
2.139763779527559
 20
6.36515748031496
 30
0.0
 11
2.139763779527559
 21
6.422244094488188
 31
0.0
  0
LINE
  5
35CA
330
1E
100
AcDbEntity
  8
7
100
AcDbLine
 10
2.139763779527559
 20
6.422244094488188
 30
0.0
 11
2.646653543307086
 21
6.422244094488188
 31
0.0
  0
LINE
  5
35CB
330
1E
100
AcDbEntity
  8
7
100
AcDbLine
 10
3.51279527559055
 20
6.065944881889763
 30
0.0
 11
3.516732283464566
 21
6.469488188976377
 31
0.0
  0
LINE
  5
35CC
330
1E
100
AcDbEntity
  8
7
100
AcDbLine
 10
3.516732283464566
 20
6.469488188976377
 30
0.0
 11
3.516732283464566
 21
6.548228346456692
 31
0.0
  0
LINE
  5
35CD
330
1E
100
AcDbEntity
  8
7
100
AcDbLine
 10
3.516732283464566
 20
6.548228346456692
 30
0.0
 11
3.510826771653543
 21
5.911417322834645
 31
0.0
  0
LINE
  5
35CE
330
1E
100
AcDbEntity
  8
7
100
AcDbLine
 10
2.635826771653543
 20
5.910433070866141
 30
0.0
 11
2.63779527559055
 21
5.86515748031496
 31
0.0
  0
LINE
  5
35CF
330
1E
100
AcDbEntity
  8
7
100
AcDbLine
 10
2.63779527559055
 20
5.86515748031496
 30
0.0
 11
2.911417322834645
 21
5.86515748031496
 31
0.0
  0
LINE
  5
35D0
330
1E
100
AcDbEntity
  8
7
100
AcDbLine
 10
2.63779527559055
 20
5.81496062992126
 30
0.0
 11
2.635826771653543
 21
5.812992125984251
 31
0.0
  0
LINE
  5
35D1
330
1E
100
AcDbEntity
  8
7
100
AcDbLine
 10
2.635826771653543
 20
5.812992125984251
 30
0.0
 11
2.914370078740157
 21
5.812992125984251
 31
0.0
  0
LINE
  5
35D2
330
1E
100
AcDbEntity
  8
7
100
AcDbLine
 10
3.564960629921259
 20
5.81496062992126
 30
0.0
 11
3.406496062992125
 21
5.81496062992126
 31
0.0
  0
LINE
  5
35D3
330
1E
100
AcDbEntity
  8
7
100
AcDbLine
 10
3.406496062992125
 20
5.81496062992126
 30
0.0
 11
3.403543307086614
 21
5.812992125984251
 31
0.0
  0
LINE
  5
35D4
330
1E
100
AcDbEntity
  8
7
100
AcDbLine
 10
1.987204724409448
 20
6.644685039370078
 30
0.0
 11
2.297244094488188
 21
6.644685039370078
 31
0.0
  0
LINE
  5
35D5
330
1E
100
AcDbEntity
  8
7
100
AcDbLine
 10
2.297244094488188
 20
6.644685039370078
 30
0.0
 11
2.297244094488188
 21
6.718503937007874
 31
0.0
  0
LINE
  5
35D6
330
1E
100
AcDbEntity
  8
7
100
AcDbLine
 10
2.297244094488188
 20
6.718503937007874
 30
0.0
 11
2.159448818897637
 21
6.718503937007874
 31
0.0
  0
LINE
  5
35D7
330
1E
100
AcDbEntity
  8
7
100
AcDbLine
 10
2.159448818897637
 20
6.718503937007874
 30
0.0
 11
2.15748031496063
 21
6.8001968503937
 31
0.0
  0
LINE
  5
35D8
330
1E
100
AcDbEntity
  8
7
100
AcDbLine
 10
2.15748031496063
 20
6.8001968503937
 30
0.0
 11
2.15748031496063
 21
6.947834645669291
 31
0.0
  0
LINE
  5
35D9
330
1E
100
AcDbEntity
  8
7
100
AcDbLine
 10
3.567913385826771
 20
6.785433070866141
 30
0.0
 11
3.562992125984251
 21
6.947834645669291
 31
0.0
  0
LINE
  5
35DA
330
1E
100
AcDbEntity
  8
7
100
AcDbLine
 10
3.562992125984251
 20
6.947834645669291
 30
0.0
 11
3.39271653543307
 21
6.947834645669291
 31
0.0
  0
LINE
  5
35DB
330
1E
100
AcDbEntity
  8
7
100
AcDbLine
 10
2.743110236220472
 20
6.984251968503937
 30
0.0
 11
2.743110236220472
 21
6.998031496062991
 31
0.0
  0
LINE
  5
35DC
330
1E
100
AcDbEntity
  8
7
100
AcDbLine
 10
2.743110236220472
 20
6.998031496062991
 30
0.0
 11
2.742125984251968
 21
7.008858267716535
 31
0.0
  0
LINE
  5
35DD
330
1E
100
AcDbEntity
  8
7
100
AcDbLine
 10
2.742125984251968
 20
7.008858267716535
 30
0.0
 11
2.742125984251968
 21
7.013779527559054
 31
0.0
  0
LINE
  5
35DE
330
1E
100
AcDbEntity
  8
7
100
AcDbLine
 10
2.807086614173228
 20
6.984251968503937
 30
0.0
 11
2.807086614173228
 21
6.998031496062991
 31
0.0
  0
LINE
  5
35DF
330
1E
100
AcDbEntity
  8
7
100
AcDbLine
 10
2.807086614173228
 20
6.998031496062991
 30
0.0
 11
2.807086614173228
 21
7.008858267716535
 31
0.0
  0
LINE
  5
35E0
330
1E
100
AcDbEntity
  8
7
100
AcDbLine
 10
2.807086614173228
 20
7.008858267716535
 30
0.0
 11
2.808070866141732
 21
7.013779527559054
 31
0.0
  0
LINE
  5
35E1
330
1E
100
AcDbEntity
  8
7
100
AcDbLine
 10
1.982283464566929
 20
6.785433070866141
 30
0.0
 11
1.982283464566929
 21
6.779527559055117
 31
0.0
  0
LINE
  5
35E2
330
1E
100
AcDbEntity
  8
7
100
AcDbLine
 10
1.982283464566929
 20
6.779527559055117
 30
0.0
 11
1.982283464566929
 21
6.374015748031496
 31
0.0
  0
LINE
  5
35E3
330
1E
100
AcDbEntity
  8
7
100
AcDbLine
 10
1.982283464566929
 20
5.812992125984251
 30
0.0
 11
1.98523622047244
 21
5.81496062992126
 31
0.0
  0
LINE
  5
35E4
330
1E
100
AcDbEntity
  8
7
100
AcDbLine
 10
1.98523622047244
 20
5.81496062992126
 30
0.0
 11
1.98523622047244
 21
6.065944881889763
 31
0.0
  0
LINE
  5
35E5
330
1E
100
AcDbEntity
  8
7
100
AcDbLine
 10
3.568897637795275
 20
5.733267716535433
 30
0.0
 11
3.569881889763779
 21
5.73523622047244
 31
0.0
  0
LINE
  5
35E6
330
1E
100
AcDbEntity
  8
7
100
AcDbLine
 10
3.569881889763779
 20
5.73523622047244
 30
0.0
 11
3.569881889763779
 21
6.371062992125984
 31
0.0
  0
LINE
  5
35E7
330
1E
100
AcDbEntity
  8
7
100
AcDbLine
 10
3.569881889763779
 20
6.371062992125984
 30
0.0
 11
3.567913385826771
 21
6.374015748031496
 31
0.0
  0
LINE
  5
35E8
330
1E
100
AcDbEntity
  8
7
100
AcDbLine
 10
3.567913385826771
 20
6.374015748031496
 30
0.0
 11
3.567913385826771
 21
6.779527559055117
 31
0.0
  0
LINE
  5
35E9
330
1E
100
AcDbEntity
  8
7
100
AcDbLine
 10
3.562007874015748
 20
6.64271653543307
 30
0.0
 11
3.561023622047243
 21
6.469488188976377
 31
0.0
  0
LINE
  5
35EA
330
1E
100
AcDbEntity
  8
7
100
AcDbLine
 10
3.561023622047243
 20
6.469488188976377
 30
0.0
 11
3.564960629921259
 21
6.065944881889763
 31
0.0
  0
LINE
  5
35EB
330
1E
100
AcDbEntity
  8
7
100
AcDbLine
 10
2.835629921259842
 20
6.36515748031496
 30
0.0
 11
2.830708661417322
 21
5.911417322834645
 31
0.0
  0
LINE
  5
35EC
330
1E
100
AcDbEntity
  8
7
100
AcDbLine
 10
2.830708661417322
 20
5.911417322834645
 30
0.0
 11
2.830708661417322
 21
5.910433070866141
 31
0.0
  0
LINE
  5
35ED
330
1E
100
AcDbEntity
  8
7
100
AcDbLine
 10
2.714566929133858
 20
6.36515748031496
 30
0.0
 11
2.719488188976377
 21
5.911417322834645
 31
0.0
  0
LINE
  5
35EE
330
1E
100
AcDbEntity
  8
7
100
AcDbLine
 10
2.719488188976377
 20
5.911417322834645
 30
0.0
 11
2.719488188976377
 21
5.910433070866141
 31
0.0
  0
LINE
  5
35EF
330
1E
100
AcDbEntity
  8
7
100
AcDbLine
 10
1.977362204724409
 20
5.348425196850393
 30
0.0
 11
1.980314960629921
 21
5.350393700787401
 31
0.0
  0
LINE
  5
35F0
330
1E
100
AcDbEntity
  8
7
100
AcDbLine
 10
1.980314960629921
 20
5.350393700787401
 30
0.0
 11
1.980314960629921
 21
5.355314960629921
 31
0.0
  0
LINE
  5
35F1
330
1E
100
AcDbEntity
  8
7
100
AcDbLine
 10
3.571850393700787
 20
5.348425196850393
 30
0.0
 11
3.571850393700787
 21
5.282480314960629
 31
0.0
  0
LINE
  5
35F2
330
1E
100
AcDbEntity
  8
7
100
AcDbLine
 10
3.571850393700787
 20
5.282480314960629
 30
0.0
 11
3.569881889763779
 21
5.280511811023622
 31
0.0
  0
LINE
  5
35F3
330
1E
100
AcDbEntity
  8
7
100
AcDbLine
 10
2.698818897637795
 20
7.013779527559054
 30
0.0
 11
2.697834645669291
 21
7.008858267716535
 31
0.0
  0
LINE
  5
35F4
330
1E
100
AcDbEntity
  8
7
100
AcDbLine
 10
2.697834645669291
 20
7.008858267716535
 30
0.0
 11
2.697834645669291
 21
6.998031496062991
 31
0.0
  0
LINE
  5
35F5
330
1E
100
AcDbEntity
  8
7
100
AcDbLine
 10
2.697834645669291
 20
6.998031496062991
 30
0.0
 11
2.697834645669291
 21
6.984251968503937
 31
0.0
  0
LINE
  5
35F6
330
1E
100
AcDbEntity
  8
7
100
AcDbLine
 10
2.848425196850393
 20
7.028543307086613
 30
0.0
 11
2.851377952755905
 21
7.013779527559054
 31
0.0
  0
LINE
  5
35F7
330
1E
100
AcDbEntity
  8
7
100
AcDbLine
 10
2.851377952755905
 20
7.013779527559054
 30
0.0
 11
2.851377952755905
 21
7.008858267716535
 31
0.0
  0
LINE
  5
35F8
330
1E
100
AcDbEntity
  8
7
100
AcDbLine
 10
2.851377952755905
 20
7.008858267716535
 30
0.0
 11
2.852362204724409
 21
6.998031496062991
 31
0.0
  0
LINE
  5
35F9
330
1E
100
AcDbEntity
  8
7
100
AcDbLine
 10
2.852362204724409
 20
6.998031496062991
 30
0.0
 11
2.852362204724409
 21
6.984251968503937
 31
0.0
  0
LINE
  5
35FA
330
1E
100
AcDbEntity
  8
7
100
AcDbLine
 10
2.852362204724409
 20
6.984251968503937
 30
0.0
 11
2.852362204724409
 21
6.833661417322834
 31
0.0
  0
LINE
  5
35FB
330
1E
100
AcDbEntity
  8
7
100
AcDbLine
 10
4.014763779527558
 20
6.227362204724409
 30
0.0
 11
4.00787401574803
 21
6.250984251968503
 31
0.0
  0
LINE
  5
35FC
330
1E
100
AcDbEntity
  8
7
100
AcDbLine
 10
4.00787401574803
 20
6.250984251968503
 30
0.0
 11
3.992125984251968
 21
6.270669291338582
 31
0.0
  0
LINE
  5
35FD
330
1E
100
AcDbEntity
  8
7
100
AcDbLine
 10
3.992125984251968
 20
6.270669291338582
 30
0.0
 11
3.971456692913385
 21
6.283464566929133
 31
0.0
  0
LINE
  5
35FE
330
1E
100
AcDbEntity
  8
7
100
AcDbLine
 10
3.971456692913385
 20
6.283464566929133
 30
0.0
 11
3.947834645669291
 21
6.288385826771653
 31
0.0
  0
LINE
  5
35FF
330
1E
100
AcDbEntity
  8
7
100
AcDbLine
 10
3.947834645669291
 20
6.288385826771653
 30
0.0
 11
3.923228346456692
 21
6.284448818897637
 31
0.0
  0
LINE
  5
3600
330
1E
100
AcDbEntity
  8
7
100
AcDbLine
 10
3.923228346456692
 20
6.284448818897637
 30
0.0
 11
3.901574803149606
 21
6.273622047244094
 31
0.0
  0
LINE
  5
3601
330
1E
100
AcDbEntity
  8
7
100
AcDbLine
 10
3.901574803149606
 20
6.273622047244094
 30
0.0
 11
3.884842519685039
 21
6.254921259842519
 31
0.0
  0
LINE
  5
3602
330
1E
100
AcDbEntity
  8
7
100
AcDbLine
 10
3.884842519685039
 20
6.254921259842519
 30
0.0
 11
3.875984251968503
 21
6.232283464566928
 31
0.0
  0
LINE
  5
3603
330
1E
100
AcDbEntity
  8
7
100
AcDbLine
 10
3.875984251968503
 20
6.232283464566928
 30
0.0
 11
3.875
 21
6.20767716535433
 31
0.0
  0
LINE
  5
3604
330
1E
100
AcDbEntity
  8
7
100
AcDbLine
 10
3.871062992125984
 20
5.884842519685038
 30
0.0
 11
3.881889763779527
 21
5.992125984251968
 31
0.0
  0
LINE
  5
3605
330
1E
100
AcDbEntity
  8
7
100
AcDbLine
 10
3.881889763779527
 20
5.992125984251968
 30
0.0
 11
3.882874015748031
 21
6.100393700787401
 31
0.0
  0
LINE
  5
3606
330
1E
100
AcDbEntity
  8
7
100
AcDbLine
 10
3.882874015748031
 20
6.100393700787401
 30
0.0
 11
3.873031496062992
 21
6.20767716535433
 31
0.0
  0
LINE
  5
3607
330
1E
100
AcDbEntity
  8
7
100
AcDbLine
 10
3.858267716535432
 20
5.862204724409449
 30
0.0
 11
3.867125984251968
 21
5.872047244094487
 31
0.0
  0
LINE
  5
3608
330
1E
100
AcDbEntity
  8
7
100
AcDbLine
 10
3.867125984251968
 20
5.872047244094487
 30
0.0
 11
3.872047244094487
 21
5.883858267716535
 31
0.0
  0
LINE
  5
3609
330
1E
100
AcDbEntity
  8
7
100
AcDbLine
 10
3.809055118110236
 20
5.753937007874015
 30
0.0
 11
3.816929133858267
 21
5.723425196850393
 31
0.0
  0
LINE
  5
360A
330
1E
100
AcDbEntity
  8
7
100
AcDbLine
 10
3.816929133858267
 20
5.723425196850393
 30
0.0
 11
3.83267716535433
 21
5.696850393700787
 31
0.0
  0
LINE
  5
360B
330
1E
100
AcDbEntity
  8
7
100
AcDbLine
 10
3.83267716535433
 20
5.696850393700787
 30
0.0
 11
3.856299212598425
 21
5.6751968503937
 31
0.0
  0
LINE
  5
360C
330
1E
100
AcDbEntity
  8
7
100
AcDbLine
 10
3.856299212598425
 20
5.6751968503937
 30
0.0
 11
3.883858267716535
 21
5.661417322834645
 31
0.0
  0
LINE
  5
360D
330
1E
100
AcDbEntity
  8
7
100
AcDbLine
 10
3.883858267716535
 20
5.661417322834645
 30
0.0
 11
3.914370078740157
 21
5.654527559055117
 31
0.0
  0
LINE
  5
360E
330
1E
100
AcDbEntity
  8
7
100
AcDbLine
 10
3.914370078740157
 20
5.654527559055117
 30
0.0
 11
3.945866141732283
 21
5.657480314960629
 31
0.0
  0
LINE
  5
360F
330
1E
100
AcDbEntity
  8
7
100
AcDbLine
 10
3.945866141732283
 20
5.657480314960629
 30
0.0
 11
3.974409448818897
 21
5.668307086614173
 31
0.0
  0
LINE
  5
3610
330
1E
100
AcDbEntity
  8
7
100
AcDbLine
 10
3.974409448818897
 20
5.668307086614173
 30
0.0
 11
3.999999999999999
 21
5.686023622047244
 31
0.0
  0
LINE
  5
3611
330
1E
100
AcDbEntity
  8
7
100
AcDbLine
 10
3.999999999999999
 20
5.686023622047244
 30
0.0
 11
4.019685039370077
 21
5.711614173228346
 31
0.0
  0
LINE
  5
3612
330
1E
100
AcDbEntity
  8
7
100
AcDbLine
 10
4.019685039370077
 20
5.711614173228346
 30
0.0
 11
4.031496062992125
 21
5.74015748031496
 31
0.0
  0
LINE
  5
3613
330
1E
100
AcDbEntity
  8
7
100
AcDbLine
 10
4.031496062992125
 20
5.74015748031496
 30
0.0
 11
4.034448818897637
 21
5.771653543307086
 31
0.0
  0
LINE
  5
3614
330
1E
100
AcDbEntity
  8
7
100
AcDbLine
 10
4.034448818897637
 20
5.771653543307086
 30
0.0
 11
4.029527559055117
 21
5.802165354330708
 31
0.0
  0
LINE
  5
3615
330
1E
100
AcDbEntity
  8
7
100
AcDbLine
 10
4.029527559055117
 20
5.802165354330708
 30
0.0
 11
4.015748031496062
 21
5.830708661417323
 31
0.0
  0
LINE
  5
3616
330
1E
100
AcDbEntity
  8
7
100
AcDbLine
 10
3.859251968503937
 20
5.862204724409449
 30
0.0
 11
3.835629921259842
 21
5.841535433070865
 31
0.0
  0
LINE
  5
3617
330
1E
100
AcDbEntity
  8
7
100
AcDbLine
 10
3.835629921259842
 20
5.841535433070865
 30
0.0
 11
3.818897637795275
 21
5.81496062992126
 31
0.0
  0
LINE
  5
3618
330
1E
100
AcDbEntity
  8
7
100
AcDbLine
 10
3.818897637795275
 20
5.81496062992126
 30
0.0
 11
3.809055118110236
 21
5.785433070866141
 31
0.0
  0
LINE
  5
3619
330
1E
100
AcDbEntity
  8
7
100
AcDbLine
 10
3.809055118110236
 20
5.785433070866141
 30
0.0
 11
3.809055118110236
 21
5.753937007874015
 31
0.0
  0
LINE
  5
361A
330
1E
100
AcDbEntity
  8
7
100
AcDbLine
 10
4.010826771653542
 20
5.853346456692912
 30
0.0
 11
4.011811023622046
 21
5.841535433070865
 31
0.0
  0
LINE
  5
361B
330
1E
100
AcDbEntity
  8
7
100
AcDbLine
 10
4.011811023622046
 20
5.841535433070865
 30
0.0
 11
4.015748031496062
 21
5.830708661417323
 31
0.0
  0
LINE
  5
361C
330
1E
100
AcDbEntity
  8
7
100
AcDbLine
 10
4.010826771653542
 20
5.853346456692912
 30
0.0
 11
4.024606299212598
 21
5.977362204724409
 31
0.0
  0
LINE
  5
361D
330
1E
100
AcDbEntity
  8
7
100
AcDbLine
 10
4.024606299212598
 20
5.977362204724409
 30
0.0
 11
4.025590551181101
 21
6.102362204724409
 31
0.0
  0
LINE
  5
361E
330
1E
100
AcDbEntity
  8
7
100
AcDbLine
 10
4.025590551181101
 20
6.102362204724409
 30
0.0
 11
4.014763779527558
 21
6.227362204724409
 31
0.0
  0
LINE
  5
361F
330
1E
100
AcDbEntity
  8
7
100
AcDbLine
 10
3.009842519685039
 20
4.880905511811023
 30
0.0
 11
3.005905511811023
 21
4.905511811023622
 31
0.0
  0
LINE
  5
3620
330
1E
100
AcDbEntity
  8
7
100
AcDbLine
 10
3.005905511811023
 20
4.905511811023622
 30
0.0
 11
2.99507874015748
 21
4.927165354330708
 31
0.0
  0
LINE
  5
3621
330
1E
100
AcDbEntity
  8
7
100
AcDbLine
 10
2.99507874015748
 20
4.927165354330708
 30
0.0
 11
2.976377952755905
 21
4.943897637795275
 31
0.0
  0
LINE
  5
3622
330
1E
100
AcDbEntity
  8
7
100
AcDbLine
 10
2.976377952755905
 20
4.943897637795275
 30
0.0
 11
2.953740157480314
 21
4.952755905511811
 31
0.0
  0
LINE
  5
3623
330
1E
100
AcDbEntity
  8
7
100
AcDbLine
 10
2.953740157480314
 20
4.952755905511811
 30
0.0
 11
2.929133858267716
 21
4.953740157480314
 31
0.0
  0
LINE
  5
3624
330
1E
100
AcDbEntity
  8
7
100
AcDbLine
 10
2.948818897637795
 20
4.813976377952755
 30
0.0
 11
2.972440944881889
 21
4.820866141732283
 31
0.0
  0
LINE
  5
3625
330
1E
100
AcDbEntity
  8
7
100
AcDbLine
 10
2.972440944881889
 20
4.820866141732283
 30
0.0
 11
2.992125984251968
 21
4.836614173228346
 31
0.0
  0
LINE
  5
3626
330
1E
100
AcDbEntity
  8
7
100
AcDbLine
 10
2.992125984251968
 20
4.836614173228346
 30
0.0
 11
3.004921259842519
 21
4.857283464566928
 31
0.0
  0
LINE
  5
3627
330
1E
100
AcDbEntity
  8
7
100
AcDbLine
 10
3.004921259842519
 20
4.857283464566928
 30
0.0
 11
3.009842519685039
 21
4.880905511811023
 31
0.0
  0
LINE
  5
3628
330
1E
100
AcDbEntity
  8
7
100
AcDbLine
 10
2.606299212598425
 20
4.956692913385826
 30
0.0
 11
2.713582677165354
 21
4.945866141732283
 31
0.0
  0
LINE
  5
3629
330
1E
100
AcDbEntity
  8
7
100
AcDbLine
 10
2.713582677165354
 20
4.945866141732283
 30
0.0
 11
2.821850393700787
 21
4.944881889763779
 31
0.0
  0
LINE
  5
362A
330
1E
100
AcDbEntity
  8
7
100
AcDbLine
 10
2.821850393700787
 20
4.944881889763779
 30
0.0
 11
2.929133858267716
 21
4.954724409448818
 31
0.0
  0
LINE
  5
362B
330
1E
100
AcDbEntity
  8
7
100
AcDbLine
 10
2.584645669291338
 20
4.969488188976377
 30
0.0
 11
2.594488188976377
 21
4.960629921259842
 31
0.0
  0
LINE
  5
362C
330
1E
100
AcDbEntity
  8
7
100
AcDbLine
 10
2.594488188976377
 20
4.960629921259842
 30
0.0
 11
2.606299212598425
 21
4.955708661417323
 31
0.0
  0
LINE
  5
362D
330
1E
100
AcDbEntity
  8
7
100
AcDbLine
 10
2.378937007874015
 20
4.882874015748031
 30
0.0
 11
2.389763779527559
 21
4.854330708661417
 31
0.0
  0
LINE
  5
362E
330
1E
100
AcDbEntity
  8
7
100
AcDbLine
 10
2.389763779527559
 20
4.854330708661417
 30
0.0
 11
2.40748031496063
 21
4.828740157480314
 31
0.0
  0
LINE
  5
362F
330
1E
100
AcDbEntity
  8
7
100
AcDbLine
 10
2.40748031496063
 20
4.828740157480314
 30
0.0
 11
2.433070866141732
 21
4.809055118110236
 31
0.0
  0
LINE
  5
3630
330
1E
100
AcDbEntity
  8
7
100
AcDbLine
 10
2.433070866141732
 20
4.809055118110236
 30
0.0
 11
2.461614173228346
 21
4.797244094488188
 31
0.0
  0
LINE
  5
3631
330
1E
100
AcDbEntity
  8
7
100
AcDbLine
 10
2.461614173228346
 20
4.797244094488188
 30
0.0
 11
2.493110236220472
 21
4.794291338582676
 31
0.0
  0
LINE
  5
3632
330
1E
100
AcDbEntity
  8
7
100
AcDbLine
 10
2.493110236220472
 20
4.794291338582676
 30
0.0
 11
2.523622047244094
 21
4.799212598425197
 31
0.0
  0
LINE
  5
3633
330
1E
100
AcDbEntity
  8
7
100
AcDbLine
 10
2.523622047244094
 20
4.799212598425197
 30
0.0
 11
2.552165354330708
 21
4.812992125984251
 31
0.0
  0
LINE
  5
3634
330
1E
100
AcDbEntity
  8
7
100
AcDbLine
 10
2.583661417322834
 20
4.969488188976377
 30
0.0
 11
2.562992125984251
 21
4.993110236220472
 31
0.0
  0
LINE
  5
3635
330
1E
100
AcDbEntity
  8
7
100
AcDbLine
 10
2.562992125984251
 20
4.993110236220472
 30
0.0
 11
2.536417322834645
 21
5.009842519685038
 31
0.0
  0
LINE
  5
3636
330
1E
100
AcDbEntity
  8
7
100
AcDbLine
 10
2.536417322834645
 20
5.009842519685038
 30
0.0
 11
2.506889763779527
 21
5.019685039370078
 31
0.0
  0
LINE
  5
3637
330
1E
100
AcDbEntity
  8
7
100
AcDbLine
 10
2.506889763779527
 20
5.019685039370078
 30
0.0
 11
2.475393700787401
 21
5.019685039370078
 31
0.0
  0
LINE
  5
3638
330
1E
100
AcDbEntity
  8
7
100
AcDbLine
 10
2.475393700787401
 20
5.019685039370078
 30
0.0
 11
2.444881889763779
 21
5.011811023622047
 31
0.0
  0
LINE
  5
3639
330
1E
100
AcDbEntity
  8
7
100
AcDbLine
 10
2.444881889763779
 20
5.011811023622047
 30
0.0
 11
2.418307086614173
 21
4.996062992125984
 31
0.0
  0
LINE
  5
363A
330
1E
100
AcDbEntity
  8
7
100
AcDbLine
 10
2.418307086614173
 20
4.996062992125984
 30
0.0
 11
2.396653543307086
 21
4.972440944881889
 31
0.0
  0
LINE
  5
363B
330
1E
100
AcDbEntity
  8
7
100
AcDbLine
 10
2.396653543307086
 20
4.972440944881889
 30
0.0
 11
2.382874015748031
 21
4.944881889763779
 31
0.0
  0
LINE
  5
363C
330
1E
100
AcDbEntity
  8
7
100
AcDbLine
 10
2.382874015748031
 20
4.944881889763779
 30
0.0
 11
2.375984251968503
 21
4.914370078740157
 31
0.0
  0
LINE
  5
363D
330
1E
100
AcDbEntity
  8
7
100
AcDbLine
 10
2.375984251968503
 20
4.914370078740157
 30
0.0
 11
2.378937007874015
 21
4.882874015748031
 31
0.0
  0
LINE
  5
363E
330
1E
100
AcDbEntity
  8
7
100
AcDbLine
 10
2.574803149606299
 20
4.816929133858267
 30
0.0
 11
2.562992125984251
 21
4.815944881889763
 31
0.0
  0
LINE
  5
363F
330
1E
100
AcDbEntity
  8
7
100
AcDbLine
 10
2.562992125984251
 20
4.815944881889763
 30
0.0
 11
2.552165354330708
 21
4.812007874015748
 31
0.0
  0
LINE
  5
3640
330
1E
100
AcDbEntity
  8
7
100
AcDbLine
 10
2.574803149606299
 20
4.816929133858267
 30
0.0
 11
2.698818897637795
 21
4.803149606299212
 31
0.0
  0
LINE
  5
3641
330
1E
100
AcDbEntity
  8
7
100
AcDbLine
 10
2.698818897637795
 20
4.803149606299212
 30
0.0
 11
2.823818897637795
 21
4.802165354330708
 31
0.0
  0
LINE
  5
3642
330
1E
100
AcDbEntity
  8
7
100
AcDbLine
 10
2.823818897637795
 20
4.802165354330708
 30
0.0
 11
2.948818897637795
 21
4.812992125984251
 31
0.0
  0
LINE
  5
3643
330
1E
100
AcDbEntity
  8
7
100
AcDbLine
 10
1.584645669291338
 20
7.43011811023622
 30
0.0
 11
1.543307086614173
 21
7.4251968503937
 31
0.0
  0
LINE
  5
3644
330
1E
100
AcDbEntity
  8
7
100
AcDbLine
 10
1.543307086614173
 20
7.4251968503937
 30
0.0
 11
1.503937007874015
 21
7.411417322834645
 31
0.0
  0
LINE
  5
3645
330
1E
100
AcDbEntity
  8
7
100
AcDbLine
 10
1.503937007874015
 20
7.411417322834645
 30
0.0
 11
1.468503937007874
 21
7.389763779527559
 31
0.0
  0
LINE
  5
3646
330
1E
100
AcDbEntity
  8
7
100
AcDbLine
 10
1.468503937007874
 20
7.389763779527559
 30
0.0
 11
1.437992125984251
 21
7.359251968503937
 31
0.0
  0
LINE
  5
3647
330
1E
100
AcDbEntity
  8
7
100
AcDbLine
 10
1.437992125984251
 20
7.359251968503937
 30
0.0
 11
1.416338582677165
 21
7.323818897637795
 31
0.0
  0
LINE
  5
3648
330
1E
100
AcDbEntity
  8
7
100
AcDbLine
 10
1.416338582677165
 20
7.323818897637795
 30
0.0
 11
1.40255905511811
 21
7.284448818897637
 31
0.0
  0
LINE
  5
3649
330
1E
100
AcDbEntity
  8
7
100
AcDbLine
 10
1.40255905511811
 20
7.284448818897637
 30
0.0
 11
1.39763779527559
 21
7.243110236220472
 31
0.0
  0
LINE
  5
364A
330
1E
100
AcDbEntity
  8
7
100
AcDbLine
 10
4.15255905511811
 20
7.243110236220472
 30
0.0
 11
4.147637795275589
 21
7.284448818897637
 31
0.0
  0
LINE
  5
364B
330
1E
100
AcDbEntity
  8
7
100
AcDbLine
 10
4.147637795275589
 20
7.284448818897637
 30
0.0
 11
4.133858267716535
 21
7.323818897637795
 31
0.0
  0
LINE
  5
364C
330
1E
100
AcDbEntity
  8
7
100
AcDbLine
 10
4.133858267716535
 20
7.323818897637795
 30
0.0
 11
4.112204724409448
 21
7.359251968503937
 31
0.0
  0
LINE
  5
364D
330
1E
100
AcDbEntity
  8
7
100
AcDbLine
 10
4.112204724409448
 20
7.359251968503937
 30
0.0
 11
4.081692913385825
 21
7.389763779527559
 31
0.0
  0
LINE
  5
364E
330
1E
100
AcDbEntity
  8
7
100
AcDbLine
 10
4.081692913385825
 20
7.389763779527559
 30
0.0
 11
4.046259842519684
 21
7.411417322834645
 31
0.0
  0
LINE
  5
364F
330
1E
100
AcDbEntity
  8
7
100
AcDbLine
 10
4.046259842519684
 20
7.411417322834645
 30
0.0
 11
4.006889763779526
 21
7.4251968503937
 31
0.0
  0
LINE
  5
3650
330
1E
100
AcDbEntity
  8
7
100
AcDbLine
 10
4.006889763779526
 20
7.4251968503937
 30
0.0
 11
3.965551181102362
 21
7.43011811023622
 31
0.0
  0
LINE
  5
3651
330
1E
100
AcDbEntity
  8
7
100
AcDbLine
 10
3.965551181102362
 20
4.6751968503937
 30
0.0
 11
4.006889763779526
 21
4.68011811023622
 31
0.0
  0
LINE
  5
3652
330
1E
100
AcDbEntity
  8
7
100
AcDbLine
 10
4.006889763779526
 20
4.68011811023622
 30
0.0
 11
4.046259842519684
 21
4.693897637795275
 31
0.0
  0
LINE
  5
3653
330
1E
100
AcDbEntity
  8
7
100
AcDbLine
 10
4.046259842519684
 20
4.693897637795275
 30
0.0
 11
4.081692913385825
 21
4.715551181102362
 31
0.0
  0
LINE
  5
3654
330
1E
100
AcDbEntity
  8
7
100
AcDbLine
 10
4.081692913385825
 20
4.715551181102362
 30
0.0
 11
4.112204724409448
 21
4.746062992125984
 31
0.0
  0
LINE
  5
3655
330
1E
100
AcDbEntity
  8
7
100
AcDbLine
 10
4.112204724409448
 20
4.746062992125984
 30
0.0
 11
4.133858267716535
 21
4.781496062992125
 31
0.0
  0
LINE
  5
3656
330
1E
100
AcDbEntity
  8
7
100
AcDbLine
 10
4.133858267716535
 20
4.781496062992125
 30
0.0
 11
4.147637795275589
 21
4.820866141732283
 31
0.0
  0
LINE
  5
3657
330
1E
100
AcDbEntity
  8
7
100
AcDbLine
 10
4.147637795275589
 20
4.820866141732283
 30
0.0
 11
4.15255905511811
 21
4.862204724409449
 31
0.0
  0
LINE
  5
3658
330
1E
100
AcDbEntity
  8
7
100
AcDbLine
 10
1.39763779527559
 20
4.862204724409449
 30
0.0
 11
1.40255905511811
 21
4.820866141732283
 31
0.0
  0
LINE
  5
3659
330
1E
100
AcDbEntity
  8
7
100
AcDbLine
 10
1.40255905511811
 20
4.820866141732283
 30
0.0
 11
1.416338582677165
 21
4.781496062992125
 31
0.0
  0
LINE
  5
365A
330
1E
100
AcDbEntity
  8
7
100
AcDbLine
 10
1.416338582677165
 20
4.781496062992125
 30
0.0
 11
1.437992125984251
 21
4.746062992125984
 31
0.0
  0
LINE
  5
365B
330
1E
100
AcDbEntity
  8
7
100
AcDbLine
 10
1.437992125984251
 20
4.746062992125984
 30
0.0
 11
1.468503937007874
 21
4.715551181102362
 31
0.0
  0
LINE
  5
365C
330
1E
100
AcDbEntity
  8
7
100
AcDbLine
 10
1.468503937007874
 20
4.715551181102362
 30
0.0
 11
1.503937007874015
 21
4.693897637795275
 31
0.0
  0
LINE
  5
365D
330
1E
100
AcDbEntity
  8
7
100
AcDbLine
 10
1.503937007874015
 20
4.693897637795275
 30
0.0
 11
1.543307086614173
 21
4.68011811023622
 31
0.0
  0
LINE
  5
365E
330
1E
100
AcDbEntity
  8
7
100
AcDbLine
 10
1.543307086614173
 20
4.68011811023622
 30
0.0
 11
1.584645669291338
 21
4.6751968503937
 31
0.0
  0
LINE
  5
365F
330
1E
100
AcDbEntity
  8
7
100
AcDbLine
 10
1.535433070866141
 20
5.878937007874015
 30
0.0
 11
1.542322834645669
 21
5.855314960629921
 31
0.0
  0
LINE
  5
3660
330
1E
100
AcDbEntity
  8
7
100
AcDbLine
 10
1.542322834645669
 20
5.855314960629921
 30
0.0
 11
1.558070866141732
 21
5.835629921259842
 31
0.0
  0
LINE
  5
3661
330
1E
100
AcDbEntity
  8
7
100
AcDbLine
 10
1.558070866141732
 20
5.835629921259842
 30
0.0
 11
1.578740157480314
 21
5.822834645669291
 31
0.0
  0
LINE
  5
3662
330
1E
100
AcDbEntity
  8
7
100
AcDbLine
 10
1.578740157480314
 20
5.822834645669291
 30
0.0
 11
1.602362204724409
 21
5.817913385826771
 31
0.0
  0
LINE
  5
3663
330
1E
100
AcDbEntity
  8
7
100
AcDbLine
 10
1.602362204724409
 20
5.817913385826771
 30
0.0
 11
1.626968503937007
 21
5.821850393700787
 31
0.0
  0
LINE
  5
3664
330
1E
100
AcDbEntity
  8
7
100
AcDbLine
 10
1.626968503937007
 20
5.821850393700787
 30
0.0
 11
1.648622047244094
 21
5.83267716535433
 31
0.0
  0
LINE
  5
3665
330
1E
100
AcDbEntity
  8
7
100
AcDbLine
 10
1.648622047244094
 20
5.83267716535433
 30
0.0
 11
1.665354330708661
 21
5.851377952755905
 31
0.0
  0
LINE
  5
3666
330
1E
100
AcDbEntity
  8
7
100
AcDbLine
 10
1.665354330708661
 20
5.851377952755905
 30
0.0
 11
1.674212598425196
 21
5.874015748031496
 31
0.0
  0
LINE
  5
3667
330
1E
100
AcDbEntity
  8
7
100
AcDbLine
 10
1.674212598425196
 20
5.874015748031496
 30
0.0
 11
1.6751968503937
 21
5.898622047244094
 31
0.0
  0
LINE
  5
3668
330
1E
100
AcDbEntity
  8
7
100
AcDbLine
 10
1.678149606299212
 20
6.221456692913386
 30
0.0
 11
1.667322834645669
 21
6.114173228346456
 31
0.0
  0
LINE
  5
3669
330
1E
100
AcDbEntity
  8
7
100
AcDbLine
 10
1.667322834645669
 20
6.114173228346456
 30
0.0
 11
1.666338582677165
 21
6.005905511811023
 31
0.0
  0
LINE
  5
366A
330
1E
100
AcDbEntity
  8
7
100
AcDbLine
 10
1.691929133858267
 20
6.243110236220472
 30
0.0
 11
1.683070866141732
 21
6.233267716535433
 31
0.0
  0
LINE
  5
366B
330
1E
100
AcDbEntity
  8
7
100
AcDbLine
 10
1.683070866141732
 20
6.233267716535433
 30
0.0
 11
1.678149606299212
 21
6.221456692913386
 31
0.0
  0
LINE
  5
366C
330
1E
100
AcDbEntity
  8
7
100
AcDbLine
 10
1.741141732283464
 20
6.320866141732283
 30
0.0
 11
1.741141732283464
 21
6.352362204724409
 31
0.0
  0
LINE
  5
366D
330
1E
100
AcDbEntity
  8
7
100
AcDbLine
 10
1.741141732283464
 20
6.352362204724409
 30
0.0
 11
1.733267716535433
 21
6.382874015748031
 31
0.0
  0
LINE
  5
366E
330
1E
100
AcDbEntity
  8
7
100
AcDbLine
 10
1.733267716535433
 20
6.382874015748031
 30
0.0
 11
1.71751968503937
 21
6.409448818897637
 31
0.0
  0
LINE
  5
366F
330
1E
100
AcDbEntity
  8
7
100
AcDbLine
 10
1.71751968503937
 20
6.409448818897637
 30
0.0
 11
1.693897637795275
 21
6.431102362204724
 31
0.0
  0
LINE
  5
3670
330
1E
100
AcDbEntity
  8
7
100
AcDbLine
 10
1.693897637795275
 20
6.431102362204724
 30
0.0
 11
1.666338582677165
 21
6.444881889763779
 31
0.0
  0
LINE
  5
3671
330
1E
100
AcDbEntity
  8
7
100
AcDbLine
 10
1.666338582677165
 20
6.444881889763779
 30
0.0
 11
1.635826771653543
 21
6.451771653543307
 31
0.0
  0
LINE
  5
3672
330
1E
100
AcDbEntity
  8
7
100
AcDbLine
 10
1.635826771653543
 20
6.451771653543307
 30
0.0
 11
1.604330708661417
 21
6.448818897637795
 31
0.0
  0
LINE
  5
3673
330
1E
100
AcDbEntity
  8
7
100
AcDbLine
 10
1.604330708661417
 20
6.448818897637795
 30
0.0
 11
1.575787401574803
 21
6.437992125984251
 31
0.0
  0
LINE
  5
3674
330
1E
100
AcDbEntity
  8
7
100
AcDbLine
 10
1.575787401574803
 20
6.437992125984251
 30
0.0
 11
1.5501968503937
 21
6.42027559055118
 31
0.0
  0
LINE
  5
3675
330
1E
100
AcDbEntity
  8
7
100
AcDbLine
 10
1.5501968503937
 20
6.42027559055118
 30
0.0
 11
1.530511811023622
 21
6.394685039370078
 31
0.0
  0
LINE
  5
3676
330
1E
100
AcDbEntity
  8
7
100
AcDbLine
 10
1.530511811023622
 20
6.394685039370078
 30
0.0
 11
1.518700787401574
 21
6.366141732283464
 31
0.0
  0
LINE
  5
3677
330
1E
100
AcDbEntity
  8
7
100
AcDbLine
 10
1.518700787401574
 20
6.366141732283464
 30
0.0
 11
1.515748031496062
 21
6.334645669291338
 31
0.0
  0
LINE
  5
3678
330
1E
100
AcDbEntity
  8
7
100
AcDbLine
 10
1.515748031496062
 20
6.334645669291338
 30
0.0
 11
1.520669291338582
 21
6.304133858267716
 31
0.0
  0
LINE
  5
3679
330
1E
100
AcDbEntity
  8
7
100
AcDbLine
 10
1.690944881889763
 20
6.244094488188975
 30
0.0
 11
1.714566929133858
 21
6.264763779527559
 31
0.0
  0
LINE
  5
367A
330
1E
100
AcDbEntity
  8
7
100
AcDbLine
 10
1.714566929133858
 20
6.264763779527559
 30
0.0
 11
1.731299212598425
 21
6.291338582677164
 31
0.0
  0
LINE
  5
367B
330
1E
100
AcDbEntity
  8
7
100
AcDbLine
 10
1.731299212598425
 20
6.291338582677164
 30
0.0
 11
1.741141732283464
 21
6.320866141732283
 31
0.0
  0
LINE
  5
367C
330
1E
100
AcDbEntity
  8
7
100
AcDbLine
 10
1.539370078740157
 20
6.252952755905512
 30
0.0
 11
1.538385826771653
 21
6.264763779527559
 31
0.0
  0
LINE
  5
367D
330
1E
100
AcDbEntity
  8
7
100
AcDbLine
 10
1.538385826771653
 20
6.264763779527559
 30
0.0
 11
1.534448818897637
 21
6.275590551181101
 31
0.0
  0
LINE
  5
367E
330
1E
100
AcDbEntity
  8
7
100
AcDbLine
 10
1.538385826771653
 20
6.252952755905512
 30
0.0
 11
1.524606299212598
 21
6.128937007874015
 31
0.0
  0
LINE
  5
367F
330
1E
100
AcDbEntity
  8
7
100
AcDbLine
 10
1.524606299212598
 20
6.128937007874015
 30
0.0
 11
1.523622047244094
 21
6.003937007874015
 31
0.0
  0
LINE
  5
3680
330
1E
100
AcDbEntity
  8
7
100
AcDbLine
 10
2.557086614173228
 20
7.269685039370078
 30
0.0
 11
2.544291338582677
 21
7.249015748031496
 31
0.0
  0
LINE
  5
3681
330
1E
100
AcDbEntity
  8
7
100
AcDbLine
 10
2.544291338582677
 20
7.249015748031496
 30
0.0
 11
2.539370078740157
 21
7.225393700787401
 31
0.0
  0
LINE
  5
3682
330
1E
100
AcDbEntity
  8
7
100
AcDbLine
 10
2.539370078740157
 20
7.225393700787401
 30
0.0
 11
2.543307086614173
 21
7.200787401574802
 31
0.0
  0
LINE
  5
3683
330
1E
100
AcDbEntity
  8
7
100
AcDbLine
 10
2.543307086614173
 20
7.200787401574802
 30
0.0
 11
2.554133858267716
 21
7.179133858267716
 31
0.0
  0
LINE
  5
3684
330
1E
100
AcDbEntity
  8
7
100
AcDbLine
 10
2.554133858267716
 20
7.179133858267716
 30
0.0
 11
2.572834645669291
 21
7.162401574803149
 31
0.0
  0
LINE
  5
3685
330
1E
100
AcDbEntity
  8
7
100
AcDbLine
 10
2.572834645669291
 20
7.162401574803149
 30
0.0
 11
2.595472440944881
 21
7.153543307086613
 31
0.0
  0
LINE
  5
3686
330
1E
100
AcDbEntity
  8
7
100
AcDbLine
 10
2.595472440944881
 20
7.153543307086613
 30
0.0
 11
2.62007874015748
 21
7.15255905511811
 31
0.0
  0
LINE
  5
3687
330
1E
100
AcDbEntity
  8
7
100
AcDbLine
 10
2.600393700787401
 20
7.292322834645669
 30
0.0
 11
2.576771653543306
 21
7.285433070866141
 31
0.0
  0
LINE
  5
3688
330
1E
100
AcDbEntity
  8
7
100
AcDbLine
 10
2.576771653543306
 20
7.285433070866141
 30
0.0
 11
2.557086614173228
 21
7.269685039370078
 31
0.0
  0
LINE
  5
3689
330
1E
100
AcDbEntity
  8
7
100
AcDbLine
 10
2.942913385826771
 20
7.149606299212598
 30
0.0
 11
2.835629921259842
 21
7.160433070866141
 31
0.0
  0
LINE
  5
368A
330
1E
100
AcDbEntity
  8
7
100
AcDbLine
 10
2.835629921259842
 20
7.160433070866141
 30
0.0
 11
2.727362204724409
 21
7.161417322834645
 31
0.0
  0
LINE
  5
368B
330
1E
100
AcDbEntity
  8
7
100
AcDbLine
 10
2.727362204724409
 20
7.161417322834645
 30
0.0
 11
2.62007874015748
 21
7.151574803149606
 31
0.0
  0
LINE
  5
368C
330
1E
100
AcDbEntity
  8
7
100
AcDbLine
 10
2.965551181102362
 20
7.136811023622047
 30
0.0
 11
2.955708661417322
 21
7.145669291338582
 31
0.0
  0
LINE
  5
368D
330
1E
100
AcDbEntity
  8
7
100
AcDbLine
 10
2.955708661417322
 20
7.145669291338582
 30
0.0
 11
2.943897637795275
 21
7.150590551181101
 31
0.0
  0
LINE
  5
368E
330
1E
100
AcDbEntity
  8
7
100
AcDbLine
 10
3.160433070866141
 20
7.251968503937007
 30
0.0
 11
3.14271653543307
 21
7.27755905511811
 31
0.0
  0
LINE
  5
368F
330
1E
100
AcDbEntity
  8
7
100
AcDbLine
 10
3.14271653543307
 20
7.27755905511811
 30
0.0
 11
3.117125984251968
 21
7.297244094488188
 31
0.0
  0
LINE
  5
3690
330
1E
100
AcDbEntity
  8
7
100
AcDbLine
 10
3.117125984251968
 20
7.297244094488188
 30
0.0
 11
3.088582677165354
 21
7.309055118110236
 31
0.0
  0
LINE
  5
3691
330
1E
100
AcDbEntity
  8
7
100
AcDbLine
 10
3.088582677165354
 20
7.309055118110236
 30
0.0
 11
3.057086614173228
 21
7.312007874015748
 31
0.0
  0
LINE
  5
3692
330
1E
100
AcDbEntity
  8
7
100
AcDbLine
 10
3.057086614173228
 20
7.312007874015748
 30
0.0
 11
3.026574803149606
 21
7.307086614173227
 31
0.0
  0
LINE
  5
3693
330
1E
100
AcDbEntity
  8
7
100
AcDbLine
 10
3.026574803149606
 20
7.307086614173227
 30
0.0
 11
2.998031496062992
 21
7.293307086614173
 31
0.0
  0
LINE
  5
3694
330
1E
100
AcDbEntity
  8
7
100
AcDbLine
 10
2.966535433070866
 20
7.136811023622047
 30
0.0
 11
2.987204724409448
 21
7.113188976377952
 31
0.0
  0
LINE
  5
3695
330
1E
100
AcDbEntity
  8
7
100
AcDbLine
 10
2.987204724409448
 20
7.113188976377952
 30
0.0
 11
3.013779527559055
 21
7.096456692913386
 31
0.0
  0
LINE
  5
3696
330
1E
100
AcDbEntity
  8
7
100
AcDbLine
 10
3.013779527559055
 20
7.096456692913386
 30
0.0
 11
3.043307086614173
 21
7.086614173228346
 31
0.0
  0
LINE
  5
3697
330
1E
100
AcDbEntity
  8
7
100
AcDbLine
 10
3.043307086614173
 20
7.086614173228346
 30
0.0
 11
3.074803149606299
 21
7.086614173228346
 31
0.0
  0
LINE
  5
3698
330
1E
100
AcDbEntity
  8
7
100
AcDbLine
 10
3.074803149606299
 20
7.086614173228346
 30
0.0
 11
3.105314960629921
 21
7.094488188976377
 31
0.0
  0
LINE
  5
3699
330
1E
100
AcDbEntity
  8
7
100
AcDbLine
 10
3.105314960629921
 20
7.094488188976377
 30
0.0
 11
3.131889763779527
 21
7.11023622047244
 31
0.0
  0
LINE
  5
369A
330
1E
100
AcDbEntity
  8
7
100
AcDbLine
 10
3.131889763779527
 20
7.11023622047244
 30
0.0
 11
3.153543307086614
 21
7.133858267716535
 31
0.0
  0
LINE
  5
369B
330
1E
100
AcDbEntity
  8
7
100
AcDbLine
 10
3.153543307086614
 20
7.133858267716535
 30
0.0
 11
3.167322834645669
 21
7.161417322834645
 31
0.0
  0
LINE
  5
369C
330
1E
100
AcDbEntity
  8
7
100
AcDbLine
 10
3.167322834645669
 20
7.161417322834645
 30
0.0
 11
3.174212598425196
 21
7.191929133858267
 31
0.0
  0
LINE
  5
369D
330
1E
100
AcDbEntity
  8
7
100
AcDbLine
 10
3.174212598425196
 20
7.191929133858267
 30
0.0
 11
3.171259842519685
 21
7.223425196850393
 31
0.0
  0
LINE
  5
369E
330
1E
100
AcDbEntity
  8
7
100
AcDbLine
 10
3.171259842519685
 20
7.223425196850393
 30
0.0
 11
3.160433070866141
 21
7.251968503937007
 31
0.0
  0
LINE
  5
369F
330
1E
100
AcDbEntity
  8
7
100
AcDbLine
 10
2.975393700787401
 20
7.289370078740157
 30
0.0
 11
2.987204724409448
 21
7.290354330708661
 31
0.0
  0
LINE
  5
36A0
330
1E
100
AcDbEntity
  8
7
100
AcDbLine
 10
2.987204724409448
 20
7.290354330708661
 30
0.0
 11
2.998031496062992
 21
7.294291338582676
 31
0.0
  0
LINE
  5
36A1
330
1E
100
AcDbEntity
  8
7
100
AcDbLine
 10
2.974409448818897
 20
7.289370078740157
 30
0.0
 11
2.850393700787401
 21
7.303149606299212
 31
0.0
  0
LINE
  5
36A2
330
1E
100
AcDbEntity
  8
7
100
AcDbLine
 10
2.850393700787401
 20
7.303149606299212
 30
0.0
 11
2.725393700787401
 21
7.304133858267716
 31
0.0
  0
LINE
  5
36A3
330
1E
100
AcDbEntity
  8
7
100
AcDbLine
 10
2.725393700787401
 20
7.304133858267716
 30
0.0
 11
2.600393700787401
 21
7.293307086614173
 31
0.0
  0
LINE
  5
36A4
330
1E
100
AcDbEntity
  8
7
100
AcDbLine
 10
1.748031496062992
 20
6.083661417322834
 30
0.0
 11
1.744094488188976
 21
6.053149606299212
 31
0.0
  0
LINE
  5
36A5
330
1E
100
AcDbEntity
  8
7
100
AcDbLine
 10
1.744094488188976
 20
6.053149606299212
 30
0.0
 11
1.748031496062992
 21
6.02263779527559
 31
0.0
  0
LINE
  5
36A6
330
1E
100
AcDbEntity
  8
7
100
AcDbLine
 10
1.748031496062992
 20
6.02263779527559
 30
0.0
 11
1.759842519685039
 21
5.993110236220472
 31
0.0
  0
LINE
  5
36A7
330
1E
100
AcDbEntity
  8
7
100
AcDbLine
 10
1.759842519685039
 20
5.993110236220472
 30
0.0
 11
1.778543307086614
 21
5.968503937007874
 31
0.0
  0
LINE
  5
36A8
330
1E
100
AcDbEntity
  8
7
100
AcDbLine
 10
1.778543307086614
 20
5.968503937007874
 30
0.0
 11
1.803149606299212
 21
5.949803149606299
 31
0.0
  0
LINE
  5
36A9
330
1E
100
AcDbEntity
  8
7
100
AcDbLine
 10
1.803149606299212
 20
6.156496062992125
 30
0.0
 11
1.778543307086614
 21
6.13779527559055
 31
0.0
  0
LINE
  5
36AA
330
1E
100
AcDbEntity
  8
7
100
AcDbLine
 10
1.778543307086614
 20
6.13779527559055
 30
0.0
 11
1.759842519685039
 21
6.113188976377952
 31
0.0
  0
LINE
  5
36AB
330
1E
100
AcDbEntity
  8
7
100
AcDbLine
 10
1.759842519685039
 20
6.113188976377952
 30
0.0
 11
1.748031496062992
 21
6.083661417322834
 31
0.0
  0
LINE
  5
36AC
330
1E
100
AcDbEntity
  8
7
100
AcDbLine
 10
3.747047244094487
 20
5.949803149606299
 30
0.0
 11
3.771653543307086
 21
5.968503937007874
 31
0.0
  0
LINE
  5
36AD
330
1E
100
AcDbEntity
  8
7
100
AcDbLine
 10
3.771653543307086
 20
5.968503937007874
 30
0.0
 11
3.790354330708661
 21
5.993110236220472
 31
0.0
  0
LINE
  5
36AE
330
1E
100
AcDbEntity
  8
7
100
AcDbLine
 10
3.790354330708661
 20
5.993110236220472
 30
0.0
 11
3.802165354330708
 21
6.02263779527559
 31
0.0
  0
LINE
  5
36AF
330
1E
100
AcDbEntity
  8
7
100
AcDbLine
 10
3.802165354330708
 20
6.02263779527559
 30
0.0
 11
3.806102362204724
 21
6.053149606299212
 31
0.0
  0
LINE
  5
36B0
330
1E
100
AcDbEntity
  8
7
100
AcDbLine
 10
3.806102362204724
 20
6.053149606299212
 30
0.0
 11
3.802165354330708
 21
6.083661417322834
 31
0.0
  0
LINE
  5
36B1
330
1E
100
AcDbEntity
  8
7
100
AcDbLine
 10
3.802165354330708
 20
6.083661417322834
 30
0.0
 11
3.790354330708661
 21
6.113188976377952
 31
0.0
  0
LINE
  5
36B2
330
1E
100
AcDbEntity
  8
7
100
AcDbLine
 10
3.790354330708661
 20
6.113188976377952
 30
0.0
 11
3.771653543307086
 21
6.13779527559055
 31
0.0
  0
LINE
  5
36B3
330
1E
100
AcDbEntity
  8
7
100
AcDbLine
 10
3.771653543307086
 20
6.13779527559055
 30
0.0
 11
3.747047244094487
 21
6.156496062992125
 31
0.0
  0
LINE
  5
36B4
330
1E
100
AcDbEntity
  8
7
100
AcDbLine
 10
1.656496062992125
 20
7.177165354330708
 30
0.0
 11
1.656496062992125
 21
7.266732283464566
 31
0.0
  0
LINE
  5
36B5
330
1E
100
AcDbEntity
  8
7
100
AcDbLine
 10
1.656496062992125
 20
7.266732283464566
 30
0.0
 11
1.710629921259842
 21
7.266732283464566
 31
0.0
  0
LINE
  5
36B6
330
1E
100
AcDbEntity
  8
7
100
AcDbLine
 10
3.796259842519685
 20
7.266732283464566
 30
0.0
 11
3.813976377952755
 21
7.257874015748031
 31
0.0
  0
LINE
  5
36B7
330
1E
100
AcDbEntity
  8
7
100
AcDbLine
 10
3.813976377952755
 20
7.257874015748031
 30
0.0
 11
3.813976377952755
 21
7.231299212598425
 31
0.0
  0
ENDSEC
  0
SECTION
  2
OBJECTS
  0
DICTIONARY
  5
C
330
0
100
AcDbDictionary
  3
ACAD_GROUP
350
D
  3
ACAD_MLINESTYLE
350
16
  3
ACAD_PLOTSETTINGS
350
18
  3
ACAD_LAYOUT
350
19
1001
ACAD
1000
TREAT_AS_HARD
1070
     0
  0
DICTIONARY
  5
479A
330
1E
100
AcDbDictionary
  3
ACAD_LAYOUTSELFREF
350
479B
  0
DICTIONARY
  5
4798
330
1A
100
AcDbDictionary
  3
ACAD_LAYOUTSELFREF
350
4799
  0
DICTIONARY
  5
D
102
{ACAD_REACTORS
330
C
102
}
330
C
100
AcDbDictionary
1001
ACAD
1000
TREAT_AS_HARD
1070
     0
  0
DICTIONARY
  5
16
102
{ACAD_REACTORS
330
C
102
}
330
C
100
AcDbDictionary
  3
STANDARD
350
17
1001
ACAD
1000
TREAT_AS_HARD
1070
     0
  0
DICTIONARY
  5
18
102
{ACAD_REACTORS
330
C
102
}
330
C
100
AcDbDictionary
1001
ACAD
1000
TREAT_AS_HARD
1070
     0
  0
DICTIONARY
  5
19
102
{ACAD_REACTORS
330
C
102
}
330
C
100
AcDbDictionary
1001
ACAD
1000
TREAT_AS_HARD
1070
     0
  0
XRECORD
  5
479B
102
{ACAD_REACTORS
330
479A
102
}
330
479A
100
AcDbXrecord
340
1E
  0
XRECORD
  5
4799
102
{ACAD_REACTORS
330
4798
102
}
330
4798
100
AcDbXrecord
340
1A
  0
MLINESTYLE
  5
17
102
{ACAD_REACTORS
330
16
102
}
330
16
100
AcDbMlineStyle
  2
STANDARD
 70
     0
  3

 62
   256
 51
90.0
 52
90.0
 71
     2
 49
0.5
 62
   256
  6
BYLAYER
 49
-0.5
 62
   256
  6
BYLAYER
  0
ENDSEC
  0
EOF
