  0
SECTION
  2
HEADER
  9
$ACADVER
  1
AC1012
  9
$DWGCODEPAGE
  3
ANSI_1252
  9
$INSBASE
 10
0.0
 20
0.0
 30
0.0
  9
$EXTMIN
 10
0.9499512009205659
 20
1.899673485080331
 30
-0.0000000349181948
  9
$EXTMAX
 10
5.450683614065269
 20
7.318679828567756
 30
0.0000000814935746
  9
$LIMMIN
 10
0.0
 20
0.0
  9
$LIMMAX
 10
12.0
 20
9.0
  9
$ORTHOMODE
 70
     0
  9
$REGENMODE
 70
     1
  9
$FILLMODE
 70
     1
  9
$QTEXTMODE
 70
     0
  9
$MIRRTEXT
 70
     1
  9
$DRAGMODE
 70
     2
  9
$LTSCALE
 40
1.0
  9
$OSMODE
 70
    33
  9
$ATTMODE
 70
     1
  9
$TEXTSIZE
 40
0.2
  9
$TRACEWID
 40
0.05
  9
$TEXTSTYLE
  7
STANDARD
  9
$CLAYER
  8
0
  9
$CELTYPE
  6
BYLAYER
  9
$CECOLOR
 62
   256
  9
$CELTSCALE
 40
1.0
  9
$DELOBJ
 70
     1
  9
$DISPSILH
 70
     0
  9
$DIMSCALE
 40
1.0
  9
$DIMASZ
 40
0.18
  9
$DIMEXO
 40
0.0625
  9
$DIMDLI
 40
0.38
  9
$DIMRND
 40
0.0
  9
$DIMDLE
 40
0.0
  9
$DIMEXE
 40
0.18
  9
$DIMTP
 40
0.0
  9
$DIMTM
 40
0.0
  9
$DIMTXT
 40
0.18
  9
$DIMCEN
 40
0.09
  9
$DIMTSZ
 40
0.0
  9
$DIMTOL
 70
     0
  9
$DIMLIM
 70
     0
  9
$DIMTIH
 70
     1
  9
$DIMTOH
 70
     1
  9
$DIMSE1
 70
     0
  9
$DIMSE2
 70
     0
  9
$DIMTAD
 70
     0
  9
$DIMZIN
 70
     0
  9
$DIMBLK
  1

  9
$DIMASO
 70
     1
  9
$DIMSHO
 70
     1
  9
$DIMPOST
  1

  9
$DIMAPOST
  1

  9
$DIMALT
 70
     0
  9
$DIMALTD
 70
     2
  9
$DIMALTF
 40
25.4
  9
$DIMLFAC
 40
1.0
  9
$DIMTOFL
 70
     0
  9
$DIMTVP
 40
0.0
  9
$DIMTIX
 70
     0
  9
$DIMSOXD
 70
     0
  9
$DIMSAH
 70
     0
  9
$DIMBLK1
  1

  9
$DIMBLK2
  1

  9
$DIMSTYLE
  2
STANDARD
  9
$DIMCLRD
 70
     0
  9
$DIMCLRE
 70
     0
  9
$DIMCLRT
 70
     0
  9
$DIMTFAC
 40
1.0
  9
$DIMGAP
 40
0.09
  9
$DIMJUST
 70
     0
  9
$DIMSD1
 70
     0
  9
$DIMSD2
 70
     0
  9
$DIMTOLJ
 70
     1
  9
$DIMTZIN
 70
     0
  9
$DIMALTZ
 70
     0
  9
$DIMALTTZ
 70
     0
  9
$DIMFIT
 70
     5
  9
$DIMUPT
 70
     0
  9
$DIMUNIT
 70
     2
  9
$DIMDEC
 70
     4
  9
$DIMTDEC
 70
     4
  9
$DIMALTU
 70
     2
  9
$DIMALTTD
 70
     2
  9
$DIMTXSTY
  7
STANDARD
  9
$DIMAUNIT
 70
     0
  9
$LUNITS
 70
     2
  9
$LUPREC
 70
     4
  9
$SKETCHINC
 40
0.1
  9
$FILLETRAD
 40
0.0
  9
$AUNITS
 70
     0
  9
$AUPREC
 70
     0
  9
$MENU
  1
acad
  9
$ELEVATION
 40
0.0
  9
$PELEVATION
 40
0.0
  9
$THICKNESS
 40
0.0
  9
$LIMCHECK
 70
     0
  9
$BLIPMODE
 70
     0
  9
$CHAMFERA
 40
0.0
  9
$CHAMFERB
 40
0.0
  9
$CHAMFERC
 40
0.0
  9
$CHAMFERD
 40
0.0
  9
$SKPOLY
 70
     0
  9
$TDCREATE
 40
2452255.288657407
  9
$TDUPDATE
 40
2452338.611650266
  9
$TDINDWG
 40
0.0019042940
  9
$TDUSRTIMER
 40
0.0019042940
  9
$USRTIMER
 70
     1
  9
$ANGBASE
 50
0.0
  9
$ANGDIR
 70
     0
  9
$PDMODE
 70
     0
  9
$PDSIZE
 40
0.0
  9
$PLINEWID
 40
0.0
  9
$COORDS
 70
     2
  9
$SPLFRAME
 70
     0
  9
$SPLINETYPE
 70
     6
  9
$SPLINESEGS
 70
     8
  9
$ATTDIA
 70
     0
  9
$ATTREQ
 70
     1
  9
$HANDLING
 70
  4097
  9
$HANDSEED
  5
3AE2
  9
$SURFTAB1
 70
     6
  9
$SURFTAB2
 70
     6
  9
$SURFTYPE
 70
     6
  9
$SURFU
 70
     6
  9
$SURFV
 70
     6
  9
$UCSNAME
  2

  9
$UCSORG
 10
0.0
 20
0.0
 30
0.0
  9
$UCSXDIR
 10
1.0
 20
0.0
 30
0.0
  9
$UCSYDIR
 10
0.0
 20
1.0
 30
0.0
  9
$PUCSNAME
  2

  9
$PUCSORG
 10
0.0
 20
0.0
 30
0.0
  9
$PUCSXDIR
 10
1.0
 20
0.0
 30
0.0
  9
$PUCSYDIR
 10
0.0
 20
1.0
 30
0.0
  9
$USERI1
 70
     0
  9
$USERI2
 70
     0
  9
$USERI3
 70
     0
  9
$USERI4
 70
     0
  9
$USERI5
 70
     0
  9
$USERR1
 40
0.0
  9
$USERR2
 40
0.0
  9
$USERR3
 40
0.0
  9
$USERR4
 40
0.0
  9
$USERR5
 40
0.0
  9
$WORLDVIEW
 70
     1
  9
$SHADEDGE
 70
     3
  9
$SHADEDIF
 70
    70
  9
$TILEMODE
 70
     1
  9
$MAXACTVP
 70
    16
  9
$PINSBASE
 10
0.0
 20
0.0
 30
0.0
  9
$PLIMCHECK
 70
     0
  9
$PEXTMIN
 10
1.000000000000000E+20
 20
1.000000000000000E+20
 30
1.000000000000000E+20
  9
$PEXTMAX
 10
-1.000000000000000E+20
 20
-1.000000000000000E+20
 30
-1.000000000000000E+20
  9
$PLIMMIN
 10
0.0
 20
0.0
  9
$PLIMMAX
 10
12.0
 20
9.0
  9
$UNITMODE
 70
     0
  9
$VISRETAIN
 70
     0
  9
$PLINEGEN
 70
     0
  9
$PSLTSCALE
 70
     1
  9
$TREEDEPTH
 70
  3020
  9
$PICKSTYLE
 70
     1
  9
$CMLSTYLE
  2
STANDARD
  9
$CMLJUST
 70
     0
  9
$CMLSCALE
 40
1.0
  9
$SAVEIMAGES
 70
     1
  0
ENDSEC
  0
SECTION
  2
CLASSES
  0
CLASS
  1
ACDBDICTIONARYWDFLT
  2
AcDbDictionaryWithDefault
  3
AutoCAD 2000
 90
    32768
280
     0
281
     0
  0
CLASS
  1
ACDBPLACEHOLDER
  2
AcDbPlaceHolder
  3
AutoCAD 2000
 90
    32768
280
     0
281
     0
  0
CLASS
  1
LAYOUT
  2
AcDbLayout
  3
AutoCAD 2000
 90
    32768
280
     0
281
     0
  0
CLASS
  1
LONG_TRANSACTION
  2
AcDbLongTransaction
  3
AutoCAD 2000
 90
    32768
280
     0
281
     0
  0
CLASS
  1
LWPOLYLINE
  2
AcDbPolyline
  3
AutoCAD 2000
 90
    32768
280
     0
281
     1
  0
CLASS
  1
HATCH
  2
AcDbHatch
  3
AutoCAD 2000
 90
    32768
280
     0
281
     1
  0
CLASS
  1
XRECORD
  2
AcDbXrecord
  3
AutoCAD 2000
 90
    32768
280
     0
281
     0
  0
CLASS
  1
LONG_TRANSACTION
  2
AcDbLongTransaction
  3
AutoCAD 2000
 90
    32768
280
     0
281
     0
  0
CLASS
  1
LWPOLYLINE
  2
AcDbPolyline
  3
AutoCAD 2000
 90
    32768
280
     0
281
     1
  0
CLASS
  1
HATCH
  2
AcDbHatch
  3
AutoCAD 2000
 90
    32768
280
     0
281
     1
  0
CLASS
  1
XRECORD
  2
AcDbXrecord
  3
AutoCAD 2000
 90
    32768
280
     0
281
     0
  0
ENDSEC
  0
SECTION
  2
TABLES
  0
TABLE
  2
VPORT
  5
8
330
0
100
AcDbSymbolTable
 70
     3
  0
VPORT
  5
3ADF
330
8
100
AcDbSymbolTableRecord
100
AcDbViewportTableRecord
  2
*ACTIVE
 70
     0
 10
0.0
 20
0.0
 11
1.0
 21
1.0
 12
3.200317407492918
 22
4.609176656824043
 13
0.0
 23
0.0
 14
1.0
 24
1.0
 15
0.0
 25
0.0
 16
0.0
 26
0.0
 36
1.0
 17
0.0
 27
0.0
 37
0.0
 40
5.461675684774727
 41
1.601839684625493
 42
50.0
 43
0.0
 44
0.0
 50
0.0
 51
0.0
 71
     0
 72
   100
 73
     1
 74
     1
 75
     0
 76
     0
 77
     0
 78
     0
  0
ENDTAB
  0
TABLE
  2
LTYPE
  5
5
330
0
100
AcDbSymbolTable
 70
    25
  0
LTYPE
  5
13
330
5
100
AcDbSymbolTableRecord
100
AcDbLinetypeTableRecord
  2
BYBLOCK
 70
     0
  3

 72
    65
 73
     0
 40
0.0
  0
LTYPE
  5
14
330
5
100
AcDbSymbolTableRecord
100
AcDbLinetypeTableRecord
  2
BYLAYER
 70
     0
  3

 72
    65
 73
     0
 40
0.0
  0
LTYPE
  5
15
330
5
100
AcDbSymbolTableRecord
100
AcDbLinetypeTableRecord
  2
CONTINUOUS
 70
     0
  3
Solid line
 72
    65
 73
     0
 40
0.0
  0
LTYPE
  5
22
330
5
100
AcDbSymbolTableRecord
100
AcDbLinetypeTableRecord
  2
BORDER
 70
     0
  3
__ __ . __ __ . __ __ . __ __ . __ __ . __ __ .
 72
    65
 73
     6
 40
1.75
 49
0.5
 74
     0
 49
-0.25
 74
     0
 49
0.5
 74
     0
 49
-0.25
 74
     0
 49
0.5
 74
     0
 49
-0.25
 74
     0
  0
LTYPE
  5
23
330
5
100
AcDbSymbolTableRecord
100
AcDbLinetypeTableRecord
  2
BORDER2
 70
     0
  3
__.__.__.__.__.__.__.__.__.__.__.__.__.__.__.__
 72
    65
 73
     6
 40
0.875
 49
0.25
 74
     0
 49
-0.125
 74
     0
 49
0.25
 74
     0
 49
-0.125
 74
     0
 49
0.25
 74
     0
 49
-0.125
 74
     0
  0
LTYPE
  5
24
330
5
100
AcDbSymbolTableRecord
100
AcDbLinetypeTableRecord
  2
BORDERX2
 70
     0
  3
____  ____  .  ____  ____  .  
 72
    65
 73
     6
 40
3.5
 49
1.0
 74
     0
 49
-0.5
 74
     0
 49
1.0
 74
     0
 49
-0.5
 74
     0
 49
1.0
 74
     0
 49
-0.5
 74
     0
  0
LTYPE
  5
25
330
5
100
AcDbSymbolTableRecord
100
AcDbLinetypeTableRecord
  2
CENTER
 70
     0
  3
____ _ ____ _ ____ _ ____ _ ____ _ ____ _ ____
 72
    65
 73
     4
 40
2.0
 49
1.25
 74
     0
 49
-0.25
 74
     0
 49
0.25
 74
     0
 49
-0.25
 74
     0
  0
LTYPE
  5
26
330
5
100
AcDbSymbolTableRecord
100
AcDbLinetypeTableRecord
  2
CENTER2
 70
     0
  3
____ _ ____ _ ____ _ ____ _ ____ _ ____ _ ____
 72
    65
 73
     4
 40
1.125
 49
0.75
 74
     0
 49
-0.125
 74
     0
 49
0.125
 74
     0
 49
-0.125
 74
     0
  0
LTYPE
  5
27
330
5
100
AcDbSymbolTableRecord
100
AcDbLinetypeTableRecord
  2
CENTERX2
 70
     0
  3
________  __  ________  __  ________  __  
 72
    65
 73
     4
 40
4.0
 49
2.5
 74
     0
 49
-0.5
 74
     0
 49
0.5
 74
     0
 49
-0.5
 74
     0
  0
LTYPE
  5
28
330
5
100
AcDbSymbolTableRecord
100
AcDbLinetypeTableRecord
  2
DASHDOT
 70
     0
  3
__ . __ . __ . __ . __ . __ . __ . 
 72
    65
 73
     4
 40
1.0
 49
0.5
 74
     0
 49
-0.25
 74
     0
 49
0.0
 74
     0
 49
-0.25
 74
     0
  0
LTYPE
  5
29
330
5
100
AcDbSymbolTableRecord
100
AcDbLinetypeTableRecord
  2
DASHDOT2
 70
     0
  3
_._._._._._._._._._._._._._._._.
 72
    65
 73
     4
 40
0.5
 49
0.25
 74
     0
 49
-0.125
 74
     0
 49
0.0
 74
     0
 49
-0.125
 74
     0
  0
LTYPE
  5
2A
330
5
100
AcDbSymbolTableRecord
100
AcDbLinetypeTableRecord
  2
DASHDOTX2
 70
     0
  3
____  .  ____  .  ____  .  ____  .  
 72
    65
 73
     4
 40
2.0
 49
1.0
 74
     0
 49
-0.5
 74
     0
 49
0.0
 74
     0
 49
-0.5
 74
     0
  0
LTYPE
  5
2B
330
5
100
AcDbSymbolTableRecord
100
AcDbLinetypeTableRecord
  2
DASHED
 70
     0
  3
__ __ __ __ __ __ __ __ __ __ __ __ 
 72
    65
 73
     2
 40
0.75
 49
0.5
 74
     0
 49
-0.25
 74
     0
  0
LTYPE
  5
2C
330
5
100
AcDbSymbolTableRecord
100
AcDbLinetypeTableRecord
  2
DASHED2
 70
     0
  3
_ _ _ _ _ _ _ _ _ _ _ _ _ _ _ _ _ _ 
 72
    65
 73
     2
 40
0.375
 49
0.25
 74
     0
 49
-0.125
 74
     0
  0
LTYPE
  5
2D
330
5
100
AcDbSymbolTableRecord
100
AcDbLinetypeTableRecord
  2
DASHEDX2
 70
     0
  3
____  ____  ____  ____  ____  ____  
 72
    65
 73
     2
 40
1.5
 49
1.0
 74
     0
 49
-0.5
 74
     0
  0
LTYPE
  5
2E
330
5
100
AcDbSymbolTableRecord
100
AcDbLinetypeTableRecord
  2
DIVIDE
 70
     0
  3
____ . . ____ . . ____ . . ____ . . 
 72
    65
 73
     6
 40
1.25
 49
0.5
 74
     0
 49
-0.25
 74
     0
 49
0.0
 74
     0
 49
-0.25
 74
     0
 49
0.0
 74
     0
 49
-0.25
 74
     0
  0
LTYPE
  5
2F
330
5
100
AcDbSymbolTableRecord
100
AcDbLinetypeTableRecord
  2
DIVIDE2
 70
     0
  3
__..__..__..__..__..__..__..__..__..
 72
    65
 73
     6
 40
0.625
 49
0.25
 74
     0
 49
-0.125
 74
     0
 49
0.0
 74
     0
 49
-0.125
 74
     0
 49
0.0
 74
     0
 49
-0.125
 74
     0
  0
LTYPE
  5
30
330
5
100
AcDbSymbolTableRecord
100
AcDbLinetypeTableRecord
  2
DIVIDEX2
 70
     0
  3
________  .  .  ________  .  .  ________  .  . 
 72
    65
 73
     6
 40
2.5
 49
1.0
 74
     0
 49
-0.5
 74
     0
 49
0.0
 74
     0
 49
-0.5
 74
     0
 49
0.0
 74
     0
 49
-0.5
 74
     0
  0
LTYPE
  5
31
330
5
100
AcDbSymbolTableRecord
100
AcDbLinetypeTableRecord
  2
DOT
 70
     0
  3
. . . . . . . . . . . . . . . . . . 
 72
    65
 73
     2
 40
0.25
 49
0.0
 74
     0
 49
-0.25
 74
     0
  0
LTYPE
  5
32
330
5
100
AcDbSymbolTableRecord
100
AcDbLinetypeTableRecord
  2
DOT2
 70
     0
  3
....................................
 72
    65
 73
     2
 40
0.125
 49
0.0
 74
     0
 49
-0.125
 74
     0
  0
LTYPE
  5
33
330
5
100
AcDbSymbolTableRecord
100
AcDbLinetypeTableRecord
  2
DOTX2
 70
     0
  3
.  .  .  .  .  .  .  .  .  .  .  .  .  
 72
    65
 73
     2
 40
0.5
 49
0.0
 74
     0
 49
-0.5
 74
     0
  0
LTYPE
  5
34
330
5
100
AcDbSymbolTableRecord
100
AcDbLinetypeTableRecord
  2
HIDDEN
 70
     0
  3
__ __ __ __ __ __ __ __ __ __ __ __ 
 72
    65
 73
     2
 40
0.375
 49
0.25
 74
     0
 49
-0.125
 74
     0
  0
LTYPE
  5
35
330
5
100
AcDbSymbolTableRecord
100
AcDbLinetypeTableRecord
  2
HIDDEN2
 70
     0
  3
_ _ _ _ _ _ _ _ _ _ _ _ _ _ _ _ _ _ 
 72
    65
 73
     2
 40
0.1875
 49
0.125
 74
     0
 49
-0.0625
 74
     0
  0
LTYPE
  5
36
330
5
100
AcDbSymbolTableRecord
100
AcDbLinetypeTableRecord
  2
HIDDENX2
 70
     0
  3
____ ____ ____ ____ ____ ____ ____ 
 72
    65
 73
     2
 40
0.75
 49
0.5
 74
     0
 49
-0.25
 74
     0
  0
LTYPE
  5
37
330
5
100
AcDbSymbolTableRecord
100
AcDbLinetypeTableRecord
  2
PHANTOM
 70
     0
  3
______  __  __  ______  __  __  
 72
    65
 73
     6
 40
2.5
 49
1.25
 74
     0
 49
-0.25
 74
     0
 49
0.25
 74
     0
 49
-0.25
 74
     0
 49
0.25
 74
     0
 49
-0.25
 74
     0
  0
LTYPE
  5
38
330
5
100
AcDbSymbolTableRecord
100
AcDbLinetypeTableRecord
  2
PHANTOM2
 70
     0
  3
___ _ _ ___ _ _ ___ _ _ ___ _ _ 
 72
    65
 73
     6
 40
1.25
 49
0.625
 74
     0
 49
-0.125
 74
     0
 49
0.125
 74
     0
 49
-0.125
 74
     0
 49
0.125
 74
     0
 49
-0.125
 74
     0
  0
LTYPE
  5
39
330
5
100
AcDbSymbolTableRecord
100
AcDbLinetypeTableRecord
  2
PHANTOMX2
 70
     0
  3
___ _ _ ___ _ _ ___ _ _ ___ _ _ 
 72
    65
 73
     6
 40
5.0
 49
2.5
 74
     0
 49
-0.5
 74
     0
 49
0.5
 74
     0
 49
-0.5
 74
     0
 49
0.5
 74
     0
 49
-0.5
 74
     0
  0
ENDTAB
  0
TABLE
  2
LAYER
  5
2
330
0
100
AcDbSymbolTable
 70
   257
  0
LAYER
  5
10
330
2
100
AcDbSymbolTableRecord
100
AcDbLayerTableRecord
  2
0
 70
     0
 62
     7
  6
CONTINUOUS
  0
LAYER
  5
3A
330
2
100
AcDbSymbolTableRecord
100
AcDbLayerTableRecord
  2
1
 70
     0
 62
     1
  6
CONTINUOUS
  0
LAYER
  5
3B
330
2
100
AcDbSymbolTableRecord
100
AcDbLayerTableRecord
  2
2
 70
     0
 62
     2
  6
CONTINUOUS
  0
LAYER
  5
3C
330
2
100
AcDbSymbolTableRecord
100
AcDbLayerTableRecord
  2
3
 70
     0
 62
     3
  6
CONTINUOUS
  0
LAYER
  5
3D
330
2
100
AcDbSymbolTableRecord
100
AcDbLayerTableRecord
  2
4
 70
     0
 62
     4
  6
CONTINUOUS
  0
LAYER
  5
3E
330
2
100
AcDbSymbolTableRecord
100
AcDbLayerTableRecord
  2
5
 70
     0
 62
     5
  6
CONTINUOUS
  0
LAYER
  5
3F
330
2
100
AcDbSymbolTableRecord
100
AcDbLayerTableRecord
  2
6
 70
     0
 62
     6
  6
CONTINUOUS
  0
LAYER
  5
40
330
2
100
AcDbSymbolTableRecord
100
AcDbLayerTableRecord
  2
7
 70
     0
 62
     7
  6
CONTINUOUS
  0
LAYER
  5
41
330
2
100
AcDbSymbolTableRecord
100
AcDbLayerTableRecord
  2
8
 70
     0
 62
     8
  6
CONTINUOUS
  0
LAYER
  5
42
330
2
100
AcDbSymbolTableRecord
100
AcDbLayerTableRecord
  2
9
 70
     0
 62
     9
  6
CONTINUOUS
  0
LAYER
  5
43
330
2
100
AcDbSymbolTableRecord
100
AcDbLayerTableRecord
  2
10
 70
     0
 62
    10
  6
CONTINUOUS
  0
LAYER
  5
44
330
2
100
AcDbSymbolTableRecord
100
AcDbLayerTableRecord
  2
11
 70
     0
 62
    11
  6
CONTINUOUS
  0
LAYER
  5
45
330
2
100
AcDbSymbolTableRecord
100
AcDbLayerTableRecord
  2
12
 70
     0
 62
    12
  6
CONTINUOUS
  0
LAYER
  5
46
330
2
100
AcDbSymbolTableRecord
100
AcDbLayerTableRecord
  2
13
 70
     0
 62
    13
  6
CONTINUOUS
  0
LAYER
  5
47
330
2
100
AcDbSymbolTableRecord
100
AcDbLayerTableRecord
  2
14
 70
     0
 62
    14
  6
CONTINUOUS
  0
LAYER
  5
48
330
2
100
AcDbSymbolTableRecord
100
AcDbLayerTableRecord
  2
15
 70
     0
 62
    15
  6
CONTINUOUS
  0
LAYER
  5
49
330
2
100
AcDbSymbolTableRecord
100
AcDbLayerTableRecord
  2
16
 70
     0
 62
    16
  6
CONTINUOUS
  0
LAYER
  5
4A
330
2
100
AcDbSymbolTableRecord
100
AcDbLayerTableRecord
  2
17
 70
     0
 62
    17
  6
CONTINUOUS
  0
LAYER
  5
4B
330
2
100
AcDbSymbolTableRecord
100
AcDbLayerTableRecord
  2
18
 70
     0
 62
    18
  6
CONTINUOUS
  0
LAYER
  5
4C
330
2
100
AcDbSymbolTableRecord
100
AcDbLayerTableRecord
  2
19
 70
     0
 62
    19
  6
CONTINUOUS
  0
LAYER
  5
4D
330
2
100
AcDbSymbolTableRecord
100
AcDbLayerTableRecord
  2
20
 70
     0
 62
    20
  6
CONTINUOUS
  0
LAYER
  5
4E
330
2
100
AcDbSymbolTableRecord
100
AcDbLayerTableRecord
  2
21
 70
     0
 62
    21
  6
CONTINUOUS
  0
LAYER
  5
4F
330
2
100
AcDbSymbolTableRecord
100
AcDbLayerTableRecord
  2
22
 70
     0
 62
    22
  6
CONTINUOUS
  0
LAYER
  5
50
330
2
100
AcDbSymbolTableRecord
100
AcDbLayerTableRecord
  2
23
 70
     0
 62
    23
  6
CONTINUOUS
  0
LAYER
  5
51
330
2
100
AcDbSymbolTableRecord
100
AcDbLayerTableRecord
  2
24
 70
     0
 62
    24
  6
CONTINUOUS
  0
LAYER
  5
52
330
2
100
AcDbSymbolTableRecord
100
AcDbLayerTableRecord
  2
25
 70
     0
 62
    25
  6
CONTINUOUS
  0
LAYER
  5
53
330
2
100
AcDbSymbolTableRecord
100
AcDbLayerTableRecord
  2
26
 70
     0
 62
    26
  6
CONTINUOUS
  0
LAYER
  5
54
330
2
100
AcDbSymbolTableRecord
100
AcDbLayerTableRecord
  2
27
 70
     0
 62
    27
  6
CONTINUOUS
  0
LAYER
  5
55
330
2
100
AcDbSymbolTableRecord
100
AcDbLayerTableRecord
  2
28
 70
     0
 62
    28
  6
CONTINUOUS
  0
LAYER
  5
56
330
2
100
AcDbSymbolTableRecord
100
AcDbLayerTableRecord
  2
29
 70
     0
 62
    29
  6
CONTINUOUS
  0
LAYER
  5
57
330
2
100
AcDbSymbolTableRecord
100
AcDbLayerTableRecord
  2
30
 70
     0
 62
    30
  6
CONTINUOUS
  0
LAYER
  5
58
330
2
100
AcDbSymbolTableRecord
100
AcDbLayerTableRecord
  2
31
 70
     0
 62
    31
  6
CONTINUOUS
  0
LAYER
  5
59
330
2
100
AcDbSymbolTableRecord
100
AcDbLayerTableRecord
  2
32
 70
     0
 62
    32
  6
CONTINUOUS
  0
LAYER
  5
5A
330
2
100
AcDbSymbolTableRecord
100
AcDbLayerTableRecord
  2
33
 70
     0
 62
    33
  6
CONTINUOUS
  0
LAYER
  5
5B
330
2
100
AcDbSymbolTableRecord
100
AcDbLayerTableRecord
  2
34
 70
     0
 62
    34
  6
CONTINUOUS
  0
LAYER
  5
5C
330
2
100
AcDbSymbolTableRecord
100
AcDbLayerTableRecord
  2
35
 70
     0
 62
    35
  6
CONTINUOUS
  0
LAYER
  5
5D
330
2
100
AcDbSymbolTableRecord
100
AcDbLayerTableRecord
  2
36
 70
     0
 62
    36
  6
CONTINUOUS
  0
LAYER
  5
5E
330
2
100
AcDbSymbolTableRecord
100
AcDbLayerTableRecord
  2
37
 70
     0
 62
    37
  6
CONTINUOUS
  0
LAYER
  5
5F
330
2
100
AcDbSymbolTableRecord
100
AcDbLayerTableRecord
  2
38
 70
     0
 62
    38
  6
CONTINUOUS
  0
LAYER
  5
60
330
2
100
AcDbSymbolTableRecord
100
AcDbLayerTableRecord
  2
39
 70
     0
 62
    39
  6
CONTINUOUS
  0
LAYER
  5
61
330
2
100
AcDbSymbolTableRecord
100
AcDbLayerTableRecord
  2
40
 70
     0
 62
    40
  6
CONTINUOUS
  0
LAYER
  5
62
330
2
100
AcDbSymbolTableRecord
100
AcDbLayerTableRecord
  2
41
 70
     0
 62
    41
  6
CONTINUOUS
  0
LAYER
  5
63
330
2
100
AcDbSymbolTableRecord
100
AcDbLayerTableRecord
  2
42
 70
     0
 62
    42
  6
CONTINUOUS
  0
LAYER
  5
64
330
2
100
AcDbSymbolTableRecord
100
AcDbLayerTableRecord
  2
43
 70
     0
 62
    43
  6
CONTINUOUS
  0
LAYER
  5
65
330
2
100
AcDbSymbolTableRecord
100
AcDbLayerTableRecord
  2
44
 70
     0
 62
    44
  6
CONTINUOUS
  0
LAYER
  5
66
330
2
100
AcDbSymbolTableRecord
100
AcDbLayerTableRecord
  2
45
 70
     0
 62
    45
  6
CONTINUOUS
  0
LAYER
  5
67
330
2
100
AcDbSymbolTableRecord
100
AcDbLayerTableRecord
  2
46
 70
     0
 62
    46
  6
CONTINUOUS
  0
LAYER
  5
68
330
2
100
AcDbSymbolTableRecord
100
AcDbLayerTableRecord
  2
47
 70
     0
 62
    47
  6
CONTINUOUS
  0
LAYER
  5
69
330
2
100
AcDbSymbolTableRecord
100
AcDbLayerTableRecord
  2
48
 70
     0
 62
    48
  6
CONTINUOUS
  0
LAYER
  5
6A
330
2
100
AcDbSymbolTableRecord
100
AcDbLayerTableRecord
  2
49
 70
     0
 62
    49
  6
CONTINUOUS
  0
LAYER
  5
6B
330
2
100
AcDbSymbolTableRecord
100
AcDbLayerTableRecord
  2
50
 70
     0
 62
    50
  6
CONTINUOUS
  0
LAYER
  5
6C
330
2
100
AcDbSymbolTableRecord
100
AcDbLayerTableRecord
  2
51
 70
     0
 62
    51
  6
CONTINUOUS
  0
LAYER
  5
6D
330
2
100
AcDbSymbolTableRecord
100
AcDbLayerTableRecord
  2
52
 70
     0
 62
    52
  6
CONTINUOUS
  0
LAYER
  5
6E
330
2
100
AcDbSymbolTableRecord
100
AcDbLayerTableRecord
  2
53
 70
     0
 62
    53
  6
CONTINUOUS
  0
LAYER
  5
6F
330
2
100
AcDbSymbolTableRecord
100
AcDbLayerTableRecord
  2
54
 70
     0
 62
    54
  6
CONTINUOUS
  0
LAYER
  5
70
330
2
100
AcDbSymbolTableRecord
100
AcDbLayerTableRecord
  2
55
 70
     0
 62
    55
  6
CONTINUOUS
  0
LAYER
  5
71
330
2
100
AcDbSymbolTableRecord
100
AcDbLayerTableRecord
  2
56
 70
     0
 62
    56
  6
CONTINUOUS
  0
LAYER
  5
72
330
2
100
AcDbSymbolTableRecord
100
AcDbLayerTableRecord
  2
57
 70
     0
 62
    57
  6
CONTINUOUS
  0
LAYER
  5
73
330
2
100
AcDbSymbolTableRecord
100
AcDbLayerTableRecord
  2
58
 70
     0
 62
    58
  6
CONTINUOUS
  0
LAYER
  5
74
330
2
100
AcDbSymbolTableRecord
100
AcDbLayerTableRecord
  2
59
 70
     0
 62
    59
  6
CONTINUOUS
  0
LAYER
  5
75
330
2
100
AcDbSymbolTableRecord
100
AcDbLayerTableRecord
  2
60
 70
     0
 62
    60
  6
CONTINUOUS
  0
LAYER
  5
76
330
2
100
AcDbSymbolTableRecord
100
AcDbLayerTableRecord
  2
61
 70
     0
 62
    61
  6
CONTINUOUS
  0
LAYER
  5
77
330
2
100
AcDbSymbolTableRecord
100
AcDbLayerTableRecord
  2
62
 70
     0
 62
    62
  6
CONTINUOUS
  0
LAYER
  5
78
330
2
100
AcDbSymbolTableRecord
100
AcDbLayerTableRecord
  2
63
 70
     0
 62
    63
  6
CONTINUOUS
  0
LAYER
  5
79
330
2
100
AcDbSymbolTableRecord
100
AcDbLayerTableRecord
  2
64
 70
     0
 62
    64
  6
CONTINUOUS
  0
LAYER
  5
7A
330
2
100
AcDbSymbolTableRecord
100
AcDbLayerTableRecord
  2
65
 70
     0
 62
    65
  6
CONTINUOUS
  0
LAYER
  5
7B
330
2
100
AcDbSymbolTableRecord
100
AcDbLayerTableRecord
  2
66
 70
     0
 62
    66
  6
CONTINUOUS
  0
LAYER
  5
7C
330
2
100
AcDbSymbolTableRecord
100
AcDbLayerTableRecord
  2
67
 70
     0
 62
    67
  6
CONTINUOUS
  0
LAYER
  5
7D
330
2
100
AcDbSymbolTableRecord
100
AcDbLayerTableRecord
  2
68
 70
     0
 62
    68
  6
CONTINUOUS
  0
LAYER
  5
7E
330
2
100
AcDbSymbolTableRecord
100
AcDbLayerTableRecord
  2
69
 70
     0
 62
    69
  6
CONTINUOUS
  0
LAYER
  5
7F
330
2
100
AcDbSymbolTableRecord
100
AcDbLayerTableRecord
  2
70
 70
     0
 62
    70
  6
CONTINUOUS
  0
LAYER
  5
80
330
2
100
AcDbSymbolTableRecord
100
AcDbLayerTableRecord
  2
71
 70
     0
 62
    71
  6
CONTINUOUS
  0
LAYER
  5
81
330
2
100
AcDbSymbolTableRecord
100
AcDbLayerTableRecord
  2
72
 70
     0
 62
    72
  6
CONTINUOUS
  0
LAYER
  5
82
330
2
100
AcDbSymbolTableRecord
100
AcDbLayerTableRecord
  2
73
 70
     0
 62
    73
  6
CONTINUOUS
  0
LAYER
  5
83
330
2
100
AcDbSymbolTableRecord
100
AcDbLayerTableRecord
  2
74
 70
     0
 62
    74
  6
CONTINUOUS
  0
LAYER
  5
84
330
2
100
AcDbSymbolTableRecord
100
AcDbLayerTableRecord
  2
75
 70
     0
 62
    75
  6
CONTINUOUS
  0
LAYER
  5
85
330
2
100
AcDbSymbolTableRecord
100
AcDbLayerTableRecord
  2
76
 70
     0
 62
    76
  6
CONTINUOUS
  0
LAYER
  5
86
330
2
100
AcDbSymbolTableRecord
100
AcDbLayerTableRecord
  2
77
 70
     0
 62
    77
  6
CONTINUOUS
  0
LAYER
  5
87
330
2
100
AcDbSymbolTableRecord
100
AcDbLayerTableRecord
  2
78
 70
     0
 62
    78
  6
CONTINUOUS
  0
LAYER
  5
88
330
2
100
AcDbSymbolTableRecord
100
AcDbLayerTableRecord
  2
79
 70
     0
 62
    79
  6
CONTINUOUS
  0
LAYER
  5
89
330
2
100
AcDbSymbolTableRecord
100
AcDbLayerTableRecord
  2
80
 70
     0
 62
    80
  6
CONTINUOUS
  0
LAYER
  5
8A
330
2
100
AcDbSymbolTableRecord
100
AcDbLayerTableRecord
  2
81
 70
     0
 62
    81
  6
CONTINUOUS
  0
LAYER
  5
8B
330
2
100
AcDbSymbolTableRecord
100
AcDbLayerTableRecord
  2
82
 70
     0
 62
    82
  6
CONTINUOUS
  0
LAYER
  5
8C
330
2
100
AcDbSymbolTableRecord
100
AcDbLayerTableRecord
  2
83
 70
     0
 62
    83
  6
CONTINUOUS
  0
LAYER
  5
8D
330
2
100
AcDbSymbolTableRecord
100
AcDbLayerTableRecord
  2
84
 70
     0
 62
    84
  6
CONTINUOUS
  0
LAYER
  5
8E
330
2
100
AcDbSymbolTableRecord
100
AcDbLayerTableRecord
  2
85
 70
     0
 62
    85
  6
CONTINUOUS
  0
LAYER
  5
8F
330
2
100
AcDbSymbolTableRecord
100
AcDbLayerTableRecord
  2
86
 70
     0
 62
    86
  6
CONTINUOUS
  0
LAYER
  5
90
330
2
100
AcDbSymbolTableRecord
100
AcDbLayerTableRecord
  2
87
 70
     0
 62
    87
  6
CONTINUOUS
  0
LAYER
  5
91
330
2
100
AcDbSymbolTableRecord
100
AcDbLayerTableRecord
  2
88
 70
     0
 62
    88
  6
CONTINUOUS
  0
LAYER
  5
92
330
2
100
AcDbSymbolTableRecord
100
AcDbLayerTableRecord
  2
89
 70
     0
 62
    89
  6
CONTINUOUS
  0
LAYER
  5
93
330
2
100
AcDbSymbolTableRecord
100
AcDbLayerTableRecord
  2
90
 70
     0
 62
    90
  6
CONTINUOUS
  0
LAYER
  5
94
330
2
100
AcDbSymbolTableRecord
100
AcDbLayerTableRecord
  2
91
 70
     0
 62
    91
  6
CONTINUOUS
  0
LAYER
  5
95
330
2
100
AcDbSymbolTableRecord
100
AcDbLayerTableRecord
  2
92
 70
     0
 62
    92
  6
CONTINUOUS
  0
LAYER
  5
96
330
2
100
AcDbSymbolTableRecord
100
AcDbLayerTableRecord
  2
93
 70
     0
 62
    93
  6
CONTINUOUS
  0
LAYER
  5
97
330
2
100
AcDbSymbolTableRecord
100
AcDbLayerTableRecord
  2
94
 70
     0
 62
    94
  6
CONTINUOUS
  0
LAYER
  5
98
330
2
100
AcDbSymbolTableRecord
100
AcDbLayerTableRecord
  2
95
 70
     0
 62
    95
  6
CONTINUOUS
  0
LAYER
  5
99
330
2
100
AcDbSymbolTableRecord
100
AcDbLayerTableRecord
  2
96
 70
     0
 62
    96
  6
CONTINUOUS
  0
LAYER
  5
9A
330
2
100
AcDbSymbolTableRecord
100
AcDbLayerTableRecord
  2
97
 70
     0
 62
    97
  6
CONTINUOUS
  0
LAYER
  5
9B
330
2
100
AcDbSymbolTableRecord
100
AcDbLayerTableRecord
  2
98
 70
     0
 62
    98
  6
CONTINUOUS
  0
LAYER
  5
9C
330
2
100
AcDbSymbolTableRecord
100
AcDbLayerTableRecord
  2
99
 70
     0
 62
    99
  6
CONTINUOUS
  0
LAYER
  5
9D
330
2
100
AcDbSymbolTableRecord
100
AcDbLayerTableRecord
  2
100
 70
     0
 62
   100
  6
CONTINUOUS
  0
LAYER
  5
9E
330
2
100
AcDbSymbolTableRecord
100
AcDbLayerTableRecord
  2
101
 70
     0
 62
   101
  6
CONTINUOUS
  0
LAYER
  5
9F
330
2
100
AcDbSymbolTableRecord
100
AcDbLayerTableRecord
  2
102
 70
     0
 62
   102
  6
CONTINUOUS
  0
LAYER
  5
A0
330
2
100
AcDbSymbolTableRecord
100
AcDbLayerTableRecord
  2
103
 70
     0
 62
   103
  6
CONTINUOUS
  0
LAYER
  5
A1
330
2
100
AcDbSymbolTableRecord
100
AcDbLayerTableRecord
  2
104
 70
     0
 62
   104
  6
CONTINUOUS
  0
LAYER
  5
A2
330
2
100
AcDbSymbolTableRecord
100
AcDbLayerTableRecord
  2
105
 70
     0
 62
   105
  6
CONTINUOUS
  0
LAYER
  5
A3
330
2
100
AcDbSymbolTableRecord
100
AcDbLayerTableRecord
  2
106
 70
     0
 62
   106
  6
CONTINUOUS
  0
LAYER
  5
A4
330
2
100
AcDbSymbolTableRecord
100
AcDbLayerTableRecord
  2
107
 70
     0
 62
   107
  6
CONTINUOUS
  0
LAYER
  5
A5
330
2
100
AcDbSymbolTableRecord
100
AcDbLayerTableRecord
  2
108
 70
     0
 62
   108
  6
CONTINUOUS
  0
LAYER
  5
A6
330
2
100
AcDbSymbolTableRecord
100
AcDbLayerTableRecord
  2
109
 70
     0
 62
   109
  6
CONTINUOUS
  0
LAYER
  5
A7
330
2
100
AcDbSymbolTableRecord
100
AcDbLayerTableRecord
  2
110
 70
     0
 62
   110
  6
CONTINUOUS
  0
LAYER
  5
A8
330
2
100
AcDbSymbolTableRecord
100
AcDbLayerTableRecord
  2
111
 70
     0
 62
   111
  6
CONTINUOUS
  0
LAYER
  5
A9
330
2
100
AcDbSymbolTableRecord
100
AcDbLayerTableRecord
  2
112
 70
     0
 62
   112
  6
CONTINUOUS
  0
LAYER
  5
AA
330
2
100
AcDbSymbolTableRecord
100
AcDbLayerTableRecord
  2
113
 70
     0
 62
   113
  6
CONTINUOUS
  0
LAYER
  5
AB
330
2
100
AcDbSymbolTableRecord
100
AcDbLayerTableRecord
  2
114
 70
     0
 62
   114
  6
CONTINUOUS
  0
LAYER
  5
AC
330
2
100
AcDbSymbolTableRecord
100
AcDbLayerTableRecord
  2
115
 70
     0
 62
   115
  6
CONTINUOUS
  0
LAYER
  5
AD
330
2
100
AcDbSymbolTableRecord
100
AcDbLayerTableRecord
  2
116
 70
     0
 62
   116
  6
CONTINUOUS
  0
LAYER
  5
AE
330
2
100
AcDbSymbolTableRecord
100
AcDbLayerTableRecord
  2
117
 70
     0
 62
   117
  6
CONTINUOUS
  0
LAYER
  5
AF
330
2
100
AcDbSymbolTableRecord
100
AcDbLayerTableRecord
  2
118
 70
     0
 62
   118
  6
CONTINUOUS
  0
LAYER
  5
B0
330
2
100
AcDbSymbolTableRecord
100
AcDbLayerTableRecord
  2
119
 70
     0
 62
   119
  6
CONTINUOUS
  0
LAYER
  5
B1
330
2
100
AcDbSymbolTableRecord
100
AcDbLayerTableRecord
  2
120
 70
     0
 62
   120
  6
CONTINUOUS
  0
LAYER
  5
B2
330
2
100
AcDbSymbolTableRecord
100
AcDbLayerTableRecord
  2
121
 70
     0
 62
   121
  6
CONTINUOUS
  0
LAYER
  5
B3
330
2
100
AcDbSymbolTableRecord
100
AcDbLayerTableRecord
  2
122
 70
     0
 62
   122
  6
CONTINUOUS
  0
LAYER
  5
B4
330
2
100
AcDbSymbolTableRecord
100
AcDbLayerTableRecord
  2
123
 70
     0
 62
   123
  6
CONTINUOUS
  0
LAYER
  5
B5
330
2
100
AcDbSymbolTableRecord
100
AcDbLayerTableRecord
  2
124
 70
     0
 62
   124
  6
CONTINUOUS
  0
LAYER
  5
B6
330
2
100
AcDbSymbolTableRecord
100
AcDbLayerTableRecord
  2
125
 70
     0
 62
   125
  6
CONTINUOUS
  0
LAYER
  5
B7
330
2
100
AcDbSymbolTableRecord
100
AcDbLayerTableRecord
  2
126
 70
     0
 62
   126
  6
CONTINUOUS
  0
LAYER
  5
B8
330
2
100
AcDbSymbolTableRecord
100
AcDbLayerTableRecord
  2
127
 70
     0
 62
   127
  6
CONTINUOUS
  0
LAYER
  5
B9
330
2
100
AcDbSymbolTableRecord
100
AcDbLayerTableRecord
  2
128
 70
     0
 62
   128
  6
CONTINUOUS
  0
LAYER
  5
BA
330
2
100
AcDbSymbolTableRecord
100
AcDbLayerTableRecord
  2
129
 70
     0
 62
   129
  6
CONTINUOUS
  0
LAYER
  5
BB
330
2
100
AcDbSymbolTableRecord
100
AcDbLayerTableRecord
  2
130
 70
     0
 62
   130
  6
CONTINUOUS
  0
LAYER
  5
BC
330
2
100
AcDbSymbolTableRecord
100
AcDbLayerTableRecord
  2
131
 70
     0
 62
   131
  6
CONTINUOUS
  0
LAYER
  5
BD
330
2
100
AcDbSymbolTableRecord
100
AcDbLayerTableRecord
  2
132
 70
     0
 62
   132
  6
CONTINUOUS
  0
LAYER
  5
BE
330
2
100
AcDbSymbolTableRecord
100
AcDbLayerTableRecord
  2
133
 70
     0
 62
   133
  6
CONTINUOUS
  0
LAYER
  5
BF
330
2
100
AcDbSymbolTableRecord
100
AcDbLayerTableRecord
  2
134
 70
     0
 62
   134
  6
CONTINUOUS
  0
LAYER
  5
C0
330
2
100
AcDbSymbolTableRecord
100
AcDbLayerTableRecord
  2
135
 70
     0
 62
   135
  6
CONTINUOUS
  0
LAYER
  5
C1
330
2
100
AcDbSymbolTableRecord
100
AcDbLayerTableRecord
  2
136
 70
     0
 62
   136
  6
CONTINUOUS
  0
LAYER
  5
C2
330
2
100
AcDbSymbolTableRecord
100
AcDbLayerTableRecord
  2
137
 70
     0
 62
   137
  6
CONTINUOUS
  0
LAYER
  5
C3
330
2
100
AcDbSymbolTableRecord
100
AcDbLayerTableRecord
  2
138
 70
     0
 62
   138
  6
CONTINUOUS
  0
LAYER
  5
C4
330
2
100
AcDbSymbolTableRecord
100
AcDbLayerTableRecord
  2
139
 70
     0
 62
   139
  6
CONTINUOUS
  0
LAYER
  5
C5
330
2
100
AcDbSymbolTableRecord
100
AcDbLayerTableRecord
  2
140
 70
     0
 62
   140
  6
CONTINUOUS
  0
LAYER
  5
C6
330
2
100
AcDbSymbolTableRecord
100
AcDbLayerTableRecord
  2
141
 70
     0
 62
   141
  6
CONTINUOUS
  0
LAYER
  5
C7
330
2
100
AcDbSymbolTableRecord
100
AcDbLayerTableRecord
  2
142
 70
     0
 62
   142
  6
CONTINUOUS
  0
LAYER
  5
C8
330
2
100
AcDbSymbolTableRecord
100
AcDbLayerTableRecord
  2
143
 70
     0
 62
   143
  6
CONTINUOUS
  0
LAYER
  5
C9
330
2
100
AcDbSymbolTableRecord
100
AcDbLayerTableRecord
  2
144
 70
     0
 62
   144
  6
CONTINUOUS
  0
LAYER
  5
CA
330
2
100
AcDbSymbolTableRecord
100
AcDbLayerTableRecord
  2
145
 70
     0
 62
   145
  6
CONTINUOUS
  0
LAYER
  5
CB
330
2
100
AcDbSymbolTableRecord
100
AcDbLayerTableRecord
  2
146
 70
     0
 62
   146
  6
CONTINUOUS
  0
LAYER
  5
CC
330
2
100
AcDbSymbolTableRecord
100
AcDbLayerTableRecord
  2
147
 70
     0
 62
   147
  6
CONTINUOUS
  0
LAYER
  5
CD
330
2
100
AcDbSymbolTableRecord
100
AcDbLayerTableRecord
  2
148
 70
     0
 62
   148
  6
CONTINUOUS
  0
LAYER
  5
CE
330
2
100
AcDbSymbolTableRecord
100
AcDbLayerTableRecord
  2
149
 70
     0
 62
   149
  6
CONTINUOUS
  0
LAYER
  5
CF
330
2
100
AcDbSymbolTableRecord
100
AcDbLayerTableRecord
  2
150
 70
     0
 62
   150
  6
CONTINUOUS
  0
LAYER
  5
D0
330
2
100
AcDbSymbolTableRecord
100
AcDbLayerTableRecord
  2
151
 70
     0
 62
   151
  6
CONTINUOUS
  0
LAYER
  5
D1
330
2
100
AcDbSymbolTableRecord
100
AcDbLayerTableRecord
  2
152
 70
     0
 62
   152
  6
CONTINUOUS
  0
LAYER
  5
D2
330
2
100
AcDbSymbolTableRecord
100
AcDbLayerTableRecord
  2
153
 70
     0
 62
   153
  6
CONTINUOUS
  0
LAYER
  5
D3
330
2
100
AcDbSymbolTableRecord
100
AcDbLayerTableRecord
  2
154
 70
     0
 62
   154
  6
CONTINUOUS
  0
LAYER
  5
D4
330
2
100
AcDbSymbolTableRecord
100
AcDbLayerTableRecord
  2
155
 70
     0
 62
   155
  6
CONTINUOUS
  0
LAYER
  5
D5
330
2
100
AcDbSymbolTableRecord
100
AcDbLayerTableRecord
  2
156
 70
     0
 62
   156
  6
CONTINUOUS
  0
LAYER
  5
D6
330
2
100
AcDbSymbolTableRecord
100
AcDbLayerTableRecord
  2
157
 70
     0
 62
   157
  6
CONTINUOUS
  0
LAYER
  5
D7
330
2
100
AcDbSymbolTableRecord
100
AcDbLayerTableRecord
  2
158
 70
     0
 62
   158
  6
CONTINUOUS
  0
LAYER
  5
D8
330
2
100
AcDbSymbolTableRecord
100
AcDbLayerTableRecord
  2
159
 70
     0
 62
   159
  6
CONTINUOUS
  0
LAYER
  5
D9
330
2
100
AcDbSymbolTableRecord
100
AcDbLayerTableRecord
  2
160
 70
     0
 62
   160
  6
CONTINUOUS
  0
LAYER
  5
DA
330
2
100
AcDbSymbolTableRecord
100
AcDbLayerTableRecord
  2
161
 70
     0
 62
   161
  6
CONTINUOUS
  0
LAYER
  5
DB
330
2
100
AcDbSymbolTableRecord
100
AcDbLayerTableRecord
  2
162
 70
     0
 62
   162
  6
CONTINUOUS
  0
LAYER
  5
DC
330
2
100
AcDbSymbolTableRecord
100
AcDbLayerTableRecord
  2
163
 70
     0
 62
   163
  6
CONTINUOUS
  0
LAYER
  5
DD
330
2
100
AcDbSymbolTableRecord
100
AcDbLayerTableRecord
  2
164
 70
     0
 62
   164
  6
CONTINUOUS
  0
LAYER
  5
DE
330
2
100
AcDbSymbolTableRecord
100
AcDbLayerTableRecord
  2
165
 70
     0
 62
   165
  6
CONTINUOUS
  0
LAYER
  5
DF
330
2
100
AcDbSymbolTableRecord
100
AcDbLayerTableRecord
  2
166
 70
     0
 62
   166
  6
CONTINUOUS
  0
LAYER
  5
E0
330
2
100
AcDbSymbolTableRecord
100
AcDbLayerTableRecord
  2
167
 70
     0
 62
   167
  6
CONTINUOUS
  0
LAYER
  5
E1
330
2
100
AcDbSymbolTableRecord
100
AcDbLayerTableRecord
  2
168
 70
     0
 62
   168
  6
CONTINUOUS
  0
LAYER
  5
E2
330
2
100
AcDbSymbolTableRecord
100
AcDbLayerTableRecord
  2
169
 70
     0
 62
   169
  6
CONTINUOUS
  0
LAYER
  5
E3
330
2
100
AcDbSymbolTableRecord
100
AcDbLayerTableRecord
  2
170
 70
     0
 62
   170
  6
CONTINUOUS
  0
LAYER
  5
E4
330
2
100
AcDbSymbolTableRecord
100
AcDbLayerTableRecord
  2
171
 70
     0
 62
   171
  6
CONTINUOUS
  0
LAYER
  5
E5
330
2
100
AcDbSymbolTableRecord
100
AcDbLayerTableRecord
  2
172
 70
     0
 62
   172
  6
CONTINUOUS
  0
LAYER
  5
E6
330
2
100
AcDbSymbolTableRecord
100
AcDbLayerTableRecord
  2
173
 70
     0
 62
   173
  6
CONTINUOUS
  0
LAYER
  5
E7
330
2
100
AcDbSymbolTableRecord
100
AcDbLayerTableRecord
  2
174
 70
     0
 62
   174
  6
CONTINUOUS
  0
LAYER
  5
E8
330
2
100
AcDbSymbolTableRecord
100
AcDbLayerTableRecord
  2
175
 70
     0
 62
   175
  6
CONTINUOUS
  0
LAYER
  5
E9
330
2
100
AcDbSymbolTableRecord
100
AcDbLayerTableRecord
  2
176
 70
     0
 62
   176
  6
CONTINUOUS
  0
LAYER
  5
EA
330
2
100
AcDbSymbolTableRecord
100
AcDbLayerTableRecord
  2
177
 70
     0
 62
   177
  6
CONTINUOUS
  0
LAYER
  5
EB
330
2
100
AcDbSymbolTableRecord
100
AcDbLayerTableRecord
  2
178
 70
     0
 62
   178
  6
CONTINUOUS
  0
LAYER
  5
EC
330
2
100
AcDbSymbolTableRecord
100
AcDbLayerTableRecord
  2
179
 70
     0
 62
   179
  6
CONTINUOUS
  0
LAYER
  5
ED
330
2
100
AcDbSymbolTableRecord
100
AcDbLayerTableRecord
  2
180
 70
     0
 62
   180
  6
CONTINUOUS
  0
LAYER
  5
EE
330
2
100
AcDbSymbolTableRecord
100
AcDbLayerTableRecord
  2
181
 70
     0
 62
   181
  6
CONTINUOUS
  0
LAYER
  5
EF
330
2
100
AcDbSymbolTableRecord
100
AcDbLayerTableRecord
  2
182
 70
     0
 62
   182
  6
CONTINUOUS
  0
LAYER
  5
F0
330
2
100
AcDbSymbolTableRecord
100
AcDbLayerTableRecord
  2
183
 70
     0
 62
   183
  6
CONTINUOUS
  0
LAYER
  5
F1
330
2
100
AcDbSymbolTableRecord
100
AcDbLayerTableRecord
  2
184
 70
     0
 62
   184
  6
CONTINUOUS
  0
LAYER
  5
F2
330
2
100
AcDbSymbolTableRecord
100
AcDbLayerTableRecord
  2
185
 70
     0
 62
   185
  6
CONTINUOUS
  0
LAYER
  5
F3
330
2
100
AcDbSymbolTableRecord
100
AcDbLayerTableRecord
  2
186
 70
     0
 62
   186
  6
CONTINUOUS
  0
LAYER
  5
F4
330
2
100
AcDbSymbolTableRecord
100
AcDbLayerTableRecord
  2
187
 70
     0
 62
   187
  6
CONTINUOUS
  0
LAYER
  5
F5
330
2
100
AcDbSymbolTableRecord
100
AcDbLayerTableRecord
  2
188
 70
     0
 62
   188
  6
CONTINUOUS
  0
LAYER
  5
F6
330
2
100
AcDbSymbolTableRecord
100
AcDbLayerTableRecord
  2
189
 70
     0
 62
   189
  6
CONTINUOUS
  0
LAYER
  5
F7
330
2
100
AcDbSymbolTableRecord
100
AcDbLayerTableRecord
  2
190
 70
     0
 62
   190
  6
CONTINUOUS
  0
LAYER
  5
F8
330
2
100
AcDbSymbolTableRecord
100
AcDbLayerTableRecord
  2
191
 70
     0
 62
   191
  6
CONTINUOUS
  0
LAYER
  5
F9
330
2
100
AcDbSymbolTableRecord
100
AcDbLayerTableRecord
  2
192
 70
     0
 62
   192
  6
CONTINUOUS
  0
LAYER
  5
FA
330
2
100
AcDbSymbolTableRecord
100
AcDbLayerTableRecord
  2
193
 70
     0
 62
   193
  6
CONTINUOUS
  0
LAYER
  5
FB
330
2
100
AcDbSymbolTableRecord
100
AcDbLayerTableRecord
  2
194
 70
     0
 62
   194
  6
CONTINUOUS
  0
LAYER
  5
FC
330
2
100
AcDbSymbolTableRecord
100
AcDbLayerTableRecord
  2
195
 70
     0
 62
   195
  6
CONTINUOUS
  0
LAYER
  5
FD
330
2
100
AcDbSymbolTableRecord
100
AcDbLayerTableRecord
  2
196
 70
     0
 62
   196
  6
CONTINUOUS
  0
LAYER
  5
FE
330
2
100
AcDbSymbolTableRecord
100
AcDbLayerTableRecord
  2
197
 70
     0
 62
   197
  6
CONTINUOUS
  0
LAYER
  5
FF
330
2
100
AcDbSymbolTableRecord
100
AcDbLayerTableRecord
  2
198
 70
     0
 62
   198
  6
CONTINUOUS
  0
LAYER
  5
100
330
2
100
AcDbSymbolTableRecord
100
AcDbLayerTableRecord
  2
199
 70
     0
 62
   199
  6
CONTINUOUS
  0
LAYER
  5
101
330
2
100
AcDbSymbolTableRecord
100
AcDbLayerTableRecord
  2
200
 70
     0
 62
   200
  6
CONTINUOUS
  0
LAYER
  5
102
330
2
100
AcDbSymbolTableRecord
100
AcDbLayerTableRecord
  2
201
 70
     0
 62
   201
  6
CONTINUOUS
  0
LAYER
  5
103
330
2
100
AcDbSymbolTableRecord
100
AcDbLayerTableRecord
  2
202
 70
     0
 62
   202
  6
CONTINUOUS
  0
LAYER
  5
104
330
2
100
AcDbSymbolTableRecord
100
AcDbLayerTableRecord
  2
203
 70
     0
 62
   203
  6
CONTINUOUS
  0
LAYER
  5
105
330
2
100
AcDbSymbolTableRecord
100
AcDbLayerTableRecord
  2
204
 70
     0
 62
   204
  6
CONTINUOUS
  0
LAYER
  5
106
330
2
100
AcDbSymbolTableRecord
100
AcDbLayerTableRecord
  2
205
 70
     0
 62
   205
  6
CONTINUOUS
  0
LAYER
  5
107
330
2
100
AcDbSymbolTableRecord
100
AcDbLayerTableRecord
  2
206
 70
     0
 62
   206
  6
CONTINUOUS
  0
LAYER
  5
108
330
2
100
AcDbSymbolTableRecord
100
AcDbLayerTableRecord
  2
207
 70
     0
 62
   207
  6
CONTINUOUS
  0
LAYER
  5
109
330
2
100
AcDbSymbolTableRecord
100
AcDbLayerTableRecord
  2
208
 70
     0
 62
   208
  6
CONTINUOUS
  0
LAYER
  5
10A
330
2
100
AcDbSymbolTableRecord
100
AcDbLayerTableRecord
  2
209
 70
     0
 62
   209
  6
CONTINUOUS
  0
LAYER
  5
10B
330
2
100
AcDbSymbolTableRecord
100
AcDbLayerTableRecord
  2
210
 70
     0
 62
   210
  6
CONTINUOUS
  0
LAYER
  5
10C
330
2
100
AcDbSymbolTableRecord
100
AcDbLayerTableRecord
  2
211
 70
     0
 62
   211
  6
CONTINUOUS
  0
LAYER
  5
10D
330
2
100
AcDbSymbolTableRecord
100
AcDbLayerTableRecord
  2
212
 70
     0
 62
   212
  6
CONTINUOUS
  0
LAYER
  5
10E
330
2
100
AcDbSymbolTableRecord
100
AcDbLayerTableRecord
  2
213
 70
     0
 62
   213
  6
CONTINUOUS
  0
LAYER
  5
10F
330
2
100
AcDbSymbolTableRecord
100
AcDbLayerTableRecord
  2
214
 70
     0
 62
   214
  6
CONTINUOUS
  0
LAYER
  5
110
330
2
100
AcDbSymbolTableRecord
100
AcDbLayerTableRecord
  2
215
 70
     0
 62
   215
  6
CONTINUOUS
  0
LAYER
  5
111
330
2
100
AcDbSymbolTableRecord
100
AcDbLayerTableRecord
  2
216
 70
     0
 62
   216
  6
CONTINUOUS
  0
LAYER
  5
112
330
2
100
AcDbSymbolTableRecord
100
AcDbLayerTableRecord
  2
217
 70
     0
 62
   217
  6
CONTINUOUS
  0
LAYER
  5
113
330
2
100
AcDbSymbolTableRecord
100
AcDbLayerTableRecord
  2
218
 70
     0
 62
   218
  6
CONTINUOUS
  0
LAYER
  5
114
330
2
100
AcDbSymbolTableRecord
100
AcDbLayerTableRecord
  2
219
 70
     0
 62
   219
  6
CONTINUOUS
  0
LAYER
  5
115
330
2
100
AcDbSymbolTableRecord
100
AcDbLayerTableRecord
  2
220
 70
     0
 62
   220
  6
CONTINUOUS
  0
LAYER
  5
116
330
2
100
AcDbSymbolTableRecord
100
AcDbLayerTableRecord
  2
221
 70
     0
 62
   221
  6
CONTINUOUS
  0
LAYER
  5
117
330
2
100
AcDbSymbolTableRecord
100
AcDbLayerTableRecord
  2
222
 70
     0
 62
   222
  6
CONTINUOUS
  0
LAYER
  5
118
330
2
100
AcDbSymbolTableRecord
100
AcDbLayerTableRecord
  2
223
 70
     0
 62
   223
  6
CONTINUOUS
  0
LAYER
  5
119
330
2
100
AcDbSymbolTableRecord
100
AcDbLayerTableRecord
  2
224
 70
     0
 62
   224
  6
CONTINUOUS
  0
LAYER
  5
11A
330
2
100
AcDbSymbolTableRecord
100
AcDbLayerTableRecord
  2
225
 70
     0
 62
   225
  6
CONTINUOUS
  0
LAYER
  5
11B
330
2
100
AcDbSymbolTableRecord
100
AcDbLayerTableRecord
  2
226
 70
     0
 62
   226
  6
CONTINUOUS
  0
LAYER
  5
11C
330
2
100
AcDbSymbolTableRecord
100
AcDbLayerTableRecord
  2
227
 70
     0
 62
   227
  6
CONTINUOUS
  0
LAYER
  5
11D
330
2
100
AcDbSymbolTableRecord
100
AcDbLayerTableRecord
  2
228
 70
     0
 62
   228
  6
CONTINUOUS
  0
LAYER
  5
11E
330
2
100
AcDbSymbolTableRecord
100
AcDbLayerTableRecord
  2
229
 70
     0
 62
   229
  6
CONTINUOUS
  0
LAYER
  5
11F
330
2
100
AcDbSymbolTableRecord
100
AcDbLayerTableRecord
  2
230
 70
     0
 62
   230
  6
CONTINUOUS
  0
LAYER
  5
120
330
2
100
AcDbSymbolTableRecord
100
AcDbLayerTableRecord
  2
231
 70
     0
 62
   231
  6
CONTINUOUS
  0
LAYER
  5
121
330
2
100
AcDbSymbolTableRecord
100
AcDbLayerTableRecord
  2
232
 70
     0
 62
   232
  6
CONTINUOUS
  0
LAYER
  5
122
330
2
100
AcDbSymbolTableRecord
100
AcDbLayerTableRecord
  2
233
 70
     0
 62
   233
  6
CONTINUOUS
  0
LAYER
  5
123
330
2
100
AcDbSymbolTableRecord
100
AcDbLayerTableRecord
  2
234
 70
     0
 62
   234
  6
CONTINUOUS
  0
LAYER
  5
124
330
2
100
AcDbSymbolTableRecord
100
AcDbLayerTableRecord
  2
235
 70
     0
 62
   235
  6
CONTINUOUS
  0
LAYER
  5
125
330
2
100
AcDbSymbolTableRecord
100
AcDbLayerTableRecord
  2
236
 70
     0
 62
   236
  6
CONTINUOUS
  0
LAYER
  5
126
330
2
100
AcDbSymbolTableRecord
100
AcDbLayerTableRecord
  2
237
 70
     0
 62
   237
  6
CONTINUOUS
  0
LAYER
  5
127
330
2
100
AcDbSymbolTableRecord
100
AcDbLayerTableRecord
  2
238
 70
     0
 62
   238
  6
CONTINUOUS
  0
LAYER
  5
128
330
2
100
AcDbSymbolTableRecord
100
AcDbLayerTableRecord
  2
239
 70
     0
 62
   239
  6
CONTINUOUS
  0
LAYER
  5
129
330
2
100
AcDbSymbolTableRecord
100
AcDbLayerTableRecord
  2
240
 70
     0
 62
   240
  6
CONTINUOUS
  0
LAYER
  5
12A
330
2
100
AcDbSymbolTableRecord
100
AcDbLayerTableRecord
  2
241
 70
     0
 62
   241
  6
CONTINUOUS
  0
LAYER
  5
12B
330
2
100
AcDbSymbolTableRecord
100
AcDbLayerTableRecord
  2
242
 70
     0
 62
   242
  6
CONTINUOUS
  0
LAYER
  5
12C
330
2
100
AcDbSymbolTableRecord
100
AcDbLayerTableRecord
  2
243
 70
     0
 62
   243
  6
CONTINUOUS
  0
LAYER
  5
12D
330
2
100
AcDbSymbolTableRecord
100
AcDbLayerTableRecord
  2
244
 70
     0
 62
   244
  6
CONTINUOUS
  0
LAYER
  5
12E
330
2
100
AcDbSymbolTableRecord
100
AcDbLayerTableRecord
  2
245
 70
     0
 62
   245
  6
CONTINUOUS
  0
LAYER
  5
12F
330
2
100
AcDbSymbolTableRecord
100
AcDbLayerTableRecord
  2
246
 70
     0
 62
   246
  6
CONTINUOUS
  0
LAYER
  5
130
330
2
100
AcDbSymbolTableRecord
100
AcDbLayerTableRecord
  2
247
 70
     0
 62
   247
  6
CONTINUOUS
  0
LAYER
  5
131
330
2
100
AcDbSymbolTableRecord
100
AcDbLayerTableRecord
  2
248
 70
     0
 62
   248
  6
CONTINUOUS
  0
LAYER
  5
132
330
2
100
AcDbSymbolTableRecord
100
AcDbLayerTableRecord
  2
249
 70
     0
 62
   249
  6
CONTINUOUS
  0
LAYER
  5
133
330
2
100
AcDbSymbolTableRecord
100
AcDbLayerTableRecord
  2
250
 70
     0
 62
   250
  6
CONTINUOUS
  0
LAYER
  5
134
330
2
100
AcDbSymbolTableRecord
100
AcDbLayerTableRecord
  2
251
 70
     0
 62
   251
  6
CONTINUOUS
  0
LAYER
  5
135
330
2
100
AcDbSymbolTableRecord
100
AcDbLayerTableRecord
  2
252
 70
     0
 62
   252
  6
CONTINUOUS
  0
LAYER
  5
136
330
2
100
AcDbSymbolTableRecord
100
AcDbLayerTableRecord
  2
253
 70
     0
 62
   253
  6
CONTINUOUS
  0
LAYER
  5
137
330
2
100
AcDbSymbolTableRecord
100
AcDbLayerTableRecord
  2
254
 70
     0
 62
   254
  6
CONTINUOUS
  0
LAYER
  5
138
330
2
100
AcDbSymbolTableRecord
100
AcDbLayerTableRecord
  2
255
 70
     0
 62
   255
  6
CONTINUOUS
  0
LAYER
  5
3A93
330
2
100
AcDbSymbolTableRecord
100
AcDbLayerTableRecord
  2
DEFPOINTS
 70
     0
 62
     7
  6
CONTINUOUS
  0
ENDTAB
  0
TABLE
  2
STYLE
  5
3
330
0
100
AcDbSymbolTable
 70
     1
  0
STYLE
  5
11
330
3
100
AcDbSymbolTableRecord
100
AcDbTextStyleTableRecord
  2
STANDARD
 70
     0
 40
0.0
 41
1.0
 50
0.0
 71
     0
 42
0.2
  3
monotxt
  4

  0
ENDTAB
  0
TABLE
  2
VIEW
  5
6
330
0
100
AcDbSymbolTable
 70
     0
  0
ENDTAB
  0
TABLE
  2
UCS
  5
7
330
0
100
AcDbSymbolTable
 70
     0
  0
ENDTAB
  0
TABLE
  2
APPID
  5
9
330
0
100
AcDbSymbolTable
 70
     1
  0
APPID
  5
12
330
9
100
AcDbSymbolTableRecord
100
AcDbRegAppTableRecord
  2
ACAD
 70
     0
  0
ENDTAB
  0
TABLE
  2
DIMSTYLE
  5
A
330
0
100
AcDbSymbolTable
 70
     1
  0
DIMSTYLE
105
272A
102
{ACAD_REACTORS
330
3A92
102
}
330
A
100
AcDbSymbolTableRecord
100
AcDbDimStyleTableRecord
  2
STANDARD
 70
     0
  3

  4

  5

  6

  7

 40
1.0
 41
0.18
 42
0.0625
 43
0.38
 44
0.18
 45
0.0
 46
0.0
 47
0.0
 48
0.0
140
0.18
141
0.09
142
0.0
143
25.4
144
1.0
145
0.0
146
1.0
147
0.09
 71
     0
 72
     0
 73
     1
 74
     1
 75
     0
 76
     0
 77
     0
 78
     0
170
     0
171
     2
172
     0
173
     0
174
     0
175
     0
176
     0
177
     0
178
     0
270
     2
271
     4
272
     4
273
     2
274
     2
340
11
275
     0
280
     0
281
     0
282
     0
283
     1
284
     0
285
     0
286
     0
287
     3
288
     0
  0
ENDTAB
  0
TABLE
  2
BLOCK_RECORD
  5
1
330
0
100
AcDbSymbolTable
 70
     1
  0
BLOCK_RECORD
  5
1E
102
{ACAD_XDICTIONARY
360
3A5C
102
}
330
1
100
AcDbSymbolTableRecord
100
AcDbBlockTableRecord
  2
*MODEL_SPACE
  0
BLOCK_RECORD
  5
1A
102
{ACAD_XDICTIONARY
360
3A5E
102
}
330
1
100
AcDbSymbolTableRecord
100
AcDbBlockTableRecord
  2
*PAPER_SPACE
  0
BLOCK_RECORD
  5
3A94
330
1
100
AcDbSymbolTableRecord
100
AcDbBlockTableRecord
  2
*D0
  0
ENDTAB
  0
ENDSEC
  0
SECTION
  2
BLOCKS
  0
BLOCK
  5
13B
330
1E
100
AcDbEntity
  8
0
100
AcDbBlockBegin
  2
*MODEL_SPACE
 70
     0
 10
0.0
 20
0.0
 30
0.0
  3
*MODEL_SPACE
  1

  0
ENDBLK
  5
13C
330
1E
100
AcDbEntity
  8
0
100
AcDbBlockEnd
  0
BLOCK
  5
139
330
1A
100
AcDbEntity
 67
     1
  8
0
100
AcDbBlockBegin
  2
*PAPER_SPACE
 70
     0
 10
0.0
 20
0.0
 30
0.0
  3
*PAPER_SPACE
  1

  0
ENDBLK
  5
13A
330
1A
100
AcDbEntity
 67
     1
  8
0
100
AcDbBlockEnd
  0
BLOCK
  5
3A9F
330
3A94
100
AcDbEntity
  8
0
100
AcDbBlockBegin
  2
*D0
 70
     1
 10
0.0
 20
0.0
 30
0.0
  3
*D0
  1

  0
LINE
  5
3AA1
330
3A94
100
AcDbEntity
  8
0
 62
     0
100
AcDbLine
 10
0.9503882612811676
 20
8.242345005235602
 30
0.0
 11
0.9503882612811677
 21
9.32301397711933
 31
0.0
  0
LINE
  5
3AA2
330
3A94
100
AcDbEntity
  8
0
 62
     0
100
AcDbLine
 10
5.450393153013452
 20
8.242345005235602
 30
0.0
 11
5.450393153013452
 21
9.32301397711933
 31
0.0
  0
LINE
  5
3AA3
330
3A94
100
AcDbEntity
  8
0
 62
     0
100
AcDbLine
 10
1.130388261281167
 20
9.143013977119331
 30
0.0
 11
2.60039070714731
 21
9.143013977119331
 31
0.0
  0
LINE
  5
3AA4
330
3A94
100
AcDbEntity
  8
0
 62
     0
100
AcDbLine
 10
5.270393153013452
 20
9.143013977119331
 30
0.0
 11
3.80039070714731
 21
9.143013977119331
 31
0.0
  0
SOLID
  5
3AA5
330
3A94
100
AcDbEntity
  8
0
 62
     0
100
AcDbTrace
 10
1.130388261281167
 20
9.17301397711933
 30
0.0
 11
1.130388261281167
 21
9.113013977119331
 31
0.0
 12
0.9503882612811677
 22
9.143013977119331
 32
0.0
 13
0.9503882612811677
 23
9.143013977119331
 33
0.0
  0
SOLID
  5
3AA6
330
3A94
100
AcDbEntity
  8
0
 62
     0
100
AcDbTrace
 10
5.270393153013452
 20
9.17301397711933
 30
0.0
 11
5.270393153013452
 21
9.113013977119331
 31
0.0
 12
5.450393153013452
 22
9.143013977119331
 32
0.0
 13
5.450393153013452
 23
9.143013977119331
 33
0.0
  0
MTEXT
  5
3AA7
330
3A94
100
AcDbEntity
  8
0
 62
     0
100
AcDbMText
 10
3.20039070714731
 20
9.143013977119331
 30
0.0
 40
0.18
 41
0.0
 71
     5
 72
     1
  1
\A1;4.5000
1001
ACAD
1000
MTEXTBEGIN
1070
    73
1070
     1
1070
    44
1040
1.0
1070
    74
1070
     0
1000
MTEXTEND
  0
POINT
  5
3AA8
330
3A94
100
AcDbEntity
  8
DEFPOINTS
 62
     0
100
AcDbPoint
 10
0.9503882612811676
 20
8.179845005235602
 30
0.0
  0
POINT
  5
3AA9
330
3A94
100
AcDbEntity
  8
DEFPOINTS
 62
     0
100
AcDbPoint
 10
5.450393153013452
 20
8.179845005235602
 30
0.0
  0
POINT
  5
3AAA
330
3A94
100
AcDbEntity
  8
DEFPOINTS
 62
     0
100
AcDbPoint
 10
5.450393153013452
 20
9.143013977119331
 30
0.0
  0
ENDBLK
  5
3AA0
330
3A94
100
AcDbEntity
  8
0
100
AcDbBlockEnd
  0
ENDSEC
  0
SECTION
  2
ENTITIES
  0
LINE
  5
2484
330
1E
100
AcDbEntity
  8
7
100
AcDbLine
 10
2.837010800651246
 20
5.69770595996001
 30
0.0
 11
2.837010800651246
 21
6.189868361534812
 31
0.0
  0
LINE
  5
248A
330
1E
100
AcDbEntity
  8
7
100
AcDbLine
 10
2.850135131359908
 20
5.840433056416701
 30
0.0
 11
2.838651341989829
 21
5.817465477676544
 31
0.0
  0
LINE
  5
248B
330
1E
100
AcDbEntity
  8
7
100
AcDbLine
 10
2.850135131359908
 20
6.047141265078119
 30
0.0
 11
2.850135131359908
 21
5.840433056416701
 31
0.0
  0
LINE
  5
248C
330
1E
100
AcDbEntity
  8
7
100
AcDbLine
 10
2.838651341989829
 20
6.071749385156859
 30
0.0
 11
2.850135131359908
 21
6.047141265078119
 31
0.0
  0
LINE
  5
248D
330
1E
100
AcDbEntity
  8
7
100
AcDbLine
 10
2.838651341989829
 20
6.071749385156859
 30
0.0
 11
2.838651341989829
 21
6.18822782019623
 31
0.0
  0
LINE
  5
248E
330
1E
100
AcDbEntity
  8
7
100
AcDbLine
 10
2.837010800651246
 20
6.189868361534812
 30
0.0
 11
2.838651341989829
 21
6.18822782019623
 31
0.0
  0
LINE
  5
248F
330
1E
100
AcDbEntity
  8
7
100
AcDbLine
 10
3.563770613643372
 20
5.856838469802529
 30
0.0
 11
3.563770613643372
 21
5.632084306416701
 31
0.0
  0
LINE
  5
2490
330
1E
100
AcDbEntity
  8
7
100
AcDbLine
 10
3.563770613643372
 20
5.630443765078119
 30
0.0
 11
3.563770613643372
 21
5.632084306416701
 31
0.0
  0
LINE
  5
249C
330
1E
100
AcDbEntity
  8
7
100
AcDbLine
 10
2.876383792777231
 20
6.045500723739537
 30
0.0
 11
2.864900003407152
 21
6.045500723739537
 31
0.0
  0
LINE
  5
249D
330
1E
100
AcDbEntity
  8
7
100
AcDbLine
 10
2.912475702226049
 20
6.047141265078119
 30
0.0
 11
2.876383792777231
 21
6.045500723739537
 31
0.0
  0
LINE
  5
249E
330
1E
100
AcDbEntity
  8
7
100
AcDbLine
 10
2.917397326241797
 20
6.047141265078119
 30
0.0
 11
2.912475702226049
 21
6.047141265078119
 31
0.0
  0
LINE
  5
249F
330
1E
100
AcDbEntity
  8
7
100
AcDbLine
 10
2.946927070336285
 20
6.047141265078119
 30
0.0
 11
2.917397326241797
 21
6.047141265078119
 31
0.0
  0
LINE
  5
24A0
330
1E
100
AcDbEntity
  8
7
100
AcDbLine
 10
2.946927070336285
 20
5.840433056416701
 30
0.0
 11
2.917397326241797
 21
5.840433056416701
 31
0.0
  0
LINE
  5
24A1
330
1E
100
AcDbEntity
  8
7
100
AcDbLine
 10
2.912475702226049
 20
5.840433056416701
 30
0.0
 11
2.917397326241797
 21
5.840433056416701
 31
0.0
  0
LINE
  5
24A2
330
1E
100
AcDbEntity
  8
7
100
AcDbLine
 10
2.876383792777231
 20
5.842073597755285
 30
0.0
 11
2.912475702226049
 21
5.840433056416701
 31
0.0
  0
LINE
  5
24A3
330
1E
100
AcDbEntity
  8
7
100
AcDbLine
 10
2.876383792777231
 20
5.842073597755285
 30
0.0
 11
2.864900003407152
 21
5.842073597755285
 31
0.0
  0
LINE
  5
24AA
330
1E
100
AcDbEntity
  8
7
100
AcDbLine
 10
2.876383792777231
 20
5.842073597755285
 30
0.0
 11
2.876383792777231
 21
6.045500723739537
 31
0.0
  0
LINE
  5
24AB
330
1E
100
AcDbEntity
  8
7
100
AcDbLine
 10
2.912475702226049
 20
6.047141265078119
 30
0.0
 11
2.912475702226049
 21
5.840433056416701
 31
0.0
  0
LINE
  5
24AC
330
1E
100
AcDbEntity
  8
7
100
AcDbLine
 10
2.917397326241797
 20
5.840433056416701
 30
0.0
 11
2.917397326241797
 21
6.047141265078119
 31
0.0
  0
LINE
  5
24AD
330
1E
100
AcDbEntity
  8
7
100
AcDbLine
 10
2.946927070336285
 20
5.840433056416701
 30
0.0
 11
2.946927070336285
 21
6.047141265078119
 31
0.0
  0
LINE
  5
24AE
330
1E
100
AcDbEntity
  8
7
100
AcDbLine
 10
3.524397621517388
 20
6.030735851692293
 30
0.0
 11
3.524397621517388
 21
5.856838469802529
 31
0.0
  0
LINE
  5
24AF
330
1E
100
AcDbEntity
  8
7
100
AcDbLine
 10
3.563770613643372
 20
6.030735851692293
 30
0.0
 11
3.524397621517388
 21
6.030735851692293
 31
0.0
  0
LINE
  5
24B0
330
1E
100
AcDbEntity
  8
7
100
AcDbLine
 10
3.563770613643372
 20
5.856838469802529
 30
0.0
 11
3.524397621517388
 21
5.856838469802529
 31
0.0
  0
LINE
  5
24B1
330
1E
100
AcDbEntity
  8
7
100
AcDbLine
 10
3.563770613643372
 20
6.257130556416701
 30
0.0
 11
2.902632454194554
 21
6.257130556416701
 31
0.0
  0
LINE
  5
24B2
330
1E
100
AcDbEntity
  8
7
100
AcDbLine
 10
2.838651341989829
 20
6.18822782019623
 30
0.0
 11
2.902632454194554
 21
6.18822782019623
 31
0.0
  0
LINE
  5
24B3
330
1E
100
AcDbEntity
  8
7
100
AcDbLine
 10
2.902632454194554
 20
6.189868361534812
 30
0.0
 11
2.902632454194554
 21
6.18822782019623
 31
0.0
  0
LINE
  5
24B4
330
1E
100
AcDbEntity
  8
7
100
AcDbLine
 10
2.837010800651246
 20
6.189868361534812
 30
0.0
 11
2.902632454194554
 21
6.189868361534812
 31
0.0
  0
LINE
  5
24B5
330
1E
100
AcDbEntity
  8
7
100
AcDbLine
 10
2.902632454194554
 20
6.257130556416701
 30
0.0
 11
2.902632454194554
 21
6.18822782019623
 31
0.0
  0
LINE
  5
24B6
330
1E
100
AcDbEntity
  8
7
100
AcDbLine
 10
3.563770613643372
 20
6.257130556416701
 30
0.0
 11
2.902632454194554
 21
6.257130556416701
 31
0.0
  0
LINE
  5
24B7
330
1E
100
AcDbEntity
  8
7
100
AcDbLine
 10
2.902632454194554
 20
6.189868361534812
 30
0.0
 11
2.902632454194554
 21
6.257130556416701
 31
0.0
  0
LINE
  5
24B8
330
1E
100
AcDbEntity
  8
7
100
AcDbLine
 10
2.902632454194554
 20
5.699346501298592
 30
0.0
 11
2.902632454194554
 21
5.632084306416701
 31
0.0
  0
LINE
  5
24B9
330
1E
100
AcDbEntity
  8
7
100
AcDbLine
 10
2.902632454194554
 20
5.699346501298592
 30
0.0
 11
2.838651341989829
 21
5.699346501298592
 31
0.0
  0
LINE
  5
24BA
330
1E
100
AcDbEntity
  8
7
100
AcDbLine
 10
2.902632454194554
 20
5.632084306416701
 30
0.0
 11
3.563770613643372
 21
5.632084306416701
 31
0.0
  0
LINE
  5
24C0
330
1E
100
AcDbEntity
  8
7
100
AcDbLine
 10
2.902632454194554
 20
5.69770595996001
 30
0.0
 11
2.902632454194554
 21
5.630443765078119
 31
0.0
  0
LINE
  5
24C1
330
1E
100
AcDbEntity
  8
7
100
AcDbLine
 10
2.902632454194554
 20
5.632084306416701
 30
0.0
 11
2.902632454194554
 21
5.630443765078119
 31
0.0
  0
LINE
  5
24C2
330
1E
100
AcDbEntity
  8
7
100
AcDbLine
 10
3.563770613643372
 20
5.630443765078119
 30
0.0
 11
2.902632454194554
 21
5.630443765078119
 31
0.0
  0
LINE
  5
24DB
330
1E
100
AcDbEntity
  8
7
100
AcDbLine
 10
1.011088290808726
 20
4.569013519015126
 30
0.0
 11
5.391333664824475
 21
4.569013519015126
 31
0.0
  0
LINE
  5
24E2
330
1E
100
AcDbEntity
  8
7
100
AcDbLine
 10
0.9503882612811672
 20
7.259501314290718
 30
0.0
 11
0.9503882612811672
 21
4.628073007204102
 31
0.0
  0
LINE
  5
24E3
330
1E
100
AcDbEntity
  8
7
100
AcDbLine
 10
1.011088290808726
 20
7.318560802479693
 30
0.0
 11
0.9815585467142383
 21
7.310358095786781
 31
0.0
  0
LINE
  5
24E9
330
1E
100
AcDbEntity
  8
7
100
AcDbLine
 10
5.391333664824475
 20
7.318560802479693
 30
0.0
 11
1.011088290808726
 21
7.318560802479693
 31
0.0
  0
LINE
  5
24F0
330
1E
100
AcDbEntity
  8
7
100
AcDbLine
 10
5.450393153013452
 20
4.628073007204102
 30
0.0
 11
5.450393153013452
 21
7.259501314290718
 31
0.0
  0
LINE
  5
259F
330
1E
100
AcDbEntity
  8
7
100
AcDbLine
 10
4.890968556556758
 20
5.8880087552356
 30
0.0
 11
4.912295593958333
 21
5.924100664684418
 31
0.0
  0
LINE
  5
25A5
330
1E
100
AcDbEntity
  8
7
100
AcDbLine
 10
1.50981285773786
 20
5.999565566259222
 30
0.0
 11
1.50981285773786
 21
5.8880087552356
 31
0.0
  0
LINE
  5
25A6
330
1E
100
AcDbEntity
  8
7
100
AcDbLine
 10
1.609885879391404
 20
5.8880087552356
 30
0.0
 11
1.609885879391404
 21
5.999565566259222
 31
0.0
  0
LINE
  5
25A7
330
1E
100
AcDbEntity
  8
7
100
AcDbLine
 10
4.790895534903214
 20
5.999565566259222
 30
0.0
 11
4.790895534903214
 21
5.8880087552356
 31
0.0
  0
LINE
  5
25A8
330
1E
100
AcDbEntity
  8
7
100
AcDbLine
 10
4.890968556556758
 20
5.8880087552356
 30
0.0
 11
4.890968556556758
 21
5.999565566259222
 31
0.0
  0
LINE
  5
26AF
330
1E
100
AcDbEntity
  8
7
100
AcDbLine
 10
5.356882296714238
 20
2.359204335944261
 30
0.0
 11
5.391333664824475
 21
2.359204335944261
 31
0.0
  0
LINE
  5
26D5
330
1E
100
AcDbEntity
  8
7
100
AcDbLine
 10
2.850135131359908
 20
2.075390684369457
 30
0.0
 11
2.84521350734416
 21
2.241085359566307
 31
0.0
  0
LINE
  5
26D6
330
1E
100
AcDbEntity
  8
7
100
AcDbLine
 10
2.610616095926837
 20
2.241085359566307
 30
0.0
 11
3.783603153013451
 21
2.241085359566307
 31
0.0
  0
LINE
  5
26D7
330
1E
100
AcDbEntity
  8
7
100
AcDbLine
 10
2.610616095926837
 20
2.241085359566307
 30
0.0
 11
2.602413389233924
 21
2.241085359566307
 31
0.0
  0
LINE
  5
26D8
330
1E
100
AcDbEntity
  8
7
100
AcDbLine
 10
3.791805859706364
 20
2.241085359566307
 30
0.0
 11
3.783603153013451
 21
2.241085359566307
 31
0.0
  0
LINE
  5
26D9
330
1E
100
AcDbEntity
  8
7
100
AcDbLine
 10
2.782872936478018
 20
1.927741963897016
 30
0.0
 11
2.761545899076443
 21
2.241085359566307
 31
0.0
  0
LINE
  5
26DA
330
1E
100
AcDbEntity
  8
7
100
AcDbLine
 10
3.793446401044947
 20
2.359204335944261
 30
0.0
 11
3.791805859706364
 21
2.241085359566307
 31
0.0
  0
LINE
  5
26DB
330
1E
100
AcDbEntity
  8
7
100
AcDbLine
 10
2.602413389233924
 20
2.241085359566307
 30
0.0
 11
2.600772847895341
 21
2.359204335944261
 31
0.0
  0
LINE
  5
26E2
330
1E
100
AcDbEntity
  8
7
100
AcDbLine
 10
2.833729717974081
 20
1.909696009172607
 30
0.0
 11
2.915756784903215
 21
1.991723076101741
 31
0.0
  0
LINE
  5
26E8
330
1E
100
AcDbEntity
  8
7
100
AcDbLine
 10
2.946927070336285
 20
2.072109601692292
 30
0.0
 11
2.945286528997703
 21
2.054063646967883
 31
0.0
  0
LINE
  5
26E9
330
1E
100
AcDbEntity
  8
7
100
AcDbLine
 10
2.946927070336285
 20
2.072109601692292
 30
0.0
 11
2.917397326241797
 21
2.072109601692292
 31
0.0
  0
LINE
  5
26EA
330
1E
100
AcDbEntity
  8
7
100
AcDbLine
 10
2.912475702226049
 20
2.070469060353709
 30
0.0
 11
2.917397326241797
 21
2.072109601692292
 31
0.0
  0
LINE
  5
26EB
330
1E
100
AcDbEntity
  8
7
100
AcDbLine
 10
2.876383792777231
 20
2.060625812322213
 30
0.0
 11
2.912475702226049
 21
2.070469060353709
 31
0.0
  0
LINE
  5
26EC
330
1E
100
AcDbEntity
  8
7
100
AcDbLine
 10
2.876383792777231
 20
2.060625812322213
 30
0.0
 11
2.864900003407152
 21
2.060625812322213
 31
0.0
  0
LINE
  5
26F2
330
1E
100
AcDbEntity
  8
7
100
AcDbLine
 10
2.732016154981955
 20
2.241085359566307
 30
0.0
 11
2.740218861674868
 21
1.995004158778907
 31
0.0
  0
LINE
  5
26F8
330
1E
100
AcDbEntity
  8
7
100
AcDbLine
 10
2.779591853800853
 20
1.975317662715914
 30
0.0
 11
2.75990535773786
 21
1.975317662715914
 31
0.0
  0
LINE
  5
26F9
330
1E
100
AcDbEntity
  8
7
100
AcDbLine
 10
2.608975554588254
 20
2.359204335944261
 30
0.0
 11
2.610616095926837
 21
2.241085359566307
 31
0.0
  0
LINE
  5
26FA
330
1E
100
AcDbEntity
  8
7
100
AcDbLine
 10
3.783603153013451
 20
2.241085359566307
 30
0.0
 11
3.785243694352034
 21
2.359204335944261
 31
0.0
  0
LINE
  5
26FB
330
1E
100
AcDbEntity
  8
7
100
AcDbLine
 10
1.011088290808726
 20
2.359204335944261
 30
0.0
 11
5.391333664824475
 21
2.359204335944261
 31
0.0
  0
LINE
  5
2734
330
1E
100
AcDbEntity
  8
7
100
AcDbLine
 10
0.9503882612811672
 20
2.359204335944261
 30
0.0
 11
0.955309885296916
 21
2.410061117440324
 31
0.0
  0
LINE
  5
2735
330
1E
100
AcDbEntity
  8
7
100
AcDbLine
 10
0.955309885296916
 20
2.410061117440324
 30
0.0
 11
0.9733558400213247
 21
2.457636816259221
 31
0.0
  0
LINE
  5
2736
330
1E
100
AcDbEntity
  8
7
100
AcDbLine
 10
0.9733558400213247
 20
2.457636816259221
 30
0.0
 11
0.9996045014386476
 21
2.50029089106237
 31
0.0
  0
LINE
  5
2737
330
1E
100
AcDbEntity
  8
7
100
AcDbLine
 10
0.9996045014386476
 20
2.50029089106237
 30
0.0
 11
1.035696410887466
 21
2.534742259172607
 31
0.0
  0
LINE
  5
2738
330
1E
100
AcDbEntity
  8
7
100
AcDbLine
 10
1.035696410887466
 20
2.534742259172607
 30
0.0
 11
1.078350485690616
 21
2.562631461928512
 31
0.0
  0
LINE
  5
2739
330
1E
100
AcDbEntity
  8
7
100
AcDbLine
 10
1.078350485690616
 20
2.562631461928512
 30
0.0
 11
1.125926184509513
 21
2.57903687531434
 31
0.0
  0
LINE
  5
273A
330
1E
100
AcDbEntity
  8
7
100
AcDbLine
 10
1.125926184509513
 20
2.57903687531434
 30
0.0
 11
1.175142424666994
 21
2.583958499330087
 31
0.0
  0
LINE
  5
273B
330
1E
100
AcDbEntity
  8
7
100
AcDbLine
 10
5.276495771123688
 20
2.57903687531434
 30
0.0
 11
5.322430928604003
 21
2.562631461928512
 31
0.0
  0
LINE
  5
273C
330
1E
100
AcDbEntity
  8
7
100
AcDbLine
 10
5.322430928604003
 20
2.562631461928512
 30
0.0
 11
5.365085003407153
 21
2.534742259172607
 31
0.0
  0
LINE
  5
273D
330
1E
100
AcDbEntity
  8
7
100
AcDbLine
 10
5.365085003407153
 20
2.534742259172607
 30
0.0
 11
5.401176912855971
 21
2.50029089106237
 31
0.0
  0
LINE
  5
273E
330
1E
100
AcDbEntity
  8
7
100
AcDbLine
 10
5.401176912855971
 20
2.50029089106237
 30
0.0
 11
5.429066115611876
 21
2.457636816259221
 31
0.0
  0
LINE
  5
273F
330
1E
100
AcDbEntity
  8
7
100
AcDbLine
 10
5.429066115611876
 20
2.457636816259221
 30
0.0
 11
5.445471528997703
 21
2.410061117440324
 31
0.0
  0
LINE
  5
2740
330
1E
100
AcDbEntity
  8
7
100
AcDbLine
 10
5.445471528997703
 20
2.410061117440324
 30
0.0
 11
5.450393153013452
 21
2.359204335944261
 31
0.0
  0
LINE
  5
2741
330
1E
100
AcDbEntity
  8
7
100
AcDbLine
 10
1.175142424666994
 20
2.583958499330087
 30
0.0
 11
5.225638989627624
 21
2.583958499330087
 31
0.0
  0
LINE
  5
2742
330
1E
100
AcDbEntity
  8
7
100
AcDbLine
 10
5.225638989627624
 20
2.583958499330087
 30
0.0
 11
5.276495771123688
 21
2.57903687531434
 31
0.0
  0
LINE
  5
2743
330
1E
100
AcDbEntity
  8
7
100
AcDbLine
 10
5.450393153013452
 20
2.359204335944261
 30
0.0
 11
5.442190446320537
 21
2.359204335944261
 31
0.0
  0
LINE
  5
2744
330
1E
100
AcDbEntity
  8
7
100
AcDbLine
 10
5.442190446320537
 20
2.359204335944261
 30
0.0
 11
5.420863408918963
 21
2.359204335944261
 31
0.0
  0
LINE
  5
2745
330
1E
100
AcDbEntity
  8
7
100
AcDbLine
 10
5.420863408918963
 20
2.359204335944261
 30
0.0
 11
5.391333664824475
 21
2.359204335944261
 31
0.0
  0
LINE
  5
2746
330
1E
100
AcDbEntity
  8
7
100
AcDbLine
 10
1.011088290808726
 20
2.359204335944261
 30
0.0
 11
0.9799180053756554
 21
2.359204335944261
 31
0.0
  0
LINE
  5
2747
330
1E
100
AcDbEntity
  8
7
100
AcDbLine
 10
0.9799180053756554
 20
2.359204335944261
 30
0.0
 11
0.9585909679740808
 21
2.359204335944261
 31
0.0
  0
LINE
  5
2748
330
1E
100
AcDbEntity
  8
7
100
AcDbLine
 10
0.9585909679740808
 20
2.359204335944261
 30
0.0
 11
0.9503882612811672
 21
2.359204335944261
 31
0.0
  0
LINE
  5
2749
330
1E
100
AcDbEntity
  8
7
100
AcDbLine
 10
2.75990535773786
 20
1.975317662715914
 30
0.0
 11
2.746781027029199
 21
1.980239286731662
 31
0.0
  0
LINE
  5
274A
330
1E
100
AcDbEntity
  8
7
100
AcDbLine
 10
2.746781027029199
 20
1.980239286731662
 30
0.0
 11
2.740218861674868
 21
1.995004158778907
 31
0.0
  0
LINE
  5
274B
330
1E
100
AcDbEntity
  8
7
100
AcDbLine
 10
2.850135131359908
 20
2.075390684369457
 30
0.0
 11
2.855056755375656
 21
2.063906894999378
 31
0.0
  0
LINE
  5
274C
330
1E
100
AcDbEntity
  8
7
100
AcDbLine
 10
2.855056755375656
 20
2.063906894999378
 30
0.0
 11
2.864900003407152
 21
2.060625812322213
 31
0.0
  0
LINE
  5
274D
330
1E
100
AcDbEntity
  8
7
100
AcDbLine
 10
2.945286528997703
 20
2.054063646967883
 30
0.0
 11
2.935443280966207
 21
2.021252820196229
 31
0.0
  0
LINE
  5
274E
330
1E
100
AcDbEntity
  8
7
100
AcDbLine
 10
2.935443280966207
 20
2.021252820196229
 30
0.0
 11
2.915756784903215
 21
1.991723076101741
 31
0.0
  0
LINE
  5
274F
330
1E
100
AcDbEntity
  8
7
100
AcDbLine
 10
2.833729717974081
 20
1.909696009172607
 30
0.0
 11
2.812402680572506
 21
1.899852761141111
 31
0.0
  0
LINE
  5
2750
330
1E
100
AcDbEntity
  8
7
100
AcDbLine
 10
2.812402680572506
 20
1.899852761141111
 30
0.0
 11
2.792716184509514
 21
1.908055467834024
 31
0.0
  0
LINE
  5
2751
330
1E
100
AcDbEntity
  8
7
100
AcDbLine
 10
2.792716184509514
 20
1.908055467834024
 30
0.0
 11
2.782872936478018
 21
1.927741963897016
 31
0.0
  0
LINE
  5
2758
330
1E
100
AcDbEntity
  8
7
100
AcDbLine
 10
5.401176912855971
 20
2.50029089106237
 30
0.0
 11
5.429066115611876
 21
2.457636816259221
 31
0.0
  0
LINE
  5
2759
330
1E
100
AcDbEntity
  8
7
100
AcDbLine
 10
5.429066115611876
 20
2.457636816259221
 30
0.0
 11
5.445471528997703
 21
2.410061117440324
 31
0.0
  0
LINE
  5
275A
330
1E
100
AcDbEntity
  8
7
100
AcDbLine
 10
5.445471528997703
 20
2.410061117440324
 30
0.0
 11
5.450393153013452
 21
2.359204335944261
 31
0.0
  0
LINE
  5
275B
330
1E
100
AcDbEntity
  8
7
100
AcDbLine
 10
5.225638989627624
 20
2.583958499330087
 30
0.0
 11
5.276495771123688
 21
2.57903687531434
 31
0.0
  0
LINE
  5
275C
330
1E
100
AcDbEntity
  8
7
100
AcDbLine
 10
5.276495771123688
 20
2.57903687531434
 30
0.0
 11
5.322430928604003
 21
2.562631461928512
 31
0.0
  0
LINE
  5
275D
330
1E
100
AcDbEntity
  8
7
100
AcDbLine
 10
5.322430928604003
 20
2.562631461928512
 30
0.0
 11
5.365085003407153
 21
2.534742259172607
 31
0.0
  0
LINE
  5
275E
330
1E
100
AcDbEntity
  8
7
100
AcDbLine
 10
5.365085003407153
 20
2.534742259172607
 30
0.0
 11
5.401176912855971
 21
2.50029089106237
 31
0.0
  0
LINE
  5
275F
330
1E
100
AcDbEntity
  8
7
100
AcDbLine
 10
5.250247109706364
 20
2.359204335944261
 30
0.0
 11
5.30274443254101
 21
2.359204335944261
 31
0.0
  0
LINE
  5
2760
330
1E
100
AcDbEntity
  8
7
100
AcDbLine
 10
5.30274443254101
 20
2.359204335944261
 30
0.0
 11
5.350320131359907
 21
2.359204335944261
 31
0.0
  0
LINE
  5
2761
330
1E
100
AcDbEntity
  8
7
100
AcDbLine
 10
5.350320131359907
 20
2.359204335944261
 30
0.0
 11
5.391333664824475
 21
2.359204335944261
 31
0.0
  0
LINE
  5
2762
330
1E
100
AcDbEntity
  8
7
100
AcDbLine
 10
5.391333664824475
 20
2.359204335944261
 30
0.0
 11
5.424144491596129
 21
2.359204335944261
 31
0.0
  0
LINE
  5
2763
330
1E
100
AcDbEntity
  8
7
100
AcDbLine
 10
5.424144491596129
 20
2.359204335944261
 30
0.0
 11
5.443830987659121
 21
2.359204335944261
 31
0.0
  0
LINE
  5
2764
330
1E
100
AcDbEntity
  8
7
100
AcDbLine
 10
5.443830987659121
 20
2.359204335944261
 30
0.0
 11
5.450393153013452
 21
2.359204335944261
 31
0.0
  0
LINE
  5
2765
330
1E
100
AcDbEntity
  8
7
100
AcDbLine
 10
5.450393153013452
 20
2.359204335944261
 30
0.0
 11
5.442190446320537
 21
2.359204335944261
 31
0.0
  0
LINE
  5
2766
330
1E
100
AcDbEntity
  8
7
100
AcDbLine
 10
5.442190446320537
 20
2.359204335944261
 30
0.0
 11
5.420863408918963
 21
2.359204335944261
 31
0.0
  0
LINE
  5
2767
330
1E
100
AcDbEntity
  8
7
100
AcDbLine
 10
5.420863408918963
 20
2.359204335944261
 30
0.0
 11
5.391333664824475
 21
2.359204335944261
 31
0.0
  0
LINE
  5
27F8
330
1E
100
AcDbEntity
  8
7
100
AcDbLine
 10
4.912295593958333
 20
5.924100664684418
 30
0.0
 11
4.912295593958333
 21
5.963473656810402
 31
0.0
  0
LINE
  5
27F9
330
1E
100
AcDbEntity
  8
7
100
AcDbLine
 10
4.912295593958333
 20
5.963473656810402
 30
0.0
 11
4.890968556556758
 21
5.999565566259222
 31
0.0
  0
LINE
  5
27FA
330
1E
100
AcDbEntity
  8
7
100
AcDbLine
 10
4.792536076241798
 20
5.999565566259222
 30
0.0
 11
4.771209038840222
 21
5.963473656810402
 31
0.0
  0
LINE
  5
27FB
330
1E
100
AcDbEntity
  8
7
100
AcDbLine
 10
4.771209038840222
 20
5.963473656810402
 30
0.0
 11
4.771209038840222
 21
5.924100664684418
 31
0.0
  0
LINE
  5
27FC
330
1E
100
AcDbEntity
  8
7
100
AcDbLine
 10
4.771209038840222
 20
5.924100664684418
 30
0.0
 11
4.792536076241798
 21
5.8880087552356
 31
0.0
  0
LINE
  5
27FD
330
1E
100
AcDbEntity
  8
7
100
AcDbLine
 10
1.608245338052821
 20
5.8880087552356
 30
0.0
 11
1.629572375454396
 21
5.924100664684418
 31
0.0
  0
LINE
  5
27FE
330
1E
100
AcDbEntity
  8
7
100
AcDbLine
 10
1.629572375454396
 20
5.924100664684418
 30
0.0
 11
1.629572375454396
 21
5.963473656810402
 31
0.0
  0
LINE
  5
27FF
330
1E
100
AcDbEntity
  8
7
100
AcDbLine
 10
1.629572375454396
 20
5.963473656810402
 30
0.0
 11
1.608245338052821
 21
5.999565566259222
 31
0.0
  0
LINE
  5
2800
330
1E
100
AcDbEntity
  8
7
100
AcDbLine
 10
1.50981285773786
 20
5.999565566259222
 30
0.0
 11
1.488485820336285
 21
5.963473656810402
 31
0.0
  0
LINE
  5
2801
330
1E
100
AcDbEntity
  8
7
100
AcDbLine
 10
1.488485820336285
 20
5.963473656810402
 30
0.0
 11
1.488485820336285
 21
5.924100664684418
 31
0.0
  0
LINE
  5
2802
330
1E
100
AcDbEntity
  8
7
100
AcDbLine
 10
1.488485820336285
 20
5.924100664684418
 30
0.0
 11
1.50981285773786
 21
5.8880087552356
 31
0.0
  0
LINE
  5
2803
330
1E
100
AcDbEntity
  8
7
100
AcDbLine
 10
5.391333664824475
 20
4.569013519015126
 30
0.0
 11
5.386412040808727
 21
4.573935143030875
 31
0.0
  0
LINE
  5
2804
330
1E
100
AcDbEntity
  8
7
100
AcDbLine
 10
5.386412040808727
 20
4.573935143030875
 30
0.0
 11
5.374928251438648
 21
4.590340556416701
 31
0.0
  0
LINE
  5
2805
330
1E
100
AcDbEntity
  8
7
100
AcDbLine
 10
5.374928251438648
 20
4.590340556416701
 30
0.0
 11
5.355241755375656
 21
4.618229759172607
 31
0.0
  0
LINE
  5
2806
330
1E
100
AcDbEntity
  8
7
100
AcDbLine
 10
5.355241755375656
 20
4.618229759172607
 30
0.0
 11
5.328993093958333
 21
4.652681127282844
 31
0.0
  0
LINE
  5
2807
330
1E
100
AcDbEntity
  8
7
100
AcDbLine
 10
5.328993093958333
 20
4.652681127282844
 30
0.0
 11
5.297822808525262
 21
4.695335202085994
 31
0.0
  0
LINE
  5
2808
330
1E
100
AcDbEntity
  8
7
100
AcDbLine
 10
5.297822808525262
 20
4.695335202085994
 30
0.0
 11
5.261730899076444
 21
4.742910900904891
 31
0.0
  0
LINE
  5
2809
330
1E
100
AcDbEntity
  8
7
100
AcDbLine
 10
5.261730899076444
 20
4.742910900904891
 30
0.0
 11
5.225638989627624
 21
4.793767682400954
 31
0.0
  0
LINE
  5
280A
330
1E
100
AcDbEntity
  8
7
100
AcDbLine
 10
1.175142424666994
 20
4.793767682400954
 30
0.0
 11
1.139050515218175
 21
4.742910900904891
 31
0.0
  0
LINE
  5
280B
330
1E
100
AcDbEntity
  8
7
100
AcDbLine
 10
1.139050515218175
 20
4.742910900904891
 30
0.0
 11
1.102958605769356
 21
4.695335202085994
 31
0.0
  0
LINE
  5
280C
330
1E
100
AcDbEntity
  8
7
100
AcDbLine
 10
1.102958605769356
 20
4.695335202085994
 30
0.0
 11
1.071788320336285
 21
4.652681127282844
 31
0.0
  0
LINE
  5
280D
330
1E
100
AcDbEntity
  8
7
100
AcDbLine
 10
1.071788320336285
 20
4.652681127282844
 30
0.0
 11
1.045539658918962
 21
4.618229759172607
 31
0.0
  0
LINE
  5
280E
330
1E
100
AcDbEntity
  8
7
100
AcDbLine
 10
1.045539658918962
 20
4.618229759172607
 30
0.0
 11
1.02585316285597
 21
4.590340556416701
 31
0.0
  0
LINE
  5
280F
330
1E
100
AcDbEntity
  8
7
100
AcDbLine
 10
1.02585316285597
 20
4.590340556416701
 30
0.0
 11
1.014369373485891
 21
4.573935143030875
 31
0.0
  0
LINE
  5
2810
330
1E
100
AcDbEntity
  8
7
100
AcDbLine
 10
1.014369373485891
 20
4.573935143030875
 30
0.0
 11
1.011088290808726
 21
4.569013519015126
 31
0.0
  0
LINE
  5
2811
330
1E
100
AcDbEntity
  8
7
100
AcDbLine
 10
0.9996045014386476
 20
7.223409404841899
 30
0.0
 11
0.9733558400213247
 21
7.243095900904891
 31
0.0
  0
LINE
  5
2812
330
1E
100
AcDbEntity
  8
7
100
AcDbLine
 10
0.9733558400213247
 20
7.243095900904891
 30
0.0
 11
0.955309885296916
 21
7.254579690274971
 31
0.0
  0
LINE
  5
2813
330
1E
100
AcDbEntity
  8
7
100
AcDbLine
 10
0.955309885296916
 20
7.254579690274971
 30
0.0
 11
0.9503882612811672
 21
7.259501314290718
 31
0.0
  0
LINE
  5
2814
330
1E
100
AcDbEntity
  8
7
100
AcDbLine
 10
1.175142424666994
 20
7.093806639093868
 30
0.0
 11
1.125926184509513
 21
7.129898548542685
 31
0.0
  0
LINE
  5
2815
330
1E
100
AcDbEntity
  8
7
100
AcDbLine
 10
1.125926184509513
 20
7.129898548542685
 30
0.0
 11
1.078350485690616
 21
7.165990457991505
 31
0.0
  0
LINE
  5
2816
330
1E
100
AcDbEntity
  8
7
100
AcDbLine
 10
1.078350485690616
 20
7.165990457991505
 30
0.0
 11
1.035696410887466
 21
7.197160743424577
 31
0.0
  0
LINE
  5
2817
330
1E
100
AcDbEntity
  8
7
100
AcDbLine
 10
1.035696410887466
 20
7.197160743424577
 30
0.0
 11
0.9996045014386476
 21
7.223409404841899
 31
0.0
  0
LINE
  5
2818
330
1E
100
AcDbEntity
  8
7
100
AcDbLine
 10
0.9503882612811672
 20
4.628073007204102
 30
0.0
 11
0.955309885296916
 21
4.632994631219851
 31
0.0
  0
LINE
  5
2819
330
1E
100
AcDbEntity
  8
7
100
AcDbLine
 10
0.955309885296916
 20
4.632994631219851
 30
0.0
 11
0.9733558400213247
 21
4.64447842058993
 31
0.0
  0
LINE
  5
281A
330
1E
100
AcDbEntity
  8
7
100
AcDbLine
 10
0.9733558400213247
 20
4.64447842058993
 30
0.0
 11
0.9996045014386476
 21
4.664164916652922
 31
0.0
  0
LINE
  5
281B
330
1E
100
AcDbEntity
  8
7
100
AcDbLine
 10
0.9996045014386476
 20
4.664164916652922
 30
0.0
 11
1.035696410887466
 21
4.690413578070245
 31
0.0
  0
LINE
  5
281C
330
1E
100
AcDbEntity
  8
7
100
AcDbLine
 10
1.035696410887466
 20
4.690413578070245
 30
0.0
 11
1.078350485690616
 21
4.721583863503316
 31
0.0
  0
LINE
  5
281D
330
1E
100
AcDbEntity
  8
7
100
AcDbLine
 10
1.078350485690616
 20
4.721583863503316
 30
0.0
 11
1.125926184509513
 21
4.757675772952135
 31
0.0
  0
LINE
  5
281E
330
1E
100
AcDbEntity
  8
7
100
AcDbLine
 10
1.125926184509513
 20
4.757675772952135
 30
0.0
 11
1.175142424666994
 21
4.793767682400954
 31
0.0
  0
LINE
  5
281F
330
1E
100
AcDbEntity
  8
7
100
AcDbLine
 10
5.450393153013452
 20
7.259501314290718
 30
0.0
 11
5.445471528997703
 21
7.254579690274971
 31
0.0
  0
LINE
  5
2820
330
1E
100
AcDbEntity
  8
7
100
AcDbLine
 10
5.445471528997703
 20
7.254579690274971
 30
0.0
 11
5.429066115611876
 21
7.243095900904891
 31
0.0
  0
LINE
  5
2821
330
1E
100
AcDbEntity
  8
7
100
AcDbLine
 10
5.429066115611876
 20
7.243095900904891
 30
0.0
 11
5.401176912855971
 21
7.223409404841899
 31
0.0
  0
LINE
  5
2822
330
1E
100
AcDbEntity
  8
7
100
AcDbLine
 10
5.401176912855971
 20
7.223409404841899
 30
0.0
 11
5.365085003407153
 21
7.197160743424577
 31
0.0
  0
LINE
  5
2823
330
1E
100
AcDbEntity
  8
7
100
AcDbLine
 10
5.365085003407153
 20
7.197160743424577
 30
0.0
 11
5.322430928604003
 21
7.165990457991505
 31
0.0
  0
LINE
  5
2824
330
1E
100
AcDbEntity
  8
7
100
AcDbLine
 10
5.322430928604003
 20
7.165990457991505
 30
0.0
 11
5.276495771123688
 21
7.129898548542685
 31
0.0
  0
LINE
  5
2825
330
1E
100
AcDbEntity
  8
7
100
AcDbLine
 10
5.276495771123688
 20
7.129898548542685
 30
0.0
 11
5.225638989627624
 21
7.093806639093868
 31
0.0
  0
LINE
  5
2826
330
1E
100
AcDbEntity
  8
7
100
AcDbLine
 10
5.365085003407153
 20
4.690413578070245
 30
0.0
 11
5.401176912855971
 21
4.664164916652922
 31
0.0
  0
LINE
  5
2827
330
1E
100
AcDbEntity
  8
7
100
AcDbLine
 10
5.401176912855971
 20
4.664164916652922
 30
0.0
 11
5.429066115611876
 21
4.64447842058993
 31
0.0
  0
LINE
  5
2828
330
1E
100
AcDbEntity
  8
7
100
AcDbLine
 10
5.429066115611876
 20
4.64447842058993
 30
0.0
 11
5.445471528997703
 21
4.632994631219851
 31
0.0
  0
LINE
  5
2829
330
1E
100
AcDbEntity
  8
7
100
AcDbLine
 10
5.445471528997703
 20
4.632994631219851
 30
0.0
 11
5.450393153013452
 21
4.628073007204102
 31
0.0
  0
LINE
  5
282A
330
1E
100
AcDbEntity
  8
7
100
AcDbLine
 10
5.225638989627624
 20
4.793767682400954
 30
0.0
 11
5.276495771123688
 21
4.757675772952135
 31
0.0
  0
LINE
  5
282B
330
1E
100
AcDbEntity
  8
7
100
AcDbLine
 10
5.276495771123688
 20
4.757675772952135
 30
0.0
 11
5.322430928604003
 21
4.721583863503316
 31
0.0
  0
LINE
  5
282C
330
1E
100
AcDbEntity
  8
7
100
AcDbLine
 10
5.322430928604003
 20
4.721583863503316
 30
0.0
 11
5.365085003407153
 21
4.690413578070245
 31
0.0
  0
LINE
  5
282D
330
1E
100
AcDbEntity
  8
7
100
AcDbLine
 10
1.011088290808726
 20
7.318560802479693
 30
0.0
 11
1.014369373485891
 21
7.313639178463946
 31
0.0
  0
LINE
  5
282E
330
1E
100
AcDbEntity
  8
7
100
AcDbLine
 10
1.014369373485891
 20
7.313639178463946
 30
0.0
 11
1.02585316285597
 21
7.297233765078119
 31
0.0
  0
LINE
  5
282F
330
1E
100
AcDbEntity
  8
7
100
AcDbLine
 10
1.02585316285597
 20
7.297233765078119
 30
0.0
 11
1.045539658918962
 21
7.269344562322213
 31
0.0
  0
LINE
  5
2830
330
1E
100
AcDbEntity
  8
7
100
AcDbLine
 10
1.045539658918962
 20
7.269344562322213
 30
0.0
 11
1.071788320336285
 21
7.234893194211978
 31
0.0
  0
LINE
  5
2831
330
1E
100
AcDbEntity
  8
7
100
AcDbLine
 10
1.071788320336285
 20
7.234893194211978
 30
0.0
 11
1.102958605769356
 21
7.192239119408828
 31
0.0
  0
LINE
  5
2832
330
1E
100
AcDbEntity
  8
7
100
AcDbLine
 10
1.102958605769356
 20
7.192239119408828
 30
0.0
 11
1.139050515218175
 21
7.144663420589931
 31
0.0
  0
LINE
  5
2833
330
1E
100
AcDbEntity
  8
7
100
AcDbLine
 10
1.139050515218175
 20
7.144663420589931
 30
0.0
 11
1.175142424666994
 21
7.093806639093868
 31
0.0
  0
LINE
  5
2834
330
1E
100
AcDbEntity
  8
7
100
AcDbLine
 10
5.225638989627624
 20
7.093806639093868
 30
0.0
 11
5.261730899076444
 21
7.144663420589931
 31
0.0
  0
LINE
  5
2835
330
1E
100
AcDbEntity
  8
7
100
AcDbLine
 10
5.261730899076444
 20
7.144663420589931
 30
0.0
 11
5.297822808525262
 21
7.192239119408828
 31
0.0
  0
LINE
  5
2836
330
1E
100
AcDbEntity
  8
7
100
AcDbLine
 10
5.297822808525262
 20
7.192239119408828
 30
0.0
 11
5.328993093958333
 21
7.234893194211978
 31
0.0
  0
LINE
  5
2837
330
1E
100
AcDbEntity
  8
7
100
AcDbLine
 10
5.328993093958333
 20
7.234893194211978
 30
0.0
 11
5.355241755375656
 21
7.269344562322213
 31
0.0
  0
LINE
  5
2838
330
1E
100
AcDbEntity
  8
7
100
AcDbLine
 10
5.355241755375656
 20
7.269344562322213
 30
0.0
 11
5.374928251438648
 21
7.297233765078119
 31
0.0
  0
LINE
  5
2839
330
1E
100
AcDbEntity
  8
7
100
AcDbLine
 10
5.374928251438648
 20
7.297233765078119
 30
0.0
 11
5.386412040808727
 21
7.313639178463946
 31
0.0
  0
LINE
  5
283A
330
1E
100
AcDbEntity
  8
7
100
AcDbLine
 10
5.386412040808727
 20
7.313639178463946
 30
0.0
 11
5.391333664824475
 21
7.318560802479693
 31
0.0
  0
LINE
  5
283B
330
1E
100
AcDbEntity
  8
7
100
AcDbLine
 10
1.175142424666994
 20
7.093806639093868
 30
0.0
 11
1.175142424666994
 21
4.793767682400954
 31
0.0
  0
LINE
  5
283C
330
1E
100
AcDbEntity
  8
7
100
AcDbLine
 10
1.175142424666994
 20
4.793767682400954
 30
0.0
 11
5.225638989627624
 21
4.793767682400954
 31
0.0
  0
LINE
  5
283D
330
1E
100
AcDbEntity
  8
7
100
AcDbLine
 10
5.225638989627624
 20
4.793767682400954
 30
0.0
 11
5.225638989627624
 21
7.093806639093868
 31
0.0
  0
LINE
  5
283E
330
1E
100
AcDbEntity
  8
7
100
AcDbLine
 10
5.225638989627624
 20
7.093806639093868
 30
0.0
 11
1.175142424666994
 21
7.093806639093868
 31
0.0
  0
LINE
  5
283F
330
1E
100
AcDbEntity
  8
7
100
AcDbLine
 10
1.449112828210301
 20
6.047141265078119
 30
0.0
 11
1.422864166792978
 21
6.009408814290717
 31
0.0
  0
LINE
  5
2840
330
1E
100
AcDbEntity
  8
7
100
AcDbLine
 10
1.422864166792978
 20
6.009408814290717
 30
0.0
 11
1.409739836084317
 21
5.966754739487568
 31
0.0
  0
LINE
  5
2841
330
1E
100
AcDbEntity
  8
7
100
AcDbLine
 10
1.409739836084317
 20
5.966754739487568
 30
0.0
 11
1.409739836084317
 21
5.920819582007253
 31
0.0
  0
LINE
  5
2842
330
1E
100
AcDbEntity
  8
7
100
AcDbLine
 10
1.409739836084317
 20
5.920819582007253
 30
0.0
 11
1.422864166792978
 21
5.878165507204103
 31
0.0
  0
LINE
  5
2843
330
1E
100
AcDbEntity
  8
7
100
AcDbLine
 10
1.422864166792978
 20
5.878165507204103
 30
0.0
 11
1.449112828210301
 21
5.840433056416701
 31
0.0
  0
LINE
  5
2844
330
1E
100
AcDbEntity
  8
7
100
AcDbLine
 10
1.449112828210301
 20
5.840433056416701
 30
0.0
 11
1.483564196320538
 21
5.812543853660796
 31
0.0
  0
LINE
  5
2845
330
1E
100
AcDbEntity
  8
7
100
AcDbLine
 10
1.483564196320538
 20
5.812543853660796
 30
0.0
 11
1.526218271123687
 21
5.79613844027497
 31
0.0
  0
LINE
  5
2846
330
1E
100
AcDbEntity
  8
7
100
AcDbLine
 10
1.526218271123687
 20
5.79613844027497
 30
0.0
 11
1.57051288726542
 21
5.792857357597804
 31
0.0
  0
LINE
  5
2847
330
1E
100
AcDbEntity
  8
7
100
AcDbLine
 10
1.57051288726542
 20
5.792857357597804
 30
0.0
 11
1.614807503407152
 21
5.802700605629301
 31
0.0
  0
LINE
  5
2848
330
1E
100
AcDbEntity
  8
7
100
AcDbLine
 10
1.614807503407152
 20
5.802700605629301
 30
0.0
 11
1.652539954194553
 21
5.825668184369457
 31
0.0
  0
LINE
  5
2849
330
1E
100
AcDbEntity
  8
7
100
AcDbLine
 10
1.652539954194553
 20
5.825668184369457
 30
0.0
 11
1.683710239627624
 21
5.858479011141111
 31
0.0
  0
LINE
  5
284A
330
1E
100
AcDbEntity
  8
7
100
AcDbLine
 10
1.683710239627624
 20
5.858479011141111
 30
0.0
 11
1.703396735690616
 21
5.899492544605679
 31
0.0
  0
LINE
  5
284B
330
1E
100
AcDbEntity
  8
7
100
AcDbLine
 10
1.703396735690616
 20
5.899492544605679
 30
0.0
 11
1.709958901044947
 21
5.94378716074741
 31
0.0
  0
LINE
  5
284C
330
1E
100
AcDbEntity
  8
7
100
AcDbLine
 10
1.709958901044947
 20
5.94378716074741
 30
0.0
 11
1.703396735690616
 21
5.988081776889143
 31
0.0
  0
LINE
  5
284D
330
1E
100
AcDbEntity
  8
7
100
AcDbLine
 10
1.703396735690616
 20
5.988081776889143
 30
0.0
 11
1.683710239627624
 21
6.029095310353709
 31
0.0
  0
LINE
  5
284E
330
1E
100
AcDbEntity
  8
7
100
AcDbLine
 10
1.683710239627624
 20
6.029095310353709
 30
0.0
 11
1.652539954194553
 21
6.061906137125363
 31
0.0
  0
LINE
  5
284F
330
1E
100
AcDbEntity
  8
7
100
AcDbLine
 10
1.652539954194553
 20
6.061906137125363
 30
0.0
 11
1.614807503407152
 21
6.084873715865521
 31
0.0
  0
LINE
  5
2850
330
1E
100
AcDbEntity
  8
7
100
AcDbLine
 10
1.614807503407152
 20
6.084873715865521
 30
0.0
 11
1.57051288726542
 21
6.094716963897016
 31
0.0
  0
LINE
  5
2851
330
1E
100
AcDbEntity
  8
7
100
AcDbLine
 10
1.57051288726542
 20
6.094716963897016
 30
0.0
 11
1.526218271123687
 21
6.091435881219851
 31
0.0
  0
LINE
  5
2852
330
1E
100
AcDbEntity
  8
7
100
AcDbLine
 10
1.526218271123687
 20
6.091435881219851
 30
0.0
 11
1.483564196320538
 21
6.075030467834024
 31
0.0
  0
LINE
  5
2853
330
1E
100
AcDbEntity
  8
7
100
AcDbLine
 10
1.483564196320538
 20
6.075030467834024
 30
0.0
 11
1.449112828210301
 21
6.047141265078119
 31
0.0
  0
LINE
  5
2854
330
1E
100
AcDbEntity
  8
7
100
AcDbLine
 10
4.935263172698491
 20
5.825668184369457
 30
0.0
 11
4.966433458131561
 21
5.858479011141111
 31
0.0
  0
LINE
  5
2855
330
1E
100
AcDbEntity
  8
7
100
AcDbLine
 10
4.966433458131561
 20
5.858479011141111
 30
0.0
 11
4.986119954194553
 21
5.899492544605679
 31
0.0
  0
LINE
  5
2856
330
1E
100
AcDbEntity
  8
7
100
AcDbLine
 10
4.986119954194553
 20
5.899492544605679
 30
0.0
 11
4.992682119548883
 21
5.94378716074741
 31
0.0
  0
LINE
  5
2857
330
1E
100
AcDbEntity
  8
7
100
AcDbLine
 10
4.897530721911089
 20
6.084873715865521
 30
0.0
 11
4.853236105769357
 21
6.094716963897016
 31
0.0
  0
LINE
  5
2858
330
1E
100
AcDbEntity
  8
7
100
AcDbLine
 10
4.853236105769357
 20
6.094716963897016
 30
0.0
 11
4.808941489627624
 21
6.091435881219851
 31
0.0
  0
LINE
  5
2859
330
1E
100
AcDbEntity
  8
7
100
AcDbLine
 10
4.808941489627624
 20
6.091435881219851
 30
0.0
 11
4.766287414824476
 21
6.075030467834024
 31
0.0
  0
LINE
  5
285A
330
1E
100
AcDbEntity
  8
7
100
AcDbLine
 10
4.766287414824476
 20
6.075030467834024
 30
0.0
 11
4.731836046714239
 21
6.047141265078119
 31
0.0
  0
LINE
  5
285B
330
1E
100
AcDbEntity
  8
7
100
AcDbLine
 10
4.731836046714239
 20
6.047141265078119
 30
0.0
 11
4.705587385296915
 21
6.009408814290717
 31
0.0
  0
LINE
  5
285C
330
1E
100
AcDbEntity
  8
7
100
AcDbLine
 10
4.705587385296915
 20
6.009408814290717
 30
0.0
 11
4.692463054588253
 21
5.966754739487568
 31
0.0
  0
LINE
  5
285D
330
1E
100
AcDbEntity
  8
7
100
AcDbLine
 10
4.692463054588253
 20
5.966754739487568
 30
0.0
 11
4.692463054588253
 21
5.920819582007253
 31
0.0
  0
LINE
  5
285E
330
1E
100
AcDbEntity
  8
7
100
AcDbLine
 10
4.692463054588253
 20
5.920819582007253
 30
0.0
 11
4.705587385296915
 21
5.878165507204103
 31
0.0
  0
LINE
  5
285F
330
1E
100
AcDbEntity
  8
7
100
AcDbLine
 10
4.705587385296915
 20
5.878165507204103
 30
0.0
 11
4.731836046714239
 21
5.840433056416701
 31
0.0
  0
LINE
  5
2860
330
1E
100
AcDbEntity
  8
7
100
AcDbLine
 10
4.731836046714239
 20
5.840433056416701
 30
0.0
 11
4.766287414824476
 21
5.812543853660796
 31
0.0
  0
LINE
  5
2861
330
1E
100
AcDbEntity
  8
7
100
AcDbLine
 10
4.766287414824476
 20
5.812543853660796
 30
0.0
 11
4.808941489627624
 21
5.79613844027497
 31
0.0
  0
LINE
  5
2862
330
1E
100
AcDbEntity
  8
7
100
AcDbLine
 10
4.808941489627624
 20
5.79613844027497
 30
0.0
 11
4.853236105769357
 21
5.792857357597804
 31
0.0
  0
LINE
  5
2863
330
1E
100
AcDbEntity
  8
7
100
AcDbLine
 10
4.853236105769357
 20
5.792857357597804
 30
0.0
 11
4.897530721911089
 21
5.802700605629301
 31
0.0
  0
LINE
  5
2864
330
1E
100
AcDbEntity
  8
7
100
AcDbLine
 10
4.897530721911089
 20
5.802700605629301
 30
0.0
 11
4.935263172698491
 21
5.825668184369457
 31
0.0
  0
LINE
  5
2865
330
1E
100
AcDbEntity
  8
7
100
AcDbLine
 10
4.992682119548883
 20
5.94378716074741
 30
0.0
 11
4.986119954194553
 21
5.988081776889143
 31
0.0
  0
LINE
  5
2866
330
1E
100
AcDbEntity
  8
7
100
AcDbLine
 10
4.986119954194553
 20
5.988081776889143
 30
0.0
 11
4.966433458131561
 21
6.029095310353709
 31
0.0
  0
LINE
  5
2867
330
1E
100
AcDbEntity
  8
7
100
AcDbLine
 10
4.966433458131561
 20
6.029095310353709
 30
0.0
 11
4.935263172698491
 21
6.061906137125363
 31
0.0
  0
LINE
  5
2868
330
1E
100
AcDbEntity
  8
7
100
AcDbLine
 10
4.935263172698491
 20
6.061906137125363
 30
0.0
 11
4.897530721911089
 21
6.084873715865521
 31
0.0
  0
LINE
  5
2869
330
1E
100
AcDbEntity
  8
7
100
AcDbLine
 10
5.391333664824475
 20
4.569013519015126
 30
0.0
 11
5.420863408918963
 21
4.577216225708039
 31
0.0
  0
LINE
  5
286A
330
1E
100
AcDbEntity
  8
7
100
AcDbLine
 10
5.420863408918963
 20
4.577216225708039
 30
0.0
 11
5.442190446320537
 21
4.598543263109616
 31
0.0
  0
LINE
  5
286B
330
1E
100
AcDbEntity
  8
7
100
AcDbLine
 10
5.442190446320537
 20
4.598543263109616
 30
0.0
 11
5.450393153013452
 21
4.628073007204102
 31
0.0
  0
LINE
  5
286C
330
1E
100
AcDbEntity
  8
7
100
AcDbLine
 10
5.450393153013452
 20
7.259501314290718
 30
0.0
 11
5.442190446320537
 21
7.289031058385206
 31
0.0
  0
LINE
  5
286D
330
1E
100
AcDbEntity
  8
7
100
AcDbLine
 10
5.442190446320537
 20
7.289031058385206
 30
0.0
 11
5.420863408918963
 21
7.310358095786781
 31
0.0
  0
LINE
  5
286E
330
1E
100
AcDbEntity
  8
7
100
AcDbLine
 10
5.420863408918963
 20
7.310358095786781
 30
0.0
 11
5.391333664824475
 21
7.318560802479693
 31
0.0
  0
LINE
  5
286F
330
1E
100
AcDbEntity
  8
7
100
AcDbLine
 10
0.9815585467142383
 20
7.310358095786781
 30
0.0
 11
0.9602315093126634
 21
7.289031058385206
 31
0.0
  0
LINE
  5
2870
330
1E
100
AcDbEntity
  8
7
100
AcDbLine
 10
0.9602315093126634
 20
7.289031058385206
 30
0.0
 11
0.9520288026197505
 21
7.259501314290718
 31
0.0
  0
LINE
  5
2871
330
1E
100
AcDbEntity
  8
7
100
AcDbLine
 10
0.9520288026197505
 20
4.628073007204102
 30
0.0
 11
0.9602315093126634
 21
4.598543263109616
 31
0.0
  0
LINE
  5
2872
330
1E
100
AcDbEntity
  8
7
100
AcDbLine
 10
0.9602315093126634
 20
4.598543263109616
 30
0.0
 11
0.9815585467142383
 21
4.577216225708039
 31
0.0
  0
LINE
  5
2873
330
1E
100
AcDbEntity
  8
7
100
AcDbLine
 10
0.9815585467142383
 20
4.577216225708039
 30
0.0
 11
1.011088290808726
 21
4.569013519015126
 31
0.0
  0
LINE
  5
2874
330
1E
100
AcDbEntity
  8
7
100
AcDbLine
 10
1.50981285773786
 20
5.8880087552356
 30
0.0
 11
1.540983143170931
 21
5.871603341849772
 31
0.0
  0
LINE
  5
2875
330
1E
100
AcDbEntity
  8
7
100
AcDbLine
 10
1.540983143170931
 20
5.871603341849772
 30
0.0
 11
1.57707505261975
 21
5.871603341849772
 31
0.0
  0
LINE
  5
2876
330
1E
100
AcDbEntity
  8
7
100
AcDbLine
 10
1.57707505261975
 20
5.871603341849772
 30
0.0
 11
1.608245338052821
 21
5.8880087552356
 31
0.0
  0
LINE
  5
2877
330
1E
100
AcDbEntity
  8
7
100
AcDbLine
 10
1.608245338052821
 20
5.999565566259222
 30
0.0
 11
1.57707505261975
 21
6.015970979645048
 31
0.0
  0
LINE
  5
2878
330
1E
100
AcDbEntity
  8
7
100
AcDbLine
 10
1.57707505261975
 20
6.015970979645048
 30
0.0
 11
1.540983143170931
 21
6.015970979645048
 31
0.0
  0
LINE
  5
2879
330
1E
100
AcDbEntity
  8
7
100
AcDbLine
 10
1.540983143170931
 20
6.015970979645048
 30
0.0
 11
1.50981285773786
 21
5.999565566259222
 31
0.0
  0
LINE
  5
287A
330
1E
100
AcDbEntity
  8
7
100
AcDbLine
 10
4.792536076241798
 20
5.8880087552356
 30
0.0
 11
4.823706361674868
 21
5.871603341849772
 31
0.0
  0
LINE
  5
287B
330
1E
100
AcDbEntity
  8
7
100
AcDbLine
 10
4.823706361674868
 20
5.871603341849772
 30
0.0
 11
4.859798271123688
 21
5.871603341849772
 31
0.0
  0
LINE
  5
287C
330
1E
100
AcDbEntity
  8
7
100
AcDbLine
 10
4.859798271123688
 20
5.871603341849772
 30
0.0
 11
4.890968556556758
 21
5.8880087552356
 31
0.0
  0
LINE
  5
287D
330
1E
100
AcDbEntity
  8
7
100
AcDbLine
 10
4.890968556556758
 20
5.999565566259222
 30
0.0
 11
4.859798271123688
 21
6.015970979645048
 31
0.0
  0
LINE
  5
287E
330
1E
100
AcDbEntity
  8
7
100
AcDbLine
 10
4.859798271123688
 20
6.015970979645048
 30
0.0
 11
4.823706361674868
 21
6.015970979645048
 31
0.0
  0
LINE
  5
287F
330
1E
100
AcDbEntity
  8
7
100
AcDbLine
 10
4.823706361674868
 20
6.015970979645048
 30
0.0
 11
4.792536076241798
 21
5.999565566259222
 31
0.0
  0
LINE
  5
2880
330
1E
100
AcDbEntity
  8
7
100
AcDbLine
 10
2.837010800651246
 20
5.69770595996001
 30
0.0
 11
2.902632454194554
 21
5.69770595996001
 31
0.0
  0
LINE
  5
2881
330
1E
100
AcDbEntity
  8
7
100
AcDbLine
 10
2.902632454194554
 20
5.69770595996001
 30
0.0
 11
2.902632454194554
 21
5.699346501298592
 31
0.0
  0
LINE
  5
2882
330
1E
100
AcDbEntity
  8
7
100
AcDbLine
 10
2.850135131359908
 20
5.840433056416701
 30
0.0
 11
2.855056755375656
 21
5.840433056416701
 31
0.0
  0
LINE
  5
2883
330
1E
100
AcDbEntity
  8
7
100
AcDbLine
 10
2.855056755375656
 20
5.840433056416701
 30
0.0
 11
2.864900003407152
 21
5.842073597755285
 31
0.0
  0
LINE
  5
2884
330
1E
100
AcDbEntity
  8
7
100
AcDbLine
 10
2.864900003407152
 20
5.842073597755285
 30
0.0
 11
2.864900003407152
 21
6.045500723739537
 31
0.0
  0
LINE
  5
2885
330
1E
100
AcDbEntity
  8
7
100
AcDbLine
 10
2.864900003407152
 20
6.045500723739537
 30
0.0
 11
2.855056755375656
 21
6.047141265078119
 31
0.0
  0
LINE
  5
2886
330
1E
100
AcDbEntity
  8
7
100
AcDbLine
 10
2.855056755375656
 20
6.047141265078119
 30
0.0
 11
2.850135131359908
 21
6.047141265078119
 31
0.0
  0
LINE
  5
2887
330
1E
100
AcDbEntity
  8
7
100
AcDbLine
 10
3.563770613643372
 20
5.630443765078119
 30
0.0
 11
3.563770613643372
 21
6.257130556416701
 31
0.0
  0
LINE
  5
2888
330
1E
100
AcDbEntity
  8
7
100
AcDbLine
 10
3.563770613643372
 20
6.257130556416701
 30
0.0
 11
3.563770613643372
 21
6.030735851692293
 31
0.0
  0
LINE
  5
2889
330
1E
100
AcDbEntity
  8
7
100
AcDbLine
 10
3.563770613643372
 20
6.030735851692293
 30
0.0
 11
3.563770613643372
 21
5.856838469802529
 31
0.0
  0
LINE
  5
288A
330
1E
100
AcDbEntity
  8
7
100
AcDbLine
 10
2.837010800651246
 20
5.69770595996001
 30
0.0
 11
2.838651341989829
 21
5.699346501298592
 31
0.0
  0
LINE
  5
288B
330
1E
100
AcDbEntity
  8
7
100
AcDbLine
 10
2.838651341989829
 20
5.699346501298592
 30
0.0
 11
2.838651341989829
 21
5.817465477676544
 31
0.0
  0
ENDSEC
  0
SECTION
  2
OBJECTS
  0
DICTIONARY
  5
C
330
0
100
AcDbDictionary
  3
ACAD_GROUP
350
D
  3
ACAD_LAYOUT
350
19
  3
ACAD_MLINESTYLE
350
16
  3
ACAD_PLOTSETTINGS
350
18
1001
ACAD
1000
TREAT_AS_HARD
1070
     0
  0
DICTIONARY
  5
3A5C
330
1E
100
AcDbDictionary
  3
ACAD_LAYOUTSELFREF
350
3AE1
1001
ACAD
1000
TREAT_AS_HARD
1070
     1
  0
DICTIONARY
  5
3A5E
330
1A
100
AcDbDictionary
  3
ACAD_LAYOUTSELFREF
350
3AE0
1001
ACAD
1000
TREAT_AS_HARD
1070
     1
  0
DICTIONARY
  5
D
102
{ACAD_REACTORS
330
C
102
}
330
C
100
AcDbDictionary
1001
ACAD
1000
TREAT_AS_HARD
1070
     0
  0
DICTIONARY
  5
19
102
{ACAD_REACTORS
330
C
102
}
330
C
100
AcDbDictionary
1001
ACAD
1000
TREAT_AS_HARD
1070
     0
  0
DICTIONARY
  5
16
102
{ACAD_REACTORS
330
C
102
}
330
C
100
AcDbDictionary
  3
STANDARD
350
17
1001
ACAD
1000
TREAT_AS_HARD
1070
     0
  0
DICTIONARY
  5
18
102
{ACAD_REACTORS
330
C
102
}
330
C
100
AcDbDictionary
1001
ACAD
1000
TREAT_AS_HARD
1070
     0
  0
XRECORD
  5
3AE1
102
{ACAD_REACTORS
330
3A5C
102
}
330
3A5C
100
AcDbXrecord
340
1E
  0
XRECORD
  5
3AE0
102
{ACAD_REACTORS
330
3A5E
102
}
330
3A5E
100
AcDbXrecord
340
1A
  0
MLINESTYLE
  5
17
102
{ACAD_REACTORS
330
16
102
}
330
16
100
AcDbMlineStyle
  2
STANDARD
 70
     0
  3

 62
   256
 51
90.0
 52
90.0
 71
     2
 49
0.5
 62
   256
  6
BYLAYER
 49
-0.5
 62
   256
  6
BYLAYER
  0
ENDSEC
  0
EOF
