  0
SECTION
  2
HEADER
  9
$ACADVER
  1
AC1015
  9
$ACADMAINTVER
 70
     6
  9
$DWGCODEPAGE
  3
ANSI_1252
  9
$INSBASE
 10
0.0
 20
0.0
 30
0.0
  9
$EXTMIN
 10
-0.5
 20
-0.5
 30
-0.5
  9
$EXTMAX
 10
5.0
 20
5.0
 30
5.0
  9
$LIMMIN
 10
-0.5
 20
-0.5
  9
$LIMMAX
 10
5.0
 20
5.0
  9
$ORTHOMODE
 70
     0
  9
$REGENMODE
 70
     1
  9
$FILLMODE
 70
     1
  9
$QTEXTMODE
 70
     0
  9
$MIRRTEXT
 70
     1
  9
$LTSCALE
 40
1.0
  9
$ATTMODE
 70
     1
  9
$TEXTSIZE
 40
0.2
  9
$TRACEWID
 40
0.05
  9
$TEXTSTYLE
  7
Standard
  9
$CLAYER
  8
0
  9
$CELTYPE
  6
ByLayer
  9
$CECOLOR
 62
   256
  9
$CELTSCALE
 40
1.0
  9
$DISPSILH
 70
     0
  9
$DIMSCALE
 40
1.0
  9
$DIMASZ
 40
0.18
  9
$DIMEXO
 40
0.0625
  9
$DIMDLI
 40
0.38
  9
$DIMRND
 40
0.0
  9
$DIMDLE
 40
0.0
  9
$DIMEXE
 40
0.18
  9
$DIMTP
 40
0.0
  9
$DIMTM
 40
0.0
  9
$DIMTXT
 40
0.18
  9
$DIMCEN
 40
0.09
  9
$DIMTSZ
 40
0.0
  9
$DIMTOL
 70
     0
  9
$DIMLIM
 70
     0
  9
$DIMTIH
 70
     1
  9
$DIMTOH
 70
     1
  9
$DIMSE1
 70
     0
  9
$DIMSE2
 70
     0
  9
$DIMTAD
 70
     0
  9
$DIMZIN
 70
     0
  9
$DIMBLK
  1

  9
$DIMASO
 70
     1
  9
$DIMSHO
 70
     1
  9
$DIMPOST
  1

  9
$DIMAPOST
  1

  9
$DIMALT
 70
     0
  9
$DIMALTD
 70
     2
  9
$DIMALTF
 40
25.4
  9
$DIMLFAC
 40
1.0
  9
$DIMTOFL
 70
     0
  9
$DIMTVP
 40
0.0
  9
$DIMTIX
 70
     0
  9
$DIMSOXD
 70
     0
  9
$DIMSAH
 70
     0
  9
$DIMBLK1
  1

  9
$DIMBLK2
  1

  9
$DIMSTYLE
  2
Standard
  9
$DIMCLRD
 70
     0
  9
$DIMCLRE
 70
     0
  9
$DIMCLRT
 70
     0
  9
$DIMTFAC
 40
1.0
  9
$DIMGAP
 40
0.09
  9
$DIMJUST
 70
     0
  9
$DIMSD1
 70
     0
  9
$DIMSD2
 70
     0
  9
$DIMTOLJ
 70
     1
  9
$DIMTZIN
 70
     0
  9
$DIMALTZ
 70
     0
  9
$DIMALTTZ
 70
     0
  9
$DIMUPT
 70
     0
  9
$DIMDEC
 70
     4
  9
$DIMTDEC
 70
     4
  9
$DIMALTU
 70
     2
  9
$DIMALTTD
 70
     2
  9
$DIMTXSTY
  7
Standard
  9
$DIMAUNIT
 70
     0
  9
$DIMADEC
 70
     0
  9
$DIMALTRND
 40
0.0
  9
$DIMAZIN
 70
     0
  9
$DIMDSEP
 70
    46
  9
$DIMATFIT
 70
     3
  9
$DIMFRAC
 70
     0
  9
$DIMLDRBLK
  1

  9
$DIMLUNIT
 70
     2
  9
$DIMLWD
 70
    -2
  9
$DIMLWE
 70
    -2
  9
$DIMTMOVE
 70
     0
  9
$LUNITS
 70
     2
  9
$LUPREC
 70
     4
  9
$SKETCHINC
 40
0.1
  9
$FILLETRAD
 40
0.5
  9
$AUNITS
 70
     0
  9
$AUPREC
 70
     0
  9
$MENU
  1
.
  9
$ELEVATION
 40
0.0
  9
$PELEVATION
 40
0.0
  9
$THICKNESS
 40
0.0
  9
$LIMCHECK
 70
     0
  9
$CHAMFERA
 40
0.5
  9
$CHAMFERB
 40
0.5
  9
$CHAMFERC
 40
1.0
  9
$CHAMFERD
 40
0.0
  9
$SKPOLY
 70
     0
  9
$TDCREATE
 40
2456897.423822396
  9
$TDUCREATE
 40
2456897.632155729
  9
$TDUPDATE
 40
2456897.423822408
  9
$TDUUPDATE
 40
2456897.632155741
  9
$TDINDWG
 40
0.0000000116
  9
$TDUSRTIMER
 40
0.0000000116
  9
$USRTIMER
 70
     1
  9
$ANGBASE
 50
0.0
  9
$ANGDIR
 70
     0
  9
$PDMODE
 70
     0
  9
$PDSIZE
 40
0.0
  9
$PLINEWID
 40
0.0
  9
$SPLFRAME
 70
     0
  9
$SPLINETYPE
 70
     6
  9
$SPLINESEGS
 70
     8
  9
$HANDSEED
  5
15D
  9
$SURFTAB1
 70
     6
  9
$SURFTAB2
 70
     6
  9
$SURFTYPE
 70
     6
  9
$SURFU
 70
     6
  9
$SURFV
 70
     6
  9
$UCSBASE
  2

  9
$UCSNAME
  2

  9
$UCSORG
 10
0.0
 20
0.0
 30
0.0
  9
$UCSXDIR
 10
1.0
 20
0.0
 30
0.0
  9
$UCSYDIR
 10
0.0
 20
1.0
 30
0.0
  9
$UCSORTHOREF
  2

  9
$UCSORTHOVIEW
 70
     0
  9
$UCSORGTOP
 10
0.0
 20
0.0
 30
0.0
  9
$UCSORGBOTTOM
 10
0.0
 20
0.0
 30
0.0
  9
$UCSORGLEFT
 10
0.0
 20
0.0
 30
0.0
  9
$UCSORGRIGHT
 10
0.0
 20
0.0
 30
0.0
  9
$UCSORGFRONT
 10
0.0
 20
0.0
 30
0.0
  9
$UCSORGBACK
 10
0.0
 20
0.0
 30
0.0
  9
$PUCSBASE
  2

  9
$PUCSNAME
  2

  9
$PUCSORG
 10
0.0
 20
0.0
 30
0.0
  9
$PUCSXDIR
 10
1.0
 20
0.0
 30
0.0
  9
$PUCSYDIR
 10
0.0
 20
1.0
 30
0.0
  9
$PUCSORTHOREF
  2

  9
$PUCSORTHOVIEW
 70
     0
  9
$PUCSORGTOP
 10
0.0
 20
0.0
 30
0.0
  9
$PUCSORGBOTTOM
 10
0.0
 20
0.0
 30
0.0
  9
$PUCSORGLEFT
 10
0.0
 20
0.0
 30
0.0
  9
$PUCSORGRIGHT
 10
0.0
 20
0.0
 30
0.0
  9
$PUCSORGFRONT
 10
0.0
 20
0.0
 30
0.0
  9
$PUCSORGBACK
 10
0.0
 20
0.0
 30
0.0
  9
$USERI1
 70
     0
  9
$USERI2
 70
     0
  9
$USERI3
 70
     0
  9
$USERI4
 70
     0
  9
$USERI5
 70
     0
  9
$USERR1
 40
0.0
  9
$USERR2
 40
0.0
  9
$USERR3
 40
0.0
  9
$USERR4
 40
0.0
  9
$USERR5
 40
0.0
  9
$WORLDVIEW
 70
     1
  9
$SHADEDGE
 70
     3
  9
$SHADEDIF
 70
    70
  9
$TILEMODE
 70
     0
  9
$MAXACTVP
 70
    64
  9
$PINSBASE
 10
0.0
 20
0.0
 30
0.0
  9
$PLIMCHECK
 70
     0
  9
$PEXTMIN
 10
0.0
 20
0.0
 30
0.0
  9
$PEXTMAX
 10
11.0
 20
8.5
 30
0.0
  9
$PLIMMIN
 10
0.0
 20
0.0
  9
$PLIMMAX
 10
11.0
 20
8.5
  9
$UNITMODE
 70
     0
  9
$VISRETAIN
 70
     1
  9
$PLINEGEN
 70
     0
  9
$PSLTSCALE
 70
     1
  9
$TREEDEPTH
 70
  3020
  9
$CMLSTYLE
  2
Standard
  9
$CMLJUST
 70
     0
  9
$CMLSCALE
 40
1.0
  9
$PROXYGRAPHICS
 70
     1
  9
$MEASUREMENT
 70
     0
  9
$CELWEIGHT
370
    -1
  9
$ENDCAPS
280
     0
  9
$JOINSTYLE
280
     0
  9
$LWDISPLAY
290
     0
  9
$INSUNITS
 70
     1
  9
$HYPERLINKBASE
  1

  9
$STYLESHEET
  1

  9
$XEDIT
290
     1
  9
$CEPSNTYPE
380
     0
  9
$PSTYLEMODE
290
     1
  9
$FINGERPRINTGUID
  2
{FDCB6E50-179D-4579-A408-8D81F8B144ED}
  9
$VERSIONGUID
  2
{FAEB1C32-E019-11D5-929B-00C0DF256EC4}
  9
$EXTNAMES
290
     1
  9
$PSVPSCALE
 40
0.0
  9
$OLESTARTUP
290
     0
  0
ENDSEC
  0
SECTION
  2
CLASSES
  0
CLASS
  1
ACDBDICTIONARYWDFLT
  2
AcDbDictionaryWithDefault
  3
ObjectDBX Classes
 90
        0
280
     0
281
     0
  0
CLASS
  1
VISUALSTYLE
  2
AcDbVisualStyle
  3
ObjectDBX Classes
 90
     4095
280
     0
281
     0
  0
CLASS
  1
MATERIAL
  2
AcDbMaterial
  3
ObjectDBX Classes
 90
     1153
280
     0
281
     0
  0
CLASS
  1
DICTIONARYVAR
  2
AcDbDictionaryVar
  3
ObjectDBX Classes
 90
        0
280
     0
281
     0
  0
CLASS
  1
ACDBPLACEHOLDER
  2
AcDbPlaceHolder
  3
ObjectDBX Classes
 90
        0
280
     0
281
     0
  0
CLASS
  1
LAYOUT
  2
AcDbLayout
  3
ObjectDBX Classes
 90
        0
280
     0
281
     0
  0
ENDSEC
  0
SECTION
  2
TABLES
  0
TABLE
  2
VPORT
  5
8
330
0
100
AcDbSymbolTable
 70
    17
  0
VPORT
  5
29
330
8
100
AcDbSymbolTableRecord
100
AcDbViewportTableRecord
  2
DUMMY
 70
     0
 10
0.0
 20
0.0
 11
1.0
 21
1.0
 12
10.429907
 22
4.5
 13
0.0
 23
0.0
 14
0.5
 24
0.5
 15
0.5
 25
0.5
 16
0.0
 26
0.0
 36
1.0
 17
0.0
 27
0.0
 37
0.0
 40
9.0
 41
1.972973
 42
50.0
 43
0.0
 44
0.0
 50
0.0
 51
0.0
 71
     0
 72
   100
 73
     1
 74
     3
 75
     0
 76
     0
 77
     0
 78
     0
281
     0
 65
     1
110
0.0
120
0.0
130
0.0
111
1.0
121
0.0
131
0.0
112
0.0
122
1.0
132
0.0
 79
     0
146
0.0
  0
VPORT
  5
122
330
8
100
AcDbSymbolTableRecord
100
AcDbViewportTableRecord
  2
*ACTIVE
 70
     0
 10
0.0
 20
0.0
 11
1.0
 21
1.0
 12
-6.834472
 22
-6.834472
 13
0.0
 23
0.0
 14
0.5
 24
0.5
 15
0.5
 25
0.5
 16
0.7188730927569434
 26
-0.5850486126764431
 36
0.3754192287502549
 17
0.0
 27
0.0
 37
0.0
 40
61.350868
 41
0.28943
 42
50.0
 43
482.07238
 44
-482.07238
 50
0.0
 51
0.0
 71
     0
 72
   100
 73
     1
 74
     3
 75
     0
 76
     0
 77
     0
 78
     0
281
     0
 65
     1
110
0.0
120
0.0
130
0.0
111
1.0
121
0.0
131
0.0
112
0.0
122
1.0
132
0.0
 79
     0
146
0.0
  0
VPORT
  5
123
330
8
100
AcDbSymbolTableRecord
100
AcDbViewportTableRecord
  2
L1
 70
     0
 10
0.0
 20
0.0
 11
1.0
 21
1.0
 12
-6.834472
 22
-6.834472
 13
0.0
 23
0.0
 14
0.5
 24
0.5
 15
0.5
 25
0.5
 16
0.7188730927569434
 26
-0.5850486126764431
 36
0.3754192287502549
 17
0.0
 27
0.0
 37
0.0
 40
61.350868
 41
0.28943
 42
50.0
 43
482.07238
 44
-482.07238
 50
0.0
 51
0.0
 71
     0
 72
   100
 73
     1
 74
     3
 75
     0
 76
     0
 77
     0
 78
     0
281
     0
 65
     1
110
0.0
120
0.0
130
0.0
111
1.0
121
0.0
131
0.0
112
0.0
122
1.0
132
0.0
 79
     0
146
0.0
  0
VPORT
  5
124
330
8
100
AcDbSymbolTableRecord
100
AcDbViewportTableRecord
  2
L2
 70
     0
 10
0.0
 20
0.0
 11
0.5
 21
1.0
 12
0.0
 22
0.0
 13
0.0
 23
0.0
 14
0.5
 24
0.5
 15
0.5
 25
0.5
 16
0.0
 26
-1.0
 36
0.0
 17
0.0
 27
0.0
 37
0.0
 40
59.28775
 41
0.299501
 42
50.0
 43
30.446227
 44
-30.446227
 50
0.0
 51
0.0
 71
     0
 72
   100
 73
     1
 74
     3
 75
     0
 76
     0
 77
     0
 78
     0
281
     0
 65
     1
110
0.0
120
0.0
130
0.0
111
1.0
121
0.0
131
0.0
112
0.0
122
1.0
132
0.0
 79
     0
146
0.0
  0
VPORT
  5
125
330
8
100
AcDbSymbolTableRecord
100
AcDbViewportTableRecord
  2
L2
 70
     0
 10
0.5
 20
0.0
 11
1.0
 21
1.0
 12
0.0
 22
0.0
 13
0.0
 23
0.0
 14
0.5
 24
0.5
 15
0.5
 25
0.5
 16
1.0
 26
0.0
 36
0.0
 17
0.0
 27
0.0
 37
0.0
 40
59.28775
 41
0.299501
 42
50.0
 43
30.05782
 44
-30.05782
 50
0.0
 51
0.0
 71
     0
 72
   100
 73
     1
 74
     3
 75
     0
 76
     0
 77
     0
 78
     0
281
     0
 65
     1
110
0.0
120
0.0
130
0.0
111
1.0
121
0.0
131
0.0
112
0.0
122
1.0
132
0.0
 79
     0
146
0.0
  0
VPORT
  5
126
330
8
100
AcDbSymbolTableRecord
100
AcDbViewportTableRecord
  2
L3
 70
     0
 10
0.0
 20
0.5
 11
1.0
 21
1.0
 12
0.0
 22
0.0
 13
0.0
 23
0.0
 14
0.5
 24
0.5
 15
0.5
 25
0.5
 16
0.0
 26
0.0
 36
1.0
 17
0.0
 27
0.0
 37
0.0
 40
9.942483
 41
1.785948
 42
50.0
 43
29.643875
 44
-29.643875
 50
0.0
 51
0.0
 71
     0
 72
   100
 73
     1
 74
     3
 75
     0
 76
     0
 77
     0
 78
     0
281
     0
 65
     1
110
0.0
120
0.0
130
0.0
111
1.0
121
0.0
131
0.0
112
0.0
122
1.0
132
0.0
 79
     0
146
0.0
  0
VPORT
  5
127
330
8
100
AcDbSymbolTableRecord
100
AcDbViewportTableRecord
  2
L3
 70
     0
 10
0.0
 20
0.0
 11
1.0
 21
0.5
 12
0.0
 22
0.0
 13
0.0
 23
0.0
 14
0.5
 24
0.5
 15
0.5
 25
0.5
 16
0.0
 26
-1.0
 36
0.0
 17
0.0
 27
0.0
 37
0.0
 40
59.28775
 41
0.299501
 42
50.0
 43
30.446227
 44
-30.446227
 50
0.0
 51
0.0
 71
     0
 72
   100
 73
     1
 74
     3
 75
     0
 76
     0
 77
     0
 78
     0
281
     0
 65
     1
110
0.0
120
0.0
130
0.0
111
1.0
121
0.0
131
0.0
112
0.0
122
1.0
132
0.0
 79
     0
146
0.0
  0
VPORT
  5
128
330
8
100
AcDbSymbolTableRecord
100
AcDbViewportTableRecord
  2
L4
 70
     0
 10
0.0
 20
0.5
 11
0.5
 21
1.0
 12
0.0
 22
0.0
 13
0.0
 23
0.0
 14
0.5
 24
0.5
 15
0.5
 25
0.5
 16
0.0
 26
0.0
 36
1.0
 17
0.0
 27
0.0
 37
0.0
 40
9.942483
 41
1.785948
 42
50.0
 43
29.643875
 44
-29.643875
 50
0.0
 51
0.0
 71
     0
 72
   100
 73
     1
 74
     3
 75
     0
 76
     0
 77
     0
 78
     0
281
     0
 65
     1
110
0.0
120
0.0
130
0.0
111
1.0
121
0.0
131
0.0
112
0.0
122
1.0
132
0.0
 79
     0
146
0.0
  0
VPORT
  5
129
330
8
100
AcDbSymbolTableRecord
100
AcDbViewportTableRecord
  2
L4
 70
     0
 10
0.0
 20
0.0
 11
0.5
 21
0.5
 12
0.0
 22
0.0
 13
0.0
 23
0.0
 14
0.5
 24
0.5
 15
0.5
 25
0.5
 16
0.0
 26
-1.0
 36
0.0
 17
0.0
 27
0.0
 37
0.0
 40
59.28775
 41
0.299501
 42
50.0
 43
30.446227
 44
-30.446227
 50
0.0
 51
0.0
 71
     0
 72
   100
 73
     1
 74
     3
 75
     0
 76
     0
 77
     0
 78
     0
281
     0
 65
     1
110
0.0
120
0.0
130
0.0
111
1.0
121
0.0
131
0.0
112
0.0
122
1.0
132
0.0
 79
     0
146
0.0
  0
VPORT
  5
12A
330
8
100
AcDbSymbolTableRecord
100
AcDbViewportTableRecord
  2
L4
 70
     0
 10
0.5
 20
0.0
 11
1.0
 21
0.5
 12
0.0
 22
0.0
 13
0.0
 23
0.0
 14
0.5
 24
0.5
 15
0.5
 25
0.5
 16
1.0
 26
0.0
 36
0.0
 17
0.0
 27
0.0
 37
0.0
 40
59.28775
 41
0.299501
 42
50.0
 43
30.05782
 44
-30.05782
 50
0.0
 51
0.0
 71
     0
 72
   100
 73
     1
 74
     3
 75
     0
 76
     0
 77
     0
 78
     0
281
     0
 65
     1
110
0.0
120
0.0
130
0.0
111
1.0
121
0.0
131
0.0
112
0.0
122
1.0
132
0.0
 79
     0
146
0.0
  0
VPORT
  5
12B
330
8
100
AcDbSymbolTableRecord
100
AcDbViewportTableRecord
  2
L4
 70
     0
 10
0.5
 20
0.5
 11
1.0
 21
1.0
 12
0.0
 22
0.0
 13
0.0
 23
0.0
 14
0.5
 24
0.5
 15
0.5
 25
0.5
 16
0.5773502691896258
 26
-0.5773502691896258
 36
0.5773502691896258
 17
0.0
 27
0.0
 37
0.0
 40
58.136664
 41
0.305431
 42
50.0
 43
30.264658
 44
-30.264658
 50
0.0
 51
0.0
 71
     0
 72
   100
 73
     1
 74
     3
 75
     0
 76
     0
 77
     0
 78
     0
281
     0
 65
     1
110
0.0
120
0.0
130
0.0
111
1.0
121
0.0
131
0.0
112
0.0
122
1.0
132
0.0
 79
     0
146
0.0
  0
VPORT
  5
12C
330
8
100
AcDbSymbolTableRecord
100
AcDbViewportTableRecord
  2
L6
 70
     0
 10
0.0
 20
0.5
 11
0.333333
 21
1.0
 12
-6.834472
 22
-6.834472
 13
0.0
 23
0.0
 14
0.5
 24
0.5
 15
0.5
 25
0.5
 16
0.7188730927569434
 26
-0.5850486126764431
 36
0.3754192287502549
 17
0.0
 27
0.0
 37
0.0
 40
61.350868
 41
0.28943
 42
50.0
 43
482.07238
 44
-482.07238
 50
0.0
 51
0.0
 71
     0
 72
   100
 73
     1
 74
     3
 75
     0
 76
     0
 77
     0
 78
     0
281
     0
 65
     1
110
0.0
120
0.0
130
0.0
111
1.0
121
0.0
131
0.0
112
0.0
122
1.0
132
0.0
 79
     0
146
0.0
  0
VPORT
  5
12D
330
8
100
AcDbSymbolTableRecord
100
AcDbViewportTableRecord
  2
L6
 70
     0
 10
0.0
 20
0.0
 11
0.333333
 21
0.5
 12
0.0
 22
0.0
 13
0.0
 23
0.0
 14
0.5
 24
0.5
 15
0.5
 25
0.5
 16
-1.0
 26
0.0
 36
0.0
 17
0.0
 27
0.0
 37
0.0
 40
59.28775
 41
0.299501
 42
50.0
 43
30.05782
 44
-30.05782
 50
0.0
 51
0.0
 71
     0
 72
   100
 73
     1
 74
     3
 75
     0
 76
     0
 77
     0
 78
     0
281
     0
 65
     1
110
0.0
120
0.0
130
0.0
111
1.0
121
0.0
131
0.0
112
0.0
122
1.0
132
0.0
 79
     0
146
0.0
  0
VPORT
  5
12E
330
8
100
AcDbSymbolTableRecord
100
AcDbViewportTableRecord
  2
L6
 70
     0
 10
0.333333
 20
0.5
 11
0.666667
 21
1.0
 12
0.0
 22
0.0
 13
0.0
 23
0.0
 14
0.5
 24
0.5
 15
0.5
 25
0.5
 16
0.0
 26
0.0
 36
1.0
 17
0.0
 27
0.0
 37
0.0
 40
9.942483
 41
1.785948
 42
50.0
 43
29.643875
 44
-29.643875
 50
0.0
 51
0.0
 71
     0
 72
   100
 73
     1
 74
     3
 75
     0
 76
     0
 77
     0
 78
     0
281
     0
 65
     1
110
0.0
120
0.0
130
0.0
111
1.0
121
0.0
131
0.0
112
0.0
122
1.0
132
0.0
 79
     0
146
0.0
  0
VPORT
  5
12F
330
8
100
AcDbSymbolTableRecord
100
AcDbViewportTableRecord
  2
L6
 70
     0
 10
0.333333
 20
0.0
 11
0.666667
 21
0.5
 12
0.0
 22
0.0
 13
0.0
 23
0.0
 14
0.5
 24
0.5
 15
0.5
 25
0.5
 16
0.0
 26
-1.0
 36
0.0
 17
0.0
 27
0.0
 37
0.0
 40
59.28775
 41
0.299501
 42
50.0
 43
30.446227
 44
-30.446227
 50
0.0
 51
0.0
 71
     0
 72
   100
 73
     1
 74
     3
 75
     0
 76
     0
 77
     0
 78
     0
281
     0
 65
     1
110
0.0
120
0.0
130
0.0
111
1.0
121
0.0
131
0.0
112
0.0
122
1.0
132
0.0
 79
     0
146
0.0
  0
VPORT
  5
130
330
8
100
AcDbSymbolTableRecord
100
AcDbViewportTableRecord
  2
L6
 70
     0
 10
0.666667
 20
0.5
 11
1.0
 21
1.0
 12
0.0
 22
0.0
 13
0.0
 23
0.0
 14
0.5
 24
0.5
 15
0.5
 25
0.5
 16
0.5773502691896258
 26
-0.5773502691896258
 36
0.5773502691896258
 17
0.0
 27
0.0
 37
0.0
 40
58.136664
 41
0.305431
 42
50.0
 43
30.264658
 44
-30.264658
 50
0.0
 51
0.0
 71
     0
 72
   100
 73
     1
 74
     3
 75
     0
 76
     0
 77
     0
 78
     0
281
     0
 65
     1
110
0.0
120
0.0
130
0.0
111
1.0
121
0.0
131
0.0
112
0.0
122
1.0
132
0.0
 79
     0
146
0.0
  0
VPORT
  5
131
330
8
100
AcDbSymbolTableRecord
100
AcDbViewportTableRecord
  2
L6
 70
     0
 10
0.666667
 20
0.0
 11
1.0
 21
0.5
 12
0.0
 22
0.0
 13
0.0
 23
0.0
 14
0.5
 24
0.5
 15
0.5
 25
0.5
 16
1.0
 26
0.0
 36
0.0
 17
0.0
 27
0.0
 37
0.0
 40
59.28775
 41
0.299501
 42
50.0
 43
30.05782
 44
-30.05782
 50
0.0
 51
0.0
 71
     0
 72
   100
 73
     1
 74
     3
 75
     0
 76
     0
 77
     0
 78
     0
281
     0
 65
     1
110
0.0
120
0.0
130
0.0
111
1.0
121
0.0
131
0.0
112
0.0
122
1.0
132
0.0
 79
     0
146
0.0
  0
ENDTAB
  0
TABLE
  2
LTYPE
  5
5
330
0
100
AcDbSymbolTable
 70
     7
  0
LTYPE
  5
14
330
5
100
AcDbSymbolTableRecord
100
AcDbLinetypeTableRecord
  2
BYBLOCK
 70
     0
  3

 72
    65
 73
     0
 40
0.0
  0
LTYPE
  5
15
330
5
100
AcDbSymbolTableRecord
100
AcDbLinetypeTableRecord
  2
BYLAYER
 70
     0
  3

 72
    65
 73
     0
 40
0.0
  0
LTYPE
  5
16
330
5
100
AcDbSymbolTableRecord
100
AcDbLinetypeTableRecord
  2
CONTINUOUS
 70
     0
  3
Solid line
 72
    65
 73
     0
 40
0.0
  0
LTYPE
  5
40
330
5
100
AcDbSymbolTableRecord
100
AcDbLinetypeTableRecord
  2
DASHED
 70
     0
  3
__ __ __ __ __ __ __ __ __
 72
    65
 73
     2
 40
25.72
 49
12.86
 74
     4
 75
     0
340
0
 46
0.0
 50
0.0
 44
0.0
 45
0.0
 49
-12.86
 74
     4
 75
     0
340
0
 46
0.0
 50
0.0
 44
0.0
 45
0.0
  0
LTYPE
  5
41
330
5
100
AcDbSymbolTableRecord
100
AcDbLinetypeTableRecord
  2
HIDDEN
 70
     0
  3
_ _ _ _ _ _ _ _ _ _ _ _ _ _ _
 72
    65
 73
     2
 40
0.5
 49
0.25
 74
     4
 75
     0
340
0
 46
0.0
 50
0.0
 44
0.0
 45
0.0
 49
-0.25
 74
     4
 75
     0
340
0
 46
0.0
 50
0.0
 44
0.0
 45
0.0
  0
LTYPE
  5
42
330
5
100
AcDbSymbolTableRecord
100
AcDbLinetypeTableRecord
  2
PHANTOM
 70
     0
  3
____ _ _ ____ _ _ _____ _ _ ____
 72
    65
 73
     6
 40
50.5
 49
18.0
 74
     4
 75
     0
340
0
 46
0.0
 50
0.0
 44
0.0
 45
0.0
 49
-6.5
 74
     4
 75
     0
340
0
 46
0.0
 50
0.0
 44
0.0
 45
0.0
 49
6.5
 74
     4
 75
     0
340
0
 46
0.0
 50
0.0
 44
0.0
 45
0.0
 49
-6.5
 74
     4
 75
     0
340
0
 46
0.0
 50
0.0
 44
0.0
 45
0.0
 49
6.5
 74
     4
 75
     0
340
0
 46
0.0
 50
0.0
 44
0.0
 45
0.0
 49
-6.5
 74
     4
 75
     0
340
0
 46
0.0
 50
0.0
 44
0.0
 45
0.0
  0
LTYPE
  5
43
330
5
100
AcDbSymbolTableRecord
100
AcDbLinetypeTableRecord
  2
CENTER
 70
     0
  3
____ _ ____ _ ____ _ ____
 72
    65
 73
     4
 40
47.4
 49
22.0
 74
     4
 75
     0
340
0
 46
0.0
 50
0.0
 44
0.0
 45
0.0
 49
-8.5
 74
     4
 75
     0
340
0
 46
0.0
 50
0.0
 44
0.0
 45
0.0
 49
8.5
 74
     4
 75
     0
340
0
 46
0.0
 50
0.0
 44
0.0
 45
0.0
 49
-8.5
 74
     4
 75
     0
340
0
 46
0.0
 50
0.0
 44
0.0
 45
0.0
  0
LTYPE
  5
44
330
5
100
AcDbSymbolTableRecord
100
AcDbLinetypeTableRecord
  2
DOT
 70
     0
  3
.........................
 72
    65
 73
     2
 40
10.0
 49
0.0
 74
     4
 75
     0
340
0
 46
0.0
 50
0.0
 44
0.0
 45
0.0
 49
-10.0
 74
     4
 75
     0
340
0
 46
0.0
 50
0.0
 44
0.0
 45
0.0
  0
LTYPE
  5
45
330
5
100
AcDbSymbolTableRecord
100
AcDbLinetypeTableRecord
  2
DASHDOT
 70
     0
  3
_._._._._._._._._._._._._._._._.
 72
    65
 73
     4
 40
70.0
 49
31.0
 74
     4
 75
     0
340
0
 46
0.0
 50
0.0
 44
0.0
 45
0.0
 49
-13.0
 74
     4
 75
     0
340
0
 46
0.0
 50
0.0
 44
0.0
 45
0.0
 49
13.0
 74
     4
 75
     0
340
0
 46
0.0
 50
0.0
 44
0.0
 45
0.0
 49
-13.0
 74
     4
 75
     0
340
0
 46
0.0
 50
0.0
 44
0.0
 45
0.0
  0
ENDTAB
  0
TABLE
  2
LAYER
  5
2
330
0
100
AcDbSymbolTable
 70
     2
  0
LAYER
  5
10
330
2
100
AcDbSymbolTableRecord
100
AcDbLayerTableRecord
  2
0
 70
     0
 62
     7
  6
CONTINUOUS
370
    -3
390
F
  0
LAYER
  5
53
330
2
100
AcDbSymbolTableRecord
100
AcDbLayerTableRecord
  2
1
 70
     0
 62
     7
  6
CONTINUOUS
370
    -3
390
F
  0
ENDTAB
  0
TABLE
  2
STYLE
  5
3
330
0
100
AcDbSymbolTable
 70
     1
  0
STYLE
  5
11
330
3
100
AcDbSymbolTableRecord
100
AcDbTextStyleTableRecord
  2
Standard
 70
     0
 40
0.0
 41
1.0
 50
0.0
 71
     0
 42
0.2
  3
txt
  4

  0
ENDTAB
  0
TABLE
  2
VIEW
  5
6
330
0
100
AcDbSymbolTable
 70
     8
  0
VIEW
  5
46
330
6
100
AcDbSymbolTableRecord
100
AcDbViewTableRecord
  2
TOP
 70
     0
 40
9.942483
 10
0.0
 20
0.0
 41
13.88718
 11
0.0
 21
0.0
 31
1.0
 12
0.0
 22
0.0
 32
0.0
 42
50.0
 43
29.643875
 44
-29.643875
 50
0.0
 71
     0
281
     0
 72
     0
  0
VIEW
  5
47
330
6
100
AcDbSymbolTableRecord
100
AcDbViewTableRecord
  2
FRONT
 70
     0
 40
59.28775
 10
0.0
 20
0.0
 41
13.88718
 11
0.0
 21
-1.0
 31
0.0
 12
0.0
 22
0.0
 32
0.0
 42
50.0
 43
30.446227
 44
-30.446227
 50
0.0
 71
     0
281
     0
 72
     0
  0
VIEW
  5
48
330
6
100
AcDbSymbolTableRecord
100
AcDbViewTableRecord
  2
RIGHT
 70
     0
 40
59.28775
 10
0.0
 20
0.0
 41
9.942483
 11
1.0
 21
0.0
 31
0.0
 12
0.0
 22
0.0
 32
0.0
 42
50.0
 43
30.05782
 44
-30.05782
 50
0.0
 71
     0
281
     0
 72
     0
  0
VIEW
  5
49
330
6
100
AcDbSymbolTableRecord
100
AcDbViewTableRecord
  2
BACK
 70
     0
 40
59.28775
 10
0.0
 20
0.0
 41
13.88718
 11
0.0
 21
1.0
 31
0.0
 12
0.0
 22
0.0
 32
0.0
 42
50.0
 43
30.446227
 44
-30.446227
 50
0.0
 71
     0
281
     0
 72
     0
  0
VIEW
  5
4A
330
6
100
AcDbSymbolTableRecord
100
AcDbViewTableRecord
  2
BOTTOM
 70
     0
 40
9.942483
 10
0.0
 20
0.0
 41
13.88718
 11
0.0
 21
0.0
 31
-1.0
 12
0.0
 22
0.0
 32
0.0
 42
50.0
 43
29.643875
 44
-29.643875
 50
180.0
 71
     0
281
     0
 72
     0
  0
VIEW
  5
4B
330
6
100
AcDbSymbolTableRecord
100
AcDbViewTableRecord
  2
LEFT
 70
     0
 40
59.28775
 10
0.0
 20
0.0
 41
9.942483
 11
-1.0
 21
0.0
 31
0.0
 12
0.0
 22
0.0
 32
0.0
 42
50.0
 43
30.05782
 44
-30.05782
 50
0.0
 71
     0
281
     0
 72
     0
  0
VIEW
  5
4C
330
6
100
AcDbSymbolTableRecord
100
AcDbViewTableRecord
  2
TFR-ISO
 70
     0
 40
58.136664
 10
0.0
 20
0.0
 41
16.850116
 11
0.5773502691896258
 21
-0.5773502691896258
 31
0.5773502691896258
 12
0.0
 22
0.0
 32
0.0
 42
50.0
 43
30.264658
 44
-30.264658
 50
0.0
 71
     0
281
     0
 72
     0
  0
VIEW
  5
4D
330
6
100
AcDbSymbolTableRecord
100
AcDbViewTableRecord
  2
TFR-TRI
 70
     0
 40
61.350868
 10
0.0
 20
0.0
 41
16.477288
 11
0.7188730927569434
 21
-0.5850486126764431
 31
0.3754192287502549
 12
0.0
 22
0.0
 32
0.0
 42
50.0
 43
31.762517
 44
-31.762517
 50
0.0
 71
     0
281
     0
 72
     0
  0
ENDTAB
  0
TABLE
  2
UCS
  5
7
330
0
100
AcDbSymbolTable
 70
     0
  0
ENDTAB
  0
TABLE
  2
APPID
  5
9
330
0
100
AcDbSymbolTable
 70
     1
  0
APPID
  5
12
330
9
100
AcDbSymbolTableRecord
100
AcDbRegAppTableRecord
  2
ACAD
 70
     0
  0
ENDTAB
  0
TABLE
  2
DIMSTYLE
  5
A
330
0
100
AcDbSymbolTable
 70
     1
100
AcDbDimStyleTable
  0
DIMSTYLE
105
27
330
A
100
AcDbSymbolTableRecord
100
AcDbDimStyleTableRecord
  2
Standard
 70
     0
178
     0
340
11
  0
ENDTAB
  0
TABLE
  2
BLOCK_RECORD
  5
1
330
0
100
AcDbSymbolTable
 70
     2
  0
BLOCK_RECORD
  5
1F
330
1
100
AcDbSymbolTableRecord
100
AcDbBlockTableRecord
  2
*Model_Space
340
22
  0
BLOCK_RECORD
  5
4E
330
1
100
AcDbSymbolTableRecord
100
AcDbBlockTableRecord
  2
*PAPER_SPACE
340
121
  0
ENDTAB
  0
ENDSEC
  0
SECTION
  2
BLOCKS
  0
BLOCK
  5
20
330
1F
100
AcDbEntity
  8
0
100
AcDbBlockBegin
  2
*Model_Space
 70
     0
 10
0.0
 20
0.0
 30
0.0
  3
*Model_Space
  1

  0
ENDBLK
  5
21
330
1F
100
AcDbEntity
  8
0
100
AcDbBlockEnd
  0
BLOCK
  5
4F
330
4E
100
AcDbEntity
 67
     1
  8
0
100
AcDbBlockBegin
  2
*PAPER_SPACE
 70
     0
 10
0.0
 20
0.0
 30
0.0
  3
*PAPER_SPACE
  1

  0
ENDBLK
  5
50
330
4E
100
AcDbEntity
 67
     1
  8
0
100
AcDbBlockEnd
  0
ENDSEC
  0
SECTION
  2
ENTITIES
  0
VIEWPORT
  5
51
330
4E
100
AcDbEntity
 67
     1
  8
0
100
AcDbViewport
 10
5.78781
 20
4.574383
 30
0.0
 40
11.0
 41
8.5
 68
     1
 69
     1
 12
5.78781
 22
4.574383
 13
0.0
 23
0.0
 14
1.0
 24
1.0
 15
1.0
 25
1.0
 16
0.0
 26
0.0
 36
1.0
 17
0.0
 27
0.0
 37
0.0
 42
40.281235
 43
0.0
 44
0.0
 45
8.5
 50
0.0
 51
0.0
 72
   100
 90
   557152
  1

281
     0
 71
     1
 74
     0
110
0.0
120
0.0
130
0.0
111
1.0
121
0.0
131
0.0
112
0.0
122
1.0
132
0.0
 79
     0
146
0.0
  0
LINE
  5
52
330
4E
100
AcDbEntity
 67
     1
  8
1
  6
CONTINUOUS
 62
    18
100
AcDbLine
 10
0.0
 20
0.055
 30
0.0
 11
0.0
 21
-0.055
 31
0.0
  0
LINE
  5
54
330
4E
100
AcDbEntity
 67
     1
  8
1
  6
CONTINUOUS
 62
    18
100
AcDbLine
 10
6.691584
 20
5.832481
 30
0.0
 11
6.570627
 21
5.834593
 31
0.0
  0
LINE
  5
55
330
4E
100
AcDbEntity
 67
     1
  8
1
  6
CONTINUOUS
 62
    18
100
AcDbLine
 10
6.803246
 20
5.827061
 30
0.0
 11
6.716225
 21
5.755862
 31
0.0
  0
LINE
  5
56
330
4E
100
AcDbEntity
 67
     1
  8
1
  6
CONTINUOUS
 62
    18
100
AcDbLine
 10
6.67408
 20
5.761937
 30
0.0
 11
6.67408
 21
5.752174
 31
0.0
  0
LINE
  5
57
330
4E
100
AcDbEntity
 67
     1
  8
1
  6
CONTINUOUS
 62
    18
100
AcDbLine
 10
6.716225
 20
5.755862
 30
0.0
 11
6.67408
 21
5.752174
 31
0.0
  0
LINE
  5
58
330
4E
100
AcDbEntity
 67
     1
  8
1
  6
CONTINUOUS
 62
    18
100
AcDbLine
 10
6.691584
 20
5.802175
 30
0.0
 11
6.691584
 21
5.832481
 31
0.0
  0
LINE
  5
59
330
4E
100
AcDbEntity
 67
     1
  8
1
  6
CONTINUOUS
 62
    18
100
AcDbLine
 10
6.570627
 20
5.902133
 30
0.0
 11
6.80763
 21
5.88556
 31
0.0
  0
LINE
  5
5A
330
4E
100
AcDbEntity
 67
     1
  8
1
  6
CONTINUOUS
 62
    18
100
AcDbLine
 10
6.570627
 20
3.352109
 30
0.0
 11
6.570627
 21
5.073045
 31
0.0
  0
LINE
  5
5B
330
4E
100
AcDbEntity
 67
     1
  8
1
  6
CONTINUOUS
 62
    18
100
AcDbLine
 10
6.570627
 20
3.259109
 30
0.0
 11
6.570627
 21
7.696761
 31
0.0
  0
LINE
  5
5C
330
4E
100
AcDbEntity
 67
     1
  8
1
  6
CONTINUOUS
 62
    18
100
AcDbLine
 10
6.570627
 20
3.227935
 30
0.0
 11
6.264909
 21
3.249313
 31
0.0
  0
LINE
  5
5D
330
4E
100
AcDbEntity
 67
     1
  8
1
  6
CONTINUOUS
 62
    18
100
AcDbLine
 10
6.264909
 20
7.706557
 30
0.0
 11
6.570627
 21
7.727935
 31
0.0
  0
LINE
  5
5E
330
4E
100
AcDbEntity
 67
     1
  8
1
  6
CONTINUOUS
 62
    18
100
AcDbLine
 10
2.040349
 20
5.776251
 30
0.0
 11
2.040349
 21
5.114154
 31
0.0
  0
LINE
  5
5F
330
4E
100
AcDbEntity
 67
     1
  8
1
  6
CONTINUOUS
 62
    18
100
AcDbLine
 10
1.480753
 20
5.841715
 30
0.0
 11
1.480753
 21
5.776251
 31
0.0
  0
LINE
  5
60
330
4E
100
AcDbEntity
 67
     1
  8
1
  6
CONTINUOUS
 62
    18
100
AcDbLine
 10
1.972849
 20
5.776251
 30
0.0
 11
1.972849
 21
5.841715
 31
0.0
  0
LINE
  5
61
330
4E
100
AcDbEntity
 67
     1
  8
1
  6
CONTINUOUS
 62
    18
100
AcDbLine
 10
1.624651
 20
5.802175
 30
0.0
 11
1.624651
 21
5.832481
 31
0.0
  0
LINE
  5
62
330
4E
100
AcDbEntity
 67
     1
  8
1
  6
CONTINUOUS
 62
    18
100
AcDbLine
 10
1.413253
 20
5.114154
 30
0.0
 11
2.040349
 21
5.114154
 31
0.0
  0
LINE
  5
63
330
4E
100
AcDbEntity
 67
     1
  8
1
  6
CONTINUOUS
 62
    18
100
AcDbLine
 10
1.828951
 20
5.832481
 30
0.0
 11
1.853528
 21
5.840667
 31
0.0
  0
LINE
  5
64
330
4E
100
AcDbEntity
 67
     1
  8
1
  6
CONTINUOUS
 62
    18
100
AcDbLine
 10
1.624651
 20
5.832481
 30
0.0
 11
1.600075
 21
5.840667
 31
0.0
  0
LINE
  5
65
330
4E
100
AcDbEntity
 67
     1
  8
1
  6
CONTINUOUS
 62
    18
100
AcDbLine
 10
1.829869
 20
5.761937
 30
0.0
 11
1.829869
 21
5.752174
 31
0.0
  0
LINE
  5
66
330
4E
100
AcDbEntity
 67
     1
  8
1
  6
CONTINUOUS
 62
    18
100
AcDbLine
 10
1.623734
 20
5.752174
 30
0.0
 11
1.829869
 21
5.752174
 31
0.0
  0
LINE
  5
67
330
4E
100
AcDbEntity
 67
     1
  8
1
  6
CONTINUOUS
 62
    18
100
AcDbLine
 10
1.623734
 20
5.761937
 30
0.0
 11
1.829869
 21
5.761937
 31
0.0
  0
LINE
  5
68
330
4E
100
AcDbEntity
 67
     1
  8
1
  6
CONTINUOUS
 62
    18
100
AcDbLine
 10
1.624651
 20
5.832481
 30
0.0
 11
1.828951
 21
5.832481
 31
0.0
  0
LINE
  5
69
330
4E
100
AcDbEntity
 67
     1
  8
1
  6
CONTINUOUS
 62
    18
100
AcDbLine
 10
1.624651
 20
5.802175
 30
0.0
 11
1.828951
 21
5.802175
 31
0.0
  0
LINE
  5
6A
330
4E
100
AcDbEntity
 67
     1
  8
1
  6
CONTINUOUS
 62
    18
100
AcDbLine
 10
1.623734
 20
5.761937
 30
0.0
 11
1.623734
 21
5.752174
 31
0.0
  0
LINE
  5
6B
330
4E
100
AcDbEntity
 67
     1
  8
1
  6
CONTINUOUS
 62
    18
100
AcDbLine
 10
1.972849
 20
5.776251
 30
0.0
 11
2.040349
 21
5.776251
 31
0.0
  0
LINE
  5
6C
330
4E
100
AcDbEntity
 67
     1
  8
1
  6
CONTINUOUS
 62
    18
100
AcDbLine
 10
1.413253
 20
5.776251
 30
0.0
 11
1.413253
 21
5.114154
 31
0.0
  0
LINE
  5
6D
330
4E
100
AcDbEntity
 67
     1
  8
1
  6
CONTINUOUS
 62
    18
100
AcDbLine
 10
1.413253
 20
5.776251
 30
0.0
 11
1.480753
 21
5.776251
 31
0.0
  0
LINE
  5
6E
330
4E
100
AcDbEntity
 67
     1
  8
1
  6
CONTINUOUS
 62
    18
100
AcDbLine
 10
1.972849
 20
5.841715
 30
0.0
 11
1.480753
 21
5.841715
 31
0.0
  0
LINE
  5
6F
330
4E
100
AcDbEntity
 67
     1
  8
1
  6
CONTINUOUS
 62
    18
100
AcDbLine
 10
1.81374
 20
5.133802
 30
0.0
 11
1.81374
 21
5.115006
 31
0.0
  0
LINE
  5
70
330
4E
100
AcDbEntity
 67
     1
  8
1
  6
CONTINUOUS
 62
    18
100
AcDbLine
 10
1.639862
 20
5.115006
 30
0.0
 11
1.81374
 21
5.115006
 31
0.0
  0
LINE
  5
71
330
4E
100
AcDbEntity
 67
     1
  8
1
  6
CONTINUOUS
 62
    18
100
AcDbLine
 10
1.639862
 20
5.143801
 30
0.0
 11
1.81374
 21
5.143801
 31
0.0
  0
LINE
  5
72
330
4E
100
AcDbEntity
 67
     1
  8
1
  6
CONTINUOUS
 62
    18
100
AcDbLine
 10
1.828951
 20
5.802175
 30
0.0
 11
1.828951
 21
5.832481
 31
0.0
  0
LINE
  5
73
330
4E
100
AcDbEntity
 67
     1
  8
1
  6
CONTINUOUS
 62
    18
100
AcDbLine
 10
2.633013
 20
4.043435
 30
0.0
 11
0.820589
 21
4.043435
 31
0.0
  0
LINE
  5
74
330
4E
100
AcDbEntity
 67
     1
  8
1
  6
CONTINUOUS
 62
    18
100
AcDbLine
 10
2.599226
 20
4.042387
 30
0.0
 11
0.854377
 21
4.042387
 31
0.0
  0
LINE
  5
75
330
4E
100
AcDbEntity
 67
     1
  8
1
  6
CONTINUOUS
 62
    18
100
AcDbLine
 10
1.664301
 20
3.990834
 30
0.0
 11
1.789301
 21
3.990834
 31
0.0
  0
LINE
  5
76
330
4E
100
AcDbEntity
 67
     1
  8
1
  6
CONTINUOUS
 62
    18
100
AcDbLine
 10
1.789301
 20
3.684036
 30
0.0
 11
1.664301
 21
3.684036
 31
0.0
  0
LINE
  5
77
330
4E
100
AcDbEntity
 67
     1
  8
1
  6
CONTINUOUS
 62
    18
100
AcDbLine
 10
2.726801
 20
7.324435
 30
0.0
 11
2.726801
 21
3.631435
 31
0.0
  0
LINE
  5
78
330
4E
100
AcDbEntity
 67
     1
  8
1
  6
CONTINUOUS
 62
    18
100
AcDbLine
 10
0.726801
 20
7.324435
 30
0.0
 11
0.726801
 21
3.631435
 31
0.0
  0
LINE
  5
79
330
4E
100
AcDbEntity
 67
     1
  8
1
  6
CONTINUOUS
 62
    18
100
AcDbLine
 10
1.776801
 20
7.069435
 30
0.0
 11
1.676801
 21
7.069435
 31
0.0
  0
LINE
  5
7A
330
4E
100
AcDbEntity
 67
     1
  8
1
  6
CONTINUOUS
 62
    18
100
AcDbLine
 10
1.776801
 20
7.069435
 30
0.0
 11
1.776801
 21
7.041418
 31
0.0
  0
LINE
  5
7B
330
4E
100
AcDbEntity
 67
     1
  8
1
  6
CONTINUOUS
 62
    18
100
AcDbLine
 10
1.676801
 20
7.069435
 30
0.0
 11
1.676801
 21
7.041418
 31
0.0
  0
LINE
  5
7C
330
4E
100
AcDbEntity
 67
     1
  8
1
  6
CONTINUOUS
 62
    18
100
AcDbLine
 10
1.776801
 20
7.167435
 30
0.0
 11
1.776801
 21
7.195452
 31
0.0
  0
LINE
  5
7D
330
4E
100
AcDbEntity
 67
     1
  8
1
  6
CONTINUOUS
 62
    18
100
AcDbLine
 10
1.676801
 20
7.167435
 30
0.0
 11
1.676801
 21
7.195452
 31
0.0
  0
LINE
  5
7E
330
4E
100
AcDbEntity
 67
     1
  8
1
  6
CONTINUOUS
 62
    18
100
AcDbLine
 10
1.664301
 20
6.965035
 30
0.0
 11
1.789301
 21
6.965035
 31
0.0
  0
LINE
  5
7F
330
4E
100
AcDbEntity
 67
     1
  8
1
  6
CONTINUOUS
 62
    18
100
AcDbLine
 10
1.789301
 20
7.271834
 30
0.0
 11
1.664301
 21
7.271834
 31
0.0
  0
LINE
  5
80
330
4E
100
AcDbEntity
 67
     1
  8
1
  6
CONTINUOUS
 62
    18
100
AcDbLine
 10
0.851752
 20
6.912959
 30
0.0
 11
0.822687
 21
6.912959
 31
0.0
  0
LINE
  5
81
330
4E
100
AcDbEntity
 67
     1
  8
1
  6
CONTINUOUS
 62
    18
100
AcDbLine
 10
0.822687
 20
7.323911
 30
0.0
 11
0.851752
 21
7.323911
 31
0.0
  0
LINE
  5
82
330
4E
100
AcDbEntity
 67
     1
  8
1
  6
CONTINUOUS
 62
    18
100
AcDbLine
 10
0.854377
 20
7.323388
 30
0.0
 11
0.854377
 21
6.913482
 31
0.0
  0
LINE
  5
83
330
4E
100
AcDbEntity
 67
     1
  8
1
  6
CONTINUOUS
 62
    18
100
AcDbLine
 10
0.789301
 20
7.293218
 30
0.0
 11
0.789301
 21
6.943652
 31
0.0
  0
LINE
  5
84
330
4E
100
AcDbEntity
 67
     1
  8
1
  6
CONTINUOUS
 62
    18
100
AcDbLine
 10
2.599226
 20
3.632482
 30
0.0
 11
2.601851
 21
3.631958
 31
0.0
  0
LINE
  5
85
330
4E
100
AcDbEntity
 67
     1
  8
1
  6
CONTINUOUS
 62
    18
100
AcDbLine
 10
2.601851
 20
4.042911
 30
0.0
 11
2.630915
 21
4.042911
 31
0.0
  0
LINE
  5
86
330
4E
100
AcDbEntity
 67
     1
  8
1
  6
CONTINUOUS
 62
    18
100
AcDbLine
 10
2.633101
 20
3.631958
 30
0.0
 11
2.601851
 21
3.631958
 31
0.0
  0
LINE
  5
87
330
4E
100
AcDbEntity
 67
     1
  8
1
  6
CONTINUOUS
 62
    18
100
AcDbLine
 10
2.599226
 20
3.632482
 30
0.0
 11
2.599226
 21
4.042387
 31
0.0
  0
LINE
  5
88
330
4E
100
AcDbEntity
 67
     1
  8
1
  6
CONTINUOUS
 62
    18
100
AcDbLine
 10
2.664301
 20
3.662652
 30
0.0
 11
2.664301
 21
4.012218
 31
0.0
  0
LINE
  5
89
330
4E
100
AcDbEntity
 67
     1
  8
1
  6
CONTINUOUS
 62
    18
100
AcDbLine
 10
0.854377
 20
3.632482
 30
0.0
 11
0.851752
 21
3.631958
 31
0.0
  0
LINE
  5
8A
330
4E
100
AcDbEntity
 67
     1
  8
1
  6
CONTINUOUS
 62
    18
100
AcDbLine
 10
2.726801
 20
3.631435
 30
0.0
 11
0.726801
 21
3.631435
 31
0.0
  0
LINE
  5
8B
330
4E
100
AcDbEntity
 67
     1
  8
1
  6
CONTINUOUS
 62
    18
100
AcDbLine
 10
2.599226
 20
7.323388
 30
0.0
 11
2.601851
 21
7.323911
 31
0.0
  0
LINE
  5
8C
330
4E
100
AcDbEntity
 67
     1
  8
1
  6
CONTINUOUS
 62
    18
100
AcDbLine
 10
2.601851
 20
6.912959
 30
0.0
 11
2.630915
 21
6.912959
 31
0.0
  0
LINE
  5
8D
330
4E
100
AcDbEntity
 67
     1
  8
1
  6
CONTINUOUS
 62
    18
100
AcDbLine
 10
2.662203
 20
6.944175
 30
0.0
 11
2.662203
 21
7.292695
 31
0.0
  0
LINE
  5
8E
330
4E
100
AcDbEntity
 67
     1
  8
1
  6
CONTINUOUS
 62
    18
100
AcDbLine
 10
2.630915
 20
7.323911
 30
0.0
 11
2.601851
 21
7.323911
 31
0.0
  0
LINE
  5
8F
330
4E
100
AcDbEntity
 67
     1
  8
1
  6
CONTINUOUS
 62
    18
100
AcDbLine
 10
2.599226
 20
7.323388
 30
0.0
 11
2.599226
 21
6.913482
 31
0.0
  0
LINE
  5
90
330
4E
100
AcDbEntity
 67
     1
  8
1
  6
CONTINUOUS
 62
    18
100
AcDbLine
 10
2.664301
 20
7.293218
 30
0.0
 11
2.664301
 21
6.943652
 31
0.0
  0
LINE
  5
91
330
4E
100
AcDbEntity
 67
     1
  8
1
  6
CONTINUOUS
 62
    18
100
AcDbLine
 10
1.776801
 20
3.760417
 30
0.0
 11
1.789301
 21
3.760417
 31
0.0
  0
LINE
  5
92
330
4E
100
AcDbEntity
 67
     1
  8
1
  6
CONTINUOUS
 62
    18
100
AcDbLine
 10
1.676801
 20
3.760417
 30
0.0
 11
1.664301
 21
3.760417
 31
0.0
  0
LINE
  5
93
330
4E
100
AcDbEntity
 67
     1
  8
1
  6
CONTINUOUS
 62
    18
100
AcDbLine
 10
1.776801
 20
3.760417
 30
0.0
 11
1.676801
 21
3.760417
 31
0.0
  0
LINE
  5
94
330
4E
100
AcDbEntity
 67
     1
  8
1
  6
CONTINUOUS
 62
    18
100
AcDbLine
 10
1.789301
 20
3.914452
 30
0.0
 11
1.776801
 21
3.914452
 31
0.0
  0
LINE
  5
95
330
4E
100
AcDbEntity
 67
     1
  8
1
  6
CONTINUOUS
 62
    18
100
AcDbLine
 10
1.676801
 20
3.914452
 30
0.0
 11
1.776801
 21
3.914452
 31
0.0
  0
LINE
  5
96
330
4E
100
AcDbEntity
 67
     1
  8
1
  6
CONTINUOUS
 62
    18
100
AcDbLine
 10
1.664301
 20
3.914452
 30
0.0
 11
1.676801
 21
3.914452
 31
0.0
  0
LINE
  5
97
330
4E
100
AcDbEntity
 67
     1
  8
1
  6
CONTINUOUS
 62
    18
100
AcDbLine
 10
1.639862
 20
5.133802
 30
0.0
 11
1.81374
 21
5.133802
 31
0.0
  0
LINE
  5
98
330
4E
100
AcDbEntity
 67
     1
  8
1
  6
CONTINUOUS
 62
    18
100
AcDbLine
 10
1.639862
 20
5.133802
 30
0.0
 11
1.639862
 21
5.115006
 31
0.0
  0
LINE
  5
99
330
4E
100
AcDbEntity
 67
     1
  8
1
  6
CONTINUOUS
 62
    18
100
AcDbLine
 10
1.676801
 20
3.788435
 30
0.0
 11
1.676801
 21
3.760417
 31
0.0
  0
LINE
  5
9A
330
4E
100
AcDbEntity
 67
     1
  8
1
  6
CONTINUOUS
 62
    18
100
AcDbLine
 10
1.776801
 20
3.788435
 30
0.0
 11
1.676801
 21
3.788435
 31
0.0
  0
LINE
  5
9B
330
4E
100
AcDbEntity
 67
     1
  8
1
  6
CONTINUOUS
 62
    18
100
AcDbLine
 10
1.776801
 20
3.788435
 30
0.0
 11
1.776801
 21
3.760417
 31
0.0
  0
LINE
  5
9C
330
4E
100
AcDbEntity
 67
     1
  8
1
  6
CONTINUOUS
 62
    18
100
AcDbLine
 10
1.676801
 20
3.886435
 30
0.0
 11
1.676801
 21
3.914452
 31
0.0
  0
LINE
  5
9D
330
4E
100
AcDbEntity
 67
     1
  8
1
  6
CONTINUOUS
 62
    18
100
AcDbLine
 10
1.776801
 20
3.886435
 30
0.0
 11
1.776801
 21
3.914452
 31
0.0
  0
LINE
  5
9E
330
4E
100
AcDbEntity
 67
     1
  8
1
  6
CONTINUOUS
 62
    18
100
AcDbLine
 10
1.776801
 20
3.886435
 30
0.0
 11
1.676801
 21
3.886435
 31
0.0
  0
LINE
  5
9F
330
4E
100
AcDbEntity
 67
     1
  8
1
  6
CONTINUOUS
 62
    18
100
AcDbLine
 10
0.351801
 20
3.259109
 30
0.0
 11
0.351801
 21
7.696761
 31
0.0
  0
LINE
  5
A0
330
4E
100
AcDbEntity
 67
     1
  8
1
  6
CONTINUOUS
 62
    18
100
AcDbLine
 10
1.776801
 20
7.195452
 30
0.0
 11
1.676801
 21
7.195452
 31
0.0
  0
LINE
  5
A1
330
4E
100
AcDbEntity
 67
     1
  8
1
  6
CONTINUOUS
 62
    18
100
AcDbLine
 10
1.789301
 20
7.041418
 30
0.0
 11
1.776801
 21
7.041418
 31
0.0
  0
LINE
  5
A2
330
4E
100
AcDbEntity
 67
     1
  8
1
  6
CONTINUOUS
 62
    18
100
AcDbLine
 10
1.676801
 20
7.041418
 30
0.0
 11
1.776801
 21
7.041418
 31
0.0
  0
LINE
  5
A3
330
4E
100
AcDbEntity
 67
     1
  8
1
  6
CONTINUOUS
 62
    18
100
AcDbLine
 10
1.664301
 20
7.041418
 30
0.0
 11
1.676801
 21
7.041418
 31
0.0
  0
LINE
  5
A4
330
4E
100
AcDbEntity
 67
     1
  8
1
  6
CONTINUOUS
 62
    18
100
AcDbLine
 10
1.676801
 20
7.195452
 30
0.0
 11
1.664301
 21
7.195452
 31
0.0
  0
LINE
  5
A5
330
4E
100
AcDbEntity
 67
     1
  8
1
  6
CONTINUOUS
 62
    18
100
AcDbLine
 10
3.101801
 20
3.259109
 30
0.0
 11
3.101801
 21
7.696761
 31
0.0
  0
LINE
  5
A6
330
4E
100
AcDbEntity
 67
     1
  8
1
  6
CONTINUOUS
 62
    18
100
AcDbLine
 10
0.382975
 20
3.227935
 30
0.0
 11
3.070627
 21
3.227935
 31
0.0
  0
LINE
  5
A7
330
4E
100
AcDbEntity
 67
     1
  8
1
  6
CONTINUOUS
 62
    18
100
AcDbLine
 10
2.599226
 20
3.632482
 30
0.0
 11
0.854377
 21
3.632482
 31
0.0
  0
LINE
  5
A8
330
4E
100
AcDbEntity
 67
     1
  8
1
  6
CONTINUOUS
 62
    18
100
AcDbLine
 10
1.776801
 20
7.195452
 30
0.0
 11
1.789301
 21
7.195452
 31
0.0
  0
LINE
  5
A9
330
4E
100
AcDbEntity
 67
     1
  8
1
  6
CONTINUOUS
 62
    18
100
AcDbLine
 10
1.776801
 20
7.167435
 30
0.0
 11
1.676801
 21
7.167435
 31
0.0
  0
LINE
  5
AA
330
4E
100
AcDbEntity
 67
     1
  8
1
  6
CONTINUOUS
 62
    18
100
AcDbLine
 10
2.633013
 20
6.912435
 30
0.0
 11
0.820589
 21
6.912435
 31
0.0
  0
LINE
  5
AB
330
4E
100
AcDbEntity
 67
     1
  8
1
  6
CONTINUOUS
 62
    18
100
AcDbLine
 10
2.599226
 20
6.913482
 30
0.0
 11
0.854377
 21
6.913482
 31
0.0
  0
LINE
  5
AC
330
4E
100
AcDbEntity
 67
     1
  8
1
  6
CONTINUOUS
 62
    18
100
AcDbLine
 10
2.726801
 20
7.324435
 30
0.0
 11
0.726801
 21
7.324435
 31
0.0
  0
LINE
  5
AD
330
4E
100
AcDbEntity
 67
     1
  8
1
  6
CONTINUOUS
 62
    18
100
AcDbLine
 10
0.851752
 20
4.042911
 30
0.0
 11
0.822687
 21
4.042911
 31
0.0
  0
LINE
  5
AE
330
4E
100
AcDbEntity
 67
     1
  8
1
  6
CONTINUOUS
 62
    18
100
AcDbLine
 10
0.822687
 20
3.631958
 30
0.0
 11
0.851752
 21
3.631958
 31
0.0
  0
LINE
  5
AF
330
4E
100
AcDbEntity
 67
     1
  8
1
  6
CONTINUOUS
 62
    18
100
AcDbLine
 10
0.854377
 20
3.632482
 30
0.0
 11
0.854377
 21
4.042387
 31
0.0
  0
LINE
  5
B0
330
4E
100
AcDbEntity
 67
     1
  8
1
  6
CONTINUOUS
 62
    18
100
AcDbLine
 10
0.789301
 20
3.662652
 30
0.0
 11
0.789301
 21
4.012218
 31
0.0
  0
LINE
  5
B1
330
4E
100
AcDbEntity
 67
     1
  8
1
  6
CONTINUOUS
 62
    18
100
AcDbLine
 10
3.070627
 20
7.727935
 30
0.0
 11
0.382975
 21
7.727935
 31
0.0
  0
LINE
  5
B2
330
4E
100
AcDbEntity
 67
     1
  8
1
  6
CONTINUOUS
 62
    18
100
AcDbLine
 10
1.639862
 20
5.143801
 30
0.0
 11
1.639862
 21
5.140811
 31
0.0
  0
LINE
  5
B3
330
4E
100
AcDbEntity
 67
     1
  8
1
  6
CONTINUOUS
 62
    18
100
AcDbLine
 10
1.639862
 20
5.140811
 30
0.0
 11
1.639862
 21
5.133802
 31
0.0
  0
LINE
  5
B4
330
4E
100
AcDbEntity
 67
     1
  8
1
  6
CONTINUOUS
 62
    18
100
AcDbLine
 10
1.81374
 20
5.143801
 30
0.0
 11
1.81374
 21
5.140811
 31
0.0
  0
LINE
  5
B5
330
4E
100
AcDbEntity
 67
     1
  8
1
  6
CONTINUOUS
 62
    18
100
AcDbLine
 10
1.81374
 20
5.140811
 30
0.0
 11
1.81374
 21
5.133802
 31
0.0
  0
LINE
  5
B6
330
4E
100
AcDbEntity
 67
     1
  8
1
  6
CONTINUOUS
 62
    18
100
AcDbLine
 10
6.821486
 20
5.868886
 30
0.0
 11
6.81812
 21
5.880183
 31
0.0
  0
LINE
  5
B7
330
4E
100
AcDbEntity
 67
     1
  8
1
  6
CONTINUOUS
 62
    18
100
AcDbLine
 10
6.81812
 20
5.880183
 30
0.0
 11
6.80763
 21
5.88556
 31
0.0
  0
LINE
  5
B8
330
4E
100
AcDbEntity
 67
     1
  8
1
  6
CONTINUOUS
 62
    18
100
AcDbLine
 10
6.803246
 20
5.827061
 30
0.0
 11
6.817415
 21
5.845771
 31
0.0
  0
LINE
  5
B9
330
4E
100
AcDbEntity
 67
     1
  8
1
  6
CONTINUOUS
 62
    18
100
AcDbLine
 10
6.817415
 20
5.845771
 30
0.0
 11
6.821486
 21
5.868886
 31
0.0
  0
LINE
  5
BA
330
4E
100
AcDbEntity
 67
     1
  8
1
  6
CONTINUOUS
 62
    18
100
AcDbLine
 10
6.675671
 20
5.765595
 30
0.0
 11
6.67408
 21
5.761937
 31
0.0
  0
LINE
  5
BB
330
4E
100
AcDbEntity
 67
     1
  8
1
  6
CONTINUOUS
 62
    18
100
AcDbLine
 10
6.675671
 20
5.765595
 30
0.0
 11
6.687434
 21
5.782229
 31
0.0
  0
LINE
  5
BC
330
4E
100
AcDbEntity
 67
     1
  8
1
  6
CONTINUOUS
 62
    18
100
AcDbLine
 10
6.687434
 20
5.782229
 30
0.0
 11
6.691584
 21
5.802175
 31
0.0
  0
LINE
  5
BD
330
4E
100
AcDbEntity
 67
     1
  8
1
  6
CONTINUOUS
 62
    18
100
AcDbLine
 10
6.236608
 20
3.273598
 30
0.0
 11
6.179138
 21
3.545404
 31
0.0
  0
LINE
  5
BE
330
4E
100
AcDbEntity
 67
     1
  8
1
  6
CONTINUOUS
 62
    18
100
AcDbLine
 10
6.179138
 20
3.545404
 30
0.0
 11
6.129241
 21
3.818701
 31
0.0
  0
LINE
  5
BF
330
4E
100
AcDbEntity
 67
     1
  8
1
  6
CONTINUOUS
 62
    18
100
AcDbLine
 10
6.129241
 20
3.818701
 30
0.0
 11
6.086955
 21
4.093279
 31
0.0
  0
LINE
  5
C0
330
4E
100
AcDbEntity
 67
     1
  8
1
  6
CONTINUOUS
 62
    18
100
AcDbLine
 10
6.086955
 20
4.093279
 30
0.0
 11
6.052313
 21
4.368926
 31
0.0
  0
LINE
  5
C1
330
4E
100
AcDbEntity
 67
     1
  8
1
  6
CONTINUOUS
 62
    18
100
AcDbLine
 10
6.052313
 20
4.368926
 30
0.0
 11
6.025341
 21
4.645428
 31
0.0
  0
LINE
  5
C2
330
4E
100
AcDbEntity
 67
     1
  8
1
  6
CONTINUOUS
 62
    18
100
AcDbLine
 10
6.025341
 20
4.645428
 30
0.0
 11
6.006061
 21
4.922573
 31
0.0
  0
LINE
  5
C3
330
4E
100
AcDbEntity
 67
     1
  8
1
  6
CONTINUOUS
 62
    18
100
AcDbLine
 10
6.006061
 20
4.922573
 30
0.0
 11
5.994486
 21
5.200147
 31
0.0
  0
LINE
  5
C4
330
4E
100
AcDbEntity
 67
     1
  8
1
  6
CONTINUOUS
 62
    18
100
AcDbLine
 10
5.994486
 20
5.200147
 30
0.0
 11
5.990627
 21
5.477935
 31
0.0
  0
LINE
  5
C5
330
4E
100
AcDbEntity
 67
     1
  8
1
  6
CONTINUOUS
 62
    18
100
AcDbLine
 10
5.990627
 20
5.477935
 30
0.0
 11
5.994486
 21
5.755723
 31
0.0
  0
LINE
  5
C6
330
4E
100
AcDbEntity
 67
     1
  8
1
  6
CONTINUOUS
 62
    18
100
AcDbLine
 10
5.994486
 20
5.755723
 30
0.0
 11
6.006061
 21
6.033297
 31
0.0
  0
LINE
  5
C7
330
4E
100
AcDbEntity
 67
     1
  8
1
  6
CONTINUOUS
 62
    18
100
AcDbLine
 10
6.006061
 20
6.033297
 30
0.0
 11
6.025341
 21
6.310441
 31
0.0
  0
LINE
  5
C8
330
4E
100
AcDbEntity
 67
     1
  8
1
  6
CONTINUOUS
 62
    18
100
AcDbLine
 10
6.025341
 20
6.310441
 30
0.0
 11
6.052313
 21
6.586944
 31
0.0
  0
LINE
  5
C9
330
4E
100
AcDbEntity
 67
     1
  8
1
  6
CONTINUOUS
 62
    18
100
AcDbLine
 10
6.052313
 20
6.586944
 30
0.0
 11
6.086955
 21
6.862591
 31
0.0
  0
LINE
  5
CA
330
4E
100
AcDbEntity
 67
     1
  8
1
  6
CONTINUOUS
 62
    18
100
AcDbLine
 10
6.086955
 20
6.862591
 30
0.0
 11
6.129241
 21
7.137168
 31
0.0
  0
LINE
  5
CB
330
4E
100
AcDbEntity
 67
     1
  8
1
  6
CONTINUOUS
 62
    18
100
AcDbLine
 10
6.129241
 20
7.137168
 30
0.0
 11
6.179138
 21
7.410466
 31
0.0
  0
LINE
  5
CC
330
4E
100
AcDbEntity
 67
     1
  8
1
  6
CONTINUOUS
 62
    18
100
AcDbLine
 10
6.179138
 20
7.410466
 30
0.0
 11
6.236608
 21
7.682271
 31
0.0
  0
LINE
  5
CD
330
4E
100
AcDbEntity
 67
     1
  8
1
  6
CONTINUOUS
 62
    18
100
AcDbLine
 10
6.570627
 20
3.227935
 30
0.0
 11
6.570627
 21
3.232106
 31
0.0
  0
LINE
  5
CE
330
4E
100
AcDbEntity
 67
     1
  8
1
  6
CONTINUOUS
 62
    18
100
AcDbLine
 10
6.570627
 20
3.232106
 30
0.0
 11
6.570627
 21
3.24351
 31
0.0
  0
LINE
  5
CF
330
4E
100
AcDbEntity
 67
     1
  8
1
  6
CONTINUOUS
 62
    18
100
AcDbLine
 10
6.570627
 20
3.24351
 30
0.0
 11
6.570627
 21
3.259109
 31
0.0
  0
LINE
  5
D0
330
4E
100
AcDbEntity
 67
     1
  8
1
  6
CONTINUOUS
 62
    18
100
AcDbLine
 10
6.570627
 20
7.696761
 30
0.0
 11
6.570627
 21
7.712359
 31
0.0
  0
LINE
  5
D1
330
4E
100
AcDbEntity
 67
     1
  8
1
  6
CONTINUOUS
 62
    18
100
AcDbLine
 10
6.570627
 20
7.712359
 30
0.0
 11
6.570627
 21
7.723763
 31
0.0
  0
LINE
  5
D2
330
4E
100
AcDbEntity
 67
     1
  8
1
  6
CONTINUOUS
 62
    18
100
AcDbLine
 10
6.570627
 20
7.723763
 30
0.0
 11
6.570627
 21
7.727935
 31
0.0
  0
LINE
  5
D3
330
4E
100
AcDbEntity
 67
     1
  8
1
  6
CONTINUOUS
 62
    18
100
AcDbLine
 10
1.623817
 20
5.765595
 30
0.0
 11
1.624434
 21
5.782229
 31
0.0
  0
LINE
  5
D4
330
4E
100
AcDbEntity
 67
     1
  8
1
  6
CONTINUOUS
 62
    18
100
AcDbLine
 10
1.624434
 20
5.782229
 30
0.0
 11
1.624651
 21
5.802175
 31
0.0
  0
LINE
  5
D5
330
4E
100
AcDbEntity
 67
     1
  8
1
  6
CONTINUOUS
 62
    18
100
AcDbLine
 10
1.623817
 20
5.765595
 30
0.0
 11
1.623734
 21
5.761937
 31
0.0
  0
LINE
  5
D6
330
4E
100
AcDbEntity
 67
     1
  8
1
  6
CONTINUOUS
 62
    18
100
AcDbLine
 10
1.829785
 20
5.765595
 30
0.0
 11
1.829869
 21
5.761937
 31
0.0
  0
LINE
  5
D7
330
4E
100
AcDbEntity
 67
     1
  8
1
  6
CONTINUOUS
 62
    18
100
AcDbLine
 10
1.829785
 20
5.765595
 30
0.0
 11
1.829169
 21
5.782229
 31
0.0
  0
LINE
  5
D8
330
4E
100
AcDbEntity
 67
     1
  8
1
  6
CONTINUOUS
 62
    18
100
AcDbLine
 10
1.829169
 20
5.782229
 30
0.0
 11
1.828951
 21
5.802175
 31
0.0
  0
LINE
  5
D9
330
4E
100
AcDbEntity
 67
     1
  8
1
  6
CONTINUOUS
 62
    18
100
AcDbLine
 10
0.820589
 20
6.912435
 30
0.0
 11
0.804942
 21
6.916616
 31
0.0
  0
LINE
  5
DA
330
4E
100
AcDbEntity
 67
     1
  8
1
  6
CONTINUOUS
 62
    18
100
AcDbLine
 10
0.804942
 20
6.916616
 30
0.0
 11
0.793492
 21
6.92804
 31
0.0
  0
LINE
  5
DB
330
4E
100
AcDbEntity
 67
     1
  8
1
  6
CONTINUOUS
 62
    18
100
AcDbLine
 10
0.793492
 20
6.92804
 30
0.0
 11
0.789301
 21
6.943652
 31
0.0
  0
LINE
  5
DC
330
4E
100
AcDbEntity
 67
     1
  8
1
  6
CONTINUOUS
 62
    18
100
AcDbLine
 10
0.789301
 20
7.293218
 30
0.0
 11
0.793492
 21
7.308829
 31
0.0
  0
LINE
  5
DD
330
4E
100
AcDbEntity
 67
     1
  8
1
  6
CONTINUOUS
 62
    18
100
AcDbLine
 10
0.793492
 20
7.308829
 30
0.0
 11
0.804942
 21
7.320254
 31
0.0
  0
LINE
  5
DE
330
4E
100
AcDbEntity
 67
     1
  8
1
  6
CONTINUOUS
 62
    18
100
AcDbLine
 10
0.804942
 20
7.320254
 30
0.0
 11
0.820589
 21
7.324435
 31
0.0
  0
LINE
  5
DF
330
4E
100
AcDbEntity
 67
     1
  8
1
  6
CONTINUOUS
 62
    18
100
AcDbLine
 10
2.633013
 20
4.043435
 30
0.0
 11
2.64866
 21
4.039254
 31
0.0
  0
LINE
  5
E0
330
4E
100
AcDbEntity
 67
     1
  8
1
  6
CONTINUOUS
 62
    18
100
AcDbLine
 10
2.64866
 20
4.039254
 30
0.0
 11
2.660111
 21
4.027829
 31
0.0
  0
LINE
  5
E1
330
4E
100
AcDbEntity
 67
     1
  8
1
  6
CONTINUOUS
 62
    18
100
AcDbLine
 10
2.660111
 20
4.027829
 30
0.0
 11
2.664301
 21
4.012218
 31
0.0
  0
LINE
  5
E2
330
4E
100
AcDbEntity
 67
     1
  8
1
  6
CONTINUOUS
 62
    18
100
AcDbLine
 10
2.664301
 20
3.662652
 30
0.0
 11
2.660111
 21
3.64704
 31
0.0
  0
LINE
  5
E3
330
4E
100
AcDbEntity
 67
     1
  8
1
  6
CONTINUOUS
 62
    18
100
AcDbLine
 10
2.660111
 20
3.64704
 30
0.0
 11
2.64866
 21
3.635616
 31
0.0
  0
LINE
  5
E4
330
4E
100
AcDbEntity
 67
     1
  8
1
  6
CONTINUOUS
 62
    18
100
AcDbLine
 10
2.64866
 20
3.635616
 30
0.0
 11
2.633013
 21
3.631435
 31
0.0
  0
LINE
  5
E5
330
4E
100
AcDbEntity
 67
     1
  8
1
  6
CONTINUOUS
 62
    18
100
AcDbLine
 10
0.820589
 20
4.043435
 30
0.0
 11
0.804942
 21
4.039254
 31
0.0
  0
LINE
  5
E6
330
4E
100
AcDbEntity
 67
     1
  8
1
  6
CONTINUOUS
 62
    18
100
AcDbLine
 10
0.804942
 20
4.039254
 30
0.0
 11
0.793492
 21
4.027829
 31
0.0
  0
LINE
  5
E7
330
4E
100
AcDbEntity
 67
     1
  8
1
  6
CONTINUOUS
 62
    18
100
AcDbLine
 10
0.793492
 20
4.027829
 30
0.0
 11
0.789301
 21
4.012218
 31
0.0
  0
LINE
  5
E8
330
4E
100
AcDbEntity
 67
     1
  8
1
  6
CONTINUOUS
 62
    18
100
AcDbLine
 10
0.789301
 20
3.662652
 30
0.0
 11
0.793492
 21
3.64704
 31
0.0
  0
LINE
  5
E9
330
4E
100
AcDbEntity
 67
     1
  8
1
  6
CONTINUOUS
 62
    18
100
AcDbLine
 10
0.793492
 20
3.64704
 30
0.0
 11
0.804942
 21
3.635616
 31
0.0
  0
LINE
  5
EA
330
4E
100
AcDbEntity
 67
     1
  8
1
  6
CONTINUOUS
 62
    18
100
AcDbLine
 10
0.804942
 20
3.635616
 30
0.0
 11
0.820589
 21
3.631435
 31
0.0
  0
LINE
  5
EB
330
4E
100
AcDbEntity
 67
     1
  8
1
  6
CONTINUOUS
 62
    18
100
AcDbLine
 10
3.070627
 20
3.227935
 30
0.0
 11
3.086226
 21
3.232106
 31
0.0
  0
LINE
  5
EC
330
4E
100
AcDbEntity
 67
     1
  8
1
  6
CONTINUOUS
 62
    18
100
AcDbLine
 10
3.086226
 20
3.232106
 30
0.0
 11
3.09763
 21
3.24351
 31
0.0
  0
LINE
  5
ED
330
4E
100
AcDbEntity
 67
     1
  8
1
  6
CONTINUOUS
 62
    18
100
AcDbLine
 10
3.09763
 20
3.24351
 30
0.0
 11
3.101801
 21
3.259109
 31
0.0
  0
LINE
  5
EE
330
4E
100
AcDbEntity
 67
     1
  8
1
  6
CONTINUOUS
 62
    18
100
AcDbLine
 10
3.101801
 20
7.696761
 30
0.0
 11
3.09763
 21
7.712359
 31
0.0
  0
LINE
  5
EF
330
4E
100
AcDbEntity
 67
     1
  8
1
  6
CONTINUOUS
 62
    18
100
AcDbLine
 10
3.09763
 20
7.712359
 30
0.0
 11
3.086226
 21
7.723763
 31
0.0
  0
LINE
  5
F0
330
4E
100
AcDbEntity
 67
     1
  8
1
  6
CONTINUOUS
 62
    18
100
AcDbLine
 10
3.086226
 20
7.723763
 30
0.0
 11
3.070627
 21
7.727935
 31
0.0
  0
LINE
  5
F1
330
4E
100
AcDbEntity
 67
     1
  8
1
  6
CONTINUOUS
 62
    18
100
AcDbLine
 10
0.351801
 20
7.696761
 30
0.0
 11
0.355973
 21
7.712359
 31
0.0
  0
LINE
  5
F2
330
4E
100
AcDbEntity
 67
     1
  8
1
  6
CONTINUOUS
 62
    18
100
AcDbLine
 10
0.355973
 20
7.712359
 30
0.0
 11
0.367376
 21
7.723763
 31
0.0
  0
LINE
  5
F3
330
4E
100
AcDbEntity
 67
     1
  8
1
  6
CONTINUOUS
 62
    18
100
AcDbLine
 10
0.367376
 20
7.723763
 30
0.0
 11
0.382975
 21
7.727935
 31
0.0
  0
LINE
  5
F4
330
4E
100
AcDbEntity
 67
     1
  8
1
  6
CONTINUOUS
 62
    18
100
AcDbLine
 10
0.382975
 20
3.227935
 30
0.0
 11
0.367376
 21
3.232106
 31
0.0
  0
LINE
  5
F5
330
4E
100
AcDbEntity
 67
     1
  8
1
  6
CONTINUOUS
 62
    18
100
AcDbLine
 10
0.367376
 20
3.232106
 30
0.0
 11
0.355973
 21
3.24351
 31
0.0
  0
LINE
  5
F6
330
4E
100
AcDbEntity
 67
     1
  8
1
  6
CONTINUOUS
 62
    18
100
AcDbLine
 10
0.355973
 20
3.24351
 30
0.0
 11
0.351801
 21
3.259109
 31
0.0
  0
LINE
  5
F7
330
4E
100
AcDbEntity
 67
     1
  8
1
  6
CONTINUOUS
 62
    18
100
AcDbLine
 10
2.726801
 20
7.324435
 30
0.0
 11
2.731065
 21
7.042916
 31
0.0
  0
LINE
  5
F8
330
4E
100
AcDbEntity
 67
     1
  8
1
  6
CONTINUOUS
 62
    18
100
AcDbLine
 10
2.731065
 20
7.042916
 30
0.0
 11
2.734624
 21
6.760119
 31
0.0
  0
LINE
  5
F9
330
4E
100
AcDbEntity
 67
     1
  8
1
  6
CONTINUOUS
 62
    18
100
AcDbLine
 10
2.734624
 20
6.760119
 30
0.0
 11
2.737475
 21
6.476276
 31
0.0
  0
LINE
  5
FA
330
4E
100
AcDbEntity
 67
     1
  8
1
  6
CONTINUOUS
 62
    18
100
AcDbLine
 10
2.737475
 20
6.476276
 30
0.0
 11
2.739614
 21
6.191619
 31
0.0
  0
LINE
  5
FB
330
4E
100
AcDbEntity
 67
     1
  8
1
  6
CONTINUOUS
 62
    18
100
AcDbLine
 10
2.739614
 20
6.191619
 30
0.0
 11
2.741042
 21
5.906378
 31
0.0
  0
LINE
  5
FC
330
4E
100
AcDbEntity
 67
     1
  8
1
  6
CONTINUOUS
 62
    18
100
AcDbLine
 10
2.741042
 20
5.906378
 30
0.0
 11
2.741756
 21
5.620788
 31
0.0
  0
LINE
  5
FD
330
4E
100
AcDbEntity
 67
     1
  8
1
  6
CONTINUOUS
 62
    18
100
AcDbLine
 10
2.741756
 20
5.620788
 30
0.0
 11
2.741756
 21
5.335082
 31
0.0
  0
LINE
  5
FE
330
4E
100
AcDbEntity
 67
     1
  8
1
  6
CONTINUOUS
 62
    18
100
AcDbLine
 10
2.741756
 20
5.335082
 30
0.0
 11
2.741042
 21
5.049491
 31
0.0
  0
LINE
  5
FF
330
4E
100
AcDbEntity
 67
     1
  8
1
  6
CONTINUOUS
 62
    18
100
AcDbLine
 10
2.741042
 20
5.049491
 30
0.0
 11
2.739614
 21
4.764251
 31
0.0
  0
LINE
  5
100
330
4E
100
AcDbEntity
 67
     1
  8
1
  6
CONTINUOUS
 62
    18
100
AcDbLine
 10
2.739614
 20
4.764251
 30
0.0
 11
2.737475
 21
4.479593
 31
0.0
  0
LINE
  5
101
330
4E
100
AcDbEntity
 67
     1
  8
1
  6
CONTINUOUS
 62
    18
100
AcDbLine
 10
2.737475
 20
4.479593
 30
0.0
 11
2.734624
 21
4.19575
 31
0.0
  0
LINE
  5
102
330
4E
100
AcDbEntity
 67
     1
  8
1
  6
CONTINUOUS
 62
    18
100
AcDbLine
 10
2.734624
 20
4.19575
 30
0.0
 11
2.731065
 21
3.912954
 31
0.0
  0
LINE
  5
103
330
4E
100
AcDbEntity
 67
     1
  8
1
  6
CONTINUOUS
 62
    18
100
AcDbLine
 10
2.731065
 20
3.912954
 30
0.0
 11
2.726801
 21
3.631435
 31
0.0
  0
LINE
  5
104
330
4E
100
AcDbEntity
 67
     1
  8
1
  6
CONTINUOUS
 62
    18
100
AcDbLine
 10
0.726801
 20
7.324435
 30
0.0
 11
0.722537
 21
7.042916
 31
0.0
  0
LINE
  5
105
330
4E
100
AcDbEntity
 67
     1
  8
1
  6
CONTINUOUS
 62
    18
100
AcDbLine
 10
0.722537
 20
7.042916
 30
0.0
 11
0.718978
 21
6.760119
 31
0.0
  0
LINE
  5
106
330
4E
100
AcDbEntity
 67
     1
  8
1
  6
CONTINUOUS
 62
    18
100
AcDbLine
 10
0.718978
 20
6.760119
 30
0.0
 11
0.716128
 21
6.476276
 31
0.0
  0
LINE
  5
107
330
4E
100
AcDbEntity
 67
     1
  8
1
  6
CONTINUOUS
 62
    18
100
AcDbLine
 10
0.716128
 20
6.476276
 30
0.0
 11
0.713988
 21
6.191619
 31
0.0
  0
LINE
  5
108
330
4E
100
AcDbEntity
 67
     1
  8
1
  6
CONTINUOUS
 62
    18
100
AcDbLine
 10
0.713988
 20
6.191619
 30
0.0
 11
0.71256
 21
5.906378
 31
0.0
  0
LINE
  5
109
330
4E
100
AcDbEntity
 67
     1
  8
1
  6
CONTINUOUS
 62
    18
100
AcDbLine
 10
0.71256
 20
5.906378
 30
0.0
 11
0.711846
 21
5.620788
 31
0.0
  0
LINE
  5
10A
330
4E
100
AcDbEntity
 67
     1
  8
1
  6
CONTINUOUS
 62
    18
100
AcDbLine
 10
0.711846
 20
5.620788
 30
0.0
 11
0.711846
 21
5.335082
 31
0.0
  0
LINE
  5
10B
330
4E
100
AcDbEntity
 67
     1
  8
1
  6
CONTINUOUS
 62
    18
100
AcDbLine
 10
0.711846
 20
5.335082
 30
0.0
 11
0.71256
 21
5.049491
 31
0.0
  0
LINE
  5
10C
330
4E
100
AcDbEntity
 67
     1
  8
1
  6
CONTINUOUS
 62
    18
100
AcDbLine
 10
0.71256
 20
5.049491
 30
0.0
 11
0.713988
 21
4.764251
 31
0.0
  0
LINE
  5
10D
330
4E
100
AcDbEntity
 67
     1
  8
1
  6
CONTINUOUS
 62
    18
100
AcDbLine
 10
0.713988
 20
4.764251
 30
0.0
 11
0.716128
 21
4.479593
 31
0.0
  0
LINE
  5
10E
330
4E
100
AcDbEntity
 67
     1
  8
1
  6
CONTINUOUS
 62
    18
100
AcDbLine
 10
0.716128
 20
4.479593
 30
0.0
 11
0.718978
 21
4.19575
 31
0.0
  0
LINE
  5
10F
330
4E
100
AcDbEntity
 67
     1
  8
1
  6
CONTINUOUS
 62
    18
100
AcDbLine
 10
0.718978
 20
4.19575
 30
0.0
 11
0.722537
 21
3.912954
 31
0.0
  0
LINE
  5
110
330
4E
100
AcDbEntity
 67
     1
  8
1
  6
CONTINUOUS
 62
    18
100
AcDbLine
 10
0.722537
 20
3.912954
 30
0.0
 11
0.726801
 21
3.631435
 31
0.0
  0
LINE
  5
111
330
4E
100
AcDbEntity
 67
     1
  8
1
  6
CONTINUOUS
 62
    18
100
AcDbLine
 10
2.633013
 20
6.912435
 30
0.0
 11
2.64866
 21
6.916616
 31
0.0
  0
LINE
  5
112
330
4E
100
AcDbEntity
 67
     1
  8
1
  6
CONTINUOUS
 62
    18
100
AcDbLine
 10
2.64866
 20
6.916616
 30
0.0
 11
2.660111
 21
6.92804
 31
0.0
  0
LINE
  5
113
330
4E
100
AcDbEntity
 67
     1
  8
1
  6
CONTINUOUS
 62
    18
100
AcDbLine
 10
2.660111
 20
6.92804
 30
0.0
 11
2.664301
 21
6.943652
 31
0.0
  0
LINE
  5
114
330
4E
100
AcDbEntity
 67
     1
  8
1
  6
CONTINUOUS
 62
    18
100
AcDbLine
 10
2.664301
 20
7.293218
 30
0.0
 11
2.660111
 21
7.308829
 31
0.0
  0
LINE
  5
115
330
4E
100
AcDbEntity
 67
     1
  8
1
  6
CONTINUOUS
 62
    18
100
AcDbLine
 10
2.660111
 20
7.308829
 30
0.0
 11
2.64866
 21
7.320254
 31
0.0
  0
LINE
  5
116
330
4E
100
AcDbEntity
 67
     1
  8
1
  6
CONTINUOUS
 62
    18
100
AcDbLine
 10
2.64866
 20
7.320254
 30
0.0
 11
2.633013
 21
7.324435
 31
0.0
  0
ARC
  5
117
330
4E
100
AcDbEntity
 67
     1
  8
1
  6
CONTINUOUS
 62
    18
100
AcDbCircle
 10
6.267089
 20
7.675383
 30
0.0
 40
0.03125
100
AcDbArc
 50
94.0
 51
167.265493
  0
ARC
  5
118
330
4E
100
AcDbEntity
 67
     1
  8
1
  6
CONTINUOUS
 62
    18
100
AcDbCircle
 10
6.267089
 20
3.280487
 30
0.0
 40
0.03125
100
AcDbArc
 50
192.734507
 51
266.0
  0
ARC
  5
119
330
4E
100
AcDbEntity
 67
     1
  8
1
  6
CONTINUOUS
 62
    18
100
AcDbCircle
 10
1.664301
 20
7.118435
 30
0.0
 40
0.1533991247415543
100
AcDbArc
 50
90.0
 51
270.0
  0
ARC
  5
11A
330
4E
100
AcDbEntity
 67
     1
  8
1
  6
CONTINUOUS
 62
    18
100
AcDbCircle
 10
1.789301
 20
7.118435
 30
0.0
 40
0.1533991247415543
100
AcDbArc
 50
270.0
 51
90.0
  0
ARC
  5
11B
330
4E
100
AcDbEntity
 67
     1
  8
1
  6
CONTINUOUS
 62
    18
100
AcDbCircle
 10
1.664301
 20
7.118435
 30
0.0
 40
0.0770172774791718
100
AcDbArc
 50
90.0
 51
270.0
  0
ARC
  5
11C
330
4E
100
AcDbEntity
 67
     1
  8
1
  6
CONTINUOUS
 62
    18
100
AcDbCircle
 10
1.789301
 20
7.118435
 30
0.0
 40
0.0770172774791718
100
AcDbArc
 50
270.0
 51
90.0
  0
ARC
  5
11D
330
4E
100
AcDbEntity
 67
     1
  8
1
  6
CONTINUOUS
 62
    18
100
AcDbCircle
 10
1.664301
 20
3.837435
 30
0.0
 40
0.1533991247415543
100
AcDbArc
 50
90.0
 51
270.0
  0
ARC
  5
11E
330
4E
100
AcDbEntity
 67
     1
  8
1
  6
CONTINUOUS
 62
    18
100
AcDbCircle
 10
1.789301
 20
3.837435
 30
0.0
 40
0.1533991247415543
100
AcDbArc
 50
270.0
 51
90.0
  0
ARC
  5
11F
330
4E
100
AcDbEntity
 67
     1
  8
1
  6
CONTINUOUS
 62
    18
100
AcDbCircle
 10
1.664301
 20
3.837435
 30
0.0
 40
0.0770172774791718
100
AcDbArc
 50
90.0
 51
270.0
  0
ARC
  5
120
330
4E
100
AcDbEntity
 67
     1
  8
1
  6
CONTINUOUS
 62
    18
100
AcDbCircle
 10
1.789301
 20
3.837435
 30
0.0
 40
0.0770172774791718
100
AcDbArc
 50
270.0
 51
90.0
  0
ENDSEC
  0
SECTION
  2
OBJECTS
  0
DICTIONARY
  5
C
330
0
100
AcDbDictionary
281
     1
  3
ACAD_GROUP
350
D
  3
ACAD_LAYOUT
350
1A
  3
ACAD_MATERIAL
350
3B
  3
ACAD_MLEADERSTYLE
350
134
  3
ACAD_MLINESTYLE
350
17
  3
ACAD_PLOTSETTINGS
350
19
  3
ACAD_PLOTSTYLENAME
350
E
  3
ACAD_VISUALSTYLE
350
2A
  3
AcDbVariableDictionary
350
132
  0
DICTIONARY
  5
D
102
{ACAD_REACTORS
330
C
102
}
330
C
100
AcDbDictionary
281
     1
  0
DICTIONARY
  5
1A
102
{ACAD_REACTORS
330
C
102
}
330
C
100
AcDbDictionary
281
     1
  3
Model
350
22
  3
Sheet 1
350
121
  0
DICTIONARY
  5
3B
102
{ACAD_REACTORS
330
C
102
}
330
C
100
AcDbDictionary
281
     1
  3
BYBLOCK
350
3D
  3
BYLAYER
350
3C
  3
Global
350
3E
  0
DICTIONARY
  5
134
102
{ACAD_REACTORS
330
C
102
}
330
C
100
AcDbDictionary
281
     1
  0
DICTIONARY
  5
17
102
{ACAD_REACTORS
330
C
102
}
330
C
100
AcDbDictionary
281
     1
  3
Standard
350
18
  0
DICTIONARY
  5
19
102
{ACAD_REACTORS
330
C
102
}
330
C
100
AcDbDictionary
281
     1
  0
ACDBDICTIONARYWDFLT
  5
E
102
{ACAD_REACTORS
330
C
102
}
330
C
100
AcDbDictionary
281
     1
  3
Normal
350
F
100
AcDbDictionaryWithDefault
340
F
  0
DICTIONARY
  5
2A
102
{ACAD_REACTORS
330
C
102
}
330
C
100
AcDbDictionary
281
     1
  3
2dWireframe
350
2F
  3
3D Hidden
350
31
  3
3dWireframe
350
30
  3
Basic
350
32
  3
Brighten
350
36
  3
ColorChange
350
3A
  3
Conceptual
350
34
  3
Dim
350
35
  3
Facepattern
350
39
  3
Flat
350
2B
  3
FlatWithEdges
350
2C
  3
Gouraud
350
2D
  3
GouraudWithEdges
350
2E
  3
Linepattern
350
38
  3
Realistic
350
33
  3
Thicken
350
37
  0
DICTIONARY
  5
132
102
{ACAD_REACTORS
330
C
102
}
330
C
100
AcDbDictionary
281
     1
  3
DIMASSOC
350
135
  3
HIDETEXT
350
136
  0
LAYOUT
  5
22
102
{ACAD_REACTORS
330
1A
102
}
330
1A
100
AcDbPlotSettings
  1

  2
none_device
  4

  6

 40
0.0
 41
0.0
 42
0.0
 43
0.0
 44
0.0
 45
0.0
 46
0.0
 47
0.0
 48
0.0
 49
0.0
140
0.0
141
0.0
142
1.0
143
1.0
 70
  1712
 72
     0
 73
     0
 74
     0
  7

 75
     0
147
1.0
148
0.0
149
0.0
100
AcDbLayout
  1
Model
 70
     1
 71
     0
 10
-0.5
 20
-0.5
 11
5.0
 21
5.0
 12
0.0
 22
0.0
 32
0.0
 14
-0.5
 24
-0.5
 34
-0.5
 15
5.0
 25
5.0
 35
5.0
146
0.0
 13
0.0
 23
0.0
 33
0.0
 16
1.0
 26
0.0
 36
0.0
 17
0.0
 27
1.0
 37
0.0
 76
     0
330
1F
331
29
  0
LAYOUT
  5
121
102
{ACAD_REACTORS
330
1A
102
}
330
1A
100
AcDbPlotSettings
  1

  2
none_device
  4
ISO_B4_(354.00_x_250.00_MM)
  6

 40
7.5
 41
20.0
 42
7.5
 43
20.0
 44
354.0
 45
250.0
 46
35.333333
 47
0.0
 48
0.0
 49
0.0
140
13.0
141
10.5
142
1.0
143
1.088571
 70
   692
 72
     0
 73
     0
 74
     1
  7

 75
     0
147
0.918635
148
12.7
149
12.7
100
AcDbLayout
  1
Sheet 1
 70
     1
 71
     1
 10
0.0
 20
0.0
 11
11.0
 21
8.5
 12
0.0
 22
0.0
 32
0.0
 14
0.0
 24
0.0
 34
0.0
 15
11.0
 25
8.5
 35
0.0
146
0.0
 13
0.0
 23
0.0
 33
0.0
 16
1.0
 26
0.0
 36
0.0
 17
0.0
 27
1.0
 37
0.0
 76
     0
330
4E
331
51
  0
MATERIAL
  5
3D
102
{ACAD_REACTORS
330
3B
102
}
102
{ACAD_XDICTIONARY
360
159
102
}
330
3B
100
AcDbMaterial
  1
BYBLOCK
  0
MATERIAL
  5
3C
102
{ACAD_REACTORS
330
3B
102
}
102
{ACAD_XDICTIONARY
360
157
102
}
330
3B
100
AcDbMaterial
  1
BYLAYER
  0
MATERIAL
  5
3E
102
{ACAD_REACTORS
330
3B
102
}
102
{ACAD_XDICTIONARY
360
15B
102
}
330
3B
100
AcDbMaterial
  1
Global
  0
MLINESTYLE
  5
18
102
{ACAD_REACTORS
330
17
102
}
330
17
100
AcDbMlineStyle
  2
Standard
 70
     0
  3

 62
   256
 51
90.0
 52
90.0
 71
     2
 49
0.5
 62
   256
  6
BYLAYER
 49
-0.5
 62
   256
  6
BYLAYER
  0
ACDBPLACEHOLDER
  5
F
102
{ACAD_REACTORS
330
E
102
}
330
E
  0
VISUALSTYLE
  5
2F
102
{ACAD_REACTORS
330
2A
102
}
102
{ACAD_XDICTIONARY
360
13F
102
}
330
2A
100
AcDbVisualStyle
  2
2dWireframe
 70
     4
 71
     0
 72
     2
 73
     0
 90
        0
 40
-0.6
 41
-30.0
 62
     5
 63
     7
 74
     1
 91
        4
 64
     7
 65
   257
 75
     1
175
     1
 42
1.0
 92
        0
 66
   257
 43
1.0
 76
     1
 77
     6
 78
     2
 67
     7
 79
     5
170
     0
171
     0
290
     0
174
     0
 93
        1
 44
0.0
173
     0
291
     0
 45
0.0
1001
ACAD
1000
AcDbSavedByObjectVersion
1070
     0
  0
VISUALSTYLE
  5
31
102
{ACAD_REACTORS
330
2A
102
}
102
{ACAD_XDICTIONARY
360
143
102
}
330
2A
100
AcDbVisualStyle
  2
3D Hidden
 70
     6
 71
     1
 72
     2
 73
     2
 90
        0
 40
-0.6
 41
-30.0
 62
     5
 63
     7
 74
     2
 91
        2
 64
     7
 65
   257
 75
     2
175
     1
 42
40.0
 92
        0
 66
   257
 43
1.0
 76
     1
 77
     6
 78
     2
 67
     7
 79
     3
170
     0
171
     0
290
     0
174
     0
 93
        1
 44
0.0
173
     0
291
     0
 45
0.0
1001
ACAD
1000
AcDbSavedByObjectVersion
1070
     0
  0
VISUALSTYLE
  5
30
102
{ACAD_REACTORS
330
2A
102
}
102
{ACAD_XDICTIONARY
360
141
102
}
330
2A
100
AcDbVisualStyle
  2
3dWireframe
 70
     5
 71
     0
 72
     2
 73
     0
 90
        0
 40
-0.6
 41
-30.0
 62
     5
 63
     7
 74
     1
 91
        4
 64
     7
 65
   257
 75
     1
175
     1
 42
1.0
 92
        0
 66
   257
 43
1.0
 76
     1
 77
     6
 78
     2
 67
     7
 79
     5
170
     0
171
     0
290
     0
174
     0
 93
        1
 44
0.0
173
     0
291
     0
 45
0.0
1001
ACAD
1000
AcDbSavedByObjectVersion
1070
     0
  0
VISUALSTYLE
  5
32
102
{ACAD_REACTORS
330
2A
102
}
102
{ACAD_XDICTIONARY
360
145
102
}
330
2A
100
AcDbVisualStyle
  2
Basic
 70
     7
 71
     1
 72
     0
 73
     1
 90
        0
 40
-0.6
 41
-30.0
 62
     5
 63
     7
 74
     0
 91
        4
 64
     7
 65
   257
 75
     1
175
     1
 42
1.0
 92
        8
 66
     7
 43
1.0
 76
     1
 77
     6
 78
     2
 67
     7
 79
     5
170
     0
171
     0
290
     0
174
     0
 93
        1
 44
0.0
173
     0
291
     1
 45
0.0
1001
ACAD
1000
AcDbSavedByObjectVersion
1070
     0
  0
VISUALSTYLE
  5
36
102
{ACAD_REACTORS
330
2A
102
}
102
{ACAD_XDICTIONARY
360
14D
102
}
330
2A
100
AcDbVisualStyle
  2
Brighten
 70
    12
 71
     2
 72
     2
 73
     0
 90
        0
 40
-0.6
 41
-30.0
 62
     5
 63
     7
 74
     1
 91
        4
 64
     7
 65
   257
 75
     1
175
     1
 42
1.0
 92
        8
 66
     7
 43
1.0
 76
     1
 77
     6
 78
     2
 67
     7
 79
     5
170
     0
171
     0
290
     0
174
     0
 93
        1
 44
50.0
173
     0
291
     1
 45
0.0
1001
ACAD
1000
AcDbSavedByObjectVersion
1070
     0
  0
VISUALSTYLE
  5
3A
102
{ACAD_REACTORS
330
2A
102
}
102
{ACAD_XDICTIONARY
360
155
102
}
330
2A
100
AcDbVisualStyle
  2
ColorChange
 70
    16
 71
     2
 72
     2
 73
     3
 90
        0
 40
-0.6
 41
-30.0
 62
     5
 63
     8
 74
     1
 91
        4
 64
     7
 65
   257
 75
     1
175
     1
 42
1.0
 92
        8
 66
     8
 43
1.0
 76
     1
 77
     6
 78
     2
 67
     7
 79
     5
170
     0
171
     0
290
     0
174
     0
 93
        1
 44
0.0
173
     0
291
     1
 45
0.0
1001
ACAD
1000
AcDbSavedByObjectVersion
1070
     0
  0
VISUALSTYLE
  5
34
102
{ACAD_REACTORS
330
2A
102
}
102
{ACAD_XDICTIONARY
360
149
102
}
330
2A
100
AcDbVisualStyle
  2
Conceptual
 70
     9
 71
     3
 72
     2
 73
     0
 90
        0
 40
-0.6
 41
-30.0
 62
     5
 63
     7
 74
     2
 91
        2
 64
     7
 65
   257
 75
     1
175
     1
 42
40.0
 92
        8
 66
     7
 43
1.0
 76
     1
 77
     6
 78
     2
 67
     7
 79
     3
170
     0
171
     0
290
     0
174
     0
 93
        1
 44
0.0
173
     0
291
     0
 45
0.0
1001
ACAD
1000
AcDbSavedByObjectVersion
1070
     0
  0
VISUALSTYLE
  5
35
102
{ACAD_REACTORS
330
2A
102
}
102
{ACAD_XDICTIONARY
360
14B
102
}
330
2A
100
AcDbVisualStyle
  2
Dim
 70
    11
 71
     2
 72
     2
 73
     0
 90
        0
 40
-0.6
 41
-30.0
 62
     5
 63
     7
 74
     1
 91
        4
 64
     7
 65
   257
 75
     1
175
     1
 42
1.0
 92
        8
 66
     7
 43
1.0
 76
     1
 77
     6
 78
     2
 67
     7
 79
     5
170
     0
171
     0
290
     0
174
     0
 93
        1
 44
-50.0
173
     0
291
     1
 45
0.0
1001
ACAD
1000
AcDbSavedByObjectVersion
1070
     0
  0
VISUALSTYLE
  5
39
102
{ACAD_REACTORS
330
2A
102
}
102
{ACAD_XDICTIONARY
360
153
102
}
330
2A
100
AcDbVisualStyle
  2
Facepattern
 70
    15
 71
     2
 72
     2
 73
     0
 90
        0
 40
-0.6
 41
-30.0
 62
     5
 63
     7
 74
     1
 91
        4
 64
     7
 65
   257
 75
     1
175
     1
 42
1.0
 92
        8
 66
     7
 43
1.0
 76
     1
 77
     6
 78
     2
 67
     7
 79
     5
170
     0
171
     0
290
     0
174
     0
 93
        1
 44
0.0
173
     0
291
     1
 45
0.0
1001
ACAD
1000
AcDbSavedByObjectVersion
1070
     0
  0
VISUALSTYLE
  5
2B
102
{ACAD_REACTORS
330
2A
102
}
102
{ACAD_XDICTIONARY
360
137
102
}
330
2A
100
AcDbVisualStyle
  2
Flat
 70
     0
 71
     2
 72
     1
 73
     1
 90
        2
 40
-0.6
 41
30.0
 62
     5
 63
     7
 74
     0
 91
        4
 64
     7
 65
   257
 75
     1
175
     1
 42
1.0
 92
        8
 66
     7
 43
1.0
 76
     1
 77
     6
 78
     2
 67
     7
 79
     5
170
     0
171
     0
290
     0
174
     0
 93
       13
 44
0.0
173
     0
291
     1
 45
0.0
1001
ACAD
1000
AcDbSavedByObjectVersion
1070
     0
  0
VISUALSTYLE
  5
2C
102
{ACAD_REACTORS
330
2A
102
}
102
{ACAD_XDICTIONARY
360
139
102
}
330
2A
100
AcDbVisualStyle
  2
FlatWithEdges
 70
     1
 71
     2
 72
     1
 73
     1
 90
        2
 40
-0.6
 41
30.0
 62
     5
 63
     7
 74
     1
 91
        4
 64
     7
 65
   257
 75
     1
175
     1
 42
1.0
 92
        0
 66
   257
 43
1.0
 76
     1
 77
     6
 78
     2
 67
     7
 79
     5
170
     0
171
     0
290
     0
174
     0
 93
       13
 44
0.0
173
     0
291
     1
 45
0.0
1001
ACAD
1000
AcDbSavedByObjectVersion
1070
     0
  0
VISUALSTYLE
  5
2D
102
{ACAD_REACTORS
330
2A
102
}
102
{ACAD_XDICTIONARY
360
13B
102
}
330
2A
100
AcDbVisualStyle
  2
Gouraud
 70
     2
 71
     2
 72
     2
 73
     1
 90
        2
 40
-0.6
 41
30.0
 62
     5
 63
     7
 74
     0
 91
        4
 64
     7
 65
   257
 75
     1
175
     1
 42
1.0
 92
        0
 66
     7
 43
1.0
 76
     1
 77
     6
 78
     2
 67
     7
 79
     5
170
     0
171
     0
290
     0
174
     0
 93
       13
 44
0.0
173
     0
291
     1
 45
0.0
1001
ACAD
1000
AcDbSavedByObjectVersion
1070
     0
  0
VISUALSTYLE
  5
2E
102
{ACAD_REACTORS
330
2A
102
}
102
{ACAD_XDICTIONARY
360
13D
102
}
330
2A
100
AcDbVisualStyle
  2
GouraudWithEdges
 70
     3
 71
     2
 72
     2
 73
     1
 90
        2
 40
-0.6
 41
30.0
 62
     5
 63
     7
 74
     1
 91
        4
 64
     7
 65
   257
 75
     1
175
     1
 42
1.0
 92
        0
 66
   257
 43
1.0
 76
     1
 77
     6
 78
     2
 67
     7
 79
     5
170
     0
171
     0
290
     0
174
     0
 93
       13
 44
0.0
173
     0
291
     1
 45
0.0
1001
ACAD
1000
AcDbSavedByObjectVersion
1070
     0
  0
VISUALSTYLE
  5
38
102
{ACAD_REACTORS
330
2A
102
}
102
{ACAD_XDICTIONARY
360
151
102
}
330
2A
100
AcDbVisualStyle
  2
Linepattern
 70
    14
 71
     2
 72
     2
 73
     0
 90
        0
 40
-0.6
 41
-30.0
 62
     5
 63
     7
 74
     1
 91
        4
 64
     7
 65
   257
 75
     7
175
     7
 42
1.0
 92
        8
 66
     7
 43
1.0
 76
     1
 77
     6
 78
     2
 67
     7
 79
     5
170
     0
171
     0
290
     0
174
     0
 93
        1
 44
0.0
173
     0
291
     1
 45
0.0
1001
ACAD
1000
AcDbSavedByObjectVersion
1070
     0
  0
VISUALSTYLE
  5
33
102
{ACAD_REACTORS
330
2A
102
}
102
{ACAD_XDICTIONARY
360
147
102
}
330
2A
100
AcDbVisualStyle
  2
Realistic
 70
     8
 71
     2
 72
     2
 73
     0
 90
        0
 40
-0.6
 41
-30.0
 62
     5
 63
     7
 74
     1
 91
        0
 64
     7
 65
   257
 75
     1
175
     1
 42
1.0
 92
        8
 66
     8
 43
1.0
 76
     1
 77
     6
 78
     2
 67
     7
 79
     5
170
     0
171
     0
290
     0
174
     0
 93
       13
 44
0.0
173
     0
291
     0
 45
0.0
1001
ACAD
1000
AcDbSavedByObjectVersion
1070
     0
  0
VISUALSTYLE
  5
37
102
{ACAD_REACTORS
330
2A
102
}
102
{ACAD_XDICTIONARY
360
14F
102
}
330
2A
100
AcDbVisualStyle
  2
Thicken
 70
    13
 71
     2
 72
     2
 73
     0
 90
        0
 40
-0.6
 41
-30.0
 62
     5
 63
     7
 74
     1
 91
        4
 64
     7
 65
   257
 75
     1
175
     1
 42
1.0
 92
       12
 66
     7
 43
1.0
 76
     1
 77
     6
 78
     2
 67
     7
 79
     5
170
     0
171
     0
290
     0
174
     0
 93
        1
 44
0.0
173
     0
291
     1
 45
0.0
1001
ACAD
1000
AcDbSavedByObjectVersion
1070
     0
  0
DICTIONARYVAR
  5
135
102
{ACAD_REACTORS
330
132
102
}
330
132
100
DictionaryVariables
280
     0
  1
2
  0
DICTIONARYVAR
  5
136
102
{ACAD_REACTORS
330
132
102
}
330
132
100
DictionaryVariables
280
     0
  1
1
  0
DICTIONARY
  5
159
330
3D
100
AcDbDictionary
280
     1
281
     1
  3
ACAD_XREC_ROUNDTRIP
360
15A
  0
DICTIONARY
  5
157
330
3C
100
AcDbDictionary
280
     1
281
     1
  3
ACAD_XREC_ROUNDTRIP
360
158
  0
DICTIONARY
  5
15B
330
3E
100
AcDbDictionary
280
     1
281
     1
  3
ACAD_XREC_ROUNDTRIP
360
15C
  0
DICTIONARY
  5
13F
330
2F
100
AcDbDictionary
280
     1
281
     1
  3
ACAD_XREC_ROUNDTRIP
360
140
  0
DICTIONARY
  5
143
330
31
100
AcDbDictionary
280
     1
281
     1
  3
ACAD_XREC_ROUNDTRIP
360
144
  0
DICTIONARY
  5
141
330
30
100
AcDbDictionary
280
     1
281
     1
  3
ACAD_XREC_ROUNDTRIP
360
142
  0
DICTIONARY
  5
145
330
32
100
AcDbDictionary
280
     1
281
     1
  3
ACAD_XREC_ROUNDTRIP
360
146
  0
DICTIONARY
  5
14D
330
36
100
AcDbDictionary
280
     1
281
     1
  3
ACAD_XREC_ROUNDTRIP
360
14E
  0
DICTIONARY
  5
155
330
3A
100
AcDbDictionary
280
     1
281
     1
  3
ACAD_XREC_ROUNDTRIP
360
156
  0
DICTIONARY
  5
149
330
34
100
AcDbDictionary
280
     1
281
     1
  3
ACAD_XREC_ROUNDTRIP
360
14A
  0
DICTIONARY
  5
14B
330
35
100
AcDbDictionary
280
     1
281
     1
  3
ACAD_XREC_ROUNDTRIP
360
14C
  0
DICTIONARY
  5
153
330
39
100
AcDbDictionary
280
     1
281
     1
  3
ACAD_XREC_ROUNDTRIP
360
154
  0
DICTIONARY
  5
137
330
2B
100
AcDbDictionary
280
     1
281
     1
  3
ACAD_XREC_ROUNDTRIP
360
138
  0
DICTIONARY
  5
139
330
2C
100
AcDbDictionary
280
     1
281
     1
  3
ACAD_XREC_ROUNDTRIP
360
13A
  0
DICTIONARY
  5
13B
330
2D
100
AcDbDictionary
280
     1
281
     1
  3
ACAD_XREC_ROUNDTRIP
360
13C
  0
DICTIONARY
  5
13D
330
2E
100
AcDbDictionary
280
     1
281
     1
  3
ACAD_XREC_ROUNDTRIP
360
13E
  0
DICTIONARY
  5
151
330
38
100
AcDbDictionary
280
     1
281
     1
  3
ACAD_XREC_ROUNDTRIP
360
152
  0
DICTIONARY
  5
147
330
33
100
AcDbDictionary
280
     1
281
     1
  3
ACAD_XREC_ROUNDTRIP
360
148
  0
DICTIONARY
  5
14F
330
37
100
AcDbDictionary
280
     1
281
     1
  3
ACAD_XREC_ROUNDTRIP
360
150
  0
XRECORD
  5
15A
102
{ACAD_REACTORS
330
159
102
}
330
159
100
AcDbXrecord
280
     1
102
MATERIAL
148
0.0
149
0.0
149
0.0
 93
        0
 94
      127
282
     0
 72
     1
 77
     1
171
     1
175
     1
179
     1
273
     0
  0
XRECORD
  5
158
102
{ACAD_REACTORS
330
157
102
}
330
157
100
AcDbXrecord
280
     1
102
MATERIAL
148
0.0
149
0.0
149
0.0
 93
        0
 94
      127
282
     0
 72
     1
 77
     1
171
     1
175
     1
179
     1
273
     0
  0
XRECORD
  5
15C
102
{ACAD_REACTORS
330
15B
102
}
330
15B
100
AcDbXrecord
280
     1
102
MATERIAL
148
0.0
149
0.0
149
0.0
 93
        0
 94
      127
282
     0
 72
     1
 77
     1
171
     1
175
     1
179
     1
273
     0
  0
XRECORD
  5
140
102
{ACAD_REACTORS
330
13F
102
}
330
13F
100
AcDbXrecord
280
     1
102
RTVSPropertyOp0
 70
     1
102
RTVSPropertyOp1
 70
     1
102
RTVSPropertyOp2
 70
     1
102
RTVSPropertyOp3
 70
     1
102
RTVSPropertyOp4
 70
     1
102
RTVSPropertyOp5
 70
     1
102
RTVSPropertyOp6
 70
     1
102
RTVSPropertyOp7
 70
     1
102
RTVSPropertyOp8
 70
     1
102
RTVSPropertyOp9
 70
     1
102
RTVSPropertyOp10
 70
     1
102
RTVSPropertyOp11
 70
     1
102
RTVSPropertyOp12
 70
     1
102
RTVSPropertyOp13
 70
     1
102
RTVSPropertyOp14
 70
     1
102
RTVSPropertyOp15
 70
     1
102
RTVSPropertyOp16
 70
     1
102
RTVSPropertyOp17
 70
     1
102
RTVSPropertyOp18
 70
     1
102
RTVSPropertyOp19
 70
     1
102
RTVSPropertyOp20
 70
     1
102
RTVSPropertyOp21
 70
     1
102
RTVSPropertyOp22
 70
     1
102
RTVSPropertyOp23
 70
     1
102
RTVSPropertyOp24
 70
     1
102
RTVSPropertyOp25
 70
     1
102
RTVSPropertyOp26
 70
     1
102
RTVSPropertyOp27
 70
     1
  0
XRECORD
  5
144
102
{ACAD_REACTORS
330
143
102
}
330
143
100
AcDbXrecord
280
     1
102
RTVSPropertyOp0
 70
     1
102
RTVSPropertyOp1
 70
     1
102
RTVSPropertyOp2
 70
     1
102
RTVSPropertyOp3
 70
     1
102
RTVSPropertyOp4
 70
     1
102
RTVSPropertyOp5
 70
     1
102
RTVSPropertyOp6
 70
     1
102
RTVSPropertyOp7
 70
     1
102
RTVSPropertyOp8
 70
     1
102
RTVSPropertyOp9
 70
     1
102
RTVSPropertyOp10
 70
     1
102
RTVSPropertyOp11
 70
     1
102
RTVSPropertyOp12
 70
     1
102
RTVSPropertyOp13
 70
     1
102
RTVSPropertyOp14
 70
     1
102
RTVSPropertyOp15
 70
     1
102
RTVSPropertyOp16
 70
     1
102
RTVSPropertyOp17
 70
     1
102
RTVSPropertyOp18
 70
     1
102
RTVSPropertyOp19
 70
     1
102
RTVSPropertyOp20
 70
     1
102
RTVSPropertyOp21
 70
     1
102
RTVSPropertyOp22
 70
     1
102
RTVSPropertyOp23
 70
     1
102
RTVSPropertyOp24
 70
     1
102
RTVSPropertyOp25
 70
     1
102
RTVSPropertyOp26
 70
     1
102
RTVSPropertyOp27
 70
     1
  0
XRECORD
  5
142
102
{ACAD_REACTORS
330
141
102
}
330
141
100
AcDbXrecord
280
     1
102
RTVSPropertyOp0
 70
     1
102
RTVSPropertyOp1
 70
     1
102
RTVSPropertyOp2
 70
     1
102
RTVSPropertyOp3
 70
     1
102
RTVSPropertyOp4
 70
     1
102
RTVSPropertyOp5
 70
     1
102
RTVSPropertyOp6
 70
     1
102
RTVSPropertyOp7
 70
     1
102
RTVSPropertyOp8
 70
     1
102
RTVSPropertyOp9
 70
     1
102
RTVSPropertyOp10
 70
     1
102
RTVSPropertyOp11
 70
     1
102
RTVSPropertyOp12
 70
     1
102
RTVSPropertyOp13
 70
     1
102
RTVSPropertyOp14
 70
     1
102
RTVSPropertyOp15
 70
     1
102
RTVSPropertyOp16
 70
     1
102
RTVSPropertyOp17
 70
     1
102
RTVSPropertyOp18
 70
     1
102
RTVSPropertyOp19
 70
     1
102
RTVSPropertyOp20
 70
     1
102
RTVSPropertyOp21
 70
     1
102
RTVSPropertyOp22
 70
     1
102
RTVSPropertyOp23
 70
     1
102
RTVSPropertyOp24
 70
     1
102
RTVSPropertyOp25
 70
     1
102
RTVSPropertyOp26
 70
     1
102
RTVSPropertyOp27
 70
     1
  0
XRECORD
  5
146
102
{ACAD_REACTORS
330
145
102
}
330
145
100
AcDbXrecord
280
     1
102
RTVSPropertyOp0
 70
     1
102
RTVSPropertyOp1
 70
     1
102
RTVSPropertyOp2
 70
     1
102
RTVSPropertyOp3
 70
     1
102
RTVSPropertyOp4
 70
     1
102
RTVSPropertyOp5
 70
     1
102
RTVSPropertyOp6
 70
     1
102
RTVSPropertyOp7
 70
     1
102
RTVSPropertyOp8
 70
     1
102
RTVSPropertyOp9
 70
     1
102
RTVSPropertyOp10
 70
     1
102
RTVSPropertyOp11
 70
     1
102
RTVSPropertyOp12
 70
     1
102
RTVSPropertyOp13
 70
     1
102
RTVSPropertyOp14
 70
     1
102
RTVSPropertyOp15
 70
     1
102
RTVSPropertyOp16
 70
     1
102
RTVSPropertyOp17
 70
     1
102
RTVSPropertyOp18
 70
     1
102
RTVSPropertyOp19
 70
     1
102
RTVSPropertyOp20
 70
     1
102
RTVSPropertyOp21
 70
     1
102
RTVSPropertyOp22
 70
     1
102
RTVSPropertyOp23
 70
     1
102
RTVSPropertyOp24
 70
     1
102
RTVSPropertyOp25
 70
     1
102
RTVSPropertyOp26
 70
     1
102
RTVSPropertyOp27
 70
     1
  0
XRECORD
  5
14E
102
{ACAD_REACTORS
330
14D
102
}
330
14D
100
AcDbXrecord
280
     1
102
RTVSPropertyOp0
 70
     1
102
RTVSPropertyOp1
 70
     1
102
RTVSPropertyOp2
 70
     1
102
RTVSPropertyOp3
 70
     1
102
RTVSPropertyOp4
 70
     1
102
RTVSPropertyOp5
 70
     1
102
RTVSPropertyOp6
 70
     1
102
RTVSPropertyOp7
 70
     1
102
RTVSPropertyOp8
 70
     1
102
RTVSPropertyOp9
 70
     1
102
RTVSPropertyOp10
 70
     1
102
RTVSPropertyOp11
 70
     1
102
RTVSPropertyOp12
 70
     1
102
RTVSPropertyOp13
 70
     1
102
RTVSPropertyOp14
 70
     1
102
RTVSPropertyOp15
 70
     1
102
RTVSPropertyOp16
 70
     1
102
RTVSPropertyOp17
 70
     1
102
RTVSPropertyOp18
 70
     1
102
RTVSPropertyOp19
 70
     1
102
RTVSPropertyOp20
 70
     1
102
RTVSPropertyOp21
 70
     1
102
RTVSPropertyOp22
 70
     1
102
RTVSPropertyOp23
 70
     1
102
RTVSPropertyOp24
 70
     1
102
RTVSPropertyOp25
 70
     1
102
RTVSPropertyOp26
 70
     1
102
RTVSPropertyOp27
 70
     1
  0
XRECORD
  5
156
102
{ACAD_REACTORS
330
155
102
}
330
155
100
AcDbXrecord
280
     1
102
RTVSPropertyOp0
 70
     1
102
RTVSPropertyOp1
 70
     1
102
RTVSPropertyOp2
 70
     1
102
RTVSPropertyOp3
 70
     1
102
RTVSPropertyOp4
 70
     1
102
RTVSPropertyOp5
 70
     1
102
RTVSPropertyOp6
 70
     1
102
RTVSPropertyOp7
 70
     1
102
RTVSPropertyOp8
 70
     1
102
RTVSPropertyOp9
 70
     1
102
RTVSPropertyOp10
 70
     1
102
RTVSPropertyOp11
 70
     1
102
RTVSPropertyOp12
 70
     1
102
RTVSPropertyOp13
 70
     1
102
RTVSPropertyOp14
 70
     1
102
RTVSPropertyOp15
 70
     1
102
RTVSPropertyOp16
 70
     1
102
RTVSPropertyOp17
 70
     1
102
RTVSPropertyOp18
 70
     1
102
RTVSPropertyOp19
 70
     1
102
RTVSPropertyOp20
 70
     1
102
RTVSPropertyOp21
 70
     1
102
RTVSPropertyOp22
 70
     1
102
RTVSPropertyOp23
 70
     1
102
RTVSPropertyOp24
 70
     1
102
RTVSPropertyOp25
 70
     1
102
RTVSPropertyOp26
 70
     1
102
RTVSPropertyOp27
 70
     1
  0
XRECORD
  5
14A
102
{ACAD_REACTORS
330
149
102
}
330
149
100
AcDbXrecord
280
     1
102
RTVSPropertyOp0
 70
     1
102
RTVSPropertyOp1
 70
     1
102
RTVSPropertyOp2
 70
     1
102
RTVSPropertyOp3
 70
     1
102
RTVSPropertyOp4
 70
     1
102
RTVSPropertyOp5
 70
     1
102
RTVSPropertyOp6
 70
     1
102
RTVSPropertyOp7
 70
     1
102
RTVSPropertyOp8
 70
     1
102
RTVSPropertyOp9
 70
     1
102
RTVSPropertyOp10
 70
     1
102
RTVSPropertyOp11
 70
     1
102
RTVSPropertyOp12
 70
     1
102
RTVSPropertyOp13
 70
     1
102
RTVSPropertyOp14
 70
     1
102
RTVSPropertyOp15
 70
     1
102
RTVSPropertyOp16
 70
     1
102
RTVSPropertyOp17
 70
     1
102
RTVSPropertyOp18
 70
     1
102
RTVSPropertyOp19
 70
     1
102
RTVSPropertyOp20
 70
     1
102
RTVSPropertyOp21
 70
     1
102
RTVSPropertyOp22
 70
     1
102
RTVSPropertyOp23
 70
     1
102
RTVSPropertyOp24
 70
     1
102
RTVSPropertyOp25
 70
     1
102
RTVSPropertyOp26
 70
     1
102
RTVSPropertyOp27
 70
     1
  0
XRECORD
  5
14C
102
{ACAD_REACTORS
330
14B
102
}
330
14B
100
AcDbXrecord
280
     1
102
RTVSPropertyOp0
 70
     1
102
RTVSPropertyOp1
 70
     1
102
RTVSPropertyOp2
 70
     1
102
RTVSPropertyOp3
 70
     1
102
RTVSPropertyOp4
 70
     1
102
RTVSPropertyOp5
 70
     1
102
RTVSPropertyOp6
 70
     1
102
RTVSPropertyOp7
 70
     1
102
RTVSPropertyOp8
 70
     1
102
RTVSPropertyOp9
 70
     1
102
RTVSPropertyOp10
 70
     1
102
RTVSPropertyOp11
 70
     1
102
RTVSPropertyOp12
 70
     1
102
RTVSPropertyOp13
 70
     1
102
RTVSPropertyOp14
 70
     1
102
RTVSPropertyOp15
 70
     1
102
RTVSPropertyOp16
 70
     1
102
RTVSPropertyOp17
 70
     1
102
RTVSPropertyOp18
 70
     1
102
RTVSPropertyOp19
 70
     1
102
RTVSPropertyOp20
 70
     1
102
RTVSPropertyOp21
 70
     1
102
RTVSPropertyOp22
 70
     1
102
RTVSPropertyOp23
 70
     1
102
RTVSPropertyOp24
 70
     1
102
RTVSPropertyOp25
 70
     1
102
RTVSPropertyOp26
 70
     1
102
RTVSPropertyOp27
 70
     1
  0
XRECORD
  5
154
102
{ACAD_REACTORS
330
153
102
}
330
153
100
AcDbXrecord
280
     1
102
RTVSPropertyOp0
 70
     1
102
RTVSPropertyOp1
 70
     1
102
RTVSPropertyOp2
 70
     1
102
RTVSPropertyOp3
 70
     1
102
RTVSPropertyOp4
 70
     1
102
RTVSPropertyOp5
 70
     1
102
RTVSPropertyOp6
 70
     1
102
RTVSPropertyOp7
 70
     1
102
RTVSPropertyOp8
 70
     1
102
RTVSPropertyOp9
 70
     1
102
RTVSPropertyOp10
 70
     1
102
RTVSPropertyOp11
 70
     1
102
RTVSPropertyOp12
 70
     1
102
RTVSPropertyOp13
 70
     1
102
RTVSPropertyOp14
 70
     1
102
RTVSPropertyOp15
 70
     1
102
RTVSPropertyOp16
 70
     1
102
RTVSPropertyOp17
 70
     1
102
RTVSPropertyOp18
 70
     1
102
RTVSPropertyOp19
 70
     1
102
RTVSPropertyOp20
 70
     1
102
RTVSPropertyOp21
 70
     1
102
RTVSPropertyOp22
 70
     1
102
RTVSPropertyOp23
 70
     1
102
RTVSPropertyOp24
 70
     1
102
RTVSPropertyOp25
 70
     1
102
RTVSPropertyOp26
 70
     1
102
RTVSPropertyOp27
 70
     1
  0
XRECORD
  5
138
102
{ACAD_REACTORS
330
137
102
}
330
137
100
AcDbXrecord
280
     1
102
RTVSPropertyOp0
 70
     1
102
RTVSPropertyOp1
 70
     1
102
RTVSPropertyOp2
 70
     1
102
RTVSPropertyOp3
 70
     1
102
RTVSPropertyOp4
 70
     1
102
RTVSPropertyOp5
 70
     1
102
RTVSPropertyOp6
 70
     1
102
RTVSPropertyOp7
 70
     1
102
RTVSPropertyOp8
 70
     1
102
RTVSPropertyOp9
 70
     1
102
RTVSPropertyOp10
 70
     1
102
RTVSPropertyOp11
 70
     1
102
RTVSPropertyOp12
 70
     1
102
RTVSPropertyOp13
 70
     1
102
RTVSPropertyOp14
 70
     1
102
RTVSPropertyOp15
 70
     1
102
RTVSPropertyOp16
 70
     1
102
RTVSPropertyOp17
 70
     1
102
RTVSPropertyOp18
 70
     1
102
RTVSPropertyOp19
 70
     1
102
RTVSPropertyOp20
 70
     1
102
RTVSPropertyOp21
 70
     1
102
RTVSPropertyOp22
 70
     1
102
RTVSPropertyOp23
 70
     1
102
RTVSPropertyOp24
 70
     1
102
RTVSPropertyOp25
 70
     1
102
RTVSPropertyOp26
 70
     1
102
RTVSPropertyOp27
 70
     1
  0
XRECORD
  5
13A
102
{ACAD_REACTORS
330
139
102
}
330
139
100
AcDbXrecord
280
     1
102
RTVSPropertyOp0
 70
     1
102
RTVSPropertyOp1
 70
     1
102
RTVSPropertyOp2
 70
     1
102
RTVSPropertyOp3
 70
     1
102
RTVSPropertyOp4
 70
     1
102
RTVSPropertyOp5
 70
     1
102
RTVSPropertyOp6
 70
     1
102
RTVSPropertyOp7
 70
     1
102
RTVSPropertyOp8
 70
     1
102
RTVSPropertyOp9
 70
     1
102
RTVSPropertyOp10
 70
     1
102
RTVSPropertyOp11
 70
     1
102
RTVSPropertyOp12
 70
     1
102
RTVSPropertyOp13
 70
     1
102
RTVSPropertyOp14
 70
     1
102
RTVSPropertyOp15
 70
     1
102
RTVSPropertyOp16
 70
     1
102
RTVSPropertyOp17
 70
     1
102
RTVSPropertyOp18
 70
     1
102
RTVSPropertyOp19
 70
     1
102
RTVSPropertyOp20
 70
     1
102
RTVSPropertyOp21
 70
     1
102
RTVSPropertyOp22
 70
     1
102
RTVSPropertyOp23
 70
     1
102
RTVSPropertyOp24
 70
     1
102
RTVSPropertyOp25
 70
     1
102
RTVSPropertyOp26
 70
     1
102
RTVSPropertyOp27
 70
     1
  0
XRECORD
  5
13C
102
{ACAD_REACTORS
330
13B
102
}
330
13B
100
AcDbXrecord
280
     1
102
RTVSPropertyOp0
 70
     1
102
RTVSPropertyOp1
 70
     1
102
RTVSPropertyOp2
 70
     1
102
RTVSPropertyOp3
 70
     1
102
RTVSPropertyOp4
 70
     1
102
RTVSPropertyOp5
 70
     1
102
RTVSPropertyOp6
 70
     1
102
RTVSPropertyOp7
 70
     1
102
RTVSPropertyOp8
 70
     1
102
RTVSPropertyOp9
 70
     1
102
RTVSPropertyOp10
 70
     1
102
RTVSPropertyOp11
 70
     1
102
RTVSPropertyOp12
 70
     1
102
RTVSPropertyOp13
 70
     1
102
RTVSPropertyOp14
 70
     1
102
RTVSPropertyOp15
 70
     1
102
RTVSPropertyOp16
 70
     1
102
RTVSPropertyOp17
 70
     1
102
RTVSPropertyOp18
 70
     1
102
RTVSPropertyOp19
 70
     1
102
RTVSPropertyOp20
 70
     1
102
RTVSPropertyOp21
 70
     1
102
RTVSPropertyOp22
 70
     1
102
RTVSPropertyOp23
 70
     1
102
RTVSPropertyOp24
 70
     1
102
RTVSPropertyOp25
 70
     1
102
RTVSPropertyOp26
 70
     1
102
RTVSPropertyOp27
 70
     1
  0
XRECORD
  5
13E
102
{ACAD_REACTORS
330
13D
102
}
330
13D
100
AcDbXrecord
280
     1
102
RTVSPropertyOp0
 70
     1
102
RTVSPropertyOp1
 70
     1
102
RTVSPropertyOp2
 70
     1
102
RTVSPropertyOp3
 70
     1
102
RTVSPropertyOp4
 70
     1
102
RTVSPropertyOp5
 70
     1
102
RTVSPropertyOp6
 70
     1
102
RTVSPropertyOp7
 70
     1
102
RTVSPropertyOp8
 70
     1
102
RTVSPropertyOp9
 70
     1
102
RTVSPropertyOp10
 70
     1
102
RTVSPropertyOp11
 70
     1
102
RTVSPropertyOp12
 70
     1
102
RTVSPropertyOp13
 70
     1
102
RTVSPropertyOp14
 70
     1
102
RTVSPropertyOp15
 70
     1
102
RTVSPropertyOp16
 70
     1
102
RTVSPropertyOp17
 70
     1
102
RTVSPropertyOp18
 70
     1
102
RTVSPropertyOp19
 70
     1
102
RTVSPropertyOp20
 70
     1
102
RTVSPropertyOp21
 70
     1
102
RTVSPropertyOp22
 70
     1
102
RTVSPropertyOp23
 70
     1
102
RTVSPropertyOp24
 70
     1
102
RTVSPropertyOp25
 70
     1
102
RTVSPropertyOp26
 70
     1
102
RTVSPropertyOp27
 70
     1
  0
XRECORD
  5
152
102
{ACAD_REACTORS
330
151
102
}
330
151
100
AcDbXrecord
280
     1
102
RTVSPropertyOp0
 70
     1
102
RTVSPropertyOp1
 70
     1
102
RTVSPropertyOp2
 70
     1
102
RTVSPropertyOp3
 70
     1
102
RTVSPropertyOp4
 70
     1
102
RTVSPropertyOp5
 70
     1
102
RTVSPropertyOp6
 70
     1
102
RTVSPropertyOp7
 70
     1
102
RTVSPropertyOp8
 70
     1
102
RTVSPropertyOp9
 70
     1
102
RTVSPropertyOp10
 70
     1
102
RTVSPropertyOp11
 70
     1
102
RTVSPropertyOp12
 70
     1
102
RTVSPropertyOp13
 70
     1
102
RTVSPropertyOp14
 70
     1
102
RTVSPropertyOp15
 70
     1
102
RTVSPropertyOp16
 70
     1
102
RTVSPropertyOp17
 70
     1
102
RTVSPropertyOp18
 70
     1
102
RTVSPropertyOp19
 70
     1
102
RTVSPropertyOp20
 70
     1
102
RTVSPropertyOp21
 70
     1
102
RTVSPropertyOp22
 70
     1
102
RTVSPropertyOp23
 70
     1
102
RTVSPropertyOp24
 70
     1
102
RTVSPropertyOp25
 70
     1
102
RTVSPropertyOp26
 70
     1
102
RTVSPropertyOp27
 70
     1
  0
XRECORD
  5
148
102
{ACAD_REACTORS
330
147
102
}
330
147
100
AcDbXrecord
280
     1
102
RTVSPropertyOp0
 70
     1
102
RTVSPropertyOp1
 70
     1
102
RTVSPropertyOp2
 70
     1
102
RTVSPropertyOp3
 70
     1
102
RTVSPropertyOp4
 70
     1
102
RTVSPropertyOp5
 70
     1
102
RTVSPropertyOp6
 70
     1
102
RTVSPropertyOp7
 70
     1
102
RTVSPropertyOp8
 70
     1
102
RTVSPropertyOp9
 70
     1
102
RTVSPropertyOp10
 70
     1
102
RTVSPropertyOp11
 70
     1
102
RTVSPropertyOp12
 70
     1
102
RTVSPropertyOp13
 70
     1
102
RTVSPropertyOp14
 70
     1
102
RTVSPropertyOp15
 70
     1
102
RTVSPropertyOp16
 70
     1
102
RTVSPropertyOp17
 70
     1
102
RTVSPropertyOp18
 70
     1
102
RTVSPropertyOp19
 70
     1
102
RTVSPropertyOp20
 70
     1
102
RTVSPropertyOp21
 70
     1
102
RTVSPropertyOp22
 70
     1
102
RTVSPropertyOp23
 70
     1
102
RTVSPropertyOp24
 70
     1
102
RTVSPropertyOp25
 70
     1
102
RTVSPropertyOp26
 70
     1
102
RTVSPropertyOp27
 70
     1
  0
XRECORD
  5
150
102
{ACAD_REACTORS
330
14F
102
}
330
14F
100
AcDbXrecord
280
     1
102
RTVSPropertyOp0
 70
     1
102
RTVSPropertyOp1
 70
     1
102
RTVSPropertyOp2
 70
     1
102
RTVSPropertyOp3
 70
     1
102
RTVSPropertyOp4
 70
     1
102
RTVSPropertyOp5
 70
     1
102
RTVSPropertyOp6
 70
     1
102
RTVSPropertyOp7
 70
     1
102
RTVSPropertyOp8
 70
     1
102
RTVSPropertyOp9
 70
     1
102
RTVSPropertyOp10
 70
     1
102
RTVSPropertyOp11
 70
     1
102
RTVSPropertyOp12
 70
     1
102
RTVSPropertyOp13
 70
     1
102
RTVSPropertyOp14
 70
     1
102
RTVSPropertyOp15
 70
     1
102
RTVSPropertyOp16
 70
     1
102
RTVSPropertyOp17
 70
     1
102
RTVSPropertyOp18
 70
     1
102
RTVSPropertyOp19
 70
     1
102
RTVSPropertyOp20
 70
     1
102
RTVSPropertyOp21
 70
     1
102
RTVSPropertyOp22
 70
     1
102
RTVSPropertyOp23
 70
     1
102
RTVSPropertyOp24
 70
     1
102
RTVSPropertyOp25
 70
     1
102
RTVSPropertyOp26
 70
     1
102
RTVSPropertyOp27
 70
     1
  0
ENDSEC
  0
EOF
