  0
SECTION
  2
HEADER
  9
$ACADVER
  1
AC1012
  9
$DWGCODEPAGE
  3
ANSI_1252
  9
$INSBASE
 10
0.0
 20
0.0
 30
0.0
  9
$EXTMIN
 10
3.174212598425195
 20
4.007874015748031
 30
0.0
  9
$EXTMAX
 10
9.004921259842518
 20
10.68897637795275
 30
0.0
  9
$LIMMIN
 10
0.0
 20
0.0
  9
$LIMMAX
 10
12.0
 20
9.0
  9
$ORTHOMODE
 70
     0
  9
$REGENMODE
 70
     1
  9
$FILLMODE
 70
     1
  9
$QTEXTMODE
 70
     0
  9
$MIRRTEXT
 70
     1
  9
$DRAGMODE
 70
     2
  9
$LTSCALE
 40
1.0
  9
$OSMODE
 70
   547
  9
$ATTMODE
 70
     1
  9
$TEXTSIZE
 40
0.2
  9
$TRACEWID
 40
0.05
  9
$TEXTSTYLE
  7
STANDARD
  9
$CLAYER
  8
0
  9
$CELTYPE
  6
BYLAYER
  9
$CECOLOR
 62
   256
  9
$CELTSCALE
 40
1.0
  9
$DELOBJ
 70
     1
  9
$DISPSILH
 70
     0
  9
$DIMSCALE
 40
1.0
  9
$DIMASZ
 40
0.18
  9
$DIMEXO
 40
0.0625
  9
$DIMDLI
 40
0.38
  9
$DIMRND
 40
0.0
  9
$DIMDLE
 40
0.0
  9
$DIMEXE
 40
0.18
  9
$DIMTP
 40
0.0
  9
$DIMTM
 40
0.0
  9
$DIMTXT
 40
0.18
  9
$DIMCEN
 40
0.09
  9
$DIMTSZ
 40
0.0
  9
$DIMTOL
 70
     0
  9
$DIMLIM
 70
     0
  9
$DIMTIH
 70
     1
  9
$DIMTOH
 70
     1
  9
$DIMSE1
 70
     0
  9
$DIMSE2
 70
     0
  9
$DIMTAD
 70
     0
  9
$DIMZIN
 70
     0
  9
$DIMBLK
  1

  9
$DIMASO
 70
     1
  9
$DIMSHO
 70
     1
  9
$DIMPOST
  1

  9
$DIMAPOST
  1

  9
$DIMALT
 70
     0
  9
$DIMALTD
 70
     2
  9
$DIMALTF
 40
25.4
  9
$DIMLFAC
 40
1.0
  9
$DIMTOFL
 70
     0
  9
$DIMTVP
 40
0.0
  9
$DIMTIX
 70
     0
  9
$DIMSOXD
 70
     0
  9
$DIMSAH
 70
     0
  9
$DIMBLK1
  1

  9
$DIMBLK2
  1

  9
$DIMSTYLE
  2
STANDARD
  9
$DIMCLRD
 70
     0
  9
$DIMCLRE
 70
     0
  9
$DIMCLRT
 70
     0
  9
$DIMTFAC
 40
1.0
  9
$DIMGAP
 40
0.09
  9
$DIMJUST
 70
     0
  9
$DIMSD1
 70
     0
  9
$DIMSD2
 70
     0
  9
$DIMTOLJ
 70
     1
  9
$DIMTZIN
 70
     0
  9
$DIMALTZ
 70
     0
  9
$DIMALTTZ
 70
     0
  9
$DIMFIT
 70
     5
  9
$DIMUPT
 70
     0
  9
$DIMUNIT
 70
     2
  9
$DIMDEC
 70
     4
  9
$DIMTDEC
 70
     4
  9
$DIMALTU
 70
     2
  9
$DIMALTTD
 70
     2
  9
$DIMTXSTY
  7
STANDARD
  9
$DIMAUNIT
 70
     0
  9
$LUNITS
 70
     2
  9
$LUPREC
 70
     4
  9
$SKETCHINC
 40
0.1
  9
$FILLETRAD
 40
0.0
  9
$AUNITS
 70
     0
  9
$AUPREC
 70
     0
  9
$MENU
  1
acad
  9
$ELEVATION
 40
0.0
  9
$PELEVATION
 40
0.0
  9
$THICKNESS
 40
0.0
  9
$LIMCHECK
 70
     0
  9
$BLIPMODE
 70
     0
  9
$CHAMFERA
 40
0.0
  9
$CHAMFERB
 40
0.0
  9
$CHAMFERC
 40
0.0
  9
$CHAMFERD
 40
0.0
  9
$SKPOLY
 70
     0
  9
$TDCREATE
 40
2451906.319166667
  9
$TDUPDATE
 40
2453945.366403495
  9
$TDINDWG
 40
0.0035168634
  9
$TDUSRTIMER
 40
0.0035168634
  9
$USRTIMER
 70
     1
  9
$ANGBASE
 50
0.0
  9
$ANGDIR
 70
     0
  9
$PDMODE
 70
     0
  9
$PDSIZE
 40
0.0
  9
$PLINEWID
 40
0.0
  9
$COORDS
 70
     1
  9
$SPLFRAME
 70
     0
  9
$SPLINETYPE
 70
     6
  9
$SPLINESEGS
 70
     8
  9
$ATTDIA
 70
     0
  9
$ATTREQ
 70
     1
  9
$HANDLING
 70
  4097
  9
$HANDSEED
  5
322B
  9
$SURFTAB1
 70
     6
  9
$SURFTAB2
 70
     6
  9
$SURFTYPE
 70
     6
  9
$SURFU
 70
     6
  9
$SURFV
 70
     6
  9
$UCSNAME
  2

  9
$UCSORG
 10
0.0
 20
0.0
 30
0.0
  9
$UCSXDIR
 10
1.0
 20
0.0
 30
0.0
  9
$UCSYDIR
 10
0.0
 20
1.0
 30
0.0
  9
$PUCSNAME
  2

  9
$PUCSORG
 10
0.0
 20
0.0
 30
0.0
  9
$PUCSXDIR
 10
1.0
 20
0.0
 30
0.0
  9
$PUCSYDIR
 10
0.0
 20
1.0
 30
0.0
  9
$USERI1
 70
     0
  9
$USERI2
 70
     0
  9
$USERI3
 70
     0
  9
$USERI4
 70
     0
  9
$USERI5
 70
     0
  9
$USERR1
 40
0.0
  9
$USERR2
 40
0.0
  9
$USERR3
 40
0.0
  9
$USERR4
 40
0.0
  9
$USERR5
 40
0.0
  9
$WORLDVIEW
 70
     1
  9
$SHADEDGE
 70
     3
  9
$SHADEDIF
 70
    70
  9
$TILEMODE
 70
     1
  9
$MAXACTVP
 70
    16
  9
$PINSBASE
 10
0.0
 20
0.0
 30
0.0
  9
$PLIMCHECK
 70
     0
  9
$PEXTMIN
 10
1.000000000000000E+20
 20
1.000000000000000E+20
 30
1.000000000000000E+20
  9
$PEXTMAX
 10
-1.000000000000000E+20
 20
-1.000000000000000E+20
 30
-1.000000000000000E+20
  9
$PLIMMIN
 10
0.0
 20
0.0
  9
$PLIMMAX
 10
12.0
 20
9.0
  9
$UNITMODE
 70
     0
  9
$VISRETAIN
 70
     0
  9
$PLINEGEN
 70
     0
  9
$PSLTSCALE
 70
     1
  9
$TREEDEPTH
 70
  3020
  9
$PICKSTYLE
 70
     1
  9
$CMLSTYLE
  2
STANDARD
  9
$CMLJUST
 70
     0
  9
$CMLSCALE
 40
1.0
  9
$SAVEIMAGES
 70
     1
  0
ENDSEC
  0
SECTION
  2
CLASSES
  0
CLASS
  1
ACDBDICTIONARYWDFLT
  2
AcDbDictionaryWithDefault
  3
AutoCAD 2000
 90
    32768
280
     0
281
     0
  0
CLASS
  1
ACDBPLACEHOLDER
  2
AcDbPlaceHolder
  3
AutoCAD 2000
 90
    32768
280
     0
281
     0
  0
CLASS
  1
LAYOUT
  2
AcDbLayout
  3
AutoCAD 2000
 90
    32768
280
     0
281
     0
  0
CLASS
  1
LONG_TRANSACTION
  2
AcDbLongTransaction
  3
AutoCAD 2000
 90
    32768
280
     0
281
     0
  0
CLASS
  1
LWPOLYLINE
  2
AcDbPolyline
  3
AutoCAD 2000
 90
    32768
280
     0
281
     1
  0
CLASS
  1
HATCH
  2
AcDbHatch
  3
AutoCAD 2000
 90
    32768
280
     0
281
     1
  0
CLASS
  1
XRECORD
  2
AcDbXrecord
  3
AutoCAD 2000
 90
    32768
280
     0
281
     0
  0
CLASS
  1
LONG_TRANSACTION
  2
AcDbLongTransaction
  3
AutoCAD 2000
 90
    32768
280
     0
281
     0
  0
CLASS
  1
LWPOLYLINE
  2
AcDbPolyline
  3
AutoCAD 2000
 90
    32768
280
     0
281
     1
  0
CLASS
  1
HATCH
  2
AcDbHatch
  3
AutoCAD 2000
 90
    32768
280
     0
281
     1
  0
CLASS
  1
XRECORD
  2
AcDbXrecord
  3
AutoCAD 2000
 90
    32768
280
     0
281
     0
  0
CLASS
  1
LONG_TRANSACTION
  2
AcDbLongTransaction
  3
AutoCAD 2000
 90
    32768
280
     0
281
     0
  0
CLASS
  1
LWPOLYLINE
  2
AcDbPolyline
  3
AutoCAD 2000
 90
    32768
280
     0
281
     1
  0
CLASS
  1
HATCH
  2
AcDbHatch
  3
AutoCAD 2000
 90
    32768
280
     0
281
     1
  0
CLASS
  1
XRECORD
  2
AcDbXrecord
  3
AutoCAD 2000
 90
    32768
280
     0
281
     0
  0
ENDSEC
  0
SECTION
  2
TABLES
  0
TABLE
  2
VPORT
  5
8
330
0
100
AcDbSymbolTable
 70
     2
  0
VPORT
  5
3228
330
8
100
AcDbSymbolTableRecord
100
AcDbViewportTableRecord
  2
*ACTIVE
 70
     0
 10
0.0
 20
0.0
 11
1.0
 21
1.0
 12
6.089721707731627
 22
7.348260240710471
 13
0.0
 23
0.0
 14
1.0
 24
1.0
 15
0.0
 25
0.0
 16
0.0
 26
0.0
 36
1.0
 17
0.0
 27
0.0
 37
0.0
 40
6.751799188077732
 41
1.647569444444444
 42
50.0
 43
0.0
 44
0.0
 50
0.0
 51
0.0
 71
     0
 72
   100
 73
     1
 74
     1
 75
     0
 76
     0
 77
     0
 78
     0
  0
ENDTAB
  0
TABLE
  2
LTYPE
  5
5
330
0
100
AcDbSymbolTable
 70
    25
  0
LTYPE
  5
13
330
5
100
AcDbSymbolTableRecord
100
AcDbLinetypeTableRecord
  2
BYBLOCK
 70
     0
  3

 72
    65
 73
     0
 40
0.0
  0
LTYPE
  5
14
330
5
100
AcDbSymbolTableRecord
100
AcDbLinetypeTableRecord
  2
BYLAYER
 70
     0
  3

 72
    65
 73
     0
 40
0.0
  0
LTYPE
  5
15
330
5
100
AcDbSymbolTableRecord
100
AcDbLinetypeTableRecord
  2
CONTINUOUS
 70
     0
  3
Solid line
 72
    65
 73
     0
 40
0.0
  0
LTYPE
  5
22
330
5
100
AcDbSymbolTableRecord
100
AcDbLinetypeTableRecord
  2
BORDER
 70
     0
  3
__ __ . __ __ . __ __ . __ __ . __ __ . __ __ .
 72
    65
 73
     6
 40
1.75
 49
0.5
 74
     0
 49
-0.25
 74
     0
 49
0.5
 74
     0
 49
-0.25
 74
     0
 49
0.5
 74
     0
 49
-0.25
 74
     0
  0
LTYPE
  5
23
330
5
100
AcDbSymbolTableRecord
100
AcDbLinetypeTableRecord
  2
BORDER2
 70
     0
  3
__.__.__.__.__.__.__.__.__.__.__.__.__.__.__.__
 72
    65
 73
     6
 40
0.875
 49
0.25
 74
     0
 49
-0.125
 74
     0
 49
0.25
 74
     0
 49
-0.125
 74
     0
 49
0.25
 74
     0
 49
-0.125
 74
     0
  0
LTYPE
  5
24
330
5
100
AcDbSymbolTableRecord
100
AcDbLinetypeTableRecord
  2
BORDERX2
 70
     0
  3
____  ____  .  ____  ____  .  
 72
    65
 73
     6
 40
3.5
 49
1.0
 74
     0
 49
-0.5
 74
     0
 49
1.0
 74
     0
 49
-0.5
 74
     0
 49
1.0
 74
     0
 49
-0.5
 74
     0
  0
LTYPE
  5
25
330
5
100
AcDbSymbolTableRecord
100
AcDbLinetypeTableRecord
  2
CENTER
 70
     0
  3
____ _ ____ _ ____ _ ____ _ ____ _ ____ _ ____
 72
    65
 73
     4
 40
2.0
 49
1.25
 74
     0
 49
-0.25
 74
     0
 49
0.25
 74
     0
 49
-0.25
 74
     0
  0
LTYPE
  5
26
330
5
100
AcDbSymbolTableRecord
100
AcDbLinetypeTableRecord
  2
CENTER2
 70
     0
  3
____ _ ____ _ ____ _ ____ _ ____ _ ____ _ ____
 72
    65
 73
     4
 40
1.125
 49
0.75
 74
     0
 49
-0.125
 74
     0
 49
0.125
 74
     0
 49
-0.125
 74
     0
  0
LTYPE
  5
27
330
5
100
AcDbSymbolTableRecord
100
AcDbLinetypeTableRecord
  2
CENTERX2
 70
     0
  3
________  __  ________  __  ________  __  
 72
    65
 73
     4
 40
4.0
 49
2.5
 74
     0
 49
-0.5
 74
     0
 49
0.5
 74
     0
 49
-0.5
 74
     0
  0
LTYPE
  5
28
330
5
100
AcDbSymbolTableRecord
100
AcDbLinetypeTableRecord
  2
DASHDOT
 70
     0
  3
__ . __ . __ . __ . __ . __ . __ . 
 72
    65
 73
     4
 40
1.0
 49
0.5
 74
     0
 49
-0.25
 74
     0
 49
0.0
 74
     0
 49
-0.25
 74
     0
  0
LTYPE
  5
29
330
5
100
AcDbSymbolTableRecord
100
AcDbLinetypeTableRecord
  2
DASHDOT2
 70
     0
  3
_._._._._._._._._._._._._._._._.
 72
    65
 73
     4
 40
0.5
 49
0.25
 74
     0
 49
-0.125
 74
     0
 49
0.0
 74
     0
 49
-0.125
 74
     0
  0
LTYPE
  5
2A
330
5
100
AcDbSymbolTableRecord
100
AcDbLinetypeTableRecord
  2
DASHDOTX2
 70
     0
  3
____  .  ____  .  ____  .  ____  .  
 72
    65
 73
     4
 40
2.0
 49
1.0
 74
     0
 49
-0.5
 74
     0
 49
0.0
 74
     0
 49
-0.5
 74
     0
  0
LTYPE
  5
2B
330
5
100
AcDbSymbolTableRecord
100
AcDbLinetypeTableRecord
  2
DASHED
 70
     0
  3
__ __ __ __ __ __ __ __ __ __ __ __ 
 72
    65
 73
     2
 40
0.75
 49
0.5
 74
     0
 49
-0.25
 74
     0
  0
LTYPE
  5
2C
330
5
100
AcDbSymbolTableRecord
100
AcDbLinetypeTableRecord
  2
DASHED2
 70
     0
  3
_ _ _ _ _ _ _ _ _ _ _ _ _ _ _ _ _ _ 
 72
    65
 73
     2
 40
0.375
 49
0.25
 74
     0
 49
-0.125
 74
     0
  0
LTYPE
  5
2D
330
5
100
AcDbSymbolTableRecord
100
AcDbLinetypeTableRecord
  2
DASHEDX2
 70
     0
  3
____  ____  ____  ____  ____  ____  
 72
    65
 73
     2
 40
1.5
 49
1.0
 74
     0
 49
-0.5
 74
     0
  0
LTYPE
  5
2E
330
5
100
AcDbSymbolTableRecord
100
AcDbLinetypeTableRecord
  2
DIVIDE
 70
     0
  3
____ . . ____ . . ____ . . ____ . . 
 72
    65
 73
     6
 40
1.25
 49
0.5
 74
     0
 49
-0.25
 74
     0
 49
0.0
 74
     0
 49
-0.25
 74
     0
 49
0.0
 74
     0
 49
-0.25
 74
     0
  0
LTYPE
  5
2F
330
5
100
AcDbSymbolTableRecord
100
AcDbLinetypeTableRecord
  2
DIVIDE2
 70
     0
  3
__..__..__..__..__..__..__..__..__..
 72
    65
 73
     6
 40
0.625
 49
0.25
 74
     0
 49
-0.125
 74
     0
 49
0.0
 74
     0
 49
-0.125
 74
     0
 49
0.0
 74
     0
 49
-0.125
 74
     0
  0
LTYPE
  5
30
330
5
100
AcDbSymbolTableRecord
100
AcDbLinetypeTableRecord
  2
DIVIDEX2
 70
     0
  3
________  .  .  ________  .  .  ________  .  . 
 72
    65
 73
     6
 40
2.5
 49
1.0
 74
     0
 49
-0.5
 74
     0
 49
0.0
 74
     0
 49
-0.5
 74
     0
 49
0.0
 74
     0
 49
-0.5
 74
     0
  0
LTYPE
  5
31
330
5
100
AcDbSymbolTableRecord
100
AcDbLinetypeTableRecord
  2
DOT
 70
     0
  3
. . . . . . . . . . . . . . . . . . 
 72
    65
 73
     2
 40
0.25
 49
0.0
 74
     0
 49
-0.25
 74
     0
  0
LTYPE
  5
32
330
5
100
AcDbSymbolTableRecord
100
AcDbLinetypeTableRecord
  2
DOT2
 70
     0
  3
....................................
 72
    65
 73
     2
 40
0.125
 49
0.0
 74
     0
 49
-0.125
 74
     0
  0
LTYPE
  5
33
330
5
100
AcDbSymbolTableRecord
100
AcDbLinetypeTableRecord
  2
DOTX2
 70
     0
  3
.  .  .  .  .  .  .  .  .  .  .  .  .  
 72
    65
 73
     2
 40
0.5
 49
0.0
 74
     0
 49
-0.5
 74
     0
  0
LTYPE
  5
34
330
5
100
AcDbSymbolTableRecord
100
AcDbLinetypeTableRecord
  2
HIDDEN
 70
     0
  3
__ __ __ __ __ __ __ __ __ __ __ __ 
 72
    65
 73
     2
 40
0.375
 49
0.25
 74
     0
 49
-0.125
 74
     0
  0
LTYPE
  5
35
330
5
100
AcDbSymbolTableRecord
100
AcDbLinetypeTableRecord
  2
HIDDEN2
 70
     0
  3
_ _ _ _ _ _ _ _ _ _ _ _ _ _ _ _ _ _ 
 72
    65
 73
     2
 40
0.1875
 49
0.125
 74
     0
 49
-0.0625
 74
     0
  0
LTYPE
  5
36
330
5
100
AcDbSymbolTableRecord
100
AcDbLinetypeTableRecord
  2
HIDDENX2
 70
     0
  3
____ ____ ____ ____ ____ ____ ____ 
 72
    65
 73
     2
 40
0.75
 49
0.5
 74
     0
 49
-0.25
 74
     0
  0
LTYPE
  5
37
330
5
100
AcDbSymbolTableRecord
100
AcDbLinetypeTableRecord
  2
PHANTOM
 70
     0
  3
______  __  __  ______  __  __  
 72
    65
 73
     6
 40
2.5
 49
1.25
 74
     0
 49
-0.25
 74
     0
 49
0.25
 74
     0
 49
-0.25
 74
     0
 49
0.25
 74
     0
 49
-0.25
 74
     0
  0
LTYPE
  5
38
330
5
100
AcDbSymbolTableRecord
100
AcDbLinetypeTableRecord
  2
PHANTOM2
 70
     0
  3
___ _ _ ___ _ _ ___ _ _ ___ _ _ 
 72
    65
 73
     6
 40
1.25
 49
0.625
 74
     0
 49
-0.125
 74
     0
 49
0.125
 74
     0
 49
-0.125
 74
     0
 49
0.125
 74
     0
 49
-0.125
 74
     0
  0
LTYPE
  5
39
330
5
100
AcDbSymbolTableRecord
100
AcDbLinetypeTableRecord
  2
PHANTOMX2
 70
     0
  3
___ _ _ ___ _ _ ___ _ _ ___ _ _ 
 72
    65
 73
     6
 40
5.0
 49
2.5
 74
     0
 49
-0.5
 74
     0
 49
0.5
 74
     0
 49
-0.5
 74
     0
 49
0.5
 74
     0
 49
-0.5
 74
     0
  0
ENDTAB
  0
TABLE
  2
LAYER
  5
2
330
0
100
AcDbSymbolTable
 70
   257
  0
LAYER
  5
10
330
2
100
AcDbSymbolTableRecord
100
AcDbLayerTableRecord
  2
0
 70
     0
 62
     7
  6
CONTINUOUS
  0
LAYER
  5
3A
330
2
100
AcDbSymbolTableRecord
100
AcDbLayerTableRecord
  2
1
 70
     0
 62
     1
  6
CONTINUOUS
  0
LAYER
  5
3B
330
2
100
AcDbSymbolTableRecord
100
AcDbLayerTableRecord
  2
2
 70
     0
 62
     2
  6
CONTINUOUS
  0
LAYER
  5
3C
330
2
100
AcDbSymbolTableRecord
100
AcDbLayerTableRecord
  2
3
 70
     0
 62
     3
  6
CONTINUOUS
  0
LAYER
  5
3D
330
2
100
AcDbSymbolTableRecord
100
AcDbLayerTableRecord
  2
4
 70
     0
 62
     4
  6
CONTINUOUS
  0
LAYER
  5
3E
330
2
100
AcDbSymbolTableRecord
100
AcDbLayerTableRecord
  2
5
 70
     0
 62
     5
  6
CONTINUOUS
  0
LAYER
  5
3F
330
2
100
AcDbSymbolTableRecord
100
AcDbLayerTableRecord
  2
6
 70
     0
 62
     6
  6
CONTINUOUS
  0
LAYER
  5
40
330
2
100
AcDbSymbolTableRecord
100
AcDbLayerTableRecord
  2
7
 70
     0
 62
     7
  6
CONTINUOUS
  0
LAYER
  5
41
330
2
100
AcDbSymbolTableRecord
100
AcDbLayerTableRecord
  2
8
 70
     0
 62
     8
  6
CONTINUOUS
  0
LAYER
  5
42
330
2
100
AcDbSymbolTableRecord
100
AcDbLayerTableRecord
  2
9
 70
     0
 62
     9
  6
CONTINUOUS
  0
LAYER
  5
43
330
2
100
AcDbSymbolTableRecord
100
AcDbLayerTableRecord
  2
10
 70
     0
 62
    10
  6
CONTINUOUS
  0
LAYER
  5
44
330
2
100
AcDbSymbolTableRecord
100
AcDbLayerTableRecord
  2
11
 70
     0
 62
    11
  6
CONTINUOUS
  0
LAYER
  5
45
330
2
100
AcDbSymbolTableRecord
100
AcDbLayerTableRecord
  2
12
 70
     0
 62
    12
  6
CONTINUOUS
  0
LAYER
  5
46
330
2
100
AcDbSymbolTableRecord
100
AcDbLayerTableRecord
  2
13
 70
     0
 62
    13
  6
CONTINUOUS
  0
LAYER
  5
47
330
2
100
AcDbSymbolTableRecord
100
AcDbLayerTableRecord
  2
14
 70
     0
 62
    14
  6
CONTINUOUS
  0
LAYER
  5
48
330
2
100
AcDbSymbolTableRecord
100
AcDbLayerTableRecord
  2
15
 70
     0
 62
    15
  6
CONTINUOUS
  0
LAYER
  5
49
330
2
100
AcDbSymbolTableRecord
100
AcDbLayerTableRecord
  2
16
 70
     0
 62
    16
  6
CONTINUOUS
  0
LAYER
  5
4A
330
2
100
AcDbSymbolTableRecord
100
AcDbLayerTableRecord
  2
17
 70
     0
 62
    17
  6
CONTINUOUS
  0
LAYER
  5
4B
330
2
100
AcDbSymbolTableRecord
100
AcDbLayerTableRecord
  2
18
 70
     0
 62
    18
  6
CONTINUOUS
  0
LAYER
  5
4C
330
2
100
AcDbSymbolTableRecord
100
AcDbLayerTableRecord
  2
19
 70
     0
 62
    19
  6
CONTINUOUS
  0
LAYER
  5
4D
330
2
100
AcDbSymbolTableRecord
100
AcDbLayerTableRecord
  2
20
 70
     0
 62
    20
  6
CONTINUOUS
  0
LAYER
  5
4E
330
2
100
AcDbSymbolTableRecord
100
AcDbLayerTableRecord
  2
21
 70
     0
 62
    21
  6
CONTINUOUS
  0
LAYER
  5
4F
330
2
100
AcDbSymbolTableRecord
100
AcDbLayerTableRecord
  2
22
 70
     0
 62
    22
  6
CONTINUOUS
  0
LAYER
  5
50
330
2
100
AcDbSymbolTableRecord
100
AcDbLayerTableRecord
  2
23
 70
     0
 62
    23
  6
CONTINUOUS
  0
LAYER
  5
51
330
2
100
AcDbSymbolTableRecord
100
AcDbLayerTableRecord
  2
24
 70
     0
 62
    24
  6
CONTINUOUS
  0
LAYER
  5
52
330
2
100
AcDbSymbolTableRecord
100
AcDbLayerTableRecord
  2
25
 70
     0
 62
    25
  6
CONTINUOUS
  0
LAYER
  5
53
330
2
100
AcDbSymbolTableRecord
100
AcDbLayerTableRecord
  2
26
 70
     0
 62
    26
  6
CONTINUOUS
  0
LAYER
  5
54
330
2
100
AcDbSymbolTableRecord
100
AcDbLayerTableRecord
  2
27
 70
     0
 62
    27
  6
CONTINUOUS
  0
LAYER
  5
55
330
2
100
AcDbSymbolTableRecord
100
AcDbLayerTableRecord
  2
28
 70
     0
 62
    28
  6
CONTINUOUS
  0
LAYER
  5
56
330
2
100
AcDbSymbolTableRecord
100
AcDbLayerTableRecord
  2
29
 70
     0
 62
    29
  6
CONTINUOUS
  0
LAYER
  5
57
330
2
100
AcDbSymbolTableRecord
100
AcDbLayerTableRecord
  2
30
 70
     0
 62
    30
  6
CONTINUOUS
  0
LAYER
  5
58
330
2
100
AcDbSymbolTableRecord
100
AcDbLayerTableRecord
  2
31
 70
     0
 62
    31
  6
CONTINUOUS
  0
LAYER
  5
59
330
2
100
AcDbSymbolTableRecord
100
AcDbLayerTableRecord
  2
32
 70
     0
 62
    32
  6
CONTINUOUS
  0
LAYER
  5
5A
330
2
100
AcDbSymbolTableRecord
100
AcDbLayerTableRecord
  2
33
 70
     0
 62
    33
  6
CONTINUOUS
  0
LAYER
  5
5B
330
2
100
AcDbSymbolTableRecord
100
AcDbLayerTableRecord
  2
34
 70
     0
 62
    34
  6
CONTINUOUS
  0
LAYER
  5
5C
330
2
100
AcDbSymbolTableRecord
100
AcDbLayerTableRecord
  2
35
 70
     0
 62
    35
  6
CONTINUOUS
  0
LAYER
  5
5D
330
2
100
AcDbSymbolTableRecord
100
AcDbLayerTableRecord
  2
36
 70
     0
 62
    36
  6
CONTINUOUS
  0
LAYER
  5
5E
330
2
100
AcDbSymbolTableRecord
100
AcDbLayerTableRecord
  2
37
 70
     0
 62
    37
  6
CONTINUOUS
  0
LAYER
  5
5F
330
2
100
AcDbSymbolTableRecord
100
AcDbLayerTableRecord
  2
38
 70
     0
 62
    38
  6
CONTINUOUS
  0
LAYER
  5
60
330
2
100
AcDbSymbolTableRecord
100
AcDbLayerTableRecord
  2
39
 70
     0
 62
    39
  6
CONTINUOUS
  0
LAYER
  5
61
330
2
100
AcDbSymbolTableRecord
100
AcDbLayerTableRecord
  2
40
 70
     0
 62
    40
  6
CONTINUOUS
  0
LAYER
  5
62
330
2
100
AcDbSymbolTableRecord
100
AcDbLayerTableRecord
  2
41
 70
     0
 62
    41
  6
CONTINUOUS
  0
LAYER
  5
63
330
2
100
AcDbSymbolTableRecord
100
AcDbLayerTableRecord
  2
42
 70
     0
 62
    42
  6
CONTINUOUS
  0
LAYER
  5
64
330
2
100
AcDbSymbolTableRecord
100
AcDbLayerTableRecord
  2
43
 70
     0
 62
    43
  6
CONTINUOUS
  0
LAYER
  5
65
330
2
100
AcDbSymbolTableRecord
100
AcDbLayerTableRecord
  2
44
 70
     0
 62
    44
  6
CONTINUOUS
  0
LAYER
  5
66
330
2
100
AcDbSymbolTableRecord
100
AcDbLayerTableRecord
  2
45
 70
     0
 62
    45
  6
CONTINUOUS
  0
LAYER
  5
67
330
2
100
AcDbSymbolTableRecord
100
AcDbLayerTableRecord
  2
46
 70
     0
 62
    46
  6
CONTINUOUS
  0
LAYER
  5
68
330
2
100
AcDbSymbolTableRecord
100
AcDbLayerTableRecord
  2
47
 70
     0
 62
    47
  6
CONTINUOUS
  0
LAYER
  5
69
330
2
100
AcDbSymbolTableRecord
100
AcDbLayerTableRecord
  2
48
 70
     0
 62
    48
  6
CONTINUOUS
  0
LAYER
  5
6A
330
2
100
AcDbSymbolTableRecord
100
AcDbLayerTableRecord
  2
49
 70
     0
 62
    49
  6
CONTINUOUS
  0
LAYER
  5
6B
330
2
100
AcDbSymbolTableRecord
100
AcDbLayerTableRecord
  2
50
 70
     0
 62
    50
  6
CONTINUOUS
  0
LAYER
  5
6C
330
2
100
AcDbSymbolTableRecord
100
AcDbLayerTableRecord
  2
51
 70
     0
 62
    51
  6
CONTINUOUS
  0
LAYER
  5
6D
330
2
100
AcDbSymbolTableRecord
100
AcDbLayerTableRecord
  2
52
 70
     0
 62
    52
  6
CONTINUOUS
  0
LAYER
  5
6E
330
2
100
AcDbSymbolTableRecord
100
AcDbLayerTableRecord
  2
53
 70
     0
 62
    53
  6
CONTINUOUS
  0
LAYER
  5
6F
330
2
100
AcDbSymbolTableRecord
100
AcDbLayerTableRecord
  2
54
 70
     0
 62
    54
  6
CONTINUOUS
  0
LAYER
  5
70
330
2
100
AcDbSymbolTableRecord
100
AcDbLayerTableRecord
  2
55
 70
     0
 62
    55
  6
CONTINUOUS
  0
LAYER
  5
71
330
2
100
AcDbSymbolTableRecord
100
AcDbLayerTableRecord
  2
56
 70
     0
 62
    56
  6
CONTINUOUS
  0
LAYER
  5
72
330
2
100
AcDbSymbolTableRecord
100
AcDbLayerTableRecord
  2
57
 70
     0
 62
    57
  6
CONTINUOUS
  0
LAYER
  5
73
330
2
100
AcDbSymbolTableRecord
100
AcDbLayerTableRecord
  2
58
 70
     0
 62
    58
  6
CONTINUOUS
  0
LAYER
  5
74
330
2
100
AcDbSymbolTableRecord
100
AcDbLayerTableRecord
  2
59
 70
     0
 62
    59
  6
CONTINUOUS
  0
LAYER
  5
75
330
2
100
AcDbSymbolTableRecord
100
AcDbLayerTableRecord
  2
60
 70
     0
 62
    60
  6
CONTINUOUS
  0
LAYER
  5
76
330
2
100
AcDbSymbolTableRecord
100
AcDbLayerTableRecord
  2
61
 70
     0
 62
    61
  6
CONTINUOUS
  0
LAYER
  5
77
330
2
100
AcDbSymbolTableRecord
100
AcDbLayerTableRecord
  2
62
 70
     0
 62
    62
  6
CONTINUOUS
  0
LAYER
  5
78
330
2
100
AcDbSymbolTableRecord
100
AcDbLayerTableRecord
  2
63
 70
     0
 62
    63
  6
CONTINUOUS
  0
LAYER
  5
79
330
2
100
AcDbSymbolTableRecord
100
AcDbLayerTableRecord
  2
64
 70
     0
 62
    64
  6
CONTINUOUS
  0
LAYER
  5
7A
330
2
100
AcDbSymbolTableRecord
100
AcDbLayerTableRecord
  2
65
 70
     0
 62
    65
  6
CONTINUOUS
  0
LAYER
  5
7B
330
2
100
AcDbSymbolTableRecord
100
AcDbLayerTableRecord
  2
66
 70
     0
 62
    66
  6
CONTINUOUS
  0
LAYER
  5
7C
330
2
100
AcDbSymbolTableRecord
100
AcDbLayerTableRecord
  2
67
 70
     0
 62
    67
  6
CONTINUOUS
  0
LAYER
  5
7D
330
2
100
AcDbSymbolTableRecord
100
AcDbLayerTableRecord
  2
68
 70
     0
 62
    68
  6
CONTINUOUS
  0
LAYER
  5
7E
330
2
100
AcDbSymbolTableRecord
100
AcDbLayerTableRecord
  2
69
 70
     0
 62
    69
  6
CONTINUOUS
  0
LAYER
  5
7F
330
2
100
AcDbSymbolTableRecord
100
AcDbLayerTableRecord
  2
70
 70
     0
 62
    70
  6
CONTINUOUS
  0
LAYER
  5
80
330
2
100
AcDbSymbolTableRecord
100
AcDbLayerTableRecord
  2
71
 70
     0
 62
    71
  6
CONTINUOUS
  0
LAYER
  5
81
330
2
100
AcDbSymbolTableRecord
100
AcDbLayerTableRecord
  2
72
 70
     0
 62
    72
  6
CONTINUOUS
  0
LAYER
  5
82
330
2
100
AcDbSymbolTableRecord
100
AcDbLayerTableRecord
  2
73
 70
     0
 62
    73
  6
CONTINUOUS
  0
LAYER
  5
83
330
2
100
AcDbSymbolTableRecord
100
AcDbLayerTableRecord
  2
74
 70
     0
 62
    74
  6
CONTINUOUS
  0
LAYER
  5
84
330
2
100
AcDbSymbolTableRecord
100
AcDbLayerTableRecord
  2
75
 70
     0
 62
    75
  6
CONTINUOUS
  0
LAYER
  5
85
330
2
100
AcDbSymbolTableRecord
100
AcDbLayerTableRecord
  2
76
 70
     0
 62
    76
  6
CONTINUOUS
  0
LAYER
  5
86
330
2
100
AcDbSymbolTableRecord
100
AcDbLayerTableRecord
  2
77
 70
     0
 62
    77
  6
CONTINUOUS
  0
LAYER
  5
87
330
2
100
AcDbSymbolTableRecord
100
AcDbLayerTableRecord
  2
78
 70
     0
 62
    78
  6
CONTINUOUS
  0
LAYER
  5
88
330
2
100
AcDbSymbolTableRecord
100
AcDbLayerTableRecord
  2
79
 70
     0
 62
    79
  6
CONTINUOUS
  0
LAYER
  5
89
330
2
100
AcDbSymbolTableRecord
100
AcDbLayerTableRecord
  2
80
 70
     0
 62
    80
  6
CONTINUOUS
  0
LAYER
  5
8A
330
2
100
AcDbSymbolTableRecord
100
AcDbLayerTableRecord
  2
81
 70
     0
 62
    81
  6
CONTINUOUS
  0
LAYER
  5
8B
330
2
100
AcDbSymbolTableRecord
100
AcDbLayerTableRecord
  2
82
 70
     0
 62
    82
  6
CONTINUOUS
  0
LAYER
  5
8C
330
2
100
AcDbSymbolTableRecord
100
AcDbLayerTableRecord
  2
83
 70
     0
 62
    83
  6
CONTINUOUS
  0
LAYER
  5
8D
330
2
100
AcDbSymbolTableRecord
100
AcDbLayerTableRecord
  2
84
 70
     0
 62
    84
  6
CONTINUOUS
  0
LAYER
  5
8E
330
2
100
AcDbSymbolTableRecord
100
AcDbLayerTableRecord
  2
85
 70
     0
 62
    85
  6
CONTINUOUS
  0
LAYER
  5
8F
330
2
100
AcDbSymbolTableRecord
100
AcDbLayerTableRecord
  2
86
 70
     0
 62
    86
  6
CONTINUOUS
  0
LAYER
  5
90
330
2
100
AcDbSymbolTableRecord
100
AcDbLayerTableRecord
  2
87
 70
     0
 62
    87
  6
CONTINUOUS
  0
LAYER
  5
91
330
2
100
AcDbSymbolTableRecord
100
AcDbLayerTableRecord
  2
88
 70
     0
 62
    88
  6
CONTINUOUS
  0
LAYER
  5
92
330
2
100
AcDbSymbolTableRecord
100
AcDbLayerTableRecord
  2
89
 70
     0
 62
    89
  6
CONTINUOUS
  0
LAYER
  5
93
330
2
100
AcDbSymbolTableRecord
100
AcDbLayerTableRecord
  2
90
 70
     0
 62
    90
  6
CONTINUOUS
  0
LAYER
  5
94
330
2
100
AcDbSymbolTableRecord
100
AcDbLayerTableRecord
  2
91
 70
     0
 62
    91
  6
CONTINUOUS
  0
LAYER
  5
95
330
2
100
AcDbSymbolTableRecord
100
AcDbLayerTableRecord
  2
92
 70
     0
 62
    92
  6
CONTINUOUS
  0
LAYER
  5
96
330
2
100
AcDbSymbolTableRecord
100
AcDbLayerTableRecord
  2
93
 70
     0
 62
    93
  6
CONTINUOUS
  0
LAYER
  5
97
330
2
100
AcDbSymbolTableRecord
100
AcDbLayerTableRecord
  2
94
 70
     0
 62
    94
  6
CONTINUOUS
  0
LAYER
  5
98
330
2
100
AcDbSymbolTableRecord
100
AcDbLayerTableRecord
  2
95
 70
     0
 62
    95
  6
CONTINUOUS
  0
LAYER
  5
99
330
2
100
AcDbSymbolTableRecord
100
AcDbLayerTableRecord
  2
96
 70
     0
 62
    96
  6
CONTINUOUS
  0
LAYER
  5
9A
330
2
100
AcDbSymbolTableRecord
100
AcDbLayerTableRecord
  2
97
 70
     0
 62
    97
  6
CONTINUOUS
  0
LAYER
  5
9B
330
2
100
AcDbSymbolTableRecord
100
AcDbLayerTableRecord
  2
98
 70
     0
 62
    98
  6
CONTINUOUS
  0
LAYER
  5
9C
330
2
100
AcDbSymbolTableRecord
100
AcDbLayerTableRecord
  2
99
 70
     0
 62
    99
  6
CONTINUOUS
  0
LAYER
  5
9D
330
2
100
AcDbSymbolTableRecord
100
AcDbLayerTableRecord
  2
100
 70
     0
 62
   100
  6
CONTINUOUS
  0
LAYER
  5
9E
330
2
100
AcDbSymbolTableRecord
100
AcDbLayerTableRecord
  2
101
 70
     0
 62
   101
  6
CONTINUOUS
  0
LAYER
  5
9F
330
2
100
AcDbSymbolTableRecord
100
AcDbLayerTableRecord
  2
102
 70
     0
 62
   102
  6
CONTINUOUS
  0
LAYER
  5
A0
330
2
100
AcDbSymbolTableRecord
100
AcDbLayerTableRecord
  2
103
 70
     0
 62
   103
  6
CONTINUOUS
  0
LAYER
  5
A1
330
2
100
AcDbSymbolTableRecord
100
AcDbLayerTableRecord
  2
104
 70
     0
 62
   104
  6
CONTINUOUS
  0
LAYER
  5
A2
330
2
100
AcDbSymbolTableRecord
100
AcDbLayerTableRecord
  2
105
 70
     0
 62
   105
  6
CONTINUOUS
  0
LAYER
  5
A3
330
2
100
AcDbSymbolTableRecord
100
AcDbLayerTableRecord
  2
106
 70
     0
 62
   106
  6
CONTINUOUS
  0
LAYER
  5
A4
330
2
100
AcDbSymbolTableRecord
100
AcDbLayerTableRecord
  2
107
 70
     0
 62
   107
  6
CONTINUOUS
  0
LAYER
  5
A5
330
2
100
AcDbSymbolTableRecord
100
AcDbLayerTableRecord
  2
108
 70
     0
 62
   108
  6
CONTINUOUS
  0
LAYER
  5
A6
330
2
100
AcDbSymbolTableRecord
100
AcDbLayerTableRecord
  2
109
 70
     0
 62
   109
  6
CONTINUOUS
  0
LAYER
  5
A7
330
2
100
AcDbSymbolTableRecord
100
AcDbLayerTableRecord
  2
110
 70
     0
 62
   110
  6
CONTINUOUS
  0
LAYER
  5
A8
330
2
100
AcDbSymbolTableRecord
100
AcDbLayerTableRecord
  2
111
 70
     0
 62
   111
  6
CONTINUOUS
  0
LAYER
  5
A9
330
2
100
AcDbSymbolTableRecord
100
AcDbLayerTableRecord
  2
112
 70
     0
 62
   112
  6
CONTINUOUS
  0
LAYER
  5
AA
330
2
100
AcDbSymbolTableRecord
100
AcDbLayerTableRecord
  2
113
 70
     0
 62
   113
  6
CONTINUOUS
  0
LAYER
  5
AB
330
2
100
AcDbSymbolTableRecord
100
AcDbLayerTableRecord
  2
114
 70
     0
 62
   114
  6
CONTINUOUS
  0
LAYER
  5
AC
330
2
100
AcDbSymbolTableRecord
100
AcDbLayerTableRecord
  2
115
 70
     0
 62
   115
  6
CONTINUOUS
  0
LAYER
  5
AD
330
2
100
AcDbSymbolTableRecord
100
AcDbLayerTableRecord
  2
116
 70
     0
 62
   116
  6
CONTINUOUS
  0
LAYER
  5
AE
330
2
100
AcDbSymbolTableRecord
100
AcDbLayerTableRecord
  2
117
 70
     0
 62
   117
  6
CONTINUOUS
  0
LAYER
  5
AF
330
2
100
AcDbSymbolTableRecord
100
AcDbLayerTableRecord
  2
118
 70
     0
 62
   118
  6
CONTINUOUS
  0
LAYER
  5
B0
330
2
100
AcDbSymbolTableRecord
100
AcDbLayerTableRecord
  2
119
 70
     0
 62
   119
  6
CONTINUOUS
  0
LAYER
  5
B1
330
2
100
AcDbSymbolTableRecord
100
AcDbLayerTableRecord
  2
120
 70
     0
 62
   120
  6
CONTINUOUS
  0
LAYER
  5
B2
330
2
100
AcDbSymbolTableRecord
100
AcDbLayerTableRecord
  2
121
 70
     0
 62
   121
  6
CONTINUOUS
  0
LAYER
  5
B3
330
2
100
AcDbSymbolTableRecord
100
AcDbLayerTableRecord
  2
122
 70
     0
 62
   122
  6
CONTINUOUS
  0
LAYER
  5
B4
330
2
100
AcDbSymbolTableRecord
100
AcDbLayerTableRecord
  2
123
 70
     0
 62
   123
  6
CONTINUOUS
  0
LAYER
  5
B5
330
2
100
AcDbSymbolTableRecord
100
AcDbLayerTableRecord
  2
124
 70
     0
 62
   124
  6
CONTINUOUS
  0
LAYER
  5
B6
330
2
100
AcDbSymbolTableRecord
100
AcDbLayerTableRecord
  2
125
 70
     0
 62
   125
  6
CONTINUOUS
  0
LAYER
  5
B7
330
2
100
AcDbSymbolTableRecord
100
AcDbLayerTableRecord
  2
126
 70
     0
 62
   126
  6
CONTINUOUS
  0
LAYER
  5
B8
330
2
100
AcDbSymbolTableRecord
100
AcDbLayerTableRecord
  2
127
 70
     0
 62
   127
  6
CONTINUOUS
  0
LAYER
  5
B9
330
2
100
AcDbSymbolTableRecord
100
AcDbLayerTableRecord
  2
128
 70
     0
 62
   128
  6
CONTINUOUS
  0
LAYER
  5
BA
330
2
100
AcDbSymbolTableRecord
100
AcDbLayerTableRecord
  2
129
 70
     0
 62
   129
  6
CONTINUOUS
  0
LAYER
  5
BB
330
2
100
AcDbSymbolTableRecord
100
AcDbLayerTableRecord
  2
130
 70
     0
 62
   130
  6
CONTINUOUS
  0
LAYER
  5
BC
330
2
100
AcDbSymbolTableRecord
100
AcDbLayerTableRecord
  2
131
 70
     0
 62
   131
  6
CONTINUOUS
  0
LAYER
  5
BD
330
2
100
AcDbSymbolTableRecord
100
AcDbLayerTableRecord
  2
132
 70
     0
 62
   132
  6
CONTINUOUS
  0
LAYER
  5
BE
330
2
100
AcDbSymbolTableRecord
100
AcDbLayerTableRecord
  2
133
 70
     0
 62
   133
  6
CONTINUOUS
  0
LAYER
  5
BF
330
2
100
AcDbSymbolTableRecord
100
AcDbLayerTableRecord
  2
134
 70
     0
 62
   134
  6
CONTINUOUS
  0
LAYER
  5
C0
330
2
100
AcDbSymbolTableRecord
100
AcDbLayerTableRecord
  2
135
 70
     0
 62
   135
  6
CONTINUOUS
  0
LAYER
  5
C1
330
2
100
AcDbSymbolTableRecord
100
AcDbLayerTableRecord
  2
136
 70
     0
 62
   136
  6
CONTINUOUS
  0
LAYER
  5
C2
330
2
100
AcDbSymbolTableRecord
100
AcDbLayerTableRecord
  2
137
 70
     0
 62
   137
  6
CONTINUOUS
  0
LAYER
  5
C3
330
2
100
AcDbSymbolTableRecord
100
AcDbLayerTableRecord
  2
138
 70
     0
 62
   138
  6
CONTINUOUS
  0
LAYER
  5
C4
330
2
100
AcDbSymbolTableRecord
100
AcDbLayerTableRecord
  2
139
 70
     0
 62
   139
  6
CONTINUOUS
  0
LAYER
  5
C5
330
2
100
AcDbSymbolTableRecord
100
AcDbLayerTableRecord
  2
140
 70
     0
 62
   140
  6
CONTINUOUS
  0
LAYER
  5
C6
330
2
100
AcDbSymbolTableRecord
100
AcDbLayerTableRecord
  2
141
 70
     0
 62
   141
  6
CONTINUOUS
  0
LAYER
  5
C7
330
2
100
AcDbSymbolTableRecord
100
AcDbLayerTableRecord
  2
142
 70
     0
 62
   142
  6
CONTINUOUS
  0
LAYER
  5
C8
330
2
100
AcDbSymbolTableRecord
100
AcDbLayerTableRecord
  2
143
 70
     0
 62
   143
  6
CONTINUOUS
  0
LAYER
  5
C9
330
2
100
AcDbSymbolTableRecord
100
AcDbLayerTableRecord
  2
144
 70
     0
 62
   144
  6
CONTINUOUS
  0
LAYER
  5
CA
330
2
100
AcDbSymbolTableRecord
100
AcDbLayerTableRecord
  2
145
 70
     0
 62
   145
  6
CONTINUOUS
  0
LAYER
  5
CB
330
2
100
AcDbSymbolTableRecord
100
AcDbLayerTableRecord
  2
146
 70
     0
 62
   146
  6
CONTINUOUS
  0
LAYER
  5
CC
330
2
100
AcDbSymbolTableRecord
100
AcDbLayerTableRecord
  2
147
 70
     0
 62
   147
  6
CONTINUOUS
  0
LAYER
  5
CD
330
2
100
AcDbSymbolTableRecord
100
AcDbLayerTableRecord
  2
148
 70
     0
 62
   148
  6
CONTINUOUS
  0
LAYER
  5
CE
330
2
100
AcDbSymbolTableRecord
100
AcDbLayerTableRecord
  2
149
 70
     0
 62
   149
  6
CONTINUOUS
  0
LAYER
  5
CF
330
2
100
AcDbSymbolTableRecord
100
AcDbLayerTableRecord
  2
150
 70
     0
 62
   150
  6
CONTINUOUS
  0
LAYER
  5
D0
330
2
100
AcDbSymbolTableRecord
100
AcDbLayerTableRecord
  2
151
 70
     0
 62
   151
  6
CONTINUOUS
  0
LAYER
  5
D1
330
2
100
AcDbSymbolTableRecord
100
AcDbLayerTableRecord
  2
152
 70
     0
 62
   152
  6
CONTINUOUS
  0
LAYER
  5
D2
330
2
100
AcDbSymbolTableRecord
100
AcDbLayerTableRecord
  2
153
 70
     0
 62
   153
  6
CONTINUOUS
  0
LAYER
  5
D3
330
2
100
AcDbSymbolTableRecord
100
AcDbLayerTableRecord
  2
154
 70
     0
 62
   154
  6
CONTINUOUS
  0
LAYER
  5
D4
330
2
100
AcDbSymbolTableRecord
100
AcDbLayerTableRecord
  2
155
 70
     0
 62
   155
  6
CONTINUOUS
  0
LAYER
  5
D5
330
2
100
AcDbSymbolTableRecord
100
AcDbLayerTableRecord
  2
156
 70
     0
 62
   156
  6
CONTINUOUS
  0
LAYER
  5
D6
330
2
100
AcDbSymbolTableRecord
100
AcDbLayerTableRecord
  2
157
 70
     0
 62
   157
  6
CONTINUOUS
  0
LAYER
  5
D7
330
2
100
AcDbSymbolTableRecord
100
AcDbLayerTableRecord
  2
158
 70
     0
 62
   158
  6
CONTINUOUS
  0
LAYER
  5
D8
330
2
100
AcDbSymbolTableRecord
100
AcDbLayerTableRecord
  2
159
 70
     0
 62
   159
  6
CONTINUOUS
  0
LAYER
  5
D9
330
2
100
AcDbSymbolTableRecord
100
AcDbLayerTableRecord
  2
160
 70
     0
 62
   160
  6
CONTINUOUS
  0
LAYER
  5
DA
330
2
100
AcDbSymbolTableRecord
100
AcDbLayerTableRecord
  2
161
 70
     0
 62
   161
  6
CONTINUOUS
  0
LAYER
  5
DB
330
2
100
AcDbSymbolTableRecord
100
AcDbLayerTableRecord
  2
162
 70
     0
 62
   162
  6
CONTINUOUS
  0
LAYER
  5
DC
330
2
100
AcDbSymbolTableRecord
100
AcDbLayerTableRecord
  2
163
 70
     0
 62
   163
  6
CONTINUOUS
  0
LAYER
  5
DD
330
2
100
AcDbSymbolTableRecord
100
AcDbLayerTableRecord
  2
164
 70
     0
 62
   164
  6
CONTINUOUS
  0
LAYER
  5
DE
330
2
100
AcDbSymbolTableRecord
100
AcDbLayerTableRecord
  2
165
 70
     0
 62
   165
  6
CONTINUOUS
  0
LAYER
  5
DF
330
2
100
AcDbSymbolTableRecord
100
AcDbLayerTableRecord
  2
166
 70
     0
 62
   166
  6
CONTINUOUS
  0
LAYER
  5
E0
330
2
100
AcDbSymbolTableRecord
100
AcDbLayerTableRecord
  2
167
 70
     0
 62
   167
  6
CONTINUOUS
  0
LAYER
  5
E1
330
2
100
AcDbSymbolTableRecord
100
AcDbLayerTableRecord
  2
168
 70
     0
 62
   168
  6
CONTINUOUS
  0
LAYER
  5
E2
330
2
100
AcDbSymbolTableRecord
100
AcDbLayerTableRecord
  2
169
 70
     0
 62
   169
  6
CONTINUOUS
  0
LAYER
  5
E3
330
2
100
AcDbSymbolTableRecord
100
AcDbLayerTableRecord
  2
170
 70
     0
 62
   170
  6
CONTINUOUS
  0
LAYER
  5
E4
330
2
100
AcDbSymbolTableRecord
100
AcDbLayerTableRecord
  2
171
 70
     0
 62
   171
  6
CONTINUOUS
  0
LAYER
  5
E5
330
2
100
AcDbSymbolTableRecord
100
AcDbLayerTableRecord
  2
172
 70
     0
 62
   172
  6
CONTINUOUS
  0
LAYER
  5
E6
330
2
100
AcDbSymbolTableRecord
100
AcDbLayerTableRecord
  2
173
 70
     0
 62
   173
  6
CONTINUOUS
  0
LAYER
  5
E7
330
2
100
AcDbSymbolTableRecord
100
AcDbLayerTableRecord
  2
174
 70
     0
 62
   174
  6
CONTINUOUS
  0
LAYER
  5
E8
330
2
100
AcDbSymbolTableRecord
100
AcDbLayerTableRecord
  2
175
 70
     0
 62
   175
  6
CONTINUOUS
  0
LAYER
  5
E9
330
2
100
AcDbSymbolTableRecord
100
AcDbLayerTableRecord
  2
176
 70
     0
 62
   176
  6
CONTINUOUS
  0
LAYER
  5
EA
330
2
100
AcDbSymbolTableRecord
100
AcDbLayerTableRecord
  2
177
 70
     0
 62
   177
  6
CONTINUOUS
  0
LAYER
  5
EB
330
2
100
AcDbSymbolTableRecord
100
AcDbLayerTableRecord
  2
178
 70
     0
 62
   178
  6
CONTINUOUS
  0
LAYER
  5
EC
330
2
100
AcDbSymbolTableRecord
100
AcDbLayerTableRecord
  2
179
 70
     0
 62
   179
  6
CONTINUOUS
  0
LAYER
  5
ED
330
2
100
AcDbSymbolTableRecord
100
AcDbLayerTableRecord
  2
180
 70
     0
 62
   180
  6
CONTINUOUS
  0
LAYER
  5
EE
330
2
100
AcDbSymbolTableRecord
100
AcDbLayerTableRecord
  2
181
 70
     0
 62
   181
  6
CONTINUOUS
  0
LAYER
  5
EF
330
2
100
AcDbSymbolTableRecord
100
AcDbLayerTableRecord
  2
182
 70
     0
 62
   182
  6
CONTINUOUS
  0
LAYER
  5
F0
330
2
100
AcDbSymbolTableRecord
100
AcDbLayerTableRecord
  2
183
 70
     0
 62
   183
  6
CONTINUOUS
  0
LAYER
  5
F1
330
2
100
AcDbSymbolTableRecord
100
AcDbLayerTableRecord
  2
184
 70
     0
 62
   184
  6
CONTINUOUS
  0
LAYER
  5
F2
330
2
100
AcDbSymbolTableRecord
100
AcDbLayerTableRecord
  2
185
 70
     0
 62
   185
  6
CONTINUOUS
  0
LAYER
  5
F3
330
2
100
AcDbSymbolTableRecord
100
AcDbLayerTableRecord
  2
186
 70
     0
 62
   186
  6
CONTINUOUS
  0
LAYER
  5
F4
330
2
100
AcDbSymbolTableRecord
100
AcDbLayerTableRecord
  2
187
 70
     0
 62
   187
  6
CONTINUOUS
  0
LAYER
  5
F5
330
2
100
AcDbSymbolTableRecord
100
AcDbLayerTableRecord
  2
188
 70
     0
 62
   188
  6
CONTINUOUS
  0
LAYER
  5
F6
330
2
100
AcDbSymbolTableRecord
100
AcDbLayerTableRecord
  2
189
 70
     0
 62
   189
  6
CONTINUOUS
  0
LAYER
  5
F7
330
2
100
AcDbSymbolTableRecord
100
AcDbLayerTableRecord
  2
190
 70
     0
 62
   190
  6
CONTINUOUS
  0
LAYER
  5
F8
330
2
100
AcDbSymbolTableRecord
100
AcDbLayerTableRecord
  2
191
 70
     0
 62
   191
  6
CONTINUOUS
  0
LAYER
  5
F9
330
2
100
AcDbSymbolTableRecord
100
AcDbLayerTableRecord
  2
192
 70
     0
 62
   192
  6
CONTINUOUS
  0
LAYER
  5
FA
330
2
100
AcDbSymbolTableRecord
100
AcDbLayerTableRecord
  2
193
 70
     0
 62
   193
  6
CONTINUOUS
  0
LAYER
  5
FB
330
2
100
AcDbSymbolTableRecord
100
AcDbLayerTableRecord
  2
194
 70
     0
 62
   194
  6
CONTINUOUS
  0
LAYER
  5
FC
330
2
100
AcDbSymbolTableRecord
100
AcDbLayerTableRecord
  2
195
 70
     0
 62
   195
  6
CONTINUOUS
  0
LAYER
  5
FD
330
2
100
AcDbSymbolTableRecord
100
AcDbLayerTableRecord
  2
196
 70
     0
 62
   196
  6
CONTINUOUS
  0
LAYER
  5
FE
330
2
100
AcDbSymbolTableRecord
100
AcDbLayerTableRecord
  2
197
 70
     0
 62
   197
  6
CONTINUOUS
  0
LAYER
  5
FF
330
2
100
AcDbSymbolTableRecord
100
AcDbLayerTableRecord
  2
198
 70
     0
 62
   198
  6
CONTINUOUS
  0
LAYER
  5
100
330
2
100
AcDbSymbolTableRecord
100
AcDbLayerTableRecord
  2
199
 70
     0
 62
   199
  6
CONTINUOUS
  0
LAYER
  5
101
330
2
100
AcDbSymbolTableRecord
100
AcDbLayerTableRecord
  2
200
 70
     0
 62
   200
  6
CONTINUOUS
  0
LAYER
  5
102
330
2
100
AcDbSymbolTableRecord
100
AcDbLayerTableRecord
  2
201
 70
     0
 62
   201
  6
CONTINUOUS
  0
LAYER
  5
103
330
2
100
AcDbSymbolTableRecord
100
AcDbLayerTableRecord
  2
202
 70
     0
 62
   202
  6
CONTINUOUS
  0
LAYER
  5
104
330
2
100
AcDbSymbolTableRecord
100
AcDbLayerTableRecord
  2
203
 70
     0
 62
   203
  6
CONTINUOUS
  0
LAYER
  5
105
330
2
100
AcDbSymbolTableRecord
100
AcDbLayerTableRecord
  2
204
 70
     0
 62
   204
  6
CONTINUOUS
  0
LAYER
  5
106
330
2
100
AcDbSymbolTableRecord
100
AcDbLayerTableRecord
  2
205
 70
     0
 62
   205
  6
CONTINUOUS
  0
LAYER
  5
107
330
2
100
AcDbSymbolTableRecord
100
AcDbLayerTableRecord
  2
206
 70
     0
 62
   206
  6
CONTINUOUS
  0
LAYER
  5
108
330
2
100
AcDbSymbolTableRecord
100
AcDbLayerTableRecord
  2
207
 70
     0
 62
   207
  6
CONTINUOUS
  0
LAYER
  5
109
330
2
100
AcDbSymbolTableRecord
100
AcDbLayerTableRecord
  2
208
 70
     0
 62
   208
  6
CONTINUOUS
  0
LAYER
  5
10A
330
2
100
AcDbSymbolTableRecord
100
AcDbLayerTableRecord
  2
209
 70
     0
 62
   209
  6
CONTINUOUS
  0
LAYER
  5
10B
330
2
100
AcDbSymbolTableRecord
100
AcDbLayerTableRecord
  2
210
 70
     0
 62
   210
  6
CONTINUOUS
  0
LAYER
  5
10C
330
2
100
AcDbSymbolTableRecord
100
AcDbLayerTableRecord
  2
211
 70
     0
 62
   211
  6
CONTINUOUS
  0
LAYER
  5
10D
330
2
100
AcDbSymbolTableRecord
100
AcDbLayerTableRecord
  2
212
 70
     0
 62
   212
  6
CONTINUOUS
  0
LAYER
  5
10E
330
2
100
AcDbSymbolTableRecord
100
AcDbLayerTableRecord
  2
213
 70
     0
 62
   213
  6
CONTINUOUS
  0
LAYER
  5
10F
330
2
100
AcDbSymbolTableRecord
100
AcDbLayerTableRecord
  2
214
 70
     0
 62
   214
  6
CONTINUOUS
  0
LAYER
  5
110
330
2
100
AcDbSymbolTableRecord
100
AcDbLayerTableRecord
  2
215
 70
     0
 62
   215
  6
CONTINUOUS
  0
LAYER
  5
111
330
2
100
AcDbSymbolTableRecord
100
AcDbLayerTableRecord
  2
216
 70
     0
 62
   216
  6
CONTINUOUS
  0
LAYER
  5
112
330
2
100
AcDbSymbolTableRecord
100
AcDbLayerTableRecord
  2
217
 70
     0
 62
   217
  6
CONTINUOUS
  0
LAYER
  5
113
330
2
100
AcDbSymbolTableRecord
100
AcDbLayerTableRecord
  2
218
 70
     0
 62
   218
  6
CONTINUOUS
  0
LAYER
  5
114
330
2
100
AcDbSymbolTableRecord
100
AcDbLayerTableRecord
  2
219
 70
     0
 62
   219
  6
CONTINUOUS
  0
LAYER
  5
115
330
2
100
AcDbSymbolTableRecord
100
AcDbLayerTableRecord
  2
220
 70
     0
 62
   220
  6
CONTINUOUS
  0
LAYER
  5
116
330
2
100
AcDbSymbolTableRecord
100
AcDbLayerTableRecord
  2
221
 70
     0
 62
   221
  6
CONTINUOUS
  0
LAYER
  5
117
330
2
100
AcDbSymbolTableRecord
100
AcDbLayerTableRecord
  2
222
 70
     0
 62
   222
  6
CONTINUOUS
  0
LAYER
  5
118
330
2
100
AcDbSymbolTableRecord
100
AcDbLayerTableRecord
  2
223
 70
     0
 62
   223
  6
CONTINUOUS
  0
LAYER
  5
119
330
2
100
AcDbSymbolTableRecord
100
AcDbLayerTableRecord
  2
224
 70
     0
 62
   224
  6
CONTINUOUS
  0
LAYER
  5
11A
330
2
100
AcDbSymbolTableRecord
100
AcDbLayerTableRecord
  2
225
 70
     0
 62
   225
  6
CONTINUOUS
  0
LAYER
  5
11B
330
2
100
AcDbSymbolTableRecord
100
AcDbLayerTableRecord
  2
226
 70
     0
 62
   226
  6
CONTINUOUS
  0
LAYER
  5
11C
330
2
100
AcDbSymbolTableRecord
100
AcDbLayerTableRecord
  2
227
 70
     0
 62
   227
  6
CONTINUOUS
  0
LAYER
  5
11D
330
2
100
AcDbSymbolTableRecord
100
AcDbLayerTableRecord
  2
228
 70
     0
 62
   228
  6
CONTINUOUS
  0
LAYER
  5
11E
330
2
100
AcDbSymbolTableRecord
100
AcDbLayerTableRecord
  2
229
 70
     0
 62
   229
  6
CONTINUOUS
  0
LAYER
  5
11F
330
2
100
AcDbSymbolTableRecord
100
AcDbLayerTableRecord
  2
230
 70
     0
 62
   230
  6
CONTINUOUS
  0
LAYER
  5
120
330
2
100
AcDbSymbolTableRecord
100
AcDbLayerTableRecord
  2
231
 70
     0
 62
   231
  6
CONTINUOUS
  0
LAYER
  5
121
330
2
100
AcDbSymbolTableRecord
100
AcDbLayerTableRecord
  2
232
 70
     0
 62
   232
  6
CONTINUOUS
  0
LAYER
  5
122
330
2
100
AcDbSymbolTableRecord
100
AcDbLayerTableRecord
  2
233
 70
     0
 62
   233
  6
CONTINUOUS
  0
LAYER
  5
123
330
2
100
AcDbSymbolTableRecord
100
AcDbLayerTableRecord
  2
234
 70
     0
 62
   234
  6
CONTINUOUS
  0
LAYER
  5
124
330
2
100
AcDbSymbolTableRecord
100
AcDbLayerTableRecord
  2
235
 70
     0
 62
   235
  6
CONTINUOUS
  0
LAYER
  5
125
330
2
100
AcDbSymbolTableRecord
100
AcDbLayerTableRecord
  2
236
 70
     0
 62
   236
  6
CONTINUOUS
  0
LAYER
  5
126
330
2
100
AcDbSymbolTableRecord
100
AcDbLayerTableRecord
  2
237
 70
     0
 62
   237
  6
CONTINUOUS
  0
LAYER
  5
127
330
2
100
AcDbSymbolTableRecord
100
AcDbLayerTableRecord
  2
238
 70
     0
 62
   238
  6
CONTINUOUS
  0
LAYER
  5
128
330
2
100
AcDbSymbolTableRecord
100
AcDbLayerTableRecord
  2
239
 70
     0
 62
   239
  6
CONTINUOUS
  0
LAYER
  5
129
330
2
100
AcDbSymbolTableRecord
100
AcDbLayerTableRecord
  2
240
 70
     0
 62
   240
  6
CONTINUOUS
  0
LAYER
  5
12A
330
2
100
AcDbSymbolTableRecord
100
AcDbLayerTableRecord
  2
241
 70
     0
 62
   241
  6
CONTINUOUS
  0
LAYER
  5
12B
330
2
100
AcDbSymbolTableRecord
100
AcDbLayerTableRecord
  2
242
 70
     0
 62
   242
  6
CONTINUOUS
  0
LAYER
  5
12C
330
2
100
AcDbSymbolTableRecord
100
AcDbLayerTableRecord
  2
243
 70
     0
 62
   243
  6
CONTINUOUS
  0
LAYER
  5
12D
330
2
100
AcDbSymbolTableRecord
100
AcDbLayerTableRecord
  2
244
 70
     0
 62
   244
  6
CONTINUOUS
  0
LAYER
  5
12E
330
2
100
AcDbSymbolTableRecord
100
AcDbLayerTableRecord
  2
245
 70
     0
 62
   245
  6
CONTINUOUS
  0
LAYER
  5
12F
330
2
100
AcDbSymbolTableRecord
100
AcDbLayerTableRecord
  2
246
 70
     0
 62
   246
  6
CONTINUOUS
  0
LAYER
  5
130
330
2
100
AcDbSymbolTableRecord
100
AcDbLayerTableRecord
  2
247
 70
     0
 62
   247
  6
CONTINUOUS
  0
LAYER
  5
131
330
2
100
AcDbSymbolTableRecord
100
AcDbLayerTableRecord
  2
248
 70
     0
 62
   248
  6
CONTINUOUS
  0
LAYER
  5
132
330
2
100
AcDbSymbolTableRecord
100
AcDbLayerTableRecord
  2
249
 70
     0
 62
   249
  6
CONTINUOUS
  0
LAYER
  5
133
330
2
100
AcDbSymbolTableRecord
100
AcDbLayerTableRecord
  2
250
 70
     0
 62
   250
  6
CONTINUOUS
  0
LAYER
  5
134
330
2
100
AcDbSymbolTableRecord
100
AcDbLayerTableRecord
  2
251
 70
     0
 62
   251
  6
CONTINUOUS
  0
LAYER
  5
135
330
2
100
AcDbSymbolTableRecord
100
AcDbLayerTableRecord
  2
252
 70
     0
 62
   252
  6
CONTINUOUS
  0
LAYER
  5
136
330
2
100
AcDbSymbolTableRecord
100
AcDbLayerTableRecord
  2
253
 70
     0
 62
   253
  6
CONTINUOUS
  0
LAYER
  5
137
330
2
100
AcDbSymbolTableRecord
100
AcDbLayerTableRecord
  2
254
 70
     0
 62
   254
  6
CONTINUOUS
  0
LAYER
  5
138
330
2
100
AcDbSymbolTableRecord
100
AcDbLayerTableRecord
  2
255
 70
     0
 62
   255
  6
CONTINUOUS
  0
LAYER
  5
31D3
330
2
100
AcDbSymbolTableRecord
100
AcDbLayerTableRecord
  2
DEFPOINTS
 70
     0
 62
     7
  6
CONTINUOUS
  0
ENDTAB
  0
TABLE
  2
STYLE
  5
3
330
0
100
AcDbSymbolTable
 70
     1
  0
STYLE
  5
11
330
3
100
AcDbSymbolTableRecord
100
AcDbTextStyleTableRecord
  2
STANDARD
 70
     0
 40
0.0
 41
1.0
 50
0.0
 71
     0
 42
0.2
  3
monotxt
  4

  0
ENDTAB
  0
TABLE
  2
VIEW
  5
6
330
0
100
AcDbSymbolTable
 70
     0
  0
ENDTAB
  0
TABLE
  2
UCS
  5
7
330
0
100
AcDbSymbolTable
 70
     0
  0
ENDTAB
  0
TABLE
  2
APPID
  5
9
330
0
100
AcDbSymbolTable
 70
     1
  0
APPID
  5
12
330
9
100
AcDbSymbolTableRecord
100
AcDbRegAppTableRecord
  2
ACAD
 70
     0
  0
ENDTAB
  0
TABLE
  2
DIMSTYLE
  5
A
330
0
100
AcDbSymbolTable
 70
     1
  0
DIMSTYLE
105
2C80
330
A
100
AcDbSymbolTableRecord
100
AcDbDimStyleTableRecord
  2
STANDARD
 70
     0
  3

  4

  5

  6

  7

 40
1.0
 41
0.18
 42
0.0625
 43
0.38
 44
0.18
 45
0.0
 46
0.0
 47
0.0
 48
0.0
140
0.18
141
0.09
142
0.0
143
25.4
144
1.0
145
0.0
146
1.0
147
0.09
 71
     0
 72
     0
 73
     1
 74
     1
 75
     0
 76
     0
 77
     0
 78
     0
170
     0
171
     2
172
     0
173
     0
174
     0
175
     0
176
     0
177
     0
178
     0
270
     2
271
     4
272
     4
273
     2
274
     2
340
11
275
     0
280
     0
281
     0
282
     0
283
     1
284
     0
285
     0
286
     0
287
     3
288
     0
  0
ENDTAB
  0
TABLE
  2
BLOCK_RECORD
  5
1
330
0
100
AcDbSymbolTable
 70
     0
  0
BLOCK_RECORD
  5
1E
102
{ACAD_XDICTIONARY
360
319C
102
}
330
1
100
AcDbSymbolTableRecord
100
AcDbBlockTableRecord
  2
*MODEL_SPACE
  0
BLOCK_RECORD
  5
1A
102
{ACAD_XDICTIONARY
360
319E
102
}
330
1
100
AcDbSymbolTableRecord
100
AcDbBlockTableRecord
  2
*PAPER_SPACE
  0
ENDTAB
  0
ENDSEC
  0
SECTION
  2
BLOCKS
  0
BLOCK
  5
13B
330
1E
100
AcDbEntity
  8
0
100
AcDbBlockBegin
  2
*MODEL_SPACE
 70
     0
 10
0.0
 20
0.0
 30
0.0
  3
*MODEL_SPACE
  1

  0
ENDBLK
  5
13C
330
1E
100
AcDbEntity
  8
0
100
AcDbBlockEnd
  0
BLOCK
  5
139
330
1A
100
AcDbEntity
 67
     1
  8
0
100
AcDbBlockBegin
  2
*PAPER_SPACE
 70
     0
 10
0.0
 20
0.0
 30
0.0
  3
*PAPER_SPACE
  1

  0
ENDBLK
  5
13A
330
1A
100
AcDbEntity
 67
     1
  8
0
100
AcDbBlockEnd
  0
ENDSEC
  0
SECTION
  2
ENTITIES
  0
LINE
  5
1F9F
330
1E
100
AcDbEntity
  8
3
100
AcDbLine
 10
4.317913385826771
 20
10.57283464566929
 30
0.0
 11
4.32775590551181
 21
10.56889763779527
 31
0.0
  0
LINE
  5
1FA0
330
1E
100
AcDbEntity
  8
3
100
AcDbLine
 10
5.158464566929132
 20
10.51968503937007
 30
0.0
 11
5.146653543307086
 21
10.50787401574803
 31
0.0
  0
LINE
  5
1FA1
330
1E
100
AcDbEntity
  8
3
100
AcDbLine
 10
4.876968503937006
 20
10.11811023622047
 30
0.0
 11
4.835629921259841
 21
10.11811023622047
 31
0.0
  0
LINE
  5
1FA2
330
1E
100
AcDbEntity
  8
3
100
AcDbLine
 10
4.317913385826771
 20
7.753937007874014
 30
0.0
 11
4.325787401574802
 21
7.748031496062992
 31
0.0
  0
LINE
  5
1FA3
330
1E
100
AcDbEntity
  8
3
100
AcDbLine
 10
4.32775590551181
 20
7.76771653543307
 30
0.0
 11
4.32775590551181
 21
7.775590551181103
 31
0.0
  0
LINE
  5
1FA4
330
1E
100
AcDbEntity
  8
3
100
AcDbLine
 10
4.951771653543306
 20
8.714566929133859
 30
0.0
 11
4.951771653543306
 21
8.602362204724411
 31
0.0
  0
LINE
  5
1FA5
330
1E
100
AcDbEntity
  8
3
100
AcDbLine
 10
4.959645669291337
 20
8.446850393700788
 30
0.0
 11
4.963582677165352
 21
8.440944881889762
 31
0.0
  0
LINE
  5
1FA6
330
1E
100
AcDbEntity
  8
3
100
AcDbLine
 10
4.959645669291337
 20
8.446850393700788
 30
0.0
 11
5.004921259842519
 21
8.446850393700788
 31
0.0
  0
LINE
  5
1FA7
330
1E
100
AcDbEntity
  8
3
100
AcDbLine
 10
4.004921259842519
 20
10.57480314960629
 30
0.0
 11
3.359251968503936
 21
10.57480314960629
 31
0.0
  0
LINE
  5
1FA8
330
1E
100
AcDbEntity
  8
3
100
AcDbLine
 10
5.146653543307086
 20
7.834645669291337
 30
0.0
 11
5.158464566929132
 21
7.824803149606299
 31
0.0
  0
LINE
  5
1FA9
330
1E
100
AcDbEntity
  8
3
100
AcDbLine
 10
3.321850393700786
 20
8.602362204724411
 30
0.0
 11
3.32775590551181
 21
8.594488188976377
 31
0.0
  0
LINE
  5
1FAA
330
1E
100
AcDbEntity
  8
3
100
AcDbLine
 10
3.369094488188975
 20
8.602362204724411
 30
0.0
 11
3.321850393700786
 21
8.602362204724411
 31
0.0
  0
LINE
  5
1FAB
330
1E
100
AcDbEntity
  8
3
100
AcDbLine
 10
4.32775590551181
 20
7.775590551181103
 30
0.0
 11
4.004921259842519
 21
7.775590551181103
 31
0.0
  0
LINE
  5
1FAC
330
1E
100
AcDbEntity
  8
3
100
AcDbLine
 10
3.455708661417321
 20
10.47834645669291
 30
0.0
 11
4.876968503937006
 21
10.47834645669291
 31
0.0
  0
LINE
  5
1FAD
330
1E
100
AcDbEntity
  8
3
100
AcDbLine
 10
4.833661417322834
 20
10.4763779527559
 30
0.0
 11
3.499015748031495
 21
10.4763779527559
 31
0.0
  0
LINE
  5
1FAE
330
1E
100
AcDbEntity
  8
3
100
AcDbLine
 10
4.977362204724408
 20
10.67913385826771
 30
0.0
 11
4.977362204724408
 21
10.65748031496063
 31
0.0
  0
LINE
  5
1FAF
330
1E
100
AcDbEntity
  8
3
100
AcDbLine
 10
4.317913385826771
 20
10.59251968503936
 30
0.0
 11
4.317913385826771
 21
10.58858267716535
 31
0.0
  0
LINE
  5
1FB0
330
1E
100
AcDbEntity
  8
3
100
AcDbLine
 10
3.355314960629921
 20
7.68503937007874
 30
0.0
 11
4.977362204724408
 21
7.68503937007874
 31
0.0
  0
LINE
  5
1FB1
330
1E
100
AcDbEntity
  8
3
100
AcDbLine
 10
4.951771653543306
 20
9.19291338582677
 30
0.0
 11
4.955708661417321
 21
9.196850393700788
 31
0.0
  0
LINE
  5
1FB2
330
1E
100
AcDbEntity
  8
3
100
AcDbLine
 10
3.203740157480313
 20
10.50787401574803
 30
0.0
 11
3.203740157480313
 21
7.834645669291337
 31
0.0
  0
LINE
  5
1FB3
330
1E
100
AcDbEntity
  8
3
100
AcDbLine
 10
3.355314960629921
 20
10.6003937007874
 30
0.0
 11
3.355314960629921
 21
10.59842519685039
 31
0.0
  0
LINE
  5
1FB4
330
1E
100
AcDbEntity
  8
3
100
AcDbLine
 10
3.359251968503936
 20
10.59448818897637
 30
0.0
 11
4.004921259842519
 21
10.59448818897637
 31
0.0
  0
LINE
  5
1FB5
330
1E
100
AcDbEntity
  8
3
100
AcDbLine
 10
3.497047244094487
 20
10.47834645669291
 30
0.0
 11
3.499015748031495
 21
10.4763779527559
 31
0.0
  0
LINE
  5
1FB6
330
1E
100
AcDbEntity
  8
3
100
AcDbLine
 10
3.439960629921258
 20
9.19291338582677
 30
0.0
 11
3.378937007874015
 21
9.19291338582677
 31
0.0
  0
LINE
  5
1FB7
330
1E
100
AcDbEntity
  8
3
100
AcDbLine
 10
3.378937007874015
 20
7.848425196850392
 30
0.0
 11
3.439960629921258
 21
7.848425196850392
 31
0.0
  0
LINE
  5
1FB8
330
1E
100
AcDbEntity
  8
3
100
AcDbLine
 10
4.886811023622047
 20
10.46850393700787
 30
0.0
 11
4.886811023622047
 21
10.12795275590551
 31
0.0
  0
LINE
  5
1FB9
330
1E
100
AcDbEntity
  8
3
100
AcDbLine
 10
4.951771653543306
 20
8.438976377952755
 30
0.0
 11
4.951771653543306
 21
8.602362204724411
 31
0.0
  0
LINE
  5
1FBA
330
1E
100
AcDbEntity
  8
3
100
AcDbLine
 10
4.835629921259841
 20
10.47834645669291
 30
0.0
 11
4.876968503937006
 21
10.47834645669291
 31
0.0
  0
LINE
  5
1FBB
330
1E
100
AcDbEntity
  8
3
100
AcDbLine
 10
4.955708661417321
 20
8.431102362204725
 30
0.0
 11
4.955708661417321
 21
7.844488188976377
 31
0.0
  0
LINE
  5
1FBC
330
1E
100
AcDbEntity
  8
3
100
AcDbLine
 10
3.371062992125984
 20
8.594488188976377
 30
0.0
 11
3.369094488188975
 21
8.602362204724411
 31
0.0
  0
LINE
  5
1FBD
330
1E
100
AcDbEntity
  8
3
100
AcDbLine
 10
4.004921259842519
 20
7.748031496062992
 30
0.0
 11
3.359251968503936
 21
7.748031496062992
 31
0.0
  0
LINE
  5
1FBE
330
1E
100
AcDbEntity
  8
3
100
AcDbLine
 10
4.014763779527558
 20
7.75
 30
0.0
 11
4.014763779527558
 21
7.753937007874014
 31
0.0
  0
LINE
  5
1FBF
330
1E
100
AcDbEntity
  8
3
100
AcDbLine
 10
3.355314960629921
 20
7.68503937007874
 30
0.0
 11
3.355314960629921
 21
7.665354330708662
 31
0.0
  0
LINE
  5
1FC0
330
1E
100
AcDbEntity
  8
3
100
AcDbLine
 10
4.32775590551181
 20
7.76771653543307
 30
0.0
 11
4.973425196850393
 21
7.76771653543307
 31
0.0
  0
LINE
  5
1FC1
330
1E
100
AcDbEntity
  8
3
100
AcDbLine
 10
4.951771653543306
 20
8.602362204724411
 30
0.0
 11
4.955708661417321
 21
8.61023622047244
 31
0.0
  0
LINE
  5
1FC2
330
1E
100
AcDbEntity
  8
3
100
AcDbLine
 10
4.955708661417321
 20
8.431102362204725
 30
0.0
 11
4.951771653543306
 21
8.438976377952755
 31
0.0
  0
LINE
  5
1FC3
330
1E
100
AcDbEntity
  8
3
100
AcDbLine
 10
4.963582677165352
 20
8.602362204724411
 30
0.0
 11
4.959645669291337
 21
8.594488188976377
 31
0.0
  0
LINE
  5
1FC4
330
1E
100
AcDbEntity
  8
3
100
AcDbLine
 10
4.973425196850393
 20
7.748031496062992
 30
0.0
 11
4.32775590551181
 21
7.748031496062992
 31
0.0
  0
LINE
  5
1FC5
330
1E
100
AcDbEntity
  8
3
100
AcDbLine
 10
4.989173228346456
 20
7.653543307086614
 30
0.0
 11
4.977362204724408
 21
7.665354330708662
 31
0.0
  0
LINE
  5
1FC6
330
1E
100
AcDbEntity
  8
3
100
AcDbLine
 10
5.146653543307086
 20
7.834645669291337
 30
0.0
 11
5.126968503937006
 21
7.834645669291337
 31
0.0
  0
LINE
  5
1FC7
330
1E
100
AcDbEntity
  8
3
100
AcDbLine
 10
3.376968503937006
 20
8.61023622047244
 30
0.0
 11
3.378937007874015
 21
8.602362204724411
 31
0.0
  0
LINE
  5
1FC8
330
1E
100
AcDbEntity
  8
3
100
AcDbLine
 10
5.044291338582676
 20
7.840551181102362
 30
0.0
 11
5.044291338582676
 21
10.50393700787401
 31
0.0
  0
LINE
  5
1FC9
330
1E
100
AcDbEntity
  8
3
100
AcDbLine
 10
3.499015748031495
 20
10.12007874015748
 30
0.0
 11
4.833661417322834
 21
10.12007874015748
 31
0.0
  0
LINE
  5
1FCA
330
1E
100
AcDbEntity
  8
3
100
AcDbLine
 10
5.146653543307086
 20
10.50787401574803
 30
0.0
 11
5.126968503937006
 21
10.50787401574803
 31
0.0
  0
LINE
  5
1FCB
330
1E
100
AcDbEntity
  8
3
100
AcDbLine
 10
5.069881889763778
 20
10.50787401574803
 30
0.0
 11
5.067913385826771
 21
10.50787401574803
 31
0.0
  0
LINE
  5
1FCC
330
1E
100
AcDbEntity
  8
3
100
AcDbLine
 10
4.325787401574802
 20
10.59645669291338
 30
0.0
 11
4.32775590551181
 21
10.59448818897637
 31
0.0
  0
LINE
  5
1FCD
330
1E
100
AcDbEntity
  8
3
100
AcDbLine
 10
4.886811023622047
 20
10.46850393700787
 30
0.0
 11
4.886811023622047
 21
10.12795275590551
 31
0.0
  0
LINE
  5
1FCE
330
1E
100
AcDbEntity
  8
3
100
AcDbLine
 10
4.892716535433069
 20
9.19291338582677
 30
0.0
 11
4.951771653543306
 21
9.19291338582677
 31
0.0
  0
LINE
  5
1FCF
330
1E
100
AcDbEntity
  8
3
100
AcDbLine
 10
3.343503937007873
 20
10.68897637795275
 30
0.0
 11
3.355314960629921
 21
10.67913385826771
 31
0.0
  0
LINE
  5
1FD0
330
1E
100
AcDbEntity
  8
3
100
AcDbLine
 10
3.359251968503936
 20
10.59448818897637
 30
0.0
 11
3.359251968503936
 21
10.59645669291338
 31
0.0
  0
LINE
  5
1FD1
330
1E
100
AcDbEntity
  8
3
100
AcDbLine
 10
3.455708661417321
 20
10.47834645669291
 30
0.0
 11
3.497047244094487
 21
10.47834645669291
 31
0.0
  0
LINE
  5
1FD2
330
1E
100
AcDbEntity
  8
3
100
AcDbLine
 10
3.378937007874015
 20
9.19291338582677
 30
0.0
 11
3.376968503937006
 21
9.196850393700788
 31
0.0
  0
LINE
  5
1FD3
330
1E
100
AcDbEntity
  8
3
100
AcDbLine
 10
4.32775590551181
 20
10.59448818897637
 30
0.0
 11
4.973425196850393
 21
10.59448818897637
 31
0.0
  0
LINE
  5
1FD4
330
1E
100
AcDbEntity
  8
3
100
AcDbLine
 10
4.317913385826771
 20
10.58858267716535
 30
0.0
 11
4.317913385826771
 21
10.57283464566929
 31
0.0
  0
LINE
  5
1FD5
330
1E
100
AcDbEntity
  8
3
100
AcDbLine
 10
4.977362204724408
 20
10.67913385826771
 30
0.0
 11
4.989173228346456
 21
10.68897637795275
 31
0.0
  0
LINE
  5
1FD6
330
1E
100
AcDbEntity
  8
3
100
AcDbLine
 10
4.014763779527558
 20
10.57283464566929
 30
0.0
 11
4.004921259842519
 21
10.56889763779527
 31
0.0
  0
LINE
  5
1FD7
330
1E
100
AcDbEntity
  8
3
100
AcDbLine
 10
3.203740157480313
 20
7.834645669291337
 30
0.0
 11
3.184055118110236
 21
7.834645669291337
 31
0.0
  0
LINE
  5
1FD8
330
1E
100
AcDbEntity
  8
3
100
AcDbLine
 10
5.010826771653541
 20
8.602362204724411
 30
0.0
 11
4.963582677165352
 21
8.602362204724411
 31
0.0
  0
LINE
  5
1FD9
330
1E
100
AcDbEntity
  8
3
100
AcDbLine
 10
4.951771653543306
 20
8.438976377952755
 30
0.0
 11
4.951771653543306
 21
8.326771653543307
 31
0.0
  0
LINE
  5
1FDA
330
1E
100
AcDbEntity
  8
3
100
AcDbLine
 10
5.004921259842519
 20
8.594488188976377
 30
0.0
 11
4.959645669291337
 21
8.594488188976377
 31
0.0
  0
LINE
  5
1FDB
330
1E
100
AcDbEntity
  8
3
100
AcDbLine
 10
4.32775590551181
 20
7.748031496062992
 30
0.0
 11
4.325787401574802
 21
7.748031496062992
 31
0.0
  0
LINE
  5
1FDC
330
1E
100
AcDbEntity
  8
3
100
AcDbLine
 10
4.955708661417321
 20
9.196850393700788
 30
0.0
 11
4.955708661417321
 21
8.61023622047244
 31
0.0
  0
LINE
  5
1FDD
330
1E
100
AcDbEntity
  8
3
100
AcDbLine
 10
5.067913385826771
 20
7.834645669291337
 30
0.0
 11
5.069881889763778
 21
7.834645669291337
 31
0.0
  0
LINE
  5
1FDE
330
1E
100
AcDbEntity
  8
3
100
AcDbLine
 10
4.977362204724408
 20
7.665354330708662
 30
0.0
 11
4.977362204724408
 21
7.68503937007874
 31
0.0
  0
LINE
  5
1FDF
330
1E
100
AcDbEntity
  8
3
100
AcDbLine
 10
3.378937007874015
 20
8.326771653543307
 30
0.0
 11
3.378937007874015
 21
7.848425196850392
 31
0.0
  0
LINE
  5
1FE0
330
1E
100
AcDbEntity
  8
3
100
AcDbLine
 10
3.321850393700786
 20
8.440944881889762
 30
0.0
 11
3.369094488188975
 21
8.440944881889762
 31
0.0
  0
LINE
  5
1FE1
330
1E
100
AcDbEntity
  8
3
100
AcDbLine
 10
4.955708661417321
 20
7.844488188976377
 30
0.0
 11
3.376968503937006
 21
7.844488188976377
 31
0.0
  0
LINE
  5
1FE2
330
1E
100
AcDbEntity
  8
3
100
AcDbLine
 10
4.977362204724408
 20
10.59842519685039
 30
0.0
 11
4.977362204724408
 21
10.6003937007874
 31
0.0
  0
LINE
  5
1FE3
330
1E
100
AcDbEntity
  8
3
100
AcDbLine
 10
4.977362204724408
 20
10.65748031496063
 30
0.0
 11
3.355314960629921
 21
10.65748031496063
 31
0.0
  0
LINE
  5
1FE4
330
1E
100
AcDbEntity
  8
3
100
AcDbLine
 10
4.892716535433069
 20
9.19291338582677
 30
0.0
 11
4.890748031496062
 21
9.19291338582677
 31
0.0
  0
LINE
  5
1FE5
330
1E
100
AcDbEntity
  8
3
100
AcDbLine
 10
3.184055118110236
 20
10.50787401574803
 30
0.0
 11
3.174212598425195
 21
10.51968503937007
 31
0.0
  0
LINE
  5
1FE6
330
1E
100
AcDbEntity
  8
3
100
AcDbLine
 10
3.266732283464565
 20
10.50393700787401
 30
0.0
 11
3.268700787401574
 21
10.50393700787401
 31
0.0
  0
LINE
  5
1FE7
330
1E
100
AcDbEntity
  8
3
100
AcDbLine
 10
3.499015748031495
 20
10.12007874015748
 30
0.0
 11
3.497047244094487
 21
10.11811023622047
 31
0.0
  0
LINE
  5
1FE8
330
1E
100
AcDbEntity
  8
3
100
AcDbLine
 10
3.441929133858267
 20
7.8503937007874
 30
0.0
 11
3.439960629921258
 21
7.848425196850392
 31
0.0
  0
LINE
  5
1FE9
330
1E
100
AcDbEntity
  8
3
100
AcDbLine
 10
4.955708661417321
 20
7.844488188976377
 30
0.0
 11
4.951771653543306
 21
7.848425196850392
 31
0.0
  0
LINE
  5
1FEA
330
1E
100
AcDbEntity
  8
3
100
AcDbLine
 10
3.268700787401574
 20
7.840551181102362
 30
0.0
 11
3.288385826771652
 21
7.840551181102362
 31
0.0
  0
LINE
  5
1FEB
330
1E
100
AcDbEntity
  8
3
100
AcDbLine
 10
3.359251968503936
 20
7.748031496062992
 30
0.0
 11
4.006889763779526
 21
7.748031496062992
 31
0.0
  0
LINE
  5
1FEC
330
1E
100
AcDbEntity
  8
3
100
AcDbLine
 10
4.014763779527558
 20
7.753937007874014
 30
0.0
 11
4.014763779527558
 21
7.769685039370077
 31
0.0
  0
LINE
  5
1FED
330
1E
100
AcDbEntity
  8
3
100
AcDbLine
 10
5.018700787401573
 20
8.448818897637796
 30
0.0
 11
5.018700787401573
 21
8.594488188976377
 31
0.0
  0
LINE
  5
1FEE
330
1E
100
AcDbEntity
  8
3
100
AcDbLine
 10
4.951771653543306
 20
8.326771653543307
 30
0.0
 11
4.951771653543306
 21
7.848425196850392
 31
0.0
  0
LINE
  5
1FEF
330
1E
100
AcDbEntity
  8
3
100
AcDbLine
 10
5.004921259842519
 20
8.594488188976377
 30
0.0
 11
5.010826771653541
 21
8.602362204724411
 31
0.0
  0
LINE
  5
1FF0
330
1E
100
AcDbEntity
  8
3
100
AcDbLine
 10
4.317913385826771
 20
7.769685039370077
 30
0.0
 11
4.317913385826771
 21
7.753937007874014
 31
0.0
  0
LINE
  5
1FF1
330
1E
100
AcDbEntity
  8
3
100
AcDbLine
 10
3.313976377952754
 20
8.448818897637796
 30
0.0
 11
3.319881889763778
 21
8.454724409448818
 31
0.0
  0
LINE
  5
1FF7
330
1E
100
AcDbEntity
  8
3
100
AcDbLine
 10
3.376968503937006
 20
9.196850393700788
 30
0.0
 11
3.376968503937006
 21
8.61023622047244
 31
0.0
  0
LINE
  5
1FF8
330
1E
100
AcDbEntity
  8
3
100
AcDbLine
 10
4.890748031496062
 20
7.8503937007874
 30
0.0
 11
3.441929133858267
 21
7.8503937007874
 31
0.0
  0
LINE
  5
1FF9
330
1E
100
AcDbEntity
  8
3
100
AcDbLine
 10
4.317913385826771
 20
10.57283464566929
 30
0.0
 11
4.014763779527558
 21
10.57283464566929
 31
0.0
  0
LINE
  5
1FFA
330
1E
100
AcDbEntity
  8
3
100
AcDbLine
 10
4.973425196850393
 20
10.59645669291338
 30
0.0
 11
4.973425196850393
 21
10.59448818897637
 31
0.0
  0
LINE
  5
1FFB
330
1E
100
AcDbEntity
  8
3
100
AcDbLine
 10
3.355314960629921
 20
10.67913385826771
 30
0.0
 11
4.977362204724408
 21
10.67913385826771
 31
0.0
  0
LINE
  5
1FFC
330
1E
100
AcDbEntity
  8
3
100
AcDbLine
 10
3.473425196850393
 20
7.852362204724411
 30
0.0
 11
4.859251968503936
 21
7.852362204724411
 31
0.0
  0
LINE
  5
1FFD
330
1E
100
AcDbEntity
  8
3
100
AcDbLine
 10
3.268700787401574
 20
10.50393700787401
 30
0.0
 11
3.288385826771652
 21
10.50393700787401
 31
0.0
  0
LINE
  5
1FFE
330
1E
100
AcDbEntity
  8
3
100
AcDbLine
 10
4.006889763779526
 20
10.59645669291338
 30
0.0
 11
3.359251968503936
 21
10.59645669291338
 31
0.0
  0
LINE
  5
1FFF
330
1E
100
AcDbEntity
  8
3
100
AcDbLine
 10
4.014763779527558
 20
10.58858267716535
 30
0.0
 11
4.006889763779526
 21
10.59645669291338
 31
0.0
  0
LINE
  5
2000
330
1E
100
AcDbEntity
  8
3
100
AcDbLine
 10
4.973425196850393
 20
10.57480314960629
 30
0.0
 11
4.973425196850393
 21
10.59448818897637
 31
0.0
  0
LINE
  5
2001
330
1E
100
AcDbEntity
  8
3
100
AcDbLine
 10
4.977362204724408
 20
7.744094488188977
 30
0.0
 11
3.355314960629921
 21
7.744094488188977
 31
0.0
  0
LINE
  5
2002
330
1E
100
AcDbEntity
  8
3
100
AcDbLine
 10
3.319881889763778
 20
8.586614173228348
 30
0.0
 11
3.313976377952754
 21
8.594488188976377
 31
0.0
  0
LINE
  5
2003
330
1E
100
AcDbEntity
  8
3
100
AcDbLine
 10
3.359251968503936
 20
7.76771653543307
 30
0.0
 11
4.004921259842519
 21
7.76771653543307
 31
0.0
  0
LINE
  5
2004
330
1E
100
AcDbEntity
  8
3
100
AcDbLine
 10
4.014763779527558
 20
7.769685039370077
 30
0.0
 11
4.004921259842519
 21
7.775590551181103
 31
0.0
  0
LINE
  5
2005
330
1E
100
AcDbEntity
  8
3
100
AcDbLine
 10
3.355314960629921
 20
7.665354330708662
 30
0.0
 11
3.343503937007873
 21
7.653543307086614
 31
0.0
  0
LINE
  5
2006
330
1E
100
AcDbEntity
  8
3
100
AcDbLine
 10
3.439960629921258
 20
9.19291338582677
 30
0.0
 11
3.441929133858267
 21
9.19291338582677
 31
0.0
  0
LINE
  5
2007
330
1E
100
AcDbEntity
  8
3
100
AcDbLine
 10
3.445866141732282
 20
10.12795275590551
 30
0.0
 11
3.445866141732282
 21
10.46850393700787
 31
0.0
  0
LINE
  5
2008
330
1E
100
AcDbEntity
  8
3
100
AcDbLine
 10
4.006889763779526
 20
7.748031496062992
 30
0.0
 11
4.014763779527558
 21
7.753937007874014
 31
0.0
  0
LINE
  5
2009
330
1E
100
AcDbEntity
  8
3
100
AcDbLine
 10
4.890748031496062
 20
7.8503937007874
 30
0.0
 11
4.892716535433069
 21
7.848425196850392
 31
0.0
  0
LINE
  5
200A
330
1E
100
AcDbEntity
  8
3
100
AcDbLine
 10
5.018700787401573
 20
8.594488188976377
 30
0.0
 11
5.01279527559055
 21
8.586614173228348
 31
0.0
  0
LINE
  5
200B
330
1E
100
AcDbEntity
  8
3
100
AcDbLine
 10
4.317913385826771
 20
7.753937007874014
 30
0.0
 11
4.317913385826771
 21
7.75
 31
0.0
  0
LINE
  5
200C
330
1E
100
AcDbEntity
  8
3
100
AcDbLine
 10
4.006889763779526
 20
7.748031496062992
 30
0.0
 11
4.004921259842519
 21
7.748031496062992
 31
0.0
  0
LINE
  5
200D
330
1E
100
AcDbEntity
  8
3
100
AcDbLine
 10
4.973425196850393
 20
7.76771653543307
 30
0.0
 11
4.973425196850393
 21
7.748031496062992
 31
0.0
  0
LINE
  5
200E
330
1E
100
AcDbEntity
  8
3
100
AcDbLine
 10
4.955708661417321
 20
9.196850393700788
 30
0.0
 11
3.376968503937006
 21
9.196850393700788
 31
0.0
  0
LINE
  5
200F
330
1E
100
AcDbEntity
  8
3
100
AcDbLine
 10
4.890748031496062
 20
9.19291338582677
 30
0.0
 11
3.441929133858267
 21
9.19291338582677
 31
0.0
  0
LINE
  5
2010
330
1E
100
AcDbEntity
  8
3
100
AcDbLine
 10
4.014763779527558
 20
7.769685039370077
 30
0.0
 11
4.317913385826771
 21
7.769685039370077
 31
0.0
  0
LINE
  5
2011
330
1E
100
AcDbEntity
  8
3
100
AcDbLine
 10
3.371062992125984
 20
8.594488188976377
 30
0.0
 11
3.32775590551181
 21
8.594488188976377
 31
0.0
  0
LINE
  5
2012
330
1E
100
AcDbEntity
  8
3
100
AcDbLine
 10
4.973425196850393
 20
10.59645669291338
 30
0.0
 11
4.325787401574802
 21
10.59645669291338
 31
0.0
  0
LINE
  5
2013
330
1E
100
AcDbEntity
  8
3
100
AcDbLine
 10
4.321850393700786
 20
7.75
 30
0.0
 11
4.010826771653541
 21
7.75
 31
0.0
  0
LINE
  5
2014
330
1E
100
AcDbEntity
  8
3
100
AcDbLine
 10
4.835629921259841
 20
10.11811023622047
 30
0.0
 11
4.833661417322834
 21
10.12007874015748
 31
0.0
  0
LINE
  5
2015
330
1E
100
AcDbEntity
  8
3
100
AcDbLine
 10
4.32775590551181
 20
10.56889763779527
 30
0.0
 11
4.32775590551181
 21
10.57480314960629
 31
0.0
  0
LINE
  5
2016
330
1E
100
AcDbEntity
  8
3
100
AcDbLine
 10
3.359251968503936
 20
10.59448818897637
 30
0.0
 11
3.359251968503936
 21
10.57480314960629
 31
0.0
  0
LINE
  5
2017
330
1E
100
AcDbEntity
  8
3
100
AcDbLine
 10
3.499015748031495
 20
10.4763779527559
 30
0.0
 11
3.499015748031495
 21
10.12007874015748
 31
0.0
  0
LINE
  5
2018
330
1E
100
AcDbEntity
  8
3
100
AcDbLine
 10
3.497047244094487
 20
10.11811023622047
 30
0.0
 11
3.455708661417321
 21
10.11811023622047
 31
0.0
  0
LINE
  5
2019
330
1E
100
AcDbEntity
  8
3
100
AcDbLine
 10
3.378937007874015
 20
8.714566929133859
 30
0.0
 11
3.378937007874015
 21
8.602362204724411
 31
0.0
  0
LINE
  5
201A
330
1E
100
AcDbEntity
  8
3
100
AcDbLine
 10
5.126968503937006
 20
7.834645669291337
 30
0.0
 11
5.126968503937006
 21
10.50787401574803
 31
0.0
  0
LINE
  5
201B
330
1E
100
AcDbEntity
  8
3
100
AcDbLine
 10
4.325787401574802
 20
7.748031496062992
 30
0.0
 11
4.973425196850393
 21
7.748031496062992
 31
0.0
  0
LINE
  5
201C
330
1E
100
AcDbEntity
  8
3
100
AcDbLine
 10
3.343503937007873
 20
7.653543307086614
 30
0.0
 11
4.989173228346456
 21
7.653543307086614
 31
0.0
  0
LINE
  5
201D
330
1E
100
AcDbEntity
  8
3
100
AcDbLine
 10
3.359251968503936
 20
7.748031496062992
 30
0.0
 11
3.359251968503936
 21
7.76771653543307
 31
0.0
  0
LINE
  5
201E
330
1E
100
AcDbEntity
  8
3
100
AcDbLine
 10
3.378937007874015
 20
9.19291338582677
 30
0.0
 11
3.378937007874015
 21
8.714566929133859
 31
0.0
  0
LINE
  5
201F
330
1E
100
AcDbEntity
  8
3
100
AcDbLine
 10
5.146653543307086
 20
10.50787401574803
 30
0.0
 11
5.146653543307086
 21
7.834645669291337
 31
0.0
  0
LINE
  5
2020
330
1E
100
AcDbEntity
  8
3
100
AcDbLine
 10
3.319881889763778
 20
8.586614173228348
 30
0.0
 11
3.319881889763778
 21
8.454724409448818
 31
0.0
  0
LINE
  5
2021
330
1E
100
AcDbEntity
  8
3
100
AcDbLine
 10
3.355314960629921
 20
10.6003937007874
 30
0.0
 11
4.977362204724408
 21
10.6003937007874
 31
0.0
  0
LINE
  5
2022
330
1E
100
AcDbEntity
  8
3
100
AcDbLine
 10
3.174212598425195
 20
7.824803149606299
 30
0.0
 11
3.184055118110236
 21
7.834645669291337
 31
0.0
  0
LINE
  5
2023
330
1E
100
AcDbEntity
  8
3
100
AcDbLine
 10
4.963582677165352
 20
8.440944881889762
 30
0.0
 11
5.010826771653541
 21
8.440944881889762
 31
0.0
  0
LINE
  5
2024
330
1E
100
AcDbEntity
  8
3
100
AcDbLine
 10
4.010826771653541
 20
10.59251968503936
 30
0.0
 11
4.321850393700786
 21
10.59251968503936
 31
0.0
  0
LINE
  5
2025
330
1E
100
AcDbEntity
  8
3
100
AcDbLine
 10
5.01279527559055
 20
8.454724409448818
 30
0.0
 11
5.01279527559055
 21
8.586614173228348
 31
0.0
  0
LINE
  5
2026
330
1E
100
AcDbEntity
  8
3
100
AcDbLine
 10
4.317913385826771
 20
7.769685039370077
 30
0.0
 11
4.32775590551181
 21
7.775590551181103
 31
0.0
  0
LINE
  5
2027
330
1E
100
AcDbEntity
  8
3
100
AcDbLine
 10
3.378937007874015
 20
8.438976377952755
 30
0.0
 11
3.378937007874015
 21
8.326771653543307
 31
0.0
  0
LINE
  5
2028
330
1E
100
AcDbEntity
  8
3
100
AcDbLine
 10
5.044291338582676
 20
7.840551181102362
 30
0.0
 11
5.063976377952754
 21
7.840551181102362
 31
0.0
  0
LINE
  5
2029
330
1E
100
AcDbEntity
  8
3
100
AcDbLine
 10
4.004921259842519
 20
10.56889763779527
 30
0.0
 11
4.32775590551181
 21
10.56889763779527
 31
0.0
  0
LINE
  5
202A
330
1E
100
AcDbEntity
  8
3
100
AcDbLine
 10
4.951771653543306
 20
9.19291338582677
 30
0.0
 11
4.951771653543306
 21
8.714566929133859
 31
0.0
  0
LINE
  5
202B
330
1E
100
AcDbEntity
  8
3
100
AcDbLine
 10
5.063976377952754
 20
10.50393700787401
 30
0.0
 11
5.063976377952754
 21
7.840551181102362
 31
0.0
  0
LINE
  5
2031
330
1E
100
AcDbEntity
  8
3
100
AcDbLine
 10
5.158464566929132
 20
7.824803149606299
 30
0.0
 11
5.158464566929132
 21
10.51968503937007
 31
0.0
  0
LINE
  5
2032
330
1E
100
AcDbEntity
  8
3
100
AcDbLine
 10
3.266732283464565
 20
10.50393700787401
 30
0.0
 11
3.266732283464565
 21
7.838582677165355
 31
0.0
  0
LINE
  5
2033
330
1E
100
AcDbEntity
  8
3
100
AcDbLine
 10
3.203740157480313
 20
10.50787401574803
 30
0.0
 11
3.184055118110236
 21
10.50787401574803
 31
0.0
  0
LINE
  5
2034
330
1E
100
AcDbEntity
  8
3
100
AcDbLine
 10
5.063976377952754
 20
10.50393700787401
 30
0.0
 11
5.065944881889763
 21
10.50393700787401
 31
0.0
  0
LINE
  5
2035
330
1E
100
AcDbEntity
  8
3
100
AcDbLine
 10
4.014763779527558
 20
10.57283464566929
 30
0.0
 11
4.014763779527558
 21
10.58858267716535
 31
0.0
  0
LINE
  5
2036
330
1E
100
AcDbEntity
  8
3
100
AcDbLine
 10
5.044291338582676
 20
10.50393700787401
 30
0.0
 11
5.063976377952754
 21
10.50393700787401
 31
0.0
  0
LINE
  5
2037
330
1E
100
AcDbEntity
  8
3
100
AcDbLine
 10
3.355314960629921
 20
10.65748031496063
 30
0.0
 11
3.355314960629921
 21
10.67913385826771
 31
0.0
  0
LINE
  5
2038
330
1E
100
AcDbEntity
  8
3
100
AcDbLine
 10
3.313976377952754
 20
8.594488188976377
 30
0.0
 11
3.313976377952754
 21
8.448818897637796
 31
0.0
  0
LINE
  5
2039
330
1E
100
AcDbEntity
  8
3
100
AcDbLine
 10
3.376968503937006
 20
7.844488188976377
 30
0.0
 11
3.378937007874015
 21
7.848425196850392
 31
0.0
  0
LINE
  5
203A
330
1E
100
AcDbEntity
  8
3
100
AcDbLine
 10
4.977362204724408
 20
7.665354330708662
 30
0.0
 11
3.355314960629921
 21
7.665354330708662
 31
0.0
  0
LINE
  5
203B
330
1E
100
AcDbEntity
  8
3
100
AcDbLine
 10
3.268700787401574
 20
7.840551181102362
 30
0.0
 11
3.266732283464565
 21
7.838582677165355
 31
0.0
  0
LINE
  5
203C
330
1E
100
AcDbEntity
  8
3
100
AcDbLine
 10
3.26279527559055
 20
7.834645669291337
 30
0.0
 11
3.26279527559055
 21
10.50787401574803
 31
0.0
  0
LINE
  5
203D
330
1E
100
AcDbEntity
  8
3
100
AcDbLine
 10
4.325787401574802
 20
10.59645669291338
 30
0.0
 11
4.317913385826771
 21
10.58858267716535
 31
0.0
  0
LINE
  5
203E
330
1E
100
AcDbEntity
  8
3
100
AcDbLine
 10
3.369094488188975
 20
8.440944881889762
 30
0.0
 11
3.371062992125984
 21
8.446850393700788
 31
0.0
  0
LINE
  5
203F
330
1E
100
AcDbEntity
  8
3
100
AcDbLine
 10
3.268700787401574
 20
7.840551181102362
 30
0.0
 11
3.268700787401574
 21
10.50393700787401
 31
0.0
  0
LINE
  5
2040
330
1E
100
AcDbEntity
  8
3
100
AcDbLine
 10
4.973425196850393
 20
10.57480314960629
 30
0.0
 11
4.32775590551181
 21
10.57480314960629
 31
0.0
  0
LINE
  5
2041
330
1E
100
AcDbEntity
  8
3
100
AcDbLine
 10
5.065944881889763
 20
7.838582677165355
 30
0.0
 11
5.065944881889763
 21
10.50393700787401
 31
0.0
  0
LINE
  5
2042
330
1E
100
AcDbEntity
  8
3
100
AcDbLine
 10
3.378937007874015
 20
8.602362204724411
 30
0.0
 11
3.378937007874015
 21
8.438976377952755
 31
0.0
  0
LINE
  5
2043
330
1E
100
AcDbEntity
  8
3
100
AcDbLine
 10
3.174212598425195
 20
10.51968503937007
 30
0.0
 11
3.174212598425195
 21
7.824803149606299
 31
0.0
  0
LINE
  5
2044
330
1E
100
AcDbEntity
  8
3
100
AcDbLine
 10
4.004921259842519
 20
10.57480314960629
 30
0.0
 11
4.004921259842519
 21
10.56889763779527
 31
0.0
  0
LINE
  5
2045
330
1E
100
AcDbEntity
  8
3
100
AcDbLine
 10
4.004921259842519
 20
7.775590551181103
 30
0.0
 11
4.004921259842519
 21
7.76771653543307
 31
0.0
  0
LINE
  5
2046
330
1E
100
AcDbEntity
  8
3
100
AcDbLine
 10
4.951771653543306
 20
7.848425196850392
 30
0.0
 11
4.892716535433069
 21
7.848425196850392
 31
0.0
  0
LINE
  5
2047
330
1E
100
AcDbEntity
  8
3
100
AcDbLine
 10
5.01279527559055
 20
8.454724409448818
 30
0.0
 11
5.018700787401573
 21
8.448818897637796
 31
0.0
  0
LINE
  5
2048
330
1E
100
AcDbEntity
  8
3
100
AcDbLine
 10
5.010826771653541
 20
8.440944881889762
 30
0.0
 11
5.004921259842519
 21
8.446850393700788
 31
0.0
  0
LINE
  5
2049
330
1E
100
AcDbEntity
  8
3
100
AcDbLine
 10
5.065944881889763
 20
7.838582677165355
 30
0.0
 11
5.063976377952754
 21
7.840551181102362
 31
0.0
  0
LINE
  5
204A
330
1E
100
AcDbEntity
  8
3
100
AcDbLine
 10
3.32775590551181
 20
8.446850393700788
 30
0.0
 11
3.321850393700786
 21
8.440944881889762
 31
0.0
  0
LINE
  5
204B
330
1E
100
AcDbEntity
  8
3
100
AcDbLine
 10
3.32775590551181
 20
8.446850393700788
 30
0.0
 11
3.371062992125984
 21
8.446850393700788
 31
0.0
  0
LINE
  5
204C
330
1E
100
AcDbEntity
  8
3
100
AcDbLine
 10
3.288385826771652
 20
10.50393700787401
 30
0.0
 11
3.288385826771652
 21
7.840551181102362
 31
0.0
  0
LINE
  5
204D
330
1E
100
AcDbEntity
  8
3
100
AcDbLine
 10
4.876968503937006
 20
10.11811023622047
 30
0.0
 11
3.455708661417321
 21
10.11811023622047
 31
0.0
  0
LINE
  5
204E
330
1E
100
AcDbEntity
  8
3
100
AcDbLine
 10
5.069881889763778
 20
10.50787401574803
 30
0.0
 11
5.069881889763778
 21
7.834645669291337
 31
0.0
  0
LINE
  5
204F
330
1E
100
AcDbEntity
  8
3
100
AcDbLine
 10
3.184055118110236
 20
7.834645669291337
 30
0.0
 11
3.184055118110236
 21
10.50787401574803
 31
0.0
  0
LINE
  5
2050
330
1E
100
AcDbEntity
  8
3
100
AcDbLine
 10
4.989173228346456
 20
10.68897637795275
 30
0.0
 11
3.343503937007873
 21
10.68897637795275
 31
0.0
  0
LINE
  5
2051
330
1E
100
AcDbEntity
  8
3
100
AcDbLine
 10
4.014763779527558
 20
10.58858267716535
 30
0.0
 11
4.014763779527558
 21
10.59251968503936
 31
0.0
  0
LINE
  5
2052
330
1E
100
AcDbEntity
  8
3
100
AcDbLine
 10
4.004921259842519
 20
10.59448818897637
 30
0.0
 11
4.006889763779526
 21
10.59645669291338
 31
0.0
  0
LINE
  5
2053
330
1E
100
AcDbEntity
  8
3
100
AcDbLine
 10
3.445866141732282
 20
10.12795275590551
 30
0.0
 11
3.445866141732282
 21
10.46850393700787
 31
0.0
  0
LINE
  5
206D
330
1E
100
AcDbEntity
  8
3
100
AcDbLine
 10
3.378937007874015
 20
8.602362204724411
 30
0.0
 11
3.371062992125984
 21
8.594488188976377
 31
0.0
  0
LINE
  5
207C
330
1E
100
AcDbEntity
  8
3
100
AcDbLine
 10
4.959645669291337
 20
8.594488188976377
 30
0.0
 11
4.951771653543306
 21
8.602362204724411
 31
0.0
  0
LINE
  5
207D
330
1E
100
AcDbEntity
  8
3
100
AcDbLine
 10
3.310039370078739
 20
10.58858267716535
 30
0.0
 11
3.355314960629921
 21
10.6003937007874
 31
0.0
  0
LINE
  5
207E
330
1E
100
AcDbEntity
  8
3
100
AcDbLine
 10
3.359251968503936
 20
10.59645669291338
 30
0.0
 11
3.310039370078739
 21
10.58267716535433
 31
0.0
  0
LINE
  5
207F
330
1E
100
AcDbEntity
  8
3
100
AcDbLine
 10
3.455708661417321
 20
10.47834645669291
 30
0.0
 11
3.445866141732282
 21
10.46850393700787
 31
0.0
  0
LINE
  5
2080
330
1E
100
AcDbEntity
  8
3
100
AcDbLine
 10
3.26279527559055
 20
10.50787401574803
 30
0.0
 11
3.266732283464565
 21
10.53149606299212
 31
0.0
  0
LINE
  5
2081
330
1E
100
AcDbEntity
  8
3
100
AcDbLine
 10
4.32775590551181
 20
10.57480314960629
 30
0.0
 11
4.32775590551181
 21
10.58858267716535
 31
0.0
  0
LINE
  5
2082
330
1E
100
AcDbEntity
  8
3
100
AcDbLine
 10
4.32775590551181
 20
10.58858267716535
 30
0.0
 11
4.32775590551181
 21
10.59448818897637
 31
0.0
  0
LINE
  5
2083
330
1E
100
AcDbEntity
  8
3
100
AcDbLine
 10
3.371062992125984
 20
8.446850393700788
 30
0.0
 11
3.378937007874015
 21
8.438976377952755
 31
0.0
  0
LINE
  5
208B
330
1E
100
AcDbEntity
  8
3
100
AcDbLine
 10
3.274606299212597
 20
7.789370078740159
 30
0.0
 11
3.26279527559055
 21
7.834645669291337
 31
0.0
  0
LINE
  5
208C
330
1E
100
AcDbEntity
  8
3
100
AcDbLine
 10
5.004921259842519
 20
8.446850393700788
 30
0.0
 11
5.01279527559055
 21
8.454724409448818
 31
0.0
  0
LINE
  5
2092
330
1E
100
AcDbEntity
  8
3
100
AcDbLine
 10
4.999015748031495
 20
10.59251968503936
 30
0.0
 11
4.973425196850393
 21
10.59645669291338
 31
0.0
  0
LINE
  5
209B
330
1E
100
AcDbEntity
  8
3
100
AcDbLine
 10
4.876968503937006
 20
10.11811023622047
 30
0.0
 11
4.886811023622047
 21
10.12795275590551
 31
0.0
  0
LINE
  5
209C
330
1E
100
AcDbEntity
  8
3
100
AcDbLine
 10
3.376968503937006
 20
8.431102362204725
 30
0.0
 11
3.369094488188975
 21
8.440944881889762
 31
0.0
  0
LINE
  5
20A2
330
1E
100
AcDbEntity
  8
3
100
AcDbLine
 10
4.951771653543306
 20
8.438976377952755
 30
0.0
 11
4.959645669291337
 21
8.446850393700788
 31
0.0
  0
LINE
  5
20A3
330
1E
100
AcDbEntity
  8
3
100
AcDbLine
 10
4.886811023622047
 20
10.46850393700787
 30
0.0
 11
4.876968503937006
 21
10.47834645669291
 31
0.0
  0
LINE
  5
20B8
330
1E
100
AcDbEntity
  8
3
100
AcDbLine
 10
3.445866141732282
 20
10.12795275590551
 30
0.0
 11
3.455708661417321
 21
10.11811023622047
 31
0.0
  0
LINE
  5
20B9
330
1E
100
AcDbEntity
  8
3
100
AcDbLine
 10
3.445866141732282
 20
10.46850393700787
 30
0.0
 11
3.455708661417321
 21
10.47834645669291
 31
0.0
  0
LINE
  5
20BF
330
1E
100
AcDbEntity
  8
3
100
AcDbLine
 10
5.069881889763778
 20
7.834645669291337
 30
0.0
 11
5.065944881889763
 21
7.812992125984251
 31
0.0
  0
LINE
  5
20C0
330
1E
100
AcDbEntity
  8
3
100
AcDbLine
 10
3.266732283464565
 20
7.838582677165355
 30
0.0
 11
3.280511811023621
 21
7.791338582677166
 31
0.0
  0
LINE
  5
20C1
330
1E
100
AcDbEntity
  8
3
100
AcDbLine
 10
3.32775590551181
 20
8.594488188976377
 30
0.0
 11
3.319881889763778
 21
8.586614173228348
 31
0.0
  0
LINE
  5
20C2
330
1E
100
AcDbEntity
  8
3
100
AcDbLine
 10
3.355314960629921
 20
7.744094488188977
 30
0.0
 11
3.331692913385826
 21
7.746062992125985
 31
0.0
  0
LINE
  5
20C3
330
1E
100
AcDbEntity
  8
3
100
AcDbLine
 10
4.955708661417321
 20
8.61023622047244
 30
0.0
 11
4.963582677165352
 21
8.602362204724411
 31
0.0
  0
LINE
  5
20D4
330
1E
100
AcDbEntity
  8
3
100
AcDbLine
 10
3.310039370078739
 20
10.58267716535433
 30
0.0
 11
3.284448818897637
 21
10.55905511811023
 31
0.0
  0
LINE
  5
20D5
330
1E
100
AcDbEntity
  8
3
100
AcDbLine
 10
3.284448818897637
 20
10.55905511811023
 30
0.0
 11
3.270669291338582
 21
10.52952755905511
 31
0.0
  0
LINE
  5
20D6
330
1E
100
AcDbEntity
  8
3
100
AcDbLine
 10
3.455708661417321
 20
10.11811023622047
 30
0.0
 11
3.445866141732282
 21
10.12795275590551
 31
0.0
  0
LINE
  5
20D7
330
1E
100
AcDbEntity
  8
3
100
AcDbLine
 10
5.065944881889763
 20
10.50393700787401
 30
0.0
 11
5.052165354330708
 21
10.55314960629921
 31
0.0
  0
LINE
  5
20D8
330
1E
100
AcDbEntity
  8
3
100
AcDbLine
 10
5.058070866141732
 20
10.55314960629921
 30
0.0
 11
5.069881889763778
 21
10.50787401574803
 31
0.0
  0
LINE
  5
20DE
330
1E
100
AcDbEntity
  8
3
100
AcDbLine
 10
3.319881889763778
 20
8.454724409448818
 30
0.0
 11
3.32775590551181
 21
8.446850393700788
 31
0.0
  0
LINE
  5
20DF
330
1E
100
AcDbEntity
  8
3
100
AcDbLine
 10
3.333661417322834
 20
7.751968503937007
 30
0.0
 11
3.359251968503936
 21
7.748031496062992
 31
0.0
  0
LINE
  5
20E8
330
1E
100
AcDbEntity
  8
3
100
AcDbLine
 10
5.010826771653541
 20
8.602362204724411
 30
0.0
 11
5.018700787401573
 21
8.594488188976377
 31
0.0
  0
LINE
  5
20FC
330
1E
100
AcDbEntity
  8
3
100
AcDbLine
 10
5.1505905511811
 20
10.57086614173228
 30
0.0
 11
5.158464566929132
 21
10.51968503937007
 31
0.0
  0
LINE
  5
20FD
330
1E
100
AcDbEntity
  8
3
100
AcDbLine
 10
3.270669291338582
 20
10.52952755905511
 30
0.0
 11
3.266732283464565
 21
10.50393700787401
 31
0.0
  0
LINE
  5
210F
330
1E
100
AcDbEntity
  8
3
100
AcDbLine
 10
5.062007874015747
 20
7.812992125984251
 30
0.0
 11
5.065944881889763
 21
7.838582677165355
 31
0.0
  0
LINE
  5
2110
330
1E
100
AcDbEntity
  8
3
100
AcDbLine
 10
4.886811023622047
 20
10.12795275590551
 30
0.0
 11
4.876968503937006
 21
10.11811023622047
 31
0.0
  0
LINE
  5
2111
330
1E
100
AcDbEntity
  8
3
100
AcDbLine
 10
3.321850393700786
 20
8.440944881889762
 30
0.0
 11
3.313976377952754
 21
8.448818897637796
 31
0.0
  0
LINE
  5
2112
330
1E
100
AcDbEntity
  8
3
100
AcDbLine
 10
4.977362204724408
 20
10.6003937007874
 30
0.0
 11
4.999015748031495
 21
10.59645669291338
 31
0.0
  0
LINE
  5
2113
330
1E
100
AcDbEntity
  8
3
100
AcDbLine
 10
3.313976377952754
 20
8.594488188976377
 30
0.0
 11
3.321850393700786
 21
8.602362204724411
 31
0.0
  0
LINE
  5
2120
330
1E
100
AcDbEntity
  8
3
100
AcDbLine
 10
3.343503937007873
 20
7.653543307086614
 30
0.0
 11
3.29035433070866
 21
7.663385826771651
 31
0.0
  0
LINE
  5
2128
330
1E
100
AcDbEntity
  8
3
100
AcDbLine
 10
5.018700787401573
 20
8.448818897637796
 30
0.0
 11
5.010826771653541
 21
8.440944881889762
 31
0.0
  0
LINE
  5
2129
330
1E
100
AcDbEntity
  8
3
100
AcDbLine
 10
5.01279527559055
 20
8.586614173228348
 30
0.0
 11
5.004921259842519
 21
8.594488188976377
 31
0.0
  0
LINE
  5
212A
330
1E
100
AcDbEntity
  8
3
100
AcDbLine
 10
4.973425196850393
 20
7.748031496062992
 30
0.0
 11
5.022637795275589
 21
7.761811023622048
 31
0.0
  0
LINE
  5
212B
330
1E
100
AcDbEntity
  8
3
100
AcDbLine
 10
4.977362204724408
 20
7.665354330708662
 30
0.0
 11
5.030511811023621
 21
7.673228346456692
 31
0.0
  0
LINE
  5
2133
330
1E
100
AcDbEntity
  8
3
100
AcDbLine
 10
4.963582677165352
 20
8.440944881889762
 30
0.0
 11
4.955708661417321
 21
8.431102362204725
 31
0.0
  0
LINE
  5
2148
330
1E
100
AcDbEntity
  8
3
100
AcDbLine
 10
3.369094488188975
 20
8.602362204724411
 30
0.0
 11
3.376968503937006
 21
8.61023622047244
 31
0.0
  0
LINE
  5
2149
330
1E
100
AcDbEntity
  8
3
100
AcDbLine
 10
5.022637795275589
 20
7.755905511811022
 30
0.0
 11
4.977362204724408
 21
7.744094488188977
 31
0.0
  0
LINE
  5
2152
330
1E
100
AcDbEntity
  8
3
100
AcDbLine
 10
4.876968503937006
 20
10.47834645669291
 30
0.0
 11
4.886811023622047
 21
10.46850393700787
 31
0.0
  0
LINE
  5
2165
330
1E
100
AcDbEntity
  8
3
100
AcDbLine
 10
4.871062992125984
 20
4.007874015748031
 30
0.0
 11
4.871062992125984
 21
4.027559055118111
 31
0.0
  0
LINE
  5
2166
330
1E
100
AcDbEntity
  8
3
100
AcDbLine
 10
4.871062992125984
 20
4.007874015748031
 30
0.0
 11
4.861220472440943
 21
4.007874015748031
 31
0.0
  0
LINE
  5
2167
330
1E
100
AcDbEntity
  8
3
100
AcDbLine
 10
4.949803149606299
 20
4.326771653543307
 30
0.0
 11
4.981299212598425
 21
4.507874015748031
 31
0.0
  0
LINE
  5
2168
330
1E
100
AcDbEntity
  8
3
100
AcDbLine
 10
3.461614173228345
 20
4.027559055118111
 30
0.0
 11
3.483267716535432
 21
4.027559055118111
 31
0.0
  0
LINE
  5
2169
330
1E
100
AcDbEntity
  8
3
100
AcDbLine
 10
4.999015748031495
 20
4.507874015748031
 30
0.0
 11
4.989173228346456
 21
4.824803149606299
 31
0.0
  0
LINE
  5
216A
330
1E
100
AcDbEntity
  8
3
100
AcDbLine
 10
4.339566929133858
 20
4.907480314960629
 30
0.0
 11
4.983267716535432
 21
4.907480314960629
 31
0.0
  0
LINE
  5
216B
330
1E
100
AcDbEntity
  8
3
100
AcDbLine
 10
4.983267716535432
 20
4.887795275590551
 30
0.0
 11
4.985236220472439
 21
4.84251968503937
 31
0.0
  0
LINE
  5
216C
330
1E
100
AcDbEntity
  8
3
100
AcDbLine
 10
3.485236220472439
 20
4.007874015748031
 30
0.0
 11
3.483267716535432
 21
4.007874015748031
 31
0.0
  0
LINE
  5
216D
330
1E
100
AcDbEntity
  8
3
100
AcDbLine
 10
3.298228346456691
 20
4.907480314960629
 30
0.0
 11
3.371062992125984
 21
4.907480314960629
 31
0.0
  0
LINE
  5
216E
330
1E
100
AcDbEntity
  8
3
100
AcDbLine
 10
3.36515748031496
 20
4.84251968503937
 30
0.0
 11
3.36515748031496
 21
4.824803149606299
 31
0.0
  0
LINE
  5
216F
330
1E
100
AcDbEntity
  8
3
100
AcDbLine
 10
3.384842519685038
 20
4.324803149606299
 30
0.0
 11
3.353346456692912
 21
4.507874015748031
 31
0.0
  0
LINE
  5
2170
330
1E
100
AcDbEntity
  8
3
100
AcDbLine
 10
4.841535433070865
 20
4.027559055118111
 30
0.0
 11
4.823818897637795
 21
4.507874015748031
 31
0.0
  0
LINE
  5
2171
330
1E
100
AcDbEntity
  8
3
100
AcDbLine
 10
3.36515748031496
 20
4.84251968503937
 30
0.0
 11
4.989173228346456
 21
4.84251968503937
 31
0.0
  0
LINE
  5
2172
330
1E
100
AcDbEntity
  8
3
100
AcDbLine
 10
4.339566929133858
 20
4.907480314960629
 30
0.0
 11
4.014763779527558
 21
4.907480314960629
 31
0.0
  0
LINE
  5
2173
330
1E
100
AcDbEntity
  8
3
100
AcDbLine
 10
5.075787401574802
 20
4.84251968503937
 30
0.0
 11
5.075787401574802
 21
4.887795275590551
 31
0.0
  0
LINE
  5
2174
330
1E
100
AcDbEntity
  8
3
100
AcDbLine
 10
4.869094488188975
 20
4.007874015748031
 30
0.0
 11
4.861220472440943
 21
4.007874015748031
 31
0.0
  0
LINE
  5
2175
330
1E
100
AcDbEntity
  8
3
100
AcDbLine
 10
4.989173228346456
 20
4.84251968503937
 30
0.0
 11
5.138779527559054
 21
4.84251968503937
 31
0.0
  0
LINE
  5
2176
330
1E
100
AcDbEntity
  8
3
100
AcDbLine
 10
4.983267716535432
 20
4.907480314960629
 30
0.0
 11
5.056102362204723
 21
4.907480314960629
 31
0.0
  0
LINE
  5
2177
330
1E
100
AcDbEntity
  8
3
100
AcDbLine
 10
4.949803149606299
 20
4.326771653543307
 30
0.0
 11
4.949803149606299
 21
4.309055118110237
 31
0.0
  0
LINE
  5
2178
330
1E
100
AcDbEntity
  8
3
100
AcDbLine
 10
3.483267716535432
 20
4.007874015748031
 30
0.0
 11
3.483267716535432
 21
4.027559055118111
 31
0.0
  0
LINE
  5
2179
330
1E
100
AcDbEntity
  8
3
100
AcDbLine
 10
4.983267716535432
 20
4.907480314960629
 30
0.0
 11
4.983267716535432
 21
4.887795275590551
 31
0.0
  0
LINE
  5
217A
330
1E
100
AcDbEntity
  8
3
100
AcDbLine
 10
4.90255905511811
 20
4.326771653543307
 30
0.0
 11
4.949803149606299
 21
4.326771653543307
 31
0.0
  0
LINE
  5
217B
330
1E
100
AcDbEntity
  8
3
100
AcDbLine
 10
4.873031496062991
 20
4.007874015748031
 30
0.0
 11
4.871062992125984
 21
4.007874015748031
 31
0.0
  0
LINE
  5
217C
330
1E
100
AcDbEntity
  8
3
100
AcDbLine
 10
4.871062992125984
 20
4.027559055118111
 30
0.0
 11
4.892716535433069
 21
4.027559055118111
 31
0.0
  0
LINE
  5
217D
330
1E
100
AcDbEntity
  8
3
100
AcDbLine
 10
3.36515748031496
 20
4.824803149606299
 30
0.0
 11
3.355314960629921
 21
4.507874015748031
 31
0.0
  0
LINE
  5
217E
330
1E
100
AcDbEntity
  8
3
100
AcDbLine
 10
3.369094488188975
 20
4.84251968503937
 30
0.0
 11
3.371062992125984
 21
4.887795275590551
 31
0.0
  0
LINE
  5
217F
330
1E
100
AcDbEntity
  8
3
100
AcDbLine
 10
3.355314960629921
 20
4.507874015748031
 30
0.0
 11
3.184055118110236
 21
4.507874015748031
 31
0.0
  0
LINE
  5
2180
330
1E
100
AcDbEntity
  8
3
100
AcDbLine
 10
4.989173228346456
 20
4.824803149606299
 30
0.0
 11
4.989173228346456
 21
4.84251968503937
 31
0.0
  0
LINE
  5
2181
330
1E
100
AcDbEntity
  8
3
100
AcDbLine
 10
4.949803149606299
 20
4.309055118110237
 30
0.0
 11
4.90255905511811
 21
4.309055118110237
 31
0.0
  0
LINE
  5
2182
330
1E
100
AcDbEntity
  8
3
100
AcDbLine
 10
5.000984251968502
 20
4.507874015748031
 30
0.0
 11
4.969488188976376
 21
4.324803149606299
 31
0.0
  0
LINE
  5
2183
330
1E
100
AcDbEntity
  8
3
100
AcDbLine
 10
3.483267716535432
 20
4.027559055118111
 30
0.0
 11
3.499015748031495
 21
4.507874015748031
 31
0.0
  0
LINE
  5
2184
330
1E
100
AcDbEntity
  8
3
100
AcDbLine
 10
4.989173228346456
 20
4.824803149606299
 30
0.0
 11
3.36515748031496
 21
4.824803149606299
 31
0.0
  0
LINE
  5
2185
330
1E
100
AcDbEntity
  8
3
100
AcDbLine
 10
4.018700787401574
 20
4.84251968503937
 30
0.0
 11
4.016732283464565
 21
4.887795275590551
 31
0.0
  0
LINE
  5
2186
330
1E
100
AcDbEntity
  8
3
100
AcDbLine
 10
4.983267716535432
 20
4.887795275590551
 30
0.0
 11
4.337598425196849
 21
4.887795275590551
 31
0.0
  0
LINE
  5
2187
330
1E
100
AcDbEntity
  8
3
100
AcDbLine
 10
3.493110236220471
 20
4.007874015748031
 30
0.0
 11
3.485236220472439
 21
4.007874015748031
 31
0.0
  0
LINE
  5
2188
330
1E
100
AcDbEntity
  8
3
100
AcDbLine
 10
3.373031496062991
 20
4.507874015748031
 30
0.0
 11
3.404527559055117
 21
4.326771653543307
 31
0.0
  0
LINE
  5
2189
330
1E
100
AcDbEntity
  8
3
100
AcDbLine
 10
3.461614173228345
 20
4.027559055118111
 30
0.0
 11
3.443897637795275
 21
4.507874015748031
 31
0.0
  0
LINE
  5
218A
330
1E
100
AcDbEntity
  8
3
100
AcDbLine
 10
5.158464566929132
 20
4.824803149606299
 30
0.0
 11
5.17027559055118
 21
4.507874015748031
 31
0.0
  0
LINE
  5
218B
330
1E
100
AcDbEntity
  8
3
100
AcDbLine
 10
3.371062992125984
 20
4.907480314960629
 30
0.0
 11
4.014763779527558
 21
4.907480314960629
 31
0.0
  0
LINE
  5
218C
330
1E
100
AcDbEntity
  8
3
100
AcDbLine
 10
4.337598425196849
 20
4.887795275590551
 30
0.0
 11
4.335629921259841
 21
4.84251968503937
 31
0.0
  0
LINE
  5
218D
330
1E
100
AcDbEntity
  8
3
100
AcDbLine
 10
4.871062992125984
 20
4.007874015748031
 30
0.0
 11
4.869094488188975
 21
4.007874015748031
 31
0.0
  0
LINE
  5
218E
330
1E
100
AcDbEntity
  8
3
100
AcDbLine
 10
5.17027559055118
 20
4.507874015748031
 30
0.0
 11
4.999015748031495
 21
4.507874015748031
 31
0.0
  0
LINE
  5
218F
330
1E
100
AcDbEntity
  8
3
100
AcDbLine
 10
4.337598425196849
 20
4.887795275590551
 30
0.0
 11
4.339566929133858
 21
4.907480314960629
 31
0.0
  0
LINE
  5
2190
330
1E
100
AcDbEntity
  8
3
100
AcDbLine
 10
3.404527559055117
 20
4.309055118110237
 30
0.0
 11
3.404527559055117
 21
4.326771653543307
 31
0.0
  0
LINE
  5
2191
330
1E
100
AcDbEntity
  8
3
100
AcDbLine
 10
3.371062992125984
 20
4.887795275590551
 30
0.0
 11
3.371062992125984
 21
4.907480314960629
 31
0.0
  0
LINE
  5
2192
330
1E
100
AcDbEntity
  8
3
100
AcDbLine
 10
3.404527559055117
 20
4.326771653543307
 30
0.0
 11
3.451771653543306
 21
4.326771653543307
 31
0.0
  0
LINE
  5
2193
330
1E
100
AcDbEntity
  8
3
100
AcDbLine
 10
3.530511811023621
 20
4.507874015748031
 30
0.0
 11
3.51279527559055
 21
4.027559055118111
 31
0.0
  0
LINE
  5
2194
330
1E
100
AcDbEntity
  8
3
100
AcDbLine
 10
4.892716535433069
 20
4.027559055118111
 30
0.0
 11
4.910433070866141
 21
4.507874015748031
 31
0.0
  0
LINE
  5
2195
330
1E
100
AcDbEntity
  8
3
100
AcDbLine
 10
3.184055118110236
 20
4.507874015748031
 30
0.0
 11
3.195866141732282
 21
4.824803149606299
 31
0.0
  0
LINE
  5
2196
330
1E
100
AcDbEntity
  8
3
100
AcDbLine
 10
3.278543307086613
 20
4.887795275590551
 30
0.0
 11
3.278543307086613
 21
4.84251968503937
 31
0.0
  0
LINE
  5
2197
330
1E
100
AcDbEntity
  8
3
100
AcDbLine
 10
3.215551181102362
 20
4.84251968503937
 30
0.0
 11
3.36515748031496
 21
4.84251968503937
 31
0.0
  0
LINE
  5
2198
330
1E
100
AcDbEntity
  8
3
100
AcDbLine
 10
4.014763779527558
 20
4.907480314960629
 30
0.0
 11
4.016732283464565
 21
4.887795275590551
 31
0.0
  0
LINE
  5
2199
330
1E
100
AcDbEntity
  8
3
100
AcDbLine
 10
3.451771653543306
 20
4.309055118110237
 30
0.0
 11
3.404527559055117
 21
4.309055118110237
 31
0.0
  0
LINE
  5
219A
330
1E
100
AcDbEntity
  8
3
100
AcDbLine
 10
3.483267716535432
 20
4.007874015748031
 30
0.0
 11
3.481299212598425
 21
4.007874015748031
 31
0.0
  0
LINE
  5
219B
330
1E
100
AcDbEntity
  8
3
100
AcDbLine
 10
4.855314960629921
 20
4.507874015748031
 30
0.0
 11
4.871062992125984
 21
4.027559055118111
 31
0.0
  0
LINE
  5
219C
330
1E
100
AcDbEntity
  8
3
100
AcDbLine
 10
3.355314960629921
 20
4.507874015748031
 30
0.0
 11
4.999015748031495
 21
4.507874015748031
 31
0.0
  0
LINE
  5
219D
330
1E
100
AcDbEntity
  8
3
100
AcDbLine
 10
4.016732283464565
 20
4.887795275590551
 30
0.0
 11
3.371062992125984
 21
4.887795275590551
 31
0.0
  0
LINE
  5
21AD
330
1E
100
AcDbEntity
  8
3
100
AcDbLine
 10
4.841535433070865
 20
4.027559055118111
 30
0.0
 11
4.847440944881889
 21
4.013779527559055
 31
0.0
  0
LINE
  5
21AE
330
1E
100
AcDbEntity
  8
3
100
AcDbLine
 10
4.847440944881889
 20
4.013779527559055
 30
0.0
 11
4.861220472440943
 21
4.007874015748031
 31
0.0
  0
LINE
  5
21D9
330
1E
100
AcDbEntity
  8
3
100
AcDbLine
 10
5.158464566929132
 20
4.824803149606299
 30
0.0
 11
5.1505905511811
 21
4.824803149606299
 31
0.0
  0
LINE
  5
2202
330
1E
100
AcDbEntity
  8
3
100
AcDbLine
 10
8.170275590551181
 20
7.828740157480314
 30
0.0
 11
8.125
 21
7.828740157480314
 31
0.0
  0
LINE
  5
2203
330
1E
100
AcDbEntity
  8
3
100
AcDbLine
 10
8.687992125984251
 20
9.076771653543307
 30
0.0
 11
8.703740157480314
 21
9.076771653543307
 31
0.0
  0
LINE
  5
2204
330
1E
100
AcDbEntity
  8
3
100
AcDbLine
 10
8.125
 20
10.49212598425196
 30
0.0
 11
8.170275590551181
 21
10.49409448818897
 31
0.0
  0
LINE
  5
2205
330
1E
100
AcDbEntity
  8
3
100
AcDbLine
 10
8.687992125984251
 20
9.25984251968504
 30
0.0
 11
8.703740157480314
 21
9.25984251968504
 31
0.0
  0
LINE
  5
2206
330
1E
100
AcDbEntity
  8
3
100
AcDbLine
 10
8.98523622047244
 20
9.494094488188977
 30
0.0
 11
8.504921259842518
 21
9.50984251968504
 31
0.0
  0
LINE
  5
2207
330
1E
100
AcDbEntity
  8
3
100
AcDbLine
 10
8.187992125984251
 20
7.824803149606299
 30
0.0
 11
8.504921259842518
 21
7.812992125984251
 31
0.0
  0
LINE
  5
2208
330
1E
100
AcDbEntity
  8
3
100
AcDbLine
 10
8.504921259842518
 20
10.67913385826771
 30
0.0
 11
8.504921259842518
 21
10.50787401574803
 31
0.0
  0
LINE
  5
2209
330
1E
100
AcDbEntity
  8
3
100
AcDbLine
 10
8.504921259842518
 20
7.643700787401574
 30
0.0
 11
8.187992125984251
 21
7.653543307086614
 31
0.0
  0
LINE
  5
220A
330
1E
100
AcDbEntity
  8
3
100
AcDbLine
 10
8.703740157480314
 20
9.16732283464567
 30
0.0
 11
8.703740157480314
 21
9.153543307086614
 31
0.0
  0
LINE
  5
220B
330
1E
100
AcDbEntity
  8
3
100
AcDbLine
 10
8.125
 20
10.49212598425196
 30
0.0
 11
8.125
 21
7.828740157480314
 31
0.0
  0
LINE
  5
220C
330
1E
100
AcDbEntity
  8
3
100
AcDbLine
 10
8.703740157480314
 20
9.076771653543307
 30
0.0
 11
8.703740157480314
 21
9.061023622047244
 31
0.0
  0
LINE
  5
220D
330
1E
100
AcDbEntity
  8
3
100
AcDbLine
 10
8.125
 20
7.738188976377951
 30
0.0
 11
8.170275590551181
 21
7.736220472440944
 31
0.0
  0
LINE
  5
2213
330
1E
100
AcDbEntity
  8
3
100
AcDbLine
 10
8.187992125984251
 20
10.49803149606299
 30
0.0
 11
8.187992125984251
 21
7.824803149606299
 31
0.0
  0
LINE
  5
2214
330
1E
100
AcDbEntity
  8
3
100
AcDbLine
 10
8.105314960629922
 20
7.757874015748033
 30
0.0
 11
8.105314960629922
 21
7.828740157480314
 31
0.0
  0
LINE
  5
2215
330
1E
100
AcDbEntity
  8
3
100
AcDbLine
 10
8.98523622047244
 20
8.826771653543307
 30
0.0
 11
8.504921259842518
 21
8.811023622047244
 31
0.0
  0
LINE
  5
2216
330
1E
100
AcDbEntity
  8
3
100
AcDbLine
 10
8.504921259842518
 20
9.238188976377951
 30
0.0
 11
8.687992125984251
 21
9.244094488188977
 31
0.0
  0
LINE
  5
2217
330
1E
100
AcDbEntity
  8
3
100
AcDbLine
 10
8.504921259842518
 20
10.50787401574803
 30
0.0
 11
8.187992125984251
 21
10.49803149606299
 31
0.0
  0
LINE
  5
2218
330
1E
100
AcDbEntity
  8
3
100
AcDbLine
 10
8.187992125984251
 20
10.66732283464567
 30
0.0
 11
8.504921259842518
 21
10.67913385826771
 31
0.0
  0
LINE
  5
2219
330
1E
100
AcDbEntity
  8
3
100
AcDbLine
 10
8.504921259842518
 20
7.812992125984251
 30
0.0
 11
8.504921259842518
 21
7.643700787401574
 31
0.0
  0
LINE
  5
221A
330
1E
100
AcDbEntity
  8
3
100
AcDbLine
 10
8.187992125984251
 20
10.49803149606299
 30
0.0
 11
8.170275590551181
 21
10.49803149606299
 31
0.0
  0
LINE
  5
221B
330
1E
100
AcDbEntity
  8
3
100
AcDbLine
 10
8.686023622047244
 20
9.16732283464567
 30
0.0
 11
8.504921259842518
 21
9.161417322834644
 31
0.0
  0
LINE
  5
221C
330
1E
100
AcDbEntity
  8
3
100
AcDbLine
 10
8.105314960629922
 20
10.49212598425196
 30
0.0
 11
8.105314960629922
 21
10.56496062992126
 31
0.0
  0
LINE
  5
221D
330
1E
100
AcDbEntity
  8
3
100
AcDbLine
 10
8.98523622047244
 20
9.269685039370077
 30
0.0
 11
8.98523622047244
 21
9.494094488188977
 31
0.0
  0
LINE
  5
221E
330
1E
100
AcDbEntity
  8
3
100
AcDbLine
 10
8.687992125984251
 20
9.061023622047244
 30
0.0
 11
8.703740157480314
 21
9.061023622047244
 31
0.0
  0
LINE
  5
221F
330
1E
100
AcDbEntity
  8
3
100
AcDbLine
 10
8.686023622047244
 20
9.041338582677166
 30
0.0
 11
8.504921259842518
 21
9.03543307086614
 31
0.0
  0
LINE
  5
2220
330
1E
100
AcDbEntity
  8
3
100
AcDbLine
 10
8.687992125984251
 20
9.244094488188977
 30
0.0
 11
8.703740157480314
 21
9.244094488188977
 31
0.0
  0
LINE
  5
2221
330
1E
100
AcDbEntity
  8
3
100
AcDbLine
 10
8.170275590551181
 20
10.58464566929133
 30
0.0
 11
8.125
 21
10.58464566929133
 31
0.0
  0
LINE
  5
2222
330
1E
100
AcDbEntity
  8
3
100
AcDbLine
 10
8.703740157480314
 20
9.153543307086614
 30
0.0
 11
8.703740157480314
 21
9.076771653543307
 31
0.0
  0
LINE
  5
2223
330
1E
100
AcDbEntity
  8
3
100
AcDbLine
 10
8.170275590551181
 20
7.824803149606299
 30
0.0
 11
8.170275590551181
 21
10.49803149606299
 31
0.0
  0
LINE
  5
2224
330
1E
100
AcDbEntity
  8
3
100
AcDbLine
 10
8.98523622047244
 20
9.051181102362203
 30
0.0
 11
8.703740157480314
 21
9.061023622047244
 31
0.0
  0
LINE
  5
2225
330
1E
100
AcDbEntity
  8
3
100
AcDbLine
 10
8.687992125984251
 20
9.25984251968504
 30
0.0
 11
8.504921259842518
 21
9.265748031496062
 31
0.0
  0
LINE
  5
2226
330
1E
100
AcDbEntity
  8
3
100
AcDbLine
 10
8.504921259842518
 20
9.055118110236222
 30
0.0
 11
8.687992125984251
 21
9.061023622047244
 31
0.0
  0
LINE
  5
2227
330
1E
100
AcDbEntity
  8
3
100
AcDbLine
 10
8.170275590551181
 20
7.673228346456692
 30
0.0
 11
8.170275590551181
 21
7.824803149606299
 31
0.0
  0
LINE
  5
2228
330
1E
100
AcDbEntity
  8
3
100
AcDbLine
 10
8.170275590551181
 20
10.49803149606299
 30
0.0
 11
8.170275590551181
 21
10.64763779527558
 31
0.0
  0
LINE
  5
2229
330
1E
100
AcDbEntity
  8
3
100
AcDbLine
 10
8.170275590551181
 20
7.824803149606299
 30
0.0
 11
8.170275590551181
 21
7.828740157480314
 31
0.0
  0
LINE
  5
222A
330
1E
100
AcDbEntity
  8
3
100
AcDbLine
 10
9.004921259842518
 20
9.031496062992125
 30
0.0
 11
9.004921259842518
 21
8.848425196850392
 31
0.0
  0
LINE
  5
222B
330
1E
100
AcDbEntity
  8
3
100
AcDbLine
 10
8.105314960629922
 20
10.49212598425196
 30
0.0
 11
8.125
 21
10.49212598425196
 31
0.0
  0
LINE
  5
222C
330
1E
100
AcDbEntity
  8
3
100
AcDbLine
 10
8.504921259842518
 20
7.812992125984251
 30
0.0
 11
8.504921259842518
 21
10.50787401574803
 31
0.0
  0
LINE
  5
222D
330
1E
100
AcDbEntity
  8
3
100
AcDbLine
 10
8.504921259842518
 20
9.28543307086614
 30
0.0
 11
8.686023622047244
 21
9.279527559055118
 31
0.0
  0
LINE
  5
222E
330
1E
100
AcDbEntity
  8
3
100
AcDbLine
 10
8.703740157480314
 20
9.25984251968504
 30
0.0
 11
8.703740157480314
 21
9.244094488188977
 31
0.0
  0
LINE
  5
222F
330
1E
100
AcDbEntity
  8
3
100
AcDbLine
 10
8.170275590551181
 20
10.49409448818897
 30
0.0
 11
8.170275590551181
 21
10.49803149606299
 31
0.0
  0
LINE
  5
2230
330
1E
100
AcDbEntity
  8
3
100
AcDbLine
 10
8.504921259842518
 20
9.102362204724411
 30
0.0
 11
8.686023622047244
 21
9.096456692913385
 31
0.0
  0
LINE
  5
2231
330
1E
100
AcDbEntity
  8
3
100
AcDbLine
 10
8.703740157480314
 20
9.25984251968504
 30
0.0
 11
8.98523622047244
 21
9.269685039370077
 31
0.0
  0
LINE
  5
2232
330
1E
100
AcDbEntity
  8
3
100
AcDbLine
 10
8.98523622047244
 20
8.826771653543307
 30
0.0
 11
8.98523622047244
 21
9.051181102362203
 31
0.0
  0
LINE
  5
2233
330
1E
100
AcDbEntity
  8
3
100
AcDbLine
 10
8.105314960629922
 20
7.828740157480314
 30
0.0
 11
8.105314960629922
 21
10.49212598425196
 31
0.0
  0
LINE
  5
2234
330
1E
100
AcDbEntity
  8
3
100
AcDbLine
 10
8.686023622047244
 20
9.224409448818896
 30
0.0
 11
8.504921259842518
 21
9.218503937007874
 31
0.0
  0
LINE
  5
2235
330
1E
100
AcDbEntity
  8
3
100
AcDbLine
 10
9.004921259842518
 20
9.474409448818896
 30
0.0
 11
9.004921259842518
 21
9.291338582677166
 31
0.0
  0
LINE
  5
2236
330
1E
100
AcDbEntity
  8
3
100
AcDbLine
 10
8.686023622047244
 20
9.153543307086614
 30
0.0
 11
8.686023622047244
 21
9.16732283464567
 31
0.0
  0
LINE
  5
2237
330
1E
100
AcDbEntity
  8
3
100
AcDbLine
 10
8.187992125984251
 20
7.824803149606299
 30
0.0
 11
8.170275590551181
 21
7.824803149606299
 31
0.0
  0
LINE
  5
2238
330
1E
100
AcDbEntity
  8
3
100
AcDbLine
 10
8.686023622047244
 20
9.16732283464567
 30
0.0
 11
8.703740157480314
 21
9.16732283464567
 31
0.0
  0
LINE
  5
2239
330
1E
100
AcDbEntity
  8
3
100
AcDbLine
 10
8.703740157480314
 20
9.244094488188977
 30
0.0
 11
8.703740157480314
 21
9.16732283464567
 31
0.0
  0
LINE
  5
223A
330
1E
100
AcDbEntity
  8
3
100
AcDbLine
 10
8.105314960629922
 20
7.828740157480314
 30
0.0
 11
8.125
 21
7.828740157480314
 31
0.0
  0
LINE
  5
223B
330
1E
100
AcDbEntity
  8
3
100
AcDbLine
 10
8.687992125984251
 20
9.076771653543307
 30
0.0
 11
8.504921259842518
 21
9.082677165354329
 31
0.0
  0
LINE
  5
223C
330
1E
100
AcDbEntity
  8
3
100
AcDbLine
 10
8.687992125984251
 20
9.244094488188977
 30
0.0
 11
8.687992125984251
 21
9.25984251968504
 31
0.0
  0
LINE
  5
223D
330
1E
100
AcDbEntity
  8
3
100
AcDbLine
 10
8.687992125984251
 20
9.061023622047244
 30
0.0
 11
8.687992125984251
 21
9.076771653543307
 31
0.0
  0
LINE
  5
2243
330
1E
100
AcDbEntity
  8
3
100
AcDbLine
 10
9.004921259842518
 20
9.031496062992125
 30
0.0
 11
8.999015748031496
 21
9.045275590551181
 31
0.0
  0
LINE
  5
2244
330
1E
100
AcDbEntity
  8
3
100
AcDbLine
 10
8.999015748031496
 20
9.045275590551181
 30
0.0
 11
8.98523622047244
 21
9.051181102362203
 31
0.0
  0
LINE
  5
2293
330
1E
100
AcDbEntity
  8
3
100
AcDbLine
 10
8.187992125984251
 20
10.66732283464567
 30
0.0
 11
8.187992125984251
 21
10.65944881889763
 31
0.0
  0
LINE
  5
22B5
330
1E
100
AcDbEntity
  8
3
100
AcDbLine
 10
4.571850393700786
 20
8.055118110236222
 30
0.0
 11
4.571850393700786
 21
8.039370078740159
 31
0.0
  0
LINE
  5
22B6
330
1E
100
AcDbEntity
  8
3
100
AcDbLine
 10
4.093503937007873
 20
8.462598425196851
 30
0.0
 11
4.09547244094488
 21
8.421259842519685
 31
0.0
  0
LINE
  5
22B7
330
1E
100
AcDbEntity
  8
3
100
AcDbLine
 10
3.760826771653541
 20
8.055118110236222
 30
0.0
 11
3.760826771653541
 21
8.039370078740159
 31
0.0
  0
LINE
  5
22B8
330
1E
100
AcDbEntity
  8
3
100
AcDbLine
 10
4.571850393700786
 20
8.055118110236222
 30
0.0
 11
4.396653543307086
 21
8.055118110236222
 31
0.0
  0
LINE
  5
22B9
330
1E
100
AcDbEntity
  8
3
100
AcDbLine
 10
4.947834645669289
 20
8.61023622047244
 30
0.0
 11
4.947834645669289
 21
8.181102362204725
 31
0.0
  0
LINE
  5
22BA
330
1E
100
AcDbEntity
  8
3
100
AcDbLine
 10
4.947834645669289
 20
9.188976377952755
 30
0.0
 11
4.947834645669289
 21
8.61023622047244
 31
0.0
  0
LINE
  5
22BB
330
1E
100
AcDbEntity
  8
3
100
AcDbLine
 10
3.384842519685038
 20
8.181102362204725
 30
0.0
 11
3.384842519685038
 21
8.61023622047244
 31
0.0
  0
LINE
  5
22BC
330
1E
100
AcDbEntity
  8
3
100
AcDbLine
 10
4.729330708661415
 20
8.466535433070866
 30
0.0
 11
4.729330708661415
 21
8.421259842519685
 31
0.0
  0
LINE
  5
22BD
330
1E
100
AcDbEntity
  8
3
100
AcDbLine
 10
3.603346456692912
 20
8.466535433070866
 30
0.0
 11
4.09547244094488
 21
8.466535433070866
 31
0.0
  0
LINE
  5
22BE
330
1E
100
AcDbEntity
  8
3
100
AcDbLine
 10
3.760826771653541
 20
8.039370078740159
 30
0.0
 11
3.760826771653541
 21
8.055118110236222
 31
0.0
  0
LINE
  5
22BF
330
1E
100
AcDbEntity
  8
3
100
AcDbLine
 10
3.603346456692912
 20
8.466535433070866
 30
0.0
 11
3.603346456692912
 21
8.421259842519685
 31
0.0
  0
LINE
  5
22C0
330
1E
100
AcDbEntity
  8
3
100
AcDbLine
 10
4.369094488188975
 20
7.852362204724411
 30
0.0
 11
4.374999999999999
 21
7.940944881889762
 31
0.0
  0
LINE
  5
22C1
330
1E
100
AcDbEntity
  8
3
100
AcDbLine
 10
3.536417322834645
 20
8.039370078740159
 30
0.0
 11
4.796259842519684
 21
8.039370078740159
 31
0.0
  0
LINE
  5
22C2
330
1E
100
AcDbEntity
  8
3
100
AcDbLine
 10
3.603346456692912
 20
8.462598425196851
 30
0.0
 11
3.603346456692912
 21
8.421259842519685
 31
0.0
  0
LINE
  5
22C3
330
1E
100
AcDbEntity
  8
3
100
AcDbLine
 10
4.09547244094488
 20
8.466535433070866
 30
0.0
 11
4.09547244094488
 21
8.421259842519685
 31
0.0
  0
LINE
  5
22C4
330
1E
100
AcDbEntity
  8
3
100
AcDbLine
 10
4.237204724409447
 20
8.421259842519685
 30
0.0
 11
4.09547244094488
 21
8.421259842519685
 31
0.0
  0
LINE
  5
22C5
330
1E
100
AcDbEntity
  8
3
100
AcDbLine
 10
3.963582677165352
 20
7.852362204724411
 30
0.0
 11
3.95767716535433
 21
7.940944881889762
 31
0.0
  0
LINE
  5
22C6
330
1E
100
AcDbEntity
  8
3
100
AcDbLine
 10
3.936023622047243
 20
8.055118110236222
 30
0.0
 11
3.936023622047243
 21
8.039370078740159
 31
0.0
  0
LINE
  5
22C7
330
1E
100
AcDbEntity
  8
3
100
AcDbLine
 10
3.95767716535433
 20
7.940944881889762
 30
0.0
 11
3.739173228346456
 21
7.940944881889762
 31
0.0
  0
LINE
  5
22C8
330
1E
100
AcDbEntity
  8
3
100
AcDbLine
 10
4.796259842519684
 20
8.084645669291337
 30
0.0
 11
4.796259842519684
 21
8.049212598425196
 31
0.0
  0
LINE
  5
22C9
330
1E
100
AcDbEntity
  8
3
100
AcDbLine
 10
3.534448818897637
 20
8.084645669291337
 30
0.0
 11
3.534448818897637
 21
8.421259842519685
 31
0.0
  0
LINE
  5
22CA
330
1E
100
AcDbEntity
  8
3
100
AcDbLine
 10
4.239173228346456
 20
8.462598425196851
 30
0.0
 11
4.237204724409447
 21
8.421259842519685
 31
0.0
  0
LINE
  5
22CB
330
1E
100
AcDbEntity
  8
3
100
AcDbLine
 10
3.384842519685038
 20
7.852362204724411
 30
0.0
 11
3.735236220472439
 21
7.852362204724411
 31
0.0
  0
LINE
  5
22CC
330
1E
100
AcDbEntity
  8
3
100
AcDbLine
 10
3.384842519685038
 20
8.61023622047244
 30
0.0
 11
3.384842519685038
 21
9.188976377952755
 31
0.0
  0
LINE
  5
22CD
330
1E
100
AcDbEntity
  8
3
100
AcDbLine
 10
4.796259842519684
 20
8.421259842519685
 30
0.0
 11
4.796259842519684
 21
8.084645669291337
 31
0.0
  0
LINE
  5
22CE
330
1E
100
AcDbEntity
  8
3
100
AcDbLine
 10
4.947834645669289
 20
8.181102362204725
 30
0.0
 11
4.947834645669289
 21
7.852362204724411
 31
0.0
  0
LINE
  5
22CF
330
1E
100
AcDbEntity
  8
3
100
AcDbLine
 10
4.396653543307086
 20
8.055118110236222
 30
0.0
 11
4.396653543307086
 21
8.039370078740159
 31
0.0
  0
LINE
  5
22D0
330
1E
100
AcDbEntity
  8
3
100
AcDbLine
 10
4.729330708661415
 20
8.421259842519685
 30
0.0
 11
4.796259842519684
 21
8.421259842519685
 31
0.0
  0
LINE
  5
22D1
330
1E
100
AcDbEntity
  8
3
100
AcDbLine
 10
3.477362204724408
 20
8.6751968503937
 30
0.0
 11
4.855314960629921
 21
8.6751968503937
 31
0.0
  0
LINE
  5
22D2
330
1E
100
AcDbEntity
  8
3
100
AcDbLine
 10
3.603346456692912
 20
8.421259842519685
 30
0.0
 11
3.534448818897637
 21
8.421259842519685
 31
0.0
  0
LINE
  5
22D3
330
1E
100
AcDbEntity
  8
3
100
AcDbLine
 10
3.760826771653541
 20
8.055118110236222
 30
0.0
 11
3.936023622047243
 21
8.055118110236222
 31
0.0
  0
LINE
  5
22D4
330
1E
100
AcDbEntity
  8
3
100
AcDbLine
 10
3.477362204724408
 20
8.049212598425196
 30
0.0
 11
3.534448818897637
 21
8.049212598425196
 31
0.0
  0
LINE
  5
22D5
330
1E
100
AcDbEntity
  8
3
100
AcDbLine
 10
4.597440944881889
 20
7.852362204724411
 30
0.0
 11
4.591535433070865
 21
7.940944881889762
 31
0.0
  0
LINE
  5
22D6
330
1E
100
AcDbEntity
  8
3
100
AcDbLine
 10
3.534448818897637
 20
8.049212598425196
 30
0.0
 11
3.536417322834645
 21
8.039370078740159
 31
0.0
  0
LINE
  5
22D7
330
1E
100
AcDbEntity
  8
3
100
AcDbLine
 10
4.396653543307086
 20
8.055118110236222
 30
0.0
 11
4.571850393700786
 21
8.055118110236222
 31
0.0
  0
LINE
  5
22D8
330
1E
100
AcDbEntity
  8
3
100
AcDbLine
 10
4.729330708661415
 20
8.462598425196851
 30
0.0
 11
4.729330708661415
 21
8.421259842519685
 31
0.0
  0
LINE
  5
22D9
330
1E
100
AcDbEntity
  8
3
100
AcDbLine
 10
3.477362204724408
 20
8.543307086614174
 30
0.0
 11
3.477362204724408
 21
8.049212598425196
 31
0.0
  0
LINE
  5
22DA
330
1E
100
AcDbEntity
  8
3
100
AcDbLine
 10
4.571850393700786
 20
8.039370078740159
 30
0.0
 11
4.571850393700786
 21
8.055118110236222
 31
0.0
  0
LINE
  5
22DB
330
1E
100
AcDbEntity
  8
3
100
AcDbLine
 10
4.796259842519684
 20
8.049212598425196
 30
0.0
 11
4.796259842519684
 21
8.039370078740159
 31
0.0
  0
LINE
  5
22DC
330
1E
100
AcDbEntity
  8
3
100
AcDbLine
 10
4.855314960629921
 20
8.049212598425196
 30
0.0
 11
4.796259842519684
 21
8.049212598425196
 31
0.0
  0
LINE
  5
22DD
330
1E
100
AcDbEntity
  8
3
100
AcDbLine
 10
4.396653543307086
 20
8.039370078740159
 30
0.0
 11
4.396653543307086
 21
8.055118110236222
 31
0.0
  0
LINE
  5
22DE
330
1E
100
AcDbEntity
  8
3
100
AcDbLine
 10
3.534448818897637
 20
8.084645669291337
 30
0.0
 11
3.534448818897637
 21
8.049212598425196
 31
0.0
  0
LINE
  5
22DF
330
1E
100
AcDbEntity
  8
3
100
AcDbLine
 10
3.963582677165352
 20
7.852362204724411
 30
0.0
 11
4.369094488188975
 21
7.852362204724411
 31
0.0
  0
LINE
  5
22E0
330
1E
100
AcDbEntity
  8
3
100
AcDbLine
 10
3.735236220472439
 20
7.852362204724411
 30
0.0
 11
3.739173228346456
 21
7.940944881889762
 31
0.0
  0
LINE
  5
22E1
330
1E
100
AcDbEntity
  8
3
100
AcDbLine
 10
4.237204724409447
 20
8.466535433070866
 30
0.0
 11
4.237204724409447
 21
8.421259842519685
 31
0.0
  0
LINE
  5
22E2
330
1E
100
AcDbEntity
  8
3
100
AcDbLine
 10
4.855314960629921
 20
8.543307086614174
 30
0.0
 11
3.477362204724408
 21
8.543307086614174
 31
0.0
  0
LINE
  5
22E3
330
1E
100
AcDbEntity
  8
3
100
AcDbLine
 10
3.936023622047243
 20
8.055118110236222
 30
0.0
 11
3.760826771653541
 21
8.055118110236222
 31
0.0
  0
LINE
  5
22E4
330
1E
100
AcDbEntity
  8
3
100
AcDbLine
 10
3.384842519685038
 20
7.852362204724411
 30
0.0
 11
3.384842519685038
 21
8.181102362204725
 31
0.0
  0
LINE
  5
22E5
330
1E
100
AcDbEntity
  8
3
100
AcDbLine
 10
3.936023622047243
 20
8.039370078740159
 30
0.0
 11
3.936023622047243
 21
8.055118110236222
 31
0.0
  0
LINE
  5
22E6
330
1E
100
AcDbEntity
  8
3
100
AcDbLine
 10
4.947834645669289
 20
7.852362204724411
 30
0.0
 11
4.597440944881889
 21
7.852362204724411
 31
0.0
  0
LINE
  5
22E7
330
1E
100
AcDbEntity
  8
3
100
AcDbLine
 10
4.374999999999999
 20
7.940944881889762
 30
0.0
 11
4.591535433070865
 21
7.940944881889762
 31
0.0
  0
LINE
  5
22E8
330
1E
100
AcDbEntity
  8
3
100
AcDbLine
 10
4.237204724409447
 20
8.466535433070866
 30
0.0
 11
4.729330708661415
 21
8.466535433070866
 31
0.0
  0
LINE
  5
22E9
330
1E
100
AcDbEntity
  8
3
100
AcDbLine
 10
3.477362204724408
 20
9.188976377952755
 30
0.0
 11
3.477362204724408
 21
8.6751968503937
 31
0.0
  0
LINE
  5
22EA
330
1E
100
AcDbEntity
  8
3
100
AcDbLine
 10
4.396653543307086
 20
8.055118110236222
 30
0.0
 11
4.396653543307086
 21
8.057086614173229
 31
0.0
  0
LINE
  5
22EB
330
1E
100
AcDbEntity
  8
3
100
AcDbLine
 10
3.936023622047243
 20
8.055118110236222
 30
0.0
 11
3.936023622047243
 21
8.057086614173229
 31
0.0
  0
LINE
  5
22EC
330
1E
100
AcDbEntity
  8
3
100
AcDbLine
 10
3.760826771653541
 20
8.055118110236222
 30
0.0
 11
3.760826771653541
 21
8.057086614173229
 31
0.0
  0
LINE
  5
22ED
330
1E
100
AcDbEntity
  8
3
100
AcDbLine
 10
4.571850393700786
 20
8.055118110236222
 30
0.0
 11
4.571850393700786
 21
8.057086614173229
 31
0.0
  0
LINE
  5
22F4
330
1E
100
AcDbEntity
  8
3
100
AcDbLine
 10
3.441929133858267
 20
8.549212598425196
 30
0.0
 11
3.477362204724408
 21
8.543307086614174
 31
0.0
  0
LINE
  5
2303
330
1E
100
AcDbEntity
  8
3
100
AcDbLine
 10
4.855314960629921
 20
8.543307086614174
 30
0.0
 11
4.890748031496062
 21
8.549212598425196
 31
0.0
  0
LINE
  5
2319
330
1E
100
AcDbEntity
  8
3
100
AcDbLine
 10
3.449803149606299
 20
8.055118110236222
 30
0.0
 11
3.477362204724408
 21
8.049212598425196
 31
0.0
  0
LINE
  5
231A
330
1E
100
AcDbEntity
  8
3
100
AcDbLine
 10
4.855314960629921
 20
9.188976377952755
 30
0.0
 11
4.855314960629921
 21
8.6751968503937
 31
0.0
  0
LINE
  5
231B
330
1E
100
AcDbEntity
  8
3
100
AcDbLine
 10
4.855314960629921
 20
8.543307086614174
 30
0.0
 11
4.855314960629921
 21
8.049212598425196
 31
0.0
  0
LINE
  5
2322
330
1E
100
AcDbEntity
  8
3
100
AcDbLine
 10
7.609251968503936
 20
8.6751968503937
 30
0.0
 11
8.105314960629922
 21
9.188976377952755
 31
0.0
  0
LINE
  5
232E
330
1E
100
AcDbEntity
  8
3
100
AcDbLine
 10
4.292322834645669
 20
4.968503937007874
 30
0.0
 11
4.292322834645669
 21
5.047244094488188
 31
0.0
  0
LINE
  5
232F
330
1E
100
AcDbEntity
  8
3
100
AcDbLine
 10
4.729330708661415
 20
5.236220472440944
 30
0.0
 11
4.729330708661415
 21
5.279527559055118
 31
0.0
  0
LINE
  5
2330
330
1E
100
AcDbEntity
  8
3
100
AcDbLine
 10
4.239173228346456
 20
5.283464566929133
 30
0.0
 11
4.288385826771652
 21
5.283464566929133
 31
0.0
  0
LINE
  5
2331
330
1E
100
AcDbEntity
  8
3
100
AcDbLine
 10
3.689960629921258
 20
4.907480314960629
 30
0.0
 11
3.697834645669289
 21
5.275590551181101
 31
0.0
  0
LINE
  5
2332
330
1E
100
AcDbEntity
  8
3
100
AcDbLine
 10
3.530511811023621
 20
5.214566929133859
 30
0.0
 11
3.530511811023621
 21
4.907480314960629
 31
0.0
  0
LINE
  5
2333
330
1E
100
AcDbEntity
  8
3
100
AcDbLine
 10
4.38287401574803
 20
5.283464566929133
 30
0.0
 11
4.390748031496062
 21
4.954724409448818
 31
0.0
  0
LINE
  5
2334
330
1E
100
AcDbEntity
  8
3
100
AcDbLine
 10
4.237204724409447
 20
5.279527559055118
 30
0.0
 11
4.09547244094488
 21
5.279527559055118
 31
0.0
  0
LINE
  5
2335
330
1E
100
AcDbEntity
  8
3
100
AcDbLine
 10
3.603346456692912
 20
5.283464566929133
 30
0.0
 11
3.603346456692912
 21
5.263779527559055
 31
0.0
  0
LINE
  5
2336
330
1E
100
AcDbEntity
  8
3
100
AcDbLine
 10
4.093503937007873
 20
5.214566929133859
 30
0.0
 11
4.237204724409447
 21
5.214566929133859
 31
0.0
  0
LINE
  5
2337
330
1E
100
AcDbEntity
  8
3
100
AcDbLine
 10
3.65255905511811
 20
5.283464566929133
 30
0.0
 11
3.656496062992125
 21
4.968503937007874
 31
0.0
  0
LINE
  5
2338
330
1E
100
AcDbEntity
  8
3
100
AcDbLine
 10
4.239173228346456
 20
5.283464566929133
 30
0.0
 11
4.239173228346456
 21
5.236220472440944
 31
0.0
  0
LINE
  5
2339
330
1E
100
AcDbEntity
  8
3
100
AcDbLine
 10
3.697834645669289
 20
5.275590551181101
 30
0.0
 11
3.695866141732282
 21
5.200787401574803
 31
0.0
  0
LINE
  5
233A
330
1E
100
AcDbEntity
  8
3
100
AcDbLine
 10
4.006889763779526
 20
5.263779527559055
 30
0.0
 11
4.006889763779526
 21
5.283464566929133
 31
0.0
  0
LINE
  5
233B
330
1E
100
AcDbEntity
  8
3
100
AcDbLine
 10
4.855314960629921
 20
5.431102362204724
 30
0.0
 11
3.477362204724408
 21
5.431102362204724
 31
0.0
  0
LINE
  5
233C
330
1E
100
AcDbEntity
  8
3
100
AcDbLine
 10
4.323818897637795
 20
5.283464566929133
 30
0.0
 11
4.321850393700786
 21
5.047244094488188
 31
0.0
  0
LINE
  5
233D
330
1E
100
AcDbEntity
  8
3
100
AcDbLine
 10
4.321850393700786
 20
4.968503937007874
 30
0.0
 11
4.325787401574802
 21
5.283464566929133
 31
0.0
  0
LINE
  5
233E
330
1E
100
AcDbEntity
  8
3
100
AcDbLine
 10
4.237204724409447
 20
5.214566929133859
 30
0.0
 11
4.239173228346456
 21
5.236220472440944
 31
0.0
  0
LINE
  5
233F
330
1E
100
AcDbEntity
  8
3
100
AcDbLine
 10
3.951771653543306
 20
5.283464566929133
 30
0.0
 11
3.943897637795275
 21
4.946850393700787
 31
0.0
  0
LINE
  5
2340
330
1E
100
AcDbEntity
  8
3
100
AcDbLine
 10
3.686023622047243
 20
4.968503937007874
 30
0.0
 11
3.689960629921258
 21
5.283464566929133
 31
0.0
  0
LINE
  5
2341
330
1E
100
AcDbEntity
  8
3
100
AcDbLine
 10
4.006889763779526
 20
5.283464566929133
 30
0.0
 11
4.010826771653541
 21
5.047244094488188
 31
0.0
  0
LINE
  5
2342
330
1E
100
AcDbEntity
  8
3
100
AcDbLine
 10
4.331692913385826
 20
5.200787401574803
 30
0.0
 11
4.333661417322834
 21
5.275590551181101
 31
0.0
  0
LINE
  5
2343
330
1E
100
AcDbEntity
  8
3
100
AcDbLine
 10
4.644685039370078
 20
4.968503937007874
 30
0.0
 11
4.640748031496062
 21
5.283464566929133
 31
0.0
  0
LINE
  5
2344
330
1E
100
AcDbEntity
  8
3
100
AcDbLine
 10
4.585629921259841
 20
5.283464566929133
 30
0.0
 11
4.585629921259841
 21
5.263779527559055
 31
0.0
  0
LINE
  5
2345
330
1E
100
AcDbEntity
  8
3
100
AcDbLine
 10
4.676181102362204
 20
5.047244094488188
 30
0.0
 11
4.678149606299212
 21
5.283464566929133
 31
0.0
  0
LINE
  5
2346
330
1E
100
AcDbEntity
  8
3
100
AcDbLine
 10
3.951771653543306
 20
5.283464566929133
 30
0.0
 11
4.006889763779526
 21
5.283464566929133
 31
0.0
  0
LINE
  5
2347
330
1E
100
AcDbEntity
  8
3
100
AcDbLine
 10
4.676181102362204
 20
4.968503937007874
 30
0.0
 11
4.676181102362204
 21
5.047244094488188
 31
0.0
  0
LINE
  5
2348
330
1E
100
AcDbEntity
  8
3
100
AcDbLine
 10
4.796259842519684
 20
5.279527559055118
 30
0.0
 11
4.796259842519684
 21
4.942913385826772
 31
0.0
  0
LINE
  5
2349
330
1E
100
AcDbEntity
  8
3
100
AcDbLine
 10
4.63287401574803
 20
5.275590551181101
 30
0.0
 11
4.636811023622047
 21
5.200787401574803
 31
0.0
  0
LINE
  5
234A
330
1E
100
AcDbEntity
  8
3
100
AcDbLine
 10
4.288385826771652
 20
5.263779527559055
 30
0.0
 11
4.288385826771652
 21
5.283464566929133
 31
0.0
  0
LINE
  5
234B
330
1E
100
AcDbEntity
  8
3
100
AcDbLine
 10
4.802165354330708
 20
5.214566929133859
 30
0.0
 11
4.729330708661415
 21
5.214566929133859
 31
0.0
  0
LINE
  5
234C
330
1E
100
AcDbEntity
  8
3
100
AcDbLine
 10
3.603346456692912
 20
5.214566929133859
 30
0.0
 11
3.603346456692912
 21
5.263779527559055
 31
0.0
  0
LINE
  5
234D
330
1E
100
AcDbEntity
  8
3
100
AcDbLine
 10
3.754921259842519
 20
4.946850393700787
 30
0.0
 11
3.747047244094487
 21
5.283464566929133
 31
0.0
  0
LINE
  5
234E
330
1E
100
AcDbEntity
  8
3
100
AcDbLine
 10
4.306102362204723
 20
4.96259842519685
 30
0.0
 11
4.306102362204723
 21
4.968503937007874
 31
0.0
  0
LINE
  5
234F
330
1E
100
AcDbEntity
  8
3
100
AcDbLine
 10
4.237204724409447
 20
5.326771653543307
 30
0.0
 11
4.237204724409447
 21
5.279527559055118
 31
0.0
  0
LINE
  5
2350
330
1E
100
AcDbEntity
  8
3
100
AcDbLine
 10
4.380905511811023
 20
5.283464566929133
 30
0.0
 11
4.325787401574802
 21
5.283464566929133
 31
0.0
  0
LINE
  5
2351
330
1E
100
AcDbEntity
  8
3
100
AcDbLine
 10
4.09547244094488
 20
5.326771653543307
 30
0.0
 11
4.09547244094488
 21
5.279527559055118
 31
0.0
  0
LINE
  5
2352
330
1E
100
AcDbEntity
  8
3
100
AcDbLine
 10
4.583661417322834
 20
5.283464566929133
 30
0.0
 11
4.57775590551181
 21
4.954724409448818
 31
0.0
  0
LINE
  5
2353
330
1E
100
AcDbEntity
  8
3
100
AcDbLine
 10
3.754921259842519
 20
4.954724409448818
 30
0.0
 11
3.941929133858267
 21
4.954724409448818
 31
0.0
  0
LINE
  5
2354
330
1E
100
AcDbEntity
  8
3
100
AcDbLine
 10
3.603346456692912
 20
5.326771653543307
 30
0.0
 11
3.603346456692912
 21
5.279527559055118
 31
0.0
  0
LINE
  5
2355
330
1E
100
AcDbEntity
  8
3
100
AcDbLine
 10
4.333661417322834
 20
5.275590551181101
 30
0.0
 11
4.323818897637795
 21
4.907480314960629
 31
0.0
  0
LINE
  5
2356
330
1E
100
AcDbEntity
  8
3
100
AcDbLine
 10
4.676181102362204
 20
4.968503937007874
 30
0.0
 11
4.646653543307086
 21
4.968503937007874
 31
0.0
  0
LINE
  5
2357
330
1E
100
AcDbEntity
  8
3
100
AcDbLine
 10
4.093503937007873
 20
5.214566929133859
 30
0.0
 11
4.093503937007873
 21
5.236220472440944
 31
0.0
  0
LINE
  5
2358
330
1E
100
AcDbEntity
  8
3
100
AcDbLine
 10
4.729330708661415
 20
5.279527559055118
 30
0.0
 11
4.796259842519684
 21
5.279527559055118
 31
0.0
  0
LINE
  5
2359
330
1E
100
AcDbEntity
  8
3
100
AcDbLine
 10
4.660433070866141
 20
4.96259842519685
 30
0.0
 11
4.660433070866141
 21
4.968503937007874
 31
0.0
  0
LINE
  5
235A
330
1E
100
AcDbEntity
  8
3
100
AcDbLine
 10
3.656496062992125
 20
4.968503937007874
 30
0.0
 11
3.656496062992125
 21
5.047244094488188
 31
0.0
  0
LINE
  5
235B
330
1E
100
AcDbEntity
  8
3
100
AcDbLine
 10
4.239173228346456
 20
5.283464566929133
 30
0.0
 11
4.237204724409447
 21
5.263779527559055
 31
0.0
  0
LINE
  5
235C
330
1E
100
AcDbEntity
  8
3
100
AcDbLine
 10
4.044291338582676
 20
5.263779527559055
 30
0.0
 11
4.044291338582676
 21
5.283464566929133
 31
0.0
  0
LINE
  5
235D
330
1E
100
AcDbEntity
  8
3
100
AcDbLine
 10
4.010826771653541
 20
4.968503937007874
 30
0.0
 11
4.006889763779526
 21
5.283464566929133
 31
0.0
  0
LINE
  5
235E
330
1E
100
AcDbEntity
  8
3
100
AcDbLine
 10
4.093503937007873
 20
5.263779527559055
 30
0.0
 11
4.093503937007873
 21
5.283464566929133
 31
0.0
  0
LINE
  5
235F
330
1E
100
AcDbEntity
  8
3
100
AcDbLine
 10
4.646653543307086
 20
4.968503937007874
 30
0.0
 11
4.646653543307086
 21
5.047244094488188
 31
0.0
  0
LINE
  5
2360
330
1E
100
AcDbEntity
  8
3
100
AcDbLine
 10
4.321850393700786
 20
4.968503937007874
 30
0.0
 11
4.292322834645669
 21
4.968503937007874
 31
0.0
  0
LINE
  5
2361
330
1E
100
AcDbEntity
  8
3
100
AcDbLine
 10
4.000984251968502
 20
5.200787401574803
 30
0.0
 11
3.999015748031495
 21
5.275590551181101
 31
0.0
  0
LINE
  5
2362
330
1E
100
AcDbEntity
  8
3
100
AcDbLine
 10
4.636811023622047
 20
5.200787401574803
 30
0.0
 11
4.642716535433069
 21
4.907480314960629
 31
0.0
  0
LINE
  5
2363
330
1E
100
AcDbEntity
  8
3
100
AcDbLine
 10
4.57775590551181
 20
4.954724409448818
 30
0.0
 11
4.390748031496062
 21
4.954724409448818
 31
0.0
  0
LINE
  5
2364
330
1E
100
AcDbEntity
  8
3
100
AcDbLine
 10
4.642716535433069
 20
4.907480314960629
 30
0.0
 11
4.63287401574803
 21
5.275590551181101
 31
0.0
  0
LINE
  5
2365
330
1E
100
AcDbEntity
  8
3
100
AcDbLine
 10
4.292322834645669
 20
4.968503937007874
 30
0.0
 11
4.321850393700786
 21
4.968503937007874
 31
0.0
  0
LINE
  5
2366
330
1E
100
AcDbEntity
  8
3
100
AcDbLine
 10
4.729330708661415
 20
5.236220472440944
 30
0.0
 11
4.729330708661415
 21
5.283464566929133
 31
0.0
  0
LINE
  5
2367
330
1E
100
AcDbEntity
  8
3
100
AcDbLine
 10
3.747047244094487
 20
5.283464566929133
 30
0.0
 11
3.689960629921258
 21
5.283464566929133
 31
0.0
  0
LINE
  5
2368
330
1E
100
AcDbEntity
  8
3
100
AcDbLine
 10
3.536417322834645
 20
5.236220472440944
 30
0.0
 11
3.534448818897637
 21
5.279527559055118
 31
0.0
  0
LINE
  5
2369
330
1E
100
AcDbEntity
  8
3
100
AcDbLine
 10
4.093503937007873
 20
5.236220472440944
 30
0.0
 11
4.09547244094488
 21
5.279527559055118
 31
0.0
  0
LINE
  5
236A
330
1E
100
AcDbEntity
  8
3
100
AcDbLine
 10
3.65255905511811
 20
5.263779527559055
 30
0.0
 11
3.65255905511811
 21
5.283464566929133
 31
0.0
  0
LINE
  5
236B
330
1E
100
AcDbEntity
  8
3
100
AcDbLine
 10
4.239173228346456
 20
5.236220472440944
 30
0.0
 11
4.237204724409447
 21
5.279527559055118
 31
0.0
  0
LINE
  5
236C
330
1E
100
AcDbEntity
  8
3
100
AcDbLine
 10
4.57775590551181
 20
4.917322834645668
 30
0.0
 11
4.388779527559054
 21
4.917322834645668
 31
0.0
  0
LINE
  5
236D
330
1E
100
AcDbEntity
  8
3
100
AcDbLine
 10
3.672244094488188
 20
4.96259842519685
 30
0.0
 11
3.672244094488188
 21
4.968503937007874
 31
0.0
  0
LINE
  5
236E
330
1E
100
AcDbEntity
  8
3
100
AcDbLine
 10
4.380905511811023
 20
5.283464566929133
 30
0.0
 11
4.388779527559054
 21
4.946850393700787
 31
0.0
  0
LINE
  5
236F
330
1E
100
AcDbEntity
  8
3
100
AcDbLine
 10
3.941929133858267
 20
4.917322834645668
 30
0.0
 11
3.941929133858267
 21
4.933070866141731
 31
0.0
  0
LINE
  5
2370
330
1E
100
AcDbEntity
  8
3
100
AcDbLine
 10
4.010826771653541
 20
4.968503937007874
 30
0.0
 11
4.010826771653541
 21
5.047244094488188
 31
0.0
  0
LINE
  5
2371
330
1E
100
AcDbEntity
  8
3
100
AcDbLine
 10
4.585629921259841
 20
5.283464566929133
 30
0.0
 11
4.640748031496062
 21
5.283464566929133
 31
0.0
  0
LINE
  5
2372
330
1E
100
AcDbEntity
  8
3
100
AcDbLine
 10
4.093503937007873
 20
5.214566929133859
 30
0.0
 11
4.093503937007873
 21
5.263779527559055
 31
0.0
  0
LINE
  5
2373
330
1E
100
AcDbEntity
  8
3
100
AcDbLine
 10
4.729330708661415
 20
5.283464566929133
 30
0.0
 11
4.680118110236219
 21
5.283464566929133
 31
0.0
  0
LINE
  5
2374
330
1E
100
AcDbEntity
  8
3
100
AcDbLine
 10
3.695866141732282
 20
5.200787401574803
 30
0.0
 11
3.749015748031495
 21
5.200787401574803
 31
0.0
  0
LINE
  5
2375
330
1E
100
AcDbEntity
  8
3
100
AcDbLine
 10
3.384842519685038
 20
4.907480314960629
 30
0.0
 11
3.384842519685038
 21
5.364173228346457
 31
0.0
  0
LINE
  5
2376
330
1E
100
AcDbEntity
  8
3
100
AcDbLine
 10
4.093503937007873
 20
5.283464566929133
 30
0.0
 11
4.09547244094488
 21
5.326771653543307
 31
0.0
  0
LINE
  5
2377
330
1E
100
AcDbEntity
  8
3
100
AcDbLine
 10
3.603346456692912
 20
5.326771653543307
 30
0.0
 11
4.09547244094488
 21
5.326771653543307
 31
0.0
  0
LINE
  5
2378
330
1E
100
AcDbEntity
  8
3
100
AcDbLine
 10
3.999015748031495
 20
5.275590551181101
 30
0.0
 11
3.949803149606299
 21
5.275590551181101
 31
0.0
  0
LINE
  5
2379
330
1E
100
AcDbEntity
  8
3
100
AcDbLine
 10
4.044291338582676
 20
5.283464566929133
 30
0.0
 11
4.04035433070866
 21
4.968503937007874
 31
0.0
  0
LINE
  5
237A
330
1E
100
AcDbEntity
  8
3
100
AcDbLine
 10
4.288385826771652
 20
5.263779527559055
 30
0.0
 11
4.288385826771652
 21
5.283464566929133
 31
0.0
  0
LINE
  5
237B
330
1E
100
AcDbEntity
  8
3
100
AcDbLine
 10
4.796259842519684
 20
5.236220472440944
 30
0.0
 11
4.796259842519684
 21
4.905511811023622
 31
0.0
  0
LINE
  5
237C
330
1E
100
AcDbEntity
  8
3
100
AcDbLine
 10
4.729330708661415
 20
5.214566929133859
 30
0.0
 11
4.729330708661415
 21
5.263779527559055
 31
0.0
  0
LINE
  5
237D
330
1E
100
AcDbEntity
  8
3
100
AcDbLine
 10
4.855314960629921
 20
5.431102362204724
 30
0.0
 11
4.855314960629921
 21
5.403543307086614
 31
0.0
  0
LINE
  5
237E
330
1E
100
AcDbEntity
  8
3
100
AcDbLine
 10
4.04035433070866
 20
4.968503937007874
 30
0.0
 11
4.010826771653541
 21
4.968503937007874
 31
0.0
  0
LINE
  5
237F
330
1E
100
AcDbEntity
  8
3
100
AcDbLine
 10
3.754921259842519
 20
4.917322834645668
 30
0.0
 11
3.941929133858267
 21
4.917322834645668
 31
0.0
  0
LINE
  5
2380
330
1E
100
AcDbEntity
  8
3
100
AcDbLine
 10
3.689960629921258
 20
5.263779527559055
 30
0.0
 11
3.689960629921258
 21
5.283464566929133
 31
0.0
  0
LINE
  5
2381
330
1E
100
AcDbEntity
  8
3
100
AcDbLine
 10
4.57775590551181
 20
4.933070866141731
 30
0.0
 11
4.388779527559054
 21
4.933070866141731
 31
0.0
  0
LINE
  5
2382
330
1E
100
AcDbEntity
  8
3
100
AcDbLine
 10
3.689960629921258
 20
5.283464566929133
 30
0.0
 11
3.689960629921258
 21
5.263779527559055
 31
0.0
  0
LINE
  5
2383
330
1E
100
AcDbEntity
  8
3
100
AcDbLine
 10
4.04035433070866
 20
5.047244094488188
 30
0.0
 11
4.044291338582676
 21
5.283464566929133
 31
0.0
  0
LINE
  5
2384
330
1E
100
AcDbEntity
  8
3
100
AcDbLine
 10
4.093503937007873
 20
5.283464566929133
 30
0.0
 11
4.044291338582676
 21
5.283464566929133
 31
0.0
  0
LINE
  5
2385
330
1E
100
AcDbEntity
  8
3
100
AcDbLine
 10
4.010826771653541
 20
4.968503937007874
 30
0.0
 11
4.04035433070866
 21
4.968503937007874
 31
0.0
  0
LINE
  5
2386
330
1E
100
AcDbEntity
  8
3
100
AcDbLine
 10
4.008858267716534
 20
4.907480314960629
 30
0.0
 11
4.000984251968502
 21
5.200787401574803
 31
0.0
  0
LINE
  5
2387
330
1E
100
AcDbEntity
  8
3
100
AcDbLine
 10
3.754921259842519
 20
4.933070866141731
 30
0.0
 11
3.941929133858267
 21
4.933070866141731
 31
0.0
  0
LINE
  5
2388
330
1E
100
AcDbEntity
  8
3
100
AcDbLine
 10
4.636811023622047
 20
5.200787401574803
 30
0.0
 11
4.583661417322834
 21
5.200787401574803
 31
0.0
  0
LINE
  5
2389
330
1E
100
AcDbEntity
  8
3
100
AcDbLine
 10
3.603346456692912
 20
5.279527559055118
 30
0.0
 11
3.534448818897637
 21
5.279527559055118
 31
0.0
  0
LINE
  5
238A
330
1E
100
AcDbEntity
  8
3
100
AcDbLine
 10
3.754921259842519
 20
4.944881889763779
 30
0.0
 11
3.756889763779526
 21
4.907480314960629
 31
0.0
  0
LINE
  5
238B
330
1E
100
AcDbEntity
  8
3
100
AcDbLine
 10
4.680118110236219
 20
5.283464566929133
 30
0.0
 11
4.676181102362204
 21
4.968503937007874
 31
0.0
  0
LINE
  5
238C
330
1E
100
AcDbEntity
  8
3
100
AcDbLine
 10
4.38287401574803
 20
5.263779527559055
 30
0.0
 11
4.38287401574803
 21
5.283464566929133
 31
0.0
  0
LINE
  5
238D
330
1E
100
AcDbEntity
  8
3
100
AcDbLine
 10
4.57775590551181
 20
4.944881889763779
 30
0.0
 11
4.575787401574802
 21
4.907480314960629
 31
0.0
  0
LINE
  5
238E
330
1E
100
AcDbEntity
  8
3
100
AcDbLine
 10
4.380905511811023
 20
5.283464566929133
 30
0.0
 11
4.38287401574803
 21
5.263779527559055
 31
0.0
  0
LINE
  5
238F
330
1E
100
AcDbEntity
  8
3
100
AcDbLine
 10
4.044291338582676
 20
5.263779527559055
 30
0.0
 11
4.044291338582676
 21
5.283464566929133
 31
0.0
  0
LINE
  5
2390
330
1E
100
AcDbEntity
  8
3
100
AcDbLine
 10
4.292322834645669
 20
5.047244094488188
 30
0.0
 11
4.288385826771652
 21
5.283464566929133
 31
0.0
  0
LINE
  5
2391
330
1E
100
AcDbEntity
  8
3
100
AcDbLine
 10
4.802165354330708
 20
4.907480314960629
 30
0.0
 11
4.802165354330708
 21
5.214566929133859
 31
0.0
  0
LINE
  5
2392
330
1E
100
AcDbEntity
  8
3
100
AcDbLine
 10
4.006889763779526
 20
5.283464566929133
 30
0.0
 11
4.006889763779526
 21
5.263779527559055
 31
0.0
  0
LINE
  5
2393
330
1E
100
AcDbEntity
  8
3
100
AcDbLine
 10
4.680118110236219
 20
5.263779527559055
 30
0.0
 11
4.680118110236219
 21
5.283464566929133
 31
0.0
  0
LINE
  5
2394
330
1E
100
AcDbEntity
  8
3
100
AcDbLine
 10
3.603346456692912
 20
5.326771653543307
 30
0.0
 11
3.603346456692912
 21
5.283464566929133
 31
0.0
  0
LINE
  5
2395
330
1E
100
AcDbEntity
  8
3
100
AcDbLine
 10
4.947834645669289
 20
5.364173228346457
 30
0.0
 11
4.947834645669289
 21
4.907480314960629
 31
0.0
  0
LINE
  5
2396
330
1E
100
AcDbEntity
  8
3
100
AcDbLine
 10
4.642716535433069
 20
5.283464566929133
 30
0.0
 11
4.646653543307086
 21
5.047244094488188
 31
0.0
  0
LINE
  5
2397
330
1E
100
AcDbEntity
  8
3
100
AcDbLine
 10
4.390748031496062
 20
4.944881889763779
 30
0.0
 11
4.390748031496062
 21
4.907480314960629
 31
0.0
  0
LINE
  5
2398
330
1E
100
AcDbEntity
  8
3
100
AcDbLine
 10
3.747047244094487
 20
5.275590551181101
 30
0.0
 11
3.697834645669289
 21
5.275590551181101
 31
0.0
  0
LINE
  5
2399
330
1E
100
AcDbEntity
  8
3
100
AcDbLine
 10
4.57775590551181
 20
4.946850393700787
 30
0.0
 11
4.585629921259841
 21
5.283464566929133
 31
0.0
  0
LINE
  5
239A
330
1E
100
AcDbEntity
  8
3
100
AcDbLine
 10
3.65255905511811
 20
5.263779527559055
 30
0.0
 11
3.65255905511811
 21
5.283464566929133
 31
0.0
  0
LINE
  5
239B
330
1E
100
AcDbEntity
  8
3
100
AcDbLine
 10
3.941929133858267
 20
4.944881889763779
 30
0.0
 11
3.941929133858267
 21
4.907480314960629
 31
0.0
  0
LINE
  5
239C
330
1E
100
AcDbEntity
  8
3
100
AcDbLine
 10
4.680118110236219
 20
5.263779527559055
 30
0.0
 11
4.680118110236219
 21
5.283464566929133
 31
0.0
  0
LINE
  5
239D
330
1E
100
AcDbEntity
  8
3
100
AcDbLine
 10
4.585629921259841
 20
5.263779527559055
 30
0.0
 11
4.585629921259841
 21
5.283464566929133
 31
0.0
  0
LINE
  5
239E
330
1E
100
AcDbEntity
  8
3
100
AcDbLine
 10
3.530511811023621
 20
5.214566929133859
 30
0.0
 11
3.536417322834645
 21
5.236220472440944
 31
0.0
  0
LINE
  5
239F
330
1E
100
AcDbEntity
  8
3
100
AcDbLine
 10
4.237204724409447
 20
5.263779527559055
 30
0.0
 11
4.288385826771652
 21
5.263779527559055
 31
0.0
  0
LINE
  5
23A0
330
1E
100
AcDbEntity
  8
3
100
AcDbLine
 10
4.325787401574802
 20
5.283464566929133
 30
0.0
 11
4.325787401574802
 21
5.263779527559055
 31
0.0
  0
LINE
  5
23A1
330
1E
100
AcDbEntity
  8
3
100
AcDbLine
 10
3.536417322834645
 20
4.905511811023622
 30
0.0
 11
3.536417322834645
 21
5.236220472440944
 31
0.0
  0
LINE
  5
23A2
330
1E
100
AcDbEntity
  8
3
100
AcDbLine
 10
3.999015748031495
 20
5.275590551181101
 30
0.0
 11
4.006889763779526
 21
4.907480314960629
 31
0.0
  0
LINE
  5
23A3
330
1E
100
AcDbEntity
  8
3
100
AcDbLine
 10
4.729330708661415
 20
5.263779527559055
 30
0.0
 11
4.729330708661415
 21
5.283464566929133
 31
0.0
  0
LINE
  5
23A4
330
1E
100
AcDbEntity
  8
3
100
AcDbLine
 10
4.04035433070866
 20
4.968503937007874
 30
0.0
 11
4.04035433070866
 21
5.047244094488188
 31
0.0
  0
LINE
  5
23A5
330
1E
100
AcDbEntity
  8
3
100
AcDbLine
 10
4.640748031496062
 20
5.283464566929133
 30
0.0
 11
4.642716535433069
 21
5.263779527559055
 31
0.0
  0
LINE
  5
23A6
330
1E
100
AcDbEntity
  8
3
100
AcDbLine
 10
3.603346456692912
 20
5.236220472440944
 30
0.0
 11
3.603346456692912
 21
5.283464566929133
 31
0.0
  0
LINE
  5
23A7
330
1E
100
AcDbEntity
  8
3
100
AcDbLine
 10
4.026574803149606
 20
4.96259842519685
 30
0.0
 11
4.026574803149606
 21
4.968503937007874
 31
0.0
  0
LINE
  5
23A8
330
1E
100
AcDbEntity
  8
3
100
AcDbLine
 10
3.534448818897637
 20
4.942913385826772
 30
0.0
 11
3.534448818897637
 21
5.279527559055118
 31
0.0
  0
LINE
  5
23A9
330
1E
100
AcDbEntity
  8
3
100
AcDbLine
 10
3.656496062992125
 20
5.047244094488188
 30
0.0
 11
3.654527559055117
 21
5.283464566929133
 31
0.0
  0
LINE
  5
23AA
330
1E
100
AcDbEntity
  8
3
100
AcDbLine
 10
4.321850393700786
 20
4.968503937007874
 30
0.0
 11
4.321850393700786
 21
5.047244094488188
 31
0.0
  0
LINE
  5
23AB
330
1E
100
AcDbEntity
  8
3
100
AcDbLine
 10
4.288385826771652
 20
5.283464566929133
 30
0.0
 11
4.292322834645669
 21
4.968503937007874
 31
0.0
  0
LINE
  5
23AC
330
1E
100
AcDbEntity
  8
3
100
AcDbLine
 10
4.642716535433069
 20
5.263779527559055
 30
0.0
 11
4.642716535433069
 21
5.283464566929133
 31
0.0
  0
LINE
  5
23AD
330
1E
100
AcDbEntity
  8
3
100
AcDbLine
 10
4.388779527559054
 20
4.917322834645668
 30
0.0
 11
4.388779527559054
 21
4.933070866141731
 31
0.0
  0
LINE
  5
23AE
330
1E
100
AcDbEntity
  8
3
100
AcDbLine
 10
4.57775590551181
 20
4.917322834645668
 30
0.0
 11
4.57775590551181
 21
4.933070866141731
 31
0.0
  0
LINE
  5
23AF
330
1E
100
AcDbEntity
  8
3
100
AcDbLine
 10
4.093503937007873
 20
5.263779527559055
 30
0.0
 11
4.044291338582676
 21
5.263779527559055
 31
0.0
  0
LINE
  5
23B0
330
1E
100
AcDbEntity
  8
3
100
AcDbLine
 10
3.603346456692912
 20
5.236220472440944
 30
0.0
 11
3.603346456692912
 21
5.279527559055118
 31
0.0
  0
LINE
  5
23B1
330
1E
100
AcDbEntity
  8
3
100
AcDbLine
 10
3.949803149606299
 20
5.200787401574803
 30
0.0
 11
4.000984251968502
 21
5.200787401574803
 31
0.0
  0
LINE
  5
23B2
330
1E
100
AcDbEntity
  8
3
100
AcDbLine
 10
4.796259842519684
 20
5.236220472440944
 30
0.0
 11
4.802165354330708
 21
5.214566929133859
 31
0.0
  0
LINE
  5
23B3
330
1E
100
AcDbEntity
  8
3
100
AcDbLine
 10
4.237204724409447
 20
5.326771653543307
 30
0.0
 11
4.239173228346456
 21
5.283464566929133
 31
0.0
  0
LINE
  5
23B4
330
1E
100
AcDbEntity
  8
3
100
AcDbLine
 10
3.603346456692912
 20
5.263779527559055
 30
0.0
 11
3.65255905511811
 21
5.263779527559055
 31
0.0
  0
LINE
  5
23B5
330
1E
100
AcDbEntity
  8
3
100
AcDbLine
 10
4.237204724409447
 20
5.326771653543307
 30
0.0
 11
4.729330708661415
 21
5.326771653543307
 31
0.0
  0
LINE
  5
23B6
330
1E
100
AcDbEntity
  8
3
100
AcDbLine
 10
3.603346456692912
 20
5.214566929133859
 30
0.0
 11
3.603346456692912
 21
5.236220472440944
 31
0.0
  0
LINE
  5
23B7
330
1E
100
AcDbEntity
  8
3
100
AcDbLine
 10
4.729330708661415
 20
5.326771653543307
 30
0.0
 11
4.729330708661415
 21
5.279527559055118
 31
0.0
  0
LINE
  5
23B8
330
1E
100
AcDbEntity
  8
3
100
AcDbLine
 10
3.747047244094487
 20
5.283464566929133
 30
0.0
 11
3.747047244094487
 21
5.263779527559055
 31
0.0
  0
LINE
  5
23B9
330
1E
100
AcDbEntity
  8
3
100
AcDbLine
 10
4.729330708661415
 20
5.263779527559055
 30
0.0
 11
4.680118110236219
 21
5.263779527559055
 31
0.0
  0
LINE
  5
23BA
330
1E
100
AcDbEntity
  8
3
100
AcDbLine
 10
4.38287401574803
 20
5.200787401574803
 30
0.0
 11
4.331692913385826
 21
5.200787401574803
 31
0.0
  0
LINE
  5
23BB
330
1E
100
AcDbEntity
  8
3
100
AcDbLine
 10
3.949803149606299
 20
5.283464566929133
 30
0.0
 11
3.941929133858267
 21
4.954724409448818
 31
0.0
  0
LINE
  5
23BC
330
1E
100
AcDbEntity
  8
3
100
AcDbLine
 10
3.747047244094487
 20
5.283464566929133
 30
0.0
 11
3.754921259842519
 21
4.954724409448818
 31
0.0
  0
LINE
  5
23BD
330
1E
100
AcDbEntity
  8
3
100
AcDbLine
 10
3.477362204724408
 20
5.431102362204724
 30
0.0
 11
3.477362204724408
 21
5.403543307086614
 31
0.0
  0
LINE
  5
23BE
330
1E
100
AcDbEntity
  8
3
100
AcDbLine
 10
3.754921259842519
 20
4.917322834645668
 30
0.0
 11
3.754921259842519
 21
4.933070866141731
 31
0.0
  0
LINE
  5
23BF
330
1E
100
AcDbEntity
  8
3
100
AcDbLine
 10
3.951771653543306
 20
5.283464566929133
 30
0.0
 11
3.949803149606299
 21
5.263779527559055
 31
0.0
  0
LINE
  5
23C0
330
1E
100
AcDbEntity
  8
3
100
AcDbLine
 10
3.747047244094487
 20
5.263779527559055
 30
0.0
 11
3.747047244094487
 21
5.283464566929133
 31
0.0
  0
LINE
  5
23C1
330
1E
100
AcDbEntity
  8
3
100
AcDbLine
 10
4.093503937007873
 20
5.283464566929133
 30
0.0
 11
4.093503937007873
 21
5.236220472440944
 31
0.0
  0
LINE
  5
23C2
330
1E
100
AcDbEntity
  8
3
100
AcDbLine
 10
4.323818897637795
 20
4.907480314960629
 30
0.0
 11
4.331692913385826
 21
5.200787401574803
 31
0.0
  0
LINE
  5
23C3
330
1E
100
AcDbEntity
  8
3
100
AcDbLine
 10
4.796259842519684
 20
5.279527559055118
 30
0.0
 11
4.796259842519684
 21
5.236220472440944
 31
0.0
  0
LINE
  5
23C4
330
1E
100
AcDbEntity
  8
3
100
AcDbLine
 10
4.644685039370078
 20
4.968503937007874
 30
0.0
 11
4.676181102362204
 21
4.968503937007874
 31
0.0
  0
LINE
  5
23C5
330
1E
100
AcDbEntity
  8
3
100
AcDbLine
 10
3.686023622047243
 20
4.968503937007874
 30
0.0
 11
3.656496062992125
 21
4.968503937007874
 31
0.0
  0
LINE
  5
23C6
330
1E
100
AcDbEntity
  8
3
100
AcDbLine
 10
4.729330708661415
 20
5.283464566929133
 30
0.0
 11
4.729330708661415
 21
5.326771653543307
 31
0.0
  0
LINE
  5
23C7
330
1E
100
AcDbEntity
  8
3
100
AcDbLine
 10
4.325787401574802
 20
5.263779527559055
 30
0.0
 11
4.325787401574802
 21
5.283464566929133
 31
0.0
  0
LINE
  5
23C8
330
1E
100
AcDbEntity
  8
3
100
AcDbLine
 10
4.729330708661415
 20
5.214566929133859
 30
0.0
 11
4.729330708661415
 21
5.236220472440944
 31
0.0
  0
LINE
  5
23C9
330
1E
100
AcDbEntity
  8
3
100
AcDbLine
 10
4.585629921259841
 20
5.275590551181101
 30
0.0
 11
4.63287401574803
 21
5.275590551181101
 31
0.0
  0
LINE
  5
23CA
330
1E
100
AcDbEntity
  8
3
100
AcDbLine
 10
4.333661417322834
 20
5.275590551181101
 30
0.0
 11
4.380905511811023
 21
5.275590551181101
 31
0.0
  0
LINE
  5
23CB
330
1E
100
AcDbEntity
  8
3
100
AcDbLine
 10
4.237204724409447
 20
5.214566929133859
 30
0.0
 11
4.237204724409447
 21
5.263779527559055
 31
0.0
  0
LINE
  5
23CC
330
1E
100
AcDbEntity
  8
3
100
AcDbLine
 10
3.477362204724408
 20
5.403543307086614
 30
0.0
 11
3.477362204724408
 21
4.907480314960629
 31
0.0
  0
LINE
  5
23CD
330
1E
100
AcDbEntity
  8
3
100
AcDbLine
 10
3.695866141732282
 20
5.200787401574803
 30
0.0
 11
3.68799212598425
 21
4.907480314960629
 31
0.0
  0
LINE
  5
23CE
330
1E
100
AcDbEntity
  8
3
100
AcDbLine
 10
3.686023622047243
 20
4.968503937007874
 30
0.0
 11
3.686023622047243
 21
5.047244094488188
 31
0.0
  0
LINE
  5
23CF
330
1E
100
AcDbEntity
  8
3
100
AcDbLine
 10
3.603346456692912
 20
5.283464566929133
 30
0.0
 11
3.65255905511811
 21
5.283464566929133
 31
0.0
  0
LINE
  5
23D0
330
1E
100
AcDbEntity
  8
3
100
AcDbLine
 10
3.530511811023621
 20
5.214566929133859
 30
0.0
 11
3.603346456692912
 21
5.214566929133859
 31
0.0
  0
LINE
  5
23D1
330
1E
100
AcDbEntity
  8
3
100
AcDbLine
 10
4.855314960629921
 20
4.907480314960629
 30
0.0
 11
4.855314960629921
 21
5.403543307086614
 31
0.0
  0
LINE
  5
23D2
330
1E
100
AcDbEntity
  8
3
100
AcDbLine
 10
3.656496062992125
 20
4.968503937007874
 30
0.0
 11
3.686023622047243
 21
4.968503937007874
 31
0.0
  0
LINE
  5
23D3
330
1E
100
AcDbEntity
  8
3
100
AcDbLine
 10
3.689960629921258
 20
5.283464566929133
 30
0.0
 11
3.686023622047243
 21
5.047244094488188
 31
0.0
  0
LINE
  5
23D9
330
1E
100
AcDbEntity
  8
3
100
AcDbLine
 10
4.390748031496062
 20
4.944881889763779
 30
0.0
 11
4.390748031496062
 21
4.954724409448818
 31
0.0
  0
LINE
  5
23DA
330
1E
100
AcDbEntity
  8
3
100
AcDbLine
 10
3.754921259842519
 20
4.933070866141731
 30
0.0
 11
3.754921259842519
 21
4.946850393700787
 31
0.0
  0
LINE
  5
23E5
330
1E
100
AcDbEntity
  8
3
100
AcDbLine
 10
3.941929133858267
 20
4.954724409448818
 30
0.0
 11
3.941929133858267
 21
4.944881889763779
 31
0.0
  0
LINE
  5
23E6
330
1E
100
AcDbEntity
  8
3
100
AcDbLine
 10
3.941929133858267
 20
4.917322834645668
 30
0.0
 11
3.943897637795275
 21
4.903543307086614
 31
0.0
  0
LINE
  5
23E7
330
1E
100
AcDbEntity
  8
3
100
AcDbLine
 10
4.57775590551181
 20
4.917322834645668
 30
0.0
 11
4.57775590551181
 21
4.907480314960629
 31
0.0
  0
LINE
  5
23ED
330
1E
100
AcDbEntity
  8
3
100
AcDbLine
 10
3.943897637795275
 20
4.946850393700787
 30
0.0
 11
3.941929133858267
 21
4.933070866141731
 31
0.0
  0
LINE
  5
23F3
330
1E
100
AcDbEntity
  8
3
100
AcDbLine
 10
4.388779527559054
 20
4.933070866141731
 30
0.0
 11
4.388779527559054
 21
4.946850393700787
 31
0.0
  0
LINE
  5
23F4
330
1E
100
AcDbEntity
  8
3
100
AcDbLine
 10
3.754921259842519
 20
4.903543307086614
 30
0.0
 11
3.754921259842519
 21
4.917322834645668
 31
0.0
  0
LINE
  5
23F5
330
1E
100
AcDbEntity
  8
3
100
AcDbLine
 10
4.388779527559054
 20
4.907480314960629
 30
0.0
 11
4.388779527559054
 21
4.917322834645668
 31
0.0
  0
LINE
  5
23FC
330
1E
100
AcDbEntity
  8
3
100
AcDbLine
 10
3.392716535433069
 20
5.389763779527559
 30
0.0
 11
3.384842519685038
 21
5.364173228346457
 31
0.0
  0
LINE
  5
2402
330
1E
100
AcDbEntity
  8
3
100
AcDbLine
 10
4.57775590551181
 20
4.944881889763779
 30
0.0
 11
4.57775590551181
 21
4.954724409448818
 31
0.0
  0
LINE
  5
2414
330
1E
100
AcDbEntity
  8
3
100
AcDbLine
 10
4.57775590551181
 20
4.946850393700787
 30
0.0
 11
4.57775590551181
 21
4.933070866141731
 31
0.0
  0
LINE
  5
241C
330
1E
100
AcDbEntity
  8
3
100
AcDbLine
 10
3.754921259842519
 20
4.944881889763779
 30
0.0
 11
3.754921259842519
 21
4.954724409448818
 31
0.0
  0
LINE
  5
2E40
330
1E
100
AcDbEntity
  8
3
100
AcDbLine
 10
4.947834645669289
 20
5.364173228346457
 30
0.0
 11
4.939960629921258
 21
5.389763779527559
 31
0.0
  0
LINE
  5
2E41
330
1E
100
AcDbEntity
  8
3
100
AcDbLine
 10
4.939960629921258
 20
5.389763779527559
 30
0.0
 11
4.92027559055118
 21
5.411417322834646
 31
0.0
  0
LINE
  5
2E42
330
1E
100
AcDbEntity
  8
3
100
AcDbLine
 10
4.92027559055118
 20
5.411417322834646
 30
0.0
 11
4.890748031496062
 21
5.4251968503937
 31
0.0
  0
LINE
  5
2E43
330
1E
100
AcDbEntity
  8
3
100
AcDbLine
 10
4.890748031496062
 20
5.4251968503937
 30
0.0
 11
4.855314960629921
 21
5.431102362204724
 31
0.0
  0
LINE
  5
2E44
330
1E
100
AcDbEntity
  8
3
100
AcDbLine
 10
3.477362204724408
 20
5.431102362204724
 30
0.0
 11
3.441929133858267
 21
5.4251968503937
 31
0.0
  0
LINE
  5
2E45
330
1E
100
AcDbEntity
  8
3
100
AcDbLine
 10
3.441929133858267
 20
5.4251968503937
 30
0.0
 11
3.412401574803149
 21
5.411417322834646
 31
0.0
  0
LINE
  5
2E46
330
1E
100
AcDbEntity
  8
3
100
AcDbLine
 10
3.412401574803149
 20
5.411417322834646
 30
0.0
 11
3.392716535433069
 21
5.389763779527559
 31
0.0
  0
LINE
  5
2E47
330
1E
100
AcDbEntity
  8
3
100
AcDbLine
 10
3.392716535433069
 20
5.389763779527559
 30
0.0
 11
3.384842519685038
 21
5.364173228346457
 31
0.0
  0
LINE
  5
2E48
330
1E
100
AcDbEntity
  8
3
100
AcDbLine
 10
4.644685039370078
 20
4.968503937007874
 30
0.0
 11
4.644685039370078
 21
4.96259842519685
 31
0.0
  0
LINE
  5
2E49
330
1E
100
AcDbEntity
  8
3
100
AcDbLine
 10
4.644685039370078
 20
4.96259842519685
 30
0.0
 11
4.646653543307086
 21
4.968503937007874
 31
0.0
  0
LINE
  5
2E4A
330
1E
100
AcDbEntity
  8
3
100
AcDbLine
 10
3.656496062992125
 20
4.968503937007874
 30
0.0
 11
3.656496062992125
 21
4.96259842519685
 31
0.0
  0
LINE
  5
2E4B
330
1E
100
AcDbEntity
  8
3
100
AcDbLine
 10
3.656496062992125
 20
4.96259842519685
 30
0.0
 11
3.656496062992125
 21
4.968503937007874
 31
0.0
  0
LINE
  5
2E4C
330
1E
100
AcDbEntity
  8
3
100
AcDbLine
 10
4.292322834645669
 20
4.968503937007874
 30
0.0
 11
4.292322834645669
 21
4.96259842519685
 31
0.0
  0
LINE
  5
2E4D
330
1E
100
AcDbEntity
  8
3
100
AcDbLine
 10
4.292322834645669
 20
4.96259842519685
 30
0.0
 11
4.292322834645669
 21
4.968503937007874
 31
0.0
  0
LINE
  5
2E4E
330
1E
100
AcDbEntity
  8
3
100
AcDbLine
 10
3.477362204724408
 20
5.431102362204724
 30
0.0
 11
3.441929133858267
 21
5.427165354330709
 31
0.0
  0
LINE
  5
2E4F
330
1E
100
AcDbEntity
  8
3
100
AcDbLine
 10
3.441929133858267
 20
5.427165354330709
 30
0.0
 11
3.412401574803149
 21
5.411417322834646
 31
0.0
  0
LINE
  5
2E50
330
1E
100
AcDbEntity
  8
3
100
AcDbLine
 10
3.412401574803149
 20
5.411417322834646
 30
0.0
 11
3.392716535433069
 21
5.389763779527559
 31
0.0
  0
LINE
  5
2E51
330
1E
100
AcDbEntity
  8
3
100
AcDbLine
 10
4.010826771653541
 20
4.968503937007874
 30
0.0
 11
4.010826771653541
 21
4.96259842519685
 31
0.0
  0
LINE
  5
2E52
330
1E
100
AcDbEntity
  8
3
100
AcDbLine
 10
4.010826771653541
 20
4.96259842519685
 30
0.0
 11
4.010826771653541
 21
4.968503937007874
 31
0.0
  0
LINE
  5
2E53
330
1E
100
AcDbEntity
  8
3
100
AcDbLine
 10
4.04035433070866
 20
4.968503937007874
 30
0.0
 11
4.04035433070866
 21
4.96259842519685
 31
0.0
  0
LINE
  5
2E54
330
1E
100
AcDbEntity
  8
3
100
AcDbLine
 10
4.04035433070866
 20
4.96259842519685
 30
0.0
 11
4.04035433070866
 21
4.968503937007874
 31
0.0
  0
LINE
  5
2E55
330
1E
100
AcDbEntity
  8
3
100
AcDbLine
 10
4.676181102362204
 20
4.968503937007874
 30
0.0
 11
4.676181102362204
 21
4.96259842519685
 31
0.0
  0
LINE
  5
2E56
330
1E
100
AcDbEntity
  8
3
100
AcDbLine
 10
4.676181102362204
 20
4.96259842519685
 30
0.0
 11
4.676181102362204
 21
4.968503937007874
 31
0.0
  0
LINE
  5
2E57
330
1E
100
AcDbEntity
  8
3
100
AcDbLine
 10
3.686023622047243
 20
4.968503937007874
 30
0.0
 11
3.686023622047243
 21
4.96259842519685
 31
0.0
  0
LINE
  5
2E58
330
1E
100
AcDbEntity
  8
3
100
AcDbLine
 10
3.686023622047243
 20
4.96259842519685
 30
0.0
 11
3.686023622047243
 21
4.968503937007874
 31
0.0
  0
LINE
  5
2E59
330
1E
100
AcDbEntity
  8
3
100
AcDbLine
 10
4.321850393700786
 20
4.968503937007874
 30
0.0
 11
4.321850393700786
 21
4.96259842519685
 31
0.0
  0
LINE
  5
2E5A
330
1E
100
AcDbEntity
  8
3
100
AcDbLine
 10
4.321850393700786
 20
4.96259842519685
 30
0.0
 11
4.321850393700786
 21
4.968503937007874
 31
0.0
  0
LINE
  5
2E5B
330
1E
100
AcDbEntity
  8
3
100
AcDbLine
 10
7.609251968503936
 20
8.6751968503937
 30
0.0
 11
7.585629921259841
 21
8.633858267716536
 31
0.0
  0
LINE
  5
2E5C
330
1E
100
AcDbEntity
  8
3
100
AcDbLine
 10
7.585629921259841
 20
8.633858267716536
 30
0.0
 11
7.587598425196849
 21
8.586614173228348
 31
0.0
  0
LINE
  5
2E5D
330
1E
100
AcDbEntity
  8
3
100
AcDbLine
 10
7.587598425196849
 20
8.586614173228348
 30
0.0
 11
7.611220472440943
 21
8.545275590551181
 31
0.0
  0
LINE
  5
2E5E
330
1E
100
AcDbEntity
  8
3
100
AcDbLine
 10
8.105314960629922
 20
9.055118110236222
 30
0.0
 11
7.676181102362204
 21
8.61023622047244
 31
0.0
  0
LINE
  5
2E5F
330
1E
100
AcDbEntity
  8
3
100
AcDbLine
 10
7.676181102362204
 20
8.61023622047244
 30
0.0
 11
7.609251968503936
 21
8.6751968503937
 31
0.0
  0
LINE
  5
2E60
330
1E
100
AcDbEntity
  8
3
100
AcDbLine
 10
8.105314960629922
 20
8.049212598425196
 30
0.0
 11
7.609251968503936
 21
8.543307086614174
 31
0.0
  0
LINE
  5
2E61
330
1E
100
AcDbEntity
  8
3
100
AcDbLine
 10
7.609251968503936
 20
8.543307086614174
 30
0.0
 11
7.676181102362204
 21
8.61023622047244
 31
0.0
  0
LINE
  5
2E62
330
1E
100
AcDbEntity
  8
3
100
AcDbLine
 10
7.676181102362204
 20
8.61023622047244
 30
0.0
 11
8.105314960629922
 21
8.181102362204725
 31
0.0
  0
LINE
  5
2E63
330
1E
100
AcDbEntity
  8
3
100
AcDbLine
 10
3.384842519685038
 20
8.181102362204725
 30
0.0
 11
3.388779527559054
 21
8.139763779527559
 31
0.0
  0
LINE
  5
2E64
330
1E
100
AcDbEntity
  8
3
100
AcDbLine
 10
3.388779527559054
 20
8.139763779527559
 30
0.0
 11
3.40255905511811
 21
8.104330708661418
 31
0.0
  0
LINE
  5
2E65
330
1E
100
AcDbEntity
  8
3
100
AcDbLine
 10
3.40255905511811
 20
8.104330708661418
 30
0.0
 11
3.422244094488188
 21
8.074803149606299
 31
0.0
  0
LINE
  5
2E66
330
1E
100
AcDbEntity
  8
3
100
AcDbLine
 10
3.422244094488188
 20
8.074803149606299
 30
0.0
 11
3.449803149606299
 21
8.055118110236222
 31
0.0
  0
LINE
  5
2E67
330
1E
100
AcDbEntity
  8
3
100
AcDbLine
 10
4.855314960629921
 20
8.049212598425196
 30
0.0
 11
4.88287401574803
 21
8.055118110236222
 31
0.0
  0
LINE
  5
2E68
330
1E
100
AcDbEntity
  8
3
100
AcDbLine
 10
4.88287401574803
 20
8.055118110236222
 30
0.0
 11
4.908464566929132
 21
8.074803149606299
 31
0.0
  0
LINE
  5
2E69
330
1E
100
AcDbEntity
  8
3
100
AcDbLine
 10
4.908464566929132
 20
8.074803149606299
 30
0.0
 11
4.930118110236219
 21
8.104330708661418
 31
0.0
  0
LINE
  5
2E6A
330
1E
100
AcDbEntity
  8
3
100
AcDbLine
 10
4.930118110236219
 20
8.104330708661418
 30
0.0
 11
4.941929133858267
 21
8.139763779527559
 31
0.0
  0
LINE
  5
2E6B
330
1E
100
AcDbEntity
  8
3
100
AcDbLine
 10
4.941929133858267
 20
8.139763779527559
 30
0.0
 11
4.947834645669289
 21
8.181102362204725
 31
0.0
  0
LINE
  5
2E6C
330
1E
100
AcDbEntity
  8
3
100
AcDbLine
 10
4.890748031496062
 20
8.549212598425196
 30
0.0
 11
4.92027559055118
 21
8.562992125984251
 31
0.0
  0
LINE
  5
2E6D
330
1E
100
AcDbEntity
  8
3
100
AcDbLine
 10
4.92027559055118
 20
8.562992125984251
 30
0.0
 11
4.939960629921258
 21
8.584645669291337
 31
0.0
  0
LINE
  5
2E6E
330
1E
100
AcDbEntity
  8
3
100
AcDbLine
 10
4.939960629921258
 20
8.584645669291337
 30
0.0
 11
4.947834645669289
 21
8.61023622047244
 31
0.0
  0
LINE
  5
2E6F
330
1E
100
AcDbEntity
  8
3
100
AcDbLine
 10
4.947834645669289
 20
8.61023622047244
 30
0.0
 11
4.939960629921258
 21
8.633858267716536
 31
0.0
  0
LINE
  5
2E70
330
1E
100
AcDbEntity
  8
3
100
AcDbLine
 10
4.939960629921258
 20
8.633858267716536
 30
0.0
 11
4.92027559055118
 21
8.655511811023622
 31
0.0
  0
LINE
  5
2E71
330
1E
100
AcDbEntity
  8
3
100
AcDbLine
 10
4.92027559055118
 20
8.655511811023622
 30
0.0
 11
4.890748031496062
 21
8.669291338582677
 31
0.0
  0
LINE
  5
2E72
330
1E
100
AcDbEntity
  8
3
100
AcDbLine
 10
4.890748031496062
 20
8.669291338582677
 30
0.0
 11
4.855314960629921
 21
8.6751968503937
 31
0.0
  0
LINE
  5
2E73
330
1E
100
AcDbEntity
  8
3
100
AcDbLine
 10
3.477362204724408
 20
8.6751968503937
 30
0.0
 11
3.441929133858267
 21
8.669291338582677
 31
0.0
  0
LINE
  5
2E74
330
1E
100
AcDbEntity
  8
3
100
AcDbLine
 10
3.441929133858267
 20
8.669291338582677
 30
0.0
 11
3.412401574803149
 21
8.655511811023622
 31
0.0
  0
LINE
  5
2E75
330
1E
100
AcDbEntity
  8
3
100
AcDbLine
 10
3.412401574803149
 20
8.655511811023622
 30
0.0
 11
3.392716535433069
 21
8.633858267716536
 31
0.0
  0
LINE
  5
2E76
330
1E
100
AcDbEntity
  8
3
100
AcDbLine
 10
3.392716535433069
 20
8.633858267716536
 30
0.0
 11
3.384842519685038
 21
8.61023622047244
 31
0.0
  0
LINE
  5
2E77
330
1E
100
AcDbEntity
  8
3
100
AcDbLine
 10
3.384842519685038
 20
8.61023622047244
 30
0.0
 11
3.392716535433069
 21
8.584645669291337
 31
0.0
  0
LINE
  5
2E78
330
1E
100
AcDbEntity
  8
3
100
AcDbLine
 10
3.392716535433069
 20
8.584645669291337
 30
0.0
 11
3.412401574803149
 21
8.562992125984251
 31
0.0
  0
LINE
  5
2E79
330
1E
100
AcDbEntity
  8
3
100
AcDbLine
 10
3.412401574803149
 20
8.562992125984251
 30
0.0
 11
3.441929133858267
 21
8.549212598425196
 31
0.0
  0
LINE
  5
2E7A
330
1E
100
AcDbEntity
  8
3
100
AcDbLine
 10
8.125
 20
10.58464566929133
 30
0.0
 11
8.123031496062992
 21
10.5767716535433
 31
0.0
  0
LINE
  5
2E7B
330
1E
100
AcDbEntity
  8
3
100
AcDbLine
 10
8.123031496062992
 20
10.5767716535433
 30
0.0
 11
8.123031496062992
 21
10.55708661417323
 31
0.0
  0
LINE
  5
2E7C
330
1E
100
AcDbEntity
  8
3
100
AcDbLine
 10
8.123031496062992
 20
10.55708661417323
 30
0.0
 11
8.123031496062992
 21
10.52755905511811
 31
0.0
  0
LINE
  5
2E7D
330
1E
100
AcDbEntity
  8
3
100
AcDbLine
 10
8.123031496062992
 20
10.52755905511811
 30
0.0
 11
8.125
 21
10.49212598425196
 31
0.0
  0
LINE
  5
2E7E
330
1E
100
AcDbEntity
  8
3
100
AcDbLine
 10
8.686023622047244
 20
9.041338582677166
 30
0.0
 11
8.687992125984251
 21
9.047244094488188
 31
0.0
  0
LINE
  5
2E7F
330
1E
100
AcDbEntity
  8
3
100
AcDbLine
 10
8.687992125984251
 20
9.047244094488188
 30
0.0
 11
8.687992125984251
 21
9.061023622047244
 31
0.0
  0
LINE
  5
2E80
330
1E
100
AcDbEntity
  8
3
100
AcDbLine
 10
8.686023622047244
 20
9.096456692913385
 30
0.0
 11
8.686023622047244
 21
9.104330708661418
 31
0.0
  0
LINE
  5
2E81
330
1E
100
AcDbEntity
  8
3
100
AcDbLine
 10
8.686023622047244
 20
9.104330708661418
 30
0.0
 11
8.686023622047244
 21
9.125984251968503
 31
0.0
  0
LINE
  5
2E82
330
1E
100
AcDbEntity
  8
3
100
AcDbLine
 10
8.686023622047244
 20
9.125984251968503
 30
0.0
 11
8.686023622047244
 21
9.153543307086614
 31
0.0
  0
LINE
  5
2E83
330
1E
100
AcDbEntity
  8
3
100
AcDbLine
 10
8.187992125984251
 20
7.824803149606299
 30
0.0
 11
8.187992125984251
 21
7.771653543307085
 31
0.0
  0
LINE
  5
2E84
330
1E
100
AcDbEntity
  8
3
100
AcDbLine
 10
8.187992125984251
 20
7.771653543307085
 30
0.0
 11
8.187992125984251
 21
7.724409448818896
 31
0.0
  0
LINE
  5
2E85
330
1E
100
AcDbEntity
  8
3
100
AcDbLine
 10
8.187992125984251
 20
7.724409448818896
 30
0.0
 11
8.187992125984251
 21
7.687007874015748
 31
0.0
  0
LINE
  5
2E86
330
1E
100
AcDbEntity
  8
3
100
AcDbLine
 10
8.187992125984251
 20
7.687007874015748
 30
0.0
 11
8.187992125984251
 21
7.663385826771651
 31
0.0
  0
LINE
  5
2E87
330
1E
100
AcDbEntity
  8
3
100
AcDbLine
 10
8.187992125984251
 20
7.663385826771651
 30
0.0
 11
8.187992125984251
 21
7.653543307086614
 31
0.0
  0
LINE
  5
2E88
330
1E
100
AcDbEntity
  8
3
100
AcDbLine
 10
8.187992125984251
 20
10.65944881889763
 30
0.0
 11
8.187992125984251
 21
10.63385826771653
 31
0.0
  0
LINE
  5
2E89
330
1E
100
AcDbEntity
  8
3
100
AcDbLine
 10
8.187992125984251
 20
10.63385826771653
 30
0.0
 11
8.187992125984251
 21
10.59645669291338
 31
0.0
  0
LINE
  5
2E8A
330
1E
100
AcDbEntity
  8
3
100
AcDbLine
 10
8.187992125984251
 20
10.59645669291338
 30
0.0
 11
8.187992125984251
 21
10.54921259842519
 31
0.0
  0
LINE
  5
2E8B
330
1E
100
AcDbEntity
  8
3
100
AcDbLine
 10
8.187992125984251
 20
10.54921259842519
 30
0.0
 11
8.187992125984251
 21
10.49803149606299
 31
0.0
  0
LINE
  5
2E8C
330
1E
100
AcDbEntity
  8
3
100
AcDbLine
 10
8.686023622047244
 20
9.224409448818896
 30
0.0
 11
8.687992125984251
 21
9.230314960629922
 31
0.0
  0
LINE
  5
2E8D
330
1E
100
AcDbEntity
  8
3
100
AcDbLine
 10
8.687992125984251
 20
9.230314960629922
 30
0.0
 11
8.687992125984251
 21
9.244094488188977
 31
0.0
  0
LINE
  5
2E8E
330
1E
100
AcDbEntity
  8
3
100
AcDbLine
 10
8.687992125984251
 20
9.25984251968504
 30
0.0
 11
8.687992125984251
 21
9.273622047244096
 31
0.0
  0
LINE
  5
2E8F
330
1E
100
AcDbEntity
  8
3
100
AcDbLine
 10
8.687992125984251
 20
9.273622047244096
 30
0.0
 11
8.686023622047244
 21
9.279527559055118
 31
0.0
  0
LINE
  5
2E90
330
1E
100
AcDbEntity
  8
3
100
AcDbLine
 10
8.687992125984251
 20
9.076771653543307
 30
0.0
 11
8.687992125984251
 21
9.090551181102362
 31
0.0
  0
LINE
  5
2E91
330
1E
100
AcDbEntity
  8
3
100
AcDbLine
 10
8.687992125984251
 20
9.090551181102362
 30
0.0
 11
8.686023622047244
 21
9.096456692913385
 31
0.0
  0
LINE
  5
2E92
330
1E
100
AcDbEntity
  8
3
100
AcDbLine
 10
8.686023622047244
 20
9.16732283464567
 30
0.0
 11
8.686023622047244
 21
9.196850393700788
 31
0.0
  0
LINE
  5
2E93
330
1E
100
AcDbEntity
  8
3
100
AcDbLine
 10
8.686023622047244
 20
9.196850393700788
 30
0.0
 11
8.686023622047244
 21
9.216535433070866
 31
0.0
  0
LINE
  5
2E94
330
1E
100
AcDbEntity
  8
3
100
AcDbLine
 10
8.686023622047244
 20
9.216535433070866
 30
0.0
 11
8.686023622047244
 21
9.224409448818896
 31
0.0
  0
LINE
  5
2E95
330
1E
100
AcDbEntity
  8
3
100
AcDbLine
 10
8.125
 20
7.828740157480314
 30
0.0
 11
8.123031496062992
 21
7.793307086614174
 31
0.0
  0
LINE
  5
2E96
330
1E
100
AcDbEntity
  8
3
100
AcDbLine
 10
8.123031496062992
 20
7.793307086614174
 30
0.0
 11
8.123031496062992
 21
7.763779527559055
 31
0.0
  0
LINE
  5
2E97
330
1E
100
AcDbEntity
  8
3
100
AcDbLine
 10
8.123031496062992
 20
7.763779527559055
 30
0.0
 11
8.123031496062992
 21
7.744094488188977
 31
0.0
  0
LINE
  5
2E98
330
1E
100
AcDbEntity
  8
3
100
AcDbLine
 10
8.123031496062992
 20
7.744094488188977
 30
0.0
 11
8.125
 21
7.738188976377951
 31
0.0
  0
LINE
  5
2E99
330
1E
100
AcDbEntity
  8
3
100
AcDbLine
 10
8.98523622047244
 20
9.271653543307085
 30
0.0
 11
8.999015748031496
 21
9.277559055118111
 31
0.0
  0
LINE
  5
2E9A
330
1E
100
AcDbEntity
  8
3
100
AcDbLine
 10
8.999015748031496
 20
9.277559055118111
 30
0.0
 11
9.004921259842518
 21
9.291338582677166
 31
0.0
  0
LINE
  5
2E9B
330
1E
100
AcDbEntity
  8
3
100
AcDbLine
 10
8.98523622047244
 20
8.828740157480314
 30
0.0
 11
8.999015748031496
 21
8.834645669291337
 31
0.0
  0
LINE
  5
2E9C
330
1E
100
AcDbEntity
  8
3
100
AcDbLine
 10
8.999015748031496
 20
8.834645669291337
 30
0.0
 11
9.004921259842518
 21
8.848425196850392
 31
0.0
  0
LINE
  5
2E9D
330
1E
100
AcDbEntity
  8
3
100
AcDbLine
 10
8.189960629921259
 20
10.66732283464567
 30
0.0
 11
8.176181102362203
 21
10.66141732283464
 31
0.0
  0
LINE
  5
2E9E
330
1E
100
AcDbEntity
  8
3
100
AcDbLine
 10
8.176181102362203
 20
10.66141732283464
 30
0.0
 11
8.170275590551181
 21
10.64763779527558
 31
0.0
  0
LINE
  5
2E9F
330
1E
100
AcDbEntity
  8
3
100
AcDbLine
 10
8.684055118110237
 20
9.041338582677166
 30
0.0
 11
8.697834645669288
 21
9.047244094488188
 31
0.0
  0
LINE
  5
2EA0
330
1E
100
AcDbEntity
  8
3
100
AcDbLine
 10
8.697834645669288
 20
9.047244094488188
 30
0.0
 11
8.703740157480314
 21
9.061023622047244
 31
0.0
  0
LINE
  5
2EA1
330
1E
100
AcDbEntity
  8
3
100
AcDbLine
 10
8.703740157480314
 20
9.076771653543307
 30
0.0
 11
8.697834645669288
 21
9.090551181102362
 31
0.0
  0
LINE
  5
2EA2
330
1E
100
AcDbEntity
  8
3
100
AcDbLine
 10
8.697834645669288
 20
9.090551181102362
 30
0.0
 11
8.684055118110237
 21
9.096456692913385
 31
0.0
  0
LINE
  5
2EA3
330
1E
100
AcDbEntity
  8
3
100
AcDbLine
 10
8.170275590551181
 20
7.673228346456692
 30
0.0
 11
8.176181102362203
 21
7.659448818897637
 31
0.0
  0
LINE
  5
2EA4
330
1E
100
AcDbEntity
  8
3
100
AcDbLine
 10
8.176181102362203
 20
7.659448818897637
 30
0.0
 11
8.189960629921259
 21
7.653543307086614
 31
0.0
  0
LINE
  5
2EA5
330
1E
100
AcDbEntity
  8
3
100
AcDbLine
 10
9.004921259842518
 20
9.474409448818896
 30
0.0
 11
8.999015748031496
 21
9.488188976377951
 31
0.0
  0
LINE
  5
2EA6
330
1E
100
AcDbEntity
  8
3
100
AcDbLine
 10
8.999015748031496
 20
9.488188976377951
 30
0.0
 11
8.98523622047244
 21
9.494094488188977
 31
0.0
  0
LINE
  5
2EA7
330
1E
100
AcDbEntity
  8
3
100
AcDbLine
 10
8.684055118110237
 20
9.224409448818896
 30
0.0
 11
8.697834645669288
 21
9.230314960629922
 31
0.0
  0
LINE
  5
2EA8
330
1E
100
AcDbEntity
  8
3
100
AcDbLine
 10
8.697834645669288
 20
9.230314960629922
 30
0.0
 11
8.703740157480314
 21
9.244094488188977
 31
0.0
  0
LINE
  5
2EA9
330
1E
100
AcDbEntity
  8
3
100
AcDbLine
 10
8.703740157480314
 20
9.25984251968504
 30
0.0
 11
8.697834645669288
 21
9.273622047244096
 31
0.0
  0
LINE
  5
2EAA
330
1E
100
AcDbEntity
  8
3
100
AcDbLine
 10
8.697834645669288
 20
9.273622047244096
 30
0.0
 11
8.684055118110237
 21
9.279527559055118
 31
0.0
  0
LINE
  5
2EAB
330
1E
100
AcDbEntity
  8
3
100
AcDbLine
 10
8.105314960629922
 20
7.757874015748033
 30
0.0
 11
8.111220472440944
 21
7.744094488188977
 31
0.0
  0
LINE
  5
2EAC
330
1E
100
AcDbEntity
  8
3
100
AcDbLine
 10
8.111220472440944
 20
7.744094488188977
 30
0.0
 11
8.125
 21
7.738188976377951
 31
0.0
  0
LINE
  5
2EAD
330
1E
100
AcDbEntity
  8
3
100
AcDbLine
 10
8.125
 20
10.58464566929133
 30
0.0
 11
8.111220472440944
 21
10.57874015748031
 31
0.0
  0
LINE
  5
2EAE
330
1E
100
AcDbEntity
  8
3
100
AcDbLine
 10
8.111220472440944
 20
10.57874015748031
 30
0.0
 11
8.105314960629922
 21
10.56496062992126
 31
0.0
  0
LINE
  5
2EAF
330
1E
100
AcDbEntity
  8
3
100
AcDbLine
 10
8.504921259842518
 20
9.159448818897637
 30
0.0
 11
8.686023622047244
 21
9.153543307086614
 31
0.0
  0
LINE
  5
2EB0
330
1E
100
AcDbEntity
  8
3
100
AcDbLine
 10
8.686023622047244
 20
9.153543307086614
 30
0.0
 11
8.703740157480314
 21
9.153543307086614
 31
0.0
  0
LINE
  5
2EB1
330
1E
100
AcDbEntity
  8
3
100
AcDbLine
 10
4.949803149606299
 20
4.326771653543307
 30
0.0
 11
4.963582677165352
 21
4.324803149606299
 31
0.0
  0
LINE
  5
2EB2
330
1E
100
AcDbEntity
  8
3
100
AcDbLine
 10
4.963582677165352
 20
4.324803149606299
 30
0.0
 11
4.969488188976376
 21
4.324803149606299
 31
0.0
  0
LINE
  5
2EB3
330
1E
100
AcDbEntity
  8
3
100
AcDbLine
 10
3.371062992125984
 20
4.887795275590551
 30
0.0
 11
3.335629921259841
 21
4.889763779527559
 31
0.0
  0
LINE
  5
2EB4
330
1E
100
AcDbEntity
  8
3
100
AcDbLine
 10
3.335629921259841
 20
4.889763779527559
 30
0.0
 11
3.306102362204723
 21
4.889763779527559
 31
0.0
  0
LINE
  5
2EB5
330
1E
100
AcDbEntity
  8
3
100
AcDbLine
 10
3.306102362204723
 20
4.889763779527559
 30
0.0
 11
3.286417322834645
 21
4.889763779527559
 31
0.0
  0
LINE
  5
2EB6
330
1E
100
AcDbEntity
  8
3
100
AcDbLine
 10
3.286417322834645
 20
4.889763779527559
 30
0.0
 11
3.278543307086613
 21
4.887795275590551
 31
0.0
  0
LINE
  5
2EB7
330
1E
100
AcDbEntity
  8
3
100
AcDbLine
 10
3.264763779527558
 20
4.824803149606299
 30
0.0
 11
3.227362204724408
 21
4.824803149606299
 31
0.0
  0
LINE
  5
2EB8
330
1E
100
AcDbEntity
  8
3
100
AcDbLine
 10
3.227362204724408
 20
4.824803149606299
 30
0.0
 11
3.203740157480313
 21
4.824803149606299
 31
0.0
  0
LINE
  5
2EB9
330
1E
100
AcDbEntity
  8
3
100
AcDbLine
 10
3.203740157480313
 20
4.824803149606299
 30
0.0
 11
3.195866141732282
 21
4.824803149606299
 31
0.0
  0
LINE
  5
2EBA
330
1E
100
AcDbEntity
  8
3
100
AcDbLine
 10
3.36515748031496
 20
4.824803149606299
 30
0.0
 11
3.313976377952754
 21
4.824803149606299
 31
0.0
  0
LINE
  5
2EBB
330
1E
100
AcDbEntity
  8
3
100
AcDbLine
 10
3.313976377952754
 20
4.824803149606299
 30
0.0
 11
3.264763779527558
 21
4.824803149606299
 31
0.0
  0
LINE
  5
2EBC
330
1E
100
AcDbEntity
  8
3
100
AcDbLine
 10
4.841535433070865
 20
4.027559055118111
 30
0.0
 11
4.849409448818897
 21
4.027559055118111
 31
0.0
  0
LINE
  5
2EBD
330
1E
100
AcDbEntity
  8
3
100
AcDbLine
 10
4.849409448818897
 20
4.027559055118111
 30
0.0
 11
4.871062992125984
 21
4.027559055118111
 31
0.0
  0
LINE
  5
2EBE
330
1E
100
AcDbEntity
  8
3
100
AcDbLine
 10
3.384842519685038
 20
4.324803149606299
 30
0.0
 11
3.390748031496062
 21
4.324803149606299
 31
0.0
  0
LINE
  5
2EBF
330
1E
100
AcDbEntity
  8
3
100
AcDbLine
 10
3.390748031496062
 20
4.324803149606299
 30
0.0
 11
3.404527559055117
 21
4.326771653543307
 31
0.0
  0
LINE
  5
2EC0
330
1E
100
AcDbEntity
  8
3
100
AcDbLine
 10
5.1505905511811
 20
4.824803149606299
 30
0.0
 11
5.126968503937006
 21
4.824803149606299
 31
0.0
  0
LINE
  5
2EC1
330
1E
100
AcDbEntity
  8
3
100
AcDbLine
 10
5.126968503937006
 20
4.824803149606299
 30
0.0
 11
5.089566929133858
 21
4.824803149606299
 31
0.0
  0
LINE
  5
2EC2
330
1E
100
AcDbEntity
  8
3
100
AcDbLine
 10
5.089566929133858
 20
4.824803149606299
 30
0.0
 11
5.04035433070866
 21
4.824803149606299
 31
0.0
  0
LINE
  5
2EC3
330
1E
100
AcDbEntity
  8
3
100
AcDbLine
 10
5.04035433070866
 20
4.824803149606299
 30
0.0
 11
4.989173228346456
 21
4.824803149606299
 31
0.0
  0
LINE
  5
2EC4
330
1E
100
AcDbEntity
  8
3
100
AcDbLine
 10
5.075787401574802
 20
4.887795275590551
 30
0.0
 11
5.067913385826771
 21
4.889763779527559
 31
0.0
  0
LINE
  5
2EC5
330
1E
100
AcDbEntity
  8
3
100
AcDbLine
 10
5.067913385826771
 20
4.889763779527559
 30
0.0
 11
5.048228346456691
 21
4.889763779527559
 31
0.0
  0
LINE
  5
2EC6
330
1E
100
AcDbEntity
  8
3
100
AcDbLine
 10
5.048228346456691
 20
4.889763779527559
 30
0.0
 11
5.018700787401573
 21
4.889763779527559
 31
0.0
  0
LINE
  5
2EC7
330
1E
100
AcDbEntity
  8
3
100
AcDbLine
 10
5.018700787401573
 20
4.889763779527559
 30
0.0
 11
4.983267716535432
 21
4.887795275590551
 31
0.0
  0
LINE
  5
2EC8
330
1E
100
AcDbEntity
  8
3
100
AcDbLine
 10
3.483267716535432
 20
4.027559055118111
 30
0.0
 11
3.504921259842519
 21
4.027559055118111
 31
0.0
  0
LINE
  5
2EC9
330
1E
100
AcDbEntity
  8
3
100
AcDbLine
 10
3.504921259842519
 20
4.027559055118111
 30
0.0
 11
3.51279527559055
 21
4.027559055118111
 31
0.0
  0
LINE
  5
2ECA
330
1E
100
AcDbEntity
  8
3
100
AcDbLine
 10
5.075787401574802
 20
4.887795275590551
 30
0.0
 11
5.069881889763778
 21
4.901574803149605
 31
0.0
  0
LINE
  5
2ECB
330
1E
100
AcDbEntity
  8
3
100
AcDbLine
 10
5.069881889763778
 20
4.901574803149605
 30
0.0
 11
5.056102362204723
 21
4.907480314960629
 31
0.0
  0
LINE
  5
2ECC
330
1E
100
AcDbEntity
  8
3
100
AcDbLine
 10
3.493110236220471
 20
4.007874015748031
 30
0.0
 11
3.506889763779526
 21
4.013779527559055
 31
0.0
  0
LINE
  5
2ECD
330
1E
100
AcDbEntity
  8
3
100
AcDbLine
 10
3.506889763779526
 20
4.013779527559055
 30
0.0
 11
3.51279527559055
 21
4.027559055118111
 31
0.0
  0
LINE
  5
2ECE
330
1E
100
AcDbEntity
  8
3
100
AcDbLine
 10
4.949803149606299
 20
4.309055118110237
 30
0.0
 11
4.961614173228345
 21
4.312992125984251
 31
0.0
  0
LINE
  5
2ECF
330
1E
100
AcDbEntity
  8
3
100
AcDbLine
 10
4.961614173228345
 20
4.312992125984251
 30
0.0
 11
4.969488188976376
 21
4.324803149606299
 31
0.0
  0
LINE
  5
2ED0
330
1E
100
AcDbEntity
  8
3
100
AcDbLine
 10
4.873031496062991
 20
4.007874015748031
 30
0.0
 11
4.886811023622047
 21
4.013779527559055
 31
0.0
  0
LINE
  5
2ED1
330
1E
100
AcDbEntity
  8
3
100
AcDbLine
 10
4.886811023622047
 20
4.013779527559055
 30
0.0
 11
4.892716535433069
 21
4.027559055118111
 31
0.0
  0
LINE
  5
2ED2
330
1E
100
AcDbEntity
  8
3
100
AcDbLine
 10
3.215551181102362
 20
4.84251968503937
 30
0.0
 11
3.201771653543306
 21
4.836614173228346
 31
0.0
  0
LINE
  5
2ED3
330
1E
100
AcDbEntity
  8
3
100
AcDbLine
 10
3.201771653543306
 20
4.836614173228346
 30
0.0
 11
3.195866141732282
 21
4.82283464566929
 31
0.0
  0
LINE
  5
2ED4
330
1E
100
AcDbEntity
  8
3
100
AcDbLine
 10
5.158464566929132
 20
4.82283464566929
 30
0.0
 11
5.15255905511811
 21
4.836614173228346
 31
0.0
  0
LINE
  5
2ED5
330
1E
100
AcDbEntity
  8
3
100
AcDbLine
 10
5.15255905511811
 20
4.836614173228346
 30
0.0
 11
5.138779527559054
 21
4.84251968503937
 31
0.0
  0
LINE
  5
2ED6
330
1E
100
AcDbEntity
  8
3
100
AcDbLine
 10
3.384842519685038
 20
4.324803149606299
 30
0.0
 11
3.392716535433069
 21
4.312992125984251
 31
0.0
  0
LINE
  5
2ED7
330
1E
100
AcDbEntity
  8
3
100
AcDbLine
 10
3.392716535433069
 20
4.312992125984251
 30
0.0
 11
3.404527559055117
 21
4.309055118110237
 31
0.0
  0
LINE
  5
2ED8
330
1E
100
AcDbEntity
  8
3
100
AcDbLine
 10
3.461614173228345
 20
4.027559055118111
 30
0.0
 11
3.467519685039369
 21
4.013779527559055
 31
0.0
  0
LINE
  5
2ED9
330
1E
100
AcDbEntity
  8
3
100
AcDbLine
 10
3.467519685039369
 20
4.013779527559055
 30
0.0
 11
3.481299212598425
 21
4.007874015748031
 31
0.0
  0
LINE
  5
2EDA
330
1E
100
AcDbEntity
  8
3
100
AcDbLine
 10
3.298228346456691
 20
4.907480314960629
 30
0.0
 11
3.284448818897637
 21
4.901574803149605
 31
0.0
  0
LINE
  5
2EDB
330
1E
100
AcDbEntity
  8
3
100
AcDbLine
 10
3.284448818897637
 20
4.901574803149605
 30
0.0
 11
3.278543307086613
 21
4.887795275590551
 31
0.0
  0
LINE
  5
2EDC
330
1E
100
AcDbEntity
  8
3
100
AcDbLine
 10
5.158464566929132
 20
7.824803149606299
 30
0.0
 11
5.1505905511811
 21
7.771653543307085
 31
0.0
  0
LINE
  5
2EDD
330
1E
100
AcDbEntity
  8
3
100
AcDbLine
 10
5.1505905511811
 20
7.771653543307085
 30
0.0
 11
5.126968503937006
 21
7.724409448818896
 31
0.0
  0
LINE
  5
2EDE
330
1E
100
AcDbEntity
  8
3
100
AcDbLine
 10
5.126968503937006
 20
7.724409448818896
 30
0.0
 11
5.089566929133858
 21
7.687007874015748
 31
0.0
  0
LINE
  5
2EDF
330
1E
100
AcDbEntity
  8
3
100
AcDbLine
 10
5.089566929133858
 20
7.687007874015748
 30
0.0
 11
5.04035433070866
 21
7.663385826771651
 31
0.0
  0
LINE
  5
2EE0
330
1E
100
AcDbEntity
  8
3
100
AcDbLine
 10
5.04035433070866
 20
7.663385826771651
 30
0.0
 11
4.989173228346456
 21
7.653543307086614
 31
0.0
  0
LINE
  5
2EE1
330
1E
100
AcDbEntity
  8
3
100
AcDbLine
 10
3.266732283464565
 20
10.53149606299212
 30
0.0
 11
3.282480314960628
 21
10.56299212598425
 31
0.0
  0
LINE
  5
2EE2
330
1E
100
AcDbEntity
  8
3
100
AcDbLine
 10
3.282480314960628
 20
10.56299212598425
 30
0.0
 11
3.310039370078739
 21
10.58858267716535
 31
0.0
  0
LINE
  5
2EE3
330
1E
100
AcDbEntity
  8
3
100
AcDbLine
 10
5.052165354330708
 20
10.55314960629921
 30
0.0
 11
5.028543307086613
 21
10.5767716535433
 31
0.0
  0
LINE
  5
2EE4
330
1E
100
AcDbEntity
  8
3
100
AcDbLine
 10
5.028543307086613
 20
10.5767716535433
 30
0.0
 11
4.999015748031495
 21
10.59251968503936
 31
0.0
  0
LINE
  5
2EE5
330
1E
100
AcDbEntity
  8
3
100
AcDbLine
 10
3.184055118110236
 20
7.834645669291337
 30
0.0
 11
3.193897637795275
 21
7.783464566929133
 31
0.0
  0
LINE
  5
2EE6
330
1E
100
AcDbEntity
  8
3
100
AcDbLine
 10
3.193897637795275
 20
7.783464566929133
 30
0.0
 11
3.217519685039369
 21
7.736220472440944
 31
0.0
  0
LINE
  5
2EE7
330
1E
100
AcDbEntity
  8
3
100
AcDbLine
 10
3.217519685039369
 20
7.736220472440944
 30
0.0
 11
3.254921259842519
 21
7.696850393700788
 31
0.0
  0
LINE
  5
2EE8
330
1E
100
AcDbEntity
  8
3
100
AcDbLine
 10
3.254921259842519
 20
7.696850393700788
 30
0.0
 11
3.302165354330708
 21
7.673228346456692
 31
0.0
  0
LINE
  5
2EE9
330
1E
100
AcDbEntity
  8
3
100
AcDbLine
 10
3.302165354330708
 20
7.673228346456692
 30
0.0
 11
3.355314960629921
 21
7.665354330708662
 31
0.0
  0
LINE
  5
2EEA
330
1E
100
AcDbEntity
  8
3
100
AcDbLine
 10
5.126968503937006
 20
10.50787401574803
 30
0.0
 11
5.121062992125984
 21
10.55511811023622
 31
0.0
  0
LINE
  5
2EEB
330
1E
100
AcDbEntity
  8
3
100
AcDbLine
 10
5.121062992125984
 20
10.55511811023622
 30
0.0
 11
5.099409448818897
 21
10.59645669291338
 31
0.0
  0
LINE
  5
2EEC
330
1E
100
AcDbEntity
  8
3
100
AcDbLine
 10
5.099409448818897
 20
10.59645669291338
 30
0.0
 11
5.065944881889763
 21
10.62992125984251
 31
0.0
  0
LINE
  5
2EED
330
1E
100
AcDbEntity
  8
3
100
AcDbLine
 10
5.065944881889763
 20
10.62992125984251
 30
0.0
 11
5.024606299212597
 21
10.6515748031496
 31
0.0
  0
LINE
  5
2EEE
330
1E
100
AcDbEntity
  8
3
100
AcDbLine
 10
5.024606299212597
 20
10.6515748031496
 30
0.0
 11
4.977362204724408
 21
10.65748031496063
 31
0.0
  0
LINE
  5
2EEF
330
1E
100
AcDbEntity
  8
3
100
AcDbLine
 10
4.004921259842519
 20
7.76771653543307
 30
0.0
 11
4.004921259842519
 21
7.753937007874014
 31
0.0
  0
LINE
  5
2EF0
330
1E
100
AcDbEntity
  8
3
100
AcDbLine
 10
4.004921259842519
 20
7.753937007874014
 30
0.0
 11
4.004921259842519
 21
7.748031496062992
 31
0.0
  0
LINE
  5
2EF1
330
1E
100
AcDbEntity
  8
3
100
AcDbLine
 10
5.065944881889763
 20
10.50393700787401
 30
0.0
 11
5.058070866141732
 21
10.53937007874016
 31
0.0
  0
LINE
  5
2EF2
330
1E
100
AcDbEntity
  8
3
100
AcDbLine
 10
5.058070866141732
 20
10.53937007874016
 30
0.0
 11
5.038385826771652
 21
10.56889763779527
 31
0.0
  0
LINE
  5
2EF3
330
1E
100
AcDbEntity
  8
3
100
AcDbLine
 10
5.038385826771652
 20
10.56889763779527
 30
0.0
 11
5.008858267716534
 21
10.58858267716535
 31
0.0
  0
LINE
  5
2EF4
330
1E
100
AcDbEntity
  8
3
100
AcDbLine
 10
5.008858267716534
 20
10.58858267716535
 30
0.0
 11
4.973425196850393
 21
10.59645669291338
 31
0.0
  0
LINE
  5
2EF5
330
1E
100
AcDbEntity
  8
3
100
AcDbLine
 10
5.030511811023621
 20
7.673228346456692
 30
0.0
 11
5.07775590551181
 21
7.696850393700788
 31
0.0
  0
LINE
  5
2EF6
330
1E
100
AcDbEntity
  8
3
100
AcDbLine
 10
5.07775590551181
 20
7.696850393700788
 30
0.0
 11
5.11515748031496
 21
7.736220472440944
 31
0.0
  0
LINE
  5
2EF7
330
1E
100
AcDbEntity
  8
3
100
AcDbLine
 10
5.11515748031496
 20
7.736220472440944
 30
0.0
 11
5.138779527559054
 21
7.783464566929133
 31
0.0
  0
LINE
  5
2EF8
330
1E
100
AcDbEntity
  8
3
100
AcDbLine
 10
5.138779527559054
 20
7.783464566929133
 30
0.0
 11
5.146653543307086
 21
7.834645669291337
 31
0.0
  0
LINE
  5
2EF9
330
1E
100
AcDbEntity
  8
3
100
AcDbLine
 10
3.29035433070866
 20
7.663385826771651
 30
0.0
 11
3.243110236220471
 21
7.687007874015748
 31
0.0
  0
LINE
  5
2EFA
330
1E
100
AcDbEntity
  8
3
100
AcDbLine
 10
3.243110236220471
 20
7.687007874015748
 30
0.0
 11
3.205708661417321
 21
7.724409448818896
 31
0.0
  0
LINE
  5
2EFB
330
1E
100
AcDbEntity
  8
3
100
AcDbLine
 10
3.205708661417321
 20
7.724409448818896
 30
0.0
 11
3.182086614173226
 21
7.771653543307085
 31
0.0
  0
LINE
  5
2EFC
330
1E
100
AcDbEntity
  8
3
100
AcDbLine
 10
3.182086614173226
 20
7.771653543307085
 30
0.0
 11
3.174212598425195
 21
7.824803149606299
 31
0.0
  0
LINE
  5
2EFD
330
1E
100
AcDbEntity
  8
3
100
AcDbLine
 10
3.280511811023621
 20
7.791338582677166
 30
0.0
 11
3.304133858267715
 21
7.765748031496062
 31
0.0
  0
LINE
  5
2EFE
330
1E
100
AcDbEntity
  8
3
100
AcDbLine
 10
3.304133858267715
 20
7.765748031496062
 30
0.0
 11
3.333661417322834
 21
7.751968503937007
 31
0.0
  0
LINE
  5
2EFF
330
1E
100
AcDbEntity
  8
3
100
AcDbLine
 10
3.268700787401574
 20
7.840551181102362
 30
0.0
 11
3.274606299212597
 21
7.805118110236222
 31
0.0
  0
LINE
  5
2F00
330
1E
100
AcDbEntity
  8
3
100
AcDbLine
 10
3.274606299212597
 20
7.805118110236222
 30
0.0
 11
3.294291338582676
 21
7.775590551181103
 31
0.0
  0
LINE
  5
2F01
330
1E
100
AcDbEntity
  8
3
100
AcDbLine
 10
3.294291338582676
 20
7.775590551181103
 30
0.0
 11
3.323818897637795
 21
7.755905511811022
 31
0.0
  0
LINE
  5
2F02
330
1E
100
AcDbEntity
  8
3
100
AcDbLine
 10
3.323818897637795
 20
7.755905511811022
 30
0.0
 11
3.359251968503936
 21
7.748031496062992
 31
0.0
  0
LINE
  5
2F03
330
1E
100
AcDbEntity
  8
3
100
AcDbLine
 10
3.294291338582676
 20
10.56889763779527
 30
0.0
 11
3.274606299212597
 21
10.53937007874016
 31
0.0
  0
LINE
  5
2F04
330
1E
100
AcDbEntity
  8
3
100
AcDbLine
 10
3.274606299212597
 20
10.53937007874016
 30
0.0
 11
3.268700787401574
 21
10.50393700787401
 31
0.0
  0
LINE
  5
2F05
330
1E
100
AcDbEntity
  8
3
100
AcDbLine
 10
3.359251968503936
 20
10.59448818897637
 30
0.0
 11
3.323818897637795
 21
10.58858267716535
 31
0.0
  0
LINE
  5
2F06
330
1E
100
AcDbEntity
  8
3
100
AcDbLine
 10
3.323818897637795
 20
10.58858267716535
 30
0.0
 11
3.294291338582676
 21
10.56889763779527
 31
0.0
  0
LINE
  5
2F07
330
1E
100
AcDbEntity
  8
3
100
AcDbLine
 10
3.359251968503936
 20
10.59645669291338
 30
0.0
 11
3.323818897637795
 21
10.58858267716535
 31
0.0
  0
LINE
  5
2F08
330
1E
100
AcDbEntity
  8
3
100
AcDbLine
 10
3.323818897637795
 20
10.58858267716535
 30
0.0
 11
3.294291338582676
 21
10.56889763779527
 31
0.0
  0
LINE
  5
2F09
330
1E
100
AcDbEntity
  8
3
100
AcDbLine
 10
3.294291338582676
 20
10.56889763779527
 30
0.0
 11
3.274606299212597
 21
10.53937007874016
 31
0.0
  0
LINE
  5
2F0A
330
1E
100
AcDbEntity
  8
3
100
AcDbLine
 10
3.274606299212597
 20
10.53937007874016
 30
0.0
 11
3.266732283464565
 21
10.50393700787401
 31
0.0
  0
LINE
  5
2F0B
330
1E
100
AcDbEntity
  8
3
100
AcDbLine
 10
4.989173228346456
 20
10.68897637795275
 30
0.0
 11
5.04035433070866
 21
10.68110236220472
 31
0.0
  0
LINE
  5
2F0C
330
1E
100
AcDbEntity
  8
3
100
AcDbLine
 10
5.04035433070866
 20
10.68110236220472
 30
0.0
 11
5.089566929133858
 21
10.65748031496063
 31
0.0
  0
LINE
  5
2F0D
330
1E
100
AcDbEntity
  8
3
100
AcDbLine
 10
5.089566929133858
 20
10.65748031496063
 30
0.0
 11
5.126968503937006
 21
10.62007874015748
 31
0.0
  0
LINE
  5
2F0E
330
1E
100
AcDbEntity
  8
3
100
AcDbLine
 10
5.126968503937006
 20
10.62007874015748
 30
0.0
 11
5.1505905511811
 21
10.57086614173228
 31
0.0
  0
LINE
  5
2F0F
330
1E
100
AcDbEntity
  8
3
100
AcDbLine
 10
5.022637795275589
 20
7.761811023622048
 30
0.0
 11
5.046259842519684
 21
7.783464566929133
 31
0.0
  0
LINE
  5
2F10
330
1E
100
AcDbEntity
  8
3
100
AcDbLine
 10
5.046259842519684
 20
7.783464566929133
 30
0.0
 11
5.062007874015747
 21
7.812992125984251
 31
0.0
  0
LINE
  5
2F11
330
1E
100
AcDbEntity
  8
3
100
AcDbLine
 10
4.973425196850393
 20
7.748031496062992
 30
0.0
 11
5.008858267716534
 21
7.755905511811022
 31
0.0
  0
LINE
  5
2F12
330
1E
100
AcDbEntity
  8
3
100
AcDbLine
 10
5.008858267716534
 20
7.755905511811022
 30
0.0
 11
5.038385826771652
 21
7.775590551181103
 31
0.0
  0
LINE
  5
2F13
330
1E
100
AcDbEntity
  8
3
100
AcDbLine
 10
5.038385826771652
 20
7.775590551181103
 30
0.0
 11
5.058070866141732
 21
7.805118110236222
 31
0.0
  0
LINE
  5
2F14
330
1E
100
AcDbEntity
  8
3
100
AcDbLine
 10
5.058070866141732
 20
7.805118110236222
 30
0.0
 11
5.063976377952754
 21
7.840551181102362
 31
0.0
  0
LINE
  5
2F15
330
1E
100
AcDbEntity
  8
3
100
AcDbLine
 10
4.977362204724408
 20
7.68503937007874
 30
0.0
 11
5.024606299212597
 21
7.69291338582677
 31
0.0
  0
LINE
  5
2F16
330
1E
100
AcDbEntity
  8
3
100
AcDbLine
 10
5.024606299212597
 20
7.69291338582677
 30
0.0
 11
5.065944881889763
 21
7.714566929133859
 31
0.0
  0
LINE
  5
2F17
330
1E
100
AcDbEntity
  8
3
100
AcDbLine
 10
5.065944881889763
 20
7.714566929133859
 30
0.0
 11
5.099409448818897
 21
7.746062992125985
 31
0.0
  0
LINE
  5
2F18
330
1E
100
AcDbEntity
  8
3
100
AcDbLine
 10
5.099409448818897
 20
7.746062992125985
 30
0.0
 11
5.121062992125984
 21
7.789370078740159
 31
0.0
  0
LINE
  5
2F19
330
1E
100
AcDbEntity
  8
3
100
AcDbLine
 10
5.121062992125984
 20
7.789370078740159
 30
0.0
 11
5.126968503937006
 21
7.834645669291337
 31
0.0
  0
LINE
  5
2F1A
330
1E
100
AcDbEntity
  8
3
100
AcDbLine
 10
4.32775590551181
 20
7.748031496062992
 30
0.0
 11
4.32775590551181
 21
7.753937007874014
 31
0.0
  0
LINE
  5
2F1B
330
1E
100
AcDbEntity
  8
3
100
AcDbLine
 10
4.32775590551181
 20
7.753937007874014
 30
0.0
 11
4.32775590551181
 21
7.76771653543307
 31
0.0
  0
LINE
  5
2F1C
330
1E
100
AcDbEntity
  8
3
100
AcDbLine
 10
3.174212598425195
 20
10.51968503937007
 30
0.0
 11
3.182086614173226
 21
10.57086614173228
 31
0.0
  0
LINE
  5
2F1D
330
1E
100
AcDbEntity
  8
3
100
AcDbLine
 10
3.182086614173226
 20
10.57086614173228
 30
0.0
 11
3.205708661417321
 21
10.62007874015748
 31
0.0
  0
LINE
  5
2F1E
330
1E
100
AcDbEntity
  8
3
100
AcDbLine
 10
3.205708661417321
 20
10.62007874015748
 30
0.0
 11
3.243110236220471
 21
10.65748031496063
 31
0.0
  0
LINE
  5
2F1F
330
1E
100
AcDbEntity
  8
3
100
AcDbLine
 10
3.243110236220471
 20
10.65748031496063
 30
0.0
 11
3.29035433070866
 21
10.68110236220472
 31
0.0
  0
LINE
  5
2F20
330
1E
100
AcDbEntity
  8
3
100
AcDbLine
 10
3.29035433070866
 20
10.68110236220472
 30
0.0
 11
3.343503937007873
 21
10.68897637795275
 31
0.0
  0
LINE
  5
2F21
330
1E
100
AcDbEntity
  8
3
100
AcDbLine
 10
5.146653543307086
 20
10.50787401574803
 30
0.0
 11
5.138779527559054
 21
10.56102362204724
 31
0.0
  0
LINE
  5
2F22
330
1E
100
AcDbEntity
  8
3
100
AcDbLine
 10
5.138779527559054
 20
10.56102362204724
 30
0.0
 11
5.11515748031496
 21
10.60826771653543
 31
0.0
  0
LINE
  5
2F23
330
1E
100
AcDbEntity
  8
3
100
AcDbLine
 10
5.11515748031496
 20
10.60826771653543
 30
0.0
 11
5.07775590551181
 21
10.64566929133858
 31
0.0
  0
LINE
  5
2F24
330
1E
100
AcDbEntity
  8
3
100
AcDbLine
 10
5.07775590551181
 20
10.64566929133858
 30
0.0
 11
5.030511811023621
 21
10.66929133858267
 31
0.0
  0
LINE
  5
2F25
330
1E
100
AcDbEntity
  8
3
100
AcDbLine
 10
5.030511811023621
 20
10.66929133858267
 30
0.0
 11
4.977362204724408
 21
10.67913385826771
 31
0.0
  0
LINE
  5
2F26
330
1E
100
AcDbEntity
  8
3
100
AcDbLine
 10
4.004921259842519
 20
10.59448818897637
 30
0.0
 11
4.004921259842519
 21
10.58858267716535
 31
0.0
  0
LINE
  5
2F27
330
1E
100
AcDbEntity
  8
3
100
AcDbLine
 10
4.004921259842519
 20
10.58858267716535
 30
0.0
 11
4.004921259842519
 21
10.57480314960629
 31
0.0
  0
LINE
  5
2F28
330
1E
100
AcDbEntity
  8
3
100
AcDbLine
 10
3.359251968503936
 20
10.57480314960629
 30
0.0
 11
3.323818897637795
 21
10.56496062992126
 31
0.0
  0
LINE
  5
2F29
330
1E
100
AcDbEntity
  8
3
100
AcDbLine
 10
3.323818897637795
 20
10.56496062992126
 30
0.0
 11
3.298228346456691
 21
10.53937007874016
 31
0.0
  0
LINE
  5
2F2A
330
1E
100
AcDbEntity
  8
3
100
AcDbLine
 10
3.298228346456691
 20
10.53937007874016
 30
0.0
 11
3.288385826771652
 21
10.50393700787401
 31
0.0
  0
LINE
  5
2F2B
330
1E
100
AcDbEntity
  8
3
100
AcDbLine
 10
3.355314960629921
 20
10.67913385826771
 30
0.0
 11
3.302165354330708
 21
10.66929133858267
 31
0.0
  0
LINE
  5
2F2C
330
1E
100
AcDbEntity
  8
3
100
AcDbLine
 10
3.302165354330708
 20
10.66929133858267
 30
0.0
 11
3.254921259842519
 21
10.64566929133858
 31
0.0
  0
LINE
  5
2F2D
330
1E
100
AcDbEntity
  8
3
100
AcDbLine
 10
3.254921259842519
 20
10.64566929133858
 30
0.0
 11
3.217519685039369
 21
10.60826771653543
 31
0.0
  0
LINE
  5
2F2E
330
1E
100
AcDbEntity
  8
3
100
AcDbLine
 10
3.217519685039369
 20
10.60826771653543
 30
0.0
 11
3.193897637795275
 21
10.56102362204724
 31
0.0
  0
LINE
  5
2F2F
330
1E
100
AcDbEntity
  8
3
100
AcDbLine
 10
3.193897637795275
 20
10.56102362204724
 30
0.0
 11
3.184055118110236
 21
10.50787401574803
 31
0.0
  0
LINE
  5
2F30
330
1E
100
AcDbEntity
  8
3
100
AcDbLine
 10
5.044291338582676
 20
10.50393700787401
 30
0.0
 11
5.034448818897637
 21
10.53937007874016
 31
0.0
  0
LINE
  5
2F31
330
1E
100
AcDbEntity
  8
3
100
AcDbLine
 10
5.034448818897637
 20
10.53937007874016
 30
0.0
 11
5.008858267716534
 21
10.56496062992126
 31
0.0
  0
LINE
  5
2F32
330
1E
100
AcDbEntity
  8
3
100
AcDbLine
 10
5.008858267716534
 20
10.56496062992126
 30
0.0
 11
4.973425196850393
 21
10.57480314960629
 31
0.0
  0
LINE
  5
2F33
330
1E
100
AcDbEntity
  8
3
100
AcDbLine
 10
3.331692913385826
 20
7.746062992125985
 30
0.0
 11
3.298228346456691
 21
7.761811023622048
 31
0.0
  0
LINE
  5
2F34
330
1E
100
AcDbEntity
  8
3
100
AcDbLine
 10
3.298228346456691
 20
7.761811023622048
 30
0.0
 11
3.274606299212597
 21
7.789370078740159
 31
0.0
  0
LINE
  5
2F35
330
1E
100
AcDbEntity
  8
3
100
AcDbLine
 10
3.355314960629921
 20
10.65748031496063
 30
0.0
 11
3.308070866141732
 21
10.6515748031496
 31
0.0
  0
LINE
  5
2F36
330
1E
100
AcDbEntity
  8
3
100
AcDbLine
 10
3.308070866141732
 20
10.6515748031496
 30
0.0
 11
3.266732283464565
 21
10.62992125984251
 31
0.0
  0
LINE
  5
2F37
330
1E
100
AcDbEntity
  8
3
100
AcDbLine
 10
3.266732283464565
 20
10.62992125984251
 30
0.0
 11
3.233267716535432
 21
10.59645669291338
 31
0.0
  0
LINE
  5
2F38
330
1E
100
AcDbEntity
  8
3
100
AcDbLine
 10
3.233267716535432
 20
10.59645669291338
 30
0.0
 11
3.211614173228345
 21
10.55511811023622
 31
0.0
  0
LINE
  5
2F39
330
1E
100
AcDbEntity
  8
3
100
AcDbLine
 10
3.211614173228345
 20
10.55511811023622
 30
0.0
 11
3.203740157480313
 21
10.50787401574803
 31
0.0
  0
LINE
  5
2F3A
330
1E
100
AcDbEntity
  8
3
100
AcDbLine
 10
5.065944881889763
 20
7.812992125984251
 30
0.0
 11
5.0501968503937
 21
7.779527559055118
 31
0.0
  0
LINE
  5
2F3B
330
1E
100
AcDbEntity
  8
3
100
AcDbLine
 10
5.0501968503937
 20
7.779527559055118
 30
0.0
 11
5.022637795275589
 21
7.755905511811022
 31
0.0
  0
LINE
  5
2F3C
330
1E
100
AcDbEntity
  8
3
100
AcDbLine
 10
3.266732283464565
 20
7.838582677165355
 30
0.0
 11
3.274606299212597
 21
7.803149606299211
 31
0.0
  0
LINE
  5
2F3D
330
1E
100
AcDbEntity
  8
3
100
AcDbLine
 10
3.274606299212597
 20
7.803149606299211
 30
0.0
 11
3.294291338582676
 21
7.773622047244096
 31
0.0
  0
LINE
  5
2F3E
330
1E
100
AcDbEntity
  8
3
100
AcDbLine
 10
3.294291338582676
 20
7.773622047244096
 30
0.0
 11
3.323818897637795
 21
7.753937007874014
 31
0.0
  0
LINE
  5
2F3F
330
1E
100
AcDbEntity
  8
3
100
AcDbLine
 10
3.323818897637795
 20
7.753937007874014
 30
0.0
 11
3.359251968503936
 21
7.748031496062992
 31
0.0
  0
LINE
  5
2F40
330
1E
100
AcDbEntity
  8
3
100
AcDbLine
 10
4.973425196850393
 20
7.76771653543307
 30
0.0
 11
5.008858267716534
 21
7.777559055118111
 31
0.0
  0
LINE
  5
2F41
330
1E
100
AcDbEntity
  8
3
100
AcDbLine
 10
5.008858267716534
 20
7.777559055118111
 30
0.0
 11
5.034448818897637
 21
7.803149606299211
 31
0.0
  0
LINE
  5
2F42
330
1E
100
AcDbEntity
  8
3
100
AcDbLine
 10
5.034448818897637
 20
7.803149606299211
 30
0.0
 11
5.044291338582676
 21
7.840551181102362
 31
0.0
  0
LINE
  5
2F43
330
1E
100
AcDbEntity
  8
3
100
AcDbLine
 10
3.203740157480313
 20
7.834645669291337
 30
0.0
 11
3.211614173228345
 21
7.789370078740159
 31
0.0
  0
LINE
  5
2F44
330
1E
100
AcDbEntity
  8
3
100
AcDbLine
 10
3.211614173228345
 20
7.789370078740159
 30
0.0
 11
3.233267716535432
 21
7.746062992125985
 31
0.0
  0
LINE
  5
2F45
330
1E
100
AcDbEntity
  8
3
100
AcDbLine
 10
3.233267716535432
 20
7.746062992125985
 30
0.0
 11
3.266732283464565
 21
7.714566929133859
 31
0.0
  0
LINE
  5
2F46
330
1E
100
AcDbEntity
  8
3
100
AcDbLine
 10
3.266732283464565
 20
7.714566929133859
 30
0.0
 11
3.308070866141732
 21
7.69291338582677
 31
0.0
  0
LINE
  5
2F47
330
1E
100
AcDbEntity
  8
3
100
AcDbLine
 10
3.308070866141732
 20
7.69291338582677
 30
0.0
 11
3.355314960629921
 21
7.68503937007874
 31
0.0
  0
LINE
  5
2F48
330
1E
100
AcDbEntity
  8
3
100
AcDbLine
 10
3.288385826771652
 20
7.840551181102362
 30
0.0
 11
3.298228346456691
 21
7.803149606299211
 31
0.0
  0
LINE
  5
2F49
330
1E
100
AcDbEntity
  8
3
100
AcDbLine
 10
3.298228346456691
 20
7.803149606299211
 30
0.0
 11
3.323818897637795
 21
7.777559055118111
 31
0.0
  0
LINE
  5
2F4A
330
1E
100
AcDbEntity
  8
3
100
AcDbLine
 10
3.323818897637795
 20
7.777559055118111
 30
0.0
 11
3.359251968503936
 21
7.76771653543307
 31
0.0
  0
LINE
  5
2F4B
330
1E
100
AcDbEntity
  8
3
100
AcDbLine
 10
4.999015748031495
 20
10.59645669291338
 30
0.0
 11
5.032480314960628
 21
10.58070866141732
 31
0.0
  0
LINE
  5
2F4C
330
1E
100
AcDbEntity
  8
3
100
AcDbLine
 10
5.032480314960628
 20
10.58070866141732
 30
0.0
 11
5.058070866141732
 21
10.55314960629921
 31
0.0
  0
LINE
  5
2F4D
330
1E
100
AcDbEntity
  8
3
100
AcDbLine
 10
5.063976377952754
 20
10.50393700787401
 30
0.0
 11
5.058070866141732
 21
10.53937007874016
 31
0.0
  0
LINE
  5
2F4E
330
1E
100
AcDbEntity
  8
3
100
AcDbLine
 10
5.058070866141732
 20
10.53937007874016
 30
0.0
 11
5.038385826771652
 21
10.56889763779527
 31
0.0
  0
LINE
  5
2F4F
330
1E
100
AcDbEntity
  8
3
100
AcDbLine
 10
5.038385826771652
 20
10.56889763779527
 30
0.0
 11
5.008858267716534
 21
10.58858267716535
 31
0.0
  0
LINE
  5
2F50
330
1E
100
AcDbEntity
  8
3
100
AcDbLine
 10
5.008858267716534
 20
10.58858267716535
 30
0.0
 11
4.973425196850393
 21
10.59448818897637
 31
0.0
  0
LINE
  5
2F51
330
1E
100
AcDbEntity
  8
3
100
AcDbLine
 10
4.973425196850393
 20
7.748031496062992
 30
0.0
 11
5.008858267716534
 21
7.753937007874014
 31
0.0
  0
LINE
  5
2F52
330
1E
100
AcDbEntity
  8
3
100
AcDbLine
 10
5.008858267716534
 20
7.753937007874014
 30
0.0
 11
5.038385826771652
 21
7.773622047244096
 31
0.0
  0
LINE
  5
2F53
330
1E
100
AcDbEntity
  8
3
100
AcDbLine
 10
5.038385826771652
 20
7.773622047244096
 30
0.0
 11
5.058070866141732
 21
7.803149606299211
 31
0.0
  0
LINE
  5
2F54
330
1E
100
AcDbEntity
  8
3
100
AcDbLine
 10
5.058070866141732
 20
7.803149606299211
 30
0.0
 11
5.065944881889763
 21
7.838582677165355
 31
0.0
  0
LINE
  5
2F55
330
1E
100
AcDbEntity
  8
3
100
AcDbLine
 10
4.833661417322834
 20
10.12007874015748
 30
0.0
 11
4.833661417322834
 21
10.4763779527559
 31
0.0
  0
LINE
  5
2F56
330
1E
100
AcDbEntity
  8
3
100
AcDbLine
 10
4.833661417322834
 20
10.4763779527559
 30
0.0
 11
4.835629921259841
 21
10.47834645669291
 31
0.0
  0
LINE
  5
2F57
330
1E
100
AcDbEntity
  8
3
100
AcDbLine
 10
3.378937007874015
 20
8.438976377952755
 30
0.0
 11
3.376968503937006
 21
8.431102362204725
 31
0.0
  0
LINE
  5
2F58
330
1E
100
AcDbEntity
  8
3
100
AcDbLine
 10
3.376968503937006
 20
8.431102362204725
 30
0.0
 11
3.376968503937006
 21
7.844488188976377
 31
0.0
  0
ENDSEC
  0
SECTION
  2
OBJECTS
  0
DICTIONARY
  5
C
330
0
100
AcDbDictionary
  3
ACAD_GROUP
350
D
  3
ACAD_LAYOUT
350
19
  3
ACAD_MLINESTYLE
350
16
  3
ACAD_PLOTSETTINGS
350
18
1001
ACAD
1000
TREAT_AS_HARD
1070
     0
  0
DICTIONARY
  5
319C
330
1E
100
AcDbDictionary
  3
ACAD_LAYOUTSELFREF
350
322A
1001
ACAD
1000
TREAT_AS_HARD
1070
     1
  0
DICTIONARY
  5
319E
330
1A
100
AcDbDictionary
  3
ACAD_LAYOUTSELFREF
350
3229
1001
ACAD
1000
TREAT_AS_HARD
1070
     1
  0
DICTIONARY
  5
D
102
{ACAD_REACTORS
330
C
102
}
330
C
100
AcDbDictionary
1001
ACAD
1000
TREAT_AS_HARD
1070
     0
  0
DICTIONARY
  5
19
102
{ACAD_REACTORS
330
C
102
}
330
C
100
AcDbDictionary
1001
ACAD
1000
TREAT_AS_HARD
1070
     0
  0
DICTIONARY
  5
16
102
{ACAD_REACTORS
330
C
102
}
330
C
100
AcDbDictionary
  3
STANDARD
350
17
1001
ACAD
1000
TREAT_AS_HARD
1070
     0
  0
DICTIONARY
  5
18
102
{ACAD_REACTORS
330
C
102
}
330
C
100
AcDbDictionary
1001
ACAD
1000
TREAT_AS_HARD
1070
     0
  0
XRECORD
  5
322A
102
{ACAD_REACTORS
330
319C
102
}
330
319C
100
AcDbXrecord
340
1E
  0
XRECORD
  5
3229
102
{ACAD_REACTORS
330
319E
102
}
330
319E
100
AcDbXrecord
340
1A
  0
MLINESTYLE
  5
17
102
{ACAD_REACTORS
330
16
102
}
330
16
100
AcDbMlineStyle
  2
STANDARD
 70
     0
  3

 62
   256
 51
90.0
 52
90.0
 71
     2
 49
0.5
 62
   256
  6
BYLAYER
 49
-0.5
 62
   256
  6
BYLAYER
  0
ENDSEC
  0
EOF
