  0
SECTION
  2
HEADER
  9
$ACADVER
  1
AC1012
  9
$DWGCODEPAGE
  3
ANSI_1252
  9
$INSBASE
 10
0.0
 20
0.0
 30
0.0
  9
$EXTMIN
 10
7.834569435029347
 20
4.966918972049512
 30
-0.0015258207003583
  9
$EXTMAX
 10
14.02212054429727
 20
8.117248555083349
 30
0.0000000349246037
  9
$LIMMIN
 10
0.0
 20
0.0
  9
$LIMMAX
 10
12.0
 20
9.0
  9
$ORTHOMODE
 70
     0
  9
$REGENMODE
 70
     1
  9
$FILLMODE
 70
     1
  9
$QTEXTMODE
 70
     0
  9
$MIRRTEXT
 70
     1
  9
$DRAGMODE
 70
     2
  9
$LTSCALE
 40
1.0
  9
$OSMODE
 70
   547
  9
$ATTMODE
 70
     1
  9
$TEXTSIZE
 40
0.2
  9
$TRACEWID
 40
0.05
  9
$TEXTSTYLE
  7
STANDARD
  9
$CLAYER
  8
0
  9
$CELTYPE
  6
BYLAYER
  9
$CECOLOR
 62
   256
  9
$CELTSCALE
 40
1.0
  9
$DELOBJ
 70
     1
  9
$DISPSILH
 70
     0
  9
$DIMSCALE
 40
1.0
  9
$DIMASZ
 40
0.18
  9
$DIMEXO
 40
0.0625
  9
$DIMDLI
 40
0.38
  9
$DIMRND
 40
0.0
  9
$DIMDLE
 40
0.0
  9
$DIMEXE
 40
0.18
  9
$DIMTP
 40
0.0
  9
$DIMTM
 40
0.0
  9
$DIMTXT
 40
0.18
  9
$DIMCEN
 40
0.09
  9
$DIMTSZ
 40
0.0
  9
$DIMTOL
 70
     0
  9
$DIMLIM
 70
     0
  9
$DIMTIH
 70
     1
  9
$DIMTOH
 70
     1
  9
$DIMSE1
 70
     0
  9
$DIMSE2
 70
     0
  9
$DIMTAD
 70
     0
  9
$DIMZIN
 70
     0
  9
$DIMBLK
  1

  9
$DIMASO
 70
     1
  9
$DIMSHO
 70
     1
  9
$DIMPOST
  1

  9
$DIMAPOST
  1

  9
$DIMALT
 70
     0
  9
$DIMALTD
 70
     2
  9
$DIMALTF
 40
25.4
  9
$DIMLFAC
 40
1.0
  9
$DIMTOFL
 70
     0
  9
$DIMTVP
 40
0.0
  9
$DIMTIX
 70
     0
  9
$DIMSOXD
 70
     0
  9
$DIMSAH
 70
     0
  9
$DIMBLK1
  1

  9
$DIMBLK2
  1

  9
$DIMSTYLE
  2
STANDARD
  9
$DIMCLRD
 70
     0
  9
$DIMCLRE
 70
     0
  9
$DIMCLRT
 70
     0
  9
$DIMTFAC
 40
1.0
  9
$DIMGAP
 40
0.09
  9
$DIMJUST
 70
     0
  9
$DIMSD1
 70
     0
  9
$DIMSD2
 70
     0
  9
$DIMTOLJ
 70
     1
  9
$DIMTZIN
 70
     0
  9
$DIMALTZ
 70
     0
  9
$DIMALTTZ
 70
     0
  9
$DIMFIT
 70
     3
  9
$DIMUPT
 70
     0
  9
$DIMUNIT
 70
     2
  9
$DIMDEC
 70
     4
  9
$DIMTDEC
 70
     4
  9
$DIMALTU
 70
     2
  9
$DIMALTTD
 70
     2
  9
$DIMTXSTY
  7
STANDARD
  9
$DIMAUNIT
 70
     0
  9
$LUNITS
 70
     2
  9
$LUPREC
 70
     4
  9
$SKETCHINC
 40
0.1
  9
$FILLETRAD
 40
0.0
  9
$AUNITS
 70
     0
  9
$AUPREC
 70
     0
  9
$MENU
  1
acad
  9
$ELEVATION
 40
0.0
  9
$PELEVATION
 40
0.0
  9
$THICKNESS
 40
0.0
  9
$LIMCHECK
 70
     0
  9
$BLIPMODE
 70
     0
  9
$CHAMFERA
 40
0.0
  9
$CHAMFERB
 40
0.0
  9
$CHAMFERC
 40
0.0
  9
$CHAMFERD
 40
0.0
  9
$SKPOLY
 70
     0
  9
$TDCREATE
 40
2451900.563599537
  9
$TDUPDATE
 40
2453945.386942233
  9
$TDINDWG
 40
0.0072945602
  9
$TDUSRTIMER
 40
0.0072942014
  9
$USRTIMER
 70
     1
  9
$ANGBASE
 50
0.0
  9
$ANGDIR
 70
     0
  9
$PDMODE
 70
     0
  9
$PDSIZE
 40
0.0
  9
$PLINEWID
 40
0.0
  9
$COORDS
 70
     1
  9
$SPLFRAME
 70
     0
  9
$SPLINETYPE
 70
     6
  9
$SPLINESEGS
 70
     8
  9
$ATTDIA
 70
     0
  9
$ATTREQ
 70
     1
  9
$HANDLING
 70
  4097
  9
$HANDSEED
  5
65DF
  9
$SURFTAB1
 70
     6
  9
$SURFTAB2
 70
     6
  9
$SURFTYPE
 70
     6
  9
$SURFU
 70
     6
  9
$SURFV
 70
     6
  9
$UCSNAME
  2

  9
$UCSORG
 10
0.0
 20
0.0
 30
0.0
  9
$UCSXDIR
 10
1.0
 20
0.0
 30
0.0
  9
$UCSYDIR
 10
0.0
 20
1.0
 30
0.0
  9
$PUCSNAME
  2

  9
$PUCSORG
 10
0.0
 20
0.0
 30
0.0
  9
$PUCSXDIR
 10
1.0
 20
0.0
 30
0.0
  9
$PUCSYDIR
 10
0.0
 20
1.0
 30
0.0
  9
$USERI1
 70
     0
  9
$USERI2
 70
     0
  9
$USERI3
 70
     0
  9
$USERI4
 70
     0
  9
$USERI5
 70
     0
  9
$USERR1
 40
0.0
  9
$USERR2
 40
0.0
  9
$USERR3
 40
0.0
  9
$USERR4
 40
0.0
  9
$USERR5
 40
0.0
  9
$WORLDVIEW
 70
     1
  9
$SHADEDGE
 70
     3
  9
$SHADEDIF
 70
    70
  9
$TILEMODE
 70
     1
  9
$MAXACTVP
 70
    16
  9
$PINSBASE
 10
0.0
 20
0.0
 30
0.0
  9
$PLIMCHECK
 70
     0
  9
$PEXTMIN
 10
1.000000000000000E+20
 20
1.000000000000000E+20
 30
1.000000000000000E+20
  9
$PEXTMAX
 10
-1.000000000000000E+20
 20
-1.000000000000000E+20
 30
-1.000000000000000E+20
  9
$PLIMMIN
 10
0.0
 20
0.0
  9
$PLIMMAX
 10
12.0
 20
9.0
  9
$UNITMODE
 70
     0
  9
$VISRETAIN
 70
     0
  9
$PLINEGEN
 70
     0
  9
$PSLTSCALE
 70
     1
  9
$TREEDEPTH
 70
  3020
  9
$PICKSTYLE
 70
     1
  9
$CMLSTYLE
  2
STANDARD
  9
$CMLJUST
 70
     0
  9
$CMLSCALE
 40
1.0
  9
$SAVEIMAGES
 70
     1
  0
ENDSEC
  0
SECTION
  2
CLASSES
  0
CLASS
  1
ACDBDICTIONARYWDFLT
  2
AcDbDictionaryWithDefault
  3
AutoCAD 2000
 90
    32768
280
     0
281
     0
  0
CLASS
  1
ACDBPLACEHOLDER
  2
AcDbPlaceHolder
  3
AutoCAD 2000
 90
    32768
280
     0
281
     0
  0
CLASS
  1
LAYOUT
  2
AcDbLayout
  3
AutoCAD 2000
 90
    32768
280
     0
281
     0
  0
CLASS
  1
LONG_TRANSACTION
  2
AcDbLongTransaction
  3
AutoCAD 2000
 90
    32768
280
     0
281
     0
  0
CLASS
  1
LWPOLYLINE
  2
AcDbPolyline
  3
AutoCAD 2000
 90
    32768
280
     0
281
     1
  0
CLASS
  1
HATCH
  2
AcDbHatch
  3
AutoCAD 2000
 90
    32768
280
     0
281
     1
  0
CLASS
  1
XRECORD
  2
AcDbXrecord
  3
AutoCAD 2000
 90
    32768
280
     0
281
     0
  0
CLASS
  1
LONG_TRANSACTION
  2
AcDbLongTransaction
  3
AutoCAD 2000
 90
    32768
280
     0
281
     0
  0
CLASS
  1
LWPOLYLINE
  2
AcDbPolyline
  3
AutoCAD 2000
 90
    32768
280
     0
281
     1
  0
CLASS
  1
HATCH
  2
AcDbHatch
  3
AutoCAD 2000
 90
    32768
280
     0
281
     1
  0
CLASS
  1
XRECORD
  2
AcDbXrecord
  3
AutoCAD 2000
 90
    32768
280
     0
281
     0
  0
CLASS
  1
LONG_TRANSACTION
  2
AcDbLongTransaction
  3
AutoCAD 2000
 90
    32768
280
     0
281
     0
  0
CLASS
  1
LWPOLYLINE
  2
AcDbPolyline
  3
AutoCAD 2000
 90
    32768
280
     0
281
     1
  0
CLASS
  1
HATCH
  2
AcDbHatch
  3
AutoCAD 2000
 90
    32768
280
     0
281
     1
  0
CLASS
  1
XRECORD
  2
AcDbXrecord
  3
AutoCAD 2000
 90
    32768
280
     0
281
     0
  0
CLASS
  1
LONG_TRANSACTION
  2
AcDbLongTransaction
  3
AutoCAD 2000
 90
    32768
280
     0
281
     0
  0
CLASS
  1
LWPOLYLINE
  2
AcDbPolyline
  3
AutoCAD 2000
 90
    32768
280
     0
281
     1
  0
CLASS
  1
HATCH
  2
AcDbHatch
  3
AutoCAD 2000
 90
    32768
280
     0
281
     1
  0
CLASS
  1
XRECORD
  2
AcDbXrecord
  3
AutoCAD 2000
 90
    32768
280
     0
281
     0
  0
ENDSEC
  0
SECTION
  2
TABLES
  0
TABLE
  2
VPORT
  5
8
330
0
100
AcDbSymbolTable
 70
     3
  0
VPORT
  5
65DC
330
8
100
AcDbSymbolTableRecord
100
AcDbViewportTableRecord
  2
*ACTIVE
 70
     0
 10
0.0
 20
0.0
 11
1.0
 21
1.0
 12
10.92834498966331
 22
6.542083763566431
 13
0.0
 23
0.0
 14
1.0
 24
1.0
 15
0.0
 25
0.0
 16
0.0
 26
0.0
 36
1.0
 17
0.0
 27
0.0
 37
0.0
 40
3.779266349050688
 41
1.647569444444444
 42
50.0
 43
0.0
 44
0.0
 50
0.0
 51
0.0
 71
     0
 72
   100
 73
     1
 74
     1
 75
     0
 76
     0
 77
     0
 78
     0
  0
ENDTAB
  0
TABLE
  2
LTYPE
  5
5
330
0
100
AcDbSymbolTable
 70
    25
  0
LTYPE
  5
13
330
5
100
AcDbSymbolTableRecord
100
AcDbLinetypeTableRecord
  2
BYBLOCK
 70
     0
  3

 72
    65
 73
     0
 40
0.0
  0
LTYPE
  5
14
330
5
100
AcDbSymbolTableRecord
100
AcDbLinetypeTableRecord
  2
BYLAYER
 70
     0
  3

 72
    65
 73
     0
 40
0.0
  0
LTYPE
  5
15
330
5
100
AcDbSymbolTableRecord
100
AcDbLinetypeTableRecord
  2
CONTINUOUS
 70
     0
  3
Solid line
 72
    65
 73
     0
 40
0.0
  0
LTYPE
  5
22
330
5
100
AcDbSymbolTableRecord
100
AcDbLinetypeTableRecord
  2
BORDER
 70
     0
  3
__ __ . __ __ . __ __ . __ __ . __ __ . __ __ .
 72
    65
 73
     6
 40
1.75
 49
0.5
 74
     0
 49
-0.25
 74
     0
 49
0.5
 74
     0
 49
-0.25
 74
     0
 49
0.5
 74
     0
 49
-0.25
 74
     0
  0
LTYPE
  5
23
330
5
100
AcDbSymbolTableRecord
100
AcDbLinetypeTableRecord
  2
BORDER2
 70
     0
  3
__.__.__.__.__.__.__.__.__.__.__.__.__.__.__.__
 72
    65
 73
     6
 40
0.875
 49
0.25
 74
     0
 49
-0.125
 74
     0
 49
0.25
 74
     0
 49
-0.125
 74
     0
 49
0.25
 74
     0
 49
-0.125
 74
     0
  0
LTYPE
  5
24
330
5
100
AcDbSymbolTableRecord
100
AcDbLinetypeTableRecord
  2
BORDERX2
 70
     0
  3
____  ____  .  ____  ____  .  
 72
    65
 73
     6
 40
3.5
 49
1.0
 74
     0
 49
-0.5
 74
     0
 49
1.0
 74
     0
 49
-0.5
 74
     0
 49
1.0
 74
     0
 49
-0.5
 74
     0
  0
LTYPE
  5
25
330
5
100
AcDbSymbolTableRecord
100
AcDbLinetypeTableRecord
  2
CENTER
 70
     0
  3
____ _ ____ _ ____ _ ____ _ ____ _ ____ _ ____
 72
    65
 73
     4
 40
2.0
 49
1.25
 74
     0
 49
-0.25
 74
     0
 49
0.25
 74
     0
 49
-0.25
 74
     0
  0
LTYPE
  5
26
330
5
100
AcDbSymbolTableRecord
100
AcDbLinetypeTableRecord
  2
CENTER2
 70
     0
  3
____ _ ____ _ ____ _ ____ _ ____ _ ____ _ ____
 72
    65
 73
     4
 40
1.125
 49
0.75
 74
     0
 49
-0.125
 74
     0
 49
0.125
 74
     0
 49
-0.125
 74
     0
  0
LTYPE
  5
27
330
5
100
AcDbSymbolTableRecord
100
AcDbLinetypeTableRecord
  2
CENTERX2
 70
     0
  3
________  __  ________  __  ________  __  
 72
    65
 73
     4
 40
4.0
 49
2.5
 74
     0
 49
-0.5
 74
     0
 49
0.5
 74
     0
 49
-0.5
 74
     0
  0
LTYPE
  5
28
330
5
100
AcDbSymbolTableRecord
100
AcDbLinetypeTableRecord
  2
DASHDOT
 70
     0
  3
__ . __ . __ . __ . __ . __ . __ . 
 72
    65
 73
     4
 40
1.0
 49
0.5
 74
     0
 49
-0.25
 74
     0
 49
0.0
 74
     0
 49
-0.25
 74
     0
  0
LTYPE
  5
29
330
5
100
AcDbSymbolTableRecord
100
AcDbLinetypeTableRecord
  2
DASHDOT2
 70
     0
  3
_._._._._._._._._._._._._._._._.
 72
    65
 73
     4
 40
0.5
 49
0.25
 74
     0
 49
-0.125
 74
     0
 49
0.0
 74
     0
 49
-0.125
 74
     0
  0
LTYPE
  5
2A
330
5
100
AcDbSymbolTableRecord
100
AcDbLinetypeTableRecord
  2
DASHDOTX2
 70
     0
  3
____  .  ____  .  ____  .  ____  .  
 72
    65
 73
     4
 40
2.0
 49
1.0
 74
     0
 49
-0.5
 74
     0
 49
0.0
 74
     0
 49
-0.5
 74
     0
  0
LTYPE
  5
2B
330
5
100
AcDbSymbolTableRecord
100
AcDbLinetypeTableRecord
  2
DASHED
 70
     0
  3
__ __ __ __ __ __ __ __ __ __ __ __ 
 72
    65
 73
     2
 40
0.75
 49
0.5
 74
     0
 49
-0.25
 74
     0
  0
LTYPE
  5
2C
330
5
100
AcDbSymbolTableRecord
100
AcDbLinetypeTableRecord
  2
DASHED2
 70
     0
  3
_ _ _ _ _ _ _ _ _ _ _ _ _ _ _ _ _ _ 
 72
    65
 73
     2
 40
0.375
 49
0.25
 74
     0
 49
-0.125
 74
     0
  0
LTYPE
  5
2D
330
5
100
AcDbSymbolTableRecord
100
AcDbLinetypeTableRecord
  2
DASHEDX2
 70
     0
  3
____  ____  ____  ____  ____  ____  
 72
    65
 73
     2
 40
1.5
 49
1.0
 74
     0
 49
-0.5
 74
     0
  0
LTYPE
  5
2E
330
5
100
AcDbSymbolTableRecord
100
AcDbLinetypeTableRecord
  2
DIVIDE
 70
     0
  3
____ . . ____ . . ____ . . ____ . . 
 72
    65
 73
     6
 40
1.25
 49
0.5
 74
     0
 49
-0.25
 74
     0
 49
0.0
 74
     0
 49
-0.25
 74
     0
 49
0.0
 74
     0
 49
-0.25
 74
     0
  0
LTYPE
  5
2F
330
5
100
AcDbSymbolTableRecord
100
AcDbLinetypeTableRecord
  2
DIVIDE2
 70
     0
  3
__..__..__..__..__..__..__..__..__..
 72
    65
 73
     6
 40
0.625
 49
0.25
 74
     0
 49
-0.125
 74
     0
 49
0.0
 74
     0
 49
-0.125
 74
     0
 49
0.0
 74
     0
 49
-0.125
 74
     0
  0
LTYPE
  5
30
330
5
100
AcDbSymbolTableRecord
100
AcDbLinetypeTableRecord
  2
DIVIDEX2
 70
     0
  3
________  .  .  ________  .  .  ________  .  . 
 72
    65
 73
     6
 40
2.5
 49
1.0
 74
     0
 49
-0.5
 74
     0
 49
0.0
 74
     0
 49
-0.5
 74
     0
 49
0.0
 74
     0
 49
-0.5
 74
     0
  0
LTYPE
  5
31
330
5
100
AcDbSymbolTableRecord
100
AcDbLinetypeTableRecord
  2
DOT
 70
     0
  3
. . . . . . . . . . . . . . . . . . 
 72
    65
 73
     2
 40
0.25
 49
0.0
 74
     0
 49
-0.25
 74
     0
  0
LTYPE
  5
32
330
5
100
AcDbSymbolTableRecord
100
AcDbLinetypeTableRecord
  2
DOT2
 70
     0
  3
....................................
 72
    65
 73
     2
 40
0.125
 49
0.0
 74
     0
 49
-0.125
 74
     0
  0
LTYPE
  5
33
330
5
100
AcDbSymbolTableRecord
100
AcDbLinetypeTableRecord
  2
DOTX2
 70
     0
  3
.  .  .  .  .  .  .  .  .  .  .  .  .  
 72
    65
 73
     2
 40
0.5
 49
0.0
 74
     0
 49
-0.5
 74
     0
  0
LTYPE
  5
34
330
5
100
AcDbSymbolTableRecord
100
AcDbLinetypeTableRecord
  2
HIDDEN
 70
     0
  3
__ __ __ __ __ __ __ __ __ __ __ __ 
 72
    65
 73
     2
 40
0.375
 49
0.25
 74
     0
 49
-0.125
 74
     0
  0
LTYPE
  5
35
330
5
100
AcDbSymbolTableRecord
100
AcDbLinetypeTableRecord
  2
HIDDEN2
 70
     0
  3
_ _ _ _ _ _ _ _ _ _ _ _ _ _ _ _ _ _ 
 72
    65
 73
     2
 40
0.1875
 49
0.125
 74
     0
 49
-0.0625
 74
     0
  0
LTYPE
  5
36
330
5
100
AcDbSymbolTableRecord
100
AcDbLinetypeTableRecord
  2
HIDDENX2
 70
     0
  3
____ ____ ____ ____ ____ ____ ____ 
 72
    65
 73
     2
 40
0.75
 49
0.5
 74
     0
 49
-0.25
 74
     0
  0
LTYPE
  5
37
330
5
100
AcDbSymbolTableRecord
100
AcDbLinetypeTableRecord
  2
PHANTOM
 70
     0
  3
______  __  __  ______  __  __  
 72
    65
 73
     6
 40
2.5
 49
1.25
 74
     0
 49
-0.25
 74
     0
 49
0.25
 74
     0
 49
-0.25
 74
     0
 49
0.25
 74
     0
 49
-0.25
 74
     0
  0
LTYPE
  5
38
330
5
100
AcDbSymbolTableRecord
100
AcDbLinetypeTableRecord
  2
PHANTOM2
 70
     0
  3
___ _ _ ___ _ _ ___ _ _ ___ _ _ 
 72
    65
 73
     6
 40
1.25
 49
0.625
 74
     0
 49
-0.125
 74
     0
 49
0.125
 74
     0
 49
-0.125
 74
     0
 49
0.125
 74
     0
 49
-0.125
 74
     0
  0
LTYPE
  5
39
330
5
100
AcDbSymbolTableRecord
100
AcDbLinetypeTableRecord
  2
PHANTOMX2
 70
     0
  3
___ _ _ ___ _ _ ___ _ _ ___ _ _ 
 72
    65
 73
     6
 40
5.0
 49
2.5
 74
     0
 49
-0.5
 74
     0
 49
0.5
 74
     0
 49
-0.5
 74
     0
 49
0.5
 74
     0
 49
-0.5
 74
     0
  0
ENDTAB
  0
TABLE
  2
LAYER
  5
2
330
0
100
AcDbSymbolTable
 70
   257
  0
LAYER
  5
10
330
2
100
AcDbSymbolTableRecord
100
AcDbLayerTableRecord
  2
0
 70
     0
 62
     7
  6
CONTINUOUS
  0
LAYER
  5
3A
330
2
100
AcDbSymbolTableRecord
100
AcDbLayerTableRecord
  2
1
 70
     0
 62
     1
  6
CONTINUOUS
  0
LAYER
  5
3B
330
2
100
AcDbSymbolTableRecord
100
AcDbLayerTableRecord
  2
2
 70
     0
 62
     2
  6
CONTINUOUS
  0
LAYER
  5
3C
330
2
100
AcDbSymbolTableRecord
100
AcDbLayerTableRecord
  2
3
 70
     0
 62
     3
  6
CONTINUOUS
  0
LAYER
  5
3D
330
2
100
AcDbSymbolTableRecord
100
AcDbLayerTableRecord
  2
4
 70
     0
 62
     4
  6
CONTINUOUS
  0
LAYER
  5
3E
330
2
100
AcDbSymbolTableRecord
100
AcDbLayerTableRecord
  2
5
 70
     0
 62
     5
  6
CONTINUOUS
  0
LAYER
  5
3F
330
2
100
AcDbSymbolTableRecord
100
AcDbLayerTableRecord
  2
6
 70
     0
 62
     6
  6
CONTINUOUS
  0
LAYER
  5
40
330
2
100
AcDbSymbolTableRecord
100
AcDbLayerTableRecord
  2
7
 70
     0
 62
     7
  6
CONTINUOUS
  0
LAYER
  5
41
330
2
100
AcDbSymbolTableRecord
100
AcDbLayerTableRecord
  2
8
 70
     0
 62
     8
  6
CONTINUOUS
  0
LAYER
  5
42
330
2
100
AcDbSymbolTableRecord
100
AcDbLayerTableRecord
  2
9
 70
     0
 62
     9
  6
CONTINUOUS
  0
LAYER
  5
43
330
2
100
AcDbSymbolTableRecord
100
AcDbLayerTableRecord
  2
10
 70
     0
 62
    10
  6
CONTINUOUS
  0
LAYER
  5
44
330
2
100
AcDbSymbolTableRecord
100
AcDbLayerTableRecord
  2
11
 70
     0
 62
    11
  6
CONTINUOUS
  0
LAYER
  5
45
330
2
100
AcDbSymbolTableRecord
100
AcDbLayerTableRecord
  2
12
 70
     0
 62
    12
  6
CONTINUOUS
  0
LAYER
  5
46
330
2
100
AcDbSymbolTableRecord
100
AcDbLayerTableRecord
  2
13
 70
     0
 62
    13
  6
CONTINUOUS
  0
LAYER
  5
47
330
2
100
AcDbSymbolTableRecord
100
AcDbLayerTableRecord
  2
14
 70
     0
 62
    14
  6
CONTINUOUS
  0
LAYER
  5
48
330
2
100
AcDbSymbolTableRecord
100
AcDbLayerTableRecord
  2
15
 70
     0
 62
    15
  6
CONTINUOUS
  0
LAYER
  5
49
330
2
100
AcDbSymbolTableRecord
100
AcDbLayerTableRecord
  2
16
 70
     0
 62
    16
  6
CONTINUOUS
  0
LAYER
  5
4A
330
2
100
AcDbSymbolTableRecord
100
AcDbLayerTableRecord
  2
17
 70
     0
 62
    17
  6
CONTINUOUS
  0
LAYER
  5
4B
330
2
100
AcDbSymbolTableRecord
100
AcDbLayerTableRecord
  2
18
 70
     0
 62
    18
  6
CONTINUOUS
  0
LAYER
  5
4C
330
2
100
AcDbSymbolTableRecord
100
AcDbLayerTableRecord
  2
19
 70
     0
 62
    19
  6
CONTINUOUS
  0
LAYER
  5
4D
330
2
100
AcDbSymbolTableRecord
100
AcDbLayerTableRecord
  2
20
 70
     0
 62
    20
  6
CONTINUOUS
  0
LAYER
  5
4E
330
2
100
AcDbSymbolTableRecord
100
AcDbLayerTableRecord
  2
21
 70
     0
 62
    21
  6
CONTINUOUS
  0
LAYER
  5
4F
330
2
100
AcDbSymbolTableRecord
100
AcDbLayerTableRecord
  2
22
 70
     0
 62
    22
  6
CONTINUOUS
  0
LAYER
  5
50
330
2
100
AcDbSymbolTableRecord
100
AcDbLayerTableRecord
  2
23
 70
     0
 62
    23
  6
CONTINUOUS
  0
LAYER
  5
51
330
2
100
AcDbSymbolTableRecord
100
AcDbLayerTableRecord
  2
24
 70
     0
 62
    24
  6
CONTINUOUS
  0
LAYER
  5
52
330
2
100
AcDbSymbolTableRecord
100
AcDbLayerTableRecord
  2
25
 70
     0
 62
    25
  6
CONTINUOUS
  0
LAYER
  5
53
330
2
100
AcDbSymbolTableRecord
100
AcDbLayerTableRecord
  2
26
 70
     0
 62
    26
  6
CONTINUOUS
  0
LAYER
  5
54
330
2
100
AcDbSymbolTableRecord
100
AcDbLayerTableRecord
  2
27
 70
     0
 62
    27
  6
CONTINUOUS
  0
LAYER
  5
55
330
2
100
AcDbSymbolTableRecord
100
AcDbLayerTableRecord
  2
28
 70
     0
 62
    28
  6
CONTINUOUS
  0
LAYER
  5
56
330
2
100
AcDbSymbolTableRecord
100
AcDbLayerTableRecord
  2
29
 70
     0
 62
    29
  6
CONTINUOUS
  0
LAYER
  5
57
330
2
100
AcDbSymbolTableRecord
100
AcDbLayerTableRecord
  2
30
 70
     0
 62
    30
  6
CONTINUOUS
  0
LAYER
  5
58
330
2
100
AcDbSymbolTableRecord
100
AcDbLayerTableRecord
  2
31
 70
     0
 62
    31
  6
CONTINUOUS
  0
LAYER
  5
59
330
2
100
AcDbSymbolTableRecord
100
AcDbLayerTableRecord
  2
32
 70
     0
 62
    32
  6
CONTINUOUS
  0
LAYER
  5
5A
330
2
100
AcDbSymbolTableRecord
100
AcDbLayerTableRecord
  2
33
 70
     0
 62
    33
  6
CONTINUOUS
  0
LAYER
  5
5B
330
2
100
AcDbSymbolTableRecord
100
AcDbLayerTableRecord
  2
34
 70
     0
 62
    34
  6
CONTINUOUS
  0
LAYER
  5
5C
330
2
100
AcDbSymbolTableRecord
100
AcDbLayerTableRecord
  2
35
 70
     0
 62
    35
  6
CONTINUOUS
  0
LAYER
  5
5D
330
2
100
AcDbSymbolTableRecord
100
AcDbLayerTableRecord
  2
36
 70
     0
 62
    36
  6
CONTINUOUS
  0
LAYER
  5
5E
330
2
100
AcDbSymbolTableRecord
100
AcDbLayerTableRecord
  2
37
 70
     0
 62
    37
  6
CONTINUOUS
  0
LAYER
  5
5F
330
2
100
AcDbSymbolTableRecord
100
AcDbLayerTableRecord
  2
38
 70
     0
 62
    38
  6
CONTINUOUS
  0
LAYER
  5
60
330
2
100
AcDbSymbolTableRecord
100
AcDbLayerTableRecord
  2
39
 70
     0
 62
    39
  6
CONTINUOUS
  0
LAYER
  5
61
330
2
100
AcDbSymbolTableRecord
100
AcDbLayerTableRecord
  2
40
 70
     0
 62
    40
  6
CONTINUOUS
  0
LAYER
  5
62
330
2
100
AcDbSymbolTableRecord
100
AcDbLayerTableRecord
  2
41
 70
     0
 62
    41
  6
CONTINUOUS
  0
LAYER
  5
63
330
2
100
AcDbSymbolTableRecord
100
AcDbLayerTableRecord
  2
42
 70
     0
 62
    42
  6
CONTINUOUS
  0
LAYER
  5
64
330
2
100
AcDbSymbolTableRecord
100
AcDbLayerTableRecord
  2
43
 70
     0
 62
    43
  6
CONTINUOUS
  0
LAYER
  5
65
330
2
100
AcDbSymbolTableRecord
100
AcDbLayerTableRecord
  2
44
 70
     0
 62
    44
  6
CONTINUOUS
  0
LAYER
  5
66
330
2
100
AcDbSymbolTableRecord
100
AcDbLayerTableRecord
  2
45
 70
     0
 62
    45
  6
CONTINUOUS
  0
LAYER
  5
67
330
2
100
AcDbSymbolTableRecord
100
AcDbLayerTableRecord
  2
46
 70
     0
 62
    46
  6
CONTINUOUS
  0
LAYER
  5
68
330
2
100
AcDbSymbolTableRecord
100
AcDbLayerTableRecord
  2
47
 70
     0
 62
    47
  6
CONTINUOUS
  0
LAYER
  5
69
330
2
100
AcDbSymbolTableRecord
100
AcDbLayerTableRecord
  2
48
 70
     0
 62
    48
  6
CONTINUOUS
  0
LAYER
  5
6A
330
2
100
AcDbSymbolTableRecord
100
AcDbLayerTableRecord
  2
49
 70
     0
 62
    49
  6
CONTINUOUS
  0
LAYER
  5
6B
330
2
100
AcDbSymbolTableRecord
100
AcDbLayerTableRecord
  2
50
 70
     0
 62
    50
  6
CONTINUOUS
  0
LAYER
  5
6C
330
2
100
AcDbSymbolTableRecord
100
AcDbLayerTableRecord
  2
51
 70
     0
 62
    51
  6
CONTINUOUS
  0
LAYER
  5
6D
330
2
100
AcDbSymbolTableRecord
100
AcDbLayerTableRecord
  2
52
 70
     0
 62
    52
  6
CONTINUOUS
  0
LAYER
  5
6E
330
2
100
AcDbSymbolTableRecord
100
AcDbLayerTableRecord
  2
53
 70
     0
 62
    53
  6
CONTINUOUS
  0
LAYER
  5
6F
330
2
100
AcDbSymbolTableRecord
100
AcDbLayerTableRecord
  2
54
 70
     0
 62
    54
  6
CONTINUOUS
  0
LAYER
  5
70
330
2
100
AcDbSymbolTableRecord
100
AcDbLayerTableRecord
  2
55
 70
     0
 62
    55
  6
CONTINUOUS
  0
LAYER
  5
71
330
2
100
AcDbSymbolTableRecord
100
AcDbLayerTableRecord
  2
56
 70
     0
 62
    56
  6
CONTINUOUS
  0
LAYER
  5
72
330
2
100
AcDbSymbolTableRecord
100
AcDbLayerTableRecord
  2
57
 70
     0
 62
    57
  6
CONTINUOUS
  0
LAYER
  5
73
330
2
100
AcDbSymbolTableRecord
100
AcDbLayerTableRecord
  2
58
 70
     0
 62
    58
  6
CONTINUOUS
  0
LAYER
  5
74
330
2
100
AcDbSymbolTableRecord
100
AcDbLayerTableRecord
  2
59
 70
     0
 62
    59
  6
CONTINUOUS
  0
LAYER
  5
75
330
2
100
AcDbSymbolTableRecord
100
AcDbLayerTableRecord
  2
60
 70
     0
 62
    60
  6
CONTINUOUS
  0
LAYER
  5
76
330
2
100
AcDbSymbolTableRecord
100
AcDbLayerTableRecord
  2
61
 70
     0
 62
    61
  6
CONTINUOUS
  0
LAYER
  5
77
330
2
100
AcDbSymbolTableRecord
100
AcDbLayerTableRecord
  2
62
 70
     0
 62
    62
  6
CONTINUOUS
  0
LAYER
  5
78
330
2
100
AcDbSymbolTableRecord
100
AcDbLayerTableRecord
  2
63
 70
     0
 62
    63
  6
CONTINUOUS
  0
LAYER
  5
79
330
2
100
AcDbSymbolTableRecord
100
AcDbLayerTableRecord
  2
64
 70
     0
 62
    64
  6
CONTINUOUS
  0
LAYER
  5
7A
330
2
100
AcDbSymbolTableRecord
100
AcDbLayerTableRecord
  2
65
 70
     0
 62
    65
  6
CONTINUOUS
  0
LAYER
  5
7B
330
2
100
AcDbSymbolTableRecord
100
AcDbLayerTableRecord
  2
66
 70
     0
 62
    66
  6
CONTINUOUS
  0
LAYER
  5
7C
330
2
100
AcDbSymbolTableRecord
100
AcDbLayerTableRecord
  2
67
 70
     0
 62
    67
  6
CONTINUOUS
  0
LAYER
  5
7D
330
2
100
AcDbSymbolTableRecord
100
AcDbLayerTableRecord
  2
68
 70
     0
 62
    68
  6
CONTINUOUS
  0
LAYER
  5
7E
330
2
100
AcDbSymbolTableRecord
100
AcDbLayerTableRecord
  2
69
 70
     0
 62
    69
  6
CONTINUOUS
  0
LAYER
  5
7F
330
2
100
AcDbSymbolTableRecord
100
AcDbLayerTableRecord
  2
70
 70
     0
 62
    70
  6
CONTINUOUS
  0
LAYER
  5
80
330
2
100
AcDbSymbolTableRecord
100
AcDbLayerTableRecord
  2
71
 70
     0
 62
    71
  6
CONTINUOUS
  0
LAYER
  5
81
330
2
100
AcDbSymbolTableRecord
100
AcDbLayerTableRecord
  2
72
 70
     0
 62
    72
  6
CONTINUOUS
  0
LAYER
  5
82
330
2
100
AcDbSymbolTableRecord
100
AcDbLayerTableRecord
  2
73
 70
     0
 62
    73
  6
CONTINUOUS
  0
LAYER
  5
83
330
2
100
AcDbSymbolTableRecord
100
AcDbLayerTableRecord
  2
74
 70
     0
 62
    74
  6
CONTINUOUS
  0
LAYER
  5
84
330
2
100
AcDbSymbolTableRecord
100
AcDbLayerTableRecord
  2
75
 70
     0
 62
    75
  6
CONTINUOUS
  0
LAYER
  5
85
330
2
100
AcDbSymbolTableRecord
100
AcDbLayerTableRecord
  2
76
 70
     0
 62
    76
  6
CONTINUOUS
  0
LAYER
  5
86
330
2
100
AcDbSymbolTableRecord
100
AcDbLayerTableRecord
  2
77
 70
     0
 62
    77
  6
CONTINUOUS
  0
LAYER
  5
87
330
2
100
AcDbSymbolTableRecord
100
AcDbLayerTableRecord
  2
78
 70
     0
 62
    78
  6
CONTINUOUS
  0
LAYER
  5
88
330
2
100
AcDbSymbolTableRecord
100
AcDbLayerTableRecord
  2
79
 70
     0
 62
    79
  6
CONTINUOUS
  0
LAYER
  5
89
330
2
100
AcDbSymbolTableRecord
100
AcDbLayerTableRecord
  2
80
 70
     0
 62
    80
  6
CONTINUOUS
  0
LAYER
  5
8A
330
2
100
AcDbSymbolTableRecord
100
AcDbLayerTableRecord
  2
81
 70
     0
 62
    81
  6
CONTINUOUS
  0
LAYER
  5
8B
330
2
100
AcDbSymbolTableRecord
100
AcDbLayerTableRecord
  2
82
 70
     0
 62
    82
  6
CONTINUOUS
  0
LAYER
  5
8C
330
2
100
AcDbSymbolTableRecord
100
AcDbLayerTableRecord
  2
83
 70
     0
 62
    83
  6
CONTINUOUS
  0
LAYER
  5
8D
330
2
100
AcDbSymbolTableRecord
100
AcDbLayerTableRecord
  2
84
 70
     0
 62
    84
  6
CONTINUOUS
  0
LAYER
  5
8E
330
2
100
AcDbSymbolTableRecord
100
AcDbLayerTableRecord
  2
85
 70
     0
 62
    85
  6
CONTINUOUS
  0
LAYER
  5
8F
330
2
100
AcDbSymbolTableRecord
100
AcDbLayerTableRecord
  2
86
 70
     0
 62
    86
  6
CONTINUOUS
  0
LAYER
  5
90
330
2
100
AcDbSymbolTableRecord
100
AcDbLayerTableRecord
  2
87
 70
     0
 62
    87
  6
CONTINUOUS
  0
LAYER
  5
91
330
2
100
AcDbSymbolTableRecord
100
AcDbLayerTableRecord
  2
88
 70
     0
 62
    88
  6
CONTINUOUS
  0
LAYER
  5
92
330
2
100
AcDbSymbolTableRecord
100
AcDbLayerTableRecord
  2
89
 70
     0
 62
    89
  6
CONTINUOUS
  0
LAYER
  5
93
330
2
100
AcDbSymbolTableRecord
100
AcDbLayerTableRecord
  2
90
 70
     0
 62
    90
  6
CONTINUOUS
  0
LAYER
  5
94
330
2
100
AcDbSymbolTableRecord
100
AcDbLayerTableRecord
  2
91
 70
     0
 62
    91
  6
CONTINUOUS
  0
LAYER
  5
95
330
2
100
AcDbSymbolTableRecord
100
AcDbLayerTableRecord
  2
92
 70
     0
 62
    92
  6
CONTINUOUS
  0
LAYER
  5
96
330
2
100
AcDbSymbolTableRecord
100
AcDbLayerTableRecord
  2
93
 70
     0
 62
    93
  6
CONTINUOUS
  0
LAYER
  5
97
330
2
100
AcDbSymbolTableRecord
100
AcDbLayerTableRecord
  2
94
 70
     0
 62
    94
  6
CONTINUOUS
  0
LAYER
  5
98
330
2
100
AcDbSymbolTableRecord
100
AcDbLayerTableRecord
  2
95
 70
     0
 62
    95
  6
CONTINUOUS
  0
LAYER
  5
99
330
2
100
AcDbSymbolTableRecord
100
AcDbLayerTableRecord
  2
96
 70
     0
 62
    96
  6
CONTINUOUS
  0
LAYER
  5
9A
330
2
100
AcDbSymbolTableRecord
100
AcDbLayerTableRecord
  2
97
 70
     0
 62
    97
  6
CONTINUOUS
  0
LAYER
  5
9B
330
2
100
AcDbSymbolTableRecord
100
AcDbLayerTableRecord
  2
98
 70
     0
 62
    98
  6
CONTINUOUS
  0
LAYER
  5
9C
330
2
100
AcDbSymbolTableRecord
100
AcDbLayerTableRecord
  2
99
 70
     0
 62
    99
  6
CONTINUOUS
  0
LAYER
  5
9D
330
2
100
AcDbSymbolTableRecord
100
AcDbLayerTableRecord
  2
100
 70
     0
 62
   100
  6
CONTINUOUS
  0
LAYER
  5
9E
330
2
100
AcDbSymbolTableRecord
100
AcDbLayerTableRecord
  2
101
 70
     0
 62
   101
  6
CONTINUOUS
  0
LAYER
  5
9F
330
2
100
AcDbSymbolTableRecord
100
AcDbLayerTableRecord
  2
102
 70
     0
 62
   102
  6
CONTINUOUS
  0
LAYER
  5
A0
330
2
100
AcDbSymbolTableRecord
100
AcDbLayerTableRecord
  2
103
 70
     0
 62
   103
  6
CONTINUOUS
  0
LAYER
  5
A1
330
2
100
AcDbSymbolTableRecord
100
AcDbLayerTableRecord
  2
104
 70
     0
 62
   104
  6
CONTINUOUS
  0
LAYER
  5
A2
330
2
100
AcDbSymbolTableRecord
100
AcDbLayerTableRecord
  2
105
 70
     0
 62
   105
  6
CONTINUOUS
  0
LAYER
  5
A3
330
2
100
AcDbSymbolTableRecord
100
AcDbLayerTableRecord
  2
106
 70
     0
 62
   106
  6
CONTINUOUS
  0
LAYER
  5
A4
330
2
100
AcDbSymbolTableRecord
100
AcDbLayerTableRecord
  2
107
 70
     0
 62
   107
  6
CONTINUOUS
  0
LAYER
  5
A5
330
2
100
AcDbSymbolTableRecord
100
AcDbLayerTableRecord
  2
108
 70
     0
 62
   108
  6
CONTINUOUS
  0
LAYER
  5
A6
330
2
100
AcDbSymbolTableRecord
100
AcDbLayerTableRecord
  2
109
 70
     0
 62
   109
  6
CONTINUOUS
  0
LAYER
  5
A7
330
2
100
AcDbSymbolTableRecord
100
AcDbLayerTableRecord
  2
110
 70
     0
 62
   110
  6
CONTINUOUS
  0
LAYER
  5
A8
330
2
100
AcDbSymbolTableRecord
100
AcDbLayerTableRecord
  2
111
 70
     0
 62
   111
  6
CONTINUOUS
  0
LAYER
  5
A9
330
2
100
AcDbSymbolTableRecord
100
AcDbLayerTableRecord
  2
112
 70
     0
 62
   112
  6
CONTINUOUS
  0
LAYER
  5
AA
330
2
100
AcDbSymbolTableRecord
100
AcDbLayerTableRecord
  2
113
 70
     0
 62
   113
  6
CONTINUOUS
  0
LAYER
  5
AB
330
2
100
AcDbSymbolTableRecord
100
AcDbLayerTableRecord
  2
114
 70
     0
 62
   114
  6
CONTINUOUS
  0
LAYER
  5
AC
330
2
100
AcDbSymbolTableRecord
100
AcDbLayerTableRecord
  2
115
 70
     0
 62
   115
  6
CONTINUOUS
  0
LAYER
  5
AD
330
2
100
AcDbSymbolTableRecord
100
AcDbLayerTableRecord
  2
116
 70
     0
 62
   116
  6
CONTINUOUS
  0
LAYER
  5
AE
330
2
100
AcDbSymbolTableRecord
100
AcDbLayerTableRecord
  2
117
 70
     0
 62
   117
  6
CONTINUOUS
  0
LAYER
  5
AF
330
2
100
AcDbSymbolTableRecord
100
AcDbLayerTableRecord
  2
118
 70
     0
 62
   118
  6
CONTINUOUS
  0
LAYER
  5
B0
330
2
100
AcDbSymbolTableRecord
100
AcDbLayerTableRecord
  2
119
 70
     0
 62
   119
  6
CONTINUOUS
  0
LAYER
  5
B1
330
2
100
AcDbSymbolTableRecord
100
AcDbLayerTableRecord
  2
120
 70
     0
 62
   120
  6
CONTINUOUS
  0
LAYER
  5
B2
330
2
100
AcDbSymbolTableRecord
100
AcDbLayerTableRecord
  2
121
 70
     0
 62
   121
  6
CONTINUOUS
  0
LAYER
  5
B3
330
2
100
AcDbSymbolTableRecord
100
AcDbLayerTableRecord
  2
122
 70
     0
 62
   122
  6
CONTINUOUS
  0
LAYER
  5
B4
330
2
100
AcDbSymbolTableRecord
100
AcDbLayerTableRecord
  2
123
 70
     0
 62
   123
  6
CONTINUOUS
  0
LAYER
  5
B5
330
2
100
AcDbSymbolTableRecord
100
AcDbLayerTableRecord
  2
124
 70
     0
 62
   124
  6
CONTINUOUS
  0
LAYER
  5
B6
330
2
100
AcDbSymbolTableRecord
100
AcDbLayerTableRecord
  2
125
 70
     0
 62
   125
  6
CONTINUOUS
  0
LAYER
  5
B7
330
2
100
AcDbSymbolTableRecord
100
AcDbLayerTableRecord
  2
126
 70
     0
 62
   126
  6
CONTINUOUS
  0
LAYER
  5
B8
330
2
100
AcDbSymbolTableRecord
100
AcDbLayerTableRecord
  2
127
 70
     0
 62
   127
  6
CONTINUOUS
  0
LAYER
  5
B9
330
2
100
AcDbSymbolTableRecord
100
AcDbLayerTableRecord
  2
128
 70
     0
 62
   128
  6
CONTINUOUS
  0
LAYER
  5
BA
330
2
100
AcDbSymbolTableRecord
100
AcDbLayerTableRecord
  2
129
 70
     0
 62
   129
  6
CONTINUOUS
  0
LAYER
  5
BB
330
2
100
AcDbSymbolTableRecord
100
AcDbLayerTableRecord
  2
130
 70
     0
 62
   130
  6
CONTINUOUS
  0
LAYER
  5
BC
330
2
100
AcDbSymbolTableRecord
100
AcDbLayerTableRecord
  2
131
 70
     0
 62
   131
  6
CONTINUOUS
  0
LAYER
  5
BD
330
2
100
AcDbSymbolTableRecord
100
AcDbLayerTableRecord
  2
132
 70
     0
 62
   132
  6
CONTINUOUS
  0
LAYER
  5
BE
330
2
100
AcDbSymbolTableRecord
100
AcDbLayerTableRecord
  2
133
 70
     0
 62
   133
  6
CONTINUOUS
  0
LAYER
  5
BF
330
2
100
AcDbSymbolTableRecord
100
AcDbLayerTableRecord
  2
134
 70
     0
 62
   134
  6
CONTINUOUS
  0
LAYER
  5
C0
330
2
100
AcDbSymbolTableRecord
100
AcDbLayerTableRecord
  2
135
 70
     0
 62
   135
  6
CONTINUOUS
  0
LAYER
  5
C1
330
2
100
AcDbSymbolTableRecord
100
AcDbLayerTableRecord
  2
136
 70
     0
 62
   136
  6
CONTINUOUS
  0
LAYER
  5
C2
330
2
100
AcDbSymbolTableRecord
100
AcDbLayerTableRecord
  2
137
 70
     0
 62
   137
  6
CONTINUOUS
  0
LAYER
  5
C3
330
2
100
AcDbSymbolTableRecord
100
AcDbLayerTableRecord
  2
138
 70
     0
 62
   138
  6
CONTINUOUS
  0
LAYER
  5
C4
330
2
100
AcDbSymbolTableRecord
100
AcDbLayerTableRecord
  2
139
 70
     0
 62
   139
  6
CONTINUOUS
  0
LAYER
  5
C5
330
2
100
AcDbSymbolTableRecord
100
AcDbLayerTableRecord
  2
140
 70
     0
 62
   140
  6
CONTINUOUS
  0
LAYER
  5
C6
330
2
100
AcDbSymbolTableRecord
100
AcDbLayerTableRecord
  2
141
 70
     0
 62
   141
  6
CONTINUOUS
  0
LAYER
  5
C7
330
2
100
AcDbSymbolTableRecord
100
AcDbLayerTableRecord
  2
142
 70
     0
 62
   142
  6
CONTINUOUS
  0
LAYER
  5
C8
330
2
100
AcDbSymbolTableRecord
100
AcDbLayerTableRecord
  2
143
 70
     0
 62
   143
  6
CONTINUOUS
  0
LAYER
  5
C9
330
2
100
AcDbSymbolTableRecord
100
AcDbLayerTableRecord
  2
144
 70
     0
 62
   144
  6
CONTINUOUS
  0
LAYER
  5
CA
330
2
100
AcDbSymbolTableRecord
100
AcDbLayerTableRecord
  2
145
 70
     0
 62
   145
  6
CONTINUOUS
  0
LAYER
  5
CB
330
2
100
AcDbSymbolTableRecord
100
AcDbLayerTableRecord
  2
146
 70
     0
 62
   146
  6
CONTINUOUS
  0
LAYER
  5
CC
330
2
100
AcDbSymbolTableRecord
100
AcDbLayerTableRecord
  2
147
 70
     0
 62
   147
  6
CONTINUOUS
  0
LAYER
  5
CD
330
2
100
AcDbSymbolTableRecord
100
AcDbLayerTableRecord
  2
148
 70
     0
 62
   148
  6
CONTINUOUS
  0
LAYER
  5
CE
330
2
100
AcDbSymbolTableRecord
100
AcDbLayerTableRecord
  2
149
 70
     0
 62
   149
  6
CONTINUOUS
  0
LAYER
  5
CF
330
2
100
AcDbSymbolTableRecord
100
AcDbLayerTableRecord
  2
150
 70
     0
 62
   150
  6
CONTINUOUS
  0
LAYER
  5
D0
330
2
100
AcDbSymbolTableRecord
100
AcDbLayerTableRecord
  2
151
 70
     0
 62
   151
  6
CONTINUOUS
  0
LAYER
  5
D1
330
2
100
AcDbSymbolTableRecord
100
AcDbLayerTableRecord
  2
152
 70
     0
 62
   152
  6
CONTINUOUS
  0
LAYER
  5
D2
330
2
100
AcDbSymbolTableRecord
100
AcDbLayerTableRecord
  2
153
 70
     0
 62
   153
  6
CONTINUOUS
  0
LAYER
  5
D3
330
2
100
AcDbSymbolTableRecord
100
AcDbLayerTableRecord
  2
154
 70
     0
 62
   154
  6
CONTINUOUS
  0
LAYER
  5
D4
330
2
100
AcDbSymbolTableRecord
100
AcDbLayerTableRecord
  2
155
 70
     0
 62
   155
  6
CONTINUOUS
  0
LAYER
  5
D5
330
2
100
AcDbSymbolTableRecord
100
AcDbLayerTableRecord
  2
156
 70
     0
 62
   156
  6
CONTINUOUS
  0
LAYER
  5
D6
330
2
100
AcDbSymbolTableRecord
100
AcDbLayerTableRecord
  2
157
 70
     0
 62
   157
  6
CONTINUOUS
  0
LAYER
  5
D7
330
2
100
AcDbSymbolTableRecord
100
AcDbLayerTableRecord
  2
158
 70
     0
 62
   158
  6
CONTINUOUS
  0
LAYER
  5
D8
330
2
100
AcDbSymbolTableRecord
100
AcDbLayerTableRecord
  2
159
 70
     0
 62
   159
  6
CONTINUOUS
  0
LAYER
  5
D9
330
2
100
AcDbSymbolTableRecord
100
AcDbLayerTableRecord
  2
160
 70
     0
 62
   160
  6
CONTINUOUS
  0
LAYER
  5
DA
330
2
100
AcDbSymbolTableRecord
100
AcDbLayerTableRecord
  2
161
 70
     0
 62
   161
  6
CONTINUOUS
  0
LAYER
  5
DB
330
2
100
AcDbSymbolTableRecord
100
AcDbLayerTableRecord
  2
162
 70
     0
 62
   162
  6
CONTINUOUS
  0
LAYER
  5
DC
330
2
100
AcDbSymbolTableRecord
100
AcDbLayerTableRecord
  2
163
 70
     0
 62
   163
  6
CONTINUOUS
  0
LAYER
  5
DD
330
2
100
AcDbSymbolTableRecord
100
AcDbLayerTableRecord
  2
164
 70
     0
 62
   164
  6
CONTINUOUS
  0
LAYER
  5
DE
330
2
100
AcDbSymbolTableRecord
100
AcDbLayerTableRecord
  2
165
 70
     0
 62
   165
  6
CONTINUOUS
  0
LAYER
  5
DF
330
2
100
AcDbSymbolTableRecord
100
AcDbLayerTableRecord
  2
166
 70
     0
 62
   166
  6
CONTINUOUS
  0
LAYER
  5
E0
330
2
100
AcDbSymbolTableRecord
100
AcDbLayerTableRecord
  2
167
 70
     0
 62
   167
  6
CONTINUOUS
  0
LAYER
  5
E1
330
2
100
AcDbSymbolTableRecord
100
AcDbLayerTableRecord
  2
168
 70
     0
 62
   168
  6
CONTINUOUS
  0
LAYER
  5
E2
330
2
100
AcDbSymbolTableRecord
100
AcDbLayerTableRecord
  2
169
 70
     0
 62
   169
  6
CONTINUOUS
  0
LAYER
  5
E3
330
2
100
AcDbSymbolTableRecord
100
AcDbLayerTableRecord
  2
170
 70
     0
 62
   170
  6
CONTINUOUS
  0
LAYER
  5
E4
330
2
100
AcDbSymbolTableRecord
100
AcDbLayerTableRecord
  2
171
 70
     0
 62
   171
  6
CONTINUOUS
  0
LAYER
  5
E5
330
2
100
AcDbSymbolTableRecord
100
AcDbLayerTableRecord
  2
172
 70
     0
 62
   172
  6
CONTINUOUS
  0
LAYER
  5
E6
330
2
100
AcDbSymbolTableRecord
100
AcDbLayerTableRecord
  2
173
 70
     0
 62
   173
  6
CONTINUOUS
  0
LAYER
  5
E7
330
2
100
AcDbSymbolTableRecord
100
AcDbLayerTableRecord
  2
174
 70
     0
 62
   174
  6
CONTINUOUS
  0
LAYER
  5
E8
330
2
100
AcDbSymbolTableRecord
100
AcDbLayerTableRecord
  2
175
 70
     0
 62
   175
  6
CONTINUOUS
  0
LAYER
  5
E9
330
2
100
AcDbSymbolTableRecord
100
AcDbLayerTableRecord
  2
176
 70
     0
 62
   176
  6
CONTINUOUS
  0
LAYER
  5
EA
330
2
100
AcDbSymbolTableRecord
100
AcDbLayerTableRecord
  2
177
 70
     0
 62
   177
  6
CONTINUOUS
  0
LAYER
  5
EB
330
2
100
AcDbSymbolTableRecord
100
AcDbLayerTableRecord
  2
178
 70
     0
 62
   178
  6
CONTINUOUS
  0
LAYER
  5
EC
330
2
100
AcDbSymbolTableRecord
100
AcDbLayerTableRecord
  2
179
 70
     0
 62
   179
  6
CONTINUOUS
  0
LAYER
  5
ED
330
2
100
AcDbSymbolTableRecord
100
AcDbLayerTableRecord
  2
180
 70
     0
 62
   180
  6
CONTINUOUS
  0
LAYER
  5
EE
330
2
100
AcDbSymbolTableRecord
100
AcDbLayerTableRecord
  2
181
 70
     0
 62
   181
  6
CONTINUOUS
  0
LAYER
  5
EF
330
2
100
AcDbSymbolTableRecord
100
AcDbLayerTableRecord
  2
182
 70
     0
 62
   182
  6
CONTINUOUS
  0
LAYER
  5
F0
330
2
100
AcDbSymbolTableRecord
100
AcDbLayerTableRecord
  2
183
 70
     0
 62
   183
  6
CONTINUOUS
  0
LAYER
  5
F1
330
2
100
AcDbSymbolTableRecord
100
AcDbLayerTableRecord
  2
184
 70
     0
 62
   184
  6
CONTINUOUS
  0
LAYER
  5
F2
330
2
100
AcDbSymbolTableRecord
100
AcDbLayerTableRecord
  2
185
 70
     0
 62
   185
  6
CONTINUOUS
  0
LAYER
  5
F3
330
2
100
AcDbSymbolTableRecord
100
AcDbLayerTableRecord
  2
186
 70
     0
 62
   186
  6
CONTINUOUS
  0
LAYER
  5
F4
330
2
100
AcDbSymbolTableRecord
100
AcDbLayerTableRecord
  2
187
 70
     0
 62
   187
  6
CONTINUOUS
  0
LAYER
  5
F5
330
2
100
AcDbSymbolTableRecord
100
AcDbLayerTableRecord
  2
188
 70
     0
 62
   188
  6
CONTINUOUS
  0
LAYER
  5
F6
330
2
100
AcDbSymbolTableRecord
100
AcDbLayerTableRecord
  2
189
 70
     0
 62
   189
  6
CONTINUOUS
  0
LAYER
  5
F7
330
2
100
AcDbSymbolTableRecord
100
AcDbLayerTableRecord
  2
190
 70
     0
 62
   190
  6
CONTINUOUS
  0
LAYER
  5
F8
330
2
100
AcDbSymbolTableRecord
100
AcDbLayerTableRecord
  2
191
 70
     0
 62
   191
  6
CONTINUOUS
  0
LAYER
  5
F9
330
2
100
AcDbSymbolTableRecord
100
AcDbLayerTableRecord
  2
192
 70
     0
 62
   192
  6
CONTINUOUS
  0
LAYER
  5
FA
330
2
100
AcDbSymbolTableRecord
100
AcDbLayerTableRecord
  2
193
 70
     0
 62
   193
  6
CONTINUOUS
  0
LAYER
  5
FB
330
2
100
AcDbSymbolTableRecord
100
AcDbLayerTableRecord
  2
194
 70
     0
 62
   194
  6
CONTINUOUS
  0
LAYER
  5
FC
330
2
100
AcDbSymbolTableRecord
100
AcDbLayerTableRecord
  2
195
 70
     0
 62
   195
  6
CONTINUOUS
  0
LAYER
  5
FD
330
2
100
AcDbSymbolTableRecord
100
AcDbLayerTableRecord
  2
196
 70
     0
 62
   196
  6
CONTINUOUS
  0
LAYER
  5
FE
330
2
100
AcDbSymbolTableRecord
100
AcDbLayerTableRecord
  2
197
 70
     0
 62
   197
  6
CONTINUOUS
  0
LAYER
  5
FF
330
2
100
AcDbSymbolTableRecord
100
AcDbLayerTableRecord
  2
198
 70
     0
 62
   198
  6
CONTINUOUS
  0
LAYER
  5
100
330
2
100
AcDbSymbolTableRecord
100
AcDbLayerTableRecord
  2
199
 70
     0
 62
   199
  6
CONTINUOUS
  0
LAYER
  5
101
330
2
100
AcDbSymbolTableRecord
100
AcDbLayerTableRecord
  2
200
 70
     0
 62
   200
  6
CONTINUOUS
  0
LAYER
  5
102
330
2
100
AcDbSymbolTableRecord
100
AcDbLayerTableRecord
  2
201
 70
     0
 62
   201
  6
CONTINUOUS
  0
LAYER
  5
103
330
2
100
AcDbSymbolTableRecord
100
AcDbLayerTableRecord
  2
202
 70
     0
 62
   202
  6
CONTINUOUS
  0
LAYER
  5
104
330
2
100
AcDbSymbolTableRecord
100
AcDbLayerTableRecord
  2
203
 70
     0
 62
   203
  6
CONTINUOUS
  0
LAYER
  5
105
330
2
100
AcDbSymbolTableRecord
100
AcDbLayerTableRecord
  2
204
 70
     0
 62
   204
  6
CONTINUOUS
  0
LAYER
  5
106
330
2
100
AcDbSymbolTableRecord
100
AcDbLayerTableRecord
  2
205
 70
     0
 62
   205
  6
CONTINUOUS
  0
LAYER
  5
107
330
2
100
AcDbSymbolTableRecord
100
AcDbLayerTableRecord
  2
206
 70
     0
 62
   206
  6
CONTINUOUS
  0
LAYER
  5
108
330
2
100
AcDbSymbolTableRecord
100
AcDbLayerTableRecord
  2
207
 70
     0
 62
   207
  6
CONTINUOUS
  0
LAYER
  5
109
330
2
100
AcDbSymbolTableRecord
100
AcDbLayerTableRecord
  2
208
 70
     0
 62
   208
  6
CONTINUOUS
  0
LAYER
  5
10A
330
2
100
AcDbSymbolTableRecord
100
AcDbLayerTableRecord
  2
209
 70
     0
 62
   209
  6
CONTINUOUS
  0
LAYER
  5
10B
330
2
100
AcDbSymbolTableRecord
100
AcDbLayerTableRecord
  2
210
 70
     0
 62
   210
  6
CONTINUOUS
  0
LAYER
  5
10C
330
2
100
AcDbSymbolTableRecord
100
AcDbLayerTableRecord
  2
211
 70
     0
 62
   211
  6
CONTINUOUS
  0
LAYER
  5
10D
330
2
100
AcDbSymbolTableRecord
100
AcDbLayerTableRecord
  2
212
 70
     0
 62
   212
  6
CONTINUOUS
  0
LAYER
  5
10E
330
2
100
AcDbSymbolTableRecord
100
AcDbLayerTableRecord
  2
213
 70
     0
 62
   213
  6
CONTINUOUS
  0
LAYER
  5
10F
330
2
100
AcDbSymbolTableRecord
100
AcDbLayerTableRecord
  2
214
 70
     0
 62
   214
  6
CONTINUOUS
  0
LAYER
  5
110
330
2
100
AcDbSymbolTableRecord
100
AcDbLayerTableRecord
  2
215
 70
     0
 62
   215
  6
CONTINUOUS
  0
LAYER
  5
111
330
2
100
AcDbSymbolTableRecord
100
AcDbLayerTableRecord
  2
216
 70
     0
 62
   216
  6
CONTINUOUS
  0
LAYER
  5
112
330
2
100
AcDbSymbolTableRecord
100
AcDbLayerTableRecord
  2
217
 70
     0
 62
   217
  6
CONTINUOUS
  0
LAYER
  5
113
330
2
100
AcDbSymbolTableRecord
100
AcDbLayerTableRecord
  2
218
 70
     0
 62
   218
  6
CONTINUOUS
  0
LAYER
  5
114
330
2
100
AcDbSymbolTableRecord
100
AcDbLayerTableRecord
  2
219
 70
     0
 62
   219
  6
CONTINUOUS
  0
LAYER
  5
115
330
2
100
AcDbSymbolTableRecord
100
AcDbLayerTableRecord
  2
220
 70
     0
 62
   220
  6
CONTINUOUS
  0
LAYER
  5
116
330
2
100
AcDbSymbolTableRecord
100
AcDbLayerTableRecord
  2
221
 70
     0
 62
   221
  6
CONTINUOUS
  0
LAYER
  5
117
330
2
100
AcDbSymbolTableRecord
100
AcDbLayerTableRecord
  2
222
 70
     0
 62
   222
  6
CONTINUOUS
  0
LAYER
  5
118
330
2
100
AcDbSymbolTableRecord
100
AcDbLayerTableRecord
  2
223
 70
     0
 62
   223
  6
CONTINUOUS
  0
LAYER
  5
119
330
2
100
AcDbSymbolTableRecord
100
AcDbLayerTableRecord
  2
224
 70
     0
 62
   224
  6
CONTINUOUS
  0
LAYER
  5
11A
330
2
100
AcDbSymbolTableRecord
100
AcDbLayerTableRecord
  2
225
 70
     0
 62
   225
  6
CONTINUOUS
  0
LAYER
  5
11B
330
2
100
AcDbSymbolTableRecord
100
AcDbLayerTableRecord
  2
226
 70
     0
 62
   226
  6
CONTINUOUS
  0
LAYER
  5
11C
330
2
100
AcDbSymbolTableRecord
100
AcDbLayerTableRecord
  2
227
 70
     0
 62
   227
  6
CONTINUOUS
  0
LAYER
  5
11D
330
2
100
AcDbSymbolTableRecord
100
AcDbLayerTableRecord
  2
228
 70
     0
 62
   228
  6
CONTINUOUS
  0
LAYER
  5
11E
330
2
100
AcDbSymbolTableRecord
100
AcDbLayerTableRecord
  2
229
 70
     0
 62
   229
  6
CONTINUOUS
  0
LAYER
  5
11F
330
2
100
AcDbSymbolTableRecord
100
AcDbLayerTableRecord
  2
230
 70
     0
 62
   230
  6
CONTINUOUS
  0
LAYER
  5
120
330
2
100
AcDbSymbolTableRecord
100
AcDbLayerTableRecord
  2
231
 70
     0
 62
   231
  6
CONTINUOUS
  0
LAYER
  5
121
330
2
100
AcDbSymbolTableRecord
100
AcDbLayerTableRecord
  2
232
 70
     0
 62
   232
  6
CONTINUOUS
  0
LAYER
  5
122
330
2
100
AcDbSymbolTableRecord
100
AcDbLayerTableRecord
  2
233
 70
     0
 62
   233
  6
CONTINUOUS
  0
LAYER
  5
123
330
2
100
AcDbSymbolTableRecord
100
AcDbLayerTableRecord
  2
234
 70
     0
 62
   234
  6
CONTINUOUS
  0
LAYER
  5
124
330
2
100
AcDbSymbolTableRecord
100
AcDbLayerTableRecord
  2
235
 70
     0
 62
   235
  6
CONTINUOUS
  0
LAYER
  5
125
330
2
100
AcDbSymbolTableRecord
100
AcDbLayerTableRecord
  2
236
 70
     0
 62
   236
  6
CONTINUOUS
  0
LAYER
  5
126
330
2
100
AcDbSymbolTableRecord
100
AcDbLayerTableRecord
  2
237
 70
     0
 62
   237
  6
CONTINUOUS
  0
LAYER
  5
127
330
2
100
AcDbSymbolTableRecord
100
AcDbLayerTableRecord
  2
238
 70
     0
 62
   238
  6
CONTINUOUS
  0
LAYER
  5
128
330
2
100
AcDbSymbolTableRecord
100
AcDbLayerTableRecord
  2
239
 70
     0
 62
   239
  6
CONTINUOUS
  0
LAYER
  5
129
330
2
100
AcDbSymbolTableRecord
100
AcDbLayerTableRecord
  2
240
 70
     0
 62
   240
  6
CONTINUOUS
  0
LAYER
  5
12A
330
2
100
AcDbSymbolTableRecord
100
AcDbLayerTableRecord
  2
241
 70
     0
 62
   241
  6
CONTINUOUS
  0
LAYER
  5
12B
330
2
100
AcDbSymbolTableRecord
100
AcDbLayerTableRecord
  2
242
 70
     0
 62
   242
  6
CONTINUOUS
  0
LAYER
  5
12C
330
2
100
AcDbSymbolTableRecord
100
AcDbLayerTableRecord
  2
243
 70
     0
 62
   243
  6
CONTINUOUS
  0
LAYER
  5
12D
330
2
100
AcDbSymbolTableRecord
100
AcDbLayerTableRecord
  2
244
 70
     0
 62
   244
  6
CONTINUOUS
  0
LAYER
  5
12E
330
2
100
AcDbSymbolTableRecord
100
AcDbLayerTableRecord
  2
245
 70
     0
 62
   245
  6
CONTINUOUS
  0
LAYER
  5
12F
330
2
100
AcDbSymbolTableRecord
100
AcDbLayerTableRecord
  2
246
 70
     0
 62
   246
  6
CONTINUOUS
  0
LAYER
  5
130
330
2
100
AcDbSymbolTableRecord
100
AcDbLayerTableRecord
  2
247
 70
     0
 62
   247
  6
CONTINUOUS
  0
LAYER
  5
131
330
2
100
AcDbSymbolTableRecord
100
AcDbLayerTableRecord
  2
248
 70
     0
 62
   248
  6
CONTINUOUS
  0
LAYER
  5
132
330
2
100
AcDbSymbolTableRecord
100
AcDbLayerTableRecord
  2
249
 70
     0
 62
   249
  6
CONTINUOUS
  0
LAYER
  5
133
330
2
100
AcDbSymbolTableRecord
100
AcDbLayerTableRecord
  2
250
 70
     0
 62
   250
  6
CONTINUOUS
  0
LAYER
  5
134
330
2
100
AcDbSymbolTableRecord
100
AcDbLayerTableRecord
  2
251
 70
     0
 62
   251
  6
CONTINUOUS
  0
LAYER
  5
135
330
2
100
AcDbSymbolTableRecord
100
AcDbLayerTableRecord
  2
252
 70
     0
 62
   252
  6
CONTINUOUS
  0
LAYER
  5
136
330
2
100
AcDbSymbolTableRecord
100
AcDbLayerTableRecord
  2
253
 70
     0
 62
   253
  6
CONTINUOUS
  0
LAYER
  5
137
330
2
100
AcDbSymbolTableRecord
100
AcDbLayerTableRecord
  2
254
 70
     0
 62
   254
  6
CONTINUOUS
  0
LAYER
  5
138
330
2
100
AcDbSymbolTableRecord
100
AcDbLayerTableRecord
  2
255
 70
     0
 62
   255
  6
CONTINUOUS
  0
LAYER
  5
6520
330
2
100
AcDbSymbolTableRecord
100
AcDbLayerTableRecord
  2
DEFPOINTS
 70
     0
 62
     7
  6
CONTINUOUS
  0
ENDTAB
  0
TABLE
  2
STYLE
  5
3
330
0
100
AcDbSymbolTable
 70
     1
  0
STYLE
  5
11
330
3
100
AcDbSymbolTableRecord
100
AcDbTextStyleTableRecord
  2
STANDARD
 70
     0
 40
0.0
 41
1.0
 50
0.0
 71
     0
 42
0.2
  3
monotxt
  4

  0
ENDTAB
  0
TABLE
  2
VIEW
  5
6
330
0
100
AcDbSymbolTable
 70
     0
  0
ENDTAB
  0
TABLE
  2
UCS
  5
7
330
0
100
AcDbSymbolTable
 70
     0
  0
ENDTAB
  0
TABLE
  2
APPID
  5
9
330
0
100
AcDbSymbolTable
 70
     1
  0
APPID
  5
12
330
9
100
AcDbSymbolTableRecord
100
AcDbRegAppTableRecord
  2
ACAD
 70
     0
  0
ENDTAB
  0
TABLE
  2
DIMSTYLE
  5
A
330
0
100
AcDbSymbolTable
 70
     1
  0
DIMSTYLE
105
4F03
330
A
100
AcDbSymbolTableRecord
100
AcDbDimStyleTableRecord
  2
STANDARD
 70
     0
  3

  4

  5

  6

  7

 40
1.0
 41
0.18
 42
0.0625
 43
0.38
 44
0.18
 45
0.0
 46
0.0
 47
0.0
 48
0.0
140
0.18
141
0.09
142
0.0
143
25.4
144
1.0
145
0.0
146
1.0
147
0.09
 71
     0
 72
     0
 73
     1
 74
     1
 75
     0
 76
     0
 77
     0
 78
     0
170
     0
171
     2
172
     0
173
     0
174
     0
175
     0
176
     0
177
     0
178
     0
270
     2
271
     4
272
     4
273
     2
274
     2
340
11
275
     0
280
     0
281
     0
282
     0
283
     1
284
     0
285
     0
286
     0
287
     3
288
     0
  0
ENDTAB
  0
TABLE
  2
BLOCK_RECORD
  5
1
330
0
100
AcDbSymbolTable
 70
     1
  0
BLOCK_RECORD
  5
1E
102
{ACAD_XDICTIONARY
360
6571
102
}
330
1
100
AcDbSymbolTableRecord
100
AcDbBlockTableRecord
  2
*MODEL_SPACE
  0
BLOCK_RECORD
  5
1A
102
{ACAD_XDICTIONARY
360
656F
102
}
330
1
100
AcDbSymbolTableRecord
100
AcDbBlockTableRecord
  2
*PAPER_SPACE
  0
ENDTAB
  0
ENDSEC
  0
SECTION
  2
BLOCKS
  0
BLOCK
  5
13B
330
1E
100
AcDbEntity
  8
0
100
AcDbBlockBegin
  2
*MODEL_SPACE
 70
     0
 10
0.0
 20
0.0
 30
0.0
  3
*MODEL_SPACE
  1

  0
ENDBLK
  5
13C
330
1E
100
AcDbEntity
  8
0
100
AcDbBlockEnd
  0
BLOCK
  5
139
330
1A
100
AcDbEntity
 67
     1
  8
0
100
AcDbBlockBegin
  2
*PAPER_SPACE
 70
     0
 10
0.0
 20
0.0
 30
0.0
  3
*PAPER_SPACE
  1

  0
ENDBLK
  5
13A
330
1A
100
AcDbEntity
 67
     1
  8
0
100
AcDbBlockEnd
  0
ENDSEC
  0
SECTION
  2
ENTITIES
  0
LINE
  5
13E
330
1E
100
AcDbEntity
  8
3
100
AcDbLine
 10
13.9429524460702
 20
5.07352648458194
 30
0.0
 11
13.9429524460702
 21
8.010534358597691
 31
0.0
  0
LINE
  5
150
330
1E
100
AcDbEntity
  8
3
100
AcDbLine
 10
13.59649575315681
 20
5.376676090881155
 30
0.0
 11
13.59649575315681
 21
7.707384752298477
 31
0.0
  0
LINE
  5
151
330
1E
100
AcDbEntity
  8
3
100
AcDbLine
 10
13.64177134370799
 20
7.813683964896902
 30
0.0
 11
13.9429524460702
 21
8.116833571196114
 31
0.0
  0
LINE
  5
158
330
1E
100
AcDbEntity
  8
3
100
AcDbLine
 10
13.9429524460702
 20
4.967227271983516
 30
0.0
 11
13.64177134370799
 21
5.27037687828273
 31
0.0
  0
LINE
  5
174
330
1E
100
AcDbEntity
  8
3
100
AcDbLine
 10
13.64177134370799
 20
5.376676090881155
 30
0.0
 11
13.60830677677886
 21
5.376676090881155
 31
0.0
  0
LINE
  5
175
330
1E
100
AcDbEntity
  8
3
100
AcDbLine
 10
13.60830677677886
 20
5.376676090881155
 30
0.0
 11
13.59649575315681
 21
5.376676090881155
 31
0.0
  0
LINE
  5
176
330
1E
100
AcDbEntity
  8
3
100
AcDbLine
 10
13.96460598937729
 20
6.374707586944147
 30
0.0
 11
13.9429524460702
 21
6.364865067259107
 31
0.0
  0
LINE
  5
191
330
1E
100
AcDbEntity
  8
3
100
AcDbLine
 10
13.59649575315681
 20
5.477069791668556
 30
0.0
 11
13.52562961142453
 21
5.481006799542573
 31
0.0
  0
LINE
  5
192
330
1E
100
AcDbEntity
  8
3
100
AcDbLine
 10
13.51381858780248
 20
5.561715460959893
 30
0.0
 11
13.59649575315681
 21
5.55580994914887
 31
0.0
  0
LINE
  5
193
330
1E
100
AcDbEntity
  8
3
100
AcDbLine
 10
14.02169260355051
 20
6.447542232613437
 30
0.0
 11
13.9429524460702
 21
6.447542232613437
 31
0.0
  0
LINE
  5
194
330
1E
100
AcDbEntity
  8
3
100
AcDbLine
 10
13.9685429972513
 20
6.388487114503202
 30
0.0
 11
13.96460598937729
 21
6.374707586944147
 31
0.0
  0
LINE
  5
195
330
1E
100
AcDbEntity
  8
3
100
AcDbLine
 10
13.95673197362925
 20
6.412109161747298
 30
0.0
 11
13.9685429972513
 21
6.388487114503202
 31
0.0
  0
LINE
  5
196
330
1E
100
AcDbEntity
  8
3
100
AcDbLine
 10
13.9429524460702
 20
6.429825697180367
 30
0.0
 11
13.95673197362925
 21
6.412109161747298
 31
0.0
  0
LINE
  5
197
330
1E
100
AcDbEntity
  8
3
100
AcDbLine
 10
13.50397606811744
 20
7.658172153873282
 30
0.0
 11
13.59649575315681
 21
7.666046169621314
 31
0.0
  0
LINE
  5
1B7
330
1E
100
AcDbEntity
  8
3
100
AcDbLine
 10
13.11027528071585
 20
7.01053435859769
 30
0.0
 11
13.44885795788122
 21
7.599117035763044
 31
0.0
  0
LINE
  5
1C7
330
1E
100
AcDbEntity
  8
3
100
AcDbLine
 10
13.14177134370799
 20
6.990849319227612
 30
0.0
 11
13.14177134370799
 21
6.951479240487451
 31
0.0
  0
LINE
  5
1C8
330
1E
100
AcDbEntity
  8
3
100
AcDbLine
 10
13.10436976890485
 20
6.951479240487451
 30
0.0
 11
13.10436976890485
 21
6.990849319227612
 31
0.0
  0
LINE
  5
1CE
330
1E
100
AcDbEntity
  8
3
100
AcDbLine
 10
13.14177134370799
 20
6.951479240487451
 30
0.0
 11
13.51381858780248
 21
5.561715460959893
 31
0.0
  0
LINE
  5
4C37
330
1E
100
AcDbEntity
  8
3
100
AcDbLine
 10
8.687046934259177
 20
7.461321760172491
 30
0.0
 11
8.742165044495401
 21
7.461321760172491
 31
0.0
  0
LINE
  5
4C38
330
1E
100
AcDbEntity
  8
3
100
AcDbLine
 10
10.98429102874734
 20
5.07352648458194
 30
0.0
 11
10.98429102874734
 21
8.010534358597691
 31
0.0
  0
LINE
  5
4C40
330
1E
100
AcDbEntity
  8
3
100
AcDbLine
 10
7.940983942133192
 20
4.967227271983516
 30
0.0
 11
10.87799181614893
 21
4.967227271983516
 31
0.0
  0
LINE
  5
4C47
330
1E
100
AcDbEntity
  8
3
100
AcDbLine
 10
7.8425587452828
 20
5.030219397967768
 30
0.0
 11
7.834684729534767
 21
5.07352648458194
 31
0.0
  0
LINE
  5
4C48
330
1E
100
AcDbEntity
  8
3
100
AcDbLine
 10
7.834684729534767
 20
8.010534358597691
 30
0.0
 11
7.834684729534767
 21
5.07352648458194
 31
0.0
  0
LINE
  5
4C50
330
1E
100
AcDbEntity
  8
3
100
AcDbLine
 10
10.87799181614893
 20
8.116833571196114
 30
0.0
 11
7.940983942133192
 21
8.116833571196114
 31
0.0
  0
LINE
  5
4C51
330
1E
100
AcDbEntity
  8
3
100
AcDbLine
 10
10.87799181614893
 20
8.116833571196114
 30
0.0
 11
10.92129890276311
 21
8.108959555448086
 31
0.0
  0
LINE
  5
4C5F
330
1E
100
AcDbEntity
  8
3
100
AcDbLine
 10
10.07484220984973
 20
7.461321760172491
 30
0.0
 11
10.12996032008594
 21
7.461321760172491
 31
0.0
  0
LINE
  5
4C60
330
1E
100
AcDbEntity
  8
3
100
AcDbLine
 10
10.32877921772374
 20
6.776282390093752
 30
0.0
 11
10.32877921772374
 21
6.238880815290602
 31
0.0
  0
LINE
  5
4C61
330
1E
100
AcDbEntity
  8
3
100
AcDbLine
 10
8.488228036621382
 20
6.238880815290602
 30
0.0
 11
8.488228036621382
 21
6.776282390093752
 31
0.0
  0
LINE
  5
4C6D
330
1E
100
AcDbEntity
  8
3
100
AcDbLine
 10
10.68114142244815
 20
5.376676090881155
 30
0.0
 11
10.98429102874734
 21
5.07352648458194
 31
0.0
  0
LINE
  5
4CAD
330
1E
100
AcDbEntity
  8
3
100
AcDbLine
 10
10.57484220984973
 20
5.376676090881155
 30
0.0
 11
10.57484220984973
 21
5.319589476707927
 31
0.0
  0
LINE
  5
4CAE
330
1E
100
AcDbEntity
  8
3
100
AcDbLine
 10
10.57484220984973
 20
5.319589476707927
 30
0.0
 11
10.57484220984973
 21
5.27037687828273
 31
0.0
  0
LINE
  5
4CB4
330
1E
100
AcDbEntity
  8
3
100
AcDbLine
 10
9.956731973629253
 20
6.823526484581942
 30
0.0
 11
9.944920950007213
 21
6.823526484581942
 31
0.0
  0
LINE
  5
4CB5
330
1E
100
AcDbEntity
  8
3
100
AcDbLine
 10
9.935078430322171
 20
6.776282390093752
 30
0.0
 11
9.944920950007213
 21
6.823526484581942
 31
0.0
  0
LINE
  5
4CB6
330
1E
100
AcDbEntity
  8
3
100
AcDbLine
 10
9.935078430322171
 20
6.776282390093752
 30
0.0
 11
9.517755595676499
 21
6.776282390093752
 31
0.0
  0
LINE
  5
4CB7
330
1E
100
AcDbEntity
  8
3
100
AcDbLine
 10
9.507913075991462
 20
6.823526484581942
 30
0.0
 11
9.517755595676499
 21
6.776282390093752
 31
0.0
  0
LINE
  5
4CB8
330
1E
100
AcDbEntity
  8
3
100
AcDbLine
 10
9.507913075991462
 20
6.823526484581942
 30
0.0
 11
9.496102052369415
 21
6.823526484581942
 31
0.0
  0
LINE
  5
4CB9
330
1E
100
AcDbEntity
  8
3
100
AcDbLine
 10
10.14373984764499
 20
6.823526484581942
 30
0.0
 11
10.15358236733002
 21
6.776282390093752
 31
0.0
  0
LINE
  5
4CBA
330
1E
100
AcDbEntity
  8
3
100
AcDbLine
 10
10.14373984764499
 20
6.823526484581942
 30
0.0
 11
10.13192882402293
 21
6.823526484581942
 31
0.0
  0
LINE
  5
4CBB
330
1E
100
AcDbEntity
  8
3
100
AcDbLine
 10
10.35633827284183
 20
6.776282390093752
 30
0.0
 11
10.15358236733002
 21
6.776282390093752
 31
0.0
  0
LINE
  5
4CBC
330
1E
100
AcDbEntity
  8
3
100
AcDbLine
 10
9.956731973629253
 20
6.790061917652807
 30
0.0
 11
10.13192882402293
 21
6.790061917652807
 31
0.0
  0
LINE
  5
4CC3
330
1E
100
AcDbEntity
  8
3
100
AcDbLine
 10
9.320905201975715
 20
6.823526484581942
 30
0.0
 11
9.309094178353667
 21
6.823526484581942
 31
0.0
  0
LINE
  5
4CC4
330
1E
100
AcDbEntity
  8
3
100
AcDbLine
 10
9.299251658668627
 20
6.776282390093752
 30
0.0
 11
9.309094178353667
 21
6.823526484581942
 31
0.0
  0
LINE
  5
4CC5
330
1E
100
AcDbEntity
  8
3
100
AcDbLine
 10
9.299251658668627
 20
6.776282390093752
 30
0.0
 11
8.883897327959966
 21
6.776282390093752
 31
0.0
  0
LINE
  5
4CC6
330
1E
100
AcDbEntity
  8
3
100
AcDbLine
 10
8.874054808274927
 20
6.823526484581942
 30
0.0
 11
8.883897327959966
 21
6.776282390093752
 31
0.0
  0
LINE
  5
4CC7
330
1E
100
AcDbEntity
  8
3
100
AcDbLine
 10
8.874054808274927
 20
6.823526484581942
 30
0.0
 11
8.862243784652877
 21
6.823526484581942
 31
0.0
  0
LINE
  5
4CC8
330
1E
100
AcDbEntity
  8
3
100
AcDbLine
 10
9.496102052369415
 20
6.790061917652807
 30
0.0
 11
9.320905201975715
 21
6.790061917652807
 31
0.0
  0
LINE
  5
4CCF
330
1E
100
AcDbEntity
  8
3
100
AcDbLine
 10
8.687046934259177
 20
6.823526484581942
 30
0.0
 11
8.675235910637129
 21
6.823526484581942
 31
0.0
  0
LINE
  5
4CD0
330
1E
100
AcDbEntity
  8
3
100
AcDbLine
 10
8.665393390952091
 20
6.776282390093752
 30
0.0
 11
8.675235910637129
 21
6.823526484581942
 31
0.0
  0
LINE
  5
4CD1
330
1E
100
AcDbEntity
  8
3
100
AcDbLine
 10
8.665393390952091
 20
6.776282390093752
 30
0.0
 11
8.460668981503275
 21
6.776282390093752
 31
0.0
  0
LINE
  5
4CD2
330
1E
100
AcDbEntity
  8
3
100
AcDbLine
 10
8.862243784652877
 20
6.790061917652807
 30
0.0
 11
8.687046934259177
 21
6.790061917652807
 31
0.0
  0
LINE
  5
4CD3
330
1E
100
AcDbEntity
  8
3
100
AcDbLine
 10
8.862243784652877
 20
6.841243020015013
 30
0.0
 11
8.862243784652877
 21
6.790061917652807
 31
0.0
  0
LINE
  5
4CD4
330
1E
100
AcDbEntity
  8
3
100
AcDbLine
 10
8.862243784652877
 20
6.841243020015013
 30
0.0
 11
8.687046934259177
 21
6.841243020015013
 31
0.0
  0
LINE
  5
4CD5
330
1E
100
AcDbEntity
  8
3
100
AcDbLine
 10
8.687046934259177
 20
6.790061917652807
 30
0.0
 11
8.687046934259177
 21
6.841243020015013
 31
0.0
  0
LINE
  5
4CD6
330
1E
100
AcDbEntity
  8
3
100
AcDbLine
 10
9.330747721660753
 20
7.416046169621314
 30
0.0
 11
9.488228036621382
 21
7.416046169621314
 31
0.0
  0
LINE
  5
4CD7
330
1E
100
AcDbEntity
  8
3
100
AcDbLine
 10
9.488228036621382
 20
7.27037687828273
 30
0.0
 11
9.330747721660753
 21
7.27037687828273
 31
0.0
  0
LINE
  5
4CD8
330
1E
100
AcDbEntity
  8
3
100
AcDbLine
 10
10.13783433583398
 20
6.374707586944147
 30
0.0
 11
10.14570835158201
 21
6.183762705054383
 31
0.0
  0
LINE
  5
4CE2
330
1E
100
AcDbEntity
  8
3
100
AcDbLine
 10
9.509881579928473
 20
6.183762705054383
 30
0.0
 11
9.653582367330043
 21
6.183762705054383
 31
0.0
  0
LINE
  5
4CE3
330
1E
100
AcDbEntity
  8
3
100
AcDbLine
 10
9.503976068117443
 20
6.374707586944147
 30
0.0
 11
9.509881579928473
 21
6.183762705054383
 31
0.0
  0
LINE
  5
4CE4
330
1E
100
AcDbEntity
  8
3
100
AcDbLine
 10
9.31499969016469
 20
6.374707586944147
 30
0.0
 11
9.503976068117443
 21
6.374707586944147
 31
0.0
  0
LINE
  5
4CED
330
1E
100
AcDbEntity
  8
3
100
AcDbLine
 10
8.876023312211932
 20
6.183762705054383
 30
0.0
 11
9.019724099613508
 21
6.183762705054383
 31
0.0
  0
LINE
  5
4CEE
330
1E
100
AcDbEntity
  8
3
100
AcDbLine
 10
8.868149296463904
 20
6.374707586944147
 30
0.0
 11
8.876023312211932
 21
6.183762705054383
 31
0.0
  0
LINE
  5
4CF4
330
1E
100
AcDbEntity
  8
3
100
AcDbLine
 10
8.529566619298549
 20
6.183762705054383
 30
0.0
 11
8.673267406700121
 21
6.183762705054383
 31
0.0
  0
LINE
  5
4CFA
330
1E
100
AcDbEntity
  8
3
100
AcDbLine
 10
8.460668981503275
 20
6.05777845308588
 30
0.0
 11
10.35633827284183
 21
6.05777845308588
 31
0.0
  0
LINE
  5
4D01
330
1E
100
AcDbEntity
  8
3
100
AcDbLine
 10
8.31499969016469
 20
7.587306012140997
 30
0.0
 11
8.31499969016469
 21
5.55580994914887
 31
0.0
  0
LINE
  5
4D08
330
1E
100
AcDbEntity
  8
3
100
AcDbLine
 10
10.42523591063713
 20
7.666046169621314
 30
0.0
 11
8.393739847645003
 21
7.666046169621314
 31
0.0
  0
LINE
  5
4D0F
330
1E
100
AcDbEntity
  8
3
100
AcDbLine
 10
10.50397606811743
 20
5.55580994914887
 30
0.0
 11
10.50397606811743
 21
7.587306012140997
 31
0.0
  0
LINE
  5
4D16
330
1E
100
AcDbEntity
  8
3
100
AcDbLine
 10
8.393739847645003
 20
5.477069791668556
 30
0.0
 11
10.42523591063713
 21
5.477069791668556
 31
0.0
  0
LINE
  5
4D34
330
1E
100
AcDbEntity
  8
3
100
AcDbLine
 10
8.397676855519017
 20
5.51053435859769
 30
0.0
 11
10.4193303988261
 21
5.51053435859769
 31
0.0
  0
LINE
  5
4D3A
330
1E
100
AcDbEntity
  8
3
100
AcDbLine
 10
10.4193303988261
 20
5.481006799542573
 30
0.0
 11
8.397676855519017
 21
5.481006799542573
 31
0.0
  0
LINE
  5
4D4D
330
1E
100
AcDbEntity
  8
3
100
AcDbLine
 10
8.397676855519017
 20
5.481006799542573
 30
0.0
 11
8.393739847645003
 21
5.477069791668556
 31
0.0
  0
LINE
  5
4D4E
330
1E
100
AcDbEntity
  8
3
100
AcDbLine
 10
8.31499969016469
 20
5.55580994914887
 30
0.0
 11
8.320905201975715
 21
5.561715460959893
 31
0.0
  0
LINE
  5
4D4F
330
1E
100
AcDbEntity
  8
3
100
AcDbLine
 10
10.42523591063713
 20
5.477069791668556
 30
0.0
 11
10.4193303988261
 21
5.481006799542573
 31
0.0
  0
LINE
  5
4D50
330
1E
100
AcDbEntity
  8
3
100
AcDbLine
 10
10.49807055630642
 20
5.561715460959893
 30
0.0
 11
10.50397606811743
 21
5.55580994914887
 31
0.0
  0
LINE
  5
4D51
330
1E
100
AcDbEntity
  8
3
100
AcDbLine
 10
9.948857957881227
 20
6.447542232613437
 30
0.0
 11
10.13783433583398
 21
6.447542232613437
 31
0.0
  0
LINE
  5
4D52
330
1E
100
AcDbEntity
  8
3
100
AcDbLine
 10
9.950826461818234
 20
6.388487114503202
 30
0.0
 11
9.948857957881227
 21
6.374707586944147
 31
0.0
  0
LINE
  5
4D53
330
1E
100
AcDbEntity
  8
3
100
AcDbLine
 10
10.13783433583398
 20
6.388487114503202
 30
0.0
 11
10.13783433583398
 21
6.374707586944147
 31
0.0
  0
LINE
  5
4D54
330
1E
100
AcDbEntity
  8
3
100
AcDbLine
 10
10.13783433583398
 20
6.388487114503202
 30
0.0
 11
9.950826461818234
 21
6.388487114503202
 31
0.0
  0
LINE
  5
4D55
330
1E
100
AcDbEntity
  8
3
100
AcDbLine
 10
9.950826461818234
 20
6.412109161747298
 30
0.0
 11
9.950826461818234
 21
6.388487114503202
 31
0.0
  0
LINE
  5
4D56
330
1E
100
AcDbEntity
  8
3
100
AcDbLine
 10
10.13783433583398
 20
6.412109161747298
 30
0.0
 11
10.13783433583398
 21
6.388487114503202
 31
0.0
  0
LINE
  5
4D57
330
1E
100
AcDbEntity
  8
3
100
AcDbLine
 10
10.13783433583398
 20
6.412109161747298
 30
0.0
 11
9.950826461818234
 21
6.412109161747298
 31
0.0
  0
LINE
  5
4D58
330
1E
100
AcDbEntity
  8
3
100
AcDbLine
 10
9.948857957881227
 20
6.435731208991391
 30
0.0
 11
9.950826461818234
 21
6.412109161747298
 31
0.0
  0
LINE
  5
4D59
330
1E
100
AcDbEntity
  8
3
100
AcDbLine
 10
10.13783433583398
 20
6.435731208991391
 30
0.0
 11
10.13783433583398
 21
6.412109161747298
 31
0.0
  0
LINE
  5
4D5A
330
1E
100
AcDbEntity
  8
3
100
AcDbLine
 10
10.13783433583398
 20
6.435731208991391
 30
0.0
 11
9.948857957881227
 21
6.435731208991391
 31
0.0
  0
LINE
  5
4D60
330
1E
100
AcDbEntity
  8
3
100
AcDbLine
 10
9.948857957881227
 20
6.435731208991391
 30
0.0
 11
9.948857957881227
 21
6.437699712928399
 31
0.0
  0
LINE
  5
4D61
330
1E
100
AcDbEntity
  8
3
100
AcDbLine
 10
9.948857957881227
 20
6.447542232613437
 30
0.0
 11
9.948857957881227
 21
6.437699712928399
 31
0.0
  0
LINE
  5
4D62
330
1E
100
AcDbEntity
  8
3
100
AcDbLine
 10
10.13783433583398
 20
6.447542232613437
 30
0.0
 11
10.13783433583398
 21
6.437699712928399
 31
0.0
  0
LINE
  5
4D63
330
1E
100
AcDbEntity
  8
3
100
AcDbLine
 10
9.31499969016469
 20
6.447542232613437
 30
0.0
 11
9.503976068117443
 21
6.447542232613437
 31
0.0
  0
LINE
  5
4D64
330
1E
100
AcDbEntity
  8
3
100
AcDbLine
 10
9.503976068117443
 20
6.388487114503202
 30
0.0
 11
9.503976068117443
 21
6.374707586944147
 31
0.0
  0
LINE
  5
4D65
330
1E
100
AcDbEntity
  8
3
100
AcDbLine
 10
9.31499969016469
 20
6.388487114503202
 30
0.0
 11
9.503976068117443
 21
6.388487114503202
 31
0.0
  0
LINE
  5
4D66
330
1E
100
AcDbEntity
  8
3
100
AcDbLine
 10
9.31499969016469
 20
6.388487114503202
 30
0.0
 11
9.31499969016469
 21
6.374707586944147
 31
0.0
  0
LINE
  5
4D67
330
1E
100
AcDbEntity
  8
3
100
AcDbLine
 10
9.503976068117443
 20
6.412109161747298
 30
0.0
 11
9.503976068117443
 21
6.388487114503202
 31
0.0
  0
LINE
  5
4D68
330
1E
100
AcDbEntity
  8
3
100
AcDbLine
 10
9.31499969016469
 20
6.412109161747298
 30
0.0
 11
9.503976068117443
 21
6.412109161747298
 31
0.0
  0
LINE
  5
4D69
330
1E
100
AcDbEntity
  8
3
100
AcDbLine
 10
9.31499969016469
 20
6.412109161747298
 30
0.0
 11
9.31499969016469
 21
6.388487114503202
 31
0.0
  0
LINE
  5
4D6A
330
1E
100
AcDbEntity
  8
3
100
AcDbLine
 10
9.503976068117443
 20
6.435731208991391
 30
0.0
 11
9.503976068117443
 21
6.412109161747298
 31
0.0
  0
LINE
  5
4D6B
330
1E
100
AcDbEntity
  8
3
100
AcDbLine
 10
9.31499969016469
 20
6.435731208991391
 30
0.0
 11
9.503976068117443
 21
6.435731208991391
 31
0.0
  0
LINE
  5
4D6C
330
1E
100
AcDbEntity
  8
3
100
AcDbLine
 10
9.31499969016469
 20
6.435731208991391
 30
0.0
 11
9.31499969016469
 21
6.412109161747298
 31
0.0
  0
LINE
  5
4D6D
330
1E
100
AcDbEntity
  8
3
100
AcDbLine
 10
9.503976068117443
 20
6.435731208991391
 30
0.0
 11
9.503976068117443
 21
6.437699712928399
 31
0.0
  0
LINE
  5
4D6E
330
1E
100
AcDbEntity
  8
3
100
AcDbLine
 10
9.31499969016469
 20
6.437699712928399
 30
0.0
 11
9.503976068117443
 21
6.437699712928399
 31
0.0
  0
LINE
  5
4D6F
330
1E
100
AcDbEntity
  8
3
100
AcDbLine
 10
9.31499969016469
 20
6.435731208991391
 30
0.0
 11
9.31499969016469
 21
6.437699712928399
 31
0.0
  0
LINE
  5
4D70
330
1E
100
AcDbEntity
  8
3
100
AcDbLine
 10
9.503976068117443
 20
6.447542232613437
 30
0.0
 11
9.503976068117443
 21
6.437699712928399
 31
0.0
  0
LINE
  5
4D71
330
1E
100
AcDbEntity
  8
3
100
AcDbLine
 10
9.31499969016469
 20
6.447542232613437
 30
0.0
 11
9.31499969016469
 21
6.437699712928399
 31
0.0
  0
LINE
  5
4D72
330
1E
100
AcDbEntity
  8
3
100
AcDbLine
 10
8.679172918511149
 20
6.447542232613437
 30
0.0
 11
8.868149296463904
 21
6.447542232613437
 31
0.0
  0
LINE
  5
4D73
330
1E
100
AcDbEntity
  8
3
100
AcDbLine
 10
8.679172918511149
 20
6.388487114503202
 30
0.0
 11
8.679172918511149
 21
6.374707586944147
 31
0.0
  0
LINE
  5
4D74
330
1E
100
AcDbEntity
  8
3
100
AcDbLine
 10
8.868149296463904
 20
6.388487114503202
 30
0.0
 11
8.868149296463904
 21
6.374707586944147
 31
0.0
  0
LINE
  5
4D75
330
1E
100
AcDbEntity
  8
3
100
AcDbLine
 10
8.868149296463904
 20
6.388487114503202
 30
0.0
 11
8.679172918511149
 21
6.388487114503202
 31
0.0
  0
LINE
  5
4D76
330
1E
100
AcDbEntity
  8
3
100
AcDbLine
 10
8.679172918511149
 20
6.412109161747298
 30
0.0
 11
8.679172918511149
 21
6.388487114503202
 31
0.0
  0
LINE
  5
4D77
330
1E
100
AcDbEntity
  8
3
100
AcDbLine
 10
8.868149296463904
 20
6.412109161747298
 30
0.0
 11
8.868149296463904
 21
6.388487114503202
 31
0.0
  0
LINE
  5
4D78
330
1E
100
AcDbEntity
  8
3
100
AcDbLine
 10
8.868149296463904
 20
6.412109161747298
 30
0.0
 11
8.679172918511149
 21
6.412109161747298
 31
0.0
  0
LINE
  5
4D79
330
1E
100
AcDbEntity
  8
3
100
AcDbLine
 10
8.679172918511149
 20
6.435731208991391
 30
0.0
 11
8.679172918511149
 21
6.412109161747298
 31
0.0
  0
LINE
  5
4D7A
330
1E
100
AcDbEntity
  8
3
100
AcDbLine
 10
8.868149296463904
 20
6.435731208991391
 30
0.0
 11
8.868149296463904
 21
6.412109161747298
 31
0.0
  0
LINE
  5
4D7B
330
1E
100
AcDbEntity
  8
3
100
AcDbLine
 10
8.868149296463904
 20
6.435731208991391
 30
0.0
 11
8.679172918511149
 21
6.435731208991391
 31
0.0
  0
LINE
  5
4D81
330
1E
100
AcDbEntity
  8
3
100
AcDbLine
 10
8.679172918511149
 20
6.435731208991391
 30
0.0
 11
8.679172918511149
 21
6.437699712928399
 31
0.0
  0
LINE
  5
4D82
330
1E
100
AcDbEntity
  8
3
100
AcDbLine
 10
8.679172918511149
 20
6.447542232613437
 30
0.0
 11
8.679172918511149
 21
6.437699712928399
 31
0.0
  0
LINE
  5
4D83
330
1E
100
AcDbEntity
  8
3
100
AcDbLine
 10
8.868149296463904
 20
6.447542232613437
 30
0.0
 11
8.868149296463904
 21
6.437699712928399
 31
0.0
  0
LINE
  5
4D84
330
1E
100
AcDbEntity
  8
3
100
AcDbLine
 10
9.275629611424532
 20
7.293998925526825
 30
0.0
 11
9.543346146857603
 21
7.293998925526825
 31
0.0
  0
LINE
  5
4D85
330
1E
100
AcDbEntity
  8
3
100
AcDbLine
 10
9.275629611424532
 20
7.390455618440208
 30
0.0
 11
9.543346146857603
 21
7.390455618440208
 31
0.0
  0
LINE
  5
4DAF
330
1E
100
AcDbEntity
  8
3
100
AcDbLine
 10
9.488228036621382
 20
7.217227271983517
 30
0.0
 11
9.330747721660753
 21
7.217227271983517
 31
0.0
  0
LINE
  5
4DBE
330
1E
100
AcDbEntity
  8
3
100
AcDbLine
 10
9.488228036621382
 20
7.467227271983517
 30
0.0
 11
9.330747721660753
 21
7.467227271983517
 31
0.0
  0
LINE
  5
4DDE
330
1E
100
AcDbEntity
  8
3
100
AcDbLine
 10
10.4193303988261
 20
7.638487114503202
 30
0.0
 11
8.39964535945603
 21
7.638487114503202
 31
0.0
  0
LINE
  5
4DF1
330
1E
100
AcDbEntity
  8
3
100
AcDbLine
 10
8.322873705912721
 20
7.579431996392965
 30
0.0
 11
8.31499969016469
 21
7.587306012140997
 31
0.0
  0
LINE
  5
4DF2
330
1E
100
AcDbEntity
  8
3
100
AcDbLine
 10
10.50397606811743
 20
7.587306012140997
 30
0.0
 11
10.49610205236941
 21
7.579431996392965
 31
0.0
  0
LINE
  5
4DF3
330
1E
100
AcDbEntity
  8
3
100
AcDbLine
 10
10.10043276103083
 20
7.496754831038637
 30
0.0
 11
8.718542997251303
 21
7.496754831038637
 31
0.0
  0
LINE
  5
4DF4
330
1E
100
AcDbEntity
  8
3
100
AcDbLine
 10
9.488228036621382
 20
7.469195775920526
 30
0.0
 11
9.330747721660753
 21
7.469195775920526
 31
0.0
  0
LINE
  5
4DF5
330
1E
100
AcDbEntity
  8
3
100
AcDbLine
 10
9.330747721660753
 20
7.467227271983517
 30
0.0
 11
9.330747721660753
 21
7.469195775920526
 31
0.0
  0
LINE
  5
4DF6
330
1E
100
AcDbEntity
  8
3
100
AcDbLine
 10
9.488228036621382
 20
7.467227271983517
 30
0.0
 11
9.488228036621382
 21
7.469195775920526
 31
0.0
  0
LINE
  5
4DF7
330
1E
100
AcDbEntity
  8
3
100
AcDbLine
 10
10.29137764292059
 20
6.199510736550446
 30
0.0
 11
10.35633827284183
 21
6.199510736550446
 31
0.0
  0
LINE
  5
4DF8
330
1E
100
AcDbEntity
  8
3
100
AcDbLine
 10
10.29137764292059
 20
6.140455618440208
 30
0.0
 11
10.29137764292059
 21
6.199510736550446
 31
0.0
  0
LINE
  5
4DF9
330
1E
100
AcDbEntity
  8
3
100
AcDbLine
 10
8.527598115361541
 20
6.199510736550446
 30
0.0
 11
8.460668981503275
 21
6.199510736550446
 31
0.0
  0
LINE
  5
4DFA
330
1E
100
AcDbEntity
  8
3
100
AcDbLine
 10
8.529566619298549
 20
6.238880815290602
 30
0.0
 11
8.527598115361541
 21
6.199510736550446
 31
0.0
  0
LINE
  5
4DFB
330
1E
100
AcDbEntity
  8
3
100
AcDbLine
 10
8.460668981503275
 20
6.238880815290602
 30
0.0
 11
8.529566619298549
 21
6.238880815290602
 31
0.0
  0
LINE
  5
4DFC
330
1E
100
AcDbEntity
  8
3
100
AcDbLine
 10
8.527598115361541
 20
6.140455618440208
 30
0.0
 11
8.527598115361541
 21
6.199510736550446
 31
0.0
  0
LINE
  5
4DFD
330
1E
100
AcDbEntity
  8
3
100
AcDbLine
 10
8.742165044495401
 20
7.189668216865407
 30
0.0
 11
8.742165044495401
 21
7.496754831038637
 31
0.0
  0
LINE
  5
4DFE
330
1E
100
AcDbEntity
  8
3
100
AcDbLine
 10
10.07484220984973
 20
7.496754831038637
 30
0.0
 11
10.07484220984973
 21
7.189668216865407
 31
0.0
  0
LINE
  5
4E0F
330
1E
100
AcDbEntity
  8
3
100
AcDbLine
 10
9.488228036621382
 20
7.217227271983517
 30
0.0
 11
9.488228036621382
 21
7.213290264109502
 31
0.0
  0
LINE
  5
4E10
330
1E
100
AcDbEntity
  8
3
100
AcDbLine
 10
9.330747721660753
 20
7.217227271983517
 30
0.0
 11
9.330747721660753
 21
7.213290264109502
 31
0.0
  0
LINE
  5
4E11
330
1E
100
AcDbEntity
  8
3
100
AcDbLine
 10
9.488228036621382
 20
7.213290264109502
 30
0.0
 11
9.330747721660753
 21
7.213290264109502
 31
0.0
  0
LINE
  5
4E22
330
1E
100
AcDbEntity
  8
3
100
AcDbLine
 10
10.28940913898358
 20
6.238880815290602
 30
0.0
 11
10.29137764292059
 21
6.199510736550446
 31
0.0
  0
LINE
  5
4E23
330
1E
100
AcDbEntity
  8
3
100
AcDbLine
 10
10.28940913898358
 20
6.238880815290602
 30
0.0
 11
10.28940913898358
 21
6.183762705054383
 31
0.0
  0
LINE
  5
4E24
330
1E
100
AcDbEntity
  8
3
100
AcDbLine
 10
10.35633827284183
 20
6.238880815290602
 30
0.0
 11
10.28940913898358
 21
6.238880815290602
 31
0.0
  0
LINE
  5
4E25
330
1E
100
AcDbEntity
  8
3
100
AcDbLine
 10
9.797283154731619
 20
6.199510736550446
 30
0.0
 11
9.797283154731619
 21
6.140455618440208
 31
0.0
  0
LINE
  5
4E26
330
1E
100
AcDbEntity
  8
3
100
AcDbLine
 10
9.655550871267053
 20
6.199510736550446
 30
0.0
 11
9.797283154731619
 21
6.199510736550446
 31
0.0
  0
LINE
  5
4E27
330
1E
100
AcDbEntity
  8
3
100
AcDbLine
 10
9.655550871267053
 20
6.140455618440208
 30
0.0
 11
9.655550871267053
 21
6.199510736550446
 31
0.0
  0
LINE
  5
4E28
330
1E
100
AcDbEntity
  8
3
100
AcDbLine
 10
9.653582367330043
 20
6.238880815290602
 30
0.0
 11
9.655550871267053
 21
6.199510736550446
 31
0.0
  0
LINE
  5
4E29
330
1E
100
AcDbEntity
  8
3
100
AcDbLine
 10
9.653582367330043
 20
6.238880815290602
 30
0.0
 11
9.653582367330043
 21
6.183762705054383
 31
0.0
  0
LINE
  5
4E2A
330
1E
100
AcDbEntity
  8
3
100
AcDbLine
 10
9.799251658668627
 20
6.238880815290602
 30
0.0
 11
9.653582367330043
 21
6.238880815290602
 31
0.0
  0
LINE
  5
4E30
330
1E
100
AcDbEntity
  8
3
100
AcDbLine
 10
9.161456383078075
 20
6.199510736550446
 30
0.0
 11
9.161456383078075
 21
6.140455618440208
 31
0.0
  0
LINE
  5
4E31
330
1E
100
AcDbEntity
  8
3
100
AcDbLine
 10
9.021692603550516
 20
6.199510736550446
 30
0.0
 11
9.161456383078075
 21
6.199510736550446
 31
0.0
  0
LINE
  5
4E32
330
1E
100
AcDbEntity
  8
3
100
AcDbLine
 10
9.021692603550516
 20
6.140455618440208
 30
0.0
 11
9.021692603550516
 21
6.199510736550446
 31
0.0
  0
LINE
  5
4E33
330
1E
100
AcDbEntity
  8
3
100
AcDbLine
 10
9.019724099613508
 20
6.238880815290602
 30
0.0
 11
9.021692603550516
 21
6.199510736550446
 31
0.0
  0
LINE
  5
4E34
330
1E
100
AcDbEntity
  8
3
100
AcDbLine
 10
9.019724099613508
 20
6.238880815290602
 30
0.0
 11
9.019724099613508
 21
6.183762705054383
 31
0.0
  0
LINE
  5
4E35
330
1E
100
AcDbEntity
  8
3
100
AcDbLine
 10
9.163424887015086
 20
6.238880815290602
 30
0.0
 11
9.019724099613508
 21
6.238880815290602
 31
0.0
  0
LINE
  5
4E3B
330
1E
100
AcDbEntity
  8
3
100
AcDbLine
 10
8.529566619298549
 20
6.238880815290602
 30
0.0
 11
8.529566619298549
 21
6.183762705054383
 31
0.0
  0
LINE
  5
4E3C
330
1E
100
AcDbEntity
  8
3
100
AcDbLine
 10
9.35043276103083
 20
5.851085539700052
 30
0.0
 11
9.466574493314297
 21
5.851085539700052
 31
0.0
  0
LINE
  5
4E7C
330
1E
100
AcDbEntity
  8
3
100
AcDbLine
 10
8.675235910637129
 20
6.841243020015013
 30
0.0
 11
8.675235910637129
 21
6.823526484581942
 31
0.0
  0
LINE
  5
4E82
330
1E
100
AcDbEntity
  8
3
100
AcDbLine
 10
8.881928824022956
 20
6.843211523952021
 30
0.0
 11
8.665393390952091
 21
6.843211523952021
 31
0.0
  0
LINE
  5
4E83
330
1E
100
AcDbEntity
  8
3
100
AcDbLine
 10
8.687046934259177
 20
6.841243020015013
 30
0.0
 11
8.675235910637129
 21
6.841243020015013
 31
0.0
  0
LINE
  5
4E84
330
1E
100
AcDbEntity
  8
3
100
AcDbLine
 10
8.874054808274927
 20
6.841243020015013
 30
0.0
 11
8.862243784652877
 21
6.841243020015013
 31
0.0
  0
LINE
  5
4E85
330
1E
100
AcDbEntity
  8
3
100
AcDbLine
 10
8.874054808274927
 20
6.841243020015013
 30
0.0
 11
8.881928824022956
 21
6.843211523952021
 31
0.0
  0
LINE
  5
4E86
330
1E
100
AcDbEntity
  8
3
100
AcDbLine
 10
8.883897327959966
 20
6.776282390093752
 30
0.0
 11
8.881928824022956
 21
6.843211523952021
 31
0.0
  0
LINE
  5
4E87
330
1E
100
AcDbEntity
  8
3
100
AcDbLine
 10
8.874054808274927
 20
6.841243020015013
 30
0.0
 11
8.874054808274927
 21
6.823526484581942
 31
0.0
  0
LINE
  5
4E88
330
1E
100
AcDbEntity
  8
3
100
AcDbLine
 10
9.309094178353667
 20
6.841243020015013
 30
0.0
 11
9.309094178353667
 21
6.823526484581942
 31
0.0
  0
LINE
  5
4E8E
330
1E
100
AcDbEntity
  8
3
100
AcDbLine
 10
9.517755595676499
 20
6.843211523952021
 30
0.0
 11
9.301220162605632
 21
6.843211523952021
 31
0.0
  0
LINE
  5
4E8F
330
1E
100
AcDbEntity
  8
3
100
AcDbLine
 10
9.320905201975715
 20
6.841243020015013
 30
0.0
 11
9.309094178353667
 21
6.841243020015013
 31
0.0
  0
LINE
  5
4E90
330
1E
100
AcDbEntity
  8
3
100
AcDbLine
 10
9.507913075991462
 20
6.841243020015013
 30
0.0
 11
9.496102052369415
 21
6.841243020015013
 31
0.0
  0
LINE
  5
4E91
330
1E
100
AcDbEntity
  8
3
100
AcDbLine
 10
9.507913075991462
 20
6.841243020015013
 30
0.0
 11
9.517755595676499
 21
6.843211523952021
 31
0.0
  0
LINE
  5
4E92
330
1E
100
AcDbEntity
  8
3
100
AcDbLine
 10
9.517755595676499
 20
6.776282390093752
 30
0.0
 11
9.517755595676499
 21
6.843211523952021
 31
0.0
  0
LINE
  5
4E93
330
1E
100
AcDbEntity
  8
3
100
AcDbLine
 10
9.507913075991462
 20
6.841243020015013
 30
0.0
 11
9.507913075991462
 21
6.823526484581942
 31
0.0
  0
LINE
  5
4E94
330
1E
100
AcDbEntity
  8
3
100
AcDbLine
 10
9.944920950007213
 20
6.841243020015013
 30
0.0
 11
9.944920950007213
 21
6.823526484581942
 31
0.0
  0
LINE
  5
4E9A
330
1E
100
AcDbEntity
  8
3
100
AcDbLine
 10
10.15161386339301
 20
6.843211523952021
 30
0.0
 11
9.935078430322171
 21
6.843211523952021
 31
0.0
  0
LINE
  5
4E9B
330
1E
100
AcDbEntity
  8
3
100
AcDbLine
 10
9.944920950007213
 20
6.841243020015013
 30
0.0
 11
9.956731973629253
 21
6.841243020015013
 31
0.0
  0
LINE
  5
4EA1
330
1E
100
AcDbEntity
  8
3
100
AcDbLine
 10
10.15358236733002
 20
6.776282390093752
 30
0.0
 11
10.15161386339301
 21
6.843211523952021
 31
0.0
  0
LINE
  5
4EA2
330
1E
100
AcDbEntity
  8
3
100
AcDbLine
 10
10.14373984764499
 20
6.841243020015013
 30
0.0
 11
10.14373984764499
 21
6.823526484581942
 31
0.0
  0
LINE
  5
4EA3
330
1E
100
AcDbEntity
  8
3
100
AcDbLine
 10
10.35633827284183
 20
6.05777845308588
 30
0.0
 11
10.35633827284183
 21
6.776282390093752
 31
0.0
  0
LINE
  5
4EA4
330
1E
100
AcDbEntity
  8
3
100
AcDbLine
 10
8.460668981503275
 20
6.776282390093752
 30
0.0
 11
8.460668981503275
 21
6.05777845308588
 31
0.0
  0
LINE
  5
4EA5
330
1E
100
AcDbEntity
  8
3
100
AcDbLine
 10
10.49610205236941
 20
7.579431996392965
 30
0.0
 11
10.47248000512531
 21
6.990849319227612
 31
0.0
  0
LINE
  5
4EA6
330
1E
100
AcDbEntity
  8
3
100
AcDbLine
 10
10.43310992638516
 20
7.01053435859769
 30
0.0
 11
10.45673197362923
 21
7.599117035763044
 31
0.0
  0
LINE
  5
4EAC
330
1E
100
AcDbEntity
  8
3
100
AcDbLine
 10
10.47248000512531
 20
6.990849319227612
 30
0.0
 11
10.45870047756626
 21
6.990849319227612
 31
0.0
  0
LINE
  5
4EB3
330
1E
100
AcDbEntity
  8
3
100
AcDbLine
 10
8.385865831896975
 20
7.01053435859769
 30
0.0
 11
10.43310992638516
 21
7.01053435859769
 31
0.0
  0
LINE
  5
4EB9
330
1E
100
AcDbEntity
  8
3
100
AcDbLine
 10
10.43310992638516
 20
6.990849319227612
 30
0.0
 11
8.385865831896975
 21
6.990849319227612
 31
0.0
  0
LINE
  5
4EBA
330
1E
100
AcDbEntity
  8
3
100
AcDbLine
 10
8.362243784652877
 20
7.599117035763044
 30
0.0
 11
8.385865831896975
 21
7.01053435859769
 31
0.0
  0
LINE
  5
4EBB
330
1E
100
AcDbEntity
  8
3
100
AcDbLine
 10
8.346495753156817
 20
6.990849319227612
 30
0.0
 11
8.322873705912721
 21
7.579431996392965
 31
0.0
  0
LINE
  5
4ED0
330
1E
100
AcDbEntity
  8
3
100
AcDbLine
 10
10.12996032008594
 20
7.219195775920526
 30
0.0
 11
10.12996032008594
 21
7.46525876804651
 31
0.0
  0
LINE
  5
4ED6
330
1E
100
AcDbEntity
  8
3
100
AcDbLine
 10
8.718542997251303
 20
7.189668216865407
 30
0.0
 11
10.10043276103083
 21
7.189668216865407
 31
0.0
  0
LINE
  5
4ED7
330
1E
100
AcDbEntity
  8
3
100
AcDbLine
 10
8.687046934259177
 20
7.219195775920526
 30
0.0
 11
8.696889453944217
 21
7.197542232613437
 31
0.0
  0
LINE
  5
4ED8
330
1E
100
AcDbEntity
  8
3
100
AcDbLine
 10
8.696889453944217
 20
7.197542232613437
 30
0.0
 11
8.718542997251303
 21
7.189668216865407
 31
0.0
  0
LINE
  5
4ED9
330
1E
100
AcDbEntity
  8
3
100
AcDbLine
 10
8.687046934259177
 20
7.46525876804651
 30
0.0
 11
8.687046934259177
 21
7.219195775920526
 31
0.0
  0
LINE
  5
4EDA
330
1E
100
AcDbEntity
  8
3
100
AcDbLine
 10
8.385865831896975
 20
6.990849319227612
 30
0.0
 11
8.385865831896975
 21
6.951479240487451
 31
0.0
  0
LINE
  5
4EDB
330
1E
100
AcDbEntity
  8
3
100
AcDbLine
 10
8.346495753156817
 20
6.951479240487451
 30
0.0
 11
8.346495753156817
 21
6.990849319227612
 31
0.0
  0
LINE
  5
4EE1
330
1E
100
AcDbEntity
  8
3
100
AcDbLine
 10
10.47248000512531
 20
6.990849319227612
 30
0.0
 11
10.47248000512531
 21
6.951479240487451
 31
0.0
  0
LINE
  5
4EE2
330
1E
100
AcDbEntity
  8
3
100
AcDbLine
 10
10.43310992638516
 20
6.951479240487451
 30
0.0
 11
10.43310992638516
 21
6.990849319227612
 31
0.0
  0
LINE
  5
4EE8
330
1E
100
AcDbEntity
  8
3
100
AcDbLine
 10
8.385865831896975
 20
6.951479240487451
 30
0.0
 11
10.43310992638516
 21
6.951479240487451
 31
0.0
  0
LINE
  5
4EE9
330
1E
100
AcDbEntity
  8
3
100
AcDbLine
 10
8.320905201975715
 20
5.561715460959893
 30
0.0
 11
8.346495753156817
 21
6.951479240487451
 31
0.0
  0
LINE
  5
4EEA
330
1E
100
AcDbEntity
  8
3
100
AcDbLine
 10
10.47248000512531
 20
6.951479240487451
 30
0.0
 11
10.49807055630642
 21
5.561715460959893
 31
0.0
  0
LINE
  5
4EEB
330
1E
100
AcDbEntity
  8
3
100
AcDbLine
 10
8.385865831896975
 20
6.941636720802415
 30
0.0
 11
8.360275280715871
 21
5.549904437337849
 31
0.0
  0
LINE
  5
4F01
330
1E
100
AcDbEntity
  8
3
100
AcDbLine
 10
10.43310992638516
 20
6.941636720802415
 30
0.0
 11
8.385865831896975
 21
6.941636720802415
 31
0.0
  0
LINE
  5
4F02
330
1E
100
AcDbEntity
  8
3
100
AcDbLine
 10
9.35043276103083
 20
5.764471366471706
 30
0.0
 11
9.466574493314297
 21
5.764471366471706
 31
0.0
  0
LINE
  5
4F0F
330
1E
100
AcDbEntity
  8
3
100
AcDbLine
 10
10.43310992638516
 20
6.941636720802415
 30
0.0
 11
10.43310992638516
 21
6.945573728676428
 31
0.0
  0
LINE
  5
4F10
330
1E
100
AcDbEntity
  8
3
100
AcDbLine
 10
10.43310992638516
 20
6.945573728676428
 30
0.0
 11
10.43310992638516
 21
6.951479240487451
 31
0.0
  0
LINE
  5
4F11
330
1E
100
AcDbEntity
  8
3
100
AcDbLine
 10
8.385865831896975
 20
6.951479240487451
 30
0.0
 11
8.385865831896975
 21
6.945573728676428
 31
0.0
  0
LINE
  5
4F12
330
1E
100
AcDbEntity
  8
3
100
AcDbLine
 10
8.385865831896975
 20
6.945573728676428
 30
0.0
 11
8.385865831896975
 21
6.941636720802415
 31
0.0
  0
LINE
  5
4F13
330
1E
100
AcDbEntity
  8
3
100
AcDbLine
 10
10.45870047756626
 20
5.549904437337849
 30
0.0
 11
10.43310992638516
 21
6.941636720802415
 31
0.0
  0
LINE
  5
4F14
330
1E
100
AcDbEntity
  8
3
100
AcDbLine
 10
10.43310992638516
 20
6.941636720802415
 30
0.0
 11
10.45870047756626
 21
6.943605224739422
 31
0.0
  0
LINE
  5
4F15
330
1E
100
AcDbEntity
  8
3
100
AcDbLine
 10
10.45870047756626
 20
6.943605224739422
 30
0.0
 11
10.47248000512531
 21
6.951479240487451
 31
0.0
  0
LINE
  5
4F16
330
1E
100
AcDbEntity
  8
3
100
AcDbLine
 10
8.346495753156817
 20
6.951479240487451
 30
0.0
 11
8.358306776778864
 21
6.943605224739422
 31
0.0
  0
LINE
  5
4F17
330
1E
100
AcDbEntity
  8
3
100
AcDbLine
 10
8.358306776778864
 20
6.943605224739422
 30
0.0
 11
8.385865831896975
 21
6.941636720802415
 31
0.0
  0
LINE
  5
4F18
330
1E
100
AcDbEntity
  8
3
100
AcDbLine
 10
10.47248000512531
 20
6.951479240487451
 30
0.0
 11
10.45870047756626
 21
6.951479240487451
 31
0.0
  0
LINE
  5
4F19
330
1E
100
AcDbEntity
  8
3
100
AcDbLine
 10
10.45870047756626
 20
6.951479240487451
 30
0.0
 11
10.43310992638516
 21
6.951479240487451
 31
0.0
  0
LINE
  5
4F1A
330
1E
100
AcDbEntity
  8
3
100
AcDbLine
 10
8.385865831896975
 20
6.951479240487451
 30
0.0
 11
8.358306776778864
 21
6.951479240487451
 31
0.0
  0
LINE
  5
4F1B
330
1E
100
AcDbEntity
  8
3
100
AcDbLine
 10
8.358306776778864
 20
6.951479240487451
 30
0.0
 11
8.346495753156817
 21
6.951479240487451
 31
0.0
  0
LINE
  5
4F1C
330
1E
100
AcDbEntity
  8
3
100
AcDbLine
 10
10.10043276103083
 20
7.189668216865407
 30
0.0
 11
10.12208630433792
 21
7.197542232613437
 31
0.0
  0
LINE
  5
4F1D
330
1E
100
AcDbEntity
  8
3
100
AcDbLine
 10
10.12208630433792
 20
7.197542232613437
 30
0.0
 11
10.12996032008594
 21
7.219195775920526
 31
0.0
  0
LINE
  5
4F1E
330
1E
100
AcDbEntity
  8
3
100
AcDbLine
 10
10.12996032008594
 20
7.46525876804651
 30
0.0
 11
10.12208630433792
 21
7.486912311353597
 31
0.0
  0
LINE
  5
4F1F
330
1E
100
AcDbEntity
  8
3
100
AcDbLine
 10
10.12208630433792
 20
7.486912311353597
 30
0.0
 11
10.10043276103083
 21
7.496754831038637
 31
0.0
  0
LINE
  5
4F20
330
1E
100
AcDbEntity
  8
3
100
AcDbLine
 10
8.718542997251303
 20
7.496754831038637
 30
0.0
 11
8.696889453944217
 21
7.486912311353597
 31
0.0
  0
LINE
  5
4F21
330
1E
100
AcDbEntity
  8
3
100
AcDbLine
 10
8.696889453944217
 20
7.486912311353597
 30
0.0
 11
8.687046934259177
 21
7.46525876804651
 31
0.0
  0
LINE
  5
4F22
330
1E
100
AcDbEntity
  8
3
100
AcDbLine
 10
8.385865831896975
 20
6.990849319227612
 30
0.0
 11
8.358306776778864
 21
6.990849319227612
 31
0.0
  0
LINE
  5
4F23
330
1E
100
AcDbEntity
  8
3
100
AcDbLine
 10
8.358306776778864
 20
6.990849319227612
 30
0.0
 11
8.346495753156817
 21
6.990849319227612
 31
0.0
  0
LINE
  5
4F24
330
1E
100
AcDbEntity
  8
3
100
AcDbLine
 10
8.385865831896975
 20
7.01053435859769
 30
0.0
 11
8.358306776778864
 21
7.004628846786668
 31
0.0
  0
LINE
  5
4F25
330
1E
100
AcDbEntity
  8
3
100
AcDbLine
 10
8.358306776778864
 20
7.004628846786668
 30
0.0
 11
8.346495753156817
 21
6.990849319227612
 31
0.0
  0
LINE
  5
4F26
330
1E
100
AcDbEntity
  8
3
100
AcDbLine
 10
8.385865831896975
 20
6.990849319227612
 30
0.0
 11
8.385865831896975
 21
7.000691838912651
 31
0.0
  0
LINE
  5
4F27
330
1E
100
AcDbEntity
  8
3
100
AcDbLine
 10
8.385865831896975
 20
7.000691838912651
 30
0.0
 11
8.385865831896975
 21
7.01053435859769
 31
0.0
  0
LINE
  5
4F28
330
1E
100
AcDbEntity
  8
3
100
AcDbLine
 10
10.45870047756626
 20
6.990849319227612
 30
0.0
 11
10.43310992638516
 21
6.990849319227612
 31
0.0
  0
LINE
  5
4F29
330
1E
100
AcDbEntity
  8
3
100
AcDbLine
 10
10.43310992638516
 20
6.990849319227612
 30
0.0
 11
10.43310992638516
 21
7.000691838912651
 31
0.0
  0
LINE
  5
4F2A
330
1E
100
AcDbEntity
  8
3
100
AcDbLine
 10
10.43310992638516
 20
7.000691838912651
 30
0.0
 11
10.43310992638516
 21
7.01053435859769
 31
0.0
  0
LINE
  5
4F2B
330
1E
100
AcDbEntity
  8
3
100
AcDbLine
 10
10.47248000512531
 20
6.990849319227612
 30
0.0
 11
10.45870047756626
 21
7.004628846786668
 31
0.0
  0
LINE
  5
4F2C
330
1E
100
AcDbEntity
  8
3
100
AcDbLine
 10
10.45870047756626
 20
7.004628846786668
 30
0.0
 11
10.43310992638516
 21
7.01053435859769
 31
0.0
  0
LINE
  5
4F2D
330
1E
100
AcDbEntity
  8
3
100
AcDbLine
 10
10.13192882402293
 20
6.841243020015013
 30
0.0
 11
10.14373984764499
 21
6.841243020015013
 31
0.0
  0
LINE
  5
4F2E
330
1E
100
AcDbEntity
  8
3
100
AcDbLine
 10
10.14373984764499
 20
6.841243020015013
 30
0.0
 11
10.15161386339301
 21
6.843211523952021
 31
0.0
  0
LINE
  5
4F2F
330
1E
100
AcDbEntity
  8
3
100
AcDbLine
 10
9.944920950007213
 20
6.841243020015013
 30
0.0
 11
9.935078430322171
 21
6.843211523952021
 31
0.0
  0
LINE
  5
4F30
330
1E
100
AcDbEntity
  8
3
100
AcDbLine
 10
9.935078430322171
 20
6.843211523952021
 30
0.0
 11
9.935078430322171
 21
6.776282390093752
 31
0.0
  0
LINE
  5
4F31
330
1E
100
AcDbEntity
  8
3
100
AcDbLine
 10
9.309094178353667
 20
6.841243020015013
 30
0.0
 11
9.301220162605632
 21
6.843211523952021
 31
0.0
  0
LINE
  5
4F32
330
1E
100
AcDbEntity
  8
3
100
AcDbLine
 10
9.301220162605632
 20
6.843211523952021
 30
0.0
 11
9.299251658668627
 21
6.776282390093752
 31
0.0
  0
LINE
  5
4F33
330
1E
100
AcDbEntity
  8
3
100
AcDbLine
 10
8.675235910637129
 20
6.841243020015013
 30
0.0
 11
8.665393390952091
 21
6.843211523952021
 31
0.0
  0
LINE
  5
4F34
330
1E
100
AcDbEntity
  8
3
100
AcDbLine
 10
8.665393390952091
 20
6.843211523952021
 30
0.0
 11
8.665393390952091
 21
6.776282390093752
 31
0.0
  0
LINE
  5
4F35
330
1E
100
AcDbEntity
  8
3
100
AcDbLine
 10
9.336653233471775
 20
5.80777845308588
 30
0.0
 11
9.344527249219806
 21
5.774313886156743
 31
0.0
  0
LINE
  5
4F36
330
1E
100
AcDbEntity
  8
3
100
AcDbLine
 10
9.344527249219806
 20
5.774313886156743
 30
0.0
 11
9.368149296463904
 21
5.748723334975642
 31
0.0
  0
LINE
  5
4F37
330
1E
100
AcDbEntity
  8
3
100
AcDbLine
 10
9.368149296463904
 20
5.748723334975642
 30
0.0
 11
9.401613863393038
 21
5.734943807416588
 31
0.0
  0
LINE
  5
4F38
330
1E
100
AcDbEntity
  8
3
100
AcDbLine
 10
9.401613863393038
 20
5.734943807416588
 30
0.0
 11
9.435078430322171
 21
5.738880815290602
 31
0.0
  0
LINE
  5
4F39
330
1E
100
AcDbEntity
  8
3
100
AcDbLine
 10
9.435078430322171
 20
5.738880815290602
 30
0.0
 11
9.464605989377288
 21
5.758565854660682
 31
0.0
  0
LINE
  5
4F3A
330
1E
100
AcDbEntity
  8
3
100
AcDbLine
 10
9.464605989377288
 20
5.758565854660682
 30
0.0
 11
9.480354020873351
 21
5.790061917652807
 31
0.0
  0
LINE
  5
4F3B
330
1E
100
AcDbEntity
  8
3
100
AcDbLine
 10
9.480354020873351
 20
5.790061917652807
 30
0.0
 11
9.480354020873351
 21
5.825494988518951
 31
0.0
  0
LINE
  5
4F3C
330
1E
100
AcDbEntity
  8
3
100
AcDbLine
 10
9.480354020873351
 20
5.825494988518951
 30
0.0
 11
9.464605989377288
 21
5.856991051511077
 31
0.0
  0
LINE
  5
4F3D
330
1E
100
AcDbEntity
  8
3
100
AcDbLine
 10
9.464605989377288
 20
5.856991051511077
 30
0.0
 11
9.435078430322171
 21
5.876676090881152
 31
0.0
  0
LINE
  5
4F3E
330
1E
100
AcDbEntity
  8
3
100
AcDbLine
 10
9.435078430322171
 20
5.876676090881152
 30
0.0
 11
9.401613863393038
 21
5.880613098755171
 31
0.0
  0
LINE
  5
4F3F
330
1E
100
AcDbEntity
  8
3
100
AcDbLine
 10
9.401613863393038
 20
5.880613098755171
 30
0.0
 11
9.368149296463904
 21
5.866833571196115
 31
0.0
  0
LINE
  5
4F40
330
1E
100
AcDbEntity
  8
3
100
AcDbLine
 10
9.368149296463904
 20
5.866833571196115
 30
0.0
 11
9.344527249219806
 21
5.841243020015013
 31
0.0
  0
LINE
  5
4F41
330
1E
100
AcDbEntity
  8
3
100
AcDbLine
 10
9.344527249219806
 20
5.841243020015013
 30
0.0
 11
9.336653233471775
 21
5.80777845308588
 31
0.0
  0
LINE
  5
4F42
330
1E
100
AcDbEntity
  8
3
100
AcDbLine
 10
9.283503627172564
 20
5.786124909778792
 30
0.0
 11
9.299251658668627
 21
5.744786327101627
 31
0.0
  0
LINE
  5
4F43
330
1E
100
AcDbEntity
  8
3
100
AcDbLine
 10
9.299251658668627
 20
5.744786327101627
 30
0.0
 11
9.326810713786738
 21
5.709353256235486
 31
0.0
  0
LINE
  5
4F44
330
1E
100
AcDbEntity
  8
3
100
AcDbLine
 10
9.326810713786738
 20
5.709353256235486
 30
0.0
 11
9.366180792526892
 21
5.687699712928399
 31
0.0
  0
LINE
  5
4F45
330
1E
100
AcDbEntity
  8
3
100
AcDbLine
 10
9.366180792526892
 20
5.687699712928399
 30
0.0
 11
9.409487879141067
 21
5.679825697180367
 31
0.0
  0
LINE
  5
4F46
330
1E
100
AcDbEntity
  8
3
100
AcDbLine
 10
9.409487879141067
 20
5.679825697180367
 30
0.0
 11
9.45279496575524
 21
5.687699712928399
 31
0.0
  0
LINE
  5
4F47
330
1E
100
AcDbEntity
  8
3
100
AcDbLine
 10
9.45279496575524
 20
5.687699712928399
 30
0.0
 11
9.492165044495399
 21
5.709353256235486
 31
0.0
  0
LINE
  5
4F48
330
1E
100
AcDbEntity
  8
3
100
AcDbLine
 10
9.492165044495399
 20
5.709353256235486
 30
0.0
 11
9.519724099613508
 21
5.744786327101627
 31
0.0
  0
LINE
  5
4F49
330
1E
100
AcDbEntity
  8
3
100
AcDbLine
 10
9.519724099613508
 20
5.744786327101627
 30
0.0
 11
9.535472131109573
 21
5.786124909778792
 31
0.0
  0
LINE
  5
4F4A
330
1E
100
AcDbEntity
  8
3
100
AcDbLine
 10
9.535472131109573
 20
5.786124909778792
 30
0.0
 11
9.535472131109573
 21
5.829431996392965
 31
0.0
  0
LINE
  5
4F4B
330
1E
100
AcDbEntity
  8
3
100
AcDbLine
 10
9.535472131109573
 20
5.829431996392965
 30
0.0
 11
9.519724099613508
 21
5.870770579070132
 31
0.0
  0
LINE
  5
4F4C
330
1E
100
AcDbEntity
  8
3
100
AcDbLine
 10
9.519724099613508
 20
5.870770579070132
 30
0.0
 11
9.492165044495399
 21
5.906203649936271
 31
0.0
  0
LINE
  5
4F4D
330
1E
100
AcDbEntity
  8
3
100
AcDbLine
 10
9.492165044495399
 20
5.906203649936271
 30
0.0
 11
9.45279496575524
 21
5.92785719324336
 31
0.0
  0
LINE
  5
4F4E
330
1E
100
AcDbEntity
  8
3
100
AcDbLine
 10
9.45279496575524
 20
5.92785719324336
 30
0.0
 11
9.409487879141067
 21
5.935731208991391
 31
0.0
  0
LINE
  5
4F4F
330
1E
100
AcDbEntity
  8
3
100
AcDbLine
 10
9.409487879141067
 20
5.935731208991391
 30
0.0
 11
9.366180792526892
 21
5.92785719324336
 31
0.0
  0
LINE
  5
4F50
330
1E
100
AcDbEntity
  8
3
100
AcDbLine
 10
9.366180792526892
 20
5.92785719324336
 30
0.0
 11
9.326810713786738
 21
5.906203649936271
 31
0.0
  0
LINE
  5
4F51
330
1E
100
AcDbEntity
  8
3
100
AcDbLine
 10
9.326810713786738
 20
5.906203649936271
 30
0.0
 11
9.299251658668627
 21
5.870770579070132
 31
0.0
  0
LINE
  5
4F52
330
1E
100
AcDbEntity
  8
3
100
AcDbLine
 10
9.299251658668627
 20
5.870770579070132
 30
0.0
 11
9.283503627172564
 21
5.829431996392965
 31
0.0
  0
LINE
  5
4F53
330
1E
100
AcDbEntity
  8
3
100
AcDbLine
 10
9.283503627172564
 20
5.829431996392965
 30
0.0
 11
9.283503627172564
 21
5.786124909778792
 31
0.0
  0
LINE
  5
4F54
330
1E
100
AcDbEntity
  8
3
100
AcDbLine
 10
9.30318866654264
 20
5.742817823164619
 30
0.0
 11
9.334684729534767
 21
5.709353256235486
 31
0.0
  0
LINE
  5
4F55
330
1E
100
AcDbEntity
  8
3
100
AcDbLine
 10
9.334684729534767
 20
5.709353256235486
 30
0.0
 11
9.376023312211932
 21
5.687699712928399
 31
0.0
  0
LINE
  5
4F56
330
1E
100
AcDbEntity
  8
3
100
AcDbLine
 10
9.376023312211932
 20
5.687699712928399
 30
0.0
 11
9.421298902763117
 21
5.683762705054383
 31
0.0
  0
LINE
  5
4F57
330
1E
100
AcDbEntity
  8
3
100
AcDbLine
 10
9.421298902763117
 20
5.683762705054383
 30
0.0
 11
9.464605989377288
 21
5.697542232613437
 31
0.0
  0
LINE
  5
4F58
330
1E
100
AcDbEntity
  8
3
100
AcDbLine
 10
9.464605989377288
 20
5.697542232613437
 30
0.0
 11
9.502007564180436
 21
5.725101287731547
 31
0.0
  0
LINE
  5
4F59
330
1E
100
AcDbEntity
  8
3
100
AcDbLine
 10
9.502007564180436
 20
5.725101287731547
 30
0.0
 11
9.525629611424532
 21
5.762502862534699
 31
0.0
  0
LINE
  5
4F5A
330
1E
100
AcDbEntity
  8
3
100
AcDbLine
 10
9.525629611424532
 20
5.762502862534699
 30
0.0
 11
9.533503627172564
 21
5.80777845308588
 31
0.0
  0
LINE
  5
4F5B
330
1E
100
AcDbEntity
  8
3
100
AcDbLine
 10
9.533503627172564
 20
5.80777845308588
 30
0.0
 11
9.525629611424532
 21
5.853054043637058
 31
0.0
  0
LINE
  5
4F5C
330
1E
100
AcDbEntity
  8
3
100
AcDbLine
 10
9.525629611424532
 20
5.853054043637058
 30
0.0
 11
9.502007564180436
 21
5.890455618440208
 31
0.0
  0
LINE
  5
4F5D
330
1E
100
AcDbEntity
  8
3
100
AcDbLine
 10
9.502007564180436
 20
5.890455618440208
 30
0.0
 11
9.464605989377288
 21
5.918014673558319
 31
0.0
  0
LINE
  5
4F5E
330
1E
100
AcDbEntity
  8
3
100
AcDbLine
 10
9.464605989377288
 20
5.918014673558319
 30
0.0
 11
9.421298902763117
 21
5.931794201117376
 31
0.0
  0
LINE
  5
4F5F
330
1E
100
AcDbEntity
  8
3
100
AcDbLine
 10
9.421298902763117
 20
5.931794201117376
 30
0.0
 11
9.376023312211932
 21
5.92785719324336
 31
0.0
  0
LINE
  5
4F60
330
1E
100
AcDbEntity
  8
3
100
AcDbLine
 10
9.376023312211932
 20
5.92785719324336
 30
0.0
 11
9.334684729534767
 21
5.906203649936271
 31
0.0
  0
LINE
  5
4F61
330
1E
100
AcDbEntity
  8
3
100
AcDbLine
 10
9.334684729534767
 20
5.906203649936271
 30
0.0
 11
9.30318866654264
 21
5.872739083007139
 31
0.0
  0
LINE
  5
4F62
330
1E
100
AcDbEntity
  8
3
100
AcDbLine
 10
9.30318866654264
 20
5.872739083007139
 30
0.0
 11
9.287440635046579
 21
5.831400500329975
 31
0.0
  0
LINE
  5
4F63
330
1E
100
AcDbEntity
  8
3
100
AcDbLine
 10
9.287440635046579
 20
5.831400500329975
 30
0.0
 11
9.287440635046579
 21
5.784156405841785
 31
0.0
  0
LINE
  5
4F64
330
1E
100
AcDbEntity
  8
3
100
AcDbLine
 10
9.287440635046579
 20
5.784156405841785
 30
0.0
 11
9.30318866654264
 21
5.742817823164619
 31
0.0
  0
LINE
  5
4F65
330
1E
100
AcDbEntity
  8
3
100
AcDbLine
 10
9.163424887015086
 20
6.183762705054383
 30
0.0
 11
9.163424887015086
 21
6.238880815290602
 31
0.0
  0
LINE
  5
4F66
330
1E
100
AcDbEntity
  8
3
100
AcDbLine
 10
9.163424887015086
 20
6.238880815290602
 30
0.0
 11
9.161456383078075
 21
6.199510736550446
 31
0.0
  0
LINE
  5
4F67
330
1E
100
AcDbEntity
  8
3
100
AcDbLine
 10
9.799251658668627
 20
6.183762705054383
 30
0.0
 11
9.799251658668627
 21
6.238880815290602
 31
0.0
  0
LINE
  5
4F68
330
1E
100
AcDbEntity
  8
3
100
AcDbLine
 10
9.799251658668627
 20
6.238880815290602
 30
0.0
 11
9.797283154731619
 21
6.199510736550446
 31
0.0
  0
LINE
  5
4F69
330
1E
100
AcDbEntity
  8
3
100
AcDbLine
 10
9.253976068117443
 20
7.445573728676428
 30
0.0
 11
9.226417012999338
 21
7.416046169621314
 31
0.0
  0
LINE
  5
4F6A
330
1E
100
AcDbEntity
  8
3
100
AcDbLine
 10
9.226417012999338
 20
7.416046169621314
 30
0.0
 11
9.208700477566264
 21
7.380613098755171
 31
0.0
  0
LINE
  5
4F6B
330
1E
100
AcDbEntity
  8
3
100
AcDbLine
 10
9.208700477566264
 20
7.380613098755171
 30
0.0
 11
9.200826461818234
 21
7.341243020015013
 31
0.0
  0
LINE
  5
4F6C
330
1E
100
AcDbEntity
  8
3
100
AcDbLine
 10
9.200826461818234
 20
7.341243020015013
 30
0.0
 11
9.208700477566264
 21
7.301872941274856
 31
0.0
  0
LINE
  5
4F6D
330
1E
100
AcDbEntity
  8
3
100
AcDbLine
 10
9.208700477566264
 20
7.301872941274856
 30
0.0
 11
9.226417012999338
 21
7.266439870408714
 31
0.0
  0
LINE
  5
4F6E
330
1E
100
AcDbEntity
  8
3
100
AcDbLine
 10
9.226417012999338
 20
7.266439870408714
 30
0.0
 11
9.253976068117443
 21
7.236912311353597
 31
0.0
  0
LINE
  5
4F6F
330
1E
100
AcDbEntity
  8
3
100
AcDbLine
 10
9.253976068117443
 20
7.236912311353597
 30
0.0
 11
9.291377642920595
 21
7.219195775920526
 31
0.0
  0
LINE
  5
4F70
330
1E
100
AcDbEntity
  8
3
100
AcDbLine
 10
9.291377642920595
 20
7.219195775920526
 30
0.0
 11
9.330747721660753
 21
7.213290264109502
 31
0.0
  0
LINE
  5
4F71
330
1E
100
AcDbEntity
  8
3
100
AcDbLine
 10
9.330747721660753
 20
7.469195775920526
 30
0.0
 11
9.291377642920595
 21
7.463290264109502
 31
0.0
  0
LINE
  5
4F72
330
1E
100
AcDbEntity
  8
3
100
AcDbLine
 10
9.291377642920595
 20
7.463290264109502
 30
0.0
 11
9.253976068117443
 21
7.445573728676428
 31
0.0
  0
LINE
  5
4F73
330
1E
100
AcDbEntity
  8
3
100
AcDbLine
 10
9.592558745282799
 20
7.416046169621314
 30
0.0
 11
9.563031186227679
 21
7.445573728676428
 31
0.0
  0
LINE
  5
4F74
330
1E
100
AcDbEntity
  8
3
100
AcDbLine
 10
9.563031186227679
 20
7.445573728676428
 30
0.0
 11
9.527598115361536
 21
7.463290264109502
 31
0.0
  0
LINE
  5
4F75
330
1E
100
AcDbEntity
  8
3
100
AcDbLine
 10
9.527598115361536
 20
7.463290264109502
 30
0.0
 11
9.488228036621382
 21
7.469195775920526
 31
0.0
  0
LINE
  5
4F76
330
1E
100
AcDbEntity
  8
3
100
AcDbLine
 10
9.488228036621382
 20
7.213290264109502
 30
0.0
 11
9.527598115361536
 21
7.219195775920526
 31
0.0
  0
LINE
  5
4F77
330
1E
100
AcDbEntity
  8
3
100
AcDbLine
 10
9.527598115361536
 20
7.219195775920526
 30
0.0
 11
9.563031186227679
 21
7.236912311353597
 31
0.0
  0
LINE
  5
4F78
330
1E
100
AcDbEntity
  8
3
100
AcDbLine
 10
9.563031186227679
 20
7.236912311353597
 30
0.0
 11
9.592558745282799
 21
7.266439870408714
 31
0.0
  0
LINE
  5
4F79
330
1E
100
AcDbEntity
  8
3
100
AcDbLine
 10
9.592558745282799
 20
7.266439870408714
 30
0.0
 11
9.610275280715873
 21
7.301872941274856
 31
0.0
  0
LINE
  5
4F7A
330
1E
100
AcDbEntity
  8
3
100
AcDbLine
 10
9.610275280715873
 20
7.301872941274856
 30
0.0
 11
9.616180792526892
 21
7.341243020015013
 31
0.0
  0
LINE
  5
4F7B
330
1E
100
AcDbEntity
  8
3
100
AcDbLine
 10
9.616180792526892
 20
7.341243020015013
 30
0.0
 11
9.610275280715873
 21
7.380613098755171
 31
0.0
  0
LINE
  5
4F7C
330
1E
100
AcDbEntity
  8
3
100
AcDbLine
 10
9.610275280715873
 20
7.380613098755171
 30
0.0
 11
9.592558745282799
 21
7.416046169621314
 31
0.0
  0
LINE
  5
4F7D
330
1E
100
AcDbEntity
  8
3
100
AcDbLine
 10
10.4193303988261
 20
7.658172153873282
 30
0.0
 11
10.44885795788122
 21
7.652266642062257
 31
0.0
  0
LINE
  5
4F7E
330
1E
100
AcDbEntity
  8
3
100
AcDbLine
 10
10.44885795788122
 20
7.652266642062257
 30
0.0
 11
10.47444850906231
 21
7.634550106629188
 31
0.0
  0
LINE
  5
4F7F
330
1E
100
AcDbEntity
  8
3
100
AcDbLine
 10
10.47444850906231
 20
7.634550106629188
 30
0.0
 11
10.49019654055838
 21
7.608959555448081
 31
0.0
  0
LINE
  5
4F80
330
1E
100
AcDbEntity
  8
3
100
AcDbLine
 10
10.49019654055838
 20
7.608959555448081
 30
0.0
 11
10.49610205236941
 21
7.579431996392965
 31
0.0
  0
LINE
  5
4F81
330
1E
100
AcDbEntity
  8
3
100
AcDbLine
 10
10.49610205236941
 20
7.579431996392965
 30
0.0
 11
10.48232252481035
 21
7.593211523952021
 31
0.0
  0
LINE
  5
4F82
330
1E
100
AcDbEntity
  8
3
100
AcDbLine
 10
10.48232252481035
 20
7.593211523952021
 30
0.0
 11
10.45673197362923
 21
7.599117035763044
 31
0.0
  0
LINE
  5
4F83
330
1E
100
AcDbEntity
  8
3
100
AcDbLine
 10
10.45673197362923
 20
7.599117035763044
 30
0.0
 11
10.45082646181823
 21
7.618802075133122
 31
0.0
  0
LINE
  5
4F84
330
1E
100
AcDbEntity
  8
3
100
AcDbLine
 10
10.45082646181823
 20
7.618802075133122
 30
0.0
 11
10.43704693425917
 21
7.634550106629188
 31
0.0
  0
LINE
  5
4F85
330
1E
100
AcDbEntity
  8
3
100
AcDbLine
 10
10.43704693425917
 20
7.634550106629188
 30
0.0
 11
10.4193303988261
 21
7.638487114503202
 31
0.0
  0
LINE
  5
4F86
330
1E
100
AcDbEntity
  8
3
100
AcDbLine
 10
10.4193303988261
 20
7.638487114503202
 30
0.0
 11
10.4193303988261
 21
7.652266642062257
 31
0.0
  0
LINE
  5
4F87
330
1E
100
AcDbEntity
  8
3
100
AcDbLine
 10
10.4193303988261
 20
7.652266642062257
 30
0.0
 11
10.4193303988261
 21
7.658172153873282
 31
0.0
  0
LINE
  5
4F88
330
1E
100
AcDbEntity
  8
3
100
AcDbLine
 10
8.39964535945603
 20
7.638487114503202
 30
0.0
 11
8.379960320085949
 21
7.634550106629188
 31
0.0
  0
LINE
  5
4F89
330
1E
100
AcDbEntity
  8
3
100
AcDbLine
 10
8.379960320085949
 20
7.634550106629188
 30
0.0
 11
8.366180792526892
 21
7.618802075133122
 31
0.0
  0
LINE
  5
4F8A
330
1E
100
AcDbEntity
  8
3
100
AcDbLine
 10
8.366180792526892
 20
7.618802075133122
 30
0.0
 11
8.362243784652877
 21
7.599117035763044
 31
0.0
  0
LINE
  5
4F8B
330
1E
100
AcDbEntity
  8
3
100
AcDbLine
 10
8.362243784652877
 20
7.599117035763044
 30
0.0
 11
8.334684729534767
 21
7.593211523952021
 31
0.0
  0
LINE
  5
4F8C
330
1E
100
AcDbEntity
  8
3
100
AcDbLine
 10
8.334684729534767
 20
7.593211523952021
 30
0.0
 11
8.322873705912721
 21
7.579431996392965
 31
0.0
  0
LINE
  5
4F8D
330
1E
100
AcDbEntity
  8
3
100
AcDbLine
 10
8.344527249219806
 20
7.634550106629188
 30
0.0
 11
8.370117800400912
 21
7.652266642062257
 31
0.0
  0
LINE
  5
4F8E
330
1E
100
AcDbEntity
  8
3
100
AcDbLine
 10
8.370117800400912
 20
7.652266642062257
 30
0.0
 11
8.39964535945603
 21
7.658172153873282
 31
0.0
  0
LINE
  5
4F8F
330
1E
100
AcDbEntity
  8
3
100
AcDbLine
 10
8.322873705912721
 20
7.579431996392965
 30
0.0
 11
8.328779217723745
 21
7.608959555448081
 31
0.0
  0
LINE
  5
4F90
330
1E
100
AcDbEntity
  8
3
100
AcDbLine
 10
8.328779217723745
 20
7.608959555448081
 30
0.0
 11
8.344527249219806
 21
7.634550106629188
 31
0.0
  0
LINE
  5
4F91
330
1E
100
AcDbEntity
  8
3
100
AcDbLine
 10
8.39964535945603
 20
7.638487114503202
 30
0.0
 11
8.39964535945603
 21
7.652266642062257
 31
0.0
  0
LINE
  5
4F92
330
1E
100
AcDbEntity
  8
3
100
AcDbLine
 10
8.39964535945603
 20
7.652266642062257
 30
0.0
 11
8.39964535945603
 21
7.658172153873282
 31
0.0
  0
LINE
  5
4F93
330
1E
100
AcDbEntity
  8
3
100
AcDbLine
 10
9.60240126496784
 20
7.295967429463832
 30
0.0
 11
9.612243784652877
 21
7.343211523952021
 31
0.0
  0
LINE
  5
4F94
330
1E
100
AcDbEntity
  8
3
100
AcDbLine
 10
9.612243784652877
 20
7.343211523952021
 30
0.0
 11
9.60240126496784
 21
7.390455618440208
 31
0.0
  0
LINE
  5
4F95
330
1E
100
AcDbEntity
  8
3
100
AcDbLine
 10
9.60240126496784
 20
7.390455618440208
 30
0.0
 11
9.576810713786738
 21
7.431794201117376
 31
0.0
  0
LINE
  5
4F96
330
1E
100
AcDbEntity
  8
3
100
AcDbLine
 10
9.576810713786738
 20
7.431794201117376
 30
0.0
 11
9.535472131109573
 21
7.457384752298477
 31
0.0
  0
LINE
  5
4F97
330
1E
100
AcDbEntity
  8
3
100
AcDbLine
 10
9.535472131109573
 20
7.457384752298477
 30
0.0
 11
9.488228036621382
 21
7.467227271983517
 31
0.0
  0
LINE
  5
4F98
330
1E
100
AcDbEntity
  8
3
100
AcDbLine
 10
9.488228036621382
 20
7.219195775920526
 30
0.0
 11
9.535472131109573
 21
7.229038295605563
 31
0.0
  0
LINE
  5
4F99
330
1E
100
AcDbEntity
  8
3
100
AcDbLine
 10
9.535472131109573
 20
7.229038295605563
 30
0.0
 11
9.576810713786738
 21
7.254628846786668
 31
0.0
  0
LINE
  5
4F9A
330
1E
100
AcDbEntity
  8
3
100
AcDbLine
 10
9.576810713786738
 20
7.254628846786668
 30
0.0
 11
9.60240126496784
 21
7.295967429463832
 31
0.0
  0
LINE
  5
4F9B
330
1E
100
AcDbEntity
  8
3
100
AcDbLine
 10
9.242165044495399
 20
7.431794201117376
 30
0.0
 11
9.216574493314297
 21
7.390455618440208
 31
0.0
  0
LINE
  5
4F9C
330
1E
100
AcDbEntity
  8
3
100
AcDbLine
 10
9.216574493314297
 20
7.390455618440208
 30
0.0
 11
9.206731973629253
 21
7.343211523952021
 31
0.0
  0
LINE
  5
4F9D
330
1E
100
AcDbEntity
  8
3
100
AcDbLine
 10
9.206731973629253
 20
7.343211523952021
 30
0.0
 11
9.216574493314297
 21
7.295967429463832
 31
0.0
  0
LINE
  5
4F9E
330
1E
100
AcDbEntity
  8
3
100
AcDbLine
 10
9.216574493314297
 20
7.295967429463832
 30
0.0
 11
9.242165044495399
 21
7.254628846786668
 31
0.0
  0
LINE
  5
4F9F
330
1E
100
AcDbEntity
  8
3
100
AcDbLine
 10
9.242165044495399
 20
7.254628846786668
 30
0.0
 11
9.283503627172564
 21
7.229038295605563
 31
0.0
  0
LINE
  5
4FA0
330
1E
100
AcDbEntity
  8
3
100
AcDbLine
 10
9.283503627172564
 20
7.229038295605563
 30
0.0
 11
9.330747721660753
 21
7.219195775920526
 31
0.0
  0
LINE
  5
4FA1
330
1E
100
AcDbEntity
  8
3
100
AcDbLine
 10
9.330747721660753
 20
7.467227271983517
 30
0.0
 11
9.283503627172564
 21
7.457384752298477
 31
0.0
  0
LINE
  5
4FA2
330
1E
100
AcDbEntity
  8
3
100
AcDbLine
 10
9.283503627172564
 20
7.457384752298477
 30
0.0
 11
9.242165044495399
 21
7.431794201117376
 31
0.0
  0
LINE
  5
4FA3
330
1E
100
AcDbEntity
  8
3
100
AcDbLine
 10
8.393739847645003
 20
7.666046169621314
 30
0.0
 11
8.39964535945603
 21
7.658172153873282
 31
0.0
  0
LINE
  5
4FA4
330
1E
100
AcDbEntity
  8
3
100
AcDbLine
 10
8.39964535945603
 20
7.658172153873282
 30
0.0
 11
10.4193303988261
 21
7.658172153873282
 31
0.0
  0
LINE
  5
4FA5
330
1E
100
AcDbEntity
  8
3
100
AcDbLine
 10
10.4193303988261
 20
7.658172153873282
 30
0.0
 11
10.42523591063713
 21
7.666046169621314
 31
0.0
  0
LINE
  5
4FA6
330
1E
100
AcDbEntity
  8
3
100
AcDbLine
 10
9.551220162605632
 20
7.30580994914887
 30
0.0
 11
9.561062682290675
 21
7.343211523952021
 31
0.0
  0
LINE
  5
4FA7
330
1E
100
AcDbEntity
  8
3
100
AcDbLine
 10
9.561062682290675
 20
7.343211523952021
 30
0.0
 11
9.551220162605632
 21
7.378644594818164
 31
0.0
  0
LINE
  5
4FA8
330
1E
100
AcDbEntity
  8
3
100
AcDbLine
 10
9.551220162605632
 20
7.378644594818164
 30
0.0
 11
9.525629611424532
 21
7.406203649936271
 31
0.0
  0
LINE
  5
4FA9
330
1E
100
AcDbEntity
  8
3
100
AcDbLine
 10
9.525629611424532
 20
7.406203649936271
 30
0.0
 11
9.488228036621382
 21
7.416046169621314
 31
0.0
  0
LINE
  5
4FAA
330
1E
100
AcDbEntity
  8
3
100
AcDbLine
 10
9.488228036621382
 20
7.27037687828273
 30
0.0
 11
9.523661107487527
 21
7.280219397967767
 31
0.0
  0
LINE
  5
4FAB
330
1E
100
AcDbEntity
  8
3
100
AcDbLine
 10
9.523661107487527
 20
7.280219397967767
 30
0.0
 11
9.551220162605632
 21
7.30580994914887
 31
0.0
  0
LINE
  5
4FAC
330
1E
100
AcDbEntity
  8
3
100
AcDbLine
 10
9.330747721660753
 20
7.416046169621314
 30
0.0
 11
9.295314650794614
 21
7.406203649936271
 31
0.0
  0
LINE
  5
4FAD
330
1E
100
AcDbEntity
  8
3
100
AcDbLine
 10
9.295314650794614
 20
7.406203649936271
 30
0.0
 11
9.267755595676499
 21
7.380613098755171
 31
0.0
  0
LINE
  5
4FAE
330
1E
100
AcDbEntity
  8
3
100
AcDbLine
 10
9.267755595676499
 20
7.380613098755171
 30
0.0
 11
9.257913075991462
 21
7.343211523952021
 31
0.0
  0
LINE
  5
4FAF
330
1E
100
AcDbEntity
  8
3
100
AcDbLine
 10
9.257913075991462
 20
7.343211523952021
 30
0.0
 11
9.267755595676499
 21
7.30777845308588
 31
0.0
  0
LINE
  5
4FB0
330
1E
100
AcDbEntity
  8
3
100
AcDbLine
 10
9.267755595676499
 20
7.30777845308588
 30
0.0
 11
9.293346146857603
 21
7.280219397967767
 31
0.0
  0
LINE
  5
4FB1
330
1E
100
AcDbEntity
  8
3
100
AcDbLine
 10
9.293346146857603
 20
7.280219397967767
 30
0.0
 11
9.330747721660753
 21
7.27037687828273
 31
0.0
  0
LINE
  5
4FB2
330
1E
100
AcDbEntity
  8
3
100
AcDbLine
 10
8.868149296463904
 20
6.435731208991391
 30
0.0
 11
8.868149296463904
 21
6.437699712928399
 31
0.0
  0
LINE
  5
4FB3
330
1E
100
AcDbEntity
  8
3
100
AcDbLine
 10
8.868149296463904
 20
6.437699712928399
 30
0.0
 11
8.679172918511149
 21
6.437699712928399
 31
0.0
  0
LINE
  5
4FB4
330
1E
100
AcDbEntity
  8
3
100
AcDbLine
 10
10.13783433583398
 20
6.435731208991391
 30
0.0
 11
10.13783433583398
 21
6.437699712928399
 31
0.0
  0
LINE
  5
4FB5
330
1E
100
AcDbEntity
  8
3
100
AcDbLine
 10
10.13783433583398
 20
6.437699712928399
 30
0.0
 11
9.948857957881227
 21
6.437699712928399
 31
0.0
  0
LINE
  5
4FB6
330
1E
100
AcDbEntity
  8
3
100
AcDbLine
 10
8.397676855519017
 20
5.481006799542573
 30
0.0
 11
8.368149296463901
 21
5.486912311353596
 31
0.0
  0
LINE
  5
4FB7
330
1E
100
AcDbEntity
  8
3
100
AcDbLine
 10
8.368149296463901
 20
5.486912311353596
 30
0.0
 11
8.342558745282799
 21
5.504628846786665
 31
0.0
  0
LINE
  5
4FB8
330
1E
100
AcDbEntity
  8
3
100
AcDbLine
 10
8.342558745282799
 20
5.504628846786665
 30
0.0
 11
8.326810713786736
 21
5.530219397967768
 31
0.0
  0
LINE
  5
4FB9
330
1E
100
AcDbEntity
  8
3
100
AcDbLine
 10
8.326810713786736
 20
5.530219397967768
 30
0.0
 11
8.320905201975715
 21
5.561715460959893
 31
0.0
  0
LINE
  5
4FBA
330
1E
100
AcDbEntity
  8
3
100
AcDbLine
 10
8.320905201975715
 20
5.561715460959893
 30
0.0
 11
8.332716225597758
 21
5.553841445211863
 31
0.0
  0
LINE
  5
4FBB
330
1E
100
AcDbEntity
  8
3
100
AcDbLine
 10
8.332716225597758
 20
5.553841445211863
 30
0.0
 11
8.360275280715871
 21
5.549904437337849
 31
0.0
  0
LINE
  5
4FBC
330
1E
100
AcDbEntity
  8
3
100
AcDbLine
 10
8.360275280715871
 20
5.549904437337849
 30
0.0
 11
8.364212288589886
 21
5.530219397967768
 31
0.0
  0
LINE
  5
4FBD
330
1E
100
AcDbEntity
  8
3
100
AcDbLine
 10
8.364212288589886
 20
5.530219397967768
 30
0.0
 11
8.377991816148941
 21
5.516439870408714
 31
0.0
  0
LINE
  5
4FBE
330
1E
100
AcDbEntity
  8
3
100
AcDbLine
 10
8.377991816148941
 20
5.516439870408714
 30
0.0
 11
8.397676855519017
 21
5.51053435859769
 31
0.0
  0
LINE
  5
4FBF
330
1E
100
AcDbEntity
  8
3
100
AcDbLine
 10
8.397676855519017
 20
5.481006799542573
 30
0.0
 11
8.397676855519017
 21
5.490849319227612
 31
0.0
  0
LINE
  5
4FC0
330
1E
100
AcDbEntity
  8
3
100
AcDbLine
 10
8.397676855519017
 20
5.490849319227612
 30
0.0
 11
8.397676855519017
 21
5.51053435859769
 31
0.0
  0
LINE
  5
4FC1
330
1E
100
AcDbEntity
  8
3
100
AcDbLine
 10
10.4193303988261
 20
5.51053435859769
 30
0.0
 11
10.43901543819617
 21
5.516439870408714
 31
0.0
  0
LINE
  5
4FC2
330
1E
100
AcDbEntity
  8
3
100
AcDbLine
 10
10.43901543819617
 20
5.516439870408714
 30
0.0
 11
10.45279496575524
 21
5.530219397967768
 31
0.0
  0
LINE
  5
4FC3
330
1E
100
AcDbEntity
  8
3
100
AcDbLine
 10
10.45279496575524
 20
5.530219397967768
 30
0.0
 11
10.45870047756626
 21
5.549904437337849
 31
0.0
  0
LINE
  5
4FC4
330
1E
100
AcDbEntity
  8
3
100
AcDbLine
 10
10.45870047756626
 20
5.549904437337849
 30
0.0
 11
10.48625953268435
 21
5.553841445211863
 31
0.0
  0
LINE
  5
4FC5
330
1E
100
AcDbEntity
  8
3
100
AcDbLine
 10
10.48625953268435
 20
5.553841445211863
 30
0.0
 11
10.49807055630642
 21
5.561715460959893
 31
0.0
  0
LINE
  5
4FC6
330
1E
100
AcDbEntity
  8
3
100
AcDbLine
 10
10.49807055630642
 20
5.561715460959893
 30
0.0
 11
10.4921650444954
 21
5.530219397967768
 31
0.0
  0
LINE
  5
4FC7
330
1E
100
AcDbEntity
  8
3
100
AcDbLine
 10
10.4921650444954
 20
5.530219397967768
 30
0.0
 11
10.47444850906231
 21
5.504628846786665
 31
0.0
  0
LINE
  5
4FC8
330
1E
100
AcDbEntity
  8
3
100
AcDbLine
 10
10.47444850906231
 20
5.504628846786665
 30
0.0
 11
10.45082646181823
 21
5.486912311353596
 31
0.0
  0
LINE
  5
4FC9
330
1E
100
AcDbEntity
  8
3
100
AcDbLine
 10
10.45082646181823
 20
5.486912311353596
 30
0.0
 11
10.4193303988261
 21
5.481006799542573
 31
0.0
  0
LINE
  5
4FCA
330
1E
100
AcDbEntity
  8
3
100
AcDbLine
 10
10.4193303988261
 20
5.51053435859769
 30
0.0
 11
10.4193303988261
 21
5.490849319227612
 31
0.0
  0
LINE
  5
4FCB
330
1E
100
AcDbEntity
  8
3
100
AcDbLine
 10
10.4193303988261
 20
5.490849319227612
 30
0.0
 11
10.4193303988261
 21
5.481006799542573
 31
0.0
  0
LINE
  5
4FCC
330
1E
100
AcDbEntity
  8
3
100
AcDbLine
 10
8.393739847645003
 20
5.477069791668556
 30
0.0
 11
8.354369768904847
 21
5.486912311353596
 31
0.0
  0
LINE
  5
4FCD
330
1E
100
AcDbEntity
  8
3
100
AcDbLine
 10
8.354369768904847
 20
5.486912311353596
 30
0.0
 11
8.32484220984973
 21
5.516439870408714
 31
0.0
  0
LINE
  5
4FCE
330
1E
100
AcDbEntity
  8
3
100
AcDbLine
 10
8.32484220984973
 20
5.516439870408714
 30
0.0
 11
8.31499969016469
 21
5.55580994914887
 31
0.0
  0
LINE
  5
4FCF
330
1E
100
AcDbEntity
  8
3
100
AcDbLine
 10
10.50397606811743
 20
5.55580994914887
 30
0.0
 11
10.4921650444954
 21
5.516439870408714
 31
0.0
  0
LINE
  5
4FD0
330
1E
100
AcDbEntity
  8
3
100
AcDbLine
 10
10.4921650444954
 20
5.516439870408714
 30
0.0
 11
10.46460598937728
 21
5.486912311353596
 31
0.0
  0
LINE
  5
4FD1
330
1E
100
AcDbEntity
  8
3
100
AcDbLine
 10
10.46460598937728
 20
5.486912311353596
 30
0.0
 11
10.42523591063713
 21
5.477069791668556
 31
0.0
  0
LINE
  5
4FD2
330
1E
100
AcDbEntity
  8
3
100
AcDbLine
 10
10.42523591063713
 20
7.666046169621314
 30
0.0
 11
10.46460598937728
 21
7.654235145999265
 31
0.0
  0
LINE
  5
4FD3
330
1E
100
AcDbEntity
  8
3
100
AcDbLine
 10
10.46460598937728
 20
7.654235145999265
 30
0.0
 11
10.4921650444954
 21
7.626676090881152
 31
0.0
  0
LINE
  5
4FD4
330
1E
100
AcDbEntity
  8
3
100
AcDbLine
 10
10.4921650444954
 20
7.626676090881152
 30
0.0
 11
10.50397606811743
 21
7.587306012140997
 31
0.0
  0
LINE
  5
4FD5
330
1E
100
AcDbEntity
  8
3
100
AcDbLine
 10
8.31499969016469
 20
7.587306012140997
 30
0.0
 11
8.32484220984973
 21
7.626676090881152
 31
0.0
  0
LINE
  5
4FD6
330
1E
100
AcDbEntity
  8
3
100
AcDbLine
 10
8.32484220984973
 20
7.626676090881152
 30
0.0
 11
8.354369768904847
 21
7.654235145999265
 31
0.0
  0
LINE
  5
4FD7
330
1E
100
AcDbEntity
  8
3
100
AcDbLine
 10
8.354369768904847
 20
7.654235145999265
 30
0.0
 11
8.393739847645003
 21
7.666046169621314
 31
0.0
  0
LINE
  5
4FD8
330
1E
100
AcDbEntity
  8
3
100
AcDbLine
 10
10.35633827284183
 20
6.140455618440208
 30
0.0
 11
10.29137764292059
 21
6.140455618440208
 31
0.0
  0
LINE
  5
4FD9
330
1E
100
AcDbEntity
  8
3
100
AcDbLine
 10
10.29137764292059
 20
6.140455618440208
 30
0.0
 11
10.28940913898358
 21
6.183762705054383
 31
0.0
  0
LINE
  5
4FDA
330
1E
100
AcDbEntity
  8
3
100
AcDbLine
 10
10.28940913898358
 20
6.183762705054383
 30
0.0
 11
10.14570835158201
 21
6.183762705054383
 31
0.0
  0
LINE
  5
4FDB
330
1E
100
AcDbEntity
  8
3
100
AcDbLine
 10
8.529566619298549
 20
6.183762705054383
 30
0.0
 11
8.527598115361541
 21
6.140455618440208
 31
0.0
  0
LINE
  5
4FDC
330
1E
100
AcDbEntity
  8
3
100
AcDbLine
 10
8.527598115361541
 20
6.140455618440208
 30
0.0
 11
8.460668981503275
 21
6.140455618440208
 31
0.0
  0
LINE
  5
4FDD
330
1E
100
AcDbEntity
  8
3
100
AcDbLine
 10
8.868149296463904
 20
6.374707586944147
 30
0.0
 11
8.679172918511149
 21
6.374707586944147
 31
0.0
  0
LINE
  5
4FDE
330
1E
100
AcDbEntity
  8
3
100
AcDbLine
 10
8.679172918511149
 20
6.374707586944147
 30
0.0
 11
8.673267406700121
 21
6.183762705054383
 31
0.0
  0
LINE
  5
4FDF
330
1E
100
AcDbEntity
  8
3
100
AcDbLine
 10
9.31499969016469
 20
6.374707586944147
 30
0.0
 11
9.30712567441666
 21
6.183762705054383
 31
0.0
  0
LINE
  5
4FE0
330
1E
100
AcDbEntity
  8
3
100
AcDbLine
 10
9.30712567441666
 20
6.183762705054383
 30
0.0
 11
9.163424887015086
 21
6.183762705054383
 31
0.0
  0
LINE
  5
4FE1
330
1E
100
AcDbEntity
  8
3
100
AcDbLine
 10
9.163424887015086
 20
6.183762705054383
 30
0.0
 11
9.161456383078075
 21
6.140455618440208
 31
0.0
  0
LINE
  5
4FE2
330
1E
100
AcDbEntity
  8
3
100
AcDbLine
 10
9.161456383078075
 20
6.140455618440208
 30
0.0
 11
9.021692603550516
 21
6.140455618440208
 31
0.0
  0
LINE
  5
4FE3
330
1E
100
AcDbEntity
  8
3
100
AcDbLine
 10
9.021692603550516
 20
6.140455618440208
 30
0.0
 11
9.019724099613508
 21
6.183762705054383
 31
0.0
  0
LINE
  5
4FE4
330
1E
100
AcDbEntity
  8
3
100
AcDbLine
 10
10.13783433583398
 20
6.374707586944147
 30
0.0
 11
9.948857957881227
 21
6.374707586944147
 31
0.0
  0
LINE
  5
4FE5
330
1E
100
AcDbEntity
  8
3
100
AcDbLine
 10
9.948857957881227
 20
6.374707586944147
 30
0.0
 11
9.942952446070199
 21
6.183762705054383
 31
0.0
  0
LINE
  5
4FE6
330
1E
100
AcDbEntity
  8
3
100
AcDbLine
 10
9.942952446070199
 20
6.183762705054383
 30
0.0
 11
9.799251658668627
 21
6.183762705054383
 31
0.0
  0
LINE
  5
4FE7
330
1E
100
AcDbEntity
  8
3
100
AcDbLine
 10
9.799251658668627
 20
6.183762705054383
 30
0.0
 11
9.797283154731619
 21
6.140455618440208
 31
0.0
  0
LINE
  5
4FE8
330
1E
100
AcDbEntity
  8
3
100
AcDbLine
 10
9.797283154731619
 20
6.140455618440208
 30
0.0
 11
9.655550871267053
 21
6.140455618440208
 31
0.0
  0
LINE
  5
4FE9
330
1E
100
AcDbEntity
  8
3
100
AcDbLine
 10
9.655550871267053
 20
6.140455618440208
 30
0.0
 11
9.653582367330043
 21
6.183762705054383
 31
0.0
  0
LINE
  5
4FEA
330
1E
100
AcDbEntity
  8
3
100
AcDbLine
 10
9.496102052369415
 20
6.790061917652807
 30
0.0
 11
9.496102052369415
 21
6.841243020015013
 31
0.0
  0
LINE
  5
4FEB
330
1E
100
AcDbEntity
  8
3
100
AcDbLine
 10
9.496102052369415
 20
6.841243020015013
 30
0.0
 11
9.320905201975715
 21
6.841243020015013
 31
0.0
  0
LINE
  5
4FEC
330
1E
100
AcDbEntity
  8
3
100
AcDbLine
 10
9.320905201975715
 20
6.841243020015013
 30
0.0
 11
9.320905201975715
 21
6.790061917652807
 31
0.0
  0
LINE
  5
4FED
330
1E
100
AcDbEntity
  8
3
100
AcDbLine
 10
10.13192882402293
 20
6.790061917652807
 30
0.0
 11
10.13192882402293
 21
6.841243020015013
 31
0.0
  0
LINE
  5
4FEE
330
1E
100
AcDbEntity
  8
3
100
AcDbLine
 10
10.13192882402293
 20
6.841243020015013
 30
0.0
 11
9.956731973629253
 21
6.841243020015013
 31
0.0
  0
LINE
  5
4FEF
330
1E
100
AcDbEntity
  8
3
100
AcDbLine
 10
9.956731973629253
 20
6.841243020015013
 30
0.0
 11
9.956731973629253
 21
6.790061917652807
 31
0.0
  0
LINE
  5
4FF0
330
1E
100
AcDbEntity
  8
3
100
AcDbLine
 10
10.68114142244815
 20
5.376676090881155
 30
0.0
 11
10.63192882402294
 21
5.376676090881155
 31
0.0
  0
LINE
  5
4FF1
330
1E
100
AcDbEntity
  8
3
100
AcDbLine
 10
10.63192882402294
 20
5.376676090881155
 30
0.0
 11
10.57484220984973
 21
5.376676090881155
 31
0.0
  0
LINE
  5
4FF2
330
1E
100
AcDbEntity
  8
3
100
AcDbLine
 10
10.68114142244815
 20
7.707384752298477
 30
0.0
 11
10.63192882402294
 21
7.707384752298477
 31
0.0
  0
LINE
  5
4FF3
330
1E
100
AcDbEntity
  8
3
100
AcDbLine
 10
10.63192882402294
 20
7.707384752298477
 30
0.0
 11
10.57484220984973
 21
7.707384752298477
 31
0.0
  0
LINE
  5
4FF4
330
1E
100
AcDbEntity
  8
3
100
AcDbLine
 10
8.244133548432406
 20
5.376676090881155
 30
0.0
 11
8.244133548432406
 21
5.319589476707927
 31
0.0
  0
LINE
  5
4FF5
330
1E
100
AcDbEntity
  8
3
100
AcDbLine
 10
8.244133548432406
 20
5.319589476707927
 30
0.0
 11
8.244133548432406
 21
5.27037687828273
 31
0.0
  0
LINE
  5
4FF6
330
1E
100
AcDbEntity
  8
3
100
AcDbLine
 10
10.57484220984973
 20
7.813683964896902
 30
0.0
 11
10.57484220984973
 21
7.764471366471706
 31
0.0
  0
LINE
  5
4FF7
330
1E
100
AcDbEntity
  8
3
100
AcDbLine
 10
10.57484220984973
 20
7.764471366471706
 30
0.0
 11
10.57484220984973
 21
7.707384752298477
 31
0.0
  0
LINE
  5
4FF8
330
1E
100
AcDbEntity
  8
3
100
AcDbLine
 10
8.244133548432406
 20
5.376676090881155
 30
0.0
 11
8.185078430322171
 21
5.376676090881155
 31
0.0
  0
LINE
  5
4FF9
330
1E
100
AcDbEntity
  8
3
100
AcDbLine
 10
8.185078430322171
 20
5.376676090881155
 30
0.0
 11
8.137834335833982
 21
5.376676090881155
 31
0.0
  0
LINE
  5
4FFA
330
1E
100
AcDbEntity
  8
3
100
AcDbLine
 10
8.244133548432406
 20
7.813683964896902
 30
0.0
 11
8.244133548432406
 21
7.764471366471706
 31
0.0
  0
LINE
  5
4FFB
330
1E
100
AcDbEntity
  8
3
100
AcDbLine
 10
8.244133548432406
 20
7.764471366471706
 30
0.0
 11
8.244133548432406
 21
7.707384752298477
 31
0.0
  0
LINE
  5
4FFC
330
1E
100
AcDbEntity
  8
3
100
AcDbLine
 10
8.244133548432406
 20
7.707384752298477
 30
0.0
 11
8.185078430322171
 21
7.707384752298477
 31
0.0
  0
LINE
  5
4FFD
330
1E
100
AcDbEntity
  8
3
100
AcDbLine
 10
8.185078430322171
 20
7.707384752298477
 30
0.0
 11
8.137834335833982
 21
7.707384752298477
 31
0.0
  0
LINE
  5
4FFE
330
1E
100
AcDbEntity
  8
3
100
AcDbLine
 10
8.244133548432406
 20
5.27037687828273
 30
0.0
 11
8.200826461818234
 21
5.297935933400839
 31
0.0
  0
LINE
  5
4FFF
330
1E
100
AcDbEntity
  8
3
100
AcDbLine
 10
8.200826461818234
 20
5.297935933400839
 30
0.0
 11
8.165393390952091
 21
5.333369004266981
 31
0.0
  0
LINE
  5
5000
330
1E
100
AcDbEntity
  8
3
100
AcDbLine
 10
8.165393390952091
 20
5.333369004266981
 30
0.0
 11
8.137834335833982
 21
5.376676090881155
 31
0.0
  0
LINE
  5
5001
330
1E
100
AcDbEntity
  8
3
100
AcDbLine
 10
8.137834335833982
 20
7.707384752298477
 30
0.0
 11
8.165393390952091
 21
7.748723334975642
 31
0.0
  0
LINE
  5
5002
330
1E
100
AcDbEntity
  8
3
100
AcDbLine
 10
8.165393390952091
 20
7.748723334975642
 30
0.0
 11
8.200826461818234
 21
7.786124909778792
 31
0.0
  0
LINE
  5
5003
330
1E
100
AcDbEntity
  8
3
100
AcDbLine
 10
8.200826461818234
 20
7.786124909778792
 30
0.0
 11
8.244133548432406
 21
7.813683964896902
 31
0.0
  0
LINE
  5
5004
330
1E
100
AcDbEntity
  8
3
100
AcDbLine
 10
10.57484220984973
 20
7.813683964896902
 30
0.0
 11
10.61618079252689
 21
7.786124909778792
 31
0.0
  0
LINE
  5
5005
330
1E
100
AcDbEntity
  8
3
100
AcDbLine
 10
10.61618079252689
 20
7.786124909778792
 30
0.0
 11
10.65358236733003
 21
7.748723334975642
 31
0.0
  0
LINE
  5
5006
330
1E
100
AcDbEntity
  8
3
100
AcDbLine
 10
10.65358236733003
 20
7.748723334975642
 30
0.0
 11
10.68114142244815
 21
7.707384752298477
 31
0.0
  0
LINE
  5
5007
330
1E
100
AcDbEntity
  8
3
100
AcDbLine
 10
10.68114142244815
 20
5.376676090881155
 30
0.0
 11
10.65358236733003
 21
5.333369004266981
 31
0.0
  0
LINE
  5
5008
330
1E
100
AcDbEntity
  8
3
100
AcDbLine
 10
10.65358236733003
 20
5.333369004266981
 30
0.0
 11
10.61618079252689
 21
5.297935933400839
 31
0.0
  0
LINE
  5
5009
330
1E
100
AcDbEntity
  8
3
100
AcDbLine
 10
10.61618079252689
 20
5.297935933400839
 30
0.0
 11
10.57484220984973
 21
5.27037687828273
 31
0.0
  0
LINE
  5
500A
330
1E
100
AcDbEntity
  8
3
100
AcDbLine
 10
10.87799181614893
 20
4.967227271983516
 30
0.0
 11
10.57484220984973
 21
5.27037687828273
 31
0.0
  0
LINE
  5
500B
330
1E
100
AcDbEntity
  8
3
100
AcDbLine
 10
10.57484220984973
 20
5.27037687828273
 30
0.0
 11
8.244133548432406
 21
5.27037687828273
 31
0.0
  0
LINE
  5
500C
330
1E
100
AcDbEntity
  8
3
100
AcDbLine
 10
8.244133548432406
 20
5.27037687828273
 30
0.0
 11
7.940983942133192
 21
4.967227271983516
 31
0.0
  0
LINE
  5
500D
330
1E
100
AcDbEntity
  8
3
100
AcDbLine
 10
7.834684729534767
 20
5.07352648458194
 30
0.0
 11
8.137834335833982
 21
5.376676090881155
 31
0.0
  0
LINE
  5
500E
330
1E
100
AcDbEntity
  8
3
100
AcDbLine
 10
8.137834335833982
 20
5.376676090881155
 30
0.0
 11
8.137834335833982
 21
7.707384752298477
 31
0.0
  0
LINE
  5
500F
330
1E
100
AcDbEntity
  8
3
100
AcDbLine
 10
8.137834335833982
 20
7.707384752298477
 30
0.0
 11
7.834684729534767
 21
8.010534358597691
 31
0.0
  0
LINE
  5
5010
330
1E
100
AcDbEntity
  8
3
100
AcDbLine
 10
10.98429102874734
 20
8.010534358597691
 30
0.0
 11
10.68114142244815
 21
7.707384752298477
 31
0.0
  0
LINE
  5
5011
330
1E
100
AcDbEntity
  8
3
100
AcDbLine
 10
10.68114142244815
 20
7.707384752298477
 30
0.0
 11
10.68114142244815
 21
5.376676090881155
 31
0.0
  0
LINE
  5
5012
330
1E
100
AcDbEntity
  8
3
100
AcDbLine
 10
7.940983942133192
 20
8.116833571196114
 30
0.0
 11
8.244133548432406
 21
7.813683964896902
 31
0.0
  0
LINE
  5
5013
330
1E
100
AcDbEntity
  8
3
100
AcDbLine
 10
8.244133548432406
 20
7.813683964896902
 30
0.0
 11
10.57484220984973
 21
7.813683964896902
 31
0.0
  0
LINE
  5
5014
330
1E
100
AcDbEntity
  8
3
100
AcDbLine
 10
10.57484220984973
 20
7.813683964896902
 30
0.0
 11
10.87799181614893
 21
8.116833571196114
 31
0.0
  0
LINE
  5
5015
330
1E
100
AcDbEntity
  8
3
100
AcDbLine
 10
8.244133548432406
 20
5.376676090881155
 30
0.0
 11
10.57484220984973
 21
5.376676090881155
 31
0.0
  0
LINE
  5
5016
330
1E
100
AcDbEntity
  8
3
100
AcDbLine
 10
10.57484220984973
 20
5.376676090881155
 30
0.0
 11
10.57484220984973
 21
7.707384752298477
 31
0.0
  0
LINE
  5
5017
330
1E
100
AcDbEntity
  8
3
100
AcDbLine
 10
10.57484220984973
 20
7.707384752298477
 30
0.0
 11
8.244133548432406
 21
7.707384752298477
 31
0.0
  0
LINE
  5
5018
330
1E
100
AcDbEntity
  8
3
100
AcDbLine
 10
8.244133548432406
 20
7.707384752298477
 30
0.0
 11
8.244133548432406
 21
5.376676090881155
 31
0.0
  0
LINE
  5
5019
330
1E
100
AcDbEntity
  8
3
100
AcDbLine
 10
10.92129890276311
 20
8.108959555448086
 30
0.0
 11
10.95476346969225
 21
8.087306012140997
 31
0.0
  0
LINE
  5
501A
330
1E
100
AcDbEntity
  8
3
100
AcDbLine
 10
10.95476346969225
 20
8.087306012140997
 30
0.0
 11
10.97641701299932
 21
8.053841445211864
 31
0.0
  0
LINE
  5
501B
330
1E
100
AcDbEntity
  8
3
100
AcDbLine
 10
10.97641701299932
 20
8.053841445211864
 30
0.0
 11
10.98429102874734
 21
8.010534358597691
 31
0.0
  0
LINE
  5
501C
330
1E
100
AcDbEntity
  8
3
100
AcDbLine
 10
7.834684729534767
 20
8.010534358597691
 30
0.0
 11
7.8425587452828
 21
8.053841445211864
 31
0.0
  0
LINE
  5
501D
330
1E
100
AcDbEntity
  8
3
100
AcDbLine
 10
7.8425587452828
 20
8.053841445211864
 30
0.0
 11
7.862243784652878
 21
8.087306012140997
 31
0.0
  0
LINE
  5
501E
330
1E
100
AcDbEntity
  8
3
100
AcDbLine
 10
7.862243784652878
 20
8.087306012140997
 30
0.0
 11
7.895708351582012
 21
8.108959555448086
 31
0.0
  0
LINE
  5
501F
330
1E
100
AcDbEntity
  8
3
100
AcDbLine
 10
7.895708351582012
 20
8.108959555448086
 30
0.0
 11
7.940983942133192
 21
8.116833571196114
 31
0.0
  0
LINE
  5
5020
330
1E
100
AcDbEntity
  8
3
100
AcDbLine
 10
7.940983942133192
 20
4.967227271983516
 30
0.0
 11
7.895708351582012
 21
4.975101287731548
 31
0.0
  0
LINE
  5
5021
330
1E
100
AcDbEntity
  8
3
100
AcDbLine
 10
7.895708351582012
 20
4.975101287731548
 30
0.0
 11
7.862243784652878
 21
4.996754831038636
 31
0.0
  0
LINE
  5
5022
330
1E
100
AcDbEntity
  8
3
100
AcDbLine
 10
7.862243784652878
 20
4.996754831038636
 30
0.0
 11
7.8425587452828
 21
5.030219397967768
 31
0.0
  0
LINE
  5
5023
330
1E
100
AcDbEntity
  8
3
100
AcDbLine
 10
10.98429102874734
 20
5.07352648458194
 30
0.0
 11
10.97641701299932
 21
5.030219397967768
 31
0.0
  0
LINE
  5
5024
330
1E
100
AcDbEntity
  8
3
100
AcDbLine
 10
10.97641701299932
 20
5.030219397967768
 30
0.0
 11
10.95476346969225
 21
4.996754831038636
 31
0.0
  0
LINE
  5
5025
330
1E
100
AcDbEntity
  8
3
100
AcDbLine
 10
10.95476346969225
 20
4.996754831038636
 30
0.0
 11
10.92129890276311
 21
4.975101287731548
 31
0.0
  0
LINE
  5
5026
330
1E
100
AcDbEntity
  8
3
100
AcDbLine
 10
10.92129890276311
 20
4.975101287731548
 30
0.0
 11
10.87799181614893
 21
4.967227271983516
 31
0.0
  0
LINE
  5
64E3
330
1E
100
AcDbEntity
  8
3
100
AcDbLine
 10
13.10436976890485
 20
6.951479240487451
 30
0.0
 11
13.10436976890485
 21
6.945573728676428
 31
0.0
  0
LINE
  5
64E4
330
1E
100
AcDbEntity
  8
3
100
AcDbLine
 10
13.10436976890485
 20
6.945573728676428
 30
0.0
 11
13.10633827284185
 21
6.941636720802415
 31
0.0
  0
LINE
  5
64E5
330
1E
100
AcDbEntity
  8
3
100
AcDbLine
 10
13.47838551693634
 20
5.549904437337849
 30
0.0
 11
13.10633827284185
 21
6.941636720802415
 31
0.0
  0
LINE
  5
64E6
330
1E
100
AcDbEntity
  8
3
100
AcDbLine
 10
13.10633827284185
 20
6.941636720802415
 30
0.0
 11
13.11618079252689
 21
6.943605224739422
 31
0.0
  0
LINE
  5
64E7
330
1E
100
AcDbEntity
  8
3
100
AcDbLine
 10
13.11618079252689
 20
6.943605224739422
 30
0.0
 11
13.14177134370799
 21
6.951479240487451
 31
0.0
  0
LINE
  5
64E8
330
1E
100
AcDbEntity
  8
3
100
AcDbLine
 10
13.14177134370799
 20
6.951479240487451
 30
0.0
 11
13.11618079252689
 21
6.951479240487451
 31
0.0
  0
LINE
  5
64E9
330
1E
100
AcDbEntity
  8
3
100
AcDbLine
 10
13.11618079252689
 20
6.951479240487451
 30
0.0
 11
13.10436976890485
 21
6.951479240487451
 31
0.0
  0
LINE
  5
64EA
330
1E
100
AcDbEntity
  8
3
100
AcDbLine
 10
13.11027528071585
 20
7.01053435859769
 30
0.0
 11
13.10633827284185
 21
7.000691838912651
 31
0.0
  0
LINE
  5
64EB
330
1E
100
AcDbEntity
  8
3
100
AcDbLine
 10
13.10633827284185
 20
7.000691838912651
 30
0.0
 11
13.10436976890485
 21
6.990849319227612
 31
0.0
  0
LINE
  5
64EC
330
1E
100
AcDbEntity
  8
3
100
AcDbLine
 10
13.14177134370799
 20
6.990849319227612
 30
0.0
 11
13.11618079252689
 21
6.990849319227612
 31
0.0
  0
LINE
  5
64ED
330
1E
100
AcDbEntity
  8
3
100
AcDbLine
 10
13.11618079252689
 20
6.990849319227612
 30
0.0
 11
13.10436976890485
 21
6.990849319227612
 31
0.0
  0
LINE
  5
64EE
330
1E
100
AcDbEntity
  8
3
100
AcDbLine
 10
13.14177134370799
 20
6.990849319227612
 30
0.0
 11
13.12011780040091
 21
7.004628846786668
 31
0.0
  0
LINE
  5
64EF
330
1E
100
AcDbEntity
  8
3
100
AcDbLine
 10
13.12011780040091
 20
7.004628846786668
 30
0.0
 11
13.11027528071585
 21
7.01053435859769
 31
0.0
  0
LINE
  5
64F0
330
1E
100
AcDbEntity
  8
3
100
AcDbLine
 10
13.59649575315681
 20
7.587306012140997
 30
0.0
 11
13.48035402087335
 21
7.579431996392965
 31
0.0
  0
LINE
  5
64F1
330
1E
100
AcDbEntity
  8
3
100
AcDbLine
 10
13.48035402087335
 20
7.579431996392965
 30
0.0
 11
13.14177134370799
 21
6.990849319227612
 31
0.0
  0
LINE
  5
64F2
330
1E
100
AcDbEntity
  8
3
100
AcDbLine
 10
13.49610205236941
 20
7.634550106629188
 30
0.0
 11
13.49019654055839
 21
7.608959555448081
 31
0.0
  0
LINE
  5
64F3
330
1E
100
AcDbEntity
  8
3
100
AcDbLine
 10
13.49019654055839
 20
7.608959555448081
 30
0.0
 11
13.48035402087335
 21
7.579431996392965
 31
0.0
  0
LINE
  5
64F4
330
1E
100
AcDbEntity
  8
3
100
AcDbLine
 10
13.50397606811744
 20
7.658172153873282
 30
0.0
 11
13.50200756418042
 21
7.652266642062257
 31
0.0
  0
LINE
  5
64F5
330
1E
100
AcDbEntity
  8
3
100
AcDbLine
 10
13.50200756418042
 20
7.652266642062257
 30
0.0
 11
13.49610205236941
 21
7.634550106629188
 31
0.0
  0
LINE
  5
64F6
330
1E
100
AcDbEntity
  8
3
100
AcDbLine
 10
13.48035402087335
 20
7.579431996392965
 30
0.0
 11
13.45870047756624
 21
7.593211523952021
 31
0.0
  0
LINE
  5
64F7
330
1E
100
AcDbEntity
  8
3
100
AcDbLine
 10
13.45870047756624
 20
7.593211523952021
 30
0.0
 11
13.44885795788122
 21
7.599117035763044
 31
0.0
  0
LINE
  5
64F8
330
1E
100
AcDbEntity
  8
3
100
AcDbLine
 10
13.44885795788122
 20
7.599117035763044
 30
0.0
 11
13.46263748544028
 21
7.618802075133122
 31
0.0
  0
LINE
  5
64F9
330
1E
100
AcDbEntity
  8
3
100
AcDbLine
 10
13.46263748544028
 20
7.618802075133122
 30
0.0
 11
13.47051150118831
 21
7.634550106629188
 31
0.0
  0
LINE
  5
64FA
330
1E
100
AcDbEntity
  8
3
100
AcDbLine
 10
13.47051150118831
 20
7.634550106629188
 30
0.0
 11
13.47248000512532
 21
7.638487114503202
 31
0.0
  0
LINE
  5
64FB
330
1E
100
AcDbEntity
  8
3
100
AcDbLine
 10
13.50594457205444
 20
7.658172153873282
 30
0.0
 11
13.48625953268437
 21
7.652266642062257
 31
0.0
  0
LINE
  5
64FC
330
1E
100
AcDbEntity
  8
3
100
AcDbLine
 10
13.48625953268437
 20
7.652266642062257
 30
0.0
 11
13.47444850906232
 21
7.638487114503202
 31
0.0
  0
LINE
  5
64FD
330
1E
100
AcDbEntity
  8
3
100
AcDbLine
 10
13.49019654055839
 20
5.51053435859769
 30
0.0
 11
13.48822803662137
 21
5.516439870408714
 31
0.0
  0
LINE
  5
64FE
330
1E
100
AcDbEntity
  8
3
100
AcDbLine
 10
13.48822803662137
 20
5.516439870408714
 30
0.0
 11
13.48429102874734
 21
5.530219397967768
 31
0.0
  0
LINE
  5
64FF
330
1E
100
AcDbEntity
  8
3
100
AcDbLine
 10
13.48429102874734
 20
5.530219397967768
 30
0.0
 11
13.47838551693634
 21
5.549904437337849
 31
0.0
  0
LINE
  5
6500
330
1E
100
AcDbEntity
  8
3
100
AcDbLine
 10
13.47838551693634
 20
5.549904437337849
 30
0.0
 11
13.49019654055839
 21
5.553841445211863
 31
0.0
  0
LINE
  5
6501
330
1E
100
AcDbEntity
  8
3
100
AcDbLine
 10
13.49019654055839
 20
5.553841445211863
 30
0.0
 11
13.51381858780248
 21
5.561715460959893
 31
0.0
  0
LINE
  5
6502
330
1E
100
AcDbEntity
  8
3
100
AcDbLine
 10
13.52169260355051
 20
5.504628846786665
 30
0.0
 11
13.52366110748751
 21
5.486912311353596
 31
0.0
  0
LINE
  5
6503
330
1E
100
AcDbEntity
  8
3
100
AcDbLine
 10
13.52366110748751
 20
5.486912311353596
 30
0.0
 11
13.52562961142453
 21
5.481006799542573
 31
0.0
  0
LINE
  5
6504
330
1E
100
AcDbEntity
  8
3
100
AcDbLine
 10
13.51381858780248
 20
5.561715460959893
 30
0.0
 11
13.5177555956765
 21
5.530219397967768
 31
0.0
  0
LINE
  5
6505
330
1E
100
AcDbEntity
  8
3
100
AcDbLine
 10
13.5177555956765
 20
5.530219397967768
 30
0.0
 11
13.52169260355051
 21
5.504628846786665
 31
0.0
  0
LINE
  5
6506
330
1E
100
AcDbEntity
  8
3
100
AcDbLine
 10
13.49019654055839
 20
5.51053435859769
 30
0.0
 11
13.50200756418042
 21
5.490849319227612
 31
0.0
  0
LINE
  5
6507
330
1E
100
AcDbEntity
  8
3
100
AcDbLine
 10
13.50200756418042
 20
5.490849319227612
 30
0.0
 11
13.52562961142453
 21
5.481006799542573
 31
0.0
  0
LINE
  5
6508
330
1E
100
AcDbEntity
  8
3
100
AcDbLine
 10
13.59846425709382
 20
5.376676090881155
 30
0.0
 11
13.61027528071586
 21
5.319589476707927
 31
0.0
  0
LINE
  5
6509
330
1E
100
AcDbEntity
  8
3
100
AcDbLine
 10
13.61027528071586
 20
5.319589476707927
 30
0.0
 11
13.64177134370799
 21
5.27037687828273
 31
0.0
  0
LINE
  5
650A
330
1E
100
AcDbEntity
  8
3
100
AcDbLine
 10
13.64177134370799
 20
7.707384752298477
 30
0.0
 11
13.60830677677886
 21
7.707384752298477
 31
0.0
  0
LINE
  5
650B
330
1E
100
AcDbEntity
  8
3
100
AcDbLine
 10
13.60830677677886
 20
7.707384752298477
 30
0.0
 11
13.59649575315681
 21
7.707384752298477
 31
0.0
  0
LINE
  5
650C
330
1E
100
AcDbEntity
  8
3
100
AcDbLine
 10
13.64177134370799
 20
7.813683964896902
 30
0.0
 11
13.61027528071586
 21
7.764471366471706
 31
0.0
  0
LINE
  5
650D
330
1E
100
AcDbEntity
  8
3
100
AcDbLine
 10
13.61027528071586
 20
7.764471366471706
 30
0.0
 11
13.59846425709382
 21
7.707384752298477
 31
0.0
  0
LINE
  5
650E
330
1E
100
AcDbEntity
  8
3
100
AcDbLine
 10
13.64177134370799
 20
7.813683964896902
 30
0.0
 11
13.62602331221193
 21
7.786124909778792
 31
0.0
  0
LINE
  5
650F
330
1E
100
AcDbEntity
  8
3
100
AcDbLine
 10
13.62602331221193
 20
7.786124909778792
 30
0.0
 11
13.62602331221193
 21
7.748723334975642
 31
0.0
  0
LINE
  5
6510
330
1E
100
AcDbEntity
  8
3
100
AcDbLine
 10
13.62602331221193
 20
7.748723334975642
 30
0.0
 11
13.64177134370799
 21
7.707384752298477
 31
0.0
  0
LINE
  5
6511
330
1E
100
AcDbEntity
  8
3
100
AcDbLine
 10
13.64177134370799
 20
5.376676090881155
 30
0.0
 11
13.62602331221193
 21
5.333369004266981
 31
0.0
  0
LINE
  5
6512
330
1E
100
AcDbEntity
  8
3
100
AcDbLine
 10
13.62602331221193
 20
5.333369004266981
 30
0.0
 11
13.62602331221193
 21
5.297935933400839
 31
0.0
  0
LINE
  5
6513
330
1E
100
AcDbEntity
  8
3
100
AcDbLine
 10
13.62602331221193
 20
5.297935933400839
 30
0.0
 11
13.64177134370799
 21
5.27037687828273
 31
0.0
  0
LINE
  5
6514
330
1E
100
AcDbEntity
  8
3
100
AcDbLine
 10
13.9429524460702
 20
8.010534358597691
 30
0.0
 11
13.64177134370799
 21
7.707384752298477
 31
0.0
  0
LINE
  5
6515
330
1E
100
AcDbEntity
  8
3
100
AcDbLine
 10
13.64177134370799
 20
7.707384752298477
 30
0.0
 11
13.64177134370799
 21
5.376676090881155
 31
0.0
  0
LINE
  5
6516
330
1E
100
AcDbEntity
  8
3
100
AcDbLine
 10
13.64177134370799
 20
5.376676090881155
 30
0.0
 11
13.9429524460702
 21
5.07352648458194
 31
0.0
  0
LINE
  5
6517
330
1E
100
AcDbEntity
  8
3
100
AcDbLine
 10
13.9429524460702
 20
8.087306012140997
 30
0.0
 11
13.9429524460702
 21
8.053841445211864
 31
0.0
  0
LINE
  5
6518
330
1E
100
AcDbEntity
  8
3
100
AcDbLine
 10
13.9429524460702
 20
8.053841445211864
 30
0.0
 11
13.9429524460702
 21
8.010534358597691
 31
0.0
  0
LINE
  5
6519
330
1E
100
AcDbEntity
  8
3
100
AcDbLine
 10
13.9429524460702
 20
8.116833571196114
 30
0.0
 11
13.9429524460702
 21
8.108959555448086
 31
0.0
  0
LINE
  5
651A
330
1E
100
AcDbEntity
  8
3
100
AcDbLine
 10
13.9429524460702
 20
8.108959555448086
 30
0.0
 11
13.9429524460702
 21
8.087306012140997
 31
0.0
  0
LINE
  5
651B
330
1E
100
AcDbEntity
  8
3
100
AcDbLine
 10
13.9429524460702
 20
5.07352648458194
 30
0.0
 11
13.9429524460702
 21
5.030219397967768
 31
0.0
  0
LINE
  5
651C
330
1E
100
AcDbEntity
  8
3
100
AcDbLine
 10
13.9429524460702
 20
5.030219397967768
 30
0.0
 11
13.9429524460702
 21
4.996754831038636
 31
0.0
  0
LINE
  5
651D
330
1E
100
AcDbEntity
  8
3
100
AcDbLine
 10
13.9429524460702
 20
4.996754831038636
 30
0.0
 11
13.9429524460702
 21
4.975101287731548
 31
0.0
  0
LINE
  5
651E
330
1E
100
AcDbEntity
  8
3
100
AcDbLine
 10
13.9429524460702
 20
4.975101287731548
 30
0.0
 11
13.9429524460702
 21
4.967227271983516
 31
0.0
  0
ENDSEC
  0
SECTION
  2
OBJECTS
  0
DICTIONARY
  5
C
330
0
100
AcDbDictionary
  3
ACAD_GROUP
350
D
  3
ACAD_LAYOUT
350
19
  3
ACAD_MLINESTYLE
350
16
  3
ACAD_PLOTSETTINGS
350
18
1001
ACAD
1000
TREAT_AS_HARD
1070
     0
1000
TREAT_AS_HARD
1070
     0
1000
TREAT_AS_HARD
1070
     0
  0
DICTIONARY
  5
6571
330
1E
100
AcDbDictionary
  3
ACAD_LAYOUTSELFREF
350
65DE
1001
ACAD
1000
TREAT_AS_HARD
1070
     0
1000
TREAT_AS_HARD
1070
     1
  0
DICTIONARY
  5
656F
330
1A
100
AcDbDictionary
  3
ACAD_LAYOUTSELFREF
350
65DD
1001
ACAD
1000
TREAT_AS_HARD
1070
     0
1000
TREAT_AS_HARD
1070
     1
  0
DICTIONARY
  5
D
102
{ACAD_REACTORS
330
C
102
}
330
C
100
AcDbDictionary
1001
ACAD
1000
TREAT_AS_HARD
1070
     0
1000
TREAT_AS_HARD
1070
     0
1000
TREAT_AS_HARD
1070
     0
  0
DICTIONARY
  5
19
102
{ACAD_REACTORS
330
C
102
}
330
C
100
AcDbDictionary
1001
ACAD
1000
TREAT_AS_HARD
1070
     0
1000
TREAT_AS_HARD
1070
     0
1000
TREAT_AS_HARD
1070
     0
  0
DICTIONARY
  5
16
102
{ACAD_REACTORS
330
C
102
}
330
C
100
AcDbDictionary
  3
STANDARD
350
17
1001
ACAD
1000
TREAT_AS_HARD
1070
     0
1000
TREAT_AS_HARD
1070
     0
1000
TREAT_AS_HARD
1070
     0
  0
DICTIONARY
  5
18
102
{ACAD_REACTORS
330
C
102
}
330
C
100
AcDbDictionary
1001
ACAD
1000
TREAT_AS_HARD
1070
     0
1000
TREAT_AS_HARD
1070
     0
1000
TREAT_AS_HARD
1070
     0
  0
XRECORD
  5
65DE
102
{ACAD_REACTORS
330
6571
102
}
330
6571
100
AcDbXrecord
340
1E
  0
XRECORD
  5
65DD
102
{ACAD_REACTORS
330
656F
102
}
330
656F
100
AcDbXrecord
340
1A
  0
MLINESTYLE
  5
17
102
{ACAD_REACTORS
330
16
102
}
330
16
100
AcDbMlineStyle
  2
STANDARD
 70
     0
  3

 62
   256
 51
90.0
 52
90.0
 71
     2
 49
0.5
 62
   256
  6
BYLAYER
 49
-0.5
 62
   256
  6
BYLAYER
  0
ENDSEC
  0
EOF
