  0
SECTION
  2
HEADER
  9
$ACADVER
  1
AC1012
  9
$DWGCODEPAGE
  3
ANSI_1252
  9
$INSBASE
 10
0.0
 20
0.0
 30
0.0
  9
$EXTMIN
 10
-0.0053101535824709
 20
3.523590112947381
 30
-0.0000000000112498
  9
$EXTMAX
 10
4.378208905018706
 20
7.622177143374198
 30
0.0000000000002956
  9
$LIMMIN
 10
0.0
 20
0.0
  9
$LIMMAX
 10
12.0
 20
9.0
  9
$ORTHOMODE
 70
     1
  9
$REGENMODE
 70
     1
  9
$FILLMODE
 70
     1
  9
$QTEXTMODE
 70
     0
  9
$MIRRTEXT
 70
     1
  9
$DRAGMODE
 70
     2
  9
$LTSCALE
 40
1.0
  9
$OSMODE
 70
   547
  9
$ATTMODE
 70
     1
  9
$TEXTSIZE
 40
0.2
  9
$TRACEWID
 40
0.05
  9
$TEXTSTYLE
  7
STANDARD
  9
$CLAYER
  8
0
  9
$CELTYPE
  6
BYLAYER
  9
$CECOLOR
 62
   256
  9
$CELTSCALE
 40
1.0
  9
$DELOBJ
 70
     1
  9
$DISPSILH
 70
     0
  9
$DIMSCALE
 40
1.0
  9
$DIMASZ
 40
0.18
  9
$DIMEXO
 40
0.0625
  9
$DIMDLI
 40
0.38
  9
$DIMRND
 40
0.0
  9
$DIMDLE
 40
0.0
  9
$DIMEXE
 40
0.18
  9
$DIMTP
 40
0.0
  9
$DIMTM
 40
0.0
  9
$DIMTXT
 40
0.18
  9
$DIMCEN
 40
0.09
  9
$DIMTSZ
 40
0.0
  9
$DIMTOL
 70
     0
  9
$DIMLIM
 70
     0
  9
$DIMTIH
 70
     1
  9
$DIMTOH
 70
     1
  9
$DIMSE1
 70
     0
  9
$DIMSE2
 70
     0
  9
$DIMTAD
 70
     0
  9
$DIMZIN
 70
     0
  9
$DIMBLK
  1

  9
$DIMASO
 70
     1
  9
$DIMSHO
 70
     1
  9
$DIMPOST
  1

  9
$DIMAPOST
  1

  9
$DIMALT
 70
     0
  9
$DIMALTD
 70
     2
  9
$DIMALTF
 40
25.4
  9
$DIMLFAC
 40
1.0
  9
$DIMTOFL
 70
     0
  9
$DIMTVP
 40
0.0
  9
$DIMTIX
 70
     0
  9
$DIMSOXD
 70
     0
  9
$DIMSAH
 70
     0
  9
$DIMBLK1
  1

  9
$DIMBLK2
  1

  9
$DIMSTYLE
  2
STANDARD
  9
$DIMCLRD
 70
     0
  9
$DIMCLRE
 70
     0
  9
$DIMCLRT
 70
     0
  9
$DIMTFAC
 40
1.0
  9
$DIMGAP
 40
0.09
  9
$DIMJUST
 70
     0
  9
$DIMSD1
 70
     0
  9
$DIMSD2
 70
     0
  9
$DIMTOLJ
 70
     1
  9
$DIMTZIN
 70
     0
  9
$DIMALTZ
 70
     0
  9
$DIMALTTZ
 70
     0
  9
$DIMFIT
 70
     5
  9
$DIMUPT
 70
     0
  9
$DIMUNIT
 70
     2
  9
$DIMDEC
 70
     4
  9
$DIMTDEC
 70
     4
  9
$DIMALTU
 70
     2
  9
$DIMALTTD
 70
     2
  9
$DIMTXSTY
  7
STANDARD
  9
$DIMAUNIT
 70
     0
  9
$LUNITS
 70
     2
  9
$LUPREC
 70
     4
  9
$SKETCHINC
 40
0.1
  9
$FILLETRAD
 40
0.0
  9
$AUNITS
 70
     0
  9
$AUPREC
 70
     0
  9
$MENU
  1
acad
  9
$ELEVATION
 40
0.0
  9
$PELEVATION
 40
0.0
  9
$THICKNESS
 40
0.0
  9
$LIMCHECK
 70
     0
  9
$BLIPMODE
 70
     0
  9
$CHAMFERA
 40
0.0
  9
$CHAMFERB
 40
0.0
  9
$CHAMFERC
 40
0.0
  9
$CHAMFERD
 40
0.0
  9
$SKPOLY
 70
     0
  9
$TDCREATE
 40
2452254.589305555
  9
$TDUPDATE
 40
2453944.462626400
  9
$TDINDWG
 40
0.0020498843
  9
$TDUSRTIMER
 40
0.0020498843
  9
$USRTIMER
 70
     1
  9
$ANGBASE
 50
0.0
  9
$ANGDIR
 70
     0
  9
$PDMODE
 70
     0
  9
$PDSIZE
 40
0.0
  9
$PLINEWID
 40
0.0
  9
$COORDS
 70
     1
  9
$SPLFRAME
 70
     0
  9
$SPLINETYPE
 70
     6
  9
$SPLINESEGS
 70
     8
  9
$ATTDIA
 70
     0
  9
$ATTREQ
 70
     1
  9
$HANDLING
 70
  4097
  9
$HANDSEED
  5
3BEA
  9
$SURFTAB1
 70
     6
  9
$SURFTAB2
 70
     6
  9
$SURFTYPE
 70
     6
  9
$SURFU
 70
     6
  9
$SURFV
 70
     6
  9
$UCSNAME
  2

  9
$UCSORG
 10
0.0
 20
0.0
 30
0.0
  9
$UCSXDIR
 10
1.0
 20
0.0
 30
0.0
  9
$UCSYDIR
 10
0.0
 20
1.0
 30
0.0
  9
$PUCSNAME
  2

  9
$PUCSORG
 10
0.0
 20
0.0
 30
0.0
  9
$PUCSXDIR
 10
1.0
 20
0.0
 30
0.0
  9
$PUCSYDIR
 10
0.0
 20
1.0
 30
0.0
  9
$USERI1
 70
     0
  9
$USERI2
 70
     0
  9
$USERI3
 70
     0
  9
$USERI4
 70
     0
  9
$USERI5
 70
     0
  9
$USERR1
 40
0.0
  9
$USERR2
 40
0.0
  9
$USERR3
 40
0.0
  9
$USERR4
 40
0.0
  9
$USERR5
 40
0.0
  9
$WORLDVIEW
 70
     1
  9
$SHADEDGE
 70
     3
  9
$SHADEDIF
 70
    70
  9
$TILEMODE
 70
     1
  9
$MAXACTVP
 70
    16
  9
$PINSBASE
 10
0.0
 20
0.0
 30
0.0
  9
$PLIMCHECK
 70
     0
  9
$PEXTMIN
 10
1.000000000000000E+20
 20
1.000000000000000E+20
 30
1.000000000000000E+20
  9
$PEXTMAX
 10
-1.000000000000000E+20
 20
-1.000000000000000E+20
 30
-1.000000000000000E+20
  9
$PLIMMIN
 10
0.0
 20
0.0
  9
$PLIMMAX
 10
12.0
 20
9.0
  9
$UNITMODE
 70
     0
  9
$VISRETAIN
 70
     0
  9
$PLINEGEN
 70
     0
  9
$PSLTSCALE
 70
     1
  9
$TREEDEPTH
 70
  3020
  9
$PICKSTYLE
 70
     1
  9
$CMLSTYLE
  2
STANDARD
  9
$CMLJUST
 70
     0
  9
$CMLSCALE
 40
1.0
  9
$SAVEIMAGES
 70
     1
  0
ENDSEC
  0
SECTION
  2
CLASSES
  0
CLASS
  1
ACDBDICTIONARYWDFLT
  2
AcDbDictionaryWithDefault
  3
AutoCAD 2000
 90
    32768
280
     0
281
     0
  0
CLASS
  1
ACDBPLACEHOLDER
  2
AcDbPlaceHolder
  3
AutoCAD 2000
 90
    32768
280
     0
281
     0
  0
CLASS
  1
LAYOUT
  2
AcDbLayout
  3
AutoCAD 2000
 90
    32768
280
     0
281
     0
  0
CLASS
  1
LONG_TRANSACTION
  2
AcDbLongTransaction
  3
AutoCAD 2000
 90
    32768
280
     0
281
     0
  0
CLASS
  1
LWPOLYLINE
  2
AcDbPolyline
  3
AutoCAD 2000
 90
    32768
280
     0
281
     1
  0
CLASS
  1
HATCH
  2
AcDbHatch
  3
AutoCAD 2000
 90
    32768
280
     0
281
     1
  0
CLASS
  1
XRECORD
  2
AcDbXrecord
  3
AutoCAD 2000
 90
    32768
280
     0
281
     0
  0
CLASS
  1
LONG_TRANSACTION
  2
AcDbLongTransaction
  3
AutoCAD 2000
 90
    32768
280
     0
281
     0
  0
CLASS
  1
LWPOLYLINE
  2
AcDbPolyline
  3
AutoCAD 2000
 90
    32768
280
     0
281
     1
  0
CLASS
  1
HATCH
  2
AcDbHatch
  3
AutoCAD 2000
 90
    32768
280
     0
281
     1
  0
CLASS
  1
XRECORD
  2
AcDbXrecord
  3
AutoCAD 2000
 90
    32768
280
     0
281
     0
  0
CLASS
  1
LONG_TRANSACTION
  2
AcDbLongTransaction
  3
AutoCAD 2000
 90
    32768
280
     0
281
     0
  0
CLASS
  1
LWPOLYLINE
  2
AcDbPolyline
  3
AutoCAD 2000
 90
    32768
280
     0
281
     1
  0
CLASS
  1
HATCH
  2
AcDbHatch
  3
AutoCAD 2000
 90
    32768
280
     0
281
     1
  0
CLASS
  1
XRECORD
  2
AcDbXrecord
  3
AutoCAD 2000
 90
    32768
280
     0
281
     0
  0
ENDSEC
  0
SECTION
  2
TABLES
  0
TABLE
  2
VPORT
  5
8
330
0
100
AcDbSymbolTable
 70
     3
  0
VPORT
  5
3BE7
330
8
100
AcDbSymbolTableRecord
100
AcDbViewportTableRecord
  2
*ACTIVE
 70
     0
 10
0.0
 20
0.0
 11
1.0
 21
1.0
 12
2.186449375718117
 22
5.57288362816079
 13
0.0
 23
0.0
 14
1.0
 24
1.0
 15
0.0
 25
0.0
 16
0.0
 26
0.0
 36
1.0
 17
0.0
 27
0.0
 37
0.0
 40
4.141206652926921
 41
1.647569444444444
 42
50.0
 43
0.0
 44
0.0
 50
0.0
 51
0.0
 71
     0
 72
   100
 73
     1
 74
     1
 75
     0
 76
     0
 77
     0
 78
     0
  0
ENDTAB
  0
TABLE
  2
LTYPE
  5
5
330
0
100
AcDbSymbolTable
 70
    25
  0
LTYPE
  5
13
330
5
100
AcDbSymbolTableRecord
100
AcDbLinetypeTableRecord
  2
BYBLOCK
 70
     0
  3

 72
    65
 73
     0
 40
0.0
  0
LTYPE
  5
14
330
5
100
AcDbSymbolTableRecord
100
AcDbLinetypeTableRecord
  2
BYLAYER
 70
     0
  3

 72
    65
 73
     0
 40
0.0
  0
LTYPE
  5
15
330
5
100
AcDbSymbolTableRecord
100
AcDbLinetypeTableRecord
  2
CONTINUOUS
 70
     0
  3
Solid line
 72
    65
 73
     0
 40
0.0
  0
LTYPE
  5
22
330
5
100
AcDbSymbolTableRecord
100
AcDbLinetypeTableRecord
  2
BORDER
 70
     0
  3
__ __ . __ __ . __ __ . __ __ . __ __ . __ __ .
 72
    65
 73
     6
 40
1.75
 49
0.5
 74
     0
 49
-0.25
 74
     0
 49
0.5
 74
     0
 49
-0.25
 74
     0
 49
0.5
 74
     0
 49
-0.25
 74
     0
  0
LTYPE
  5
23
330
5
100
AcDbSymbolTableRecord
100
AcDbLinetypeTableRecord
  2
BORDER2
 70
     0
  3
__.__.__.__.__.__.__.__.__.__.__.__.__.__.__.__
 72
    65
 73
     6
 40
0.875
 49
0.25
 74
     0
 49
-0.125
 74
     0
 49
0.25
 74
     0
 49
-0.125
 74
     0
 49
0.25
 74
     0
 49
-0.125
 74
     0
  0
LTYPE
  5
24
330
5
100
AcDbSymbolTableRecord
100
AcDbLinetypeTableRecord
  2
BORDERX2
 70
     0
  3
____  ____  .  ____  ____  .  
 72
    65
 73
     6
 40
3.5
 49
1.0
 74
     0
 49
-0.5
 74
     0
 49
1.0
 74
     0
 49
-0.5
 74
     0
 49
1.0
 74
     0
 49
-0.5
 74
     0
  0
LTYPE
  5
25
330
5
100
AcDbSymbolTableRecord
100
AcDbLinetypeTableRecord
  2
CENTER
 70
     0
  3
____ _ ____ _ ____ _ ____ _ ____ _ ____ _ ____
 72
    65
 73
     4
 40
2.0
 49
1.25
 74
     0
 49
-0.25
 74
     0
 49
0.25
 74
     0
 49
-0.25
 74
     0
  0
LTYPE
  5
26
330
5
100
AcDbSymbolTableRecord
100
AcDbLinetypeTableRecord
  2
CENTER2
 70
     0
  3
____ _ ____ _ ____ _ ____ _ ____ _ ____ _ ____
 72
    65
 73
     4
 40
1.125
 49
0.75
 74
     0
 49
-0.125
 74
     0
 49
0.125
 74
     0
 49
-0.125
 74
     0
  0
LTYPE
  5
27
330
5
100
AcDbSymbolTableRecord
100
AcDbLinetypeTableRecord
  2
CENTERX2
 70
     0
  3
________  __  ________  __  ________  __  
 72
    65
 73
     4
 40
4.0
 49
2.5
 74
     0
 49
-0.5
 74
     0
 49
0.5
 74
     0
 49
-0.5
 74
     0
  0
LTYPE
  5
28
330
5
100
AcDbSymbolTableRecord
100
AcDbLinetypeTableRecord
  2
DASHDOT
 70
     0
  3
__ . __ . __ . __ . __ . __ . __ . 
 72
    65
 73
     4
 40
1.0
 49
0.5
 74
     0
 49
-0.25
 74
     0
 49
0.0
 74
     0
 49
-0.25
 74
     0
  0
LTYPE
  5
29
330
5
100
AcDbSymbolTableRecord
100
AcDbLinetypeTableRecord
  2
DASHDOT2
 70
     0
  3
_._._._._._._._._._._._._._._._.
 72
    65
 73
     4
 40
0.5
 49
0.25
 74
     0
 49
-0.125
 74
     0
 49
0.0
 74
     0
 49
-0.125
 74
     0
  0
LTYPE
  5
2A
330
5
100
AcDbSymbolTableRecord
100
AcDbLinetypeTableRecord
  2
DASHDOTX2
 70
     0
  3
____  .  ____  .  ____  .  ____  .  
 72
    65
 73
     4
 40
2.0
 49
1.0
 74
     0
 49
-0.5
 74
     0
 49
0.0
 74
     0
 49
-0.5
 74
     0
  0
LTYPE
  5
2B
330
5
100
AcDbSymbolTableRecord
100
AcDbLinetypeTableRecord
  2
DASHED
 70
     0
  3
__ __ __ __ __ __ __ __ __ __ __ __ 
 72
    65
 73
     2
 40
0.75
 49
0.5
 74
     0
 49
-0.25
 74
     0
  0
LTYPE
  5
2C
330
5
100
AcDbSymbolTableRecord
100
AcDbLinetypeTableRecord
  2
DASHED2
 70
     0
  3
_ _ _ _ _ _ _ _ _ _ _ _ _ _ _ _ _ _ 
 72
    65
 73
     2
 40
0.375
 49
0.25
 74
     0
 49
-0.125
 74
     0
  0
LTYPE
  5
2D
330
5
100
AcDbSymbolTableRecord
100
AcDbLinetypeTableRecord
  2
DASHEDX2
 70
     0
  3
____  ____  ____  ____  ____  ____  
 72
    65
 73
     2
 40
1.5
 49
1.0
 74
     0
 49
-0.5
 74
     0
  0
LTYPE
  5
2E
330
5
100
AcDbSymbolTableRecord
100
AcDbLinetypeTableRecord
  2
DIVIDE
 70
     0
  3
____ . . ____ . . ____ . . ____ . . 
 72
    65
 73
     6
 40
1.25
 49
0.5
 74
     0
 49
-0.25
 74
     0
 49
0.0
 74
     0
 49
-0.25
 74
     0
 49
0.0
 74
     0
 49
-0.25
 74
     0
  0
LTYPE
  5
2F
330
5
100
AcDbSymbolTableRecord
100
AcDbLinetypeTableRecord
  2
DIVIDE2
 70
     0
  3
__..__..__..__..__..__..__..__..__..
 72
    65
 73
     6
 40
0.625
 49
0.25
 74
     0
 49
-0.125
 74
     0
 49
0.0
 74
     0
 49
-0.125
 74
     0
 49
0.0
 74
     0
 49
-0.125
 74
     0
  0
LTYPE
  5
30
330
5
100
AcDbSymbolTableRecord
100
AcDbLinetypeTableRecord
  2
DIVIDEX2
 70
     0
  3
________  .  .  ________  .  .  ________  .  . 
 72
    65
 73
     6
 40
2.5
 49
1.0
 74
     0
 49
-0.5
 74
     0
 49
0.0
 74
     0
 49
-0.5
 74
     0
 49
0.0
 74
     0
 49
-0.5
 74
     0
  0
LTYPE
  5
31
330
5
100
AcDbSymbolTableRecord
100
AcDbLinetypeTableRecord
  2
DOT
 70
     0
  3
. . . . . . . . . . . . . . . . . . 
 72
    65
 73
     2
 40
0.25
 49
0.0
 74
     0
 49
-0.25
 74
     0
  0
LTYPE
  5
32
330
5
100
AcDbSymbolTableRecord
100
AcDbLinetypeTableRecord
  2
DOT2
 70
     0
  3
....................................
 72
    65
 73
     2
 40
0.125
 49
0.0
 74
     0
 49
-0.125
 74
     0
  0
LTYPE
  5
33
330
5
100
AcDbSymbolTableRecord
100
AcDbLinetypeTableRecord
  2
DOTX2
 70
     0
  3
.  .  .  .  .  .  .  .  .  .  .  .  .  
 72
    65
 73
     2
 40
0.5
 49
0.0
 74
     0
 49
-0.5
 74
     0
  0
LTYPE
  5
34
330
5
100
AcDbSymbolTableRecord
100
AcDbLinetypeTableRecord
  2
HIDDEN
 70
     0
  3
__ __ __ __ __ __ __ __ __ __ __ __ 
 72
    65
 73
     2
 40
0.375
 49
0.25
 74
     0
 49
-0.125
 74
     0
  0
LTYPE
  5
35
330
5
100
AcDbSymbolTableRecord
100
AcDbLinetypeTableRecord
  2
HIDDEN2
 70
     0
  3
_ _ _ _ _ _ _ _ _ _ _ _ _ _ _ _ _ _ 
 72
    65
 73
     2
 40
0.1875
 49
0.125
 74
     0
 49
-0.0625
 74
     0
  0
LTYPE
  5
36
330
5
100
AcDbSymbolTableRecord
100
AcDbLinetypeTableRecord
  2
HIDDENX2
 70
     0
  3
____ ____ ____ ____ ____ ____ ____ 
 72
    65
 73
     2
 40
0.75
 49
0.5
 74
     0
 49
-0.25
 74
     0
  0
LTYPE
  5
37
330
5
100
AcDbSymbolTableRecord
100
AcDbLinetypeTableRecord
  2
PHANTOM
 70
     0
  3
______  __  __  ______  __  __  
 72
    65
 73
     6
 40
2.5
 49
1.25
 74
     0
 49
-0.25
 74
     0
 49
0.25
 74
     0
 49
-0.25
 74
     0
 49
0.25
 74
     0
 49
-0.25
 74
     0
  0
LTYPE
  5
38
330
5
100
AcDbSymbolTableRecord
100
AcDbLinetypeTableRecord
  2
PHANTOM2
 70
     0
  3
___ _ _ ___ _ _ ___ _ _ ___ _ _ 
 72
    65
 73
     6
 40
1.25
 49
0.625
 74
     0
 49
-0.125
 74
     0
 49
0.125
 74
     0
 49
-0.125
 74
     0
 49
0.125
 74
     0
 49
-0.125
 74
     0
  0
LTYPE
  5
39
330
5
100
AcDbSymbolTableRecord
100
AcDbLinetypeTableRecord
  2
PHANTOMX2
 70
     0
  3
___ _ _ ___ _ _ ___ _ _ ___ _ _ 
 72
    65
 73
     6
 40
5.0
 49
2.5
 74
     0
 49
-0.5
 74
     0
 49
0.5
 74
     0
 49
-0.5
 74
     0
 49
0.5
 74
     0
 49
-0.5
 74
     0
  0
ENDTAB
  0
TABLE
  2
LAYER
  5
2
330
0
100
AcDbSymbolTable
 70
   257
  0
LAYER
  5
10
330
2
100
AcDbSymbolTableRecord
100
AcDbLayerTableRecord
  2
0
 70
     0
 62
     7
  6
CONTINUOUS
  0
LAYER
  5
3A
330
2
100
AcDbSymbolTableRecord
100
AcDbLayerTableRecord
  2
1
 70
     0
 62
     1
  6
CONTINUOUS
  0
LAYER
  5
3B
330
2
100
AcDbSymbolTableRecord
100
AcDbLayerTableRecord
  2
2
 70
     0
 62
     2
  6
CONTINUOUS
  0
LAYER
  5
3C
330
2
100
AcDbSymbolTableRecord
100
AcDbLayerTableRecord
  2
3
 70
     0
 62
     3
  6
CONTINUOUS
  0
LAYER
  5
3D
330
2
100
AcDbSymbolTableRecord
100
AcDbLayerTableRecord
  2
4
 70
     0
 62
     4
  6
CONTINUOUS
  0
LAYER
  5
3E
330
2
100
AcDbSymbolTableRecord
100
AcDbLayerTableRecord
  2
5
 70
     0
 62
     5
  6
CONTINUOUS
  0
LAYER
  5
3F
330
2
100
AcDbSymbolTableRecord
100
AcDbLayerTableRecord
  2
6
 70
     0
 62
     6
  6
CONTINUOUS
  0
LAYER
  5
40
330
2
100
AcDbSymbolTableRecord
100
AcDbLayerTableRecord
  2
7
 70
     0
 62
     7
  6
CONTINUOUS
  0
LAYER
  5
41
330
2
100
AcDbSymbolTableRecord
100
AcDbLayerTableRecord
  2
8
 70
     0
 62
     8
  6
CONTINUOUS
  0
LAYER
  5
42
330
2
100
AcDbSymbolTableRecord
100
AcDbLayerTableRecord
  2
9
 70
     0
 62
     9
  6
CONTINUOUS
  0
LAYER
  5
43
330
2
100
AcDbSymbolTableRecord
100
AcDbLayerTableRecord
  2
10
 70
     0
 62
    10
  6
CONTINUOUS
  0
LAYER
  5
44
330
2
100
AcDbSymbolTableRecord
100
AcDbLayerTableRecord
  2
11
 70
     0
 62
    11
  6
CONTINUOUS
  0
LAYER
  5
45
330
2
100
AcDbSymbolTableRecord
100
AcDbLayerTableRecord
  2
12
 70
     0
 62
    12
  6
CONTINUOUS
  0
LAYER
  5
46
330
2
100
AcDbSymbolTableRecord
100
AcDbLayerTableRecord
  2
13
 70
     0
 62
    13
  6
CONTINUOUS
  0
LAYER
  5
47
330
2
100
AcDbSymbolTableRecord
100
AcDbLayerTableRecord
  2
14
 70
     0
 62
    14
  6
CONTINUOUS
  0
LAYER
  5
48
330
2
100
AcDbSymbolTableRecord
100
AcDbLayerTableRecord
  2
15
 70
     0
 62
    15
  6
CONTINUOUS
  0
LAYER
  5
49
330
2
100
AcDbSymbolTableRecord
100
AcDbLayerTableRecord
  2
16
 70
     0
 62
    16
  6
CONTINUOUS
  0
LAYER
  5
4A
330
2
100
AcDbSymbolTableRecord
100
AcDbLayerTableRecord
  2
17
 70
     0
 62
    17
  6
CONTINUOUS
  0
LAYER
  5
4B
330
2
100
AcDbSymbolTableRecord
100
AcDbLayerTableRecord
  2
18
 70
     0
 62
    18
  6
CONTINUOUS
  0
LAYER
  5
4C
330
2
100
AcDbSymbolTableRecord
100
AcDbLayerTableRecord
  2
19
 70
     0
 62
    19
  6
CONTINUOUS
  0
LAYER
  5
4D
330
2
100
AcDbSymbolTableRecord
100
AcDbLayerTableRecord
  2
20
 70
     0
 62
    20
  6
CONTINUOUS
  0
LAYER
  5
4E
330
2
100
AcDbSymbolTableRecord
100
AcDbLayerTableRecord
  2
21
 70
     0
 62
    21
  6
CONTINUOUS
  0
LAYER
  5
4F
330
2
100
AcDbSymbolTableRecord
100
AcDbLayerTableRecord
  2
22
 70
     0
 62
    22
  6
CONTINUOUS
  0
LAYER
  5
50
330
2
100
AcDbSymbolTableRecord
100
AcDbLayerTableRecord
  2
23
 70
     0
 62
    23
  6
CONTINUOUS
  0
LAYER
  5
51
330
2
100
AcDbSymbolTableRecord
100
AcDbLayerTableRecord
  2
24
 70
     0
 62
    24
  6
CONTINUOUS
  0
LAYER
  5
52
330
2
100
AcDbSymbolTableRecord
100
AcDbLayerTableRecord
  2
25
 70
     0
 62
    25
  6
CONTINUOUS
  0
LAYER
  5
53
330
2
100
AcDbSymbolTableRecord
100
AcDbLayerTableRecord
  2
26
 70
     0
 62
    26
  6
CONTINUOUS
  0
LAYER
  5
54
330
2
100
AcDbSymbolTableRecord
100
AcDbLayerTableRecord
  2
27
 70
     0
 62
    27
  6
CONTINUOUS
  0
LAYER
  5
55
330
2
100
AcDbSymbolTableRecord
100
AcDbLayerTableRecord
  2
28
 70
     0
 62
    28
  6
CONTINUOUS
  0
LAYER
  5
56
330
2
100
AcDbSymbolTableRecord
100
AcDbLayerTableRecord
  2
29
 70
     0
 62
    29
  6
CONTINUOUS
  0
LAYER
  5
57
330
2
100
AcDbSymbolTableRecord
100
AcDbLayerTableRecord
  2
30
 70
     0
 62
    30
  6
CONTINUOUS
  0
LAYER
  5
58
330
2
100
AcDbSymbolTableRecord
100
AcDbLayerTableRecord
  2
31
 70
     0
 62
    31
  6
CONTINUOUS
  0
LAYER
  5
59
330
2
100
AcDbSymbolTableRecord
100
AcDbLayerTableRecord
  2
32
 70
     0
 62
    32
  6
CONTINUOUS
  0
LAYER
  5
5A
330
2
100
AcDbSymbolTableRecord
100
AcDbLayerTableRecord
  2
33
 70
     0
 62
    33
  6
CONTINUOUS
  0
LAYER
  5
5B
330
2
100
AcDbSymbolTableRecord
100
AcDbLayerTableRecord
  2
34
 70
     0
 62
    34
  6
CONTINUOUS
  0
LAYER
  5
5C
330
2
100
AcDbSymbolTableRecord
100
AcDbLayerTableRecord
  2
35
 70
     0
 62
    35
  6
CONTINUOUS
  0
LAYER
  5
5D
330
2
100
AcDbSymbolTableRecord
100
AcDbLayerTableRecord
  2
36
 70
     0
 62
    36
  6
CONTINUOUS
  0
LAYER
  5
5E
330
2
100
AcDbSymbolTableRecord
100
AcDbLayerTableRecord
  2
37
 70
     0
 62
    37
  6
CONTINUOUS
  0
LAYER
  5
5F
330
2
100
AcDbSymbolTableRecord
100
AcDbLayerTableRecord
  2
38
 70
     0
 62
    38
  6
CONTINUOUS
  0
LAYER
  5
60
330
2
100
AcDbSymbolTableRecord
100
AcDbLayerTableRecord
  2
39
 70
     0
 62
    39
  6
CONTINUOUS
  0
LAYER
  5
61
330
2
100
AcDbSymbolTableRecord
100
AcDbLayerTableRecord
  2
40
 70
     0
 62
    40
  6
CONTINUOUS
  0
LAYER
  5
62
330
2
100
AcDbSymbolTableRecord
100
AcDbLayerTableRecord
  2
41
 70
     0
 62
    41
  6
CONTINUOUS
  0
LAYER
  5
63
330
2
100
AcDbSymbolTableRecord
100
AcDbLayerTableRecord
  2
42
 70
     0
 62
    42
  6
CONTINUOUS
  0
LAYER
  5
64
330
2
100
AcDbSymbolTableRecord
100
AcDbLayerTableRecord
  2
43
 70
     0
 62
    43
  6
CONTINUOUS
  0
LAYER
  5
65
330
2
100
AcDbSymbolTableRecord
100
AcDbLayerTableRecord
  2
44
 70
     0
 62
    44
  6
CONTINUOUS
  0
LAYER
  5
66
330
2
100
AcDbSymbolTableRecord
100
AcDbLayerTableRecord
  2
45
 70
     0
 62
    45
  6
CONTINUOUS
  0
LAYER
  5
67
330
2
100
AcDbSymbolTableRecord
100
AcDbLayerTableRecord
  2
46
 70
     0
 62
    46
  6
CONTINUOUS
  0
LAYER
  5
68
330
2
100
AcDbSymbolTableRecord
100
AcDbLayerTableRecord
  2
47
 70
     0
 62
    47
  6
CONTINUOUS
  0
LAYER
  5
69
330
2
100
AcDbSymbolTableRecord
100
AcDbLayerTableRecord
  2
48
 70
     0
 62
    48
  6
CONTINUOUS
  0
LAYER
  5
6A
330
2
100
AcDbSymbolTableRecord
100
AcDbLayerTableRecord
  2
49
 70
     0
 62
    49
  6
CONTINUOUS
  0
LAYER
  5
6B
330
2
100
AcDbSymbolTableRecord
100
AcDbLayerTableRecord
  2
50
 70
     0
 62
    50
  6
CONTINUOUS
  0
LAYER
  5
6C
330
2
100
AcDbSymbolTableRecord
100
AcDbLayerTableRecord
  2
51
 70
     0
 62
    51
  6
CONTINUOUS
  0
LAYER
  5
6D
330
2
100
AcDbSymbolTableRecord
100
AcDbLayerTableRecord
  2
52
 70
     0
 62
    52
  6
CONTINUOUS
  0
LAYER
  5
6E
330
2
100
AcDbSymbolTableRecord
100
AcDbLayerTableRecord
  2
53
 70
     0
 62
    53
  6
CONTINUOUS
  0
LAYER
  5
6F
330
2
100
AcDbSymbolTableRecord
100
AcDbLayerTableRecord
  2
54
 70
     0
 62
    54
  6
CONTINUOUS
  0
LAYER
  5
70
330
2
100
AcDbSymbolTableRecord
100
AcDbLayerTableRecord
  2
55
 70
     0
 62
    55
  6
CONTINUOUS
  0
LAYER
  5
71
330
2
100
AcDbSymbolTableRecord
100
AcDbLayerTableRecord
  2
56
 70
     0
 62
    56
  6
CONTINUOUS
  0
LAYER
  5
72
330
2
100
AcDbSymbolTableRecord
100
AcDbLayerTableRecord
  2
57
 70
     0
 62
    57
  6
CONTINUOUS
  0
LAYER
  5
73
330
2
100
AcDbSymbolTableRecord
100
AcDbLayerTableRecord
  2
58
 70
     0
 62
    58
  6
CONTINUOUS
  0
LAYER
  5
74
330
2
100
AcDbSymbolTableRecord
100
AcDbLayerTableRecord
  2
59
 70
     0
 62
    59
  6
CONTINUOUS
  0
LAYER
  5
75
330
2
100
AcDbSymbolTableRecord
100
AcDbLayerTableRecord
  2
60
 70
     0
 62
    60
  6
CONTINUOUS
  0
LAYER
  5
76
330
2
100
AcDbSymbolTableRecord
100
AcDbLayerTableRecord
  2
61
 70
     0
 62
    61
  6
CONTINUOUS
  0
LAYER
  5
77
330
2
100
AcDbSymbolTableRecord
100
AcDbLayerTableRecord
  2
62
 70
     0
 62
    62
  6
CONTINUOUS
  0
LAYER
  5
78
330
2
100
AcDbSymbolTableRecord
100
AcDbLayerTableRecord
  2
63
 70
     0
 62
    63
  6
CONTINUOUS
  0
LAYER
  5
79
330
2
100
AcDbSymbolTableRecord
100
AcDbLayerTableRecord
  2
64
 70
     0
 62
    64
  6
CONTINUOUS
  0
LAYER
  5
7A
330
2
100
AcDbSymbolTableRecord
100
AcDbLayerTableRecord
  2
65
 70
     0
 62
    65
  6
CONTINUOUS
  0
LAYER
  5
7B
330
2
100
AcDbSymbolTableRecord
100
AcDbLayerTableRecord
  2
66
 70
     0
 62
    66
  6
CONTINUOUS
  0
LAYER
  5
7C
330
2
100
AcDbSymbolTableRecord
100
AcDbLayerTableRecord
  2
67
 70
     0
 62
    67
  6
CONTINUOUS
  0
LAYER
  5
7D
330
2
100
AcDbSymbolTableRecord
100
AcDbLayerTableRecord
  2
68
 70
     0
 62
    68
  6
CONTINUOUS
  0
LAYER
  5
7E
330
2
100
AcDbSymbolTableRecord
100
AcDbLayerTableRecord
  2
69
 70
     0
 62
    69
  6
CONTINUOUS
  0
LAYER
  5
7F
330
2
100
AcDbSymbolTableRecord
100
AcDbLayerTableRecord
  2
70
 70
     0
 62
    70
  6
CONTINUOUS
  0
LAYER
  5
80
330
2
100
AcDbSymbolTableRecord
100
AcDbLayerTableRecord
  2
71
 70
     0
 62
    71
  6
CONTINUOUS
  0
LAYER
  5
81
330
2
100
AcDbSymbolTableRecord
100
AcDbLayerTableRecord
  2
72
 70
     0
 62
    72
  6
CONTINUOUS
  0
LAYER
  5
82
330
2
100
AcDbSymbolTableRecord
100
AcDbLayerTableRecord
  2
73
 70
     0
 62
    73
  6
CONTINUOUS
  0
LAYER
  5
83
330
2
100
AcDbSymbolTableRecord
100
AcDbLayerTableRecord
  2
74
 70
     0
 62
    74
  6
CONTINUOUS
  0
LAYER
  5
84
330
2
100
AcDbSymbolTableRecord
100
AcDbLayerTableRecord
  2
75
 70
     0
 62
    75
  6
CONTINUOUS
  0
LAYER
  5
85
330
2
100
AcDbSymbolTableRecord
100
AcDbLayerTableRecord
  2
76
 70
     0
 62
    76
  6
CONTINUOUS
  0
LAYER
  5
86
330
2
100
AcDbSymbolTableRecord
100
AcDbLayerTableRecord
  2
77
 70
     0
 62
    77
  6
CONTINUOUS
  0
LAYER
  5
87
330
2
100
AcDbSymbolTableRecord
100
AcDbLayerTableRecord
  2
78
 70
     0
 62
    78
  6
CONTINUOUS
  0
LAYER
  5
88
330
2
100
AcDbSymbolTableRecord
100
AcDbLayerTableRecord
  2
79
 70
     0
 62
    79
  6
CONTINUOUS
  0
LAYER
  5
89
330
2
100
AcDbSymbolTableRecord
100
AcDbLayerTableRecord
  2
80
 70
     0
 62
    80
  6
CONTINUOUS
  0
LAYER
  5
8A
330
2
100
AcDbSymbolTableRecord
100
AcDbLayerTableRecord
  2
81
 70
     0
 62
    81
  6
CONTINUOUS
  0
LAYER
  5
8B
330
2
100
AcDbSymbolTableRecord
100
AcDbLayerTableRecord
  2
82
 70
     0
 62
    82
  6
CONTINUOUS
  0
LAYER
  5
8C
330
2
100
AcDbSymbolTableRecord
100
AcDbLayerTableRecord
  2
83
 70
     0
 62
    83
  6
CONTINUOUS
  0
LAYER
  5
8D
330
2
100
AcDbSymbolTableRecord
100
AcDbLayerTableRecord
  2
84
 70
     0
 62
    84
  6
CONTINUOUS
  0
LAYER
  5
8E
330
2
100
AcDbSymbolTableRecord
100
AcDbLayerTableRecord
  2
85
 70
     0
 62
    85
  6
CONTINUOUS
  0
LAYER
  5
8F
330
2
100
AcDbSymbolTableRecord
100
AcDbLayerTableRecord
  2
86
 70
     0
 62
    86
  6
CONTINUOUS
  0
LAYER
  5
90
330
2
100
AcDbSymbolTableRecord
100
AcDbLayerTableRecord
  2
87
 70
     0
 62
    87
  6
CONTINUOUS
  0
LAYER
  5
91
330
2
100
AcDbSymbolTableRecord
100
AcDbLayerTableRecord
  2
88
 70
     0
 62
    88
  6
CONTINUOUS
  0
LAYER
  5
92
330
2
100
AcDbSymbolTableRecord
100
AcDbLayerTableRecord
  2
89
 70
     0
 62
    89
  6
CONTINUOUS
  0
LAYER
  5
93
330
2
100
AcDbSymbolTableRecord
100
AcDbLayerTableRecord
  2
90
 70
     0
 62
    90
  6
CONTINUOUS
  0
LAYER
  5
94
330
2
100
AcDbSymbolTableRecord
100
AcDbLayerTableRecord
  2
91
 70
     0
 62
    91
  6
CONTINUOUS
  0
LAYER
  5
95
330
2
100
AcDbSymbolTableRecord
100
AcDbLayerTableRecord
  2
92
 70
     0
 62
    92
  6
CONTINUOUS
  0
LAYER
  5
96
330
2
100
AcDbSymbolTableRecord
100
AcDbLayerTableRecord
  2
93
 70
     0
 62
    93
  6
CONTINUOUS
  0
LAYER
  5
97
330
2
100
AcDbSymbolTableRecord
100
AcDbLayerTableRecord
  2
94
 70
     0
 62
    94
  6
CONTINUOUS
  0
LAYER
  5
98
330
2
100
AcDbSymbolTableRecord
100
AcDbLayerTableRecord
  2
95
 70
     0
 62
    95
  6
CONTINUOUS
  0
LAYER
  5
99
330
2
100
AcDbSymbolTableRecord
100
AcDbLayerTableRecord
  2
96
 70
     0
 62
    96
  6
CONTINUOUS
  0
LAYER
  5
9A
330
2
100
AcDbSymbolTableRecord
100
AcDbLayerTableRecord
  2
97
 70
     0
 62
    97
  6
CONTINUOUS
  0
LAYER
  5
9B
330
2
100
AcDbSymbolTableRecord
100
AcDbLayerTableRecord
  2
98
 70
     0
 62
    98
  6
CONTINUOUS
  0
LAYER
  5
9C
330
2
100
AcDbSymbolTableRecord
100
AcDbLayerTableRecord
  2
99
 70
     0
 62
    99
  6
CONTINUOUS
  0
LAYER
  5
9D
330
2
100
AcDbSymbolTableRecord
100
AcDbLayerTableRecord
  2
100
 70
     0
 62
   100
  6
CONTINUOUS
  0
LAYER
  5
9E
330
2
100
AcDbSymbolTableRecord
100
AcDbLayerTableRecord
  2
101
 70
     0
 62
   101
  6
CONTINUOUS
  0
LAYER
  5
9F
330
2
100
AcDbSymbolTableRecord
100
AcDbLayerTableRecord
  2
102
 70
     0
 62
   102
  6
CONTINUOUS
  0
LAYER
  5
A0
330
2
100
AcDbSymbolTableRecord
100
AcDbLayerTableRecord
  2
103
 70
     0
 62
   103
  6
CONTINUOUS
  0
LAYER
  5
A1
330
2
100
AcDbSymbolTableRecord
100
AcDbLayerTableRecord
  2
104
 70
     0
 62
   104
  6
CONTINUOUS
  0
LAYER
  5
A2
330
2
100
AcDbSymbolTableRecord
100
AcDbLayerTableRecord
  2
105
 70
     0
 62
   105
  6
CONTINUOUS
  0
LAYER
  5
A3
330
2
100
AcDbSymbolTableRecord
100
AcDbLayerTableRecord
  2
106
 70
     0
 62
   106
  6
CONTINUOUS
  0
LAYER
  5
A4
330
2
100
AcDbSymbolTableRecord
100
AcDbLayerTableRecord
  2
107
 70
     0
 62
   107
  6
CONTINUOUS
  0
LAYER
  5
A5
330
2
100
AcDbSymbolTableRecord
100
AcDbLayerTableRecord
  2
108
 70
     0
 62
   108
  6
CONTINUOUS
  0
LAYER
  5
A6
330
2
100
AcDbSymbolTableRecord
100
AcDbLayerTableRecord
  2
109
 70
     0
 62
   109
  6
CONTINUOUS
  0
LAYER
  5
A7
330
2
100
AcDbSymbolTableRecord
100
AcDbLayerTableRecord
  2
110
 70
     0
 62
   110
  6
CONTINUOUS
  0
LAYER
  5
A8
330
2
100
AcDbSymbolTableRecord
100
AcDbLayerTableRecord
  2
111
 70
     0
 62
   111
  6
CONTINUOUS
  0
LAYER
  5
A9
330
2
100
AcDbSymbolTableRecord
100
AcDbLayerTableRecord
  2
112
 70
     0
 62
   112
  6
CONTINUOUS
  0
LAYER
  5
AA
330
2
100
AcDbSymbolTableRecord
100
AcDbLayerTableRecord
  2
113
 70
     0
 62
   113
  6
CONTINUOUS
  0
LAYER
  5
AB
330
2
100
AcDbSymbolTableRecord
100
AcDbLayerTableRecord
  2
114
 70
     0
 62
   114
  6
CONTINUOUS
  0
LAYER
  5
AC
330
2
100
AcDbSymbolTableRecord
100
AcDbLayerTableRecord
  2
115
 70
     0
 62
   115
  6
CONTINUOUS
  0
LAYER
  5
AD
330
2
100
AcDbSymbolTableRecord
100
AcDbLayerTableRecord
  2
116
 70
     0
 62
   116
  6
CONTINUOUS
  0
LAYER
  5
AE
330
2
100
AcDbSymbolTableRecord
100
AcDbLayerTableRecord
  2
117
 70
     0
 62
   117
  6
CONTINUOUS
  0
LAYER
  5
AF
330
2
100
AcDbSymbolTableRecord
100
AcDbLayerTableRecord
  2
118
 70
     0
 62
   118
  6
CONTINUOUS
  0
LAYER
  5
B0
330
2
100
AcDbSymbolTableRecord
100
AcDbLayerTableRecord
  2
119
 70
     0
 62
   119
  6
CONTINUOUS
  0
LAYER
  5
B1
330
2
100
AcDbSymbolTableRecord
100
AcDbLayerTableRecord
  2
120
 70
     0
 62
   120
  6
CONTINUOUS
  0
LAYER
  5
B2
330
2
100
AcDbSymbolTableRecord
100
AcDbLayerTableRecord
  2
121
 70
     0
 62
   121
  6
CONTINUOUS
  0
LAYER
  5
B3
330
2
100
AcDbSymbolTableRecord
100
AcDbLayerTableRecord
  2
122
 70
     0
 62
   122
  6
CONTINUOUS
  0
LAYER
  5
B4
330
2
100
AcDbSymbolTableRecord
100
AcDbLayerTableRecord
  2
123
 70
     0
 62
   123
  6
CONTINUOUS
  0
LAYER
  5
B5
330
2
100
AcDbSymbolTableRecord
100
AcDbLayerTableRecord
  2
124
 70
     0
 62
   124
  6
CONTINUOUS
  0
LAYER
  5
B6
330
2
100
AcDbSymbolTableRecord
100
AcDbLayerTableRecord
  2
125
 70
     0
 62
   125
  6
CONTINUOUS
  0
LAYER
  5
B7
330
2
100
AcDbSymbolTableRecord
100
AcDbLayerTableRecord
  2
126
 70
     0
 62
   126
  6
CONTINUOUS
  0
LAYER
  5
B8
330
2
100
AcDbSymbolTableRecord
100
AcDbLayerTableRecord
  2
127
 70
     0
 62
   127
  6
CONTINUOUS
  0
LAYER
  5
B9
330
2
100
AcDbSymbolTableRecord
100
AcDbLayerTableRecord
  2
128
 70
     0
 62
   128
  6
CONTINUOUS
  0
LAYER
  5
BA
330
2
100
AcDbSymbolTableRecord
100
AcDbLayerTableRecord
  2
129
 70
     0
 62
   129
  6
CONTINUOUS
  0
LAYER
  5
BB
330
2
100
AcDbSymbolTableRecord
100
AcDbLayerTableRecord
  2
130
 70
     0
 62
   130
  6
CONTINUOUS
  0
LAYER
  5
BC
330
2
100
AcDbSymbolTableRecord
100
AcDbLayerTableRecord
  2
131
 70
     0
 62
   131
  6
CONTINUOUS
  0
LAYER
  5
BD
330
2
100
AcDbSymbolTableRecord
100
AcDbLayerTableRecord
  2
132
 70
     0
 62
   132
  6
CONTINUOUS
  0
LAYER
  5
BE
330
2
100
AcDbSymbolTableRecord
100
AcDbLayerTableRecord
  2
133
 70
     0
 62
   133
  6
CONTINUOUS
  0
LAYER
  5
BF
330
2
100
AcDbSymbolTableRecord
100
AcDbLayerTableRecord
  2
134
 70
     0
 62
   134
  6
CONTINUOUS
  0
LAYER
  5
C0
330
2
100
AcDbSymbolTableRecord
100
AcDbLayerTableRecord
  2
135
 70
     0
 62
   135
  6
CONTINUOUS
  0
LAYER
  5
C1
330
2
100
AcDbSymbolTableRecord
100
AcDbLayerTableRecord
  2
136
 70
     0
 62
   136
  6
CONTINUOUS
  0
LAYER
  5
C2
330
2
100
AcDbSymbolTableRecord
100
AcDbLayerTableRecord
  2
137
 70
     0
 62
   137
  6
CONTINUOUS
  0
LAYER
  5
C3
330
2
100
AcDbSymbolTableRecord
100
AcDbLayerTableRecord
  2
138
 70
     0
 62
   138
  6
CONTINUOUS
  0
LAYER
  5
C4
330
2
100
AcDbSymbolTableRecord
100
AcDbLayerTableRecord
  2
139
 70
     0
 62
   139
  6
CONTINUOUS
  0
LAYER
  5
C5
330
2
100
AcDbSymbolTableRecord
100
AcDbLayerTableRecord
  2
140
 70
     0
 62
   140
  6
CONTINUOUS
  0
LAYER
  5
C6
330
2
100
AcDbSymbolTableRecord
100
AcDbLayerTableRecord
  2
141
 70
     0
 62
   141
  6
CONTINUOUS
  0
LAYER
  5
C7
330
2
100
AcDbSymbolTableRecord
100
AcDbLayerTableRecord
  2
142
 70
     0
 62
   142
  6
CONTINUOUS
  0
LAYER
  5
C8
330
2
100
AcDbSymbolTableRecord
100
AcDbLayerTableRecord
  2
143
 70
     0
 62
   143
  6
CONTINUOUS
  0
LAYER
  5
C9
330
2
100
AcDbSymbolTableRecord
100
AcDbLayerTableRecord
  2
144
 70
     0
 62
   144
  6
CONTINUOUS
  0
LAYER
  5
CA
330
2
100
AcDbSymbolTableRecord
100
AcDbLayerTableRecord
  2
145
 70
     0
 62
   145
  6
CONTINUOUS
  0
LAYER
  5
CB
330
2
100
AcDbSymbolTableRecord
100
AcDbLayerTableRecord
  2
146
 70
     0
 62
   146
  6
CONTINUOUS
  0
LAYER
  5
CC
330
2
100
AcDbSymbolTableRecord
100
AcDbLayerTableRecord
  2
147
 70
     0
 62
   147
  6
CONTINUOUS
  0
LAYER
  5
CD
330
2
100
AcDbSymbolTableRecord
100
AcDbLayerTableRecord
  2
148
 70
     0
 62
   148
  6
CONTINUOUS
  0
LAYER
  5
CE
330
2
100
AcDbSymbolTableRecord
100
AcDbLayerTableRecord
  2
149
 70
     0
 62
   149
  6
CONTINUOUS
  0
LAYER
  5
CF
330
2
100
AcDbSymbolTableRecord
100
AcDbLayerTableRecord
  2
150
 70
     0
 62
   150
  6
CONTINUOUS
  0
LAYER
  5
D0
330
2
100
AcDbSymbolTableRecord
100
AcDbLayerTableRecord
  2
151
 70
     0
 62
   151
  6
CONTINUOUS
  0
LAYER
  5
D1
330
2
100
AcDbSymbolTableRecord
100
AcDbLayerTableRecord
  2
152
 70
     0
 62
   152
  6
CONTINUOUS
  0
LAYER
  5
D2
330
2
100
AcDbSymbolTableRecord
100
AcDbLayerTableRecord
  2
153
 70
     0
 62
   153
  6
CONTINUOUS
  0
LAYER
  5
D3
330
2
100
AcDbSymbolTableRecord
100
AcDbLayerTableRecord
  2
154
 70
     0
 62
   154
  6
CONTINUOUS
  0
LAYER
  5
D4
330
2
100
AcDbSymbolTableRecord
100
AcDbLayerTableRecord
  2
155
 70
     0
 62
   155
  6
CONTINUOUS
  0
LAYER
  5
D5
330
2
100
AcDbSymbolTableRecord
100
AcDbLayerTableRecord
  2
156
 70
     0
 62
   156
  6
CONTINUOUS
  0
LAYER
  5
D6
330
2
100
AcDbSymbolTableRecord
100
AcDbLayerTableRecord
  2
157
 70
     0
 62
   157
  6
CONTINUOUS
  0
LAYER
  5
D7
330
2
100
AcDbSymbolTableRecord
100
AcDbLayerTableRecord
  2
158
 70
     0
 62
   158
  6
CONTINUOUS
  0
LAYER
  5
D8
330
2
100
AcDbSymbolTableRecord
100
AcDbLayerTableRecord
  2
159
 70
     0
 62
   159
  6
CONTINUOUS
  0
LAYER
  5
D9
330
2
100
AcDbSymbolTableRecord
100
AcDbLayerTableRecord
  2
160
 70
     0
 62
   160
  6
CONTINUOUS
  0
LAYER
  5
DA
330
2
100
AcDbSymbolTableRecord
100
AcDbLayerTableRecord
  2
161
 70
     0
 62
   161
  6
CONTINUOUS
  0
LAYER
  5
DB
330
2
100
AcDbSymbolTableRecord
100
AcDbLayerTableRecord
  2
162
 70
     0
 62
   162
  6
CONTINUOUS
  0
LAYER
  5
DC
330
2
100
AcDbSymbolTableRecord
100
AcDbLayerTableRecord
  2
163
 70
     0
 62
   163
  6
CONTINUOUS
  0
LAYER
  5
DD
330
2
100
AcDbSymbolTableRecord
100
AcDbLayerTableRecord
  2
164
 70
     0
 62
   164
  6
CONTINUOUS
  0
LAYER
  5
DE
330
2
100
AcDbSymbolTableRecord
100
AcDbLayerTableRecord
  2
165
 70
     0
 62
   165
  6
CONTINUOUS
  0
LAYER
  5
DF
330
2
100
AcDbSymbolTableRecord
100
AcDbLayerTableRecord
  2
166
 70
     0
 62
   166
  6
CONTINUOUS
  0
LAYER
  5
E0
330
2
100
AcDbSymbolTableRecord
100
AcDbLayerTableRecord
  2
167
 70
     0
 62
   167
  6
CONTINUOUS
  0
LAYER
  5
E1
330
2
100
AcDbSymbolTableRecord
100
AcDbLayerTableRecord
  2
168
 70
     0
 62
   168
  6
CONTINUOUS
  0
LAYER
  5
E2
330
2
100
AcDbSymbolTableRecord
100
AcDbLayerTableRecord
  2
169
 70
     0
 62
   169
  6
CONTINUOUS
  0
LAYER
  5
E3
330
2
100
AcDbSymbolTableRecord
100
AcDbLayerTableRecord
  2
170
 70
     0
 62
   170
  6
CONTINUOUS
  0
LAYER
  5
E4
330
2
100
AcDbSymbolTableRecord
100
AcDbLayerTableRecord
  2
171
 70
     0
 62
   171
  6
CONTINUOUS
  0
LAYER
  5
E5
330
2
100
AcDbSymbolTableRecord
100
AcDbLayerTableRecord
  2
172
 70
     0
 62
   172
  6
CONTINUOUS
  0
LAYER
  5
E6
330
2
100
AcDbSymbolTableRecord
100
AcDbLayerTableRecord
  2
173
 70
     0
 62
   173
  6
CONTINUOUS
  0
LAYER
  5
E7
330
2
100
AcDbSymbolTableRecord
100
AcDbLayerTableRecord
  2
174
 70
     0
 62
   174
  6
CONTINUOUS
  0
LAYER
  5
E8
330
2
100
AcDbSymbolTableRecord
100
AcDbLayerTableRecord
  2
175
 70
     0
 62
   175
  6
CONTINUOUS
  0
LAYER
  5
E9
330
2
100
AcDbSymbolTableRecord
100
AcDbLayerTableRecord
  2
176
 70
     0
 62
   176
  6
CONTINUOUS
  0
LAYER
  5
EA
330
2
100
AcDbSymbolTableRecord
100
AcDbLayerTableRecord
  2
177
 70
     0
 62
   177
  6
CONTINUOUS
  0
LAYER
  5
EB
330
2
100
AcDbSymbolTableRecord
100
AcDbLayerTableRecord
  2
178
 70
     0
 62
   178
  6
CONTINUOUS
  0
LAYER
  5
EC
330
2
100
AcDbSymbolTableRecord
100
AcDbLayerTableRecord
  2
179
 70
     0
 62
   179
  6
CONTINUOUS
  0
LAYER
  5
ED
330
2
100
AcDbSymbolTableRecord
100
AcDbLayerTableRecord
  2
180
 70
     0
 62
   180
  6
CONTINUOUS
  0
LAYER
  5
EE
330
2
100
AcDbSymbolTableRecord
100
AcDbLayerTableRecord
  2
181
 70
     0
 62
   181
  6
CONTINUOUS
  0
LAYER
  5
EF
330
2
100
AcDbSymbolTableRecord
100
AcDbLayerTableRecord
  2
182
 70
     0
 62
   182
  6
CONTINUOUS
  0
LAYER
  5
F0
330
2
100
AcDbSymbolTableRecord
100
AcDbLayerTableRecord
  2
183
 70
     0
 62
   183
  6
CONTINUOUS
  0
LAYER
  5
F1
330
2
100
AcDbSymbolTableRecord
100
AcDbLayerTableRecord
  2
184
 70
     0
 62
   184
  6
CONTINUOUS
  0
LAYER
  5
F2
330
2
100
AcDbSymbolTableRecord
100
AcDbLayerTableRecord
  2
185
 70
     0
 62
   185
  6
CONTINUOUS
  0
LAYER
  5
F3
330
2
100
AcDbSymbolTableRecord
100
AcDbLayerTableRecord
  2
186
 70
     0
 62
   186
  6
CONTINUOUS
  0
LAYER
  5
F4
330
2
100
AcDbSymbolTableRecord
100
AcDbLayerTableRecord
  2
187
 70
     0
 62
   187
  6
CONTINUOUS
  0
LAYER
  5
F5
330
2
100
AcDbSymbolTableRecord
100
AcDbLayerTableRecord
  2
188
 70
     0
 62
   188
  6
CONTINUOUS
  0
LAYER
  5
F6
330
2
100
AcDbSymbolTableRecord
100
AcDbLayerTableRecord
  2
189
 70
     0
 62
   189
  6
CONTINUOUS
  0
LAYER
  5
F7
330
2
100
AcDbSymbolTableRecord
100
AcDbLayerTableRecord
  2
190
 70
     0
 62
   190
  6
CONTINUOUS
  0
LAYER
  5
F8
330
2
100
AcDbSymbolTableRecord
100
AcDbLayerTableRecord
  2
191
 70
     0
 62
   191
  6
CONTINUOUS
  0
LAYER
  5
F9
330
2
100
AcDbSymbolTableRecord
100
AcDbLayerTableRecord
  2
192
 70
     0
 62
   192
  6
CONTINUOUS
  0
LAYER
  5
FA
330
2
100
AcDbSymbolTableRecord
100
AcDbLayerTableRecord
  2
193
 70
     0
 62
   193
  6
CONTINUOUS
  0
LAYER
  5
FB
330
2
100
AcDbSymbolTableRecord
100
AcDbLayerTableRecord
  2
194
 70
     0
 62
   194
  6
CONTINUOUS
  0
LAYER
  5
FC
330
2
100
AcDbSymbolTableRecord
100
AcDbLayerTableRecord
  2
195
 70
     0
 62
   195
  6
CONTINUOUS
  0
LAYER
  5
FD
330
2
100
AcDbSymbolTableRecord
100
AcDbLayerTableRecord
  2
196
 70
     0
 62
   196
  6
CONTINUOUS
  0
LAYER
  5
FE
330
2
100
AcDbSymbolTableRecord
100
AcDbLayerTableRecord
  2
197
 70
     0
 62
   197
  6
CONTINUOUS
  0
LAYER
  5
FF
330
2
100
AcDbSymbolTableRecord
100
AcDbLayerTableRecord
  2
198
 70
     0
 62
   198
  6
CONTINUOUS
  0
LAYER
  5
100
330
2
100
AcDbSymbolTableRecord
100
AcDbLayerTableRecord
  2
199
 70
     0
 62
   199
  6
CONTINUOUS
  0
LAYER
  5
101
330
2
100
AcDbSymbolTableRecord
100
AcDbLayerTableRecord
  2
200
 70
     0
 62
   200
  6
CONTINUOUS
  0
LAYER
  5
102
330
2
100
AcDbSymbolTableRecord
100
AcDbLayerTableRecord
  2
201
 70
     0
 62
   201
  6
CONTINUOUS
  0
LAYER
  5
103
330
2
100
AcDbSymbolTableRecord
100
AcDbLayerTableRecord
  2
202
 70
     0
 62
   202
  6
CONTINUOUS
  0
LAYER
  5
104
330
2
100
AcDbSymbolTableRecord
100
AcDbLayerTableRecord
  2
203
 70
     0
 62
   203
  6
CONTINUOUS
  0
LAYER
  5
105
330
2
100
AcDbSymbolTableRecord
100
AcDbLayerTableRecord
  2
204
 70
     0
 62
   204
  6
CONTINUOUS
  0
LAYER
  5
106
330
2
100
AcDbSymbolTableRecord
100
AcDbLayerTableRecord
  2
205
 70
     0
 62
   205
  6
CONTINUOUS
  0
LAYER
  5
107
330
2
100
AcDbSymbolTableRecord
100
AcDbLayerTableRecord
  2
206
 70
     0
 62
   206
  6
CONTINUOUS
  0
LAYER
  5
108
330
2
100
AcDbSymbolTableRecord
100
AcDbLayerTableRecord
  2
207
 70
     0
 62
   207
  6
CONTINUOUS
  0
LAYER
  5
109
330
2
100
AcDbSymbolTableRecord
100
AcDbLayerTableRecord
  2
208
 70
     0
 62
   208
  6
CONTINUOUS
  0
LAYER
  5
10A
330
2
100
AcDbSymbolTableRecord
100
AcDbLayerTableRecord
  2
209
 70
     0
 62
   209
  6
CONTINUOUS
  0
LAYER
  5
10B
330
2
100
AcDbSymbolTableRecord
100
AcDbLayerTableRecord
  2
210
 70
     0
 62
   210
  6
CONTINUOUS
  0
LAYER
  5
10C
330
2
100
AcDbSymbolTableRecord
100
AcDbLayerTableRecord
  2
211
 70
     0
 62
   211
  6
CONTINUOUS
  0
LAYER
  5
10D
330
2
100
AcDbSymbolTableRecord
100
AcDbLayerTableRecord
  2
212
 70
     0
 62
   212
  6
CONTINUOUS
  0
LAYER
  5
10E
330
2
100
AcDbSymbolTableRecord
100
AcDbLayerTableRecord
  2
213
 70
     0
 62
   213
  6
CONTINUOUS
  0
LAYER
  5
10F
330
2
100
AcDbSymbolTableRecord
100
AcDbLayerTableRecord
  2
214
 70
     0
 62
   214
  6
CONTINUOUS
  0
LAYER
  5
110
330
2
100
AcDbSymbolTableRecord
100
AcDbLayerTableRecord
  2
215
 70
     0
 62
   215
  6
CONTINUOUS
  0
LAYER
  5
111
330
2
100
AcDbSymbolTableRecord
100
AcDbLayerTableRecord
  2
216
 70
     0
 62
   216
  6
CONTINUOUS
  0
LAYER
  5
112
330
2
100
AcDbSymbolTableRecord
100
AcDbLayerTableRecord
  2
217
 70
     0
 62
   217
  6
CONTINUOUS
  0
LAYER
  5
113
330
2
100
AcDbSymbolTableRecord
100
AcDbLayerTableRecord
  2
218
 70
     0
 62
   218
  6
CONTINUOUS
  0
LAYER
  5
114
330
2
100
AcDbSymbolTableRecord
100
AcDbLayerTableRecord
  2
219
 70
     0
 62
   219
  6
CONTINUOUS
  0
LAYER
  5
115
330
2
100
AcDbSymbolTableRecord
100
AcDbLayerTableRecord
  2
220
 70
     0
 62
   220
  6
CONTINUOUS
  0
LAYER
  5
116
330
2
100
AcDbSymbolTableRecord
100
AcDbLayerTableRecord
  2
221
 70
     0
 62
   221
  6
CONTINUOUS
  0
LAYER
  5
117
330
2
100
AcDbSymbolTableRecord
100
AcDbLayerTableRecord
  2
222
 70
     0
 62
   222
  6
CONTINUOUS
  0
LAYER
  5
118
330
2
100
AcDbSymbolTableRecord
100
AcDbLayerTableRecord
  2
223
 70
     0
 62
   223
  6
CONTINUOUS
  0
LAYER
  5
119
330
2
100
AcDbSymbolTableRecord
100
AcDbLayerTableRecord
  2
224
 70
     0
 62
   224
  6
CONTINUOUS
  0
LAYER
  5
11A
330
2
100
AcDbSymbolTableRecord
100
AcDbLayerTableRecord
  2
225
 70
     0
 62
   225
  6
CONTINUOUS
  0
LAYER
  5
11B
330
2
100
AcDbSymbolTableRecord
100
AcDbLayerTableRecord
  2
226
 70
     0
 62
   226
  6
CONTINUOUS
  0
LAYER
  5
11C
330
2
100
AcDbSymbolTableRecord
100
AcDbLayerTableRecord
  2
227
 70
     0
 62
   227
  6
CONTINUOUS
  0
LAYER
  5
11D
330
2
100
AcDbSymbolTableRecord
100
AcDbLayerTableRecord
  2
228
 70
     0
 62
   228
  6
CONTINUOUS
  0
LAYER
  5
11E
330
2
100
AcDbSymbolTableRecord
100
AcDbLayerTableRecord
  2
229
 70
     0
 62
   229
  6
CONTINUOUS
  0
LAYER
  5
11F
330
2
100
AcDbSymbolTableRecord
100
AcDbLayerTableRecord
  2
230
 70
     0
 62
   230
  6
CONTINUOUS
  0
LAYER
  5
120
330
2
100
AcDbSymbolTableRecord
100
AcDbLayerTableRecord
  2
231
 70
     0
 62
   231
  6
CONTINUOUS
  0
LAYER
  5
121
330
2
100
AcDbSymbolTableRecord
100
AcDbLayerTableRecord
  2
232
 70
     0
 62
   232
  6
CONTINUOUS
  0
LAYER
  5
122
330
2
100
AcDbSymbolTableRecord
100
AcDbLayerTableRecord
  2
233
 70
     0
 62
   233
  6
CONTINUOUS
  0
LAYER
  5
123
330
2
100
AcDbSymbolTableRecord
100
AcDbLayerTableRecord
  2
234
 70
     0
 62
   234
  6
CONTINUOUS
  0
LAYER
  5
124
330
2
100
AcDbSymbolTableRecord
100
AcDbLayerTableRecord
  2
235
 70
     0
 62
   235
  6
CONTINUOUS
  0
LAYER
  5
125
330
2
100
AcDbSymbolTableRecord
100
AcDbLayerTableRecord
  2
236
 70
     0
 62
   236
  6
CONTINUOUS
  0
LAYER
  5
126
330
2
100
AcDbSymbolTableRecord
100
AcDbLayerTableRecord
  2
237
 70
     0
 62
   237
  6
CONTINUOUS
  0
LAYER
  5
127
330
2
100
AcDbSymbolTableRecord
100
AcDbLayerTableRecord
  2
238
 70
     0
 62
   238
  6
CONTINUOUS
  0
LAYER
  5
128
330
2
100
AcDbSymbolTableRecord
100
AcDbLayerTableRecord
  2
239
 70
     0
 62
   239
  6
CONTINUOUS
  0
LAYER
  5
129
330
2
100
AcDbSymbolTableRecord
100
AcDbLayerTableRecord
  2
240
 70
     0
 62
   240
  6
CONTINUOUS
  0
LAYER
  5
12A
330
2
100
AcDbSymbolTableRecord
100
AcDbLayerTableRecord
  2
241
 70
     0
 62
   241
  6
CONTINUOUS
  0
LAYER
  5
12B
330
2
100
AcDbSymbolTableRecord
100
AcDbLayerTableRecord
  2
242
 70
     0
 62
   242
  6
CONTINUOUS
  0
LAYER
  5
12C
330
2
100
AcDbSymbolTableRecord
100
AcDbLayerTableRecord
  2
243
 70
     0
 62
   243
  6
CONTINUOUS
  0
LAYER
  5
12D
330
2
100
AcDbSymbolTableRecord
100
AcDbLayerTableRecord
  2
244
 70
     0
 62
   244
  6
CONTINUOUS
  0
LAYER
  5
12E
330
2
100
AcDbSymbolTableRecord
100
AcDbLayerTableRecord
  2
245
 70
     0
 62
   245
  6
CONTINUOUS
  0
LAYER
  5
12F
330
2
100
AcDbSymbolTableRecord
100
AcDbLayerTableRecord
  2
246
 70
     0
 62
   246
  6
CONTINUOUS
  0
LAYER
  5
130
330
2
100
AcDbSymbolTableRecord
100
AcDbLayerTableRecord
  2
247
 70
     0
 62
   247
  6
CONTINUOUS
  0
LAYER
  5
131
330
2
100
AcDbSymbolTableRecord
100
AcDbLayerTableRecord
  2
248
 70
     0
 62
   248
  6
CONTINUOUS
  0
LAYER
  5
132
330
2
100
AcDbSymbolTableRecord
100
AcDbLayerTableRecord
  2
249
 70
     0
 62
   249
  6
CONTINUOUS
  0
LAYER
  5
133
330
2
100
AcDbSymbolTableRecord
100
AcDbLayerTableRecord
  2
250
 70
     0
 62
   250
  6
CONTINUOUS
  0
LAYER
  5
134
330
2
100
AcDbSymbolTableRecord
100
AcDbLayerTableRecord
  2
251
 70
     0
 62
   251
  6
CONTINUOUS
  0
LAYER
  5
135
330
2
100
AcDbSymbolTableRecord
100
AcDbLayerTableRecord
  2
252
 70
     0
 62
   252
  6
CONTINUOUS
  0
LAYER
  5
136
330
2
100
AcDbSymbolTableRecord
100
AcDbLayerTableRecord
  2
253
 70
     0
 62
   253
  6
CONTINUOUS
  0
LAYER
  5
137
330
2
100
AcDbSymbolTableRecord
100
AcDbLayerTableRecord
  2
254
 70
     0
 62
   254
  6
CONTINUOUS
  0
LAYER
  5
138
330
2
100
AcDbSymbolTableRecord
100
AcDbLayerTableRecord
  2
255
 70
     0
 62
   255
  6
CONTINUOUS
  0
LAYER
  5
3B98
330
2
100
AcDbSymbolTableRecord
100
AcDbLayerTableRecord
  2
DEFPOINTS
 70
     0
 62
     7
  6
CONTINUOUS
  0
ENDTAB
  0
TABLE
  2
STYLE
  5
3
330
0
100
AcDbSymbolTable
 70
     1
  0
STYLE
  5
11
330
3
100
AcDbSymbolTableRecord
100
AcDbTextStyleTableRecord
  2
STANDARD
 70
     0
 40
0.0
 41
1.0
 50
0.0
 71
     0
 42
0.2
  3
monotxt
  4

  0
ENDTAB
  0
TABLE
  2
VIEW
  5
6
330
0
100
AcDbSymbolTable
 70
     0
  0
ENDTAB
  0
TABLE
  2
UCS
  5
7
330
0
100
AcDbSymbolTable
 70
     0
  0
ENDTAB
  0
TABLE
  2
APPID
  5
9
330
0
100
AcDbSymbolTable
 70
     1
  0
APPID
  5
12
330
9
100
AcDbSymbolTableRecord
100
AcDbRegAppTableRecord
  2
ACAD
 70
     0
  0
ENDTAB
  0
TABLE
  2
DIMSTYLE
  5
A
330
0
100
AcDbSymbolTable
 70
     1
  0
DIMSTYLE
105
27DA
330
A
100
AcDbSymbolTableRecord
100
AcDbDimStyleTableRecord
  2
STANDARD
 70
     0
  3

  4

  5

  6

  7

 40
1.0
 41
0.18
 42
0.0625
 43
0.38
 44
0.18
 45
0.0
 46
0.0
 47
0.0
 48
0.0
140
0.18
141
0.09
142
0.0
143
25.4
144
1.0
145
0.0
146
1.0
147
0.09
 71
     0
 72
     0
 73
     1
 74
     1
 75
     0
 76
     0
 77
     0
 78
     0
170
     0
171
     2
172
     0
173
     0
174
     0
175
     0
176
     0
177
     0
178
     0
270
     2
271
     4
272
     4
273
     2
274
     2
340
11
275
     0
280
     0
281
     0
282
     0
283
     1
284
     0
285
     0
286
     0
287
     3
288
     0
  0
ENDTAB
  0
TABLE
  2
BLOCK_RECORD
  5
1
330
0
100
AcDbSymbolTable
 70
     1
  0
BLOCK_RECORD
  5
1E
102
{ACAD_XDICTIONARY
360
3B61
102
}
330
1
100
AcDbSymbolTableRecord
100
AcDbBlockTableRecord
  2
*MODEL_SPACE
  0
BLOCK_RECORD
  5
1A
102
{ACAD_XDICTIONARY
360
3B63
102
}
330
1
100
AcDbSymbolTableRecord
100
AcDbBlockTableRecord
  2
*PAPER_SPACE
  0
ENDTAB
  0
ENDSEC
  0
SECTION
  2
BLOCKS
  0
BLOCK
  5
13B
330
1E
100
AcDbEntity
  8
0
100
AcDbBlockBegin
  2
*MODEL_SPACE
 70
     0
 10
0.0
 20
0.0
 30
0.0
  3
*MODEL_SPACE
  1

  0
ENDBLK
  5
13C
330
1E
100
AcDbEntity
  8
0
100
AcDbBlockEnd
  0
BLOCK
  5
139
330
1A
100
AcDbEntity
 67
     1
  8
0
100
AcDbBlockBegin
  2
*PAPER_SPACE
 70
     0
 10
0.0
 20
0.0
 30
0.0
  3
*PAPER_SPACE
  1

  0
ENDBLK
  5
13A
330
1A
100
AcDbEntity
 67
     1
  8
0
100
AcDbBlockEnd
  0
ENDSEC
  0
SECTION
  2
ENTITIES
  0
LINE
  5
1F00
330
1E
100
AcDbEntity
  8
7
100
AcDbLine
 10
1.425867024789277
 20
5.608911414364484
 30
0.0
 11
1.425867024789277
 21
5.593163382868421
 31
0.0
  0
LINE
  5
1F01
330
1E
100
AcDbEntity
  8
7
100
AcDbLine
 10
0.0466019329257605
 20
5.543294616464223
 30
0.0
 11
0.0466019329257605
 21
5.612848422238501
 31
0.0
  0
LINE
  5
1F02
330
1E
100
AcDbEntity
  8
7
100
AcDbLine
 10
0.2539510142905899
 20
5.543294616464223
 30
0.0
 11
0.2539510142905899
 21
5.612848422238501
 31
0.0
  0
LINE
  5
1F03
330
1E
100
AcDbEntity
  8
7
100
AcDbLine
 10
0.9613000956554191
 20
5.601037398616454
 30
0.0
 11
0.9770481271514821
 21
5.615473094154511
 31
0.0
  0
LINE
  5
1F04
330
1E
100
AcDbEntity
  8
7
100
AcDbLine
 10
0.3641872347630306
 20
5.543294616464223
 30
0.0
 11
0.3930586258391466
 21
5.543294616464223
 31
0.0
  0
LINE
  5
1F05
330
1E
100
AcDbEntity
  8
7
100
AcDbLine
 10
1.330066499854894
 20
5.585289367120391
 30
0.0
 11
1.344502195392952
 21
5.570853671582333
 31
0.0
  0
LINE
  5
1F06
330
1E
100
AcDbEntity
  8
7
100
AcDbLine
 10
0.1988329040543695
 20
5.543294616464223
 30
0.0
 11
0.1988329040543695
 21
5.612848422238501
 31
0.0
  0
LINE
  5
1F07
330
1E
100
AcDbEntity
  8
7
100
AcDbLine
 10
1.264449701954631
 20
5.570853671582333
 30
0.0
 11
1.264449701954631
 21
5.585289367120391
 31
0.0
  0
LINE
  5
1F08
330
1E
100
AcDbEntity
  8
7
100
AcDbLine
 10
1.299882772820773
 20
5.541982280506217
 30
0.0
 11
1.285447077282715
 21
5.556417976044275
 31
0.0
  0
LINE
  5
1F09
330
1E
100
AcDbEntity
  8
7
100
AcDbLine
 10
0.1502764736081756
 20
5.612848422238501
 30
0.0
 11
0.1778355287262849
 21
5.543294616464223
 31
0.0
  0
LINE
  5
1F0A
330
1E
100
AcDbEntity
  8
7
100
AcDbLine
 10
0.4481767360753662
 20
5.543294616464223
 30
0.0
 11
0.4626124316134242
 21
5.543294616464223
 31
0.0
  0
LINE
  5
1F0B
330
1E
100
AcDbEntity
  8
7
100
AcDbLine
 10
1.330066499854894
 20
5.541982280506217
 30
0.0
 11
1.299882772820773
 21
5.541982280506217
 31
0.0
  0
LINE
  5
1F0C
330
1E
100
AcDbEntity
  8
7
100
AcDbLine
 10
0.3930586258391466
 20
5.543294616464223
 30
0.0
 11
0.4074943213772038
 21
5.55773031200228
 31
0.0
  0
LINE
  5
1F0D
330
1E
100
AcDbEntity
  8
7
100
AcDbLine
 10
0.9613000956554191
 20
5.556417976044275
 30
0.0
 11
0.9613000956554191
 21
5.601037398616454
 31
0.0
  0
LINE
  5
1F0E
330
1E
100
AcDbEntity
  8
7
100
AcDbLine
 10
1.22639195917248
 20
5.541982280506217
 30
0.0
 11
1.240827654710537
 21
5.541982280506217
 31
0.0
  0
LINE
  5
1F0F
330
1E
100
AcDbEntity
  8
7
100
AcDbLine
 10
0.0885966835819288
 20
5.612848422238501
 30
0.0
 11
0.1017200431619818
 21
5.606286742448475
 31
0.0
  0
LINE
  5
1F10
330
1E
100
AcDbEntity
  8
7
100
AcDbLine
 10
0.2749483896186744
 20
5.543294616464223
 30
0.0
 11
0.3156308043168368
 21
5.543294616464223
 31
0.0
  0
LINE
  5
1F11
330
1E
100
AcDbEntity
  8
7
100
AcDbLine
 10
0.4481767360753662
 20
5.612848422238501
 30
0.0
 11
0.4626124316134242
 21
5.612848422238501
 31
0.0
  0
LINE
  5
1F12
330
1E
100
AcDbEntity
  8
7
100
AcDbLine
 10
1.205394583844396
 20
5.570853671582333
 30
0.0
 11
1.211956263634422
 21
5.549856296254249
 31
0.0
  0
LINE
  5
1F13
330
1E
100
AcDbEntity
  8
7
100
AcDbLine
 10
0.5321662373877026
 20
5.612848422238501
 30
0.0
 11
0.5321662373877026
 21
5.543294616464223
 31
0.0
  0
LINE
  5
1F14
330
1E
100
AcDbEntity
  8
7
100
AcDbLine
 10
1.264449701954631
 20
5.585289367120391
 30
0.0
 11
1.2565756862066
 21
5.608911414364484
 31
0.0
  0
LINE
  5
1F15
330
1E
100
AcDbEntity
  8
7
100
AcDbLine
 10
1.344502195392952
 20
5.570853671582333
 30
0.0
 11
1.344502195392952
 21
5.556417976044275
 31
0.0
  0
LINE
  5
1F16
330
1E
100
AcDbEntity
  8
7
100
AcDbLine
 10
0.1371531140281226
 20
5.578727687330363
 30
0.0
 11
0.1647121691462337
 21
5.578727687330363
 31
0.0
  0
LINE
  5
1F17
330
1E
100
AcDbEntity
  8
7
100
AcDbLine
 10
0.3156308043168368
 20
5.543294616464223
 30
0.0
 11
0.3313788358128997
 21
5.55773031200228
 31
0.0
  0
LINE
  5
1F18
330
1E
100
AcDbEntity
  8
7
100
AcDbLine
 10
1.425867024789277
 20
5.593163382868421
 30
0.0
 11
1.366811906679041
 21
5.556417976044275
 31
0.0
  0
LINE
  5
1F19
330
1E
100
AcDbEntity
  8
7
100
AcDbLine
 10
1.005919518227598
 20
5.541982280506217
 30
0.0
 11
0.9770481271514821
 21
5.541982280506217
 31
0.0
  0
LINE
  5
1F1A
330
1E
100
AcDbEntity
  8
7
100
AcDbLine
 10
0.3510638751829784
 20
5.612848422238501
 30
0.0
 11
0.3510638751829784
 21
5.55773031200228
 31
0.0
  0
LINE
  5
1F1B
330
1E
100
AcDbEntity
  8
7
100
AcDbLine
 10
0.1227174184900654
 20
5.543294616464223
 30
0.0
 11
0.1502764736081756
 21
5.612848422238501
 31
0.0
  0
LINE
  5
1F21
330
1E
100
AcDbEntity
  8
7
100
AcDbLine
 10
1.240827654710537
 20
5.615473094154511
 30
0.0
 11
1.22639195917248
 21
5.615473094154511
 31
0.0
  0
LINE
  5
1F22
330
1E
100
AcDbEntity
  8
7
100
AcDbLine
 10
1.079410331875891
 20
5.585289367120391
 30
0.0
 11
1.042664925051744
 21
5.585289367120391
 31
0.0
  0
LINE
  5
1F23
330
1E
100
AcDbEntity
  8
7
100
AcDbLine
 10
1.285447077282715
 20
5.556417976044275
 30
0.0
 11
1.285447077282715
 21
5.601037398616454
 31
0.0
  0
LINE
  5
1F24
330
1E
100
AcDbEntity
  8
7
100
AcDbLine
 10
1.330066499854894
 20
5.615473094154511
 30
0.0
 11
1.344502195392952
 21
5.601037398616454
 31
0.0
  0
LINE
  5
1F25
330
1E
100
AcDbEntity
  8
7
100
AcDbLine
 10
0.4560507518233985
 20
5.612848422238501
 30
0.0
 11
0.4560507518233985
 21
5.543294616464223
 31
0.0
  0
LINE
  5
1F26
330
1E
100
AcDbEntity
  8
7
100
AcDbLine
 10
0.9770481271514821
 20
5.541982280506217
 30
0.0
 11
0.9613000956554191
 21
5.556417976044275
 31
0.0
  0
LINE
  5
1F27
330
1E
100
AcDbEntity
  8
7
100
AcDbLine
 10
0.3313788358128997
 20
5.599725062658448
 30
0.0
 11
0.3156308043168368
 21
5.612848422238501
 31
0.0
  0
LINE
  5
1F28
330
1E
100
AcDbEntity
  8
7
100
AcDbLine
 10
1.299882772820773
 20
5.615473094154511
 30
0.0
 11
1.330066499854894
 21
5.615473094154511
 31
0.0
  0
LINE
  5
1F29
330
1E
100
AcDbEntity
  8
7
100
AcDbLine
 10
1.381247602217098
 20
5.615473094154511
 30
0.0
 11
1.411431329251219
 21
5.615473094154511
 31
0.0
  0
LINE
  5
1F2A
330
1E
100
AcDbEntity
  8
7
100
AcDbLine
 10
1.147651801692164
 20
5.608911414364484
 30
0.0
 11
1.152901145524185
 21
5.615473094154511
 31
0.0
  0
LINE
  5
1F2B
330
1E
100
AcDbEntity
  8
7
100
AcDbLine
 10
1.285447077282715
 20
5.601037398616454
 30
0.0
 11
1.299882772820773
 21
5.615473094154511
 31
0.0
  0
LINE
  5
1F2C
330
1E
100
AcDbEntity
  8
7
100
AcDbLine
 10
1.299882772820773
 20
5.585289367120391
 30
0.0
 11
1.330066499854894
 21
5.585289367120391
 31
0.0
  0
LINE
  5
1F2D
330
1E
100
AcDbEntity
  8
7
100
AcDbLine
 10
0.0872843476239238
 20
5.578727687330363
 30
0.0
 11
0.0466019329257605
 21
5.578727687330363
 31
0.0
  0
LINE
  5
1F2E
330
1E
100
AcDbEntity
  8
7
100
AcDbLine
 10
1.042664925051744
 20
5.615473094154511
 30
0.0
 11
1.10172004316198
 21
5.615473094154511
 31
0.0
  0
LINE
  5
1F2F
330
1E
100
AcDbEntity
  8
7
100
AcDbLine
 10
1.285447077282715
 20
5.570853671582333
 30
0.0
 11
1.299882772820773
 21
5.585289367120391
 31
0.0
  0
LINE
  5
1F30
330
1E
100
AcDbEntity
  8
7
100
AcDbLine
 10
1.240827654710537
 20
5.541982280506217
 30
0.0
 11
1.2565756862066
 21
5.549856296254249
 31
0.0
  0
LINE
  5
1F31
330
1E
100
AcDbEntity
  8
7
100
AcDbLine
 10
0.5597252925058127
 20
5.612848422238501
 30
0.0
 11
0.5046071822695924
 21
5.612848422238501
 31
0.0
  0
LINE
  5
1F32
330
1E
100
AcDbEntity
  8
7
100
AcDbLine
 10
1.143714793818149
 20
5.541982280506217
 30
0.0
 11
1.162087497230222
 21
5.541982280506217
 31
0.0
  0
LINE
  5
1F33
330
1E
100
AcDbEntity
  8
7
100
AcDbLine
 10
1.22639195917248
 20
5.615473094154511
 30
0.0
 11
1.211956263634422
 21
5.608911414364484
 31
0.0
  0
LINE
  5
1F34
330
1E
100
AcDbEntity
  8
7
100
AcDbLine
 10
0.3156308043168368
 20
5.612848422238501
 30
0.0
 11
0.2749483896186744
 21
5.612848422238501
 31
0.0
  0
LINE
  5
1F35
330
1E
100
AcDbEntity
  8
7
100
AcDbLine
 10
1.411431329251219
 20
5.615473094154511
 30
0.0
 11
1.425867024789277
 21
5.608911414364484
 31
0.0
  0
LINE
  5
1F36
330
1E
100
AcDbEntity
  8
7
100
AcDbLine
 10
1.211956263634422
 20
5.608911414364484
 30
0.0
 11
1.20408224788639
 21
5.585289367120391
 31
0.0
  0
LINE
  5
1F37
330
1E
100
AcDbEntity
  8
7
100
AcDbLine
 10
0.4074943213772038
 20
5.55773031200228
 30
0.0
 11
0.4074943213772038
 21
5.612848422238501
 31
0.0
  0
LINE
  5
1F38
330
1E
100
AcDbEntity
  8
7
100
AcDbLine
 10
1.344502195392952
 20
5.556417976044275
 30
0.0
 11
1.330066499854894
 21
5.541982280506217
 31
0.0
  0
LINE
  5
1F39
330
1E
100
AcDbEntity
  8
7
100
AcDbLine
 10
1.020355213765656
 20
5.556417976044275
 30
0.0
 11
1.005919518227598
 21
5.541982280506217
 31
0.0
  0
LINE
  5
1F3A
330
1E
100
AcDbEntity
  8
7
100
AcDbLine
 10
1.211956263634422
 20
5.549856296254249
 30
0.0
 11
1.22639195917248
 21
5.541982280506217
 31
0.0
  0
LINE
  5
1F3B
330
1E
100
AcDbEntity
  8
7
100
AcDbLine
 10
0.3510638751829784
 20
5.55773031200228
 30
0.0
 11
0.3641872347630306
 21
5.543294616464223
 31
0.0
  0
LINE
  5
1F3C
330
1E
100
AcDbEntity
  8
7
100
AcDbLine
 10
1.2565756862066
 20
5.549856296254249
 30
0.0
 11
1.264449701954631
 21
5.570853671582333
 31
0.0
  0
LINE
  5
1F3D
330
1E
100
AcDbEntity
  8
7
100
AcDbLine
 10
1.366811906679041
 20
5.608911414364484
 30
0.0
 11
1.381247602217098
 21
5.615473094154511
 31
0.0
  0
LINE
  5
1F3E
330
1E
100
AcDbEntity
  8
7
100
AcDbLine
 10
0.3313788358128997
 20
5.55773031200228
 30
0.0
 11
0.3313788358128997
 21
5.599725062658448
 31
0.0
  0
LINE
  5
1F3F
330
1E
100
AcDbEntity
  8
7
100
AcDbLine
 10
1.2565756862066
 20
5.608911414364484
 30
0.0
 11
1.240827654710537
 21
5.615473094154511
 31
0.0
  0
LINE
  5
1F40
330
1E
100
AcDbEntity
  8
7
100
AcDbLine
 10
0.1017200431619818
 20
5.585289367120391
 30
0.0
 11
0.0872843476239238
 21
5.578727687330363
 31
0.0
  0
LINE
  5
1F41
330
1E
100
AcDbEntity
  8
7
100
AcDbLine
 10
1.20408224788639
 20
5.585289367120391
 30
0.0
 11
1.205394583844396
 21
5.570853671582333
 31
0.0
  0
LINE
  5
1F42
330
1E
100
AcDbEntity
  8
7
100
AcDbLine
 10
1.042664925051744
 20
5.541982280506217
 30
0.0
 11
1.042664925051744
 21
5.615473094154511
 31
0.0
  0
LINE
  5
1F43
330
1E
100
AcDbEntity
  8
7
100
AcDbLine
 10
0.2749483896186744
 20
5.612848422238501
 30
0.0
 11
0.2749483896186744
 21
5.543294616464223
 31
0.0
  0
LINE
  5
1F44
330
1E
100
AcDbEntity
  8
7
100
AcDbLine
 10
1.005919518227598
 20
5.615473094154511
 30
0.0
 11
1.020355213765656
 21
5.601037398616454
 31
0.0
  0
LINE
  5
1F45
330
1E
100
AcDbEntity
  8
7
100
AcDbLine
 10
0.1988329040543695
 20
5.612848422238501
 30
0.0
 11
0.2539510142905899
 21
5.543294616464223
 31
0.0
  0
LINE
  5
1F46
330
1E
100
AcDbEntity
  8
7
100
AcDbLine
 10
0.9770481271514821
 20
5.615473094154511
 30
0.0
 11
1.005919518227598
 21
5.615473094154511
 31
0.0
  0
LINE
  5
1F47
330
1E
100
AcDbEntity
  8
7
100
AcDbLine
 10
0.1017200431619818
 20
5.606286742448475
 30
0.0
 11
0.1017200431619818
 21
5.585289367120391
 31
0.0
  0
LINE
  5
1F48
330
1E
100
AcDbEntity
  8
7
100
AcDbLine
 10
1.152901145524185
 20
5.615473094154511
 30
0.0
 11
1.152901145524185
 21
5.541982280506217
 31
0.0
  0
LINE
  5
1F49
330
1E
100
AcDbEntity
  8
7
100
AcDbLine
 10
0.0466019329257605
 20
5.612848422238501
 30
0.0
 11
0.0885966835819288
 21
5.612848422238501
 31
0.0
  0
LINE
  5
1F51
330
1E
100
AcDbEntity
  8
7
100
AcDbLine
 10
0.1030323791199867
 20
6.934370731949787
 30
0.0
 11
1.387809282007125
 21
6.934370731949787
 31
0.0
  0
LINE
  5
1F61
330
1E
100
AcDbEntity
  8
7
100
AcDbLine
 10
0.6253420904060754
 20
5.766391729325114
 30
0.0
 11
0.1030323791199867
 21
5.766391729325114
 31
0.0
  0
LINE
  5
1F62
330
1E
100
AcDbEntity
  8
7
100
AcDbLine
 10
0.6686491770202477
 20
5.780827424863172
 30
0.0
 11
0.6253420904060754
 21
5.766391729325114
 31
0.0
  0
LINE
  5
1F63
330
1E
100
AcDbEntity
  8
7
100
AcDbLine
 10
0.3799352662590936
 20
5.780827424863172
 30
0.0
 11
0.6686491770202477
 21
5.780827424863172
 31
0.0
  0
LINE
  5
1F79
330
1E
100
AcDbEntity
  8
7
100
AcDbLine
 10
1.110906394868017
 20
6.895000653209629
 30
0.0
 11
0.3799352662590936
 21
6.895000653209629
 31
0.0
  0
LINE
  5
1F8F
330
1E
100
AcDbEntity
  8
7
100
AcDbLine
 10
0.8221924841068624
 20
5.780827424863172
 30
0.0
 11
1.110906394868017
 21
5.780827424863172
 31
0.0
  0
LINE
  5
1F9C
330
1E
100
AcDbEntity
  8
7
100
AcDbLine
 10
1.446864400117361
 20
6.874003277881545
 30
0.0
 11
1.446864400117361
 21
5.825446847435351
 31
0.0
  0
LINE
  5
1FD1
330
1E
100
AcDbEntity
  8
7
100
AcDbLine
 10
1.109594058910012
 20
4.251956033787058
 30
0.0
 11
0.3812476022170985
 21
4.251956033787058
 31
0.0
  0
LINE
  5
1FD2
330
1E
100
AcDbEntity
  8
7
100
AcDbLine
 10
0.3812476022170985
 20
5.362192254259499
 30
0.0
 11
1.109594058910012
 21
5.362192254259499
 31
0.0
  0
LINE
  5
1FF6
330
1E
100
AcDbEntity
  8
7
100
AcDbLine
 10
0.3812476022170985
 20
4.251956033787058
 30
0.0
 11
0.3799352662590936
 21
4.250643697829052
 31
0.0
  0
LINE
  5
1FF7
330
1E
100
AcDbEntity
  8
7
100
AcDbLine
 10
0.3799352662590936
 20
5.363504590217504
 30
0.0
 11
0.3812476022170985
 21
5.362192254259499
 31
0.0
  0
LINE
  5
2013
330
1E
100
AcDbEntity
  8
7
100
AcDbLine
 10
0.6686491770202477
 20
5.363504590217504
 30
0.0
 11
0.6686491770202477
 21
5.364816926175508
 31
0.0
  0
LINE
  5
2014
330
1E
100
AcDbEntity
  8
7
100
AcDbLine
 10
0.6686491770202477
 20
5.363504590217504
 30
0.0
 11
0.3799352662590936
 21
5.363504590217504
 31
0.0
  0
LINE
  5
2015
330
1E
100
AcDbEntity
  8
7
100
AcDbLine
 10
0.3799352662590936
 20
4.250643697829052
 30
0.0
 11
1.110906394868017
 21
4.250643697829052
 31
0.0
  0
LINE
  5
2016
330
1E
100
AcDbEntity
  8
7
100
AcDbLine
 10
0.7408276547105368
 20
5.71521062696291
 30
0.0
 11
0.7500140064165742
 21
5.71521062696291
 31
0.0
  0
LINE
  5
2049
330
1E
100
AcDbEntity
  8
7
100
AcDbLine
 10
0.6253420904060754
 20
5.379252621713566
 30
0.0
 11
0.6253420904060754
 21
5.380564957671571
 31
0.0
  0
LINE
  5
204A
330
1E
100
AcDbEntity
  8
7
100
AcDbLine
 10
0.6253420904060754
 20
5.379252621713566
 30
0.0
 11
0.6686491770202477
 21
5.363504590217504
 31
0.0
  0
LINE
  5
204B
330
1E
100
AcDbEntity
  8
7
100
AcDbLine
 10
0.6253420904060754
 20
5.380564957671571
 30
0.0
 11
0.6686491770202477
 21
5.364816926175508
 31
0.0
  0
LINE
  5
204C
330
1E
100
AcDbEntity
  8
7
100
AcDbLine
 10
0.6253420904060754
 20
5.379252621713566
 30
0.0
 11
0.1030323791199867
 21
5.379252621713566
 31
0.0
  0
LINE
  5
204D
330
1E
100
AcDbEntity
  8
7
100
AcDbLine
 10
0.6253420904060754
 20
5.380564957671571
 30
0.0
 11
0.1017200431619818
 21
5.380564957671571
 31
0.0
  0
LINE
  5
204E
330
1E
100
AcDbEntity
  8
7
100
AcDbLine
 10
0.1030323791199867
 20
5.379252621713566
 30
0.0
 11
0.1017200431619818
 21
5.380564957671571
 31
0.0
  0
LINE
  5
205F
330
1E
100
AcDbEntity
  8
7
100
AcDbLine
 10
0.0426649250517448
 20
5.32019750360333
 30
0.0
 11
0.0426649250517448
 21
4.271641073157136
 31
0.0
  0
LINE
  5
2067
330
1E
100
AcDbEntity
  8
7
100
AcDbLine
 10
0.1017200431619818
 20
5.765079393367109
 30
0.0
 11
0.1030323791199867
 21
5.766391729325114
 31
0.0
  0
LINE
  5
2068
330
1E
100
AcDbEntity
  8
7
100
AcDbLine
 10
0.1017200431619818
 20
5.765079393367109
 30
0.0
 11
0.6253420904060754
 21
5.765079393367109
 31
0.0
  0
LINE
  5
206E
330
1E
100
AcDbEntity
  8
7
100
AcDbLine
 10
0.8221924841068624
 20
5.780827424863172
 30
0.0
 11
0.8208801481488574
 21
5.780827424863172
 31
0.0
  0
LINE
  5
2077
330
1E
100
AcDbEntity
  8
7
100
AcDbLine
 10
0.6686491770202477
 20
5.780827424863172
 30
0.0
 11
0.8208801481488574
 21
5.780827424863172
 31
0.0
  0
LINE
  5
2084
330
1E
100
AcDbEntity
  8
7
100
AcDbLine
 10
1.446864400117361
 20
5.32019750360333
 30
0.0
 11
1.446864400117361
 21
4.271641073157136
 31
0.0
  0
LINE
  5
208F
330
1E
100
AcDbEntity
  8
7
100
AcDbLine
 10
0.8641872347630306
 20
5.379252621713566
 30
0.0
 11
1.387809282007125
 21
5.379252621713566
 31
0.0
  0
LINE
  5
2090
330
1E
100
AcDbEntity
  8
7
100
AcDbLine
 10
0.8641872347630306
 20
5.379252621713566
 30
0.0
 11
0.8221924841068624
 21
5.363504590217504
 31
0.0
  0
LINE
  5
2096
330
1E
100
AcDbEntity
  8
7
100
AcDbLine
 10
1.387809282007125
 20
5.379252621713566
 30
0.0
 11
1.387809282007125
 21
5.380564957671571
 31
0.0
  0
LINE
  5
2097
330
1E
100
AcDbEntity
  8
7
100
AcDbLine
 10
0.8641872347630306
 20
5.380564957671571
 30
0.0
 11
1.387809282007125
 21
5.380564957671571
 31
0.0
  0
LINE
  5
2098
330
1E
100
AcDbEntity
  8
7
100
AcDbLine
 10
1.448176736075367
 20
5.32019750360333
 30
0.0
 11
1.446864400117361
 21
5.32019750360333
 31
0.0
  0
LINE
  5
20A7
330
1E
100
AcDbEntity
  8
7
100
AcDbLine
 10
1.446864400117361
 20
5.825446847435351
 30
0.0
 11
1.448176736075367
 21
5.825446847435351
 31
0.0
  0
LINE
  5
20A8
330
1E
100
AcDbEntity
  8
7
100
AcDbLine
 10
1.387809282007125
 20
5.765079393367109
 30
0.0
 11
1.387809282007125
 21
5.766391729325114
 31
0.0
  0
LINE
  5
20A9
330
1E
100
AcDbEntity
  8
7
100
AcDbLine
 10
0.8641872347630306
 20
5.766391729325114
 30
0.0
 11
0.8641872347630306
 21
5.765079393367109
 31
0.0
  0
LINE
  5
20B4
330
1E
100
AcDbEntity
  8
7
100
AcDbLine
 10
1.448176736075367
 20
5.32019750360333
 30
0.0
 11
1.448176736075367
 21
4.270328737199131
 31
0.0
  0
LINE
  5
20B5
330
1E
100
AcDbEntity
  8
7
100
AcDbLine
 10
1.446864400117361
 20
4.271641073157136
 30
0.0
 11
1.448176736075367
 21
4.270328737199131
 31
0.0
  0
LINE
  5
20B6
330
1E
100
AcDbEntity
  8
7
100
AcDbLine
 10
1.387809282007125
 20
4.20996128313089
 30
0.0
 11
1.387809282007125
 21
4.211273619088895
 31
0.0
  0
LINE
  5
20E2
330
1E
100
AcDbEntity
  8
7
100
AcDbLine
 10
1.432428704579304
 20
4.102349734574459
 30
0.0
 11
1.246076998542558
 21
4.102349734574459
 31
0.0
  0
LINE
  5
20EE
330
1E
100
AcDbEntity
  8
7
100
AcDbLine
 10
1.183084872558306
 20
3.897625325125641
 30
0.0
 11
1.183084872558306
 21
3.901562332999656
 31
0.0
  0
LINE
  5
20F4
330
1E
100
AcDbEntity
  8
7
100
AcDbLine
 10
1.201457575970379
 20
3.896312989167634
 30
0.0
 11
1.187021880432322
 21
3.897625325125641
 31
0.0
  0
LINE
  5
210D
330
1E
100
AcDbEntity
  8
7
100
AcDbLine
 10
0.9836098069415086
 20
3.694213251634827
 30
0.0
 11
0.9849221428995136
 21
3.679777556096769
 31
0.0
  0
LINE
  5
2114
330
1E
100
AcDbEntity
  8
7
100
AcDbLine
 10
0.9796727990674929
 20
3.698150259508842
 30
0.0
 11
0.9836098069415086
 21
3.698150259508842
 31
0.0
  0
LINE
  5
211B
330
1E
100
AcDbEntity
  8
7
100
AcDbLine
 10
0.5072318541856032
 20
3.698150259508842
 30
0.0
 11
0.511168862059618
 21
3.698150259508842
 31
0.0
  0
LINE
  5
2128
330
1E
100
AcDbEntity
  8
7
100
AcDbLine
 10
0.5059195182275973
 20
3.694213251634827
 30
0.0
 11
0.5046071822695924
 21
3.679777556096769
 31
0.0
  0
LINE
  5
2141
330
1E
100
AcDbEntity
  8
7
100
AcDbLine
 10
0.2880717491987266
 20
3.896312989167634
 30
0.0
 11
0.3038197806947895
 21
3.897625325125641
 31
0.0
  0
LINE
  5
2142
330
1E
100
AcDbEntity
  8
7
100
AcDbLine
 10
0.3077567885688053
 20
3.901562332999656
 30
0.0
 11
0.3077567885688053
 21
3.897625325125641
 31
0.0
  0
LINE
  5
214E
330
1E
100
AcDbEntity
  8
7
100
AcDbLine
 10
0.2447646625845534
 20
4.102349734574459
 30
0.0
 11
0.0584129565478078
 21
4.102349734574459
 31
0.0
  0
LINE
  5
214F
330
1E
100
AcDbEntity
  8
7
100
AcDbLine
 10
0.7906964211147365
 20
3.775578081031152
 30
0.0
 11
0.8313788358128997
 21
3.780827424863173
 31
0.0
  0
LINE
  5
216D
330
1E
100
AcDbEntity
  8
7
100
AcDbLine
 10
0.7906964211147365
 20
4.087914039036401
 30
0.0
 11
0.7906964211147365
 21
4.089226374994406
 31
0.0
  0
LINE
  5
216E
330
1E
100
AcDbEntity
  8
7
100
AcDbLine
 10
0.7001452400123754
 20
3.775578081031152
 30
0.0
 11
0.7906964211147365
 21
3.775578081031152
 31
0.0
  0
LINE
  5
216F
330
1E
100
AcDbEntity
  8
7
100
AcDbLine
 10
0.7906964211147365
 20
3.775578081031152
 30
0.0
 11
0.7001452400123754
 21
3.775578081031152
 31
0.0
  0
LINE
  5
2182
330
1E
100
AcDbEntity
  8
7
100
AcDbLine
 10
0.7001452400123754
 20
4.087914039036401
 30
0.0
 11
0.7001452400123754
 21
4.089226374994406
 31
0.0
  0
LINE
  5
2192
330
1E
100
AcDbEntity
  8
7
100
AcDbLine
 10
0.7001452400123754
 20
4.087914039036401
 30
0.0
 11
0.7906964211147365
 21
4.087914039036401
 31
0.0
  0
LINE
  5
2193
330
1E
100
AcDbEntity
  8
7
100
AcDbLine
 10
0.7001452400123754
 20
4.089226374994406
 30
0.0
 11
0.7906964211147365
 21
4.089226374994406
 31
0.0
  0
LINE
  5
2194
330
1E
100
AcDbEntity
  8
7
100
AcDbLine
 10
0.3064444526108003
 20
3.918622700453725
 30
0.0
 11
0.5282292295136868
 21
3.698150259508842
 31
0.0
  0
LINE
  5
2195
330
1E
100
AcDbEntity
  8
7
100
AcDbLine
 10
0.511168862059618
 20
3.698150259508842
 30
0.0
 11
0.3077567885688053
 21
3.901562332999656
 31
0.0
  0
LINE
  5
2196
330
1E
100
AcDbEntity
  8
7
100
AcDbLine
 10
0.9626124316134241
 20
3.698150259508842
 30
0.0
 11
1.183084872558306
 21
3.918622700453725
 31
0.0
  0
LINE
  5
2197
330
1E
100
AcDbEntity
  8
7
100
AcDbLine
 10
0.9796727990674929
 20
3.698150259508842
 30
0.0
 11
1.183084872558306
 21
3.901562332999656
 31
0.0
  0
LINE
  5
2198
330
1E
100
AcDbEntity
  8
7
100
AcDbLine
 10
0.6371531140281226
 20
3.981614826437977
 30
0.0
 11
0.8536885470989883
 21
3.981614826437977
 31
0.0
  0
LINE
  5
2199
330
1E
100
AcDbEntity
  8
7
100
AcDbLine
 10
0.8536885470989883
 20
3.883189629587583
 30
0.0
 11
0.6371531140281226
 21
3.883189629587583
 31
0.0
  0
LINE
  5
219A
330
1E
100
AcDbEntity
  8
7
100
AcDbLine
 10
0.9836098069415086
 20
3.698150259508842
 30
0.0
 11
1.183084872558306
 21
3.897625325125641
 31
0.0
  0
LINE
  5
219B
330
1E
100
AcDbEntity
  8
7
100
AcDbLine
 10
0.9836098069415086
 20
3.694213251634827
 30
0.0
 11
1.187021880432322
 21
3.897625325125641
 31
0.0
  0
LINE
  5
219C
330
1E
100
AcDbEntity
  8
7
100
AcDbLine
 10
0.9849221428995136
 20
3.679777556096769
 30
0.0
 11
1.201457575970379
 21
3.896312989167634
 31
0.0
  0
LINE
  5
219D
330
1E
100
AcDbEntity
  8
7
100
AcDbLine
 10
0.5072318541856032
 20
3.698150259508842
 30
0.0
 11
0.3077567885688053
 21
3.897625325125641
 31
0.0
  0
LINE
  5
219E
330
1E
100
AcDbEntity
  8
7
100
AcDbLine
 10
0.5059195182275973
 20
3.694213251634827
 30
0.0
 11
0.3038197806947895
 21
3.897625325125641
 31
0.0
  0
LINE
  5
219F
330
1E
100
AcDbEntity
  8
7
100
AcDbLine
 10
0.2880717491987266
 20
3.896312989167634
 30
0.0
 11
0.5046071822695924
 21
3.679777556096769
 31
0.0
  0
LINE
  5
21A0
330
1E
100
AcDbEntity
  8
7
100
AcDbLine
 10
1.495420830563555
 20
6.980302490479969
 30
0.0
 11
1.495420830563555
 21
4.165341860558711
 31
0.0
  0
LINE
  5
21A7
330
1E
100
AcDbEntity
  8
7
100
AcDbLine
 10
1.246076998542558
 20
7.043294616464223
 30
0.0
 11
1.432428704579304
 21
7.043294616464223
 31
0.0
  0
LINE
  5
21A8
330
1E
100
AcDbEntity
  8
7
100
AcDbLine
 10
1.184397208516311
 20
7.104974406490468
 30
0.0
 11
1.192271224264343
 21
7.074790679456349
 31
0.0
  0
LINE
  5
21B3
330
1E
100
AcDbEntity
  8
7
100
AcDbLine
 10
0.5282292295136868
 20
7.447494091529838
 30
0.0
 11
0.9626124316134241
 21
7.447494091529838
 31
0.0
  0
LINE
  5
21BF
330
1E
100
AcDbEntity
  8
7
100
AcDbLine
 10
0.0584129565478078
 20
7.043294616464223
 30
0.0
 11
0.2447646625845534
 21
7.043294616464223
 31
0.0
  0
LINE
  5
21C6
330
1E
100
AcDbEntity
  8
7
100
AcDbLine
 10
-0.0045791694364441
 20
6.980302490479969
 30
0.0
 11
-0.0045791694364441
 21
4.165341860558711
 31
0.0
  0
LINE
  5
21D4
330
1E
100
AcDbEntity
  8
7
100
AcDbLine
 10
0.7906964211147365
 20
7.370066270007528
 30
0.0
 11
0.7001452400123754
 21
7.370066270007528
 31
0.0
  0
LINE
  5
21E7
330
1E
100
AcDbEntity
  8
7
100
AcDbLine
 10
0.7001452400123754
 20
7.056417976044274
 30
0.0
 11
0.7906964211147365
 21
7.056417976044274
 31
0.0
  0
LINE
  5
21FA
330
1E
100
AcDbEntity
  8
7
100
AcDbLine
 10
0.0426649250517448
 20
6.874003277881545
 30
0.0
 11
0.0426649250517448
 21
6.87531561383955
 31
0.0
  0
LINE
  5
21FB
330
1E
100
AcDbEntity
  8
7
100
AcDbLine
 10
0.1017200431619818
 20
6.934370731949787
 30
0.0
 11
0.1030323791199867
 21
6.934370731949787
 31
0.0
  0
LINE
  5
21FC
330
1E
100
AcDbEntity
  8
7
100
AcDbLine
 10
0.3077567885688053
 20
7.244082018039025
 30
0.0
 11
0.3064444526108003
 21
7.227021650584957
 31
0.0
  0
LINE
  5
21FD
330
1E
100
AcDbEntity
  8
7
100
AcDbLine
 10
0.3077567885688053
 20
7.244082018039025
 30
0.0
 11
0.3077567885688053
 21
7.248019025913041
 31
0.0
  0
LINE
  5
2204
330
1E
100
AcDbEntity
  8
7
100
AcDbLine
 10
0.2880717491987266
 20
7.249331361871046
 30
0.0
 11
0.3038197806947895
 21
7.248019025913041
 31
0.0
  0
LINE
  5
2205
330
1E
100
AcDbEntity
  8
7
100
AcDbLine
 10
0.5046071822695924
 20
7.465866794941913
 30
0.0
 11
0.4914838226895402
 21
7.509173881556085
 31
0.0
  0
LINE
  5
221D
330
1E
100
AcDbEntity
  8
7
100
AcDbLine
 10
0.5059195182275973
 20
7.451431099403855
 30
0.0
 11
0.5046071822695924
 21
7.465866794941913
 31
0.0
  0
LINE
  5
2224
330
1E
100
AcDbEntity
  8
7
100
AcDbLine
 10
0.9626124316134241
 20
7.447494091529838
 30
0.0
 11
0.9796727990674929
 21
7.447494091529838
 31
0.0
  0
LINE
  5
2225
330
1E
100
AcDbEntity
  8
7
100
AcDbLine
 10
0.9836098069415086
 20
7.447494091529838
 30
0.0
 11
0.9796727990674929
 21
7.447494091529838
 31
0.0
  0
LINE
  5
2226
330
1E
100
AcDbEntity
  8
7
100
AcDbLine
 10
0.511168862059618
 20
7.447494091529838
 30
0.0
 11
0.5072318541856032
 21
7.447494091529838
 31
0.0
  0
LINE
  5
2227
330
1E
100
AcDbEntity
  8
7
100
AcDbLine
 10
0.511168862059618
 20
7.447494091529838
 30
0.0
 11
0.5282292295136868
 21
7.447494091529838
 31
0.0
  0
LINE
  5
224C
330
1E
100
AcDbEntity
  8
7
100
AcDbLine
 10
1.201457575970379
 20
7.249331361871046
 30
0.0
 11
1.187021880432322
 21
7.248019025913041
 31
0.0
  0
LINE
  5
224D
330
1E
100
AcDbEntity
  8
7
100
AcDbLine
 10
1.183084872558306
 20
7.227021650584957
 30
0.0
 11
1.183084872558306
 21
7.244082018039025
 31
0.0
  0
LINE
  5
224E
330
1E
100
AcDbEntity
  8
7
100
AcDbLine
 10
1.183084872558306
 20
7.248019025913041
 30
0.0
 11
1.183084872558306
 21
7.244082018039025
 31
0.0
  0
LINE
  5
225B
330
1E
100
AcDbEntity
  8
7
100
AcDbLine
 10
0.9796727990674929
 20
7.447494091529838
 30
0.0
 11
1.183084872558306
 21
7.244082018039025
 31
0.0
  0
LINE
  5
225C
330
1E
100
AcDbEntity
  8
7
100
AcDbLine
 10
0.511168862059618
 20
7.447494091529838
 30
0.0
 11
0.3077567885688053
 21
7.244082018039025
 31
0.0
  0
LINE
  5
225D
330
1E
100
AcDbEntity
  8
7
100
AcDbLine
 10
0.7001452400123754
 20
7.370066270007528
 30
0.0
 11
0.7906964211147365
 21
7.370066270007528
 31
0.0
  0
LINE
  5
2270
330
1E
100
AcDbEntity
  8
7
100
AcDbLine
 10
0.7001452400123754
 20
7.056417976044274
 30
0.0
 11
0.7906964211147365
 21
7.056417976044274
 31
0.0
  0
LINE
  5
2283
330
1E
100
AcDbEntity
  8
7
100
AcDbLine
 10
0.5072318541856032
 20
7.447494091529838
 30
0.0
 11
0.3077567885688053
 21
7.248019025913041
 31
0.0
  0
LINE
  5
2284
330
1E
100
AcDbEntity
  8
7
100
AcDbLine
 10
0.5059195182275973
 20
7.451431099403855
 30
0.0
 11
0.3038197806947895
 21
7.248019025913041
 31
0.0
  0
LINE
  5
228A
330
1E
100
AcDbEntity
  8
7
100
AcDbLine
 10
0.5046071822695924
 20
7.465866794941913
 30
0.0
 11
0.2880717491987266
 21
7.249331361871046
 31
0.0
  0
LINE
  5
228B
330
1E
100
AcDbEntity
  8
7
100
AcDbLine
 10
0.9836098069415086
 20
7.447494091529838
 30
0.0
 11
1.183084872558306
 21
7.248019025913041
 31
0.0
  0
LINE
  5
228C
330
1E
100
AcDbEntity
  8
7
100
AcDbLine
 10
0.9836098069415086
 20
7.451431099403855
 30
0.0
 11
1.187021880432322
 21
7.248019025913041
 31
0.0
  0
LINE
  5
228D
330
1E
100
AcDbEntity
  8
7
100
AcDbLine
 10
1.201457575970379
 20
7.249331361871046
 30
0.0
 11
0.9849221428995136
 21
7.465866794941913
 31
0.0
  0
LINE
  5
228E
330
1E
100
AcDbEntity
  8
7
100
AcDbLine
 10
0.6371531140281226
 20
7.164029524600705
 30
0.0
 11
0.8536885470989883
 21
7.164029524600705
 31
0.0
  0
LINE
  5
228F
330
1E
100
AcDbEntity
  8
7
100
AcDbLine
 10
0.8536885470989883
 20
7.262454721451099
 30
0.0
 11
0.6371531140281226
 21
7.262454721451099
 31
0.0
  0
LINE
  5
22AA
330
1E
100
AcDbEntity
  8
7
100
AcDbLine
 10
0.3812476022170985
 20
6.893688317251625
 30
0.0
 11
1.109594058910012
 21
6.893688317251625
 31
0.0
  0
LINE
  5
22CE
330
1E
100
AcDbEntity
  8
7
100
AcDbLine
 10
0.3799352662590936
 20
6.895000653209629
 30
0.0
 11
0.3812476022170985
 21
6.893688317251625
 31
0.0
  0
LINE
  5
22CF
330
1E
100
AcDbEntity
  8
7
100
AcDbLine
 10
0.8484392032669676
 20
6.085289367120391
 30
0.0
 11
0.8484392032669676
 21
6.115473094154511
 31
0.0
  0
LINE
  5
22D5
330
1E
100
AcDbEntity
  8
7
100
AcDbLine
 10
0.8471268673089626
 20
6.032795928800181
 30
0.0
 11
0.8471268673089626
 21
6.048543960296244
 31
0.0
  0
LINE
  5
22DB
330
1E
100
AcDbEntity
  8
7
100
AcDbLine
 10
0.8720612505110629
 20
6.006549209640076
 30
0.0
 11
0.8484392032669676
 21
6.018360233262123
 31
0.0
  0
LINE
  5
22E6
330
1E
100
AcDbEntity
  8
7
100
AcDbLine
 10
0.6424024578601433
 20
6.085289367120391
 30
0.0
 11
0.8484392032669676
 21
6.085289367120391
 31
0.0
  0
LINE
  5
22E7
330
1E
100
AcDbEntity
  8
7
100
AcDbLine
 10
0.8484392032669676
 20
6.115473094154511
 30
0.0
 11
0.6424024578601433
 21
6.115473094154511
 31
0.0
  0
LINE
  5
22F2
330
1E
100
AcDbEntity
  8
7
100
AcDbLine
 10
0.8484392032669676
 20
6.018360233262123
 30
0.0
 11
0.6424024578601433
 21
6.018360233262123
 31
0.0
  0
LINE
  5
22F3
330
1E
100
AcDbEntity
  8
7
100
AcDbLine
 10
0.6424024578601433
 20
6.032795928800181
 30
0.0
 11
0.8471268673089626
 21
6.032795928800181
 31
0.0
  0
LINE
  5
22F4
330
1E
100
AcDbEntity
  8
7
100
AcDbLine
 10
0.8471268673089626
 20
6.048543960296244
 30
0.0
 11
0.6424024578601433
 21
6.048543960296244
 31
0.0
  0
LINE
  5
22F5
330
1E
100
AcDbEntity
  8
7
100
AcDbLine
 10
0.6581504893562063
 20
6.730958658458973
 30
0.0
 11
0.6581504893562063
 21
6.692900915676821
 31
0.0
  0
LINE
  5
22F6
330
1E
100
AcDbEntity
  8
7
100
AcDbLine
 10
0.6581504893562063
 20
6.730958658458973
 30
0.0
 11
0.8326911717709046
 21
6.730958658458973
 31
0.0
  0
LINE
  5
22F7
330
1E
100
AcDbEntity
  8
7
100
AcDbLine
 10
0.6581504893562063
 20
6.692900915676821
 30
0.0
 11
0.8326911717709046
 21
6.692900915676821
 31
0.0
  0
LINE
  5
22F8
330
1E
100
AcDbEntity
  8
7
100
AcDbLine
 10
0.8326911717709046
 20
6.730958658458973
 30
0.0
 11
0.8326911717709046
 21
6.692900915676821
 31
0.0
  0
LINE
  5
22F9
330
1E
100
AcDbEntity
  8
7
100
AcDbLine
 10
0.6424024578601433
 20
6.08004002328837
 30
0.0
 11
0.8484392032669676
 21
6.08004002328837
 31
0.0
  0
LINE
  5
22FA
330
1E
100
AcDbEntity
  8
7
100
AcDbLine
 10
1.058412956547807
 20
6.730958658458973
 30
0.0
 11
1.058412956547807
 21
6.070853671582333
 31
0.0
  0
LINE
  5
22FB
330
1E
100
AcDbEntity
  8
7
100
AcDbLine
 10
1.058412956547807
 20
6.730958658458973
 30
0.0
 11
0.8326911717709046
 21
6.730958658458973
 31
0.0
  0
LINE
  5
22FC
330
1E
100
AcDbEntity
  8
7
100
AcDbLine
 10
1.058412956547807
 20
6.732270994416978
 30
0.0
 11
1.058412956547807
 21
6.730958658458973
 31
0.0
  0
LINE
  5
22FD
330
1E
100
AcDbEntity
  8
7
100
AcDbLine
 10
0.4324287045793041
 20
6.732270994416978
 30
0.0
 11
0.4324287045793041
 21
6.730958658458973
 31
0.0
  0
LINE
  5
22FE
330
1E
100
AcDbEntity
  8
7
100
AcDbLine
 10
0.6581504893562063
 20
6.730958658458973
 30
0.0
 11
0.4324287045793041
 21
6.730958658458973
 31
0.0
  0
LINE
  5
22FF
330
1E
100
AcDbEntity
  8
7
100
AcDbLine
 10
1.058412956547807
 20
6.070853671582333
 30
0.0
 11
0.9901714867315352
 21
6.070853671582333
 31
0.0
  0
LINE
  5
2300
330
1E
100
AcDbEntity
  8
7
100
AcDbLine
 10
0.5006701743955766
 20
6.070853671582333
 30
0.0
 11
0.4324287045793041
 21
6.070853671582333
 31
0.0
  0
LINE
  5
2301
330
1E
100
AcDbEntity
  8
7
100
AcDbLine
 10
0.9901714867315352
 20
6.070853671582333
 30
0.0
 11
0.9901714867315352
 21
6.006549209640076
 31
0.0
  0
LINE
  5
2302
330
1E
100
AcDbEntity
  8
7
100
AcDbLine
 10
0.5006701743955766
 20
6.006549209640076
 30
0.0
 11
0.5006701743955766
 21
6.070853671582333
 31
0.0
  0
LINE
  5
2303
330
1E
100
AcDbEntity
  8
7
100
AcDbLine
 10
0.9901714867315352
 20
6.070853671582333
 30
0.0
 11
0.9914838226895401
 21
6.070853671582333
 31
0.0
  0
LINE
  5
2304
330
1E
100
AcDbEntity
  8
7
100
AcDbLine
 10
0.4993578384375717
 20
6.070853671582333
 30
0.0
 11
0.5006701743955766
 21
6.070853671582333
 31
0.0
  0
LINE
  5
2305
330
1E
100
AcDbEntity
  8
7
100
AcDbLine
 10
0.4324287045793041
 20
6.730958658458973
 30
0.0
 11
0.4324287045793041
 21
6.070853671582333
 31
0.0
  0
LINE
  5
2306
330
1E
100
AcDbEntity
  8
7
100
AcDbLine
 10
0.8484392032669676
 20
4.55510564008627
 30
0.0
 11
0.8484392032669676
 21
4.583977031162385
 31
0.0
  0
LINE
  5
230C
330
1E
100
AcDbEntity
  8
7
100
AcDbLine
 10
0.8471268673089626
 20
4.50261220176606
 30
0.0
 11
0.8471268673089626
 21
4.518360233262123
 31
0.0
  0
LINE
  5
2312
330
1E
100
AcDbEntity
  8
7
100
AcDbLine
 10
0.8720612505110629
 20
4.47505314664795
 30
0.0
 11
0.8484392032669676
 21
4.488176506228002
 31
0.0
  0
LINE
  5
231D
330
1E
100
AcDbEntity
  8
7
100
AcDbLine
 10
0.6424024578601433
 20
4.55510564008627
 30
0.0
 11
0.8484392032669676
 21
4.55510564008627
 31
0.0
  0
LINE
  5
231E
330
1E
100
AcDbEntity
  8
7
100
AcDbLine
 10
0.8484392032669676
 20
4.583977031162385
 30
0.0
 11
0.6424024578601433
 21
4.583977031162385
 31
0.0
  0
LINE
  5
2329
330
1E
100
AcDbEntity
  8
7
100
AcDbLine
 10
0.8484392032669676
 20
4.488176506228002
 30
0.0
 11
0.6424024578601433
 21
4.488176506228002
 31
0.0
  0
LINE
  5
232A
330
1E
100
AcDbEntity
  8
7
100
AcDbLine
 10
0.6424024578601433
 20
4.50261220176606
 30
0.0
 11
0.8471268673089626
 21
4.50261220176606
 31
0.0
  0
LINE
  5
232B
330
1E
100
AcDbEntity
  8
7
100
AcDbLine
 10
0.8471268673089626
 20
4.518360233262123
 30
0.0
 11
0.6424024578601433
 21
4.518360233262123
 31
0.0
  0
LINE
  5
232C
330
1E
100
AcDbEntity
  8
7
100
AcDbLine
 10
0.6581504893562063
 20
5.200774931424852
 30
0.0
 11
0.6581504893562063
 21
5.162717188642701
 31
0.0
  0
LINE
  5
232D
330
1E
100
AcDbEntity
  8
7
100
AcDbLine
 10
0.6581504893562063
 20
5.200774931424852
 30
0.0
 11
0.8326911717709046
 21
5.200774931424852
 31
0.0
  0
LINE
  5
232E
330
1E
100
AcDbEntity
  8
7
100
AcDbLine
 10
0.6581504893562063
 20
5.162717188642701
 30
0.0
 11
0.8326911717709046
 21
5.162717188642701
 31
0.0
  0
LINE
  5
232F
330
1E
100
AcDbEntity
  8
7
100
AcDbLine
 10
0.8326911717709046
 20
5.200774931424852
 30
0.0
 11
0.8326911717709046
 21
5.162717188642701
 31
0.0
  0
LINE
  5
2330
330
1E
100
AcDbEntity
  8
7
100
AcDbLine
 10
0.6424024578601433
 20
4.549856296254249
 30
0.0
 11
0.8484392032669676
 21
4.549856296254249
 31
0.0
  0
LINE
  5
2331
330
1E
100
AcDbEntity
  8
7
100
AcDbLine
 10
1.058412956547807
 20
5.200774931424852
 30
0.0
 11
1.058412956547807
 21
4.540669944548212
 31
0.0
  0
LINE
  5
2332
330
1E
100
AcDbEntity
  8
7
100
AcDbLine
 10
1.058412956547807
 20
5.200774931424852
 30
0.0
 11
0.8326911717709046
 21
5.200774931424852
 31
0.0
  0
LINE
  5
2333
330
1E
100
AcDbEntity
  8
7
100
AcDbLine
 10
1.058412956547807
 20
5.202087267382857
 30
0.0
 11
1.058412956547807
 21
5.200774931424852
 31
0.0
  0
LINE
  5
2334
330
1E
100
AcDbEntity
  8
7
100
AcDbLine
 10
0.4324287045793041
 20
5.202087267382857
 30
0.0
 11
0.4324287045793041
 21
5.200774931424852
 31
0.0
  0
LINE
  5
2335
330
1E
100
AcDbEntity
  8
7
100
AcDbLine
 10
0.6581504893562063
 20
5.200774931424852
 30
0.0
 11
0.4324287045793041
 21
5.200774931424852
 31
0.0
  0
LINE
  5
2336
330
1E
100
AcDbEntity
  8
7
100
AcDbLine
 10
1.058412956547807
 20
4.540669944548212
 30
0.0
 11
1.058412956547807
 21
4.539357608590207
 31
0.0
  0
LINE
  5
2337
330
1E
100
AcDbEntity
  8
7
100
AcDbLine
 10
1.058412956547807
 20
4.540669944548212
 30
0.0
 11
0.9901714867315352
 21
4.540669944548212
 31
0.0
  0
LINE
  5
2338
330
1E
100
AcDbEntity
  8
7
100
AcDbLine
 10
0.5006701743955766
 20
4.540669944548212
 30
0.0
 11
0.4324287045793041
 21
4.540669944548212
 31
0.0
  0
LINE
  5
2339
330
1E
100
AcDbEntity
  8
7
100
AcDbLine
 10
0.9901714867315352
 20
4.540669944548212
 30
0.0
 11
0.9901714867315352
 21
4.47505314664795
 31
0.0
  0
LINE
  5
233A
330
1E
100
AcDbEntity
  8
7
100
AcDbLine
 10
0.5006701743955766
 20
4.47505314664795
 30
0.0
 11
0.5006701743955766
 21
4.540669944548212
 31
0.0
  0
LINE
  5
233B
330
1E
100
AcDbEntity
  8
7
100
AcDbLine
 10
0.9901714867315352
 20
4.540669944548212
 30
0.0
 11
0.9914838226895401
 21
4.539357608590207
 31
0.0
  0
LINE
  5
233C
330
1E
100
AcDbEntity
  8
7
100
AcDbLine
 10
0.4993578384375717
 20
4.539357608590207
 30
0.0
 11
0.5006701743955766
 21
4.540669944548212
 31
0.0
  0
LINE
  5
233D
330
1E
100
AcDbEntity
  8
7
100
AcDbLine
 10
0.4324287045793041
 20
4.540669944548212
 30
0.0
 11
0.4324287045793041
 21
4.539357608590207
 31
0.0
  0
LINE
  5
233E
330
1E
100
AcDbEntity
  8
7
100
AcDbLine
 10
0.4324287045793041
 20
5.200774931424852
 30
0.0
 11
0.4324287045793041
 21
4.540669944548212
 31
0.0
  0
LINE
  5
233F
330
1E
100
AcDbEntity
  8
7
100
AcDbLine
 10
3.917993009041246
 20
7.620722437986531
 30
0.0
 11
3.824817156022873
 21
7.622034773944537
 31
0.0
  0
LINE
  5
2340
330
1E
100
AcDbEntity
  8
7
100
AcDbLine
 10
3.824817156022873
 20
3.523609577094144
 30
0.0
 11
3.917993009041246
 21
3.524921913052149
 31
0.0
  0
LINE
  5
2341
330
1E
100
AcDbEntity
  8
7
100
AcDbLine
 10
4.117468074658043
 20
5.423872044285745
 30
0.0
 11
4.217205607466442
 21
5.42518438024375
 31
0.0
  0
LINE
  5
2342
330
1E
100
AcDbEntity
  8
7
100
AcDbLine
 10
4.217205607466442
 20
5.720459970794932
 30
0.0
 11
4.117468074658043
 21
5.721772306752937
 31
0.0
  0
LINE
  5
2351
330
1E
100
AcDbEntity
  8
7
100
AcDbLine
 10
3.774948389618673
 20
6.874003277881545
 30
0.0
 11
3.774948389618673
 21
5.825446847435351
 31
0.0
  0
LINE
  5
2352
330
1E
100
AcDbEntity
  8
7
100
AcDbLine
 10
3.774948389618673
 20
4.250643697829052
 30
0.0
 11
3.73951531875253
 21
4.250643697829052
 31
0.0
  0
LINE
  5
2353
330
1E
100
AcDbEntity
  8
7
100
AcDbLine
 10
3.73951531875253
 20
4.250643697829052
 30
0.0
 11
3.694895896180353
 21
4.251956033787058
 31
0.0
  0
LINE
  5
237A
330
1E
100
AcDbEntity
  8
7
100
AcDbLine
 10
3.774948389618673
 20
5.32019750360333
 30
0.0
 11
3.774948389618673
 21
4.271641073157136
 31
0.0
  0
LINE
  5
2383
330
1E
100
AcDbEntity
  8
7
100
AcDbLine
 10
3.824817156022873
 20
5.32019750360333
 30
0.0
 11
3.774948389618673
 21
5.32019750360333
 31
0.0
  0
LINE
  5
2384
330
1E
100
AcDbEntity
  8
7
100
AcDbLine
 10
3.774948389618673
 20
5.825446847435351
 30
0.0
 11
3.824817156022873
 21
5.825446847435351
 31
0.0
  0
LINE
  5
2385
330
1E
100
AcDbEntity
  8
7
100
AcDbLine
 10
3.824817156022873
 20
5.765079393367109
 30
0.0
 11
3.774948389618673
 21
5.766391729325114
 31
0.0
  0
LINE
  5
2394
330
1E
100
AcDbEntity
  8
7
100
AcDbLine
 10
3.824817156022873
 20
6.87531561383955
 30
0.0
 11
3.774948389618673
 21
6.874003277881545
 31
0.0
  0
LINE
  5
2395
330
1E
100
AcDbEntity
  8
7
100
AcDbLine
 10
4.117468074658043
 20
6.898937661083644
 30
0.0
 11
4.117468074658043
 21
4.272953409115141
 31
0.0
  0
LINE
  5
2396
330
1E
100
AcDbEntity
  8
7
100
AcDbLine
 10
4.117468074658043
 20
6.898937661083644
 30
0.0
 11
3.917993009041246
 21
6.902874668957661
 31
0.0
  0
LINE
  5
2397
330
1E
100
AcDbEntity
  8
7
100
AcDbLine
 10
3.917993009041246
 20
4.269016401241126
 30
0.0
 11
4.117468074658043
 21
4.272953409115141
 31
0.0
  0
LINE
  5
239F
330
1E
100
AcDbEntity
  8
7
100
AcDbLine
 10
4.117468074658043
 20
4.272953409115141
 30
0.0
 11
4.117468074658043
 21
4.244082018039025
 31
0.0
  0
LINE
  5
23A6
330
1E
100
AcDbEntity
  8
7
100
AcDbLine
 10
3.917993009041246
 20
6.980302490479969
 30
0.0
 11
3.917993009041246
 21
4.165341860558711
 31
0.0
  0
LINE
  5
23C3
330
1E
100
AcDbEntity
  8
7
100
AcDbLine
 10
3.917993009041246
 20
7.249331361871046
 30
0.0
 11
3.917993009041246
 21
7.258517713577083
 31
0.0
  0
LINE
  5
23D2
330
1E
100
AcDbEntity
  8
7
100
AcDbLine
 10
3.917993009041246
 20
7.104974406490468
 30
0.0
 11
3.917993009041246
 21
7.249331361871046
 31
0.0
  0
LINE
  5
23DF
330
1E
100
AcDbEntity
  8
7
100
AcDbLine
 10
3.774948389618673
 20
4.271641073157136
 30
0.0
 11
3.824817156022873
 21
4.270328737199131
 31
0.0
  0
LINE
  5
23E0
330
1E
100
AcDbEntity
  8
7
100
AcDbLine
 10
3.824817156022873
 20
4.20996128313089
 30
0.0
 11
3.774948389618673
 21
4.211273619088895
 31
0.0
  0
LINE
  5
23E1
330
1E
100
AcDbEntity
  8
7
100
AcDbLine
 10
3.917993009041246
 20
4.104974406490469
 30
0.0
 11
3.824817156022873
 21
4.102349734574459
 31
0.0
  0
LINE
  5
23E2
330
1E
100
AcDbEntity
  8
7
100
AcDbLine
 10
3.917993009041246
 20
4.165341860558711
 30
0.0
 11
3.824817156022873
 21
4.165341860558711
 31
0.0
  0
LINE
  5
23E9
330
1E
100
AcDbEntity
  8
7
100
AcDbLine
 10
4.117468074658043
 20
4.198150259508842
 30
0.0
 11
3.917993009041246
 21
4.194213251634827
 31
0.0
  0
LINE
  5
23EA
330
1E
100
AcDbEntity
  8
7
100
AcDbLine
 10
3.917993009041246
 20
4.040669944548212
 30
0.0
 11
3.824817156022873
 21
4.040669944548212
 31
0.0
  0
LINE
  5
23F6
330
1E
100
AcDbEntity
  8
7
100
AcDbLine
 10
3.858937890931009
 20
3.897625325125641
 30
0.0
 11
3.856313219014999
 21
3.901562332999656
 31
0.0
  0
LINE
  5
23F7
330
1E
100
AcDbEntity
  8
7
100
AcDbLine
 10
3.917993009041246
 20
3.896312989167634
 30
0.0
 11
3.858937890931009
 21
3.897625325125641
 31
0.0
  0
LINE
  5
23FD
330
1E
100
AcDbEntity
  8
7
100
AcDbLine
 10
3.824817156022873
 20
3.896312989167634
 30
0.0
 11
3.856313219014999
 21
3.897625325125641
 31
0.0
  0
LINE
  5
23FE
330
1E
100
AcDbEntity
  8
7
100
AcDbLine
 10
3.824817156022873
 20
3.896312989167634
 30
0.0
 11
3.824817156022873
 21
3.881877293629578
 31
0.0
  0
LINE
  5
240D
330
1E
100
AcDbEntity
  8
7
100
AcDbLine
 10
3.824817156022873
 20
3.896312989167634
 30
0.0
 11
3.824817156022873
 21
3.918622700453725
 31
0.0
  0
LINE
  5
240E
330
1E
100
AcDbEntity
  8
7
100
AcDbLine
 10
3.856313219014999
 20
3.897625325125641
 30
0.0
 11
3.856313219014999
 21
3.901562332999656
 31
0.0
  0
LINE
  5
240F
330
1E
100
AcDbEntity
  8
7
100
AcDbLine
 10
3.824817156022873
 20
6.980302490479969
 30
0.0
 11
3.824817156022873
 21
4.165341860558711
 31
0.0
  0
LINE
  5
241E
330
1E
100
AcDbEntity
  8
7
100
AcDbLine
 10
3.917993009041246
 20
6.980302490479969
 30
0.0
 11
3.824817156022873
 21
6.980302490479969
 31
0.0
  0
LINE
  5
241F
330
1E
100
AcDbEntity
  8
7
100
AcDbLine
 10
3.774948389618673
 20
6.934370731949787
 30
0.0
 11
3.824817156022873
 21
6.934370731949787
 31
0.0
  0
LINE
  5
2420
330
1E
100
AcDbEntity
  8
7
100
AcDbLine
 10
3.917993009041246
 20
7.040669944548211
 30
0.0
 11
3.824817156022873
 21
7.043294616464223
 31
0.0
  0
LINE
  5
2426
330
1E
100
AcDbEntity
  8
7
100
AcDbLine
 10
3.917993009041246
 20
7.249331361871046
 30
0.0
 11
3.858937890931009
 21
7.248019025913041
 31
0.0
  0
LINE
  5
2439
330
1E
100
AcDbEntity
  8
7
100
AcDbLine
 10
3.824817156022873
 20
7.249331361871046
 30
0.0
 11
3.856313219014999
 21
7.248019025913041
 31
0.0
  0
LINE
  5
243A
330
1E
100
AcDbEntity
  8
7
100
AcDbLine
 10
3.824817156022873
 20
7.227021650584957
 30
0.0
 11
3.856313219014999
 21
7.244082018039025
 31
0.0
  0
LINE
  5
243B
330
1E
100
AcDbEntity
  8
7
100
AcDbLine
 10
3.917993009041246
 20
7.104974406490468
 30
0.0
 11
3.824817156022873
 21
7.104974406490468
 31
0.0
  0
LINE
  5
243C
330
1E
100
AcDbEntity
  8
7
100
AcDbLine
 10
3.858937890931009
 20
7.248019025913041
 30
0.0
 11
3.856313219014999
 21
7.244082018039025
 31
0.0
  0
LINE
  5
243D
330
1E
100
AcDbEntity
  8
7
100
AcDbLine
 10
3.917993009041246
 20
6.977677818563959
 30
0.0
 11
4.117468074658043
 21
6.973740810689944
 31
0.0
  0
LINE
  5
243E
330
1E
100
AcDbEntity
  8
7
100
AcDbLine
 10
3.856313219014999
 20
7.248019025913041
 30
0.0
 11
3.856313219014999
 21
7.244082018039025
 31
0.0
  0
LINE
  5
245C
330
1E
100
AcDbEntity
  8
7
100
AcDbLine
 10
4.205394583844395
 20
6.115473094154511
 30
0.0
 11
4.225079623214474
 21
6.112848422238501
 31
0.0
  0
LINE
  5
245D
330
1E
100
AcDbEntity
  8
7
100
AcDbLine
 10
4.205394583844395
 20
6.085289367120391
 30
0.0
 11
4.205394583844395
 21
6.115473094154511
 31
0.0
  0
LINE
  5
2463
330
1E
100
AcDbEntity
  8
7
100
AcDbLine
 10
4.218517943424447
 20
6.032795928800181
 30
0.0
 11
4.218517943424447
 21
6.048543960296244
 31
0.0
  0
LINE
  5
2469
330
1E
100
AcDbEntity
  8
7
100
AcDbLine
 10
4.117468074658043
 20
6.015735561346112
 30
0.0
 11
4.20408224788639
 21
6.018360233262123
 31
0.0
  0
LINE
  5
2472
330
1E
100
AcDbEntity
  8
7
100
AcDbLine
 10
4.284134741324709
 20
5.909436348747687
 30
0.0
 11
4.117468074658043
 21
5.904187004915666
 31
0.0
  0
LINE
  5
2478
330
1E
100
AcDbEntity
  8
7
100
AcDbLine
 10
4.303819780694789
 20
5.948806427487844
 30
0.0
 11
4.303819780694789
 21
5.930433724075771
 31
0.0
  0
LINE
  5
247F
330
1E
100
AcDbEntity
  8
7
100
AcDbLine
 10
4.205394583844395
 20
4.583977031162385
 30
0.0
 11
4.225079623214474
 21
4.58266469520438
 31
0.0
  0
LINE
  5
2480
330
1E
100
AcDbEntity
  8
7
100
AcDbLine
 10
4.205394583844395
 20
4.55510564008627
 30
0.0
 11
4.205394583844395
 21
4.583977031162385
 31
0.0
  0
LINE
  5
2486
330
1E
100
AcDbEntity
  8
7
100
AcDbLine
 10
4.218517943424447
 20
4.50261220176606
 30
0.0
 11
4.218517943424447
 21
4.518360233262123
 31
0.0
  0
LINE
  5
248C
330
1E
100
AcDbEntity
  8
7
100
AcDbLine
 10
4.117468074658043
 20
4.485551834311992
 30
0.0
 11
4.20408224788639
 21
4.488176506228002
 31
0.0
  0
LINE
  5
2495
330
1E
100
AcDbEntity
  8
7
100
AcDbLine
 10
4.284134741324709
 20
4.379252621713566
 30
0.0
 11
4.117468074658043
 21
4.374003277881546
 31
0.0
  0
LINE
  5
249B
330
1E
100
AcDbEntity
  8
7
100
AcDbLine
 10
4.303819780694789
 20
4.418622700453725
 30
0.0
 11
4.303819780694789
 21
4.398937661083645
 31
0.0
  0
LINE
  5
291D
330
1E
100
AcDbEntity
  8
7
100
AcDbLine
 10
4.284134741324709
 20
4.379252621713566
 30
0.0
 11
4.297258100904762
 21
4.385814301503592
 31
0.0
  0
LINE
  5
291E
330
1E
100
AcDbEntity
  8
7
100
AcDbLine
 10
4.297258100904762
 20
4.385814301503592
 30
0.0
 11
4.303819780694789
 21
4.398937661083645
 31
0.0
  0
LINE
  5
291F
330
1E
100
AcDbEntity
  8
7
100
AcDbLine
 10
4.117468074658043
 20
4.405499340873672
 30
0.0
 11
4.340565187518936
 21
4.421247372369735
 31
0.0
  0
LINE
  5
2920
330
1E
100
AcDbEntity
  8
7
100
AcDbLine
 10
4.340565187518936
 20
4.421247372369735
 30
0.0
 11
4.369436578595051
 21
4.433058395991781
 31
0.0
  0
LINE
  5
2921
330
1E
100
AcDbEntity
  8
7
100
AcDbLine
 10
4.369436578595051
 20
4.433058395991781
 30
0.0
 11
4.377310594343082
 21
4.443557083655823
 31
0.0
  0
LINE
  5
2922
330
1E
100
AcDbEntity
  8
7
100
AcDbLine
 10
4.377310594343082
 20
4.443557083655823
 30
0.0
 11
4.377310594343082
 21
4.457992779193881
 31
0.0
  0
LINE
  5
2923
330
1E
100
AcDbEntity
  8
7
100
AcDbLine
 10
4.377310594343082
 20
4.457992779193881
 30
0.0
 11
4.370748914553057
 21
4.469803802815929
 31
0.0
  0
LINE
  5
2924
330
1E
100
AcDbEntity
  8
7
100
AcDbLine
 10
4.218517943424447
 20
4.50261220176606
 30
0.0
 11
4.214580935550432
 21
4.492113514102018
 31
0.0
  0
LINE
  5
2925
330
1E
100
AcDbEntity
  8
7
100
AcDbLine
 10
4.214580935550432
 20
4.492113514102018
 30
0.0
 11
4.20408224788639
 21
4.488176506228002
 31
0.0
  0
LINE
  5
2926
330
1E
100
AcDbEntity
  8
7
100
AcDbLine
 10
4.205394583844395
 20
4.55510564008627
 30
0.0
 11
4.208019255760405
 21
4.549856296254249
 31
0.0
  0
LINE
  5
2927
330
1E
100
AcDbEntity
  8
7
100
AcDbLine
 10
4.208019255760405
 20
4.549856296254249
 30
0.0
 11
4.218517943424447
 21
4.518360233262123
 31
0.0
  0
LINE
  5
2928
330
1E
100
AcDbEntity
  8
7
100
AcDbLine
 10
4.370748914553057
 20
4.469803802815929
 30
0.0
 11
4.286759413240719
 21
4.553793304128265
 31
0.0
  0
LINE
  5
2929
330
1E
100
AcDbEntity
  8
7
100
AcDbLine
 10
4.286759413240719
 20
4.553793304128265
 30
0.0
 11
4.257888022164605
 21
4.573478343498343
 31
0.0
  0
LINE
  5
292A
330
1E
100
AcDbEntity
  8
7
100
AcDbLine
 10
4.257888022164605
 20
4.573478343498343
 30
0.0
 11
4.225079623214474
 21
4.58266469520438
 31
0.0
  0
LINE
  5
292B
330
1E
100
AcDbEntity
  8
7
100
AcDbLine
 10
4.284134741324709
 20
5.909436348747687
 30
0.0
 11
4.297258100904762
 21
5.915998028537713
 31
0.0
  0
LINE
  5
292C
330
1E
100
AcDbEntity
  8
7
100
AcDbLine
 10
4.297258100904762
 20
5.915998028537713
 30
0.0
 11
4.303819780694789
 21
5.930433724075771
 31
0.0
  0
LINE
  5
292D
330
1E
100
AcDbEntity
  8
7
100
AcDbLine
 10
4.117468074658043
 20
5.935683067907792
 30
0.0
 11
4.340565187518936
 21
5.951431099403855
 31
0.0
  0
LINE
  5
292E
330
1E
100
AcDbEntity
  8
7
100
AcDbLine
 10
4.340565187518936
 20
5.951431099403855
 30
0.0
 11
4.369436578595051
 21
5.963242123025902
 31
0.0
  0
LINE
  5
292F
330
1E
100
AcDbEntity
  8
7
100
AcDbLine
 10
4.369436578595051
 20
5.963242123025902
 30
0.0
 11
4.377310594343082
 21
5.975053146647949
 31
0.0
  0
LINE
  5
2930
330
1E
100
AcDbEntity
  8
7
100
AcDbLine
 10
4.377310594343082
 20
5.975053146647949
 30
0.0
 11
4.377310594343082
 21
5.988176506228002
 31
0.0
  0
LINE
  5
2931
330
1E
100
AcDbEntity
  8
7
100
AcDbLine
 10
4.377310594343082
 20
5.988176506228002
 30
0.0
 11
4.370748914553057
 21
5.999987529850049
 31
0.0
  0
LINE
  5
2932
330
1E
100
AcDbEntity
  8
7
100
AcDbLine
 10
4.218517943424447
 20
6.032795928800181
 30
0.0
 11
4.214580935550432
 21
6.022297241136139
 31
0.0
  0
LINE
  5
2933
330
1E
100
AcDbEntity
  8
7
100
AcDbLine
 10
4.214580935550432
 20
6.022297241136139
 30
0.0
 11
4.20408224788639
 21
6.018360233262123
 31
0.0
  0
LINE
  5
2934
330
1E
100
AcDbEntity
  8
7
100
AcDbLine
 10
4.205394583844395
 20
6.085289367120391
 30
0.0
 11
4.208019255760405
 21
6.08004002328837
 31
0.0
  0
LINE
  5
2935
330
1E
100
AcDbEntity
  8
7
100
AcDbLine
 10
4.208019255760405
 20
6.08004002328837
 30
0.0
 11
4.218517943424447
 21
6.048543960296244
 31
0.0
  0
LINE
  5
2936
330
1E
100
AcDbEntity
  8
7
100
AcDbLine
 10
4.370748914553057
 20
5.999987529850049
 30
0.0
 11
4.286759413240719
 21
6.083977031162385
 31
0.0
  0
LINE
  5
2937
330
1E
100
AcDbEntity
  8
7
100
AcDbLine
 10
4.286759413240719
 20
6.083977031162385
 30
0.0
 11
4.257888022164605
 21
6.104974406490469
 31
0.0
  0
LINE
  5
2938
330
1E
100
AcDbEntity
  8
7
100
AcDbLine
 10
4.257888022164605
 20
6.104974406490469
 30
0.0
 11
4.225079623214474
 21
6.112848422238501
 31
0.0
  0
LINE
  5
2939
330
1E
100
AcDbEntity
  8
7
100
AcDbLine
 10
3.694895896180353
 20
6.893688317251625
 30
0.0
 11
3.694895896180353
 21
6.841194878931414
 31
0.0
  0
LINE
  5
293A
330
1E
100
AcDbEntity
  8
7
100
AcDbLine
 10
3.694895896180353
 20
6.841194878931414
 30
0.0
 11
3.694895896180353
 21
6.779515088905167
 31
0.0
  0
LINE
  5
293B
330
1E
100
AcDbEntity
  8
7
100
AcDbLine
 10
3.694895896180353
 20
6.779515088905167
 30
0.0
 11
3.694895896180353
 21
6.709961283130889
 31
0.0
  0
LINE
  5
293C
330
1E
100
AcDbEntity
  8
7
100
AcDbLine
 10
3.694895896180353
 20
6.709961283130889
 30
0.0
 11
3.694895896180353
 21
6.633845797566585
 31
0.0
  0
LINE
  5
293D
330
1E
100
AcDbEntity
  8
7
100
AcDbLine
 10
3.694895896180353
 20
6.633845797566585
 30
0.0
 11
3.694895896180353
 21
6.553793304128265
 31
0.0
  0
LINE
  5
293E
330
1E
100
AcDbEntity
  8
7
100
AcDbLine
 10
3.694895896180353
 20
6.553793304128265
 30
0.0
 11
3.694895896180353
 21
6.468491466857923
 31
0.0
  0
LINE
  5
293F
330
1E
100
AcDbEntity
  8
7
100
AcDbLine
 10
3.694895896180353
 20
6.468491466857923
 30
0.0
 11
3.694895896180353
 21
6.381877293629577
 31
0.0
  0
LINE
  5
2940
330
1E
100
AcDbEntity
  8
7
100
AcDbLine
 10
3.694895896180353
 20
6.381877293629577
 30
0.0
 11
3.694895896180353
 21
6.293950784443225
 31
0.0
  0
LINE
  5
2941
330
1E
100
AcDbEntity
  8
7
100
AcDbLine
 10
3.694895896180353
 20
6.293950784443225
 30
0.0
 11
3.694895896180353
 21
6.207336611214879
 31
0.0
  0
LINE
  5
2942
330
1E
100
AcDbEntity
  8
7
100
AcDbLine
 10
3.694895896180353
 20
6.207336611214879
 30
0.0
 11
3.694895896180353
 21
6.123347109902542
 31
0.0
  0
LINE
  5
2943
330
1E
100
AcDbEntity
  8
7
100
AcDbLine
 10
3.694895896180353
 20
6.123347109902542
 30
0.0
 11
3.694895896180353
 21
6.041982280506217
 31
0.0
  0
LINE
  5
2944
330
1E
100
AcDbEntity
  8
7
100
AcDbLine
 10
3.694895896180353
 20
6.041982280506217
 30
0.0
 11
3.694895896180353
 21
5.965866794941913
 31
0.0
  0
LINE
  5
2945
330
1E
100
AcDbEntity
  8
7
100
AcDbLine
 10
3.694895896180353
 20
5.965866794941913
 30
0.0
 11
3.694895896180353
 21
5.89762532512564
 31
0.0
  0
LINE
  5
2946
330
1E
100
AcDbEntity
  8
7
100
AcDbLine
 10
3.694895896180353
 20
5.89762532512564
 30
0.0
 11
3.694895896180353
 21
5.835945535099393
 31
0.0
  0
LINE
  5
2947
330
1E
100
AcDbEntity
  8
7
100
AcDbLine
 10
3.694895896180353
 20
5.835945535099393
 30
0.0
 11
3.694895896180353
 21
5.783452096779184
 31
0.0
  0
LINE
  5
2948
330
1E
100
AcDbEntity
  8
7
100
AcDbLine
 10
3.694895896180353
 20
6.893688317251625
 30
0.0
 11
3.73951531875253
 21
6.895000653209629
 31
0.0
  0
LINE
  5
2949
330
1E
100
AcDbEntity
  8
7
100
AcDbLine
 10
3.73951531875253
 20
6.895000653209629
 30
0.0
 11
3.774948389618673
 21
6.895000653209629
 31
0.0
  0
LINE
  5
294A
330
1E
100
AcDbEntity
  8
7
100
AcDbLine
 10
3.824817156022873
 20
7.287389104653199
 30
0.0
 11
3.824817156022873
 21
7.320197503603329
 31
0.0
  0
LINE
  5
294B
330
1E
100
AcDbEntity
  8
7
100
AcDbLine
 10
3.824817156022873
 20
7.320197503603329
 30
0.0
 11
3.824817156022873
 21
7.359567582343487
 31
0.0
  0
LINE
  5
294C
330
1E
100
AcDbEntity
  8
7
100
AcDbLine
 10
3.824817156022873
 20
7.359567582343487
 30
0.0
 11
3.824817156022873
 21
7.404187004915666
 31
0.0
  0
LINE
  5
294D
330
1E
100
AcDbEntity
  8
7
100
AcDbLine
 10
3.824817156022873
 20
7.404187004915666
 30
0.0
 11
3.824817156022873
 21
7.45011876344585
 31
0.0
  0
LINE
  5
294E
330
1E
100
AcDbEntity
  8
7
100
AcDbLine
 10
3.824817156022873
 20
7.45011876344585
 30
0.0
 11
3.824817156022873
 21
7.496050521976034
 31
0.0
  0
LINE
  5
294F
330
1E
100
AcDbEntity
  8
7
100
AcDbLine
 10
3.824817156022873
 20
7.496050521976034
 30
0.0
 11
3.824817156022873
 21
7.536732936674195
 31
0.0
  0
LINE
  5
2950
330
1E
100
AcDbEntity
  8
7
100
AcDbLine
 10
3.824817156022873
 20
7.536732936674195
 30
0.0
 11
3.824817156022873
 21
7.572166007540337
 31
0.0
  0
LINE
  5
2951
330
1E
100
AcDbEntity
  8
7
100
AcDbLine
 10
3.824817156022873
 20
7.572166007540337
 30
0.0
 11
3.824817156022873
 21
7.599725062658447
 31
0.0
  0
LINE
  5
2952
330
1E
100
AcDbEntity
  8
7
100
AcDbLine
 10
3.824817156022873
 20
7.599725062658447
 30
0.0
 11
3.824817156022873
 21
7.616785430112516
 31
0.0
  0
LINE
  5
2953
330
1E
100
AcDbEntity
  8
7
100
AcDbLine
 10
3.824817156022873
 20
7.616785430112516
 30
0.0
 11
3.824817156022873
 21
7.622034773944537
 31
0.0
  0
LINE
  5
2954
330
1E
100
AcDbEntity
  8
7
100
AcDbLine
 10
3.824817156022873
 20
7.249331361871046
 30
0.0
 11
3.824817156022873
 21
7.262454721451099
 31
0.0
  0
LINE
  5
2955
330
1E
100
AcDbEntity
  8
7
100
AcDbLine
 10
3.824817156022873
 20
7.262454721451099
 30
0.0
 11
3.824817156022873
 21
7.287389104653199
 31
0.0
  0
LINE
  5
2956
330
1E
100
AcDbEntity
  8
7
100
AcDbLine
 10
3.856313219014999
 20
7.248019025913041
 30
0.0
 11
3.857625554973004
 21
7.248019025913041
 31
0.0
  0
LINE
  5
2957
330
1E
100
AcDbEntity
  8
7
100
AcDbLine
 10
3.857625554973004
 20
7.248019025913041
 30
0.0
 11
3.858937890931009
 21
7.248019025913041
 31
0.0
  0
LINE
  5
2958
330
1E
100
AcDbEntity
  8
7
100
AcDbLine
 10
3.824817156022873
 20
7.043294616464223
 30
0.0
 11
3.824817156022873
 21
7.051168632212254
 31
0.0
  0
LINE
  5
2959
330
1E
100
AcDbEntity
  8
7
100
AcDbLine
 10
3.824817156022873
 20
7.051168632212254
 30
0.0
 11
3.824817156022873
 21
7.073478343498342
 31
0.0
  0
LINE
  5
295A
330
1E
100
AcDbEntity
  8
7
100
AcDbLine
 10
3.824817156022873
 20
7.073478343498342
 30
0.0
 11
3.824817156022873
 21
7.104974406490468
 31
0.0
  0
LINE
  5
295B
330
1E
100
AcDbEntity
  8
7
100
AcDbLine
 10
3.824817156022873
 20
7.104974406490468
 30
0.0
 11
3.824817156022873
 21
7.227021650584957
 31
0.0
  0
LINE
  5
295C
330
1E
100
AcDbEntity
  8
7
100
AcDbLine
 10
3.824817156022873
 20
7.227021650584957
 30
0.0
 11
3.824817156022873
 21
7.249331361871046
 31
0.0
  0
LINE
  5
295D
330
1E
100
AcDbEntity
  8
7
100
AcDbLine
 10
3.824817156022873
 20
7.043294616464223
 30
0.0
 11
3.824817156022873
 21
7.034108264758186
 31
0.0
  0
LINE
  5
295E
330
1E
100
AcDbEntity
  8
7
100
AcDbLine
 10
3.824817156022873
 20
7.034108264758186
 30
0.0
 11
3.824817156022873
 21
7.011798553472097
 31
0.0
  0
LINE
  5
295F
330
1E
100
AcDbEntity
  8
7
100
AcDbLine
 10
3.824817156022873
 20
7.011798553472097
 30
0.0
 11
3.824817156022873
 21
6.980302490479969
 31
0.0
  0
LINE
  5
2960
330
1E
100
AcDbEntity
  8
7
100
AcDbLine
 10
3.824817156022873
 20
3.881877293629578
 30
0.0
 11
3.824817156022873
 21
3.858255246385483
 31
0.0
  0
LINE
  5
2961
330
1E
100
AcDbEntity
  8
7
100
AcDbLine
 10
3.824817156022873
 20
3.858255246385483
 30
0.0
 11
3.824817156022873
 21
3.825446847435352
 31
0.0
  0
LINE
  5
2962
330
1E
100
AcDbEntity
  8
7
100
AcDbLine
 10
3.824817156022873
 20
3.825446847435352
 30
0.0
 11
3.824817156022873
 21
3.786076768695194
 31
0.0
  0
LINE
  5
2963
330
1E
100
AcDbEntity
  8
7
100
AcDbLine
 10
3.824817156022873
 20
3.786076768695194
 30
0.0
 11
3.824817156022873
 21
3.741457346123016
 31
0.0
  0
LINE
  5
2964
330
1E
100
AcDbEntity
  8
7
100
AcDbLine
 10
3.824817156022873
 20
3.741457346123016
 30
0.0
 11
3.824817156022873
 21
3.695525587592832
 31
0.0
  0
LINE
  5
2965
330
1E
100
AcDbEntity
  8
7
100
AcDbLine
 10
3.824817156022873
 20
3.695525587592832
 30
0.0
 11
3.824817156022873
 21
3.649593829062648
 31
0.0
  0
LINE
  5
2966
330
1E
100
AcDbEntity
  8
7
100
AcDbLine
 10
3.824817156022873
 20
3.649593829062648
 30
0.0
 11
3.824817156022873
 21
3.608911414364485
 31
0.0
  0
LINE
  5
2967
330
1E
100
AcDbEntity
  8
7
100
AcDbLine
 10
3.824817156022873
 20
3.608911414364485
 30
0.0
 11
3.824817156022873
 21
3.573478343498344
 31
0.0
  0
LINE
  5
2968
330
1E
100
AcDbEntity
  8
7
100
AcDbLine
 10
3.824817156022873
 20
3.573478343498344
 30
0.0
 11
3.824817156022873
 21
3.545919288380233
 31
0.0
  0
LINE
  5
2969
330
1E
100
AcDbEntity
  8
7
100
AcDbLine
 10
3.824817156022873
 20
3.545919288380233
 30
0.0
 11
3.824817156022873
 21
3.528858920926166
 31
0.0
  0
LINE
  5
296A
330
1E
100
AcDbEntity
  8
7
100
AcDbLine
 10
3.824817156022873
 20
3.528858920926166
 30
0.0
 11
3.824817156022873
 21
3.523609577094144
 31
0.0
  0
LINE
  5
296B
330
1E
100
AcDbEntity
  8
7
100
AcDbLine
 10
3.856313219014999
 20
3.897625325125641
 30
0.0
 11
3.857625554973004
 21
3.897625325125641
 31
0.0
  0
LINE
  5
296C
330
1E
100
AcDbEntity
  8
7
100
AcDbLine
 10
3.857625554973004
 20
3.897625325125641
 30
0.0
 11
3.858937890931009
 21
3.897625325125641
 31
0.0
  0
LINE
  5
296D
330
1E
100
AcDbEntity
  8
7
100
AcDbLine
 10
3.824817156022873
 20
4.040669944548212
 30
0.0
 11
3.824817156022873
 21
3.918622700453725
 31
0.0
  0
LINE
  5
296E
330
1E
100
AcDbEntity
  8
7
100
AcDbLine
 10
3.824817156022873
 20
3.918622700453725
 30
0.0
 11
3.856313219014999
 21
3.901562332999656
 31
0.0
  0
LINE
  5
296F
330
1E
100
AcDbEntity
  8
7
100
AcDbLine
 10
3.824817156022873
 20
4.102349734574459
 30
0.0
 11
3.824817156022873
 21
4.094475718826427
 31
0.0
  0
LINE
  5
2970
330
1E
100
AcDbEntity
  8
7
100
AcDbLine
 10
3.824817156022873
 20
4.094475718826427
 30
0.0
 11
3.824817156022873
 21
4.070853671582333
 31
0.0
  0
LINE
  5
2971
330
1E
100
AcDbEntity
  8
7
100
AcDbLine
 10
3.824817156022873
 20
4.070853671582333
 30
0.0
 11
3.824817156022873
 21
4.040669944548212
 31
0.0
  0
LINE
  5
2972
330
1E
100
AcDbEntity
  8
7
100
AcDbLine
 10
3.824817156022873
 20
4.102349734574459
 30
0.0
 11
3.824817156022873
 21
4.111536086280496
 31
0.0
  0
LINE
  5
2973
330
1E
100
AcDbEntity
  8
7
100
AcDbLine
 10
3.824817156022873
 20
4.111536086280496
 30
0.0
 11
3.824817156022873
 21
4.133845797566585
 31
0.0
  0
LINE
  5
2974
330
1E
100
AcDbEntity
  8
7
100
AcDbLine
 10
3.824817156022873
 20
4.133845797566585
 30
0.0
 11
3.824817156022873
 21
4.165341860558711
 31
0.0
  0
LINE
  5
2975
330
1E
100
AcDbEntity
  8
7
100
AcDbLine
 10
3.917993009041246
 20
7.040669944548211
 30
0.0
 11
3.917993009041246
 21
7.032795928800181
 31
0.0
  0
LINE
  5
2976
330
1E
100
AcDbEntity
  8
7
100
AcDbLine
 10
3.917993009041246
 20
7.032795928800181
 30
0.0
 11
3.917993009041246
 21
7.01048621751409
 31
0.0
  0
LINE
  5
2977
330
1E
100
AcDbEntity
  8
7
100
AcDbLine
 10
3.917993009041246
 20
7.01048621751409
 30
0.0
 11
3.917993009041246
 21
6.980302490479969
 31
0.0
  0
LINE
  5
2978
330
1E
100
AcDbEntity
  8
7
100
AcDbLine
 10
3.917993009041246
 20
7.040669944548211
 30
0.0
 11
3.917993009041246
 21
7.049856296254249
 31
0.0
  0
LINE
  5
2979
330
1E
100
AcDbEntity
  8
7
100
AcDbLine
 10
3.917993009041246
 20
7.049856296254249
 30
0.0
 11
3.917993009041246
 21
7.073478343498342
 31
0.0
  0
LINE
  5
297A
330
1E
100
AcDbEntity
  8
7
100
AcDbLine
 10
3.917993009041246
 20
7.073478343498342
 30
0.0
 11
3.917993009041246
 21
7.104974406490468
 31
0.0
  0
LINE
  5
297B
330
1E
100
AcDbEntity
  8
7
100
AcDbLine
 10
3.917993009041246
 20
7.258517713577083
 30
0.0
 11
3.917993009041246
 21
7.278202752947162
 31
0.0
  0
LINE
  5
297C
330
1E
100
AcDbEntity
  8
7
100
AcDbLine
 10
3.917993009041246
 20
7.278202752947162
 30
0.0
 11
3.917993009041246
 21
7.309698815939288
 31
0.0
  0
LINE
  5
297D
330
1E
100
AcDbEntity
  8
7
100
AcDbLine
 10
3.917993009041246
 20
7.309698815939288
 30
0.0
 11
3.917993009041246
 21
7.347756558721441
 31
0.0
  0
LINE
  5
297E
330
1E
100
AcDbEntity
  8
7
100
AcDbLine
 10
3.917993009041246
 20
7.347756558721441
 30
0.0
 11
3.917993009041246
 21
7.392375981293619
 31
0.0
  0
LINE
  5
297F
330
1E
100
AcDbEntity
  8
7
100
AcDbLine
 10
3.917993009041246
 20
7.392375981293619
 30
0.0
 11
3.917993009041246
 21
7.439620075781808
 31
0.0
  0
LINE
  5
2980
330
1E
100
AcDbEntity
  8
7
100
AcDbLine
 10
3.917993009041246
 20
7.439620075781808
 30
0.0
 11
3.917993009041246
 21
7.486864170269996
 31
0.0
  0
LINE
  5
2981
330
1E
100
AcDbEntity
  8
7
100
AcDbLine
 10
3.917993009041246
 20
7.486864170269996
 30
0.0
 11
3.917993009041246
 21
7.53017125688417
 31
0.0
  0
LINE
  5
2982
330
1E
100
AcDbEntity
  8
7
100
AcDbLine
 10
3.917993009041246
 20
7.53017125688417
 30
0.0
 11
3.917993009041246
 21
7.568228999666321
 31
0.0
  0
LINE
  5
2983
330
1E
100
AcDbEntity
  8
7
100
AcDbLine
 10
3.917993009041246
 20
7.568228999666321
 30
0.0
 11
3.917993009041246
 21
7.595788054784432
 31
0.0
  0
LINE
  5
2984
330
1E
100
AcDbEntity
  8
7
100
AcDbLine
 10
3.917993009041246
 20
7.595788054784432
 30
0.0
 11
3.917993009041246
 21
7.614160758196505
 31
0.0
  0
LINE
  5
2985
330
1E
100
AcDbEntity
  8
7
100
AcDbLine
 10
3.917993009041246
 20
7.614160758196505
 30
0.0
 11
3.917993009041246
 21
7.620722437986531
 31
0.0
  0
LINE
  5
2986
330
1E
100
AcDbEntity
  8
7
100
AcDbLine
 10
3.917993009041246
 20
4.040669944548212
 30
0.0
 11
3.917993009041246
 21
3.896312989167634
 31
0.0
  0
LINE
  5
2987
330
1E
100
AcDbEntity
  8
7
100
AcDbLine
 10
3.917993009041246
 20
3.896312989167634
 30
0.0
 11
3.917993009041246
 21
3.887126637461599
 31
0.0
  0
LINE
  5
2988
330
1E
100
AcDbEntity
  8
7
100
AcDbLine
 10
3.917993009041246
 20
3.887126637461599
 30
0.0
 11
3.917993009041246
 21
3.86744159809152
 31
0.0
  0
LINE
  5
2989
330
1E
100
AcDbEntity
  8
7
100
AcDbLine
 10
3.917993009041246
 20
3.86744159809152
 30
0.0
 11
3.917993009041246
 21
3.835945535099394
 31
0.0
  0
LINE
  5
298A
330
1E
100
AcDbEntity
  8
7
100
AcDbLine
 10
3.917993009041246
 20
3.835945535099394
 30
0.0
 11
3.917993009041246
 21
3.796575456359236
 31
0.0
  0
LINE
  5
298B
330
1E
100
AcDbEntity
  8
7
100
AcDbLine
 10
3.917993009041246
 20
3.796575456359236
 30
0.0
 11
3.917993009041246
 21
3.751956033787058
 31
0.0
  0
LINE
  5
298C
330
1E
100
AcDbEntity
  8
7
100
AcDbLine
 10
3.917993009041246
 20
3.751956033787058
 30
0.0
 11
3.917993009041246
 21
3.704711939298869
 31
0.0
  0
LINE
  5
298D
330
1E
100
AcDbEntity
  8
7
100
AcDbLine
 10
3.917993009041246
 20
3.704711939298869
 30
0.0
 11
3.917993009041246
 21
3.658780180768685
 31
0.0
  0
LINE
  5
298E
330
1E
100
AcDbEntity
  8
7
100
AcDbLine
 10
3.917993009041246
 20
3.658780180768685
 30
0.0
 11
3.917993009041246
 21
3.614160758196506
 31
0.0
  0
LINE
  5
298F
330
1E
100
AcDbEntity
  8
7
100
AcDbLine
 10
3.917993009041246
 20
3.614160758196506
 30
0.0
 11
3.917993009041246
 21
3.577415351372359
 31
0.0
  0
LINE
  5
2990
330
1E
100
AcDbEntity
  8
7
100
AcDbLine
 10
3.917993009041246
 20
3.577415351372359
 30
0.0
 11
3.917993009041246
 21
3.548543960296244
 31
0.0
  0
LINE
  5
2991
330
1E
100
AcDbEntity
  8
7
100
AcDbLine
 10
3.917993009041246
 20
3.548543960296244
 30
0.0
 11
3.917993009041246
 21
3.531483592842176
 31
0.0
  0
LINE
  5
2992
330
1E
100
AcDbEntity
  8
7
100
AcDbLine
 10
3.917993009041246
 20
3.531483592842176
 30
0.0
 11
3.917993009041246
 21
3.524921913052149
 31
0.0
  0
LINE
  5
2993
330
1E
100
AcDbEntity
  8
7
100
AcDbLine
 10
3.917993009041246
 20
4.104974406490469
 30
0.0
 11
3.917993009041246
 21
4.095788054784433
 31
0.0
  0
LINE
  5
2994
330
1E
100
AcDbEntity
  8
7
100
AcDbLine
 10
3.917993009041246
 20
4.095788054784433
 30
0.0
 11
3.917993009041246
 21
4.072166007540338
 31
0.0
  0
LINE
  5
2995
330
1E
100
AcDbEntity
  8
7
100
AcDbLine
 10
3.917993009041246
 20
4.072166007540338
 30
0.0
 11
3.917993009041246
 21
4.040669944548212
 31
0.0
  0
LINE
  5
2996
330
1E
100
AcDbEntity
  8
7
100
AcDbLine
 10
3.917993009041246
 20
4.104974406490469
 30
0.0
 11
3.917993009041246
 21
4.112848422238501
 31
0.0
  0
LINE
  5
2997
330
1E
100
AcDbEntity
  8
7
100
AcDbLine
 10
3.917993009041246
 20
4.112848422238501
 30
0.0
 11
3.917993009041246
 21
4.13515813352459
 31
0.0
  0
LINE
  5
2998
330
1E
100
AcDbEntity
  8
7
100
AcDbLine
 10
3.917993009041246
 20
4.13515813352459
 30
0.0
 11
3.917993009041246
 21
4.165341860558711
 31
0.0
  0
LINE
  5
2999
330
1E
100
AcDbEntity
  8
7
100
AcDbLine
 10
4.117468074658043
 20
4.244082018039025
 30
0.0
 11
4.117468074658043
 21
4.220459970794932
 31
0.0
  0
LINE
  5
299A
330
1E
100
AcDbEntity
  8
7
100
AcDbLine
 10
4.117468074658043
 20
4.220459970794932
 30
0.0
 11
4.117468074658043
 21
4.203399603340863
 31
0.0
  0
LINE
  5
299B
330
1E
100
AcDbEntity
  8
7
100
AcDbLine
 10
4.117468074658043
 20
4.203399603340863
 30
0.0
 11
4.117468074658043
 21
4.198150259508842
 31
0.0
  0
LINE
  5
299C
330
1E
100
AcDbEntity
  8
7
100
AcDbLine
 10
4.117468074658043
 20
6.973740810689944
 30
0.0
 11
4.117468074658043
 21
6.968491466857923
 31
0.0
  0
LINE
  5
299D
330
1E
100
AcDbEntity
  8
7
100
AcDbLine
 10
4.117468074658043
 20
6.968491466857923
 30
0.0
 11
4.117468074658043
 21
6.95274343536186
 31
0.0
  0
LINE
  5
299E
330
1E
100
AcDbEntity
  8
7
100
AcDbLine
 10
4.117468074658043
 20
6.95274343536186
 30
0.0
 11
4.117468074658043
 21
6.92780905215976
 31
0.0
  0
LINE
  5
299F
330
1E
100
AcDbEntity
  8
7
100
AcDbLine
 10
4.117468074658043
 20
6.92780905215976
 30
0.0
 11
4.117468074658043
 21
6.898937661083644
 31
0.0
  0
LINE
  5
29A0
330
1E
100
AcDbEntity
  8
7
100
AcDbLine
 10
4.217205607466442
 20
5.42518438024375
 30
0.0
 11
4.217205607466442
 21
5.431746060033776
 31
0.0
  0
LINE
  5
29A1
330
1E
100
AcDbEntity
  8
7
100
AcDbLine
 10
4.217205607466442
 20
5.431746060033776
 30
0.0
 11
4.217205607466442
 21
5.448806427487844
 31
0.0
  0
LINE
  5
29A2
330
1E
100
AcDbEntity
  8
7
100
AcDbLine
 10
4.217205607466442
 20
5.448806427487844
 30
0.0
 11
4.217205607466442
 21
5.476365482605955
 31
0.0
  0
LINE
  5
29A3
330
1E
100
AcDbEntity
  8
7
100
AcDbLine
 10
4.217205607466442
 20
5.476365482605955
 30
0.0
 11
4.217205607466442
 21
5.511798553472097
 31
0.0
  0
LINE
  5
29A4
330
1E
100
AcDbEntity
  8
7
100
AcDbLine
 10
4.217205607466442
 20
5.511798553472097
 30
0.0
 11
4.217205607466442
 21
5.551168632212254
 31
0.0
  0
LINE
  5
29A5
330
1E
100
AcDbEntity
  8
7
100
AcDbLine
 10
4.217205607466442
 20
5.551168632212254
 30
0.0
 11
4.217205607466442
 21
5.593163382868421
 31
0.0
  0
LINE
  5
29A6
330
1E
100
AcDbEntity
  8
7
100
AcDbLine
 10
4.217205607466442
 20
5.593163382868421
 30
0.0
 11
4.217205607466442
 21
5.633845797566585
 31
0.0
  0
LINE
  5
29A7
330
1E
100
AcDbEntity
  8
7
100
AcDbLine
 10
4.217205607466442
 20
5.633845797566585
 30
0.0
 11
4.217205607466442
 21
5.669278868432726
 31
0.0
  0
LINE
  5
29A8
330
1E
100
AcDbEntity
  8
7
100
AcDbLine
 10
4.217205607466442
 20
5.669278868432726
 30
0.0
 11
4.217205607466442
 21
5.696837923550837
 31
0.0
  0
LINE
  5
29A9
330
1E
100
AcDbEntity
  8
7
100
AcDbLine
 10
4.217205607466442
 20
5.696837923550837
 30
0.0
 11
4.217205607466442
 21
5.713898291004904
 31
0.0
  0
LINE
  5
29AA
330
1E
100
AcDbEntity
  8
7
100
AcDbLine
 10
4.217205607466442
 20
5.713898291004904
 30
0.0
 11
4.217205607466442
 21
5.720459970794932
 31
0.0
  0
LINE
  5
29AB
330
1E
100
AcDbEntity
  8
7
100
AcDbLine
 10
3.774948389618673
 20
5.32019750360333
 30
0.0
 11
3.774948389618673
 21
5.342507214889419
 31
0.0
  0
LINE
  5
29AC
330
1E
100
AcDbEntity
  8
7
100
AcDbLine
 10
3.774948389618673
 20
5.342507214889419
 30
0.0
 11
3.774948389618673
 21
5.362192254259499
 31
0.0
  0
LINE
  5
29AD
330
1E
100
AcDbEntity
  8
7
100
AcDbLine
 10
3.774948389618673
 20
5.362192254259499
 30
0.0
 11
3.774948389618673
 21
5.37531561383955
 31
0.0
  0
LINE
  5
29AE
330
1E
100
AcDbEntity
  8
7
100
AcDbLine
 10
3.774948389618673
 20
5.37531561383955
 30
0.0
 11
3.774948389618673
 21
5.379252621713566
 31
0.0
  0
LINE
  5
29AF
330
1E
100
AcDbEntity
  8
7
100
AcDbLine
 10
3.774948389618673
 20
5.379252621713566
 30
0.0
 11
3.824817156022873
 21
5.380564957671571
 31
0.0
  0
LINE
  5
29B0
330
1E
100
AcDbEntity
  8
7
100
AcDbLine
 10
3.774948389618673
 20
4.211273619088895
 30
0.0
 11
3.774948389618673
 21
4.216522962920916
 31
0.0
  0
LINE
  5
29B1
330
1E
100
AcDbEntity
  8
7
100
AcDbLine
 10
3.774948389618673
 20
4.216522962920916
 30
0.0
 11
3.774948389618673
 21
4.228333986542962
 31
0.0
  0
LINE
  5
29B2
330
1E
100
AcDbEntity
  8
7
100
AcDbLine
 10
3.774948389618673
 20
4.228333986542962
 30
0.0
 11
3.774948389618673
 21
4.248019025913042
 31
0.0
  0
LINE
  5
29B3
330
1E
100
AcDbEntity
  8
7
100
AcDbLine
 10
3.774948389618673
 20
4.248019025913042
 30
0.0
 11
3.774948389618673
 21
4.271641073157136
 31
0.0
  0
LINE
  5
29B4
330
1E
100
AcDbEntity
  8
7
100
AcDbLine
 10
3.774948389618673
 20
5.780827424863172
 30
0.0
 11
3.73951531875253
 21
5.782139760821177
 31
0.0
  0
LINE
  5
29B5
330
1E
100
AcDbEntity
  8
7
100
AcDbLine
 10
3.73951531875253
 20
5.782139760821177
 30
0.0
 11
3.694895896180353
 21
5.783452096779184
 31
0.0
  0
LINE
  5
29B6
330
1E
100
AcDbEntity
  8
7
100
AcDbLine
 10
3.694895896180353
 20
4.677152884180758
 30
0.0
 11
3.694895896180353
 21
4.591851046910417
 31
0.0
  0
LINE
  5
29B7
330
1E
100
AcDbEntity
  8
7
100
AcDbLine
 10
3.694895896180353
 20
4.591851046910417
 30
0.0
 11
3.694895896180353
 21
4.510486217514091
 31
0.0
  0
LINE
  5
29B8
330
1E
100
AcDbEntity
  8
7
100
AcDbLine
 10
3.694895896180353
 20
4.510486217514091
 30
0.0
 11
3.694895896180353
 21
4.435683067907793
 31
0.0
  0
LINE
  5
29B9
330
1E
100
AcDbEntity
  8
7
100
AcDbLine
 10
3.694895896180353
 20
4.435683067907793
 30
0.0
 11
3.694895896180353
 21
4.366129262133514
 31
0.0
  0
LINE
  5
29BA
330
1E
100
AcDbEntity
  8
7
100
AcDbLine
 10
3.694895896180353
 20
4.366129262133514
 30
0.0
 11
3.694895896180353
 21
4.304449472107267
 31
0.0
  0
LINE
  5
29BB
330
1E
100
AcDbEntity
  8
7
100
AcDbLine
 10
3.694895896180353
 20
4.304449472107267
 30
0.0
 11
3.694895896180353
 21
4.251956033787058
 31
0.0
  0
LINE
  5
29BC
330
1E
100
AcDbEntity
  8
7
100
AcDbLine
 10
3.694895896180353
 20
5.362192254259499
 30
0.0
 11
3.694895896180353
 21
5.309698815939288
 31
0.0
  0
LINE
  5
29BD
330
1E
100
AcDbEntity
  8
7
100
AcDbLine
 10
3.694895896180353
 20
5.309698815939288
 30
0.0
 11
3.694895896180353
 21
5.248019025913041
 31
0.0
  0
LINE
  5
29BE
330
1E
100
AcDbEntity
  8
7
100
AcDbLine
 10
3.694895896180353
 20
5.248019025913041
 30
0.0
 11
3.694895896180353
 21
5.178465220138764
 31
0.0
  0
LINE
  5
29BF
330
1E
100
AcDbEntity
  8
7
100
AcDbLine
 10
3.694895896180353
 20
5.178465220138764
 30
0.0
 11
3.694895896180353
 21
5.103662070532464
 31
0.0
  0
LINE
  5
29C0
330
1E
100
AcDbEntity
  8
7
100
AcDbLine
 10
3.694895896180353
 20
5.103662070532464
 30
0.0
 11
3.694895896180353
 21
5.022297241136139
 31
0.0
  0
LINE
  5
29C1
330
1E
100
AcDbEntity
  8
7
100
AcDbLine
 10
3.694895896180353
 20
5.022297241136139
 30
0.0
 11
3.694895896180353
 21
4.938307739823802
 31
0.0
  0
LINE
  5
29C2
330
1E
100
AcDbEntity
  8
7
100
AcDbLine
 10
3.694895896180353
 20
4.938307739823802
 30
0.0
 11
3.694895896180353
 21
4.851693566595456
 31
0.0
  0
LINE
  5
29C3
330
1E
100
AcDbEntity
  8
7
100
AcDbLine
 10
3.694895896180353
 20
4.851693566595456
 30
0.0
 11
3.694895896180353
 21
4.763767057409105
 31
0.0
  0
LINE
  5
29C4
330
1E
100
AcDbEntity
  8
7
100
AcDbLine
 10
3.694895896180353
 20
4.763767057409105
 30
0.0
 11
3.694895896180353
 21
4.677152884180758
 31
0.0
  0
LINE
  5
29C5
330
1E
100
AcDbEntity
  8
7
100
AcDbLine
 10
3.694895896180353
 20
5.362192254259499
 30
0.0
 11
3.73951531875253
 21
5.363504590217504
 31
0.0
  0
LINE
  5
29C6
330
1E
100
AcDbEntity
  8
7
100
AcDbLine
 10
3.73951531875253
 20
5.363504590217504
 30
0.0
 11
3.774948389618673
 21
5.363504590217504
 31
0.0
  0
LINE
  5
29C7
330
1E
100
AcDbEntity
  8
7
100
AcDbLine
 10
3.774948389618673
 20
5.766391729325114
 30
0.0
 11
3.774948389618673
 21
5.770328737199131
 31
0.0
  0
LINE
  5
29C8
330
1E
100
AcDbEntity
  8
7
100
AcDbLine
 10
3.774948389618673
 20
5.770328737199131
 30
0.0
 11
3.774948389618673
 21
5.783452096779184
 31
0.0
  0
LINE
  5
29C9
330
1E
100
AcDbEntity
  8
7
100
AcDbLine
 10
3.774948389618673
 20
5.783452096779184
 30
0.0
 11
3.774948389618673
 21
5.803137136149262
 31
0.0
  0
LINE
  5
29CA
330
1E
100
AcDbEntity
  8
7
100
AcDbLine
 10
3.774948389618673
 20
5.803137136149262
 30
0.0
 11
3.774948389618673
 21
5.825446847435351
 31
0.0
  0
LINE
  5
29CB
330
1E
100
AcDbEntity
  8
7
100
AcDbLine
 10
3.774948389618673
 20
6.874003277881545
 30
0.0
 11
3.774948389618673
 21
6.897625325125639
 31
0.0
  0
LINE
  5
29CC
330
1E
100
AcDbEntity
  8
7
100
AcDbLine
 10
3.774948389618673
 20
6.897625325125639
 30
0.0
 11
3.774948389618673
 21
6.915998028537712
 31
0.0
  0
LINE
  5
29CD
330
1E
100
AcDbEntity
  8
7
100
AcDbLine
 10
3.774948389618673
 20
6.915998028537712
 30
0.0
 11
3.774948389618673
 21
6.929121388117765
 31
0.0
  0
LINE
  5
29CE
330
1E
100
AcDbEntity
  8
7
100
AcDbLine
 10
3.774948389618673
 20
6.929121388117765
 30
0.0
 11
3.774948389618673
 21
6.934370731949787
 31
0.0
  0
LINE
  5
29CF
330
1E
100
AcDbEntity
  8
7
100
AcDbLine
 10
0.9914838226895401
 20
4.473740810689944
 30
0.0
 11
0.9901714867315352
 21
4.47505314664795
 31
0.0
  0
LINE
  5
29D0
330
1E
100
AcDbEntity
  8
7
100
AcDbLine
 10
0.9901714867315352
 20
4.47505314664795
 30
0.0
 11
0.8720612505110629
 21
4.47505314664795
 31
0.0
  0
LINE
  5
29D1
330
1E
100
AcDbEntity
  8
7
100
AcDbLine
 10
0.6174680746580439
 20
4.47505314664795
 30
0.0
 11
0.5006701743955766
 21
4.47505314664795
 31
0.0
  0
LINE
  5
29D2
330
1E
100
AcDbEntity
  8
7
100
AcDbLine
 10
0.5006701743955766
 20
4.47505314664795
 30
0.0
 11
0.4993578384375717
 21
4.473740810689944
 31
0.0
  0
LINE
  5
29D3
330
1E
100
AcDbEntity
  8
7
100
AcDbLine
 10
0.6174680746580439
 20
4.47505314664795
 30
0.0
 11
0.6424024578601433
 21
4.488176506228002
 31
0.0
  0
LINE
  5
29D4
330
1E
100
AcDbEntity
  8
7
100
AcDbLine
 10
0.6424024578601433
 20
4.488176506228002
 30
0.0
 11
0.6424024578601433
 21
4.492113514102018
 31
0.0
  0
LINE
  5
29D5
330
1E
100
AcDbEntity
  8
7
100
AcDbLine
 10
0.6424024578601433
 20
4.492113514102018
 30
0.0
 11
0.6424024578601433
 21
4.50261220176606
 31
0.0
  0
LINE
  5
29D6
330
1E
100
AcDbEntity
  8
7
100
AcDbLine
 10
0.6424024578601433
 20
4.50261220176606
 30
0.0
 11
0.6424024578601433
 21
4.518360233262123
 31
0.0
  0
LINE
  5
29D7
330
1E
100
AcDbEntity
  8
7
100
AcDbLine
 10
0.6424024578601433
 20
4.518360233262123
 30
0.0
 11
0.6424024578601433
 21
4.549856296254249
 31
0.0
  0
LINE
  5
29D8
330
1E
100
AcDbEntity
  8
7
100
AcDbLine
 10
0.6424024578601433
 20
4.549856296254249
 30
0.0
 11
0.6424024578601433
 21
4.55510564008627
 31
0.0
  0
LINE
  5
29D9
330
1E
100
AcDbEntity
  8
7
100
AcDbLine
 10
0.6424024578601433
 20
4.55510564008627
 30
0.0
 11
0.6424024578601433
 21
4.583977031162385
 31
0.0
  0
LINE
  5
29DA
330
1E
100
AcDbEntity
  8
7
100
AcDbLine
 10
0.8471268673089626
 20
4.50261220176606
 30
0.0
 11
0.8484392032669676
 21
4.492113514102018
 31
0.0
  0
LINE
  5
29DB
330
1E
100
AcDbEntity
  8
7
100
AcDbLine
 10
0.8484392032669676
 20
4.492113514102018
 30
0.0
 11
0.8484392032669676
 21
4.488176506228002
 31
0.0
  0
LINE
  5
29DC
330
1E
100
AcDbEntity
  8
7
100
AcDbLine
 10
0.8484392032669676
 20
4.55510564008627
 30
0.0
 11
0.8484392032669676
 21
4.549856296254249
 31
0.0
  0
LINE
  5
29DD
330
1E
100
AcDbEntity
  8
7
100
AcDbLine
 10
0.8484392032669676
 20
4.549856296254249
 30
0.0
 11
0.8471268673089626
 21
4.518360233262123
 31
0.0
  0
LINE
  5
29DE
330
1E
100
AcDbEntity
  8
7
100
AcDbLine
 10
0.9914838226895401
 20
6.00523687368207
 30
0.0
 11
0.9901714867315352
 21
6.006549209640076
 31
0.0
  0
LINE
  5
29DF
330
1E
100
AcDbEntity
  8
7
100
AcDbLine
 10
0.9901714867315352
 20
6.006549209640076
 30
0.0
 11
0.8720612505110629
 21
6.006549209640076
 31
0.0
  0
LINE
  5
29E0
330
1E
100
AcDbEntity
  8
7
100
AcDbLine
 10
0.6174680746580439
 20
6.006549209640076
 30
0.0
 11
0.5006701743955766
 21
6.006549209640076
 31
0.0
  0
LINE
  5
29E1
330
1E
100
AcDbEntity
  8
7
100
AcDbLine
 10
0.5006701743955766
 20
6.006549209640076
 30
0.0
 11
0.4993578384375717
 21
6.00523687368207
 31
0.0
  0
LINE
  5
29E2
330
1E
100
AcDbEntity
  8
7
100
AcDbLine
 10
0.6174680746580439
 20
6.006549209640076
 30
0.0
 11
0.6424024578601433
 21
6.018360233262123
 31
0.0
  0
LINE
  5
29E3
330
1E
100
AcDbEntity
  8
7
100
AcDbLine
 10
0.6424024578601433
 20
6.018360233262123
 30
0.0
 11
0.6424024578601433
 21
6.022297241136139
 31
0.0
  0
LINE
  5
29E4
330
1E
100
AcDbEntity
  8
7
100
AcDbLine
 10
0.6424024578601433
 20
6.022297241136139
 30
0.0
 11
0.6424024578601433
 21
6.032795928800181
 31
0.0
  0
LINE
  5
29E5
330
1E
100
AcDbEntity
  8
7
100
AcDbLine
 10
0.6424024578601433
 20
6.032795928800181
 30
0.0
 11
0.6424024578601433
 21
6.048543960296244
 31
0.0
  0
LINE
  5
29E6
330
1E
100
AcDbEntity
  8
7
100
AcDbLine
 10
0.6424024578601433
 20
6.048543960296244
 30
0.0
 11
0.6424024578601433
 21
6.08004002328837
 31
0.0
  0
LINE
  5
29E7
330
1E
100
AcDbEntity
  8
7
100
AcDbLine
 10
0.6424024578601433
 20
6.08004002328837
 30
0.0
 11
0.6424024578601433
 21
6.085289367120391
 31
0.0
  0
LINE
  5
29E8
330
1E
100
AcDbEntity
  8
7
100
AcDbLine
 10
0.6424024578601433
 20
6.085289367120391
 30
0.0
 11
0.6424024578601433
 21
6.115473094154511
 31
0.0
  0
LINE
  5
29E9
330
1E
100
AcDbEntity
  8
7
100
AcDbLine
 10
0.8471268673089626
 20
6.032795928800181
 30
0.0
 11
0.8484392032669676
 21
6.022297241136139
 31
0.0
  0
LINE
  5
29EA
330
1E
100
AcDbEntity
  8
7
100
AcDbLine
 10
0.8484392032669676
 20
6.022297241136139
 30
0.0
 11
0.8484392032669676
 21
6.018360233262123
 31
0.0
  0
LINE
  5
29EB
330
1E
100
AcDbEntity
  8
7
100
AcDbLine
 10
0.8484392032669676
 20
6.085289367120391
 30
0.0
 11
0.8484392032669676
 21
6.08004002328837
 31
0.0
  0
LINE
  5
29EC
330
1E
100
AcDbEntity
  8
7
100
AcDbLine
 10
0.8484392032669676
 20
6.08004002328837
 30
0.0
 11
0.8471268673089626
 21
6.048543960296244
 31
0.0
  0
LINE
  5
29ED
330
1E
100
AcDbEntity
  8
7
100
AcDbLine
 10
0.4993578384375717
 20
6.00523687368207
 30
0.0
 11
0.4993578384375717
 21
6.070853671582333
 31
0.0
  0
LINE
  5
29EE
330
1E
100
AcDbEntity
  8
7
100
AcDbLine
 10
0.4993578384375717
 20
6.070853671582333
 30
0.0
 11
0.4324287045793041
 21
6.070853671582333
 31
0.0
  0
LINE
  5
29EF
330
1E
100
AcDbEntity
  8
7
100
AcDbLine
 10
0.4324287045793041
 20
6.070853671582333
 30
0.0
 11
0.4324287045793041
 21
6.732270994416978
 31
0.0
  0
LINE
  5
29F0
330
1E
100
AcDbEntity
  8
7
100
AcDbLine
 10
0.4324287045793041
 20
6.732270994416978
 30
0.0
 11
1.058412956547807
 21
6.732270994416978
 31
0.0
  0
LINE
  5
29F1
330
1E
100
AcDbEntity
  8
7
100
AcDbLine
 10
1.058412956547807
 20
6.732270994416978
 30
0.0
 11
1.058412956547807
 21
6.070853671582333
 31
0.0
  0
LINE
  5
29F2
330
1E
100
AcDbEntity
  8
7
100
AcDbLine
 10
1.058412956547807
 20
6.070853671582333
 30
0.0
 11
0.9914838226895401
 21
6.070853671582333
 31
0.0
  0
LINE
  5
29F3
330
1E
100
AcDbEntity
  8
7
100
AcDbLine
 10
0.9914838226895401
 20
6.070853671582333
 30
0.0
 11
0.9914838226895401
 21
6.00523687368207
 31
0.0
  0
LINE
  5
29F4
330
1E
100
AcDbEntity
  8
7
100
AcDbLine
 10
0.9914838226895401
 20
6.00523687368207
 30
0.0
 11
0.4993578384375717
 21
6.00523687368207
 31
0.0
  0
LINE
  5
29F5
330
1E
100
AcDbEntity
  8
7
100
AcDbLine
 10
0.1161557387000389
 20
6.123347109902542
 30
0.0
 11
0.1502764736081756
 21
6.041982280506217
 31
0.0
  0
LINE
  5
29F6
330
1E
100
AcDbEntity
  8
7
100
AcDbLine
 10
0.1502764736081756
 20
6.041982280506217
 30
0.0
 11
0.1948958961803537
 21
5.967179130899918
 31
0.0
  0
LINE
  5
29F7
330
1E
100
AcDbEntity
  8
7
100
AcDbLine
 10
0.1948958961803537
 20
5.967179130899918
 30
0.0
 11
0.2487016704585692
 21
5.89762532512564
 31
0.0
  0
LINE
  5
29F8
330
1E
100
AcDbEntity
  8
7
100
AcDbLine
 10
0.2487016704585692
 20
5.89762532512564
 30
0.0
 11
0.3103814604848161
 21
5.835945535099393
 31
0.0
  0
LINE
  5
29F9
330
1E
100
AcDbEntity
  8
7
100
AcDbLine
 10
0.3103814604848161
 20
5.835945535099393
 30
0.0
 11
0.3799352662590936
 21
5.783452096779184
 31
0.0
  0
LINE
  5
29FA
330
1E
100
AcDbEntity
  8
7
100
AcDbLine
 10
0.3799352662590936
 20
6.893688317251625
 30
0.0
 11
0.3103814604848161
 21
6.841194878931414
 31
0.0
  0
LINE
  5
29FB
330
1E
100
AcDbEntity
  8
7
100
AcDbLine
 10
0.3103814604848161
 20
6.841194878931414
 30
0.0
 11
0.2487016704585692
 21
6.779515088905167
 31
0.0
  0
LINE
  5
29FC
330
1E
100
AcDbEntity
  8
7
100
AcDbLine
 10
0.2487016704585692
 20
6.779515088905167
 30
0.0
 11
0.1948958961803537
 21
6.709961283130889
 31
0.0
  0
LINE
  5
29FD
330
1E
100
AcDbEntity
  8
7
100
AcDbLine
 10
0.1948958961803537
 20
6.709961283130889
 30
0.0
 11
0.1502764736081756
 21
6.63515813352459
 31
0.0
  0
LINE
  5
29FE
330
1E
100
AcDbEntity
  8
7
100
AcDbLine
 10
0.1502764736081756
 20
6.63515813352459
 30
0.0
 11
0.1161557387000389
 21
6.553793304128265
 31
0.0
  0
LINE
  5
29FF
330
1E
100
AcDbEntity
  8
7
100
AcDbLine
 10
0.1161557387000389
 20
6.553793304128265
 30
0.0
 11
0.0938460274139494
 21
6.469803802815928
 31
0.0
  0
LINE
  5
2A00
330
1E
100
AcDbEntity
  8
7
100
AcDbLine
 10
0.0938460274139494
 20
6.469803802815928
 30
0.0
 11
0.0820350037919022
 21
6.381877293629577
 31
0.0
  0
LINE
  5
2A01
330
1E
100
AcDbEntity
  8
7
100
AcDbLine
 10
0.0820350037919022
 20
6.381877293629577
 30
0.0
 11
0.0820350037919022
 21
6.29526312040123
 31
0.0
  0
LINE
  5
2A02
330
1E
100
AcDbEntity
  8
7
100
AcDbLine
 10
0.0820350037919022
 20
6.29526312040123
 30
0.0
 11
0.0938460274139494
 21
6.207336611214879
 31
0.0
  0
LINE
  5
2A03
330
1E
100
AcDbEntity
  8
7
100
AcDbLine
 10
0.0938460274139494
 20
6.207336611214879
 30
0.0
 11
0.1161557387000389
 21
6.123347109902542
 31
0.0
  0
LINE
  5
2A04
330
1E
100
AcDbEntity
  8
7
100
AcDbLine
 10
1.395683297755156
 20
6.207336611214879
 30
0.0
 11
1.407494321377204
 21
6.29526312040123
 31
0.0
  0
LINE
  5
2A05
330
1E
100
AcDbEntity
  8
7
100
AcDbLine
 10
1.407494321377204
 20
6.29526312040123
 30
0.0
 11
1.407494321377204
 21
6.381877293629577
 31
0.0
  0
LINE
  5
2A06
330
1E
100
AcDbEntity
  8
7
100
AcDbLine
 10
1.407494321377204
 20
6.381877293629577
 30
0.0
 11
1.395683297755156
 21
6.469803802815928
 31
0.0
  0
LINE
  5
2A07
330
1E
100
AcDbEntity
  8
7
100
AcDbLine
 10
1.395683297755156
 20
6.469803802815928
 30
0.0
 11
1.373373586469067
 21
6.553793304128265
 31
0.0
  0
LINE
  5
2A08
330
1E
100
AcDbEntity
  8
7
100
AcDbLine
 10
1.373373586469067
 20
6.553793304128265
 30
0.0
 11
1.339252851560931
 21
6.63515813352459
 31
0.0
  0
LINE
  5
2A09
330
1E
100
AcDbEntity
  8
7
100
AcDbLine
 10
1.339252851560931
 20
6.63515813352459
 30
0.0
 11
1.294633428988752
 21
6.709961283130889
 31
0.0
  0
LINE
  5
2A0A
330
1E
100
AcDbEntity
  8
7
100
AcDbLine
 10
1.294633428988752
 20
6.709961283130889
 30
0.0
 11
1.240827654710537
 21
6.779515088905167
 31
0.0
  0
LINE
  5
2A0B
330
1E
100
AcDbEntity
  8
7
100
AcDbLine
 10
1.240827654710537
 20
6.779515088905167
 30
0.0
 11
1.179147864684291
 21
6.841194878931414
 31
0.0
  0
LINE
  5
2A0C
330
1E
100
AcDbEntity
  8
7
100
AcDbLine
 10
1.179147864684291
 20
6.841194878931414
 30
0.0
 11
1.109594058910012
 21
6.893688317251625
 31
0.0
  0
LINE
  5
2A0D
330
1E
100
AcDbEntity
  8
7
100
AcDbLine
 10
1.109594058910012
 20
5.783452096779184
 30
0.0
 11
1.179147864684291
 21
5.835945535099393
 31
0.0
  0
LINE
  5
2A0E
330
1E
100
AcDbEntity
  8
7
100
AcDbLine
 10
1.179147864684291
 20
5.835945535099393
 30
0.0
 11
1.240827654710537
 21
5.89762532512564
 31
0.0
  0
LINE
  5
2A0F
330
1E
100
AcDbEntity
  8
7
100
AcDbLine
 10
1.240827654710537
 20
5.89762532512564
 30
0.0
 11
1.294633428988752
 21
5.967179130899918
 31
0.0
  0
LINE
  5
2A10
330
1E
100
AcDbEntity
  8
7
100
AcDbLine
 10
1.294633428988752
 20
5.967179130899918
 30
0.0
 11
1.339252851560931
 21
6.041982280506217
 31
0.0
  0
LINE
  5
2A11
330
1E
100
AcDbEntity
  8
7
100
AcDbLine
 10
1.339252851560931
 20
6.041982280506217
 30
0.0
 11
1.373373586469067
 21
6.123347109902542
 31
0.0
  0
LINE
  5
2A12
330
1E
100
AcDbEntity
  8
7
100
AcDbLine
 10
1.373373586469067
 20
6.123347109902542
 30
0.0
 11
1.395683297755156
 21
6.207336611214879
 31
0.0
  0
LINE
  5
2A13
330
1E
100
AcDbEntity
  8
7
100
AcDbLine
 10
1.109594058910012
 20
6.893688317251625
 30
0.0
 11
1.109594058910012
 21
6.895000653209629
 31
0.0
  0
LINE
  5
2A14
330
1E
100
AcDbEntity
  8
7
100
AcDbLine
 10
1.109594058910012
 20
6.895000653209629
 30
0.0
 11
1.110906394868017
 21
6.895000653209629
 31
0.0
  0
LINE
  5
2A15
330
1E
100
AcDbEntity
  8
7
100
AcDbLine
 10
0.5059195182275973
 20
7.451431099403855
 30
0.0
 11
0.5072318541856032
 21
7.448806427487843
 31
0.0
  0
LINE
  5
2A16
330
1E
100
AcDbEntity
  8
7
100
AcDbLine
 10
0.5072318541856032
 20
7.448806427487843
 30
0.0
 11
0.5072318541856032
 21
7.447494091529838
 31
0.0
  0
LINE
  5
2A17
330
1E
100
AcDbEntity
  8
7
100
AcDbLine
 10
0.6214050825320597
 20
7.077415351372358
 30
0.0
 11
0.6594628253142121
 21
7.061667319876296
 31
0.0
  0
LINE
  5
2A18
330
1E
100
AcDbEntity
  8
7
100
AcDbLine
 10
0.6594628253142121
 20
7.061667319876296
 30
0.0
 11
0.7001452400123754
 21
7.056417976044274
 31
0.0
  0
LINE
  5
2A19
330
1E
100
AcDbEntity
  8
7
100
AcDbLine
 10
0.7001452400123754
 20
7.368753934049523
 30
0.0
 11
0.6594628253142121
 21
7.363504590217504
 31
0.0
  0
LINE
  5
2A1A
330
1E
100
AcDbEntity
  8
7
100
AcDbLine
 10
0.6594628253142121
 20
7.363504590217504
 30
0.0
 11
0.6227174184900655
 21
7.347756558721441
 31
0.0
  0
LINE
  5
2A1B
330
1E
100
AcDbEntity
  8
7
100
AcDbLine
 10
0.6227174184900655
 20
7.347756558721441
 30
0.0
 11
0.5899090195399337
 21
7.322822175519339
 31
0.0
  0
LINE
  5
2A1C
330
1E
100
AcDbEntity
  8
7
100
AcDbLine
 10
0.5899090195399337
 20
7.322822175519339
 30
0.0
 11
0.5649746363378334
 21
7.291326112527213
 31
0.0
  0
LINE
  5
2A1D
330
1E
100
AcDbEntity
  8
7
100
AcDbLine
 10
0.5649746363378334
 20
7.291326112527213
 30
0.0
 11
0.5492266048417705
 21
7.253268369745063
 31
0.0
  0
LINE
  5
2A1E
330
1E
100
AcDbEntity
  8
7
100
AcDbLine
 10
0.5492266048417705
 20
7.253268369745063
 30
0.0
 11
0.5439772610097498
 21
7.212585955046899
 31
0.0
  0
LINE
  5
2A1F
330
1E
100
AcDbEntity
  8
7
100
AcDbLine
 10
0.5439772610097498
 20
7.212585955046899
 30
0.0
 11
0.5492266048417705
 21
7.171903540348736
 31
0.0
  0
LINE
  5
2A20
330
1E
100
AcDbEntity
  8
7
100
AcDbLine
 10
0.5492266048417705
 20
7.171903540348736
 30
0.0
 11
0.5649746363378334
 21
7.135158133524589
 31
0.0
  0
LINE
  5
2A21
330
1E
100
AcDbEntity
  8
7
100
AcDbLine
 10
0.5649746363378334
 20
7.135158133524589
 30
0.0
 11
0.5899090195399337
 21
7.102349734574458
 31
0.0
  0
LINE
  5
2A22
330
1E
100
AcDbEntity
  8
7
100
AcDbLine
 10
0.5899090195399337
 20
7.102349734574458
 30
0.0
 11
0.6214050825320597
 21
7.077415351372358
 31
0.0
  0
LINE
  5
2A23
330
1E
100
AcDbEntity
  8
7
100
AcDbLine
 10
0.8681242426370463
 20
7.077415351372358
 30
0.0
 11
0.9009326415871772
 21
7.102349734574458
 31
0.0
  0
LINE
  5
2A24
330
1E
100
AcDbEntity
  8
7
100
AcDbLine
 10
0.9009326415871772
 20
7.102349734574458
 30
0.0
 11
0.9258670247892775
 21
7.133845797566584
 31
0.0
  0
LINE
  5
2A25
330
1E
100
AcDbEntity
  8
7
100
AcDbLine
 10
0.9258670247892775
 20
7.133845797566584
 30
0.0
 11
0.9416150562853404
 21
7.171903540348736
 31
0.0
  0
LINE
  5
2A26
330
1E
100
AcDbEntity
  8
7
100
AcDbLine
 10
0.9416150562853404
 20
7.171903540348736
 30
0.0
 11
0.9468644001173611
 21
7.212585955046899
 31
0.0
  0
LINE
  5
2A27
330
1E
100
AcDbEntity
  8
7
100
AcDbLine
 10
0.9468644001173611
 20
7.212585955046899
 30
0.0
 11
0.9416150562853404
 21
7.253268369745063
 31
0.0
  0
LINE
  5
2A28
330
1E
100
AcDbEntity
  8
7
100
AcDbLine
 10
0.9416150562853404
 20
7.253268369745063
 30
0.0
 11
0.9258670247892775
 21
7.290013776569209
 31
0.0
  0
LINE
  5
2A29
330
1E
100
AcDbEntity
  8
7
100
AcDbLine
 10
0.9258670247892775
 20
7.290013776569209
 30
0.0
 11
0.9009326415871772
 21
7.322822175519339
 31
0.0
  0
LINE
  5
2A2A
330
1E
100
AcDbEntity
  8
7
100
AcDbLine
 10
0.9009326415871772
 20
7.322822175519339
 30
0.0
 11
0.8694365785950513
 21
7.347756558721441
 31
0.0
  0
LINE
  5
2A2B
330
1E
100
AcDbEntity
  8
7
100
AcDbLine
 10
0.8694365785950513
 20
7.347756558721441
 30
0.0
 11
0.8313788358128997
 21
7.363504590217504
 31
0.0
  0
LINE
  5
2A2C
330
1E
100
AcDbEntity
  8
7
100
AcDbLine
 10
0.8313788358128997
 20
7.363504590217504
 30
0.0
 11
0.7906964211147365
 21
7.368753934049523
 31
0.0
  0
LINE
  5
2A2D
330
1E
100
AcDbEntity
  8
7
100
AcDbLine
 10
0.7906964211147365
 20
7.056417976044274
 30
0.0
 11
0.8313788358128997
 21
7.061667319876296
 31
0.0
  0
LINE
  5
2A2E
330
1E
100
AcDbEntity
  8
7
100
AcDbLine
 10
0.8313788358128997
 20
7.061667319876296
 30
0.0
 11
0.8681242426370463
 21
7.077415351372358
 31
0.0
  0
LINE
  5
2A2F
330
1E
100
AcDbEntity
  8
7
100
AcDbLine
 10
0.8523762111409833
 20
7.164029524600705
 30
0.0
 11
0.8681242426370463
 21
7.195525587592831
 31
0.0
  0
LINE
  5
2A30
330
1E
100
AcDbEntity
  8
7
100
AcDbLine
 10
0.8681242426370463
 20
7.195525587592831
 30
0.0
 11
0.8681242426370463
 21
7.229646322500967
 31
0.0
  0
LINE
  5
2A31
330
1E
100
AcDbEntity
  8
7
100
AcDbLine
 10
0.8681242426370463
 20
7.229646322500967
 30
0.0
 11
0.8523762111409833
 21
7.261142385493092
 31
0.0
  0
LINE
  5
2A32
330
1E
100
AcDbEntity
  8
7
100
AcDbLine
 10
0.6384654499861285
 20
7.261142385493092
 30
0.0
 11
0.6227174184900655
 21
7.229646322500967
 31
0.0
  0
LINE
  5
2A33
330
1E
100
AcDbEntity
  8
7
100
AcDbLine
 10
0.6227174184900655
 20
7.229646322500967
 30
0.0
 11
0.6227174184900655
 21
7.195525587592831
 31
0.0
  0
LINE
  5
2A34
330
1E
100
AcDbEntity
  8
7
100
AcDbLine
 10
0.6227174184900655
 20
7.195525587592831
 30
0.0
 11
0.6384654499861285
 21
7.164029524600705
 31
0.0
  0
LINE
  5
2A35
330
1E
100
AcDbEntity
  8
7
100
AcDbLine
 10
1.180460200642296
 20
7.620722437986531
 30
0.0
 11
1.135840778070117
 21
7.618097766070521
 31
0.0
  0
LINE
  5
2A36
330
1E
100
AcDbEntity
  8
7
100
AcDbLine
 10
1.135840778070117
 20
7.618097766070521
 30
0.0
 11
1.092533691455944
 21
7.603662070532463
 31
0.0
  0
LINE
  5
2A37
330
1E
100
AcDbEntity
  8
7
100
AcDbLine
 10
1.092533691455944
 20
7.603662070532463
 30
0.0
 11
1.054475948673792
 21
7.580040023288369
 31
0.0
  0
LINE
  5
2A38
330
1E
100
AcDbEntity
  8
7
100
AcDbLine
 10
1.054475948673792
 20
7.580040023288369
 30
0.0
 11
1.021667549723661
 21
7.548543960296243
 31
0.0
  0
LINE
  5
2A39
330
1E
100
AcDbEntity
  8
7
100
AcDbLine
 10
1.021667549723661
 20
7.548543960296243
 30
0.0
 11
0.9993578384375716
 21
7.509173881556085
 31
0.0
  0
LINE
  5
2A3A
330
1E
100
AcDbEntity
  8
7
100
AcDbLine
 10
0.9993578384375716
 20
7.509173881556085
 30
0.0
 11
0.9862344788575185
 21
7.465866794941913
 31
0.0
  0
LINE
  5
2A3B
330
1E
100
AcDbEntity
  8
7
100
AcDbLine
 10
1.201457575970379
 20
7.250643697829051
 30
0.0
 11
1.244764662584553
 21
7.263767057409104
 31
0.0
  0
LINE
  5
2A3C
330
1E
100
AcDbEntity
  8
7
100
AcDbLine
 10
1.244764662584553
 20
7.263767057409104
 30
0.0
 11
1.28413474132471
 21
7.286076768695194
 31
0.0
  0
LINE
  5
2A3D
330
1E
100
AcDbEntity
  8
7
100
AcDbLine
 10
1.28413474132471
 20
7.286076768695194
 30
0.0
 11
1.315630804316836
 21
7.318885167645325
 31
0.0
  0
LINE
  5
2A3E
330
1E
100
AcDbEntity
  8
7
100
AcDbLine
 10
1.315630804316836
 20
7.318885167645325
 30
0.0
 11
1.339252851560931
 21
7.356942910427477
 31
0.0
  0
LINE
  5
2A3F
330
1E
100
AcDbEntity
  8
7
100
AcDbLine
 10
1.339252851560931
 20
7.356942910427477
 30
0.0
 11
1.353688547098989
 21
7.400249997041649
 31
0.0
  0
LINE
  5
2A40
330
1E
100
AcDbEntity
  8
7
100
AcDbLine
 10
1.353688547098989
 20
7.400249997041649
 30
0.0
 11
1.356313219014999
 21
7.444869419613828
 31
0.0
  0
LINE
  5
2A41
330
1E
100
AcDbEntity
  8
7
100
AcDbLine
 10
1.356313219014999
 20
7.444869419613828
 30
0.0
 11
1.348439203266968
 21
7.489488842186006
 31
0.0
  0
LINE
  5
2A42
330
1E
100
AcDbEntity
  8
7
100
AcDbLine
 10
1.348439203266968
 20
7.489488842186006
 30
0.0
 11
1.330066499854894
 21
7.53017125688417
 31
0.0
  0
LINE
  5
2A43
330
1E
100
AcDbEntity
  8
7
100
AcDbLine
 10
1.330066499854894
 20
7.53017125688417
 30
0.0
 11
1.301195108778778
 21
7.565604327750311
 31
0.0
  0
LINE
  5
2A44
330
1E
100
AcDbEntity
  8
7
100
AcDbLine
 10
1.301195108778778
 20
7.565604327750311
 30
0.0
 11
1.265762037912637
 21
7.594475718826426
 31
0.0
  0
LINE
  5
2A45
330
1E
100
AcDbEntity
  8
7
100
AcDbLine
 10
1.265762037912637
 20
7.594475718826426
 30
0.0
 11
1.225079623214474
 21
7.6128484222385
 31
0.0
  0
LINE
  5
2A46
330
1E
100
AcDbEntity
  8
7
100
AcDbLine
 10
1.225079623214474
 20
7.6128484222385
 30
0.0
 11
1.180460200642296
 21
7.620722437986531
 31
0.0
  0
LINE
  5
2A47
330
1E
100
AcDbEntity
  8
7
100
AcDbLine
 10
0.9836098069415086
 20
7.447494091529838
 30
0.0
 11
0.9836098069415086
 21
7.448806427487843
 31
0.0
  0
LINE
  5
2A48
330
1E
100
AcDbEntity
  8
7
100
AcDbLine
 10
0.9836098069415086
 20
7.448806427487843
 30
0.0
 11
0.9836098069415086
 21
7.45011876344585
 31
0.0
  0
LINE
  5
2A49
330
1E
100
AcDbEntity
  8
7
100
AcDbLine
 10
0.9836098069415086
 20
7.45011876344585
 30
0.0
 11
0.9836098069415086
 21
7.451431099403855
 31
0.0
  0
LINE
  5
2A4A
330
1E
100
AcDbEntity
  8
7
100
AcDbLine
 10
0.9836098069415086
 20
7.451431099403855
 30
0.0
 11
0.9849221428995136
 21
7.465866794941913
 31
0.0
  0
LINE
  5
2A4B
330
1E
100
AcDbEntity
  8
7
100
AcDbLine
 10
1.187021880432322
 20
7.248019025913041
 30
0.0
 11
1.185709544474316
 21
7.248019025913041
 31
0.0
  0
LINE
  5
2A4C
330
1E
100
AcDbEntity
  8
7
100
AcDbLine
 10
1.185709544474316
 20
7.248019025913041
 30
0.0
 11
1.183084872558306
 21
7.248019025913041
 31
0.0
  0
LINE
  5
2A4D
330
1E
100
AcDbEntity
  8
7
100
AcDbLine
 10
0.5072318541856032
 20
7.447494091529838
 30
0.0
 11
0.5059195182275973
 21
7.448806427487843
 31
0.0
  0
LINE
  5
2A4E
330
1E
100
AcDbEntity
  8
7
100
AcDbLine
 10
0.5059195182275973
 20
7.448806427487843
 30
0.0
 11
0.5059195182275973
 21
7.45011876344585
 31
0.0
  0
LINE
  5
2A4F
330
1E
100
AcDbEntity
  8
7
100
AcDbLine
 10
0.5059195182275973
 20
7.45011876344585
 30
0.0
 11
0.5059195182275973
 21
7.451431099403855
 31
0.0
  0
LINE
  5
2A50
330
1E
100
AcDbEntity
  8
7
100
AcDbLine
 10
0.1515888095661806
 20
7.356942910427477
 30
0.0
 11
0.175210856810275
 21
7.318885167645325
 31
0.0
  0
LINE
  5
2A51
330
1E
100
AcDbEntity
  8
7
100
AcDbLine
 10
0.175210856810275
 20
7.318885167645325
 30
0.0
 11
0.206706919802401
 21
7.286076768695194
 31
0.0
  0
LINE
  5
2A52
330
1E
100
AcDbEntity
  8
7
100
AcDbLine
 10
0.206706919802401
 20
7.286076768695194
 30
0.0
 11
0.2460769985425584
 21
7.263767057409104
 31
0.0
  0
LINE
  5
2A53
330
1E
100
AcDbEntity
  8
7
100
AcDbLine
 10
0.2460769985425584
 20
7.263767057409104
 30
0.0
 11
0.2893840851567324
 21
7.250643697829051
 31
0.0
  0
LINE
  5
2A54
330
1E
100
AcDbEntity
  8
7
100
AcDbLine
 10
0.4914838226895402
 20
7.509173881556085
 30
0.0
 11
0.4691741114034507
 21
7.548543960296243
 31
0.0
  0
LINE
  5
2A55
330
1E
100
AcDbEntity
  8
7
100
AcDbLine
 10
0.4691741114034507
 20
7.548543960296243
 30
0.0
 11
0.4363657124533198
 21
7.580040023288369
 31
0.0
  0
LINE
  5
2A56
330
1E
100
AcDbEntity
  8
7
100
AcDbLine
 10
0.4363657124533198
 20
7.580040023288369
 30
0.0
 11
0.3983079696711673
 21
7.603662070532463
 31
0.0
  0
LINE
  5
2A57
330
1E
100
AcDbEntity
  8
7
100
AcDbLine
 10
0.3983079696711673
 20
7.603662070532463
 30
0.0
 11
0.3550008830569942
 21
7.618097766070521
 31
0.0
  0
LINE
  5
2A58
330
1E
100
AcDbEntity
  8
7
100
AcDbLine
 10
0.3550008830569942
 20
7.618097766070521
 30
0.0
 11
0.3103814604848161
 21
7.620722437986531
 31
0.0
  0
LINE
  5
2A59
330
1E
100
AcDbEntity
  8
7
100
AcDbLine
 10
0.3103814604848161
 20
7.620722437986531
 30
0.0
 11
0.2657620379126371
 21
7.6128484222385
 31
0.0
  0
LINE
  5
2A5A
330
1E
100
AcDbEntity
  8
7
100
AcDbLine
 10
0.2657620379126371
 20
7.6128484222385
 30
0.0
 11
0.2250796232144738
 21
7.594475718826426
 31
0.0
  0
LINE
  5
2A5B
330
1E
100
AcDbEntity
  8
7
100
AcDbLine
 10
0.2250796232144738
 20
7.594475718826426
 30
0.0
 11
0.189646552348333
 21
7.565604327750311
 31
0.0
  0
LINE
  5
2A5C
330
1E
100
AcDbEntity
  8
7
100
AcDbLine
 10
0.189646552348333
 20
7.565604327750311
 30
0.0
 11
0.160775161272217
 21
7.53017125688417
 31
0.0
  0
LINE
  5
2A5D
330
1E
100
AcDbEntity
  8
7
100
AcDbLine
 10
0.160775161272217
 20
7.53017125688417
 30
0.0
 11
0.1424024578601442
 21
7.489488842186006
 31
0.0
  0
LINE
  5
2A5E
330
1E
100
AcDbEntity
  8
7
100
AcDbLine
 10
0.1424024578601442
 20
7.489488842186006
 30
0.0
 11
0.1345284421121127
 21
7.444869419613828
 31
0.0
  0
LINE
  5
2A5F
330
1E
100
AcDbEntity
  8
7
100
AcDbLine
 10
0.1345284421121127
 20
7.444869419613828
 30
0.0
 11
0.1371531140281226
 21
7.400249997041649
 31
0.0
  0
LINE
  5
2A60
330
1E
100
AcDbEntity
  8
7
100
AcDbLine
 10
0.1371531140281226
 20
7.400249997041649
 30
0.0
 11
0.1515888095661806
 21
7.356942910427477
 31
0.0
  0
LINE
  5
2A61
330
1E
100
AcDbEntity
  8
7
100
AcDbLine
 10
0.3038197806947895
 20
7.248019025913041
 30
0.0
 11
0.3051321166527954
 21
7.248019025913041
 31
0.0
  0
LINE
  5
2A62
330
1E
100
AcDbEntity
  8
7
100
AcDbLine
 10
0.3051321166527954
 20
7.248019025913041
 30
0.0
 11
0.3064444526108003
 21
7.248019025913041
 31
0.0
  0
LINE
  5
2A63
330
1E
100
AcDbEntity
  8
7
100
AcDbLine
 10
0.3064444526108003
 20
7.248019025913041
 30
0.0
 11
0.3077567885688053
 21
7.248019025913041
 31
0.0
  0
LINE
  5
2A64
330
1E
100
AcDbEntity
  8
7
100
AcDbLine
 10
0.5492266048417705
 20
7.253268369745063
 30
0.0
 11
0.5439772610097498
 21
7.212585955046899
 31
0.0
  0
LINE
  5
2A65
330
1E
100
AcDbEntity
  8
7
100
AcDbLine
 10
0.5439772610097498
 20
7.212585955046899
 30
0.0
 11
0.5492266048417705
 21
7.171903540348736
 31
0.0
  0
LINE
  5
2A66
330
1E
100
AcDbEntity
  8
7
100
AcDbLine
 10
0.5492266048417705
 20
7.171903540348736
 30
0.0
 11
0.5649746363378334
 21
7.135158133524589
 31
0.0
  0
LINE
  5
2A67
330
1E
100
AcDbEntity
  8
7
100
AcDbLine
 10
0.5649746363378334
 20
7.135158133524589
 30
0.0
 11
0.5899090195399337
 21
7.102349734574458
 31
0.0
  0
LINE
  5
2A68
330
1E
100
AcDbEntity
  8
7
100
AcDbLine
 10
0.5899090195399337
 20
7.102349734574458
 30
0.0
 11
0.6214050825320597
 21
7.077415351372358
 31
0.0
  0
LINE
  5
2A69
330
1E
100
AcDbEntity
  8
7
100
AcDbLine
 10
0.6214050825320597
 20
7.077415351372358
 30
0.0
 11
0.6594628253142121
 21
7.061667319876296
 31
0.0
  0
LINE
  5
2A6A
330
1E
100
AcDbEntity
  8
7
100
AcDbLine
 10
0.6594628253142121
 20
7.061667319876296
 30
0.0
 11
0.7001452400123754
 21
7.056417976044274
 31
0.0
  0
LINE
  5
2A6B
330
1E
100
AcDbEntity
  8
7
100
AcDbLine
 10
0.7001452400123754
 20
7.368753934049523
 30
0.0
 11
0.6594628253142121
 21
7.363504590217504
 31
0.0
  0
LINE
  5
2A6C
330
1E
100
AcDbEntity
  8
7
100
AcDbLine
 10
0.6594628253142121
 20
7.363504590217504
 30
0.0
 11
0.6227174184900655
 21
7.347756558721441
 31
0.0
  0
LINE
  5
2A6D
330
1E
100
AcDbEntity
  8
7
100
AcDbLine
 10
0.6227174184900655
 20
7.347756558721441
 30
0.0
 11
0.5899090195399337
 21
7.322822175519339
 31
0.0
  0
LINE
  5
2A6E
330
1E
100
AcDbEntity
  8
7
100
AcDbLine
 10
0.5899090195399337
 20
7.322822175519339
 30
0.0
 11
0.5649746363378334
 21
7.291326112527213
 31
0.0
  0
LINE
  5
2A6F
330
1E
100
AcDbEntity
  8
7
100
AcDbLine
 10
0.5649746363378334
 20
7.291326112527213
 30
0.0
 11
0.5492266048417705
 21
7.253268369745063
 31
0.0
  0
LINE
  5
2A70
330
1E
100
AcDbEntity
  8
7
100
AcDbLine
 10
0.8694365785950513
 20
7.347756558721441
 30
0.0
 11
0.8313788358128997
 21
7.363504590217504
 31
0.0
  0
LINE
  5
2A71
330
1E
100
AcDbEntity
  8
7
100
AcDbLine
 10
0.8313788358128997
 20
7.363504590217504
 30
0.0
 11
0.7906964211147365
 21
7.368753934049523
 31
0.0
  0
LINE
  5
2A72
330
1E
100
AcDbEntity
  8
7
100
AcDbLine
 10
0.7906964211147365
 20
7.056417976044274
 30
0.0
 11
0.8313788358128997
 21
7.061667319876296
 31
0.0
  0
LINE
  5
2A73
330
1E
100
AcDbEntity
  8
7
100
AcDbLine
 10
0.8313788358128997
 20
7.061667319876296
 30
0.0
 11
0.8681242426370463
 21
7.077415351372358
 31
0.0
  0
LINE
  5
2A74
330
1E
100
AcDbEntity
  8
7
100
AcDbLine
 10
0.8681242426370463
 20
7.077415351372358
 30
0.0
 11
0.9009326415871772
 21
7.102349734574458
 31
0.0
  0
LINE
  5
2A75
330
1E
100
AcDbEntity
  8
7
100
AcDbLine
 10
0.9009326415871772
 20
7.102349734574458
 30
0.0
 11
0.9258670247892775
 21
7.133845797566584
 31
0.0
  0
LINE
  5
2A76
330
1E
100
AcDbEntity
  8
7
100
AcDbLine
 10
0.9258670247892775
 20
7.133845797566584
 30
0.0
 11
0.9416150562853404
 21
7.171903540348736
 31
0.0
  0
LINE
  5
2A77
330
1E
100
AcDbEntity
  8
7
100
AcDbLine
 10
0.9416150562853404
 20
7.171903540348736
 30
0.0
 11
0.9468644001173611
 21
7.212585955046899
 31
0.0
  0
LINE
  5
2A78
330
1E
100
AcDbEntity
  8
7
100
AcDbLine
 10
0.9468644001173611
 20
7.212585955046899
 30
0.0
 11
0.9416150562853404
 21
7.253268369745063
 31
0.0
  0
LINE
  5
2A79
330
1E
100
AcDbEntity
  8
7
100
AcDbLine
 10
0.9416150562853404
 20
7.253268369745063
 30
0.0
 11
0.9258670247892775
 21
7.290013776569209
 31
0.0
  0
LINE
  5
2A7A
330
1E
100
AcDbEntity
  8
7
100
AcDbLine
 10
0.9258670247892775
 20
7.290013776569209
 30
0.0
 11
0.9009326415871772
 21
7.322822175519339
 31
0.0
  0
LINE
  5
2A7B
330
1E
100
AcDbEntity
  8
7
100
AcDbLine
 10
0.9009326415871772
 20
7.322822175519339
 30
0.0
 11
0.8694365785950513
 21
7.347756558721441
 31
0.0
  0
LINE
  5
2A7C
330
1E
100
AcDbEntity
  8
7
100
AcDbLine
 10
0.0426649250517448
 20
5.825446847435351
 30
0.0
 11
0.0426649250517448
 21
6.87531561383955
 31
0.0
  0
LINE
  5
2A7D
330
1E
100
AcDbEntity
  8
7
100
AcDbLine
 10
0.0426649250517448
 20
6.87531561383955
 30
0.0
 11
0.0466019329257605
 21
6.897625325125639
 31
0.0
  0
LINE
  5
2A7E
330
1E
100
AcDbEntity
  8
7
100
AcDbLine
 10
0.0466019329257605
 20
6.897625325125639
 30
0.0
 11
0.0597252925058127
 21
6.917310364495717
 31
0.0
  0
LINE
  5
2A7F
330
1E
100
AcDbEntity
  8
7
100
AcDbLine
 10
0.0597252925058127
 20
6.917310364495717
 30
0.0
 11
0.0794103318758914
 21
6.93043372407577
 31
0.0
  0
LINE
  5
2A80
330
1E
100
AcDbEntity
  8
7
100
AcDbLine
 10
0.0794103318758914
 20
6.93043372407577
 30
0.0
 11
0.1017200431619818
 21
6.934370731949787
 31
0.0
  0
LINE
  5
2A81
330
1E
100
AcDbEntity
  8
7
100
AcDbLine
 10
0.1017200431619818
 20
6.934370731949787
 30
0.0
 11
1.387809282007125
 21
6.934370731949787
 31
0.0
  0
LINE
  5
2A82
330
1E
100
AcDbEntity
  8
7
100
AcDbLine
 10
1.387809282007125
 20
6.934370731949787
 30
0.0
 11
1.411431329251219
 21
6.93043372407577
 31
0.0
  0
LINE
  5
2A83
330
1E
100
AcDbEntity
  8
7
100
AcDbLine
 10
1.411431329251219
 20
6.93043372407577
 30
0.0
 11
1.431116368621298
 21
6.917310364495717
 31
0.0
  0
LINE
  5
2A84
330
1E
100
AcDbEntity
  8
7
100
AcDbLine
 10
1.431116368621298
 20
6.917310364495717
 30
0.0
 11
1.44423972820135
 21
6.897625325125639
 31
0.0
  0
LINE
  5
2A85
330
1E
100
AcDbEntity
  8
7
100
AcDbLine
 10
1.44423972820135
 20
6.897625325125639
 30
0.0
 11
1.448176736075367
 21
6.87531561383955
 31
0.0
  0
LINE
  5
2A86
330
1E
100
AcDbEntity
  8
7
100
AcDbLine
 10
0.0584129565478078
 20
7.041982280506216
 30
0.0
 11
0.0282292295136868
 21
7.034108264758186
 31
0.0
  0
LINE
  5
2A87
330
1E
100
AcDbEntity
  8
7
100
AcDbLine
 10
0.0282292295136868
 20
7.034108264758186
 30
0.0
 11
0.0046071822695923
 21
7.011798553472097
 31
0.0
  0
LINE
  5
2A88
330
1E
100
AcDbEntity
  8
7
100
AcDbLine
 10
0.0046071822695923
 20
7.011798553472097
 30
0.0
 11
-0.0032668334784391
 21
6.980302490479969
 31
0.0
  0
LINE
  5
2A89
330
1E
100
AcDbEntity
  8
7
100
AcDbLine
 10
0.2447646625845534
 20
7.043294616464223
 30
0.0
 11
0.2749483896186744
 21
7.051168632212254
 31
0.0
  0
LINE
  5
2A8A
330
1E
100
AcDbEntity
  8
7
100
AcDbLine
 10
0.2749483896186744
 20
7.051168632212254
 30
0.0
 11
0.2985704368627688
 21
7.073478343498342
 31
0.0
  0
LINE
  5
2A8B
330
1E
100
AcDbEntity
  8
7
100
AcDbLine
 10
0.2985704368627688
 20
7.073478343498342
 30
0.0
 11
0.3064444526108003
 21
7.104974406490468
 31
0.0
  0
LINE
  5
2A8C
330
1E
100
AcDbEntity
  8
7
100
AcDbLine
 10
0.5282292295136868
 20
7.447494091529838
 30
0.0
 11
0.3064444526108003
 21
7.227021650584957
 31
0.0
  0
LINE
  5
2A8D
330
1E
100
AcDbEntity
  8
7
100
AcDbLine
 10
0.3064444526108003
 20
7.227021650584957
 30
0.0
 11
0.3064444526108003
 21
7.104974406490468
 31
0.0
  0
LINE
  5
2A8E
330
1E
100
AcDbEntity
  8
7
100
AcDbLine
 10
1.183084872558306
 20
7.104974406490468
 30
0.0
 11
1.183084872558306
 21
7.227021650584957
 31
0.0
  0
LINE
  5
2A8F
330
1E
100
AcDbEntity
  8
7
100
AcDbLine
 10
1.183084872558306
 20
7.227021650584957
 30
0.0
 11
0.9626124316134241
 21
7.447494091529838
 31
0.0
  0
LINE
  5
2A90
330
1E
100
AcDbEntity
  8
7
100
AcDbLine
 10
1.192271224264343
 20
7.074790679456349
 30
0.0
 11
1.214580935550432
 21
7.051168632212254
 31
0.0
  0
LINE
  5
2A91
330
1E
100
AcDbEntity
  8
7
100
AcDbLine
 10
1.214580935550432
 20
7.051168632212254
 30
0.0
 11
1.246076998542558
 21
7.043294616464223
 31
0.0
  0
LINE
  5
2A92
330
1E
100
AcDbEntity
  8
7
100
AcDbLine
 10
1.49410849460555
 20
6.980302490479969
 30
0.0
 11
1.486234478857518
 21
7.01048621751409
 31
0.0
  0
LINE
  5
2A93
330
1E
100
AcDbEntity
  8
7
100
AcDbLine
 10
1.486234478857518
 20
7.01048621751409
 30
0.0
 11
1.463924767571429
 21
7.034108264758186
 31
0.0
  0
LINE
  5
2A94
330
1E
100
AcDbEntity
  8
7
100
AcDbLine
 10
1.463924767571429
 20
7.034108264758186
 30
0.0
 11
1.432428704579304
 21
7.041982280506216
 31
0.0
  0
LINE
  5
2A95
330
1E
100
AcDbEntity
  8
7
100
AcDbLine
 10
0.7001452400123754
 20
4.087914039036401
 30
0.0
 11
0.6594628253142121
 21
4.08266469520438
 31
0.0
  0
LINE
  5
2A96
330
1E
100
AcDbEntity
  8
7
100
AcDbLine
 10
0.6594628253142121
 20
4.08266469520438
 30
0.0
 11
0.6227174184900655
 21
4.066916663708317
 31
0.0
  0
LINE
  5
2A97
330
1E
100
AcDbEntity
  8
7
100
AcDbLine
 10
0.6227174184900655
 20
4.066916663708317
 30
0.0
 11
0.5899090195399337
 21
4.041982280506217
 31
0.0
  0
LINE
  5
2A98
330
1E
100
AcDbEntity
  8
7
100
AcDbLine
 10
0.5899090195399337
 20
4.041982280506217
 30
0.0
 11
0.5649746363378334
 21
4.010486217514091
 31
0.0
  0
LINE
  5
2A99
330
1E
100
AcDbEntity
  8
7
100
AcDbLine
 10
0.5649746363378334
 20
4.010486217514091
 30
0.0
 11
0.5492266048417705
 21
3.972428474731939
 31
0.0
  0
LINE
  5
2A9A
330
1E
100
AcDbEntity
  8
7
100
AcDbLine
 10
0.5492266048417705
 20
3.972428474731939
 30
0.0
 11
0.5439772610097498
 21
3.931746060033777
 31
0.0
  0
LINE
  5
2A9B
330
1E
100
AcDbEntity
  8
7
100
AcDbLine
 10
0.5439772610097498
 20
3.931746060033777
 30
0.0
 11
0.5492266048417705
 21
3.891063645335614
 31
0.0
  0
LINE
  5
2A9C
330
1E
100
AcDbEntity
  8
7
100
AcDbLine
 10
0.5492266048417705
 20
3.891063645335614
 30
0.0
 11
0.5649746363378334
 21
3.854318238511467
 31
0.0
  0
LINE
  5
2A9D
330
1E
100
AcDbEntity
  8
7
100
AcDbLine
 10
0.5649746363378334
 20
3.854318238511467
 30
0.0
 11
0.5899090195399337
 21
3.821509839561336
 31
0.0
  0
LINE
  5
2A9E
330
1E
100
AcDbEntity
  8
7
100
AcDbLine
 10
0.5899090195399337
 20
3.821509839561336
 30
0.0
 11
0.6214050825320597
 21
3.796575456359236
 31
0.0
  0
LINE
  5
2A9F
330
1E
100
AcDbEntity
  8
7
100
AcDbLine
 10
0.6214050825320597
 20
3.796575456359236
 30
0.0
 11
0.6594628253142121
 21
3.780827424863173
 31
0.0
  0
LINE
  5
2AA0
330
1E
100
AcDbEntity
  8
7
100
AcDbLine
 10
0.6594628253142121
 20
3.780827424863173
 30
0.0
 11
0.7001452400123754
 21
3.775578081031152
 31
0.0
  0
LINE
  5
2AA1
330
1E
100
AcDbEntity
  8
7
100
AcDbLine
 10
0.5649746363378334
 20
4.010486217514091
 30
0.0
 11
0.5492266048417705
 21
3.972428474731939
 31
0.0
  0
LINE
  5
2AA2
330
1E
100
AcDbEntity
  8
7
100
AcDbLine
 10
0.5492266048417705
 20
3.972428474731939
 30
0.0
 11
0.5439772610097498
 21
3.931746060033777
 31
0.0
  0
LINE
  5
2AA3
330
1E
100
AcDbEntity
  8
7
100
AcDbLine
 10
0.5439772610097498
 20
3.931746060033777
 30
0.0
 11
0.5492266048417705
 21
3.891063645335614
 31
0.0
  0
LINE
  5
2AA4
330
1E
100
AcDbEntity
  8
7
100
AcDbLine
 10
0.5492266048417705
 20
3.891063645335614
 30
0.0
 11
0.5649746363378334
 21
3.854318238511467
 31
0.0
  0
LINE
  5
2AA5
330
1E
100
AcDbEntity
  8
7
100
AcDbLine
 10
0.5649746363378334
 20
3.854318238511467
 30
0.0
 11
0.5899090195399337
 21
3.821509839561336
 31
0.0
  0
LINE
  5
2AA6
330
1E
100
AcDbEntity
  8
7
100
AcDbLine
 10
0.5899090195399337
 20
3.821509839561336
 30
0.0
 11
0.6214050825320597
 21
3.796575456359236
 31
0.0
  0
LINE
  5
2AA7
330
1E
100
AcDbEntity
  8
7
100
AcDbLine
 10
0.6214050825320597
 20
3.796575456359236
 30
0.0
 11
0.6594628253142121
 21
3.780827424863173
 31
0.0
  0
LINE
  5
2AA8
330
1E
100
AcDbEntity
  8
7
100
AcDbLine
 10
0.6594628253142121
 20
3.780827424863173
 30
0.0
 11
0.7001452400123754
 21
3.775578081031152
 31
0.0
  0
LINE
  5
2AA9
330
1E
100
AcDbEntity
  8
7
100
AcDbLine
 10
0.7001452400123754
 20
4.087914039036401
 30
0.0
 11
0.6594628253142121
 21
4.08266469520438
 31
0.0
  0
LINE
  5
2AAA
330
1E
100
AcDbEntity
  8
7
100
AcDbLine
 10
0.6594628253142121
 20
4.08266469520438
 30
0.0
 11
0.6227174184900655
 21
4.066916663708317
 31
0.0
  0
LINE
  5
2AAB
330
1E
100
AcDbEntity
  8
7
100
AcDbLine
 10
0.6227174184900655
 20
4.066916663708317
 30
0.0
 11
0.5899090195399337
 21
4.041982280506217
 31
0.0
  0
LINE
  5
2AAC
330
1E
100
AcDbEntity
  8
7
100
AcDbLine
 10
0.5899090195399337
 20
4.041982280506217
 30
0.0
 11
0.5649746363378334
 21
4.010486217514091
 31
0.0
  0
LINE
  5
2AAD
330
1E
100
AcDbEntity
  8
7
100
AcDbLine
 10
0.7906964211147365
 20
3.775578081031152
 30
0.0
 11
0.8313788358128997
 21
3.780827424863173
 31
0.0
  0
LINE
  5
2AAE
330
1E
100
AcDbEntity
  8
7
100
AcDbLine
 10
0.8313788358128997
 20
3.780827424863173
 30
0.0
 11
0.8681242426370463
 21
3.796575456359236
 31
0.0
  0
LINE
  5
2AAF
330
1E
100
AcDbEntity
  8
7
100
AcDbLine
 10
0.8681242426370463
 20
3.796575456359236
 30
0.0
 11
0.9009326415871772
 21
3.821509839561336
 31
0.0
  0
LINE
  5
2AB0
330
1E
100
AcDbEntity
  8
7
100
AcDbLine
 10
0.9009326415871772
 20
3.821509839561336
 30
0.0
 11
0.9258670247892775
 21
3.853005902553462
 31
0.0
  0
LINE
  5
2AB1
330
1E
100
AcDbEntity
  8
7
100
AcDbLine
 10
0.9258670247892775
 20
3.853005902553462
 30
0.0
 11
0.9416150562853404
 21
3.891063645335614
 31
0.0
  0
LINE
  5
2AB2
330
1E
100
AcDbEntity
  8
7
100
AcDbLine
 10
0.9416150562853404
 20
3.891063645335614
 30
0.0
 11
0.9468644001173611
 21
3.931746060033777
 31
0.0
  0
LINE
  5
2AB3
330
1E
100
AcDbEntity
  8
7
100
AcDbLine
 10
0.9468644001173611
 20
3.931746060033777
 30
0.0
 11
0.9416150562853404
 21
3.972428474731939
 31
0.0
  0
LINE
  5
2AB4
330
1E
100
AcDbEntity
  8
7
100
AcDbLine
 10
0.9416150562853404
 20
3.972428474731939
 30
0.0
 11
0.9258670247892775
 21
4.009173881556086
 31
0.0
  0
LINE
  5
2AB5
330
1E
100
AcDbEntity
  8
7
100
AcDbLine
 10
0.9258670247892775
 20
4.009173881556086
 30
0.0
 11
0.9009326415871772
 21
4.041982280506217
 31
0.0
  0
LINE
  5
2AB6
330
1E
100
AcDbEntity
  8
7
100
AcDbLine
 10
0.9009326415871772
 20
4.041982280506217
 30
0.0
 11
0.8694365785950513
 21
4.066916663708317
 31
0.0
  0
LINE
  5
2AB7
330
1E
100
AcDbEntity
  8
7
100
AcDbLine
 10
0.8694365785950513
 20
4.066916663708317
 30
0.0
 11
0.8313788358128997
 21
4.08266469520438
 31
0.0
  0
LINE
  5
2AB8
330
1E
100
AcDbEntity
  8
7
100
AcDbLine
 10
0.8313788358128997
 20
4.08266469520438
 30
0.0
 11
0.7906964211147365
 21
4.087914039036401
 31
0.0
  0
LINE
  5
2AB9
330
1E
100
AcDbEntity
  8
7
100
AcDbLine
 10
0.8313788358128997
 20
3.780827424863173
 30
0.0
 11
0.8681242426370463
 21
3.796575456359236
 31
0.0
  0
LINE
  5
2ABA
330
1E
100
AcDbEntity
  8
7
100
AcDbLine
 10
0.8681242426370463
 20
3.796575456359236
 30
0.0
 11
0.9009326415871772
 21
3.821509839561336
 31
0.0
  0
LINE
  5
2ABB
330
1E
100
AcDbEntity
  8
7
100
AcDbLine
 10
0.9009326415871772
 20
3.821509839561336
 30
0.0
 11
0.9258670247892775
 21
3.853005902553462
 31
0.0
  0
LINE
  5
2ABC
330
1E
100
AcDbEntity
  8
7
100
AcDbLine
 10
0.9258670247892775
 20
3.853005902553462
 30
0.0
 11
0.9416150562853404
 21
3.891063645335614
 31
0.0
  0
LINE
  5
2ABD
330
1E
100
AcDbEntity
  8
7
100
AcDbLine
 10
0.9416150562853404
 20
3.891063645335614
 30
0.0
 11
0.9468644001173611
 21
3.931746060033777
 31
0.0
  0
LINE
  5
2ABE
330
1E
100
AcDbEntity
  8
7
100
AcDbLine
 10
0.9468644001173611
 20
3.931746060033777
 30
0.0
 11
0.9416150562853404
 21
3.972428474731939
 31
0.0
  0
LINE
  5
2ABF
330
1E
100
AcDbEntity
  8
7
100
AcDbLine
 10
0.9416150562853404
 20
3.972428474731939
 30
0.0
 11
0.9258670247892775
 21
4.009173881556086
 31
0.0
  0
LINE
  5
2AC0
330
1E
100
AcDbEntity
  8
7
100
AcDbLine
 10
0.9258670247892775
 20
4.009173881556086
 30
0.0
 11
0.9009326415871772
 21
4.041982280506217
 31
0.0
  0
LINE
  5
2AC1
330
1E
100
AcDbEntity
  8
7
100
AcDbLine
 10
0.9009326415871772
 20
4.041982280506217
 30
0.0
 11
0.8694365785950513
 21
4.066916663708317
 31
0.0
  0
LINE
  5
2AC2
330
1E
100
AcDbEntity
  8
7
100
AcDbLine
 10
0.8694365785950513
 20
4.066916663708317
 30
0.0
 11
0.8313788358128997
 21
4.08266469520438
 31
0.0
  0
LINE
  5
2AC3
330
1E
100
AcDbEntity
  8
7
100
AcDbLine
 10
0.8313788358128997
 20
4.08266469520438
 30
0.0
 11
0.7906964211147365
 21
4.087914039036401
 31
0.0
  0
LINE
  5
2AC4
330
1E
100
AcDbEntity
  8
7
100
AcDbLine
 10
0.3064444526108003
 20
4.040669944548212
 30
0.0
 11
0.2985704368627688
 21
4.070853671582333
 31
0.0
  0
LINE
  5
2AC5
330
1E
100
AcDbEntity
  8
7
100
AcDbLine
 10
0.2985704368627688
 20
4.070853671582333
 30
0.0
 11
0.2762607255766794
 21
4.094475718826427
 31
0.0
  0
LINE
  5
2AC6
330
1E
100
AcDbEntity
  8
7
100
AcDbLine
 10
0.2762607255766794
 20
4.094475718826427
 30
0.0
 11
0.2447646625845534
 21
4.102349734574459
 31
0.0
  0
LINE
  5
2AC7
330
1E
100
AcDbEntity
  8
7
100
AcDbLine
 10
0.3077567885688053
 20
3.901562332999656
 30
0.0
 11
0.3064444526108003
 21
3.918622700453725
 31
0.0
  0
LINE
  5
2AC8
330
1E
100
AcDbEntity
  8
7
100
AcDbLine
 10
0.3064444526108003
 20
3.918622700453725
 30
0.0
 11
0.3064444526108003
 21
4.040669944548212
 31
0.0
  0
LINE
  5
2AC9
330
1E
100
AcDbEntity
  8
7
100
AcDbLine
 10
0.189646552348333
 20
3.58004002328837
 30
0.0
 11
0.2250796232144738
 21
3.551168632212254
 31
0.0
  0
LINE
  5
2ACA
330
1E
100
AcDbEntity
  8
7
100
AcDbLine
 10
0.2250796232144738
 20
3.551168632212254
 30
0.0
 11
0.2657620379126371
 21
3.532795928800181
 31
0.0
  0
LINE
  5
2ACB
330
1E
100
AcDbEntity
  8
7
100
AcDbLine
 10
0.2657620379126371
 20
3.532795928800181
 30
0.0
 11
0.3103814604848161
 21
3.524921913052149
 31
0.0
  0
LINE
  5
2ACC
330
1E
100
AcDbEntity
  8
7
100
AcDbLine
 10
0.3103814604848161
 20
3.524921913052149
 30
0.0
 11
0.3550008830569942
 21
3.52754658496816
 31
0.0
  0
LINE
  5
2ACD
330
1E
100
AcDbEntity
  8
7
100
AcDbLine
 10
0.3550008830569942
 20
3.52754658496816
 30
0.0
 11
0.3983079696711673
 21
3.541982280506218
 31
0.0
  0
LINE
  5
2ACE
330
1E
100
AcDbEntity
  8
7
100
AcDbLine
 10
0.3983079696711673
 20
3.541982280506218
 30
0.0
 11
0.4363657124533198
 21
3.565604327750312
 31
0.0
  0
LINE
  5
2ACF
330
1E
100
AcDbEntity
  8
7
100
AcDbLine
 10
0.4363657124533198
 20
3.565604327750312
 30
0.0
 11
0.4691741114034507
 21
3.597100390742438
 31
0.0
  0
LINE
  5
2AD0
330
1E
100
AcDbEntity
  8
7
100
AcDbLine
 10
0.4691741114034507
 20
3.597100390742438
 30
0.0
 11
0.4914838226895402
 21
3.636470469482596
 31
0.0
  0
LINE
  5
2AD1
330
1E
100
AcDbEntity
  8
7
100
AcDbLine
 10
0.4914838226895402
 20
3.636470469482596
 30
0.0
 11
0.5046071822695924
 21
3.679777556096769
 31
0.0
  0
LINE
  5
2AD2
330
1E
100
AcDbEntity
  8
7
100
AcDbLine
 10
0.2893840851567324
 20
3.895000653209629
 30
0.0
 11
0.2460769985425584
 21
3.881877293629578
 31
0.0
  0
LINE
  5
2AD3
330
1E
100
AcDbEntity
  8
7
100
AcDbLine
 10
0.2460769985425584
 20
3.881877293629578
 30
0.0
 11
0.206706919802401
 21
3.859567582343488
 31
0.0
  0
LINE
  5
2AD4
330
1E
100
AcDbEntity
  8
7
100
AcDbLine
 10
0.206706919802401
 20
3.859567582343488
 30
0.0
 11
0.175210856810275
 21
3.826759183393357
 31
0.0
  0
LINE
  5
2AD5
330
1E
100
AcDbEntity
  8
7
100
AcDbLine
 10
0.175210856810275
 20
3.826759183393357
 30
0.0
 11
0.1515888095661806
 21
3.788701440611205
 31
0.0
  0
LINE
  5
2AD6
330
1E
100
AcDbEntity
  8
7
100
AcDbLine
 10
0.1515888095661806
 20
3.788701440611205
 30
0.0
 11
0.1371531140281226
 21
3.745394353997031
 31
0.0
  0
LINE
  5
2AD7
330
1E
100
AcDbEntity
  8
7
100
AcDbLine
 10
0.1371531140281226
 20
3.745394353997031
 30
0.0
 11
0.1345284421121127
 21
3.700774931424853
 31
0.0
  0
LINE
  5
2AD8
330
1E
100
AcDbEntity
  8
7
100
AcDbLine
 10
0.1345284421121127
 20
3.700774931424853
 30
0.0
 11
0.1424024578601442
 21
3.656155508852674
 31
0.0
  0
LINE
  5
2AD9
330
1E
100
AcDbEntity
  8
7
100
AcDbLine
 10
0.1424024578601442
 20
3.656155508852674
 30
0.0
 11
0.160775161272217
 21
3.615473094154511
 31
0.0
  0
LINE
  5
2ADA
330
1E
100
AcDbEntity
  8
7
100
AcDbLine
 10
0.160775161272217
 20
3.615473094154511
 30
0.0
 11
0.189646552348333
 21
3.58004002328837
 31
0.0
  0
LINE
  5
2ADB
330
1E
100
AcDbEntity
  8
7
100
AcDbLine
 10
0.5072318541856032
 20
3.698150259508842
 30
0.0
 11
0.5072318541856032
 21
3.696837923550837
 31
0.0
  0
LINE
  5
2ADC
330
1E
100
AcDbEntity
  8
7
100
AcDbLine
 10
0.5072318541856032
 20
3.696837923550837
 30
0.0
 11
0.5059195182275973
 21
3.695525587592832
 31
0.0
  0
LINE
  5
2ADD
330
1E
100
AcDbEntity
  8
7
100
AcDbLine
 10
0.5059195182275973
 20
3.695525587592832
 30
0.0
 11
0.5059195182275973
 21
3.694213251634827
 31
0.0
  0
LINE
  5
2ADE
330
1E
100
AcDbEntity
  8
7
100
AcDbLine
 10
0.3038197806947895
 20
3.897625325125641
 30
0.0
 11
0.3051321166527954
 21
3.897625325125641
 31
0.0
  0
LINE
  5
2ADF
330
1E
100
AcDbEntity
  8
7
100
AcDbLine
 10
0.3051321166527954
 20
3.897625325125641
 30
0.0
 11
0.3064444526108003
 21
3.897625325125641
 31
0.0
  0
LINE
  5
2AE0
330
1E
100
AcDbEntity
  8
7
100
AcDbLine
 10
0.3064444526108003
 20
3.897625325125641
 30
0.0
 11
0.3077567885688053
 21
3.897625325125641
 31
0.0
  0
LINE
  5
2AE1
330
1E
100
AcDbEntity
  8
7
100
AcDbLine
 10
0.9796727990674929
 20
3.698150259508842
 30
0.0
 11
0.9626124316134241
 21
3.698150259508842
 31
0.0
  0
LINE
  5
2AE2
330
1E
100
AcDbEntity
  8
7
100
AcDbLine
 10
0.9626124316134241
 20
3.698150259508842
 30
0.0
 11
0.5282292295136868
 21
3.698150259508842
 31
0.0
  0
LINE
  5
2AE3
330
1E
100
AcDbEntity
  8
7
100
AcDbLine
 10
0.5282292295136868
 20
3.698150259508842
 30
0.0
 11
0.511168862059618
 21
3.698150259508842
 31
0.0
  0
LINE
  5
2AE4
330
1E
100
AcDbEntity
  8
7
100
AcDbLine
 10
0.9836098069415086
 20
3.698150259508842
 30
0.0
 11
0.9836098069415086
 21
3.696837923550837
 31
0.0
  0
LINE
  5
2AE5
330
1E
100
AcDbEntity
  8
7
100
AcDbLine
 10
0.9836098069415086
 20
3.696837923550837
 30
0.0
 11
0.9836098069415086
 21
3.695525587592832
 31
0.0
  0
LINE
  5
2AE6
330
1E
100
AcDbEntity
  8
7
100
AcDbLine
 10
0.9836098069415086
 20
3.695525587592832
 30
0.0
 11
0.9836098069415086
 21
3.694213251634827
 31
0.0
  0
LINE
  5
2AE7
330
1E
100
AcDbEntity
  8
7
100
AcDbLine
 10
1.339252851560931
 20
3.788701440611205
 30
0.0
 11
1.315630804316836
 21
3.826759183393357
 31
0.0
  0
LINE
  5
2AE8
330
1E
100
AcDbEntity
  8
7
100
AcDbLine
 10
1.315630804316836
 20
3.826759183393357
 30
0.0
 11
1.28413474132471
 21
3.859567582343488
 31
0.0
  0
LINE
  5
2AE9
330
1E
100
AcDbEntity
  8
7
100
AcDbLine
 10
1.28413474132471
 20
3.859567582343488
 30
0.0
 11
1.244764662584553
 21
3.881877293629578
 31
0.0
  0
LINE
  5
2AEA
330
1E
100
AcDbEntity
  8
7
100
AcDbLine
 10
1.244764662584553
 20
3.881877293629578
 30
0.0
 11
1.201457575970379
 21
3.895000653209629
 31
0.0
  0
LINE
  5
2AEB
330
1E
100
AcDbEntity
  8
7
100
AcDbLine
 10
0.9862344788575185
 20
3.679777556096769
 30
0.0
 11
0.9993578384375716
 21
3.636470469482596
 31
0.0
  0
LINE
  5
2AEC
330
1E
100
AcDbEntity
  8
7
100
AcDbLine
 10
0.9993578384375716
 20
3.636470469482596
 30
0.0
 11
1.021667549723661
 21
3.597100390742438
 31
0.0
  0
LINE
  5
2AED
330
1E
100
AcDbEntity
  8
7
100
AcDbLine
 10
1.021667549723661
 20
3.597100390742438
 30
0.0
 11
1.054475948673792
 21
3.565604327750312
 31
0.0
  0
LINE
  5
2AEE
330
1E
100
AcDbEntity
  8
7
100
AcDbLine
 10
1.054475948673792
 20
3.565604327750312
 30
0.0
 11
1.092533691455944
 21
3.541982280506218
 31
0.0
  0
LINE
  5
2AEF
330
1E
100
AcDbEntity
  8
7
100
AcDbLine
 10
1.092533691455944
 20
3.541982280506218
 30
0.0
 11
1.135840778070117
 21
3.52754658496816
 31
0.0
  0
LINE
  5
2AF0
330
1E
100
AcDbEntity
  8
7
100
AcDbLine
 10
1.135840778070117
 20
3.52754658496816
 30
0.0
 11
1.180460200642296
 21
3.524921913052149
 31
0.0
  0
LINE
  5
2AF1
330
1E
100
AcDbEntity
  8
7
100
AcDbLine
 10
1.180460200642296
 20
3.524921913052149
 30
0.0
 11
1.225079623214474
 21
3.532795928800181
 31
0.0
  0
LINE
  5
2AF2
330
1E
100
AcDbEntity
  8
7
100
AcDbLine
 10
1.225079623214474
 20
3.532795928800181
 30
0.0
 11
1.265762037912637
 21
3.551168632212254
 31
0.0
  0
LINE
  5
2AF3
330
1E
100
AcDbEntity
  8
7
100
AcDbLine
 10
1.265762037912637
 20
3.551168632212254
 30
0.0
 11
1.301195108778778
 21
3.58004002328837
 31
0.0
  0
LINE
  5
2AF4
330
1E
100
AcDbEntity
  8
7
100
AcDbLine
 10
1.301195108778778
 20
3.58004002328837
 30
0.0
 11
1.330066499854894
 21
3.615473094154511
 31
0.0
  0
LINE
  5
2AF5
330
1E
100
AcDbEntity
  8
7
100
AcDbLine
 10
1.330066499854894
 20
3.615473094154511
 30
0.0
 11
1.348439203266968
 21
3.656155508852674
 31
0.0
  0
LINE
  5
2AF6
330
1E
100
AcDbEntity
  8
7
100
AcDbLine
 10
1.348439203266968
 20
3.656155508852674
 30
0.0
 11
1.356313219014999
 21
3.700774931424853
 31
0.0
  0
LINE
  5
2AF7
330
1E
100
AcDbEntity
  8
7
100
AcDbLine
 10
1.356313219014999
 20
3.700774931424853
 30
0.0
 11
1.353688547098989
 21
3.745394353997031
 31
0.0
  0
LINE
  5
2AF8
330
1E
100
AcDbEntity
  8
7
100
AcDbLine
 10
1.353688547098989
 20
3.745394353997031
 30
0.0
 11
1.339252851560931
 21
3.788701440611205
 31
0.0
  0
LINE
  5
2AF9
330
1E
100
AcDbEntity
  8
7
100
AcDbLine
 10
1.187021880432322
 20
3.897625325125641
 30
0.0
 11
1.185709544474316
 21
3.897625325125641
 31
0.0
  0
LINE
  5
2AFA
330
1E
100
AcDbEntity
  8
7
100
AcDbLine
 10
1.185709544474316
 20
3.897625325125641
 30
0.0
 11
1.183084872558306
 21
3.897625325125641
 31
0.0
  0
LINE
  5
2AFB
330
1E
100
AcDbEntity
  8
7
100
AcDbLine
 10
1.183084872558306
 20
4.040669944548212
 30
0.0
 11
1.183084872558306
 21
3.918622700453725
 31
0.0
  0
LINE
  5
2AFC
330
1E
100
AcDbEntity
  8
7
100
AcDbLine
 10
1.183084872558306
 20
3.918622700453725
 30
0.0
 11
1.183084872558306
 21
3.901562332999656
 31
0.0
  0
LINE
  5
2AFD
330
1E
100
AcDbEntity
  8
7
100
AcDbLine
 10
1.246076998542558
 20
4.102349734574459
 30
0.0
 11
1.215893271508437
 21
4.094475718826427
 31
0.0
  0
LINE
  5
2AFE
330
1E
100
AcDbEntity
  8
7
100
AcDbLine
 10
1.215893271508437
 20
4.094475718826427
 30
0.0
 11
1.192271224264343
 21
4.072166007540338
 31
0.0
  0
LINE
  5
2AFF
330
1E
100
AcDbEntity
  8
7
100
AcDbLine
 10
1.192271224264343
 20
4.072166007540338
 30
0.0
 11
1.184397208516311
 21
4.040669944548212
 31
0.0
  0
LINE
  5
2B00
330
1E
100
AcDbEntity
  8
7
100
AcDbLine
 10
0.6384654499861285
 20
3.980302490479972
 30
0.0
 11
0.6227174184900655
 21
3.948806427487845
 31
0.0
  0
LINE
  5
2B01
330
1E
100
AcDbEntity
  8
7
100
AcDbLine
 10
0.6227174184900655
 20
3.948806427487845
 30
0.0
 11
0.6227174184900655
 21
3.914685692579709
 31
0.0
  0
LINE
  5
2B02
330
1E
100
AcDbEntity
  8
7
100
AcDbLine
 10
0.6227174184900655
 20
3.914685692579709
 30
0.0
 11
0.6384654499861285
 21
3.883189629587583
 31
0.0
  0
LINE
  5
2B03
330
1E
100
AcDbEntity
  8
7
100
AcDbLine
 10
0.8523762111409833
 20
3.883189629587583
 30
0.0
 11
0.8681242426370463
 21
3.914685692579709
 31
0.0
  0
LINE
  5
2B04
330
1E
100
AcDbEntity
  8
7
100
AcDbLine
 10
0.8681242426370463
 20
3.914685692579709
 30
0.0
 11
0.8681242426370463
 21
3.948806427487845
 31
0.0
  0
LINE
  5
2B05
330
1E
100
AcDbEntity
  8
7
100
AcDbLine
 10
0.8681242426370463
 20
3.948806427487845
 30
0.0
 11
0.8523762111409833
 21
3.980302490479972
 31
0.0
  0
LINE
  5
2B06
330
1E
100
AcDbEntity
  8
7
100
AcDbLine
 10
-0.0032668334784391
 20
4.165341860558711
 30
0.0
 11
0.0046071822695923
 21
4.13515813352459
 31
0.0
  0
LINE
  5
2B07
330
1E
100
AcDbEntity
  8
7
100
AcDbLine
 10
0.0046071822695923
 20
4.13515813352459
 30
0.0
 11
0.0269168935556818
 21
4.111536086280496
 31
0.0
  0
LINE
  5
2B08
330
1E
100
AcDbEntity
  8
7
100
AcDbLine
 10
0.0269168935556818
 20
4.111536086280496
 30
0.0
 11
0.0584129565478078
 21
4.103662070532464
 31
0.0
  0
LINE
  5
2B09
330
1E
100
AcDbEntity
  8
7
100
AcDbLine
 10
1.432428704579304
 20
4.103662070532464
 30
0.0
 11
1.462612431613424
 21
4.111536086280496
 31
0.0
  0
LINE
  5
2B0A
330
1E
100
AcDbEntity
  8
7
100
AcDbLine
 10
1.462612431613424
 20
4.111536086280496
 30
0.0
 11
1.486234478857518
 21
4.133845797566585
 31
0.0
  0
LINE
  5
2B0B
330
1E
100
AcDbEntity
  8
7
100
AcDbLine
 10
1.486234478857518
 20
4.133845797566585
 30
0.0
 11
1.49410849460555
 21
4.165341860558711
 31
0.0
  0
LINE
  5
2B0C
330
1E
100
AcDbEntity
  8
7
100
AcDbLine
 10
0.1030323791199867
 20
4.211273619088895
 30
0.0
 11
0.1017200431619818
 21
4.20996128313089
 31
0.0
  0
LINE
  5
2B0D
330
1E
100
AcDbEntity
  8
7
100
AcDbLine
 10
0.1017200431619818
 20
4.20996128313089
 30
0.0
 11
1.387809282007125
 21
4.20996128313089
 31
0.0
  0
LINE
  5
2B0E
330
1E
100
AcDbEntity
  8
7
100
AcDbLine
 10
0.1017200431619818
 20
4.20996128313089
 30
0.0
 11
0.0794103318758914
 21
4.215210626962911
 31
0.0
  0
LINE
  5
2B0F
330
1E
100
AcDbEntity
  8
7
100
AcDbLine
 10
0.0794103318758914
 20
4.215210626962911
 30
0.0
 11
0.0597252925058127
 21
4.228333986542962
 31
0.0
  0
LINE
  5
2B10
330
1E
100
AcDbEntity
  8
7
100
AcDbLine
 10
0.0597252925058127
 20
4.228333986542962
 30
0.0
 11
0.0466019329257605
 21
4.248019025913042
 31
0.0
  0
LINE
  5
2B11
330
1E
100
AcDbEntity
  8
7
100
AcDbLine
 10
0.0466019329257605
 20
4.248019025913042
 30
0.0
 11
0.0426649250517448
 21
4.270328737199131
 31
0.0
  0
LINE
  5
2B12
330
1E
100
AcDbEntity
  8
7
100
AcDbLine
 10
1.448176736075367
 20
4.270328737199131
 30
0.0
 11
1.44423972820135
 21
4.248019025913042
 31
0.0
  0
LINE
  5
2B13
330
1E
100
AcDbEntity
  8
7
100
AcDbLine
 10
1.44423972820135
 20
4.248019025913042
 30
0.0
 11
1.431116368621298
 21
4.228333986542962
 31
0.0
  0
LINE
  5
2B14
330
1E
100
AcDbEntity
  8
7
100
AcDbLine
 10
1.431116368621298
 20
4.228333986542962
 30
0.0
 11
1.411431329251219
 21
4.215210626962911
 31
0.0
  0
LINE
  5
2B15
330
1E
100
AcDbEntity
  8
7
100
AcDbLine
 10
1.411431329251219
 20
4.215210626962911
 30
0.0
 11
1.387809282007125
 21
4.20996128313089
 31
0.0
  0
LINE
  5
2B16
330
1E
100
AcDbEntity
  8
7
100
AcDbLine
 10
1.448176736075367
 20
5.825446847435351
 30
0.0
 11
1.448176736075367
 21
6.87531561383955
 31
0.0
  0
LINE
  5
2B17
330
1E
100
AcDbEntity
  8
7
100
AcDbLine
 10
1.448176736075367
 20
6.87531561383955
 30
0.0
 11
1.446864400117361
 21
6.874003277881545
 31
0.0
  0
LINE
  5
2B18
330
1E
100
AcDbEntity
  8
7
100
AcDbLine
 10
1.387809282007125
 20
5.765079393367109
 30
0.0
 11
0.8641872347630306
 21
5.765079393367109
 31
0.0
  0
LINE
  5
2B19
330
1E
100
AcDbEntity
  8
7
100
AcDbLine
 10
0.8641872347630306
 20
5.765079393367109
 30
0.0
 11
0.8208801481488574
 21
5.780827424863172
 31
0.0
  0
LINE
  5
2B1A
330
1E
100
AcDbEntity
  8
7
100
AcDbLine
 10
1.387809282007125
 20
5.765079393367109
 30
0.0
 11
1.411431329251219
 21
5.769016401241126
 31
0.0
  0
LINE
  5
2B1B
330
1E
100
AcDbEntity
  8
7
100
AcDbLine
 10
1.411431329251219
 20
5.769016401241126
 30
0.0
 11
1.431116368621298
 21
5.782139760821177
 31
0.0
  0
LINE
  5
2B1C
330
1E
100
AcDbEntity
  8
7
100
AcDbLine
 10
1.431116368621298
 20
5.782139760821177
 30
0.0
 11
1.44423972820135
 21
5.801824800191257
 31
0.0
  0
LINE
  5
2B1D
330
1E
100
AcDbEntity
  8
7
100
AcDbLine
 10
1.44423972820135
 20
5.801824800191257
 30
0.0
 11
1.448176736075367
 21
5.825446847435351
 31
0.0
  0
LINE
  5
2B1E
330
1E
100
AcDbEntity
  8
7
100
AcDbLine
 10
1.387809282007125
 20
5.380564957671571
 30
0.0
 11
1.411431329251219
 21
5.376627949797557
 31
0.0
  0
LINE
  5
2B1F
330
1E
100
AcDbEntity
  8
7
100
AcDbLine
 10
1.411431329251219
 20
5.376627949797557
 30
0.0
 11
1.431116368621298
 21
5.363504590217504
 31
0.0
  0
LINE
  5
2B20
330
1E
100
AcDbEntity
  8
7
100
AcDbLine
 10
1.431116368621298
 20
5.363504590217504
 30
0.0
 11
1.44423972820135
 21
5.343819550847424
 31
0.0
  0
LINE
  5
2B21
330
1E
100
AcDbEntity
  8
7
100
AcDbLine
 10
1.44423972820135
 20
5.343819550847424
 30
0.0
 11
1.448176736075367
 21
5.32019750360333
 31
0.0
  0
LINE
  5
2B22
330
1E
100
AcDbEntity
  8
7
100
AcDbLine
 10
0.8641872347630306
 20
5.379252621713566
 30
0.0
 11
0.8641872347630306
 21
5.380564957671571
 31
0.0
  0
LINE
  5
2B23
330
1E
100
AcDbEntity
  8
7
100
AcDbLine
 10
0.8641872347630306
 20
5.380564957671571
 30
0.0
 11
0.8208801481488574
 21
5.364816926175508
 31
0.0
  0
LINE
  5
2B24
330
1E
100
AcDbEntity
  8
7
100
AcDbLine
 10
1.429804032663293
 20
5.362192254259499
 30
0.0
 11
1.410118993293214
 21
5.37531561383955
 31
0.0
  0
LINE
  5
2B25
330
1E
100
AcDbEntity
  8
7
100
AcDbLine
 10
1.410118993293214
 20
5.37531561383955
 30
0.0
 11
1.387809282007125
 21
5.379252621713566
 31
0.0
  0
LINE
  5
2B26
330
1E
100
AcDbEntity
  8
7
100
AcDbLine
 10
1.446864400117361
 20
5.32019750360333
 30
0.0
 11
1.442927392243345
 21
5.342507214889419
 31
0.0
  0
LINE
  5
2B27
330
1E
100
AcDbEntity
  8
7
100
AcDbLine
 10
1.442927392243345
 20
5.342507214889419
 30
0.0
 11
1.429804032663293
 21
5.362192254259499
 31
0.0
  0
LINE
  5
2B28
330
1E
100
AcDbEntity
  8
7
100
AcDbLine
 10
0.0426649250517448
 20
4.271641073157136
 30
0.0
 11
0.0479142688837655
 21
4.248019025913042
 31
0.0
  0
LINE
  5
2B29
330
1E
100
AcDbEntity
  8
7
100
AcDbLine
 10
0.0479142688837655
 20
4.248019025913042
 30
0.0
 11
0.0610376284638186
 21
4.228333986542962
 31
0.0
  0
LINE
  5
2B2A
330
1E
100
AcDbEntity
  8
7
100
AcDbLine
 10
0.0610376284638186
 20
4.228333986542962
 30
0.0
 11
0.0807226678338973
 21
4.216522962920916
 31
0.0
  0
LINE
  5
2B2B
330
1E
100
AcDbEntity
  8
7
100
AcDbLine
 10
0.0807226678338973
 20
4.216522962920916
 30
0.0
 11
0.1030323791199867
 21
4.211273619088895
 31
0.0
  0
LINE
  5
2B2C
330
1E
100
AcDbEntity
  8
7
100
AcDbLine
 10
0.1030323791199867
 20
4.211273619088895
 30
0.0
 11
1.387809282007125
 21
4.211273619088895
 31
0.0
  0
LINE
  5
2B2D
330
1E
100
AcDbEntity
  8
7
100
AcDbLine
 10
1.387809282007125
 20
4.211273619088895
 30
0.0
 11
1.410118993293214
 21
4.216522962920916
 31
0.0
  0
LINE
  5
2B2E
330
1E
100
AcDbEntity
  8
7
100
AcDbLine
 10
1.410118993293214
 20
4.216522962920916
 30
0.0
 11
1.429804032663293
 21
4.228333986542962
 31
0.0
  0
LINE
  5
2B2F
330
1E
100
AcDbEntity
  8
7
100
AcDbLine
 10
1.429804032663293
 20
4.228333986542962
 30
0.0
 11
1.442927392243345
 21
4.248019025913042
 31
0.0
  0
LINE
  5
2B30
330
1E
100
AcDbEntity
  8
7
100
AcDbLine
 10
1.442927392243345
 20
4.248019025913042
 30
0.0
 11
1.446864400117361
 21
4.271641073157136
 31
0.0
  0
LINE
  5
2B31
330
1E
100
AcDbEntity
  8
7
100
AcDbLine
 10
1.110906394868017
 20
5.780827424863172
 30
0.0
 11
1.109594058910012
 21
5.782139760821177
 31
0.0
  0
LINE
  5
2B32
330
1E
100
AcDbEntity
  8
7
100
AcDbLine
 10
1.109594058910012
 20
5.782139760821177
 30
0.0
 11
1.109594058910012
 21
5.783452096779184
 31
0.0
  0
LINE
  5
2B33
330
1E
100
AcDbEntity
  8
7
100
AcDbLine
 10
1.109594058910012
 20
5.783452096779184
 30
0.0
 11
0.3812476022170985
 21
5.783452096779184
 31
0.0
  0
LINE
  5
2B34
330
1E
100
AcDbEntity
  8
7
100
AcDbLine
 10
0.3812476022170985
 20
5.783452096779184
 30
0.0
 11
0.3799352662590936
 21
5.782139760821177
 31
0.0
  0
LINE
  5
2B35
330
1E
100
AcDbEntity
  8
7
100
AcDbLine
 10
0.3799352662590936
 20
5.782139760821177
 30
0.0
 11
0.3799352662590936
 21
5.780827424863172
 31
0.0
  0
LINE
  5
2B36
330
1E
100
AcDbEntity
  8
7
100
AcDbLine
 10
0.6253420904060754
 20
5.766391729325114
 30
0.0
 11
0.6253420904060754
 21
5.765079393367109
 31
0.0
  0
LINE
  5
2B37
330
1E
100
AcDbEntity
  8
7
100
AcDbLine
 10
0.6253420904060754
 20
5.765079393367109
 30
0.0
 11
0.6686491770202477
 21
5.780827424863172
 31
0.0
  0
LINE
  5
2B38
330
1E
100
AcDbEntity
  8
7
100
AcDbLine
 10
0.1017200431619818
 20
5.765079393367109
 30
0.0
 11
0.0794103318758914
 21
5.769016401241126
 31
0.0
  0
LINE
  5
2B39
330
1E
100
AcDbEntity
  8
7
100
AcDbLine
 10
0.0794103318758914
 20
5.769016401241126
 30
0.0
 11
0.0597252925058127
 21
5.782139760821177
 31
0.0
  0
LINE
  5
2B3A
330
1E
100
AcDbEntity
  8
7
100
AcDbLine
 10
0.0597252925058127
 20
5.782139760821177
 30
0.0
 11
0.0466019329257605
 21
5.801824800191257
 31
0.0
  0
LINE
  5
2B3B
330
1E
100
AcDbEntity
  8
7
100
AcDbLine
 10
0.0466019329257605
 20
5.801824800191257
 30
0.0
 11
0.0426649250517448
 21
5.825446847435351
 31
0.0
  0
LINE
  5
2B3C
330
1E
100
AcDbEntity
  8
7
100
AcDbLine
 10
0.1017200431619818
 20
5.380564957671571
 30
0.0
 11
0.0794103318758914
 21
5.376627949797557
 31
0.0
  0
LINE
  5
2B3D
330
1E
100
AcDbEntity
  8
7
100
AcDbLine
 10
0.0794103318758914
 20
5.376627949797557
 30
0.0
 11
0.0597252925058127
 21
5.363504590217504
 31
0.0
  0
LINE
  5
2B3E
330
1E
100
AcDbEntity
  8
7
100
AcDbLine
 10
0.0597252925058127
 20
5.363504590217504
 30
0.0
 11
0.0466019329257605
 21
5.343819550847424
 31
0.0
  0
LINE
  5
2B3F
330
1E
100
AcDbEntity
  8
7
100
AcDbLine
 10
0.0466019329257605
 20
5.343819550847424
 30
0.0
 11
0.0426649250517448
 21
5.32019750360333
 31
0.0
  0
LINE
  5
2B40
330
1E
100
AcDbEntity
  8
7
100
AcDbLine
 10
0.0426649250517448
 20
5.32019750360333
 30
0.0
 11
0.0426649250517448
 21
4.270328737199131
 31
0.0
  0
LINE
  5
2B41
330
1E
100
AcDbEntity
  8
7
100
AcDbLine
 10
0.0426649250517448
 20
4.270328737199131
 30
0.0
 11
0.0426649250517448
 21
4.271641073157136
 31
0.0
  0
LINE
  5
2B42
330
1E
100
AcDbEntity
  8
7
100
AcDbLine
 10
0.0426649250517448
 20
5.32019750360333
 30
0.0
 11
0.0479142688837655
 21
5.342507214889419
 31
0.0
  0
LINE
  5
2B43
330
1E
100
AcDbEntity
  8
7
100
AcDbLine
 10
0.0479142688837655
 20
5.342507214889419
 30
0.0
 11
0.0610376284638186
 21
5.362192254259499
 31
0.0
  0
LINE
  5
2B44
330
1E
100
AcDbEntity
  8
7
100
AcDbLine
 10
0.0610376284638186
 20
5.362192254259499
 30
0.0
 11
0.0807226678338973
 21
5.37531561383955
 31
0.0
  0
LINE
  5
2B45
330
1E
100
AcDbEntity
  8
7
100
AcDbLine
 10
0.0807226678338973
 20
5.37531561383955
 30
0.0
 11
0.1030323791199867
 21
5.379252621713566
 31
0.0
  0
LINE
  5
2B46
330
1E
100
AcDbEntity
  8
7
100
AcDbLine
 10
0.7998827728207738
 20
5.517047897304118
 30
0.0
 11
0.8169431402748417
 21
5.541982280506217
 31
0.0
  0
LINE
  5
2B47
330
1E
100
AcDbEntity
  8
7
100
AcDbLine
 10
0.8169431402748417
 20
5.541982280506217
 30
0.0
 11
0.8221924841068624
 21
5.572166007540338
 31
0.0
  0
LINE
  5
2B48
330
1E
100
AcDbEntity
  8
7
100
AcDbLine
 10
0.8221924841068624
 20
5.572166007540338
 30
0.0
 11
0.8169431402748417
 21
5.602349734574459
 31
0.0
  0
LINE
  5
2B49
330
1E
100
AcDbEntity
  8
7
100
AcDbLine
 10
0.8169431402748417
 20
5.602349734574459
 30
0.0
 11
0.7998827728207738
 21
5.627284117776559
 31
0.0
  0
LINE
  5
2B4A
330
1E
100
AcDbEntity
  8
7
100
AcDbLine
 10
0.7998827728207738
 20
5.627284117776559
 30
0.0
 11
0.7749483896186736
 21
5.644344485230627
 31
0.0
  0
LINE
  5
2B4B
330
1E
100
AcDbEntity
  8
7
100
AcDbLine
 10
0.7749483896186736
 20
5.644344485230627
 30
0.0
 11
0.7447646625845526
 21
5.649593829062648
 31
0.0
  0
LINE
  5
2B4C
330
1E
100
AcDbEntity
  8
7
100
AcDbLine
 10
0.7447646625845526
 20
5.649593829062648
 30
0.0
 11
0.7145809355504316
 21
5.644344485230627
 31
0.0
  0
LINE
  5
2B4D
330
1E
100
AcDbEntity
  8
7
100
AcDbLine
 10
0.7145809355504316
 20
5.644344485230627
 30
0.0
 11
0.6896465523483331
 21
5.627284117776559
 31
0.0
  0
LINE
  5
2B4E
330
1E
100
AcDbEntity
  8
7
100
AcDbLine
 10
0.6896465523483331
 20
5.627284117776559
 30
0.0
 11
0.6725861848942643
 21
5.602349734574459
 31
0.0
  0
LINE
  5
2B4F
330
1E
100
AcDbEntity
  8
7
100
AcDbLine
 10
0.6725861848942643
 20
5.602349734574459
 30
0.0
 11
0.6673368410622427
 21
5.572166007540338
 31
0.0
  0
LINE
  5
2B50
330
1E
100
AcDbEntity
  8
7
100
AcDbLine
 10
0.6673368410622427
 20
5.572166007540338
 30
0.0
 11
0.6725861848942643
 21
5.541982280506217
 31
0.0
  0
LINE
  5
2B51
330
1E
100
AcDbEntity
  8
7
100
AcDbLine
 10
0.6725861848942643
 20
5.541982280506217
 30
0.0
 11
0.6896465523483331
 21
5.517047897304118
 31
0.0
  0
LINE
  5
2B52
330
1E
100
AcDbEntity
  8
7
100
AcDbLine
 10
0.6896465523483331
 20
5.517047897304118
 30
0.0
 11
0.7145809355504316
 21
5.499987529850049
 31
0.0
  0
LINE
  5
2B53
330
1E
100
AcDbEntity
  8
7
100
AcDbLine
 10
0.7145809355504316
 20
5.499987529850049
 30
0.0
 11
0.7447646625845526
 21
5.494738186018028
 31
0.0
  0
LINE
  5
2B54
330
1E
100
AcDbEntity
  8
7
100
AcDbLine
 10
0.7447646625845526
 20
5.494738186018028
 30
0.0
 11
0.7749483896186736
 21
5.499987529850049
 31
0.0
  0
LINE
  5
2B55
330
1E
100
AcDbEntity
  8
7
100
AcDbLine
 10
0.7749483896186736
 20
5.499987529850049
 30
0.0
 11
0.7998827728207738
 21
5.517047897304118
 31
0.0
  0
LINE
  5
2B56
330
1E
100
AcDbEntity
  8
7
100
AcDbLine
 10
0.7447646625845526
 20
5.429121388117766
 30
0.0
 11
0.7841347413247109
 21
5.434370731949787
 31
0.0
  0
LINE
  5
2B57
330
1E
100
AcDbEntity
  8
7
100
AcDbLine
 10
0.7841347413247109
 20
5.434370731949787
 30
0.0
 11
0.8208801481488574
 21
5.451431099403855
 31
0.0
  0
LINE
  5
2B58
330
1E
100
AcDbEntity
  8
7
100
AcDbLine
 10
0.8208801481488574
 20
5.451431099403855
 30
0.0
 11
0.8523762111409833
 21
5.47767781856396
 31
0.0
  0
LINE
  5
2B59
330
1E
100
AcDbEntity
  8
7
100
AcDbLine
 10
0.8523762111409833
 20
5.47767781856396
 30
0.0
 11
0.8746859224270728
 21
5.510486217514091
 31
0.0
  0
LINE
  5
2B5A
330
1E
100
AcDbEntity
  8
7
100
AcDbLine
 10
0.8746859224270728
 20
5.510486217514091
 30
0.0
 11
0.8864969460491192
 21
5.549856296254249
 31
0.0
  0
LINE
  5
2B5B
330
1E
100
AcDbEntity
  8
7
100
AcDbLine
 10
0.8864969460491192
 20
5.549856296254249
 30
0.0
 11
0.8864969460491192
 21
5.589226374994406
 31
0.0
  0
LINE
  5
2B5C
330
1E
100
AcDbEntity
  8
7
100
AcDbLine
 10
0.8864969460491192
 20
5.589226374994406
 30
0.0
 11
0.8759982583850778
 21
5.628596453734564
 31
0.0
  0
LINE
  5
2B5D
330
1E
100
AcDbEntity
  8
7
100
AcDbLine
 10
0.8759982583850778
 20
5.628596453734564
 30
0.0
 11
0.8550008830569932
 21
5.662717188642701
 31
0.0
  0
LINE
  5
2B5E
330
1E
100
AcDbEntity
  8
7
100
AcDbLine
 10
0.8550008830569932
 20
5.662717188642701
 30
0.0
 11
0.826129491980879
 21
5.690276243760811
 31
0.0
  0
LINE
  5
2B5F
330
1E
100
AcDbEntity
  8
7
100
AcDbLine
 10
0.826129491980879
 20
5.690276243760811
 30
0.0
 11
0.7893840851567316
 21
5.708648947172884
 31
0.0
  0
LINE
  5
2B60
330
1E
100
AcDbEntity
  8
7
100
AcDbLine
 10
0.7893840851567316
 20
5.708648947172884
 30
0.0
 11
0.7500140064165742
 21
5.71521062696291
 31
0.0
  0
LINE
  5
2B61
330
1E
100
AcDbEntity
  8
7
100
AcDbLine
 10
0.7395153187525319
 20
5.71521062696291
 30
0.0
 11
0.7001452400123754
 21
5.708648947172884
 31
0.0
  0
LINE
  5
2B62
330
1E
100
AcDbEntity
  8
7
100
AcDbLine
 10
0.7001452400123754
 20
5.708648947172884
 30
0.0
 11
0.663399833188227
 21
5.690276243760811
 31
0.0
  0
LINE
  5
2B63
330
1E
100
AcDbEntity
  8
7
100
AcDbLine
 10
0.663399833188227
 20
5.690276243760811
 30
0.0
 11
0.6345284421121118
 21
5.662717188642701
 31
0.0
  0
LINE
  5
2B64
330
1E
100
AcDbEntity
  8
7
100
AcDbLine
 10
0.6345284421121118
 20
5.662717188642701
 30
0.0
 11
0.6135310667840282
 21
5.628596453734564
 31
0.0
  0
LINE
  5
2B65
330
1E
100
AcDbEntity
  8
7
100
AcDbLine
 10
0.6135310667840282
 20
5.628596453734564
 30
0.0
 11
0.6030323791199859
 21
5.589226374994406
 31
0.0
  0
LINE
  5
2B66
330
1E
100
AcDbEntity
  8
7
100
AcDbLine
 10
0.6030323791199859
 20
5.589226374994406
 30
0.0
 11
0.6030323791199859
 21
5.549856296254249
 31
0.0
  0
LINE
  5
2B67
330
1E
100
AcDbEntity
  8
7
100
AcDbLine
 10
0.6030323791199859
 20
5.549856296254249
 30
0.0
 11
0.6148434027420331
 21
5.510486217514091
 31
0.0
  0
LINE
  5
2B68
330
1E
100
AcDbEntity
  8
7
100
AcDbLine
 10
0.6148434027420331
 20
5.510486217514091
 30
0.0
 11
0.6371531140281226
 21
5.47767781856396
 31
0.0
  0
LINE
  5
2B69
330
1E
100
AcDbEntity
  8
7
100
AcDbLine
 10
0.6371531140281226
 20
5.47767781856396
 30
0.0
 11
0.6686491770202477
 21
5.451431099403855
 31
0.0
  0
LINE
  5
2B6A
330
1E
100
AcDbEntity
  8
7
100
AcDbLine
 10
0.6686491770202477
 20
5.451431099403855
 30
0.0
 11
0.7053945838443961
 21
5.434370731949787
 31
0.0
  0
LINE
  5
2B6B
330
1E
100
AcDbEntity
  8
7
100
AcDbLine
 10
0.7053945838443961
 20
5.434370731949787
 30
0.0
 11
0.7447646625845526
 21
5.429121388117766
 31
0.0
  0
LINE
  5
2B6C
330
1E
100
AcDbEntity
  8
7
100
AcDbLine
 10
1.110906394868017
 20
5.363504590217504
 30
0.0
 11
0.8221924841068624
 21
5.363504590217504
 31
0.0
  0
LINE
  5
2B6D
330
1E
100
AcDbEntity
  8
7
100
AcDbLine
 10
0.8221924841068624
 20
5.363504590217504
 30
0.0
 11
0.8208801481488574
 21
5.364816926175508
 31
0.0
  0
LINE
  5
2B6E
330
1E
100
AcDbEntity
  8
7
100
AcDbLine
 10
0.8208801481488574
 20
5.364816926175508
 30
0.0
 11
0.6686491770202477
 21
5.364816926175508
 31
0.0
  0
LINE
  5
2B6F
330
1E
100
AcDbEntity
  8
7
100
AcDbLine
 10
0.1935835602223479
 20
5.179777556096769
 30
0.0
 11
0.1489641376501707
 21
5.103662070532464
 31
0.0
  0
LINE
  5
2B70
330
1E
100
AcDbEntity
  8
7
100
AcDbLine
 10
0.1489641376501707
 20
5.103662070532464
 30
0.0
 11
0.1148434027420331
 21
5.022297241136139
 31
0.0
  0
LINE
  5
2B71
330
1E
100
AcDbEntity
  8
7
100
AcDbLine
 10
0.1148434027420331
 20
5.022297241136139
 30
0.0
 11
0.0925336914559445
 21
4.938307739823802
 31
0.0
  0
LINE
  5
2B72
330
1E
100
AcDbEntity
  8
7
100
AcDbLine
 10
0.0925336914559445
 20
4.938307739823802
 30
0.0
 11
0.0807226678338973
 21
4.850381230637451
 31
0.0
  0
LINE
  5
2B73
330
1E
100
AcDbEntity
  8
7
100
AcDbLine
 10
0.0807226678338973
 20
4.850381230637451
 30
0.0
 11
0.0807226678338973
 21
4.763767057409105
 31
0.0
  0
LINE
  5
2B74
330
1E
100
AcDbEntity
  8
7
100
AcDbLine
 10
0.0807226678338973
 20
4.763767057409105
 30
0.0
 11
0.0925336914559445
 21
4.675840548222753
 31
0.0
  0
LINE
  5
2B75
330
1E
100
AcDbEntity
  8
7
100
AcDbLine
 10
0.0925336914559445
 20
4.675840548222753
 30
0.0
 11
0.1148434027420331
 21
4.591851046910417
 31
0.0
  0
LINE
  5
2B76
330
1E
100
AcDbEntity
  8
7
100
AcDbLine
 10
0.1148434027420331
 20
4.591851046910417
 30
0.0
 11
0.1489641376501707
 21
4.510486217514091
 31
0.0
  0
LINE
  5
2B77
330
1E
100
AcDbEntity
  8
7
100
AcDbLine
 10
0.1489641376501707
 20
4.510486217514091
 30
0.0
 11
0.1935835602223479
 21
4.434370731949788
 31
0.0
  0
LINE
  5
2B78
330
1E
100
AcDbEntity
  8
7
100
AcDbLine
 10
0.1935835602223479
 20
4.434370731949788
 30
0.0
 11
0.2473893345005633
 21
4.364816926175508
 31
0.0
  0
LINE
  5
2B79
330
1E
100
AcDbEntity
  8
7
100
AcDbLine
 10
0.2473893345005633
 20
4.364816926175508
 30
0.0
 11
0.3103814604848161
 21
4.303137136149262
 31
0.0
  0
LINE
  5
2B7A
330
1E
100
AcDbEntity
  8
7
100
AcDbLine
 10
0.3103814604848161
 20
4.303137136149262
 30
0.0
 11
0.3799352662590936
 21
4.250643697829052
 31
0.0
  0
LINE
  5
2B7B
330
1E
100
AcDbEntity
  8
7
100
AcDbLine
 10
0.3799352662590936
 20
5.363504590217504
 30
0.0
 11
0.3103814604848161
 21
5.311011151897293
 31
0.0
  0
LINE
  5
2B7C
330
1E
100
AcDbEntity
  8
7
100
AcDbLine
 10
0.3103814604848161
 20
5.311011151897293
 30
0.0
 11
0.2473893345005633
 21
5.249331361871046
 31
0.0
  0
LINE
  5
2B7D
330
1E
100
AcDbEntity
  8
7
100
AcDbLine
 10
0.2473893345005633
 20
5.249331361871046
 30
0.0
 11
0.1935835602223479
 21
5.179777556096769
 31
0.0
  0
LINE
  5
2B7E
330
1E
100
AcDbEntity
  8
7
100
AcDbLine
 10
0.4993578384375717
 20
4.473740810689944
 30
0.0
 11
0.4993578384375717
 21
4.539357608590207
 31
0.0
  0
LINE
  5
2B7F
330
1E
100
AcDbEntity
  8
7
100
AcDbLine
 10
0.4993578384375717
 20
4.539357608590207
 30
0.0
 11
0.4324287045793041
 21
4.539357608590207
 31
0.0
  0
LINE
  5
2B80
330
1E
100
AcDbEntity
  8
7
100
AcDbLine
 10
0.4324287045793041
 20
4.539357608590207
 30
0.0
 11
0.4324287045793041
 21
5.202087267382857
 31
0.0
  0
LINE
  5
2B81
330
1E
100
AcDbEntity
  8
7
100
AcDbLine
 10
0.4324287045793041
 20
5.202087267382857
 30
0.0
 11
1.058412956547807
 21
5.202087267382857
 31
0.0
  0
LINE
  5
2B82
330
1E
100
AcDbEntity
  8
7
100
AcDbLine
 10
1.058412956547807
 20
5.202087267382857
 30
0.0
 11
1.058412956547807
 21
4.539357608590207
 31
0.0
  0
LINE
  5
2B83
330
1E
100
AcDbEntity
  8
7
100
AcDbLine
 10
1.058412956547807
 20
4.539357608590207
 30
0.0
 11
0.9914838226895401
 21
4.539357608590207
 31
0.0
  0
LINE
  5
2B84
330
1E
100
AcDbEntity
  8
7
100
AcDbLine
 10
0.9914838226895401
 20
4.539357608590207
 30
0.0
 11
0.9914838226895401
 21
4.473740810689944
 31
0.0
  0
LINE
  5
2B85
330
1E
100
AcDbEntity
  8
7
100
AcDbLine
 10
0.9914838226895401
 20
4.473740810689944
 30
0.0
 11
0.4993578384375717
 21
4.473740810689944
 31
0.0
  0
LINE
  5
2B86
330
1E
100
AcDbEntity
  8
7
100
AcDbLine
 10
0.1161557387000389
 20
4.591851046910417
 30
0.0
 11
0.1502764736081756
 21
4.510486217514091
 31
0.0
  0
LINE
  5
2B87
330
1E
100
AcDbEntity
  8
7
100
AcDbLine
 10
0.1502764736081756
 20
4.510486217514091
 30
0.0
 11
0.1948958961803537
 21
4.435683067907793
 31
0.0
  0
LINE
  5
2B88
330
1E
100
AcDbEntity
  8
7
100
AcDbLine
 10
0.1948958961803537
 20
4.435683067907793
 30
0.0
 11
0.2487016704585692
 21
4.366129262133514
 31
0.0
  0
LINE
  5
2B89
330
1E
100
AcDbEntity
  8
7
100
AcDbLine
 10
0.2487016704585692
 20
4.366129262133514
 30
0.0
 11
0.3103814604848161
 21
4.304449472107267
 31
0.0
  0
LINE
  5
2B8A
330
1E
100
AcDbEntity
  8
7
100
AcDbLine
 10
0.3103814604848161
 20
4.304449472107267
 30
0.0
 11
0.3799352662590936
 21
4.251956033787058
 31
0.0
  0
LINE
  5
2B8B
330
1E
100
AcDbEntity
  8
7
100
AcDbLine
 10
0.3799352662590936
 20
5.362192254259499
 30
0.0
 11
0.3103814604848161
 21
5.309698815939288
 31
0.0
  0
LINE
  5
2B8C
330
1E
100
AcDbEntity
  8
7
100
AcDbLine
 10
0.3103814604848161
 20
5.309698815939288
 30
0.0
 11
0.2487016704585692
 21
5.248019025913041
 31
0.0
  0
LINE
  5
2B8D
330
1E
100
AcDbEntity
  8
7
100
AcDbLine
 10
0.2487016704585692
 20
5.248019025913041
 30
0.0
 11
0.1948958961803537
 21
5.178465220138764
 31
0.0
  0
LINE
  5
2B8E
330
1E
100
AcDbEntity
  8
7
100
AcDbLine
 10
0.1948958961803537
 20
5.178465220138764
 30
0.0
 11
0.1502764736081756
 21
5.103662070532464
 31
0.0
  0
LINE
  5
2B8F
330
1E
100
AcDbEntity
  8
7
100
AcDbLine
 10
0.1502764736081756
 20
5.103662070532464
 30
0.0
 11
0.1161557387000389
 21
5.022297241136139
 31
0.0
  0
LINE
  5
2B90
330
1E
100
AcDbEntity
  8
7
100
AcDbLine
 10
0.1161557387000389
 20
5.022297241136139
 30
0.0
 11
0.0938460274139494
 21
4.938307739823802
 31
0.0
  0
LINE
  5
2B91
330
1E
100
AcDbEntity
  8
7
100
AcDbLine
 10
0.0938460274139494
 20
4.938307739823802
 30
0.0
 11
0.0820350037919022
 21
4.850381230637451
 31
0.0
  0
LINE
  5
2B92
330
1E
100
AcDbEntity
  8
7
100
AcDbLine
 10
0.0820350037919022
 20
4.850381230637451
 30
0.0
 11
0.0820350037919022
 21
4.763767057409105
 31
0.0
  0
LINE
  5
2B93
330
1E
100
AcDbEntity
  8
7
100
AcDbLine
 10
0.0820350037919022
 20
4.763767057409105
 30
0.0
 11
0.0938460274139494
 21
4.675840548222753
 31
0.0
  0
LINE
  5
2B94
330
1E
100
AcDbEntity
  8
7
100
AcDbLine
 10
0.0938460274139494
 20
4.675840548222753
 30
0.0
 11
0.1161557387000389
 21
4.591851046910417
 31
0.0
  0
LINE
  5
2B95
330
1E
100
AcDbEntity
  8
7
100
AcDbLine
 10
1.395683297755156
 20
4.938307739823802
 30
0.0
 11
1.373373586469067
 21
5.022297241136139
 31
0.0
  0
LINE
  5
2B96
330
1E
100
AcDbEntity
  8
7
100
AcDbLine
 10
1.373373586469067
 20
5.022297241136139
 30
0.0
 11
1.339252851560931
 21
5.103662070532464
 31
0.0
  0
LINE
  5
2B97
330
1E
100
AcDbEntity
  8
7
100
AcDbLine
 10
1.339252851560931
 20
5.103662070532464
 30
0.0
 11
1.294633428988752
 21
5.178465220138764
 31
0.0
  0
LINE
  5
2B98
330
1E
100
AcDbEntity
  8
7
100
AcDbLine
 10
1.294633428988752
 20
5.178465220138764
 30
0.0
 11
1.240827654710537
 21
5.248019025913041
 31
0.0
  0
LINE
  5
2B99
330
1E
100
AcDbEntity
  8
7
100
AcDbLine
 10
1.240827654710537
 20
5.248019025913041
 30
0.0
 11
1.179147864684291
 21
5.309698815939288
 31
0.0
  0
LINE
  5
2B9A
330
1E
100
AcDbEntity
  8
7
100
AcDbLine
 10
1.179147864684291
 20
5.309698815939288
 30
0.0
 11
1.109594058910012
 21
5.362192254259499
 31
0.0
  0
LINE
  5
2B9B
330
1E
100
AcDbEntity
  8
7
100
AcDbLine
 10
1.109594058910012
 20
4.251956033787058
 30
0.0
 11
1.179147864684291
 21
4.304449472107267
 31
0.0
  0
LINE
  5
2B9C
330
1E
100
AcDbEntity
  8
7
100
AcDbLine
 10
1.179147864684291
 20
4.304449472107267
 30
0.0
 11
1.240827654710537
 21
4.366129262133514
 31
0.0
  0
LINE
  5
2B9D
330
1E
100
AcDbEntity
  8
7
100
AcDbLine
 10
1.240827654710537
 20
4.366129262133514
 30
0.0
 11
1.294633428988752
 21
4.435683067907793
 31
0.0
  0
LINE
  5
2B9E
330
1E
100
AcDbEntity
  8
7
100
AcDbLine
 10
1.294633428988752
 20
4.435683067907793
 30
0.0
 11
1.339252851560931
 21
4.510486217514091
 31
0.0
  0
LINE
  5
2B9F
330
1E
100
AcDbEntity
  8
7
100
AcDbLine
 10
1.339252851560931
 20
4.510486217514091
 30
0.0
 11
1.373373586469067
 21
4.591851046910417
 31
0.0
  0
LINE
  5
2BA0
330
1E
100
AcDbEntity
  8
7
100
AcDbLine
 10
1.373373586469067
 20
4.591851046910417
 30
0.0
 11
1.395683297755156
 21
4.675840548222753
 31
0.0
  0
LINE
  5
2BA1
330
1E
100
AcDbEntity
  8
7
100
AcDbLine
 10
1.395683297755156
 20
4.675840548222753
 30
0.0
 11
1.407494321377204
 21
4.763767057409105
 31
0.0
  0
LINE
  5
2BA2
330
1E
100
AcDbEntity
  8
7
100
AcDbLine
 10
1.407494321377204
 20
4.763767057409105
 30
0.0
 11
1.407494321377204
 21
4.850381230637451
 31
0.0
  0
LINE
  5
2BA3
330
1E
100
AcDbEntity
  8
7
100
AcDbLine
 10
1.407494321377204
 20
4.850381230637451
 30
0.0
 11
1.395683297755156
 21
4.938307739823802
 31
0.0
  0
LINE
  5
2BA4
330
1E
100
AcDbEntity
  8
7
100
AcDbLine
 10
1.109594058910012
 20
5.362192254259499
 30
0.0
 11
1.109594058910012
 21
5.363504590217504
 31
0.0
  0
LINE
  5
2BA5
330
1E
100
AcDbEntity
  8
7
100
AcDbLine
 10
1.109594058910012
 20
5.363504590217504
 30
0.0
 11
1.110906394868017
 21
5.363504590217504
 31
0.0
  0
LINE
  5
2BA6
330
1E
100
AcDbEntity
  8
7
100
AcDbLine
 10
1.242139990668543
 20
4.364816926175508
 30
0.0
 11
1.295945764946757
 21
4.434370731949788
 31
0.0
  0
LINE
  5
2BA7
330
1E
100
AcDbEntity
  8
7
100
AcDbLine
 10
1.295945764946757
 20
4.434370731949788
 30
0.0
 11
1.340565187518936
 21
4.510486217514091
 31
0.0
  0
LINE
  5
2BA8
330
1E
100
AcDbEntity
  8
7
100
AcDbLine
 10
1.340565187518936
 20
4.510486217514091
 30
0.0
 11
1.374685922427073
 21
4.591851046910417
 31
0.0
  0
LINE
  5
2BA9
330
1E
100
AcDbEntity
  8
7
100
AcDbLine
 10
1.374685922427073
 20
4.591851046910417
 30
0.0
 11
1.396995633713161
 21
4.675840548222753
 31
0.0
  0
LINE
  5
2BAA
330
1E
100
AcDbEntity
  8
7
100
AcDbLine
 10
1.396995633713161
 20
4.675840548222753
 30
0.0
 11
1.408806657335209
 21
4.763767057409105
 31
0.0
  0
LINE
  5
2BAB
330
1E
100
AcDbEntity
  8
7
100
AcDbLine
 10
1.408806657335209
 20
4.763767057409105
 30
0.0
 11
1.408806657335209
 21
4.850381230637451
 31
0.0
  0
LINE
  5
2BAC
330
1E
100
AcDbEntity
  8
7
100
AcDbLine
 10
1.408806657335209
 20
4.850381230637451
 30
0.0
 11
1.396995633713161
 21
4.938307739823802
 31
0.0
  0
LINE
  5
2BAD
330
1E
100
AcDbEntity
  8
7
100
AcDbLine
 10
1.396995633713161
 20
4.938307739823802
 30
0.0
 11
1.374685922427073
 21
5.022297241136139
 31
0.0
  0
LINE
  5
2BAE
330
1E
100
AcDbEntity
  8
7
100
AcDbLine
 10
1.374685922427073
 20
5.022297241136139
 30
0.0
 11
1.340565187518936
 21
5.103662070532464
 31
0.0
  0
LINE
  5
2BAF
330
1E
100
AcDbEntity
  8
7
100
AcDbLine
 10
1.340565187518936
 20
5.103662070532464
 30
0.0
 11
1.295945764946757
 21
5.179777556096769
 31
0.0
  0
LINE
  5
2BB0
330
1E
100
AcDbEntity
  8
7
100
AcDbLine
 10
1.295945764946757
 20
5.179777556096769
 30
0.0
 11
1.242139990668543
 21
5.249331361871046
 31
0.0
  0
LINE
  5
2BB1
330
1E
100
AcDbEntity
  8
7
100
AcDbLine
 10
1.242139990668543
 20
5.249331361871046
 30
0.0
 11
1.179147864684291
 21
5.311011151897293
 31
0.0
  0
LINE
  5
2BB2
330
1E
100
AcDbEntity
  8
7
100
AcDbLine
 10
1.179147864684291
 20
5.311011151897293
 30
0.0
 11
1.109594058910012
 21
5.363504590217504
 31
0.0
  0
LINE
  5
2BB3
330
1E
100
AcDbEntity
  8
7
100
AcDbLine
 10
1.109594058910012
 20
4.250643697829052
 30
0.0
 11
1.179147864684291
 21
4.303137136149262
 31
0.0
  0
LINE
  5
2BB4
330
1E
100
AcDbEntity
  8
7
100
AcDbLine
 10
1.179147864684291
 20
4.303137136149262
 30
0.0
 11
1.242139990668543
 21
4.364816926175508
 31
0.0
  0
LINE
  5
2BB5
330
1E
100
AcDbEntity
  8
7
100
AcDbLine
 10
1.110906394868017
 20
4.250643697829052
 30
0.0
 11
1.109594058910012
 21
4.250643697829052
 31
0.0
  0
LINE
  5
2BB6
330
1E
100
AcDbEntity
  8
7
100
AcDbLine
 10
1.109594058910012
 20
4.250643697829052
 30
0.0
 11
1.109594058910012
 21
4.251956033787058
 31
0.0
  0
LINE
  5
2BB7
330
1E
100
AcDbEntity
  8
7
100
AcDbLine
 10
1.410118993293214
 20
5.770328737199131
 30
0.0
 11
1.429804032663293
 21
5.783452096779184
 31
0.0
  0
LINE
  5
2BB8
330
1E
100
AcDbEntity
  8
7
100
AcDbLine
 10
1.429804032663293
 20
5.783452096779184
 30
0.0
 11
1.442927392243345
 21
5.803137136149262
 31
0.0
  0
LINE
  5
2BB9
330
1E
100
AcDbEntity
  8
7
100
AcDbLine
 10
1.442927392243345
 20
5.803137136149262
 30
0.0
 11
1.446864400117361
 21
5.825446847435351
 31
0.0
  0
LINE
  5
2BBA
330
1E
100
AcDbEntity
  8
7
100
AcDbLine
 10
0.8221924841068624
 20
5.780827424863172
 30
0.0
 11
0.8641872347630306
 21
5.766391729325114
 31
0.0
  0
LINE
  5
2BBB
330
1E
100
AcDbEntity
  8
7
100
AcDbLine
 10
0.8641872347630306
 20
5.766391729325114
 30
0.0
 11
1.387809282007125
 21
5.766391729325114
 31
0.0
  0
LINE
  5
2BBC
330
1E
100
AcDbEntity
  8
7
100
AcDbLine
 10
1.387809282007125
 20
5.766391729325114
 30
0.0
 11
1.410118993293214
 21
5.770328737199131
 31
0.0
  0
LINE
  5
2BBD
330
1E
100
AcDbEntity
  8
7
100
AcDbLine
 10
1.374685922427073
 20
6.553793304128265
 30
0.0
 11
1.340565187518936
 21
6.63515813352459
 31
0.0
  0
LINE
  5
2BBE
330
1E
100
AcDbEntity
  8
7
100
AcDbLine
 10
1.340565187518936
 20
6.63515813352459
 30
0.0
 11
1.295945764946757
 21
6.711273619088894
 31
0.0
  0
LINE
  5
2BBF
330
1E
100
AcDbEntity
  8
7
100
AcDbLine
 10
1.295945764946757
 20
6.711273619088894
 30
0.0
 11
1.242139990668543
 21
6.780827424863172
 31
0.0
  0
LINE
  5
2BC0
330
1E
100
AcDbEntity
  8
7
100
AcDbLine
 10
1.242139990668543
 20
6.780827424863172
 30
0.0
 11
1.179147864684291
 21
6.842507214889419
 31
0.0
  0
LINE
  5
2BC1
330
1E
100
AcDbEntity
  8
7
100
AcDbLine
 10
1.179147864684291
 20
6.842507214889419
 30
0.0
 11
1.109594058910012
 21
6.895000653209629
 31
0.0
  0
LINE
  5
2BC2
330
1E
100
AcDbEntity
  8
7
100
AcDbLine
 10
1.109594058910012
 20
5.782139760821177
 30
0.0
 11
1.179147864684291
 21
5.834633199141388
 31
0.0
  0
LINE
  5
2BC3
330
1E
100
AcDbEntity
  8
7
100
AcDbLine
 10
1.179147864684291
 20
5.834633199141388
 30
0.0
 11
1.242139990668543
 21
5.896312989167634
 31
0.0
  0
LINE
  5
2BC4
330
1E
100
AcDbEntity
  8
7
100
AcDbLine
 10
1.242139990668543
 20
5.896312989167634
 30
0.0
 11
1.295945764946757
 21
5.965866794941913
 31
0.0
  0
LINE
  5
2BC5
330
1E
100
AcDbEntity
  8
7
100
AcDbLine
 10
1.295945764946757
 20
5.965866794941913
 30
0.0
 11
1.340565187518936
 21
6.041982280506217
 31
0.0
  0
LINE
  5
2BC6
330
1E
100
AcDbEntity
  8
7
100
AcDbLine
 10
1.340565187518936
 20
6.041982280506217
 30
0.0
 11
1.374685922427073
 21
6.123347109902542
 31
0.0
  0
LINE
  5
2BC7
330
1E
100
AcDbEntity
  8
7
100
AcDbLine
 10
1.374685922427073
 20
6.123347109902542
 30
0.0
 11
1.396995633713161
 21
6.207336611214879
 31
0.0
  0
LINE
  5
2BC8
330
1E
100
AcDbEntity
  8
7
100
AcDbLine
 10
1.396995633713161
 20
6.207336611214879
 30
0.0
 11
1.408806657335209
 21
6.29526312040123
 31
0.0
  0
LINE
  5
2BC9
330
1E
100
AcDbEntity
  8
7
100
AcDbLine
 10
1.408806657335209
 20
6.29526312040123
 30
0.0
 11
1.408806657335209
 21
6.381877293629577
 31
0.0
  0
LINE
  5
2BCA
330
1E
100
AcDbEntity
  8
7
100
AcDbLine
 10
1.408806657335209
 20
6.381877293629577
 30
0.0
 11
1.396995633713161
 21
6.469803802815928
 31
0.0
  0
LINE
  5
2BCB
330
1E
100
AcDbEntity
  8
7
100
AcDbLine
 10
1.396995633713161
 20
6.469803802815928
 30
0.0
 11
1.374685922427073
 21
6.553793304128265
 31
0.0
  0
LINE
  5
2BCC
330
1E
100
AcDbEntity
  8
7
100
AcDbLine
 10
0.1935835602223479
 20
6.711273619088894
 30
0.0
 11
0.1489641376501707
 21
6.63515813352459
 31
0.0
  0
LINE
  5
2BCD
330
1E
100
AcDbEntity
  8
7
100
AcDbLine
 10
0.1489641376501707
 20
6.63515813352459
 30
0.0
 11
0.1148434027420331
 21
6.553793304128265
 31
0.0
  0
LINE
  5
2BCE
330
1E
100
AcDbEntity
  8
7
100
AcDbLine
 10
0.1148434027420331
 20
6.553793304128265
 30
0.0
 11
0.0925336914559445
 21
6.469803802815928
 31
0.0
  0
LINE
  5
2BCF
330
1E
100
AcDbEntity
  8
7
100
AcDbLine
 10
0.0925336914559445
 20
6.469803802815928
 30
0.0
 11
0.0807226678338973
 21
6.381877293629577
 31
0.0
  0
LINE
  5
2BD0
330
1E
100
AcDbEntity
  8
7
100
AcDbLine
 10
0.0807226678338973
 20
6.381877293629577
 30
0.0
 11
0.0807226678338973
 21
6.29526312040123
 31
0.0
  0
LINE
  5
2BD1
330
1E
100
AcDbEntity
  8
7
100
AcDbLine
 10
0.0807226678338973
 20
6.29526312040123
 30
0.0
 11
0.0925336914559445
 21
6.207336611214879
 31
0.0
  0
LINE
  5
2BD2
330
1E
100
AcDbEntity
  8
7
100
AcDbLine
 10
0.0925336914559445
 20
6.207336611214879
 30
0.0
 11
0.1148434027420331
 21
6.123347109902542
 31
0.0
  0
LINE
  5
2BD3
330
1E
100
AcDbEntity
  8
7
100
AcDbLine
 10
0.1148434027420331
 20
6.123347109902542
 30
0.0
 11
0.1489641376501707
 21
6.041982280506217
 31
0.0
  0
LINE
  5
2BD4
330
1E
100
AcDbEntity
  8
7
100
AcDbLine
 10
0.1489641376501707
 20
6.041982280506217
 30
0.0
 11
0.1935835602223479
 21
5.965866794941913
 31
0.0
  0
LINE
  5
2BD5
330
1E
100
AcDbEntity
  8
7
100
AcDbLine
 10
0.1935835602223479
 20
5.965866794941913
 30
0.0
 11
0.2473893345005633
 21
5.896312989167634
 31
0.0
  0
LINE
  5
2BD6
330
1E
100
AcDbEntity
  8
7
100
AcDbLine
 10
0.2473893345005633
 20
5.896312989167634
 30
0.0
 11
0.3103814604848161
 21
5.834633199141388
 31
0.0
  0
LINE
  5
2BD7
330
1E
100
AcDbEntity
  8
7
100
AcDbLine
 10
0.3103814604848161
 20
5.834633199141388
 30
0.0
 11
0.3799352662590936
 21
5.782139760821177
 31
0.0
  0
LINE
  5
2BD8
330
1E
100
AcDbEntity
  8
7
100
AcDbLine
 10
0.3799352662590936
 20
6.895000653209629
 30
0.0
 11
0.3103814604848161
 21
6.842507214889419
 31
0.0
  0
LINE
  5
2BD9
330
1E
100
AcDbEntity
  8
7
100
AcDbLine
 10
0.3103814604848161
 20
6.842507214889419
 30
0.0
 11
0.2473893345005633
 21
6.780827424863172
 31
0.0
  0
LINE
  5
2BDA
330
1E
100
AcDbEntity
  8
7
100
AcDbLine
 10
0.2473893345005633
 20
6.780827424863172
 30
0.0
 11
0.1935835602223479
 21
6.711273619088894
 31
0.0
  0
LINE
  5
2BDB
330
1E
100
AcDbEntity
  8
7
100
AcDbLine
 10
0.1030323791199867
 20
5.766391729325114
 30
0.0
 11
0.0807226678338973
 21
5.770328737199131
 31
0.0
  0
LINE
  5
2BDC
330
1E
100
AcDbEntity
  8
7
100
AcDbLine
 10
0.0807226678338973
 20
5.770328737199131
 30
0.0
 11
0.0610376284638186
 21
5.783452096779184
 31
0.0
  0
LINE
  5
2BDD
330
1E
100
AcDbEntity
  8
7
100
AcDbLine
 10
0.0610376284638186
 20
5.783452096779184
 30
0.0
 11
0.0479142688837655
 21
5.803137136149262
 31
0.0
  0
LINE
  5
2BDE
330
1E
100
AcDbEntity
  8
7
100
AcDbLine
 10
0.0479142688837655
 20
5.803137136149262
 30
0.0
 11
0.0426649250517448
 21
5.825446847435351
 31
0.0
  0
LINE
  5
2BDF
330
1E
100
AcDbEntity
  8
7
100
AcDbLine
 10
0.1030323791199867
 20
6.934370731949787
 30
0.0
 11
0.0807226678338973
 21
6.929121388117765
 31
0.0
  0
LINE
  5
2BE0
330
1E
100
AcDbEntity
  8
7
100
AcDbLine
 10
0.0807226678338973
 20
6.929121388117765
 30
0.0
 11
0.0610376284638186
 21
6.915998028537712
 31
0.0
  0
LINE
  5
2BE1
330
1E
100
AcDbEntity
  8
7
100
AcDbLine
 10
0.0610376284638186
 20
6.915998028537712
 30
0.0
 11
0.0479142688837655
 21
6.897625325125639
 31
0.0
  0
LINE
  5
2BE2
330
1E
100
AcDbEntity
  8
7
100
AcDbLine
 10
0.0479142688837655
 20
6.897625325125639
 30
0.0
 11
0.0426649250517448
 21
6.874003277881545
 31
0.0
  0
LINE
  5
2BE3
330
1E
100
AcDbEntity
  8
7
100
AcDbLine
 10
0.0426649250517448
 20
6.874003277881545
 30
0.0
 11
0.0426649250517448
 21
5.825446847435351
 31
0.0
  0
LINE
  5
2BE4
330
1E
100
AcDbEntity
  8
7
100
AcDbLine
 10
1.446864400117361
 20
6.874003277881545
 30
0.0
 11
1.442927392243345
 21
6.897625325125639
 31
0.0
  0
LINE
  5
2BE5
330
1E
100
AcDbEntity
  8
7
100
AcDbLine
 10
1.442927392243345
 20
6.897625325125639
 30
0.0
 11
1.429804032663293
 21
6.915998028537712
 31
0.0
  0
LINE
  5
2BE6
330
1E
100
AcDbEntity
  8
7
100
AcDbLine
 10
1.429804032663293
 20
6.915998028537712
 30
0.0
 11
1.410118993293214
 21
6.929121388117765
 31
0.0
  0
LINE
  5
2BE7
330
1E
100
AcDbEntity
  8
7
100
AcDbLine
 10
1.410118993293214
 20
6.929121388117765
 30
0.0
 11
1.387809282007125
 21
6.934370731949787
 31
0.0
  0
LINE
  5
2BE8
330
1E
100
AcDbEntity
  8
7
100
AcDbLine
 10
1.366811906679041
 20
5.556417976044275
 30
0.0
 11
1.366811906679041
 21
5.541982280506217
 31
0.0
  0
LINE
  5
2BE9
330
1E
100
AcDbEntity
  8
7
100
AcDbLine
 10
1.366811906679041
 20
5.541982280506217
 30
0.0
 11
1.425867024789277
 21
5.541982280506217
 31
0.0
  0
ENDSEC
  0
SECTION
  2
OBJECTS
  0
DICTIONARY
  5
C
330
0
100
AcDbDictionary
  3
ACAD_GROUP
350
D
  3
ACAD_LAYOUT
350
19
  3
ACAD_MLINESTYLE
350
16
  3
ACAD_PLOTSETTINGS
350
18
1001
ACAD
1000
TREAT_AS_HARD
1070
     0
  0
DICTIONARY
  5
3B61
330
1E
100
AcDbDictionary
  3
ACAD_LAYOUTSELFREF
350
3BE9
1001
ACAD
1000
TREAT_AS_HARD
1070
     1
  0
DICTIONARY
  5
3B63
330
1A
100
AcDbDictionary
  3
ACAD_LAYOUTSELFREF
350
3BE8
1001
ACAD
1000
TREAT_AS_HARD
1070
     1
  0
DICTIONARY
  5
D
102
{ACAD_REACTORS
330
C
102
}
330
C
100
AcDbDictionary
1001
ACAD
1000
TREAT_AS_HARD
1070
     0
  0
DICTIONARY
  5
19
102
{ACAD_REACTORS
330
C
102
}
330
C
100
AcDbDictionary
1001
ACAD
1000
TREAT_AS_HARD
1070
     0
  0
DICTIONARY
  5
16
102
{ACAD_REACTORS
330
C
102
}
330
C
100
AcDbDictionary
  3
STANDARD
350
17
1001
ACAD
1000
TREAT_AS_HARD
1070
     0
  0
DICTIONARY
  5
18
102
{ACAD_REACTORS
330
C
102
}
330
C
100
AcDbDictionary
1001
ACAD
1000
TREAT_AS_HARD
1070
     0
  0
XRECORD
  5
3BE9
102
{ACAD_REACTORS
330
3B61
102
}
330
3B61
100
AcDbXrecord
340
1E
  0
XRECORD
  5
3BE8
102
{ACAD_REACTORS
330
3B63
102
}
330
3B63
100
AcDbXrecord
340
1A
  0
MLINESTYLE
  5
17
102
{ACAD_REACTORS
330
16
102
}
330
16
100
AcDbMlineStyle
  2
STANDARD
 70
     0
  3

 62
   256
 51
90.0
 52
90.0
 71
     2
 49
0.5
 62
   256
  6
BYLAYER
 49
-0.5
 62
   256
  6
BYLAYER
  0
ENDSEC
  0
EOF
