  0
SECTION
  2
HEADER
  9
$ACADVER
  1
AC1015
  9
$ACADMAINTVER
 70
    20
  9
$DWGCODEPAGE
  3
ANSI_1252
  9
$INSBASE
 10
0.0
 20
0.0
 30
0.0
  9
$EXTMIN
 10
-88.16342308372259
 20
-23.60538673400879
 30
0.0
  9
$EXTMAX
 10
149.80979347229
 20
60.93108940124512
 30
0.0
  9
$LIMMIN
 10
-0.5
 20
-0.5
  9
$LIMMAX
 10
5.0
 20
5.0
  9
$ORTHOMODE
 70
     0
  9
$REGENMODE
 70
     1
  9
$FILLMODE
 70
     1
  9
$QTEXTMODE
 70
     0
  9
$MIRRTEXT
 70
     1
  9
$LTSCALE
 40
1.0
  9
$ATTMODE
 70
     1
  9
$TEXTSIZE
 40
0.2
  9
$TRACEWID
 40
0.05
  9
$TEXTSTYLE
  7
Standard
  9
$CLAYER
  8
0
  9
$CELTYPE
  6
BYLAYER
  9
$CECOLOR
 62
   256
  9
$CELTSCALE
 40
1.0
  9
$DISPSILH
 70
     0
  9
$DIMSCALE
 40
1.0
  9
$DIMASZ
 40
0.18
  9
$DIMEXO
 40
0.0625
  9
$DIMDLI
 40
0.38
  9
$DIMRND
 40
0.0
  9
$DIMDLE
 40
0.0
  9
$DIMEXE
 40
0.18
  9
$DIMTP
 40
0.0
  9
$DIMTM
 40
0.0
  9
$DIMTXT
 40
0.18
  9
$DIMCEN
 40
0.09
  9
$DIMTSZ
 40
0.0
  9
$DIMTOL
 70
     0
  9
$DIMLIM
 70
     0
  9
$DIMTIH
 70
     1
  9
$DIMTOH
 70
     1
  9
$DIMSE1
 70
     0
  9
$DIMSE2
 70
     0
  9
$DIMTAD
 70
     0
  9
$DIMZIN
 70
     0
  9
$DIMBLK
  1

  9
$DIMASO
 70
     1
  9
$DIMSHO
 70
     1
  9
$DIMPOST
  1

  9
$DIMAPOST
  1

  9
$DIMALT
 70
     0
  9
$DIMALTD
 70
     2
  9
$DIMALTF
 40
25.4
  9
$DIMLFAC
 40
1.0
  9
$DIMTOFL
 70
     0
  9
$DIMTVP
 40
0.0
  9
$DIMTIX
 70
     0
  9
$DIMSOXD
 70
     0
  9
$DIMSAH
 70
     0
  9
$DIMBLK1
  1

  9
$DIMBLK2
  1

  9
$DIMSTYLE
  2
Standard
  9
$DIMCLRD
 70
     0
  9
$DIMCLRE
 70
     0
  9
$DIMCLRT
 70
     0
  9
$DIMTFAC
 40
1.0
  9
$DIMGAP
 40
0.09
  9
$DIMJUST
 70
     0
  9
$DIMSD1
 70
     0
  9
$DIMSD2
 70
     0
  9
$DIMTOLJ
 70
     1
  9
$DIMTZIN
 70
     0
  9
$DIMALTZ
 70
     0
  9
$DIMALTTZ
 70
     0
  9
$DIMUPT
 70
     0
  9
$DIMDEC
 70
     4
  9
$DIMTDEC
 70
     4
  9
$DIMALTU
 70
     2
  9
$DIMALTTD
 70
     2
  9
$DIMTXSTY
  7
Standard
  9
$DIMAUNIT
 70
     0
  9
$DIMADEC
 70
     0
  9
$DIMALTRND
 40
0.0
  9
$DIMAZIN
 70
     0
  9
$DIMDSEP
 70
    46
  9
$DIMATFIT
 70
     3
  9
$DIMFRAC
 70
     0
  9
$DIMLDRBLK
  1

  9
$DIMLUNIT
 70
     2
  9
$DIMLWD
 70
    -2
  9
$DIMLWE
 70
    -2
  9
$DIMTMOVE
 70
     0
  9
$LUNITS
 70
     2
  9
$LUPREC
 70
     4
  9
$SKETCHINC
 40
0.1
  9
$FILLETRAD
 40
0.5
  9
$AUNITS
 70
     0
  9
$AUPREC
 70
     0
  9
$MENU
  1
.
  9
$ELEVATION
 40
0.0
  9
$PELEVATION
 40
0.0
  9
$THICKNESS
 40
0.0
  9
$LIMCHECK
 70
     0
  9
$CHAMFERA
 40
0.5
  9
$CHAMFERB
 40
0.5
  9
$CHAMFERC
 40
1.0
  9
$CHAMFERD
 40
0.0
  9
$SKPOLY
 70
     0
  9
$TDCREATE
 40
2456826.358318368
  9
$TDUCREATE
 40
2456826.566651701
  9
$TDUPDATE
 40
2456826.362182350
  9
$TDUUPDATE
 40
2456826.570515683
  9
$TDINDWG
 40
0.0030281250
  9
$TDUSRTIMER
 40
0.0030281250
  9
$USRTIMER
 70
     1
  9
$ANGBASE
 50
0.0
  9
$ANGDIR
 70
     0
  9
$PDMODE
 70
     0
  9
$PDSIZE
 40
0.0
  9
$PLINEWID
 40
0.0
  9
$SPLFRAME
 70
     0
  9
$SPLINETYPE
 70
     6
  9
$SPLINESEGS
 70
     8
  9
$HANDSEED
  5
34B
  9
$SURFTAB1
 70
     6
  9
$SURFTAB2
 70
     6
  9
$SURFTYPE
 70
     6
  9
$SURFU
 70
     6
  9
$SURFV
 70
     6
  9
$UCSBASE
  2

  9
$UCSNAME
  2

  9
$UCSORG
 10
0.0
 20
0.0
 30
0.0
  9
$UCSXDIR
 10
1.0
 20
0.0
 30
0.0
  9
$UCSYDIR
 10
0.0
 20
1.0
 30
0.0
  9
$UCSORTHOREF
  2

  9
$UCSORTHOVIEW
 70
     1
  9
$UCSORGTOP
 10
0.0
 20
0.0
 30
0.0
  9
$UCSORGBOTTOM
 10
0.0
 20
0.0
 30
0.0
  9
$UCSORGLEFT
 10
0.0
 20
0.0
 30
0.0
  9
$UCSORGRIGHT
 10
0.0
 20
0.0
 30
0.0
  9
$UCSORGFRONT
 10
0.0
 20
0.0
 30
0.0
  9
$UCSORGBACK
 10
0.0
 20
0.0
 30
0.0
  9
$PUCSBASE
  2

  9
$PUCSNAME
  2

  9
$PUCSORG
 10
0.0
 20
0.0
 30
0.0
  9
$PUCSXDIR
 10
1.0
 20
0.0
 30
0.0
  9
$PUCSYDIR
 10
0.0
 20
1.0
 30
0.0
  9
$PUCSORTHOREF
  2

  9
$PUCSORTHOVIEW
 70
     0
  9
$PUCSORGTOP
 10
0.0
 20
0.0
 30
0.0
  9
$PUCSORGBOTTOM
 10
0.0
 20
0.0
 30
0.0
  9
$PUCSORGLEFT
 10
0.0
 20
0.0
 30
0.0
  9
$PUCSORGRIGHT
 10
0.0
 20
0.0
 30
0.0
  9
$PUCSORGFRONT
 10
0.0
 20
0.0
 30
0.0
  9
$PUCSORGBACK
 10
0.0
 20
0.0
 30
0.0
  9
$USERI1
 70
     0
  9
$USERI2
 70
     0
  9
$USERI3
 70
     0
  9
$USERI4
 70
     0
  9
$USERI5
 70
     0
  9
$USERR1
 40
0.0
  9
$USERR2
 40
0.0
  9
$USERR3
 40
0.0
  9
$USERR4
 40
0.0
  9
$USERR5
 40
0.0
  9
$WORLDVIEW
 70
     1
  9
$SHADEDGE
 70
     3
  9
$SHADEDIF
 70
    70
  9
$TILEMODE
 70
     1
  9
$MAXACTVP
 70
    64
  9
$PINSBASE
 10
0.0
 20
0.0
 30
0.0
  9
$PLIMCHECK
 70
     0
  9
$PEXTMIN
 10
-0.5
 20
-0.5
 30
-0.5
  9
$PEXTMAX
 10
5.0
 20
5.0
 30
5.0
  9
$PLIMMIN
 10
-0.5
 20
-0.5
  9
$PLIMMAX
 10
5.0
 20
5.0
  9
$UNITMODE
 70
     0
  9
$VISRETAIN
 70
     1
  9
$PLINEGEN
 70
     0
  9
$PSLTSCALE
 70
     1
  9
$TREEDEPTH
 70
  3020
  9
$CMLSTYLE
  2
Standard
  9
$CMLJUST
 70
     0
  9
$CMLSCALE
 40
1.0
  9
$PROXYGRAPHICS
 70
     1
  9
$MEASUREMENT
 70
     0
  9
$CELWEIGHT
370
    -1
  9
$ENDCAPS
280
     0
  9
$JOINSTYLE
280
     0
  9
$LWDISPLAY
290
     0
  9
$INSUNITS
 70
     1
  9
$HYPERLINKBASE
  1

  9
$STYLESHEET
  1

  9
$XEDIT
290
     1
  9
$CEPSNTYPE
380
     0
  9
$PSTYLEMODE
290
     1
  9
$FINGERPRINTGUID
  2
{9D7ADC0C-9D18-4BCF-8ACF-3F2AE861BF5A}
  9
$VERSIONGUID
  2
{ED89197C-746F-4858-A85D-505586367ECE}
  9
$EXTNAMES
290
     1
  9
$PSVPSCALE
 40
0.0
  9
$OLESTARTUP
290
     0
  0
ENDSEC
  0
SECTION
  2
CLASSES
  0
CLASS
  1
ACDBDICTIONARYWDFLT
  2
AcDbDictionaryWithDefault
  3
ObjectDBX Classes
 90
        0
280
     0
281
     0
  0
CLASS
  1
VISUALSTYLE
  2
AcDbVisualStyle
  3
ObjectDBX Classes
 90
     4095
280
     0
281
     0
  0
CLASS
  1
MATERIAL
  2
AcDbMaterial
  3
ObjectDBX Classes
 90
     1153
280
     0
281
     0
  0
CLASS
  1
TABLESTYLE
  2
AcDbTableStyle
  3
ObjectDBX Classes
 90
     4095
280
     0
281
     0
  0
CLASS
  1
SCALE
  2
AcDbScale
  3
ObjectDBX Classes
 90
     1153
280
     0
281
     0
  0
CLASS
  1
MLEADERSTYLE
  2
AcDbMLeaderStyle
  3
ACDB_MLEADERSTYLE_CLASS
 90
     4095
280
     0
281
     0
  0
CLASS
  1
CELLSTYLEMAP
  2
AcDbCellStyleMap
  3
ObjectDBX Classes
 90
     1152
280
     0
281
     0
  0
CLASS
  1
DICTIONARYVAR
  2
AcDbDictionaryVar
  3
ObjectDBX Classes
 90
        0
280
     0
281
     0
  0
CLASS
  1
ACDBPLACEHOLDER
  2
AcDbPlaceHolder
  3
ObjectDBX Classes
 90
        0
280
     0
281
     0
  0
CLASS
  1
LAYOUT
  2
AcDbLayout
  3
ObjectDBX Classes
 90
        0
280
     0
281
     0
  0
ENDSEC
  0
SECTION
  2
TABLES
  0
TABLE
  2
VPORT
  5
8
330
0
100
AcDbSymbolTable
 70
    17
  0
VPORT
  5
29
330
8
100
AcDbSymbolTableRecord
100
AcDbViewportTableRecord
  2
DUMMY
 70
     0
 10
0.0
 20
0.0
 11
1.0
 21
1.0
 12
10.42990654205607
 22
4.5
 13
0.0
 23
0.0
 14
0.5
 24
0.5
 15
0.5
 25
0.5
 16
0.0
 26
0.0
 36
1.0
 17
0.0
 27
0.0
 37
0.0
 40
9.0
 41
1.972972972850328
 42
50.0
 43
0.0
 44
0.0
 50
0.0
 51
0.0
 71
     0
 72
   100
 73
     1
 74
     3
 75
     0
 76
     0
 77
     0
 78
     0
281
     0
 65
     1
110
0.0
120
0.0
130
0.0
111
1.0
121
0.0
131
0.0
112
0.0
122
1.0
132
0.0
 79
     0
146
0.0
  0
VPORT
  5
1E5
330
8
100
AcDbSymbolTableRecord
100
AcDbViewportTableRecord
  2
*ACTIVE
 70
     0
 10
0.0
 20
0.0
 11
1.0
 21
1.0
 12
30.82318519428373
 22
18.66285133361816
 13
0.0
 23
0.0
 14
0.5
 24
0.5
 15
0.5
 25
0.5
 16
0.0
 26
0.0
 36
1.0
 17
0.0
 27
0.0
 37
0.0
 40
119.2115273880789
 41
2.003811944091486
 42
50.0
 43
51.08999362633201
 44
-51.08999362633201
 50
0.0
 51
0.0
 71
     0
 72
   100
 73
     1
 74
     3
 75
     0
 76
     0
 77
     0
 78
     0
281
     0
 65
     1
110
0.0
120
0.0
130
0.0
111
1.0
121
0.0
131
0.0
112
0.0
122
1.0
132
0.0
 79
     0
146
0.0
1001
ACAD_NAV_VCDISPLAY
1070
     3
  0
VPORT
  5
1E6
330
8
100
AcDbSymbolTableRecord
100
AcDbViewportTableRecord
  2
L1
 70
     0
 10
0.0
 20
0.0
 11
1.0
 21
1.0
 12
23.57112815836444
 22
18.67977094650268
 13
0.0
 23
0.0
 14
0.5
 24
0.5
 15
0.5
 25
0.5
 16
0.7188730927569435
 26
-0.5850486126764432
 36
0.3754192287502549
 17
0.0
 27
0.0
 37
0.0
 40
31.65737478222011
 41
0.5609042720000199
 42
50.0
 43
51.08999362633201
 44
-51.08999362633201
 50
0.0
 51
0.0
 71
     0
 72
   100
 73
     1
 74
     3
 75
     0
 76
     0
 77
     0
 78
     0
281
     0
 65
     1
110
0.0
120
0.0
130
0.0
111
1.0
121
0.0
131
0.0
112
0.0
122
1.0
132
0.0
 79
     0
146
0.0
  0
VPORT
  5
1E7
330
8
100
AcDbSymbolTableRecord
100
AcDbViewportTableRecord
  2
L2
 70
     0
 10
0.0
 20
0.0
 11
0.5
 21
1.0
 12
0.0
 22
0.0
 13
0.0
 23
0.0
 14
0.5
 24
0.5
 15
0.5
 25
0.5
 16
0.0
 26
-1.0
 36
0.0
 17
0.0
 27
0.0
 37
0.0
 40
30.49981439122291
 41
0.5821922890377627
 42
50.0
 43
15.77927271104933
 44
-15.77927271104933
 50
0.0
 51
0.0
 71
     0
 72
   100
 73
     1
 74
     3
 75
     0
 76
     0
 77
     0
 78
     0
281
     0
 65
     1
110
0.0
120
0.0
130
0.0
111
1.0
121
0.0
131
0.0
112
0.0
122
1.0
132
0.0
 79
     0
146
0.0
  0
VPORT
  5
1E8
330
8
100
AcDbSymbolTableRecord
100
AcDbViewportTableRecord
  2
L2
 70
     0
 10
0.5
 20
0.0
 11
1.0
 21
1.0
 12
0.0
 22
0.0
 13
0.0
 23
0.0
 14
0.5
 24
0.5
 15
0.5
 25
0.5
 16
1.0
 26
0.0
 36
0.0
 17
0.0
 27
0.0
 37
0.0
 40
30.49981439122291
 41
0.5821922890377627
 42
50.0
 43
15.40346591533207
 44
-15.40346591533207
 50
0.0
 51
0.0
 71
     0
 72
   100
 73
     1
 74
     3
 75
     0
 76
     0
 77
     0
 78
     0
281
     0
 65
     1
110
0.0
120
0.0
130
0.0
111
1.0
121
0.0
131
0.0
112
0.0
122
1.0
132
0.0
 79
     0
146
0.0
  0
VPORT
  5
1E9
330
8
100
AcDbSymbolTableRecord
100
AcDbViewportTableRecord
  2
L3
 70
     0
 10
0.0
 20
0.5
 11
1.0
 21
1.0
 12
0.0
 22
0.0
 13
0.0
 23
0.0
 14
0.5
 24
0.5
 15
0.5
 25
0.5
 16
0.0
 26
0.0
 36
1.0
 17
0.0
 27
0.0
 37
0.0
 40
4.339167076771653
 41
4.092203974054856
 42
50.0
 43
15.24990719561145
 44
-15.24990719561145
 50
0.0
 51
0.0
 71
     0
 72
   100
 73
     1
 74
     3
 75
     0
 76
     0
 77
     0
 78
     0
281
     0
 65
     1
110
0.0
120
0.0
130
0.0
111
1.0
121
0.0
131
0.0
112
0.0
122
1.0
132
0.0
 79
     0
146
0.0
  0
VPORT
  5
1EA
330
8
100
AcDbSymbolTableRecord
100
AcDbViewportTableRecord
  2
L3
 70
     0
 10
0.0
 20
0.0
 11
1.0
 21
0.5
 12
0.0
 22
0.0
 13
0.0
 23
0.0
 14
0.5
 24
0.5
 15
0.5
 25
0.5
 16
0.0
 26
-1.0
 36
0.0
 17
0.0
 27
0.0
 37
0.0
 40
30.49981439122291
 41
0.5821922890377627
 42
50.0
 43
15.77927271104933
 44
-15.77927271104933
 50
0.0
 51
0.0
 71
     0
 72
   100
 73
     1
 74
     3
 75
     0
 76
     0
 77
     0
 78
     0
281
     0
 65
     1
110
0.0
120
0.0
130
0.0
111
1.0
121
0.0
131
0.0
112
0.0
122
1.0
132
0.0
 79
     0
146
0.0
  0
VPORT
  5
1EB
330
8
100
AcDbSymbolTableRecord
100
AcDbViewportTableRecord
  2
L4
 70
     0
 10
0.0
 20
0.5
 11
0.5
 21
1.0
 12
0.0
 22
0.0
 13
0.0
 23
0.0
 14
0.5
 24
0.5
 15
0.5
 25
0.5
 16
0.0
 26
0.0
 36
1.0
 17
0.0
 27
0.0
 37
0.0
 40
4.339167076771653
 41
4.092203974054856
 42
50.0
 43
15.24990719561145
 44
-15.24990719561145
 50
0.0
 51
0.0
 71
     0
 72
   100
 73
     1
 74
     3
 75
     0
 76
     0
 77
     0
 78
     0
281
     0
 65
     1
110
0.0
120
0.0
130
0.0
111
1.0
121
0.0
131
0.0
112
0.0
122
1.0
132
0.0
 79
     0
146
0.0
  0
VPORT
  5
1EC
330
8
100
AcDbSymbolTableRecord
100
AcDbViewportTableRecord
  2
L4
 70
     0
 10
0.0
 20
0.0
 11
0.5
 21
0.5
 12
0.0
 22
0.0
 13
0.0
 23
0.0
 14
0.5
 24
0.5
 15
0.5
 25
0.5
 16
0.0
 26
-1.0
 36
0.0
 17
0.0
 27
0.0
 37
0.0
 40
30.49981439122291
 41
0.5821922890377627
 42
50.0
 43
15.77927271104933
 44
-15.77927271104933
 50
0.0
 51
0.0
 71
     0
 72
   100
 73
     1
 74
     3
 75
     0
 76
     0
 77
     0
 78
     0
281
     0
 65
     1
110
0.0
120
0.0
130
0.0
111
1.0
121
0.0
131
0.0
112
0.0
122
1.0
132
0.0
 79
     0
146
0.0
  0
VPORT
  5
1ED
330
8
100
AcDbSymbolTableRecord
100
AcDbViewportTableRecord
  2
L4
 70
     0
 10
0.5
 20
0.0
 11
1.0
 21
0.5
 12
0.0
 22
0.0
 13
0.0
 23
0.0
 14
0.5
 24
0.5
 15
0.5
 25
0.5
 16
1.0
 26
0.0
 36
0.0
 17
0.0
 27
0.0
 37
0.0
 40
30.49981439122291
 41
0.5821922890377627
 42
50.0
 43
15.40346591533207
 44
-15.40346591533207
 50
0.0
 51
0.0
 71
     0
 72
   100
 73
     1
 74
     3
 75
     0
 76
     0
 77
     0
 78
     0
281
     0
 65
     1
110
0.0
120
0.0
130
0.0
111
1.0
121
0.0
131
0.0
112
0.0
122
1.0
132
0.0
 79
     0
146
0.0
  0
VPORT
  5
1EE
330
8
100
AcDbSymbolTableRecord
100
AcDbViewportTableRecord
  2
L4
 70
     0
 10
0.5
 20
0.5
 11
1.0
 21
1.0
 12
0.0
 22
0.0
 13
0.0
 23
0.0
 14
0.5
 24
0.5
 15
0.5
 25
0.5
 16
0.5773502691896259
 26
-0.5773502691896259
 36
0.5773502691896259
 17
0.0
 27
0.0
 37
0.0
 40
29.98360848273399
 41
0.5922154688578648
 42
50.0
 43
15.62413760059691
 44
-15.62413760059691
 50
0.0
 51
0.0
 71
     0
 72
   100
 73
     1
 74
     3
 75
     0
 76
     0
 77
     0
 78
     0
281
     0
 65
     1
110
0.0
120
0.0
130
0.0
111
1.0
121
0.0
131
0.0
112
0.0
122
1.0
132
0.0
 79
     0
146
0.0
  0
VPORT
  5
1EF
330
8
100
AcDbSymbolTableRecord
100
AcDbViewportTableRecord
  2
L6
 70
     0
 10
0.0
 20
0.5
 11
0.3333333333333334
 21
1.0
 12
23.57112815836444
 22
18.67977094650268
 13
0.0
 23
0.0
 14
0.5
 24
0.5
 15
0.5
 25
0.5
 16
0.7188730927569435
 26
-0.5850486126764432
 36
0.3754192287502549
 17
0.0
 27
0.0
 37
0.0
 40
31.65737478222011
 41
0.5609042720000199
 42
50.0
 43
51.08999362633201
 44
-51.08999362633201
 50
0.0
 51
0.0
 71
     0
 72
   100
 73
     1
 74
     3
 75
     0
 76
     0
 77
     0
 78
     0
281
     0
 65
     1
110
0.0
120
0.0
130
0.0
111
1.0
121
0.0
131
0.0
112
0.0
122
1.0
132
0.0
 79
     0
146
0.0
  0
VPORT
  5
1F0
330
8
100
AcDbSymbolTableRecord
100
AcDbViewportTableRecord
  2
L6
 70
     0
 10
0.0
 20
0.0
 11
0.3333333333333334
 21
0.5
 12
0.0
 22
0.0
 13
0.0
 23
0.0
 14
0.5
 24
0.5
 15
0.5
 25
0.5
 16
-1.0
 26
0.0
 36
0.0
 17
0.0
 27
0.0
 37
0.0
 40
30.49981439122291
 41
0.5821922890377627
 42
50.0
 43
15.40346591533207
 44
-15.40346591533207
 50
0.0
 51
0.0
 71
     0
 72
   100
 73
     1
 74
     3
 75
     0
 76
     0
 77
     0
 78
     0
281
     0
 65
     1
110
0.0
120
0.0
130
0.0
111
1.0
121
0.0
131
0.0
112
0.0
122
1.0
132
0.0
 79
     0
146
0.0
  0
VPORT
  5
1F1
330
8
100
AcDbSymbolTableRecord
100
AcDbViewportTableRecord
  2
L6
 70
     0
 10
0.3333333333333334
 20
0.5
 11
0.6666666666666666
 21
1.0
 12
0.0
 22
0.0
 13
0.0
 23
0.0
 14
0.5
 24
0.5
 15
0.5
 25
0.5
 16
0.0
 26
0.0
 36
1.0
 17
0.0
 27
0.0
 37
0.0
 40
4.339167076771653
 41
4.092203974054856
 42
50.0
 43
15.24990719561145
 44
-15.24990719561145
 50
0.0
 51
0.0
 71
     0
 72
   100
 73
     1
 74
     3
 75
     0
 76
     0
 77
     0
 78
     0
281
     0
 65
     1
110
0.0
120
0.0
130
0.0
111
1.0
121
0.0
131
0.0
112
0.0
122
1.0
132
0.0
 79
     0
146
0.0
  0
VPORT
  5
1F2
330
8
100
AcDbSymbolTableRecord
100
AcDbViewportTableRecord
  2
L6
 70
     0
 10
0.3333333333333334
 20
0.0
 11
0.6666666666666666
 21
0.5
 12
0.0
 22
0.0
 13
0.0
 23
0.0
 14
0.5
 24
0.5
 15
0.5
 25
0.5
 16
0.0
 26
-1.0
 36
0.0
 17
0.0
 27
0.0
 37
0.0
 40
30.49981439122291
 41
0.5821922890377627
 42
50.0
 43
15.77927271104933
 44
-15.77927271104933
 50
0.0
 51
0.0
 71
     0
 72
   100
 73
     1
 74
     3
 75
     0
 76
     0
 77
     0
 78
     0
281
     0
 65
     1
110
0.0
120
0.0
130
0.0
111
1.0
121
0.0
131
0.0
112
0.0
122
1.0
132
0.0
 79
     0
146
0.0
  0
VPORT
  5
1F3
330
8
100
AcDbSymbolTableRecord
100
AcDbViewportTableRecord
  2
L6
 70
     0
 10
0.6666666666666666
 20
0.5
 11
1.0
 21
1.0
 12
0.0
 22
0.0
 13
0.0
 23
0.0
 14
0.5
 24
0.5
 15
0.5
 25
0.5
 16
0.5773502691896259
 26
-0.5773502691896259
 36
0.5773502691896259
 17
0.0
 27
0.0
 37
0.0
 40
29.98360848273399
 41
0.5922154688578648
 42
50.0
 43
15.62413760059691
 44
-15.62413760059691
 50
0.0
 51
0.0
 71
     0
 72
   100
 73
     1
 74
     3
 75
     0
 76
     0
 77
     0
 78
     0
281
     0
 65
     1
110
0.0
120
0.0
130
0.0
111
1.0
121
0.0
131
0.0
112
0.0
122
1.0
132
0.0
 79
     0
146
0.0
  0
VPORT
  5
1F4
330
8
100
AcDbSymbolTableRecord
100
AcDbViewportTableRecord
  2
L6
 70
     0
 10
0.6666666666666666
 20
0.0
 11
1.0
 21
0.5
 12
0.0
 22
0.0
 13
0.0
 23
0.0
 14
0.5
 24
0.5
 15
0.5
 25
0.5
 16
1.0
 26
0.0
 36
0.0
 17
0.0
 27
0.0
 37
0.0
 40
30.49981439122291
 41
0.5821922890377627
 42
50.0
 43
15.40346591533207
 44
-15.40346591533207
 50
0.0
 51
0.0
 71
     0
 72
   100
 73
     1
 74
     3
 75
     0
 76
     0
 77
     0
 78
     0
281
     0
 65
     1
110
0.0
120
0.0
130
0.0
111
1.0
121
0.0
131
0.0
112
0.0
122
1.0
132
0.0
 79
     0
146
0.0
  0
ENDTAB
  0
TABLE
  2
LTYPE
  5
5
330
0
100
AcDbSymbolTable
 70
     7
  0
LTYPE
  5
14
330
5
100
AcDbSymbolTableRecord
100
AcDbLinetypeTableRecord
  2
BYBLOCK
 70
     0
  3

 72
    65
 73
     0
 40
0.0
  0
LTYPE
  5
15
330
5
100
AcDbSymbolTableRecord
100
AcDbLinetypeTableRecord
  2
BYLAYER
 70
     0
  3

 72
    65
 73
     0
 40
0.0
  0
LTYPE
  5
16
330
5
100
AcDbSymbolTableRecord
100
AcDbLinetypeTableRecord
  2
CONTINUOUS
 70
     0
  3
Solid line
 72
    65
 73
     0
 40
0.0
  0
LTYPE
  5
3F
330
5
100
AcDbSymbolTableRecord
100
AcDbLinetypeTableRecord
  2
DASHED
 70
     0
  3
__ __ __ __ __ __ __ __ __
 72
    65
 73
     2
 40
25.72
 49
12.86
 74
     4
 75
     0
340
0
 46
0.0
 50
0.0
 44
0.0
 45
0.0
 49
-12.86
 74
     4
 75
     0
340
0
 46
0.0
 50
0.0
 44
0.0
 45
0.0
  0
LTYPE
  5
40
330
5
100
AcDbSymbolTableRecord
100
AcDbLinetypeTableRecord
  2
HIDDEN
 70
     0
  3
_ _ _ _ _ _ _ _ _ _ _ _ _ _ _
 72
    65
 73
     2
 40
0.5
 49
0.25
 74
     4
 75
     0
340
0
 46
0.0
 50
0.0
 44
0.0
 45
0.0
 49
-0.25
 74
     4
 75
     0
340
0
 46
0.0
 50
0.0
 44
0.0
 45
0.0
  0
LTYPE
  5
41
330
5
100
AcDbSymbolTableRecord
100
AcDbLinetypeTableRecord
  2
PHANTOM
 70
     0
  3
____ _ _ ____ _ _ _____ _ _ ____
 72
    65
 73
     6
 40
50.5
 49
18.0
 74
     4
 75
     0
340
0
 46
0.0
 50
0.0
 44
0.0
 45
0.0
 49
-6.5
 74
     4
 75
     0
340
0
 46
0.0
 50
0.0
 44
0.0
 45
0.0
 49
6.5
 74
     4
 75
     0
340
0
 46
0.0
 50
0.0
 44
0.0
 45
0.0
 49
-6.5
 74
     4
 75
     0
340
0
 46
0.0
 50
0.0
 44
0.0
 45
0.0
 49
6.5
 74
     4
 75
     0
340
0
 46
0.0
 50
0.0
 44
0.0
 45
0.0
 49
-6.5
 74
     4
 75
     0
340
0
 46
0.0
 50
0.0
 44
0.0
 45
0.0
  0
LTYPE
  5
42
330
5
100
AcDbSymbolTableRecord
100
AcDbLinetypeTableRecord
  2
CENTER
 70
     0
  3
____ _ ____ _ ____ _ ____
 72
    65
 73
     4
 40
47.4
 49
22.0
 74
     4
 75
     0
340
0
 46
0.0
 50
0.0
 44
0.0
 45
0.0
 49
-8.5
 74
     4
 75
     0
340
0
 46
0.0
 50
0.0
 44
0.0
 45
0.0
 49
8.5
 74
     4
 75
     0
340
0
 46
0.0
 50
0.0
 44
0.0
 45
0.0
 49
-8.5
 74
     4
 75
     0
340
0
 46
0.0
 50
0.0
 44
0.0
 45
0.0
  0
LTYPE
  5
43
330
5
100
AcDbSymbolTableRecord
100
AcDbLinetypeTableRecord
  2
DOT
 70
     0
  3
.........................
 72
    65
 73
     2
 40
10.0
 49
0.0
 74
     4
 75
     0
340
0
 46
0.0
 50
0.0
 44
0.0
 45
0.0
 49
-10.0
 74
     4
 75
     0
340
0
 46
0.0
 50
0.0
 44
0.0
 45
0.0
  0
LTYPE
  5
44
330
5
100
AcDbSymbolTableRecord
100
AcDbLinetypeTableRecord
  2
DASHDOT
 70
     0
  3
_._._._._._._._._._._._._._._._.
 72
    65
 73
     4
 40
70.0
 49
31.0
 74
     4
 75
     0
340
0
 46
0.0
 50
0.0
 44
0.0
 45
0.0
 49
-13.0
 74
     4
 75
     0
340
0
 46
0.0
 50
0.0
 44
0.0
 45
0.0
 49
13.0
 74
     4
 75
     0
340
0
 46
0.0
 50
0.0
 44
0.0
 45
0.0
 49
-13.0
 74
     4
 75
     0
340
0
 46
0.0
 50
0.0
 44
0.0
 45
0.0
  0
ENDTAB
  0
TABLE
  2
LAYER
  5
2
330
0
100
AcDbSymbolTable
 70
     2
  0
LAYER
  5
10
102
{ACAD_XDICTIONARY
360
241
102
}
330
2
100
AcDbSymbolTableRecord
100
AcDbLayerTableRecord
  2
0
 70
     0
 62
     7
  6
CONTINUOUS
370
    -3
390
F
  0
LAYER
  5
46
102
{ACAD_XDICTIONARY
360
243
102
}
330
2
100
AcDbSymbolTableRecord
100
AcDbLayerTableRecord
  2
TFR-TRI
 70
     0
 62
     7
  6
CONTINUOUS
370
    -3
390
F
  0
ENDTAB
  0
TABLE
  2
STYLE
  5
3
330
0
100
AcDbSymbolTable
 70
     1
  0
STYLE
  5
11
330
3
100
AcDbSymbolTableRecord
100
AcDbTextStyleTableRecord
  2
Standard
 70
     0
 40
0.0
 41
1.0
 50
0.0
 71
     0
 42
0.2
  3
txt
  4

  0
ENDTAB
  0
TABLE
  2
VIEW
  5
6
330
0
100
AcDbSymbolTable
 70
     0
  0
ENDTAB
  0
TABLE
  2
UCS
  5
7
330
0
100
AcDbSymbolTable
 70
     0
  0
ENDTAB
  0
TABLE
  2
APPID
  5
9
330
0
100
AcDbSymbolTable
 70
     3
  0
APPID
  5
12
330
9
100
AcDbSymbolTableRecord
100
AcDbRegAppTableRecord
  2
ACAD
 70
     0
  0
APPID
  5
245
330
9
100
AcDbSymbolTableRecord
100
AcDbRegAppTableRecord
  2
ACAD_NAV_VCDISPLAY
 70
     0
  0
APPID
  5
34A
330
9
100
AcDbSymbolTableRecord
100
AcDbRegAppTableRecord
  2
ACAD_MLEADERVER
 70
     0
  0
ENDTAB
  0
TABLE
  2
DIMSTYLE
  5
A
330
0
100
AcDbSymbolTable
 70
     1
100
AcDbDimStyleTable
 71
     0
  0
DIMSTYLE
105
27
330
A
100
AcDbSymbolTableRecord
100
AcDbDimStyleTableRecord
  2
Standard
 70
     0
340
11
  0
ENDTAB
  0
TABLE
  2
BLOCK_RECORD
  5
1
330
0
100
AcDbSymbolTable
 70
     1
  0
BLOCK_RECORD
  5
1F
330
1
100
AcDbSymbolTableRecord
100
AcDbBlockTableRecord
  2
*Model_Space
340
22
  0
BLOCK_RECORD
  5
1B
330
1
100
AcDbSymbolTableRecord
100
AcDbBlockTableRecord
  2
*Paper_Space
340
1E
  0
BLOCK_RECORD
  5
23
330
1
100
AcDbSymbolTableRecord
100
AcDbBlockTableRecord
  2
*Paper_Space0
340
26
  0
ENDTAB
  0
ENDSEC
  0
SECTION
  2
BLOCKS
  0
BLOCK
  5
20
330
1F
100
AcDbEntity
  8
0
100
AcDbBlockBegin
  2
*Model_Space
 70
     0
 10
0.0
 20
0.0
 30
0.0
  3
*Model_Space
  1

  0
ENDBLK
  5
21
330
1F
100
AcDbEntity
  8
0
100
AcDbBlockEnd
  0
BLOCK
  5
1C
330
1B
100
AcDbEntity
 67
     1
  8
0
100
AcDbBlockBegin
  2
*Paper_Space
 70
     0
 10
0.0
 20
0.0
 30
0.0
  3
*Paper_Space
  1

  0
ENDBLK
  5
1D
330
1B
100
AcDbEntity
 67
     1
  8
0
100
AcDbBlockEnd
  0
BLOCK
  5
24
330
23
100
AcDbEntity
 67
     1
  8
0
100
AcDbBlockBegin
  2
*Paper_Space0
 70
     0
 10
0.0
 20
0.0
 30
0.0
  3
*Paper_Space0
  1

  0
ENDBLK
  5
25
330
23
100
AcDbEntity
 67
     1
  8
0
100
AcDbBlockEnd
  0
ENDSEC
  0
SECTION
  2
ENTITIES
  0
LINE
  5
45
330
1F
100
AcDbEntity
  8
TFR-TRI
  6
Continuous
 62
     1
100
AcDbLine
 10
-87.59208488464356
 20
20.90405082702637
 30
0.0
 11
-87.52908897399903
 21
20.90405082702637
 31
0.0
  0
LINE
  5
47
330
1F
100
AcDbEntity
  8
TFR-TRI
  6
Continuous
 62
     1
100
AcDbLine
 10
-87.59208488464356
 20
19.53645133972168
 30
0.0
 11
-87.59208488464356
 21
20.03791618347168
 31
0.0
  0
LINE
  5
48
330
1F
100
AcDbEntity
  8
TFR-TRI
  6
Continuous
 62
     1
100
AcDbLine
 10
-87.59208488464356
 20
20.03791618347168
 30
0.0
 11
-87.59208488464356
 21
20.11665153503418
 31
0.0
  0
LINE
  5
49
330
1F
100
AcDbEntity
  8
TFR-TRI
  6
Continuous
 62
     1
100
AcDbLine
 10
-87.59208488464356
 20
20.11665153503418
 30
0.0
 11
-87.59208488464356
 21
20.19540214538574
 31
0.0
  0
LINE
  5
4A
330
1F
100
AcDbEntity
  8
TFR-TRI
  6
Continuous
 62
     1
100
AcDbLine
 10
-87.59208488464356
 20
20.19540214538574
 30
0.0
 11
-87.59208488464356
 21
20.82531547546387
 31
0.0
  0
LINE
  5
4B
330
1F
100
AcDbEntity
  8
TFR-TRI
  6
Continuous
 62
     1
100
AcDbLine
 10
-87.59208488464356
 20
20.82531547546387
 30
0.0
 11
-87.59208488464356
 21
20.90405082702637
 31
0.0
  0
LINE
  5
4C
330
1F
100
AcDbEntity
  8
TFR-TRI
  6
Continuous
 62
     1
100
AcDbLine
 10
-87.59208488464356
 20
18.97492790222168
 30
0.0
 11
-87.59208488464356
 21
19.36861991882324
 31
0.0
  0
LINE
  5
4D
330
1F
100
AcDbEntity
  8
TFR-TRI
  6
Continuous
 62
     1
100
AcDbLine
 10
-87.59208488464356
 20
19.36861991882324
 30
0.0
 11
-87.59208488464356
 21
19.4473705291748
 31
0.0
  0
LINE
  5
4E
330
1F
100
AcDbEntity
  8
TFR-TRI
  6
Continuous
 62
     1
100
AcDbLine
 10
-87.52908897399903
 20
20.11665153503418
 30
0.0
 11
-87.52908897399903
 21
20.03791618347168
 31
0.0
  0
LINE
  5
4F
330
1F
100
AcDbEntity
  8
TFR-TRI
  6
Continuous
 62
     1
100
AcDbLine
 10
-87.52908897399903
 20
19.4473705291748
 30
0.0
 11
-87.52908897399903
 21
20.03791618347168
 31
0.0
  0
LINE
  5
50
330
1F
100
AcDbEntity
  8
TFR-TRI
  6
Continuous
 62
     1
100
AcDbLine
 10
-87.52908897399903
 20
19.4473705291748
 30
0.0
 11
-87.52908897399903
 21
19.36861991882324
 31
0.0
  0
LINE
  5
51
330
1F
100
AcDbEntity
  8
TFR-TRI
  6
Continuous
 62
     1
100
AcDbLine
 10
-87.52908897399903
 20
18.97492790222168
 30
0.0
 11
-87.52908897399903
 21
19.36861991882324
 31
0.0
  0
LINE
  5
52
330
1F
100
AcDbEntity
  8
TFR-TRI
  6
Continuous
 62
     1
100
AcDbLine
 10
-87.52908897399903
 20
20.90405082702637
 30
0.0
 11
-87.52908897399903
 21
20.82531547546387
 31
0.0
  0
LINE
  5
53
330
1F
100
AcDbEntity
  8
TFR-TRI
  6
Continuous
 62
     1
100
AcDbLine
 10
-87.52908897399903
 20
20.19540214538574
 30
0.0
 11
-87.52908897399903
 21
20.82531547546387
 31
0.0
  0
LINE
  5
54
330
1F
100
AcDbEntity
  8
TFR-TRI
  6
Continuous
 62
     1
100
AcDbLine
 10
-87.52908897399903
 20
20.19540214538574
 30
0.0
 11
-87.52908897399903
 21
20.11665153503418
 31
0.0
  0
LINE
  5
55
330
1F
100
AcDbEntity
  8
TFR-TRI
  6
Continuous
 62
     1
100
AcDbLine
 10
-87.52908897399903
 20
20.03791618347168
 30
0.0
 11
-87.59208488464356
 21
20.03791618347168
 31
0.0
  0
LINE
  5
56
330
1F
100
AcDbEntity
  8
TFR-TRI
  6
Continuous
 62
     1
100
AcDbLine
 10
-87.59208488464356
 20
19.4473705291748
 30
0.0
 11
-87.52908897399903
 21
19.4473705291748
 31
0.0
  0
LINE
  5
57
330
1F
100
AcDbEntity
  8
TFR-TRI
  6
Continuous
 62
     1
100
AcDbLine
 10
-87.52908897399903
 20
19.36861991882324
 30
0.0
 11
-87.59208488464356
 21
19.36861991882324
 31
0.0
  0
LINE
  5
58
330
1F
100
AcDbEntity
  8
TFR-TRI
  6
Continuous
 62
     1
100
AcDbLine
 10
-87.59208488464356
 20
18.97492790222168
 30
0.0
 11
-87.52908897399903
 21
18.97492790222168
 31
0.0
  0
LINE
  5
59
330
1F
100
AcDbEntity
  8
TFR-TRI
  6
Continuous
 62
     1
100
AcDbLine
 10
-87.62357902526856
 20
18.94083976745605
 30
0.0
 11
-87.62357902526856
 21
18.88043022155762
 31
0.0
  0
LINE
  5
5A
330
1F
100
AcDbEntity
  8
TFR-TRI
  6
Continuous
 62
     1
100
AcDbLine
 10
-88.05664634704589
 20
18.94083976745605
 30
0.0
 11
-88.05664634704589
 21
18.88043022155762
 31
0.0
  0
LINE
  5
5B
330
1F
100
AcDbEntity
  8
TFR-TRI
  6
Continuous
 62
     1
100
AcDbLine
 10
-87.62357902526856
 20
19.5418529510498
 30
0.0
 11
-87.62357902526856
 21
19.4788646697998
 31
0.0
  0
LINE
  5
5C
330
1F
100
AcDbEntity
  8
TFR-TRI
  6
Continuous
 62
     1
100
AcDbLine
 10
-87.62357902526856
 20
19.5418529510498
 30
0.0
 11
-87.93853569030762
 21
19.5418529510498
 31
0.0
  0
LINE
  5
5D
330
1F
100
AcDbEntity
  8
TFR-TRI
  6
Continuous
 62
     1
100
AcDbLine
 10
-87.93853569030762
 20
19.5418529510498
 30
0.0
 11
-87.93853569030762
 21
19.4788646697998
 31
0.0
  0
LINE
  5
5E
330
1F
100
AcDbEntity
  8
TFR-TRI
  6
Continuous
 62
     1
100
AcDbLine
 10
-87.62357902526856
 20
19.4788646697998
 30
0.0
 11
-87.93853569030762
 21
19.4788646697998
 31
0.0
  0
LINE
  5
5F
330
1F
100
AcDbEntity
  8
TFR-TRI
  6
Continuous
 62
     1
100
AcDbLine
 10
-88.01727867126464
 20
19.5418529510498
 30
0.0
 11
-87.93853569030762
 21
19.5418529510498
 31
0.0
  0
LINE
  5
60
330
1F
100
AcDbEntity
  8
TFR-TRI
  6
Continuous
 62
     1
100
AcDbLine
 10
-87.93853569030762
 20
19.4788646697998
 30
0.0
 11
-88.01727867126464
 21
19.4788646697998
 31
0.0
  0
LINE
  5
61
330
1F
100
AcDbEntity
  8
TFR-TRI
  6
Continuous
 62
     1
100
AcDbLine
 10
-88.01727867126464
 20
19.4788646697998
 30
0.0
 11
-88.01727867126464
 21
19.5418529510498
 31
0.0
  0
LINE
  5
62
330
1F
100
AcDbEntity
  8
TFR-TRI
  6
Continuous
 62
     1
100
AcDbLine
 10
-87.59208488464356
 20
20.19540214538574
 30
0.0
 11
-87.52908897399903
 21
20.19540214538574
 31
0.0
  0
LINE
  5
63
330
1F
100
AcDbEntity
  8
TFR-TRI
  6
Continuous
 62
     1
100
AcDbLine
 10
-87.52908897399903
 20
20.82531547546387
 30
0.0
 11
-87.59208488464356
 21
20.82531547546387
 31
0.0
  0
LINE
  5
64
330
1F
100
AcDbEntity
  8
TFR-TRI
  6
Continuous
 62
     1
100
AcDbLine
 10
-87.59208488464356
 20
20.11665153503418
 30
0.0
 11
-87.52908897399903
 21
20.11665153503418
 31
0.0
  0
LINE
  5
65
330
1F
100
AcDbEntity
  8
TFR-TRI
  6
Continuous
 62
   251
100
AcDbLine
 10
-87.82365989685059
 20
17.09106254577636
 30
0.0
 11
-87.7674388885498
 21
18.68218803405762
 31
0.0
  0
LINE
  5
66
330
1F
100
AcDbEntity
  8
TFR-TRI
  6
Continuous
 62
   251
100
AcDbLine
 10
-87.7674388885498
 20
18.68218803405762
 30
0.0
 11
-87.62824058532714
 21
18.82137870788574
 31
0.0
  0
LINE
  5
67
330
1F
100
AcDbEntity
  8
TFR-TRI
  6
Continuous
 62
   251
100
AcDbLine
 10
-87.62824058532714
 20
18.82137870788574
 30
0.0
 11
-87.62824058532714
 21
18.84106254577637
 31
0.0
  0
LINE
  5
68
330
1F
100
AcDbEntity
  8
TFR-TRI
  6
Continuous
 62
   251
100
AcDbLine
 10
-87.62824058532714
 20
18.84106254577637
 30
0.0
 11
-87.60342216491698
 21
18.84106254577637
 31
0.0
  0
LINE
  5
69
330
1F
100
AcDbEntity
  8
TFR-TRI
  6
Continuous
 62
   251
100
AcDbLine
 10
-87.60342216491698
 20
18.84106254577637
 30
0.0
 11
-87.60342216491698
 21
18.88043022155762
 31
0.0
  0
LINE
  5
6A
330
1F
100
AcDbEntity
  8
TFR-TRI
  6
Continuous
 62
   251
100
AcDbLine
 10
-87.60342216491698
 20
18.88043022155762
 30
0.0
 11
-88.09384727478027
 21
18.88043022155762
 31
0.0
  0
LINE
  5
6B
330
1F
100
AcDbEntity
  8
TFR-TRI
  6
Continuous
 62
   251
100
AcDbLine
 10
-88.09384727478027
 20
18.94083976745605
 30
0.0
 11
-87.60342216491698
 21
18.94083976745605
 31
0.0
  0
LINE
  5
6C
330
1F
100
AcDbEntity
  8
TFR-TRI
  6
Continuous
 62
   251
100
AcDbLine
 10
-87.60342216491698
 20
18.94083976745605
 30
0.0
 11
-87.60342216491698
 21
18.98022270202637
 31
0.0
  0
LINE
  5
6D
330
1F
100
AcDbEntity
  8
TFR-TRI
  6
Continuous
 62
   251
100
AcDbLine
 10
-87.60342216491698
 20
18.98022270202637
 30
0.0
 11
-88.09384727478027
 21
18.98022270202637
 31
0.0
  0
LINE
  5
6E
330
1F
100
AcDbEntity
  8
TFR-TRI
  6
Continuous
 62
   251
100
AcDbLine
 10
-88.09384727478027
 20
18.84106254577637
 30
0.0
 11
-88.09384727478027
 21
18.82137870788574
 31
0.0
  0
LINE
  5
6F
330
1F
100
AcDbEntity
  8
TFR-TRI
  6
Continuous
 62
   251
100
AcDbLine
 10
-88.09384727478027
 20
18.82137870788574
 30
0.0
 11
-87.95464897155762
 21
18.68218803405762
 31
0.0
  0
LINE
  5
70
330
1F
100
AcDbEntity
  8
TFR-TRI
  6
Continuous
 62
   251
100
AcDbLine
 10
-87.95464897155762
 20
18.68218803405762
 30
0.0
 11
-87.88849449157714
 21
17.09106254577636
 31
0.0
  0
LINE
  5
71
330
1F
100
AcDbEntity
  8
TFR-TRI
  6
Continuous
 62
   251
100
AcDbLine
 10
-87.88849449157714
 20
17.09106254577636
 30
0.0
 11
-87.82365989685059
 21
17.09106254577636
 31
0.0
  0
LINE
  5
72
330
1F
100
AcDbEntity
  8
TFR-TRI
  6
Continuous
 62
     1
100
AcDbLine
 10
-2.055425643920898
 20
20.90405082702637
 30
0.0
 11
0.1492862701416016
 21
20.90405082702637
 31
0.0
  0
LINE
  5
73
330
1F
100
AcDbEntity
  8
TFR-TRI
  6
Continuous
 62
     1
100
AcDbLine
 10
1.172906875610351
 20
19.4473705291748
 30
0.0
 11
1.172906875610351
 21
20.03791618347168
 31
0.0
  0
LINE
  5
74
330
1F
100
AcDbEntity
  8
TFR-TRI
  6
Continuous
 62
     1
100
AcDbLine
 10
-1.04164695739746
 20
20.62768363952637
 30
0.0
 11
-0.8644924163818359
 21
20.62768363952637
 31
0.0
  0
LINE
  5
75
330
1F
100
AcDbEntity
  8
TFR-TRI
  6
Continuous
 62
     1
100
AcDbLine
 10
-0.8644924163818359
 20
20.41114616394043
 30
0.0
 11
-1.04164695739746
 21
20.41114616394043
 31
0.0
  0
LINE
  5
76
330
1F
100
AcDbEntity
  8
TFR-TRI
  6
Continuous
 62
     1
100
AcDbLine
 10
-3.000310897827148
 20
20.11665153503418
 30
0.0
 11
-2.21291160583496
 21
20.11665153503418
 31
0.0
  0
LINE
  5
77
330
1F
100
AcDbEntity
  8
TFR-TRI
  6
Continuous
 62
     1
100
AcDbLine
 10
-3.000310897827148
 20
20.11665153503418
 30
0.0
 11
-3.07906150817871
 21
20.03791618347168
 31
0.0
  0
LINE
  5
78
330
1F
100
AcDbEntity
  8
TFR-TRI
  6
Continuous
 62
     1
100
AcDbLine
 10
-3.07906150817871
 20
19.4473705291748
 30
0.0
 11
-3.07906150817871
 21
20.03791618347168
 31
0.0
  0
LINE
  5
79
330
1F
100
AcDbEntity
  8
TFR-TRI
  6
Continuous
 62
     1
100
AcDbLine
 10
-3.07906150817871
 20
19.4473705291748
 30
0.0
 11
-3.15779685974121
 21
19.4473705291748
 31
0.0
  0
LINE
  5
7A
330
1F
100
AcDbEntity
  8
TFR-TRI
  6
Continuous
 62
     1
100
AcDbLine
 10
-3.15779685974121
 20
19.4473705291748
 30
0.0
 11
-21.31134605407715
 21
19.4473705291748
 31
0.0
  0
LINE
  5
7B
330
1F
100
AcDbEntity
  8
TFR-TRI
  6
Continuous
 62
     1
100
AcDbLine
 10
-21.31134605407715
 20
19.4473705291748
 30
0.0
 11
-24.33890342712402
 21
19.4473705291748
 31
0.0
  0
LINE
  5
7C
330
1F
100
AcDbEntity
  8
TFR-TRI
  6
Continuous
 62
     1
100
AcDbLine
 10
-24.33890342712402
 20
19.4473705291748
 30
0.0
 11
-24.41763877868652
 21
19.36861991882324
 31
0.0
  0
LINE
  5
7D
330
1F
100
AcDbEntity
  8
TFR-TRI
  6
Continuous
 62
     1
100
AcDbLine
 10
-24.41763877868652
 20
18.97492790222168
 30
0.0
 11
-24.41763877868652
 21
19.36861991882324
 31
0.0
  0
LINE
  5
7E
330
1F
100
AcDbEntity
  8
TFR-TRI
  6
Continuous
 62
     1
100
AcDbLine
 10
-24.41763877868652
 20
18.97492790222168
 30
0.0
 11
22.51149940490723
 21
18.97492790222168
 31
0.0
  0
LINE
  5
7F
330
1F
100
AcDbEntity
  8
TFR-TRI
  6
Continuous
 62
     1
100
AcDbLine
 10
22.51149940490723
 20
18.97492790222168
 30
0.0
 11
22.51149940490723
 21
19.36861991882324
 31
0.0
  0
LINE
  5
80
330
1F
100
AcDbEntity
  8
TFR-TRI
  6
Continuous
 62
     1
100
AcDbLine
 10
22.51149940490723
 20
19.36861991882324
 30
0.0
 11
22.43274879455567
 21
19.4473705291748
 31
0.0
  0
LINE
  5
81
330
1F
100
AcDbEntity
  8
TFR-TRI
  6
Continuous
 62
     1
100
AcDbLine
 10
22.43274879455567
 20
19.4473705291748
 30
0.0
 11
19.40519142150879
 21
19.4473705291748
 31
0.0
  0
LINE
  5
82
330
1F
100
AcDbEntity
  8
TFR-TRI
  6
Continuous
 62
     1
100
AcDbLine
 10
1.251657485961914
 20
19.4473705291748
 30
0.0
 11
19.40519142150879
 21
19.4473705291748
 31
0.0
  0
LINE
  5
83
330
1F
100
AcDbEntity
  8
TFR-TRI
  6
Continuous
 62
     1
100
AcDbLine
 10
1.251657485961914
 20
19.4473705291748
 30
0.0
 11
1.172906875610351
 21
19.4473705291748
 31
0.0
  0
LINE
  5
84
330
1F
100
AcDbEntity
  8
TFR-TRI
  6
Continuous
 62
     1
100
AcDbLine
 10
1.172906875610351
 20
20.03791618347168
 30
0.0
 11
1.094171524047851
 21
20.11665153503418
 31
0.0
  0
LINE
  5
85
330
1F
100
AcDbEntity
  8
TFR-TRI
  6
Continuous
 62
     1
100
AcDbLine
 10
1.094171524047851
 20
20.11665153503418
 30
0.0
 11
0.3067722320556641
 21
20.11665153503418
 31
0.0
  0
LINE
  5
86
330
1F
100
AcDbEntity
  8
TFR-TRI
  6
Continuous
 62
     1
100
AcDbLine
 10
0.3067722320556641
 20
20.11665153503418
 30
0.0
 11
0.2280368804931641
 21
20.19540214538574
 31
0.0
  0
LINE
  5
87
330
1F
100
AcDbEntity
  8
TFR-TRI
  6
Continuous
 62
     1
100
AcDbLine
 10
0.2280368804931641
 20
20.19540214538574
 30
0.0
 11
0.2280368804931641
 21
20.82531547546387
 31
0.0
  0
LINE
  5
88
330
1F
100
AcDbEntity
  8
TFR-TRI
  6
Continuous
 62
     1
100
AcDbLine
 10
0.2280368804931641
 20
20.82531547546387
 30
0.0
 11
0.1492862701416016
 21
20.90405082702637
 31
0.0
  0
LINE
  5
89
330
1F
100
AcDbEntity
  8
TFR-TRI
  6
Continuous
 62
     1
100
AcDbLine
 10
-2.055425643920898
 20
20.90405082702637
 30
0.0
 11
-2.13417625427246
 21
20.82531547546387
 31
0.0
  0
LINE
  5
8A
330
1F
100
AcDbEntity
  8
TFR-TRI
  6
Continuous
 62
     1
100
AcDbLine
 10
-2.13417625427246
 20
20.19540214538574
 30
0.0
 11
-2.13417625427246
 21
20.82531547546387
 31
0.0
  0
LINE
  5
8B
330
1F
100
AcDbEntity
  8
TFR-TRI
  6
Continuous
 62
     1
100
AcDbLine
 10
-2.13417625427246
 20
20.19540214538574
 30
0.0
 11
-2.21291160583496
 21
20.11665153503418
 31
0.0
  0
LINE
  5
8C
330
1F
100
AcDbEntity
  8
TFR-TRI
  6
Continuous
 62
     1
100
AcDbLine
 10
-22.79755210876465
 20
19.30917167663574
 30
0.0
 11
-22.62039756774902
 21
19.30917167663574
 31
0.0
  0
LINE
  5
8D
330
1F
100
AcDbEntity
  8
TFR-TRI
  6
Continuous
 62
     1
100
AcDbLine
 10
-22.62039756774902
 20
19.0926342010498
 30
0.0
 11
-22.79755210876465
 21
19.0926342010498
 31
0.0
  0
LINE
  5
8E
330
1F
100
AcDbEntity
  8
TFR-TRI
  6
Continuous
 62
     1
100
AcDbLine
 10
-22.01015281677246
 20
19.30917167663574
 30
0.0
 11
-21.83299827575684
 21
19.30917167663574
 31
0.0
  0
LINE
  5
8F
330
1F
100
AcDbEntity
  8
TFR-TRI
  6
Continuous
 62
     1
100
AcDbLine
 10
-21.83299827575684
 20
19.0926342010498
 30
0.0
 11
-22.01015281677246
 21
19.0926342010498
 31
0.0
  0
LINE
  5
90
330
1F
100
AcDbEntity
  8
TFR-TRI
  6
Continuous
 62
     1
100
AcDbLine
 10
20.71425819396973
 20
19.0926342010498
 30
0.0
 11
20.89141273498535
 21
19.0926342010498
 31
0.0
  0
LINE
  5
91
330
1F
100
AcDbEntity
  8
TFR-TRI
  6
Continuous
 62
     1
100
AcDbLine
 10
20.89141273498535
 20
19.30917167663574
 30
0.0
 11
20.71425819396973
 21
19.30917167663574
 31
0.0
  0
LINE
  5
92
330
1F
100
AcDbEntity
  8
TFR-TRI
  6
Continuous
 62
     1
100
AcDbLine
 10
19.92684364318847
 20
19.0926342010498
 30
0.0
 11
20.10401344299316
 21
19.0926342010498
 31
0.0
  0
LINE
  5
93
330
1F
100
AcDbEntity
  8
TFR-TRI
  6
Continuous
 62
     1
100
AcDbLine
 10
20.10401344299316
 20
19.30917167663574
 30
0.0
 11
19.92684364318847
 21
19.30917167663574
 31
0.0
  0
LINE
  5
94
330
1F
100
AcDbEntity
  8
TFR-TRI
  6
Continuous
 62
     1
100
AcDbLine
 10
-24.41763877868652
 20
18.97492790222168
 30
0.0
 11
-24.41763877868652
 21
18.90810966491699
 31
0.0
  0
LINE
  5
95
330
1F
100
AcDbEntity
  8
TFR-TRI
  6
Continuous
 62
     1
100
AcDbLine
 10
-24.41763877868652
 20
18.90810966491699
 30
0.0
 11
-24.41763877868652
 21
18.88043022155762
 31
0.0
  0
LINE
  5
96
330
1F
100
AcDbEntity
  8
TFR-TRI
  6
Continuous
 62
     1
100
AcDbLine
 10
22.51149940490723
 20
18.97492790222168
 30
0.0
 11
22.51149940490723
 21
18.90810966491699
 31
0.0
  0
LINE
  5
97
330
1F
100
AcDbEntity
  8
TFR-TRI
  6
Continuous
 62
     1
100
AcDbLine
 10
22.51149940490723
 20
18.90810966491699
 30
0.0
 11
22.51149940490723
 21
18.88043022155762
 31
0.0
  0
LINE
  5
98
330
1F
100
AcDbEntity
  8
TFR-TRI
  6
Continuous
 62
     1
100
AcDbLine
 10
-3.15779685974121
 20
19.4473705291748
 30
0.0
 11
-3.15779685974121
 21
19.51417350769043
 31
0.0
  0
LINE
  5
99
330
1F
100
AcDbEntity
  8
TFR-TRI
  6
Continuous
 62
     1
100
AcDbLine
 10
-3.15779685974121
 20
19.51417350769043
 30
0.0
 11
-3.15779685974121
 21
19.5418529510498
 31
0.0
  0
LINE
  5
9A
330
1F
100
AcDbEntity
  8
TFR-TRI
  6
Continuous
 62
     1
100
AcDbLine
 10
-21.31134605407715
 20
19.4473705291748
 30
0.0
 11
-21.31134605407715
 21
19.51417350769043
 31
0.0
  0
LINE
  5
9B
330
1F
100
AcDbEntity
  8
TFR-TRI
  6
Continuous
 62
     1
100
AcDbLine
 10
-21.31134605407715
 20
19.51417350769043
 30
0.0
 11
-21.31134605407715
 21
19.5418529510498
 31
0.0
  0
LINE
  5
9C
330
1F
100
AcDbEntity
  8
TFR-TRI
  6
Continuous
 62
     1
100
AcDbLine
 10
-3.15779685974121
 20
19.5418529510498
 30
0.0
 11
-21.31134605407715
 21
19.5418529510498
 31
0.0
  0
LINE
  5
9D
330
1F
100
AcDbEntity
  8
TFR-TRI
  6
Continuous
 62
     1
100
AcDbLine
 10
1.251657485961914
 20
19.4473705291748
 30
0.0
 11
1.251657485961914
 21
19.51417350769043
 31
0.0
  0
LINE
  5
9E
330
1F
100
AcDbEntity
  8
TFR-TRI
  6
Continuous
 62
     1
100
AcDbLine
 10
1.251657485961914
 20
19.51417350769043
 30
0.0
 11
1.251657485961914
 21
19.5418529510498
 31
0.0
  0
LINE
  5
9F
330
1F
100
AcDbEntity
  8
TFR-TRI
  6
Continuous
 62
     1
100
AcDbLine
 10
19.40519142150879
 20
19.4473705291748
 30
0.0
 11
19.40519142150879
 21
19.51417350769043
 31
0.0
  0
LINE
  5
A0
330
1F
100
AcDbEntity
  8
TFR-TRI
  6
Continuous
 62
     1
100
AcDbLine
 10
19.40519142150879
 20
19.51417350769043
 30
0.0
 11
19.40519142150879
 21
19.5418529510498
 31
0.0
  0
LINE
  5
A1
330
1F
100
AcDbEntity
  8
TFR-TRI
  6
Continuous
 62
     1
100
AcDbLine
 10
1.251657485961914
 20
19.5418529510498
 30
0.0
 11
19.40519142150879
 21
19.5418529510498
 31
0.0
  0
LINE
  5
A2
330
1F
100
AcDbEntity
  8
TFR-TRI
  6
Continuous
 62
   251
100
AcDbLine
 10
22.53512001037598
 20
17.09106254577636
 30
0.0
 11
22.53512001037598
 21
18.68218803405762
 31
0.0
  0
LINE
  5
A3
330
1F
100
AcDbEntity
  8
TFR-TRI
  6
Continuous
 62
   251
100
AcDbLine
 10
-24.44125938415528
 20
18.68218803405762
 30
0.0
 11
22.53512001037598
 21
18.68218803405762
 31
0.0
  0
LINE
  5
A4
330
1F
100
AcDbEntity
  8
TFR-TRI
  6
Continuous
 62
   251
100
AcDbLine
 10
-24.44125938415528
 20
17.09106254577636
 30
0.0
 11
-24.44125938415528
 21
18.68218803405762
 31
0.0
  0
LINE
  5
A5
330
1F
100
AcDbEntity
  8
TFR-TRI
  6
Continuous
 62
   251
100
AcDbLine
 10
-24.44125938415528
 20
17.09106254577636
 30
0.0
 11
22.53512001037598
 21
17.09106254577636
 31
0.0
  0
LINE
  5
A6
330
1F
100
AcDbEntity
  8
TFR-TRI
  6
Continuous
 62
   251
100
AcDbLine
 10
22.53512001037598
 20
18.68218803405762
 30
0.0
 11
22.53512001037598
 21
18.82137870788574
 31
0.0
  0
LINE
  5
A7
330
1F
100
AcDbEntity
  8
TFR-TRI
  6
Continuous
 62
   251
100
AcDbLine
 10
-24.44125938415528
 20
18.82137870788574
 30
0.0
 11
22.53512001037598
 21
18.82137870788574
 31
0.0
  0
LINE
  5
A8
330
1F
100
AcDbEntity
  8
TFR-TRI
  6
Continuous
 62
   251
100
AcDbLine
 10
-24.44125938415528
 20
18.68218803405762
 30
0.0
 11
-24.44125938415528
 21
18.82137870788574
 31
0.0
  0
LINE
  5
A9
330
1F
100
AcDbEntity
  8
TFR-TRI
  6
Continuous
 62
   251
100
AcDbLine
 10
22.53512001037598
 20
18.82137870788574
 30
0.0
 11
22.53512001037598
 21
18.84106254577637
 31
0.0
  0
LINE
  5
AA
330
1F
100
AcDbEntity
  8
TFR-TRI
  6
Continuous
 62
   251
100
AcDbLine
 10
-24.44125938415528
 20
18.82137870788574
 30
0.0
 11
-24.44125938415528
 21
18.84106254577637
 31
0.0
  0
LINE
  5
AB
330
1F
100
AcDbEntity
  8
TFR-TRI
  6
Continuous
 62
   251
100
AcDbLine
 10
-24.44125938415528
 20
18.84106254577637
 30
0.0
 11
22.53512001037598
 21
18.84106254577637
 31
0.0
  0
LINE
  5
AC
330
1F
100
AcDbEntity
  8
TFR-TRI
  6
Continuous
 62
   251
100
AcDbLine
 10
22.53512001037598
 20
18.84106254577637
 30
0.0
 11
22.53512001037598
 21
18.88043022155762
 31
0.0
  0
LINE
  5
AD
330
1F
100
AcDbEntity
  8
TFR-TRI
  6
Continuous
 62
   251
100
AcDbLine
 10
-24.44125938415528
 20
18.88043022155762
 30
0.0
 11
22.53512001037598
 21
18.88043022155762
 31
0.0
  0
LINE
  5
AE
330
1F
100
AcDbEntity
  8
TFR-TRI
  6
Continuous
 62
   251
100
AcDbLine
 10
-24.44125938415528
 20
18.84106254577637
 30
0.0
 11
-24.44125938415528
 21
18.88043022155762
 31
0.0
  0
LINE
  5
AF
330
1F
100
AcDbEntity
  8
TFR-TRI
  6
Continuous
 62
   251
100
AcDbLine
 10
22.53512001037598
 20
18.88043022155762
 30
0.0
 11
22.53512001037598
 21
18.91064262390137
 31
0.0
  0
LINE
  5
B0
330
1F
100
AcDbEntity
  8
TFR-TRI
  6
Continuous
 62
   251
100
AcDbLine
 10
22.53512001037598
 20
18.91064262390137
 30
0.0
 11
22.53512001037598
 21
18.94083976745605
 31
0.0
  0
LINE
  5
B1
330
1F
100
AcDbEntity
  8
TFR-TRI
  6
Continuous
 62
   251
100
AcDbLine
 10
-24.44125938415528
 20
18.88043022155762
 30
0.0
 11
-24.44125938415528
 21
18.91064262390137
 31
0.0
  0
LINE
  5
B2
330
1F
100
AcDbEntity
  8
TFR-TRI
  6
Continuous
 62
   251
100
AcDbLine
 10
-24.44125938415528
 20
18.91064262390137
 30
0.0
 11
-24.44125938415528
 21
18.94083976745605
 31
0.0
  0
LINE
  5
B3
330
1F
100
AcDbEntity
  8
TFR-TRI
  6
Continuous
 62
   251
100
AcDbLine
 10
-24.44125938415528
 20
18.94083976745605
 30
0.0
 11
-24.41704368591309
 21
18.94083976745605
 31
0.0
  0
LINE
  5
B4
330
1F
100
AcDbEntity
  8
TFR-TRI
  6
Continuous
 62
   251
100
AcDbLine
 10
22.51088905334473
 20
18.94083976745605
 30
0.0
 11
22.53512001037598
 21
18.94083976745605
 31
0.0
  0
LINE
  5
B5
330
1F
100
AcDbEntity
  8
TFR-TRI
  6
Continuous
 62
   251
100
AcDbLine
 10
22.53512001037598
 20
18.94083976745605
 30
0.0
 11
22.53512001037598
 21
18.98022270202637
 31
0.0
  0
LINE
  5
B6
330
1F
100
AcDbEntity
  8
TFR-TRI
  6
Continuous
 62
   251
100
AcDbLine
 10
-24.44125938415528
 20
18.98022270202637
 30
0.0
 11
-24.41704368591309
 21
18.98022270202637
 31
0.0
  0
LINE
  5
B7
330
1F
100
AcDbEntity
  8
TFR-TRI
  6
Continuous
 62
   251
100
AcDbLine
 10
22.51088905334473
 20
18.98022270202637
 30
0.0
 11
22.53512001037598
 21
18.98022270202637
 31
0.0
  0
LINE
  5
B8
330
1F
100
AcDbEntity
  8
TFR-TRI
  6
Continuous
 62
   251
100
AcDbLine
 10
-24.44125938415528
 20
18.94083976745605
 30
0.0
 11
-24.44125938415528
 21
18.98022270202637
 31
0.0
  0
LINE
  5
B9
330
1F
100
AcDbEntity
  8
TFR-TRI
  6
Continuous
 62
     1
100
AcDbLine
 10
64.77790260314941
 20
20.90405082702637
 30
0.0
 11
64.84089088439941
 21
20.90405082702637
 31
0.0
  0
LINE
  5
BA
330
1F
100
AcDbEntity
  8
TFR-TRI
  6
Continuous
 62
     1
100
AcDbLine
 10
64.84089088439941
 20
19.53645133972168
 30
0.0
 11
64.84089088439941
 21
20.03791618347168
 31
0.0
  0
LINE
  5
BB
330
1F
100
AcDbEntity
  8
TFR-TRI
  6
Continuous
 62
     1
100
AcDbLine
 10
64.84089088439941
 20
20.03791618347168
 30
0.0
 11
64.77790260314941
 21
20.03791618347168
 31
0.0
  0
LINE
  5
BC
330
1F
100
AcDbEntity
  8
TFR-TRI
  6
Continuous
 62
     1
100
AcDbLine
 10
64.77790260314941
 20
19.4473705291748
 30
0.0
 11
64.77790260314941
 21
20.03791618347168
 31
0.0
  0
LINE
  5
BD
330
1F
100
AcDbEntity
  8
TFR-TRI
  6
Continuous
 62
     1
100
AcDbLine
 10
64.84089088439941
 20
20.90405082702637
 30
0.0
 11
64.84089088439941
 21
20.82531547546387
 31
0.0
  0
LINE
  5
BE
330
1F
100
AcDbEntity
  8
TFR-TRI
  6
Continuous
 62
     1
100
AcDbLine
 10
64.84089088439941
 20
20.19540214538574
 30
0.0
 11
64.84089088439941
 21
20.82531547546387
 31
0.0
  0
LINE
  5
BF
330
1F
100
AcDbEntity
  8
TFR-TRI
  6
Continuous
 62
     1
100
AcDbLine
 10
64.84089088439941
 20
20.19540214538574
 30
0.0
 11
64.84089088439941
 21
20.11665153503418
 31
0.0
  0
LINE
  5
C0
330
1F
100
AcDbEntity
  8
TFR-TRI
  6
Continuous
 62
     1
100
AcDbLine
 10
64.84089088439941
 20
20.11665153503418
 30
0.0
 11
64.84089088439941
 21
20.03791618347168
 31
0.0
  0
LINE
  5
C1
330
1F
100
AcDbEntity
  8
TFR-TRI
  6
Continuous
 62
     1
100
AcDbLine
 10
64.84089088439941
 20
19.4473705291748
 30
0.0
 11
64.84089088439941
 21
19.36861991882324
 31
0.0
  0
LINE
  5
C2
330
1F
100
AcDbEntity
  8
TFR-TRI
  6
Continuous
 62
     1
100
AcDbLine
 10
64.84089088439941
 20
18.97492790222168
 30
0.0
 11
64.84089088439941
 21
19.36861991882324
 31
0.0
  0
LINE
  5
C3
330
1F
100
AcDbEntity
  8
TFR-TRI
  6
Continuous
 62
     1
100
AcDbLine
 10
64.77790260314941
 20
18.97492790222168
 30
0.0
 11
64.77790260314941
 21
19.36861991882324
 31
0.0
  0
LINE
  5
C4
330
1F
100
AcDbEntity
  8
TFR-TRI
  6
Continuous
 62
     1
100
AcDbLine
 10
64.77790260314941
 20
19.36861991882324
 30
0.0
 11
64.77790260314941
 21
19.4473705291748
 31
0.0
  0
LINE
  5
C5
330
1F
100
AcDbEntity
  8
TFR-TRI
  6
Continuous
 62
     1
100
AcDbLine
 10
64.77790260314941
 20
20.03791618347168
 30
0.0
 11
64.77790260314941
 21
20.11665153503418
 31
0.0
  0
LINE
  5
C6
330
1F
100
AcDbEntity
  8
TFR-TRI
  6
Continuous
 62
     1
100
AcDbLine
 10
64.77790260314941
 20
20.11665153503418
 30
0.0
 11
64.77790260314941
 21
20.19540214538574
 31
0.0
  0
LINE
  5
C7
330
1F
100
AcDbEntity
  8
TFR-TRI
  6
Continuous
 62
     1
100
AcDbLine
 10
64.77790260314941
 20
20.19540214538574
 30
0.0
 11
64.77790260314941
 21
20.82531547546387
 31
0.0
  0
LINE
  5
C8
330
1F
100
AcDbEntity
  8
TFR-TRI
  6
Continuous
 62
     1
100
AcDbLine
 10
64.77790260314941
 20
20.82531547546387
 30
0.0
 11
64.77790260314941
 21
20.90405082702637
 31
0.0
  0
LINE
  5
C9
330
1F
100
AcDbEntity
  8
TFR-TRI
  6
Continuous
 62
     1
100
AcDbLine
 10
64.77790260314941
 20
19.4473705291748
 30
0.0
 11
64.84089088439941
 21
19.4473705291748
 31
0.0
  0
LINE
  5
CA
330
1F
100
AcDbEntity
  8
TFR-TRI
  6
Continuous
 62
     1
100
AcDbLine
 10
64.84089088439941
 20
19.36861991882324
 30
0.0
 11
64.77790260314941
 21
19.36861991882324
 31
0.0
  0
LINE
  5
CB
330
1F
100
AcDbEntity
  8
TFR-TRI
  6
Continuous
 62
     1
100
AcDbLine
 10
64.77790260314941
 20
18.97492790222168
 30
0.0
 11
64.84089088439941
 21
18.97492790222168
 31
0.0
  0
LINE
  5
CC
330
1F
100
AcDbEntity
  8
TFR-TRI
  6
Continuous
 62
     1
100
AcDbLine
 10
64.87238502502441
 20
18.88043022155762
 30
0.0
 11
64.87238502502441
 21
18.94083976745605
 31
0.0
  0
LINE
  5
CD
330
1F
100
AcDbEntity
  8
TFR-TRI
  6
Continuous
 62
     1
100
AcDbLine
 10
65.30545997619629
 20
18.88043022155762
 30
0.0
 11
65.30545997619629
 21
18.94083976745605
 31
0.0
  0
LINE
  5
CE
330
1F
100
AcDbEntity
  8
TFR-TRI
  6
Continuous
 62
     1
100
AcDbLine
 10
64.87238502502441
 20
19.5418529510498
 30
0.0
 11
64.87238502502441
 21
19.4788646697998
 31
0.0
  0
LINE
  5
CF
330
1F
100
AcDbEntity
  8
TFR-TRI
  6
Continuous
 62
     1
100
AcDbLine
 10
64.87238502502441
 20
19.4788646697998
 30
0.0
 11
65.18735694885254
 21
19.4788646697998
 31
0.0
  0
LINE
  5
D0
330
1F
100
AcDbEntity
  8
TFR-TRI
  6
Continuous
 62
     1
100
AcDbLine
 10
65.18735694885254
 20
19.4788646697998
 30
0.0
 11
65.18735694885254
 21
19.5418529510498
 31
0.0
  0
LINE
  5
D1
330
1F
100
AcDbEntity
  8
TFR-TRI
  6
Continuous
 62
     1
100
AcDbLine
 10
64.87238502502441
 20
19.5418529510498
 30
0.0
 11
65.18735694885254
 21
19.5418529510498
 31
0.0
  0
LINE
  5
D2
330
1F
100
AcDbEntity
  8
TFR-TRI
  6
Continuous
 62
     1
100
AcDbLine
 10
65.18735694885254
 20
19.5418529510498
 30
0.0
 11
65.26609230041504
 21
19.5418529510498
 31
0.0
  0
LINE
  5
D3
330
1F
100
AcDbEntity
  8
TFR-TRI
  6
Continuous
 62
     1
100
AcDbLine
 10
65.26609230041504
 20
19.4788646697998
 30
0.0
 11
65.18735694885254
 21
19.4788646697998
 31
0.0
  0
LINE
  5
D4
330
1F
100
AcDbEntity
  8
TFR-TRI
  6
Continuous
 62
     1
100
AcDbLine
 10
65.26609230041504
 20
19.5418529510498
 30
0.0
 11
65.26609230041504
 21
19.4788646697998
 31
0.0
  0
LINE
  5
D5
330
1F
100
AcDbEntity
  8
TFR-TRI
  6
Continuous
 62
     1
100
AcDbLine
 10
64.77790260314941
 20
20.11665153503418
 30
0.0
 11
64.84089088439941
 21
20.11665153503418
 31
0.0
  0
LINE
  5
D6
330
1F
100
AcDbEntity
  8
TFR-TRI
  6
Continuous
 62
     1
100
AcDbLine
 10
64.77790260314941
 20
20.19540214538574
 30
0.0
 11
64.84089088439941
 21
20.19540214538574
 31
0.0
  0
LINE
  5
D7
330
1F
100
AcDbEntity
  8
TFR-TRI
  6
Continuous
 62
     1
100
AcDbLine
 10
64.84089088439941
 20
20.82531547546387
 30
0.0
 11
64.77790260314941
 21
20.82531547546387
 31
0.0
  0
LINE
  5
D8
330
1F
100
AcDbEntity
  8
TFR-TRI
  6
Continuous
 62
   251
100
AcDbLine
 10
65.07247352600098
 20
17.09106254577636
 30
0.0
 11
65.01624488830566
 21
18.68218803405762
 31
0.0
  0
LINE
  5
D9
330
1F
100
AcDbEntity
  8
TFR-TRI
  6
Continuous
 62
   251
100
AcDbLine
 10
65.01624488830566
 20
18.68218803405762
 30
0.0
 11
64.87705421447754
 21
18.82137870788574
 31
0.0
  0
LINE
  5
DA
330
1F
100
AcDbEntity
  8
TFR-TRI
  6
Continuous
 62
   251
100
AcDbLine
 10
64.87705421447754
 20
18.82137870788574
 30
0.0
 11
64.87705421447754
 21
18.84106254577637
 31
0.0
  0
LINE
  5
DB
330
1F
100
AcDbEntity
  8
TFR-TRI
  6
Continuous
 62
   251
100
AcDbLine
 10
64.87705421447754
 20
18.84106254577637
 30
0.0
 11
64.85222816467285
 21
18.84106254577637
 31
0.0
  0
LINE
  5
DC
330
1F
100
AcDbEntity
  8
TFR-TRI
  6
Continuous
 62
   251
100
AcDbLine
 10
64.85222816467285
 20
18.84106254577637
 30
0.0
 11
64.85222816467285
 21
18.88043022155762
 31
0.0
  0
LINE
  5
DD
330
1F
100
AcDbEntity
  8
TFR-TRI
  6
Continuous
 62
   251
100
AcDbLine
 10
64.85222816467285
 20
18.88043022155762
 30
0.0
 11
65.34266090393066
 21
18.88043022155762
 31
0.0
  0
LINE
  5
DE
330
1F
100
AcDbEntity
  8
TFR-TRI
  6
Continuous
 62
   251
100
AcDbLine
 10
65.34266090393066
 20
18.94083976745605
 30
0.0
 11
64.85222816467285
 21
18.94083976745605
 31
0.0
  0
LINE
  5
DF
330
1F
100
AcDbEntity
  8
TFR-TRI
  6
Continuous
 62
   251
100
AcDbLine
 10
64.85222816467285
 20
18.94083976745605
 30
0.0
 11
64.85222816467285
 21
18.98022270202637
 31
0.0
  0
LINE
  5
E0
330
1F
100
AcDbEntity
  8
TFR-TRI
  6
Continuous
 62
   251
100
AcDbLine
 10
64.85222816467285
 20
18.98022270202637
 30
0.0
 11
65.34266090393066
 21
18.98022270202637
 31
0.0
  0
LINE
  5
E1
330
1F
100
AcDbEntity
  8
TFR-TRI
  6
Continuous
 62
   251
100
AcDbLine
 10
65.34266090393066
 20
18.84106254577637
 30
0.0
 11
65.34266090393066
 21
18.82137870788574
 31
0.0
  0
LINE
  5
E2
330
1F
100
AcDbEntity
  8
TFR-TRI
  6
Continuous
 62
   251
100
AcDbLine
 10
65.34266090393066
 20
18.82137870788574
 30
0.0
 11
65.20347023010254
 21
18.68218803405762
 31
0.0
  0
LINE
  5
E3
330
1F
100
AcDbEntity
  8
TFR-TRI
  6
Continuous
 62
   251
100
AcDbLine
 10
65.20347023010254
 20
18.68218803405762
 30
0.0
 11
65.13730812072754
 21
17.09106254577636
 31
0.0
  0
LINE
  5
E4
330
1F
100
AcDbEntity
  8
TFR-TRI
  6
Continuous
 62
   251
100
AcDbLine
 10
65.13730812072754
 20
17.09106254577636
 30
0.0
 11
65.07247352600098
 21
17.09106254577636
 31
0.0
  0
LINE
  5
E5
330
1F
100
AcDbEntity
  8
TFR-TRI
  6
Continuous
 62
   251
100
AcDbLine
 10
22.53512001037598
 20
60.93108940124512
 30
0.0
 11
-24.44125938415528
 21
60.93108940124512
 31
0.0
  0
LINE
  5
E6
330
1F
100
AcDbEntity
  8
TFR-TRI
  6
Continuous
 62
     1
100
AcDbLine
 10
-3.23653221130371
 20
60.78495597839356
 30
0.0
 11
-15.32709312438965
 21
60.78495597839356
 31
0.0
  0
LINE
  5
E7
330
1F
100
AcDbEntity
  8
TFR-TRI
  6
Continuous
 62
     1
100
AcDbLine
 10
1.330392837524414
 20
60.78495597839356
 30
0.0
 11
13.42093849182129
 21
60.78495597839356
 31
0.0
  0
LINE
  5
E8
330
1F
100
AcDbEntity
  8
TFR-TRI
  6
Continuous
 62
     1
100
AcDbLine
 10
-2.055425643920898
 20
60.29676628112793
 30
0.0
 11
0.1492862701416016
 21
60.29676628112793
 31
0.0
  0
LINE
  5
E9
330
1F
100
AcDbEntity
  8
TFR-TRI
  6
Continuous
 62
     1
100
AcDbLine
 10
0.1492862701416016
 20
60.29676628112793
 30
0.0
 11
0.1492862701416016
 21
60.35975456237792
 31
0.0
  0
LINE
  5
EA
330
1F
100
AcDbEntity
  8
TFR-TRI
  6
Continuous
 62
     1
100
AcDbLine
 10
-2.055425643920898
 20
60.35975456237792
 30
0.0
 11
0.1492862701416016
 21
60.35975456237792
 31
0.0
  0
LINE
  5
EB
330
1F
100
AcDbEntity
  8
TFR-TRI
  6
Continuous
 62
     1
100
AcDbLine
 10
-2.055425643920898
 20
60.35975456237792
 30
0.0
 11
-2.055425643920898
 21
60.29676628112793
 31
0.0
  0
LINE
  5
EC
330
1F
100
AcDbEntity
  8
TFR-TRI
  6
Continuous
 62
     1
100
AcDbLine
 10
1.172906875610351
 20
60.35975456237792
 30
0.0
 11
1.172906875610351
 21
60.29676628112793
 31
0.0
  0
LINE
  5
ED
330
1F
100
AcDbEntity
  8
TFR-TRI
  6
Continuous
 62
     1
100
AcDbLine
 10
-3.07906150817871
 20
60.35975456237792
 30
0.0
 11
-3.000310897827148
 21
60.35975456237792
 31
0.0
  0
LINE
  5
EE
330
1F
100
AcDbEntity
  8
TFR-TRI
  6
Continuous
 62
     1
100
AcDbLine
 10
-3.000310897827148
 20
60.35975456237792
 30
0.0
 11
-2.21291160583496
 21
60.35975456237792
 31
0.0
  0
LINE
  5
EF
330
1F
100
AcDbEntity
  8
TFR-TRI
  6
Continuous
 62
     1
100
AcDbLine
 10
-2.21291160583496
 20
60.35975456237792
 30
0.0
 11
-2.13417625427246
 21
60.35975456237792
 31
0.0
  0
LINE
  5
F0
330
1F
100
AcDbEntity
  8
TFR-TRI
  6
Continuous
 62
     1
100
AcDbLine
 10
-2.13417625427246
 20
60.35975456237792
 30
0.0
 11
-2.055425643920898
 21
60.35975456237792
 31
0.0
  0
LINE
  5
F1
330
1F
100
AcDbEntity
  8
TFR-TRI
  6
Continuous
 62
     1
100
AcDbLine
 10
0.1492862701416016
 20
60.35975456237792
 30
0.0
 11
0.2280368804931641
 21
60.35975456237792
 31
0.0
  0
LINE
  5
F2
330
1F
100
AcDbEntity
  8
TFR-TRI
  6
Continuous
 62
     1
100
AcDbLine
 10
0.2280368804931641
 20
60.35975456237792
 30
0.0
 11
0.3067722320556641
 21
60.35975456237792
 31
0.0
  0
LINE
  5
F3
330
1F
100
AcDbEntity
  8
TFR-TRI
  6
Continuous
 62
     1
100
AcDbLine
 10
1.094171524047851
 20
60.35975456237792
 30
0.0
 11
0.3067722320556641
 21
60.35975456237792
 31
0.0
  0
LINE
  5
F4
330
1F
100
AcDbEntity
  8
TFR-TRI
  6
Continuous
 62
     1
100
AcDbLine
 10
1.094171524047851
 20
60.35975456237792
 30
0.0
 11
1.172906875610351
 21
60.35975456237792
 31
0.0
  0
LINE
  5
F5
330
1F
100
AcDbEntity
  8
TFR-TRI
  6
Continuous
 62
     1
100
AcDbLine
 10
1.172906875610351
 20
60.35975456237792
 30
0.0
 11
1.251657485961914
 21
60.35975456237792
 31
0.0
  0
LINE
  5
F6
330
1F
100
AcDbEntity
  8
TFR-TRI
  6
Continuous
 62
     1
100
AcDbLine
 10
19.40519142150879
 20
60.35975456237792
 30
0.0
 11
22.43274879455567
 21
60.35975456237792
 31
0.0
  0
LINE
  5
F7
330
1F
100
AcDbEntity
  8
TFR-TRI
  6
Continuous
 62
     1
100
AcDbLine
 10
22.43274879455567
 20
60.35975456237792
 30
0.0
 11
22.51149940490723
 21
60.35975456237792
 31
0.0
  0
LINE
  5
F8
330
1F
100
AcDbEntity
  8
TFR-TRI
  6
Continuous
 62
     1
100
AcDbLine
 10
-24.41763877868652
 20
60.35975456237792
 30
0.0
 11
-24.33890342712402
 21
60.35975456237792
 31
0.0
  0
LINE
  5
F9
330
1F
100
AcDbEntity
  8
TFR-TRI
  6
Continuous
 62
     1
100
AcDbLine
 10
-24.33890342712402
 20
60.35975456237792
 30
0.0
 11
-21.31134605407715
 21
60.35975456237792
 31
0.0
  0
LINE
  5
FA
330
1F
100
AcDbEntity
  8
TFR-TRI
  6
Continuous
 62
     1
100
AcDbLine
 10
-3.15779685974121
 20
60.35975456237792
 30
0.0
 11
-3.07906150817871
 21
60.35975456237792
 31
0.0
  0
LINE
  5
FB
330
1F
100
AcDbEntity
  8
TFR-TRI
  6
Continuous
 62
     1
100
AcDbLine
 10
-3.000310897827148
 20
60.29676628112793
 30
0.0
 11
-2.21291160583496
 21
60.29676628112793
 31
0.0
  0
LINE
  5
FC
330
1F
100
AcDbEntity
  8
TFR-TRI
  6
Continuous
 62
     1
100
AcDbLine
 10
-3.000310897827148
 20
60.29676628112793
 30
0.0
 11
-3.07906150817871
 21
60.29676628112793
 31
0.0
  0
LINE
  5
FD
330
1F
100
AcDbEntity
  8
TFR-TRI
  6
Continuous
 62
     1
100
AcDbLine
 10
-3.07906150817871
 20
60.29676628112793
 30
0.0
 11
-3.15779685974121
 21
60.29676628112793
 31
0.0
  0
LINE
  5
FE
330
1F
100
AcDbEntity
  8
TFR-TRI
  6
Continuous
 62
     1
100
AcDbLine
 10
-3.15779685974121
 20
60.29676628112793
 30
0.0
 11
-21.31134605407715
 21
60.29676628112793
 31
0.0
  0
LINE
  5
FF
330
1F
100
AcDbEntity
  8
TFR-TRI
  6
Continuous
 62
     1
100
AcDbLine
 10
-21.31134605407715
 20
60.29676628112793
 30
0.0
 11
-24.33890342712402
 21
60.29676628112793
 31
0.0
  0
LINE
  5
100
330
1F
100
AcDbEntity
  8
TFR-TRI
  6
Continuous
 62
     1
100
AcDbLine
 10
-24.33890342712402
 20
60.29676628112793
 30
0.0
 11
-24.41763877868652
 21
60.29676628112793
 31
0.0
  0
LINE
  5
101
330
1F
100
AcDbEntity
  8
TFR-TRI
  6
Continuous
 62
     1
100
AcDbLine
 10
22.51149940490723
 20
60.29676628112793
 30
0.0
 11
22.43274879455567
 21
60.29676628112793
 31
0.0
  0
LINE
  5
102
330
1F
100
AcDbEntity
  8
TFR-TRI
  6
Continuous
 62
     1
100
AcDbLine
 10
22.43274879455567
 20
60.29676628112793
 30
0.0
 11
19.40519142150879
 21
60.29676628112793
 31
0.0
  0
LINE
  5
103
330
1F
100
AcDbEntity
  8
TFR-TRI
  6
Continuous
 62
     1
100
AcDbLine
 10
1.251657485961914
 20
60.29676628112793
 30
0.0
 11
19.40519142150879
 21
60.29676628112793
 31
0.0
  0
LINE
  5
104
330
1F
100
AcDbEntity
  8
TFR-TRI
  6
Continuous
 62
     1
100
AcDbLine
 10
1.251657485961914
 20
60.29676628112793
 30
0.0
 11
1.172906875610351
 21
60.29676628112793
 31
0.0
  0
LINE
  5
105
330
1F
100
AcDbEntity
  8
TFR-TRI
  6
Continuous
 62
     1
100
AcDbLine
 10
1.172906875610351
 20
60.29676628112793
 30
0.0
 11
1.094171524047851
 21
60.29676628112793
 31
0.0
  0
LINE
  5
106
330
1F
100
AcDbEntity
  8
TFR-TRI
  6
Continuous
 62
     1
100
AcDbLine
 10
1.094171524047851
 20
60.29676628112793
 30
0.0
 11
0.3067722320556641
 21
60.29676628112793
 31
0.0
  0
LINE
  5
107
330
1F
100
AcDbEntity
  8
TFR-TRI
  6
Continuous
 62
     1
100
AcDbLine
 10
0.3067722320556641
 20
60.29676628112793
 30
0.0
 11
0.2280368804931641
 21
60.29676628112793
 31
0.0
  0
LINE
  5
108
330
1F
100
AcDbEntity
  8
TFR-TRI
  6
Continuous
 62
     1
100
AcDbLine
 10
0.2280368804931641
 20
60.29676628112793
 30
0.0
 11
0.1492862701416016
 21
60.29676628112793
 31
0.0
  0
LINE
  5
109
330
1F
100
AcDbEntity
  8
TFR-TRI
  6
Continuous
 62
     1
100
AcDbLine
 10
-2.055425643920898
 20
60.29676628112793
 30
0.0
 11
-2.13417625427246
 21
60.29676628112793
 31
0.0
  0
LINE
  5
10A
330
1F
100
AcDbEntity
  8
TFR-TRI
  6
Continuous
 62
     1
100
AcDbLine
 10
-2.13417625427246
 20
60.29676628112793
 30
0.0
 11
-2.21291160583496
 21
60.29676628112793
 31
0.0
  0
LINE
  5
10B
330
1F
100
AcDbEntity
  8
TFR-TRI
  6
Continuous
 62
     1
100
AcDbLine
 10
-3.07906150817871
 20
60.29676628112793
 30
0.0
 11
-3.07906150817871
 21
60.35975456237792
 31
0.0
  0
LINE
  5
10C
330
1F
100
AcDbEntity
  8
TFR-TRI
  6
Continuous
 62
     1
100
AcDbLine
 10
22.43274879455567
 20
60.29676628112793
 30
0.0
 11
22.43274879455567
 21
60.35975456237792
 31
0.0
  0
LINE
  5
10D
330
1F
100
AcDbEntity
  8
TFR-TRI
  6
Continuous
 62
     1
100
AcDbLine
 10
-24.33890342712402
 20
60.35975456237792
 30
0.0
 11
-24.33890342712402
 21
60.29676628112793
 31
0.0
  0
LINE
  5
10E
330
1F
100
AcDbEntity
  8
TFR-TRI
  6
Continuous
 62
     1
100
AcDbLine
 10
-24.41763877868652
 20
60.29676628112793
 30
0.0
 11
-24.41763877868652
 21
60.35975456237792
 31
0.0
  0
LINE
  5
10F
330
1F
100
AcDbEntity
  8
TFR-TRI
  6
Continuous
 62
     1
100
AcDbLine
 10
22.51149940490723
 20
60.35975456237792
 30
0.0
 11
22.51149940490723
 21
60.29676628112793
 31
0.0
  0
LINE
  5
110
330
1F
100
AcDbEntity
  8
TFR-TRI
  6
Continuous
 62
     1
100
AcDbLine
 10
-24.41763877868652
 20
60.35975456237792
 30
0.0
 11
-24.41763877868652
 21
60.36273002624511
 31
0.0
  0
LINE
  5
111
330
1F
100
AcDbEntity
  8
TFR-TRI
  6
Continuous
 62
     1
100
AcDbLine
 10
-24.41763877868652
 20
60.36273002624511
 30
0.0
 11
-24.41763877868652
 21
60.37109184265137
 31
0.0
  0
LINE
  5
112
330
1F
100
AcDbEntity
  8
TFR-TRI
  6
Continuous
 62
     1
100
AcDbLine
 10
22.51149940490723
 20
60.35975456237792
 30
0.0
 11
22.51149940490723
 21
60.36273002624511
 31
0.0
  0
LINE
  5
113
330
1F
100
AcDbEntity
  8
TFR-TRI
  6
Continuous
 62
     1
100
AcDbLine
 10
22.51149940490723
 20
60.36273002624511
 30
0.0
 11
22.51149940490723
 21
60.37109184265137
 31
0.0
  0
LINE
  5
114
330
1F
100
AcDbEntity
  8
TFR-TRI
  6
Continuous
 62
     1
100
AcDbLine
 10
-3.15779685974121
 20
60.29676628112793
 30
0.0
 11
-3.15779685974121
 21
60.32443046569824
 31
0.0
  0
LINE
  5
115
330
1F
100
AcDbEntity
  8
TFR-TRI
  6
Continuous
 62
     1
100
AcDbLine
 10
-3.15779685974121
 20
60.32443046569824
 30
0.0
 11
-3.15779685974121
 21
60.39124870300293
 31
0.0
  0
LINE
  5
116
330
1F
100
AcDbEntity
  8
TFR-TRI
  6
Continuous
 62
     1
100
AcDbLine
 10
-21.31134605407715
 20
60.29676628112793
 30
0.0
 11
-21.31134605407715
 21
60.32443046569824
 31
0.0
  0
LINE
  5
117
330
1F
100
AcDbEntity
  8
TFR-TRI
  6
Continuous
 62
     1
100
AcDbLine
 10
-21.31134605407715
 20
60.32443046569824
 30
0.0
 11
-21.31134605407715
 21
60.39124870300293
 31
0.0
  0
LINE
  5
118
330
1F
100
AcDbEntity
  8
TFR-TRI
  6
Continuous
 62
     1
100
AcDbLine
 10
-3.15779685974121
 20
60.39124870300293
 30
0.0
 11
-21.31134605407715
 21
60.39124870300293
 31
0.0
  0
LINE
  5
119
330
1F
100
AcDbEntity
  8
TFR-TRI
  6
Continuous
 62
     1
100
AcDbLine
 10
-3.15779685974121
 20
60.39124870300293
 30
0.0
 11
-3.15779685974121
 21
60.70620536804199
 31
0.0
  0
LINE
  5
11A
330
1F
100
AcDbEntity
  8
TFR-TRI
  6
Continuous
 62
     1
100
AcDbLine
 10
-21.31134605407715
 20
60.39124870300293
 30
0.0
 11
-21.31134605407715
 21
60.70620536804199
 31
0.0
  0
LINE
  5
11B
330
1F
100
AcDbEntity
  8
TFR-TRI
  6
Continuous
 62
     1
100
AcDbLine
 10
-15.32709312438965
 20
60.78495597839356
 30
0.0
 11
-15.40582847595215
 21
60.70620536804199
 31
0.0
  0
LINE
  5
11C
330
1F
100
AcDbEntity
  8
TFR-TRI
  6
Continuous
 62
     1
100
AcDbLine
 10
-15.40582847595215
 20
60.66683769226074
 30
0.0
 11
-15.40582847595215
 21
60.70620536804199
 31
0.0
  0
LINE
  5
11D
330
1F
100
AcDbEntity
  8
TFR-TRI
  6
Continuous
 62
     1
100
AcDbLine
 10
-17.37433433532715
 20
60.66683769226074
 30
0.0
 11
-15.40582847595215
 21
60.66683769226074
 31
0.0
  0
LINE
  5
11E
330
1F
100
AcDbEntity
  8
TFR-TRI
  6
Continuous
 62
     1
100
AcDbLine
 10
-17.37433433532715
 20
60.70620536804199
 30
0.0
 11
-17.37433433532715
 21
60.66683769226074
 31
0.0
  0
LINE
  5
11F
330
1F
100
AcDbEntity
  8
TFR-TRI
  6
Continuous
 62
     1
100
AcDbLine
 10
-17.37433433532715
 20
60.70620536804199
 30
0.0
 11
-17.45306968688965
 21
60.78495597839356
 31
0.0
  0
LINE
  5
120
330
1F
100
AcDbEntity
  8
TFR-TRI
  6
Continuous
 62
     1
100
AcDbLine
 10
-17.45306968688965
 20
60.78495597839356
 30
0.0
 11
-21.23259544372559
 21
60.78495597839356
 31
0.0
  0
LINE
  5
121
330
1F
100
AcDbEntity
  8
TFR-TRI
  6
Continuous
 62
     1
100
AcDbLine
 10
-21.23259544372559
 20
60.78495597839356
 30
0.0
 11
-21.31134605407715
 21
60.70620536804199
 31
0.0
  0
LINE
  5
122
330
1F
100
AcDbEntity
  8
TFR-TRI
  6
Continuous
 62
     1
100
AcDbLine
 10
-3.15779685974121
 20
60.70620536804199
 30
0.0
 11
-3.23653221130371
 21
60.78495597839356
 31
0.0
  0
LINE
  5
123
330
1F
100
AcDbEntity
  8
TFR-TRI
  6
Continuous
 62
     1
100
AcDbLine
 10
1.251657485961914
 20
60.29676628112793
 30
0.0
 11
1.251657485961914
 21
60.32443046569824
 31
0.0
  0
LINE
  5
124
330
1F
100
AcDbEntity
  8
TFR-TRI
  6
Continuous
 62
     1
100
AcDbLine
 10
1.251657485961914
 20
60.32443046569824
 30
0.0
 11
1.251657485961914
 21
60.39124870300293
 31
0.0
  0
LINE
  5
125
330
1F
100
AcDbEntity
  8
TFR-TRI
  6
Continuous
 62
     1
100
AcDbLine
 10
19.40519142150879
 20
60.29676628112793
 30
0.0
 11
19.40519142150879
 21
60.32443046569824
 31
0.0
  0
LINE
  5
126
330
1F
100
AcDbEntity
  8
TFR-TRI
  6
Continuous
 62
     1
100
AcDbLine
 10
19.40519142150879
 20
60.32443046569824
 30
0.0
 11
19.40519142150879
 21
60.39124870300293
 31
0.0
  0
LINE
  5
127
330
1F
100
AcDbEntity
  8
TFR-TRI
  6
Continuous
 62
     1
100
AcDbLine
 10
1.251657485961914
 20
60.39124870300293
 30
0.0
 11
19.40519142150879
 21
60.39124870300293
 31
0.0
  0
LINE
  5
128
330
1F
100
AcDbEntity
  8
TFR-TRI
  6
Continuous
 62
     1
100
AcDbLine
 10
1.251657485961914
 20
60.39124870300293
 30
0.0
 11
1.251657485961914
 21
60.70620536804199
 31
0.0
  0
LINE
  5
129
330
1F
100
AcDbEntity
  8
TFR-TRI
  6
Continuous
 62
     1
100
AcDbLine
 10
19.40519142150879
 20
60.39124870300293
 30
0.0
 11
19.40519142150879
 21
60.70620536804199
 31
0.0
  0
LINE
  5
12A
330
1F
100
AcDbEntity
  8
TFR-TRI
  6
Continuous
 62
     1
100
AcDbLine
 10
13.49968910217285
 20
60.70620536804199
 30
0.0
 11
13.49968910217285
 21
60.66683769226074
 31
0.0
  0
LINE
  5
12B
330
1F
100
AcDbEntity
  8
TFR-TRI
  6
Continuous
 62
     1
100
AcDbLine
 10
13.49968910217285
 20
60.70620536804199
 30
0.0
 11
13.42093849182129
 21
60.78495597839356
 31
0.0
  0
LINE
  5
12C
330
1F
100
AcDbEntity
  8
TFR-TRI
  6
Continuous
 62
     1
100
AcDbLine
 10
1.330392837524414
 20
60.78495597839356
 30
0.0
 11
1.251657485961914
 21
60.70620536804199
 31
0.0
  0
LINE
  5
12D
330
1F
100
AcDbEntity
  8
TFR-TRI
  6
Continuous
 62
     1
100
AcDbLine
 10
19.40519142150879
 20
60.70620536804199
 30
0.0
 11
19.32645606994629
 21
60.78495597839356
 31
0.0
  0
LINE
  5
12E
330
1F
100
AcDbEntity
  8
TFR-TRI
  6
Continuous
 62
     1
100
AcDbLine
 10
15.54693031311035
 20
60.78495597839356
 30
0.0
 11
19.32645606994629
 21
60.78495597839356
 31
0.0
  0
LINE
  5
12F
330
1F
100
AcDbEntity
  8
TFR-TRI
  6
Continuous
 62
     1
100
AcDbLine
 10
15.54693031311035
 20
60.78495597839356
 30
0.0
 11
15.46819496154785
 21
60.70620536804199
 31
0.0
  0
LINE
  5
130
330
1F
100
AcDbEntity
  8
TFR-TRI
  6
Continuous
 62
     1
100
AcDbLine
 10
15.46819496154785
 20
60.66683769226074
 30
0.0
 11
15.46819496154785
 21
60.70620536804199
 31
0.0
  0
LINE
  5
131
330
1F
100
AcDbEntity
  8
TFR-TRI
  6
Continuous
 62
     1
100
AcDbLine
 10
13.49968910217285
 20
60.66683769226074
 30
0.0
 11
15.46819496154785
 21
60.66683769226074
 31
0.0
  0
LINE
  5
132
330
1F
100
AcDbEntity
  8
TFR-TRI
  6
Continuous
 62
     1
100
AcDbLine
 10
-2.13417625427246
 20
60.29676628112793
 30
0.0
 11
-2.13417625427246
 21
60.35975456237792
 31
0.0
  0
LINE
  5
133
330
1F
100
AcDbEntity
  8
TFR-TRI
  6
Continuous
 62
     1
100
AcDbLine
 10
-2.21291160583496
 20
60.29676628112793
 30
0.0
 11
-2.21291160583496
 21
60.35975456237792
 31
0.0
  0
LINE
  5
134
330
1F
100
AcDbEntity
  8
TFR-TRI
  6
Continuous
 62
     1
100
AcDbLine
 10
-3.000310897827148
 20
60.35975456237792
 30
0.0
 11
-3.000310897827148
 21
60.29676628112793
 31
0.0
  0
LINE
  5
135
330
1F
100
AcDbEntity
  8
TFR-TRI
  6
Continuous
 62
     1
100
AcDbLine
 10
0.3067722320556641
 20
60.35975456237792
 30
0.0
 11
0.3067722320556641
 21
60.29676628112793
 31
0.0
  0
LINE
  5
136
330
1F
100
AcDbEntity
  8
TFR-TRI
  6
Continuous
 62
     1
100
AcDbLine
 10
1.094171524047851
 20
60.29676628112793
 30
0.0
 11
1.094171524047851
 21
60.35975456237792
 31
0.0
  0
LINE
  5
137
330
1F
100
AcDbEntity
  8
TFR-TRI
  6
Continuous
 62
     1
100
AcDbLine
 10
0.2280368804931641
 20
60.35975456237792
 30
0.0
 11
0.2280368804931641
 21
60.29676628112793
 31
0.0
  0
LINE
  5
138
330
1F
100
AcDbEntity
  8
TFR-TRI
  6
Continuous
 62
   251
100
AcDbLine
 10
-24.44125938415528
 20
60.37109184265137
 30
0.0
 11
-21.31072044372559
 21
60.37109184265137
 31
0.0
  0
LINE
  5
139
330
1F
100
AcDbEntity
  8
TFR-TRI
  6
Continuous
 62
   251
100
AcDbLine
 10
-3.157293319702148
 20
60.37109184265137
 30
0.0
 11
1.251153945922851
 21
60.37109184265137
 31
0.0
  0
LINE
  5
13A
330
1F
100
AcDbEntity
  8
TFR-TRI
  6
Continuous
 62
   251
100
AcDbLine
 10
19.40458106994629
 20
60.37109184265137
 30
0.0
 11
22.53512001037598
 21
60.37109184265137
 31
0.0
  0
LINE
  5
13B
330
1F
100
AcDbEntity
  8
TFR-TRI
  6
Continuous
 62
   251
100
AcDbLine
 10
22.53512001037598
 20
60.37109184265137
 30
0.0
 11
22.53512001037598
 21
60.86152458190918
 31
0.0
  0
LINE
  5
13C
330
1F
100
AcDbEntity
  8
TFR-TRI
  6
Continuous
 62
   251
100
AcDbLine
 10
-24.44125938415528
 20
60.86152458190918
 30
0.0
 11
22.53512001037598
 21
60.86152458190918
 31
0.0
  0
LINE
  5
13D
330
1F
100
AcDbEntity
  8
TFR-TRI
  6
Continuous
 62
   251
100
AcDbLine
 10
-24.44125938415528
 20
60.37109184265137
 30
0.0
 11
-24.44125938415528
 21
60.86152458190918
 31
0.0
  0
LINE
  5
13E
330
1F
100
AcDbEntity
  8
TFR-TRI
  6
Continuous
 62
   251
100
AcDbLine
 10
22.53512001037598
 20
60.86152458190918
 30
0.0
 11
22.53512001037598
 21
60.91071891784668
 31
0.0
  0
LINE
  5
13F
330
1F
100
AcDbEntity
  8
TFR-TRI
  6
Continuous
 62
   251
100
AcDbLine
 10
22.53512001037598
 20
60.91071891784668
 30
0.0
 11
22.53512001037598
 21
60.93108940124512
 31
0.0
  0
LINE
  5
140
330
1F
100
AcDbEntity
  8
TFR-TRI
  6
Continuous
 62
   251
100
AcDbLine
 10
-24.44125938415528
 20
60.86152458190918
 30
0.0
 11
-24.44125938415528
 21
60.91071891784668
 31
0.0
  0
LINE
  5
141
330
1F
100
AcDbEntity
  8
TFR-TRI
  6
Continuous
 62
   251
100
AcDbLine
 10
-24.44125938415528
 20
60.91071891784668
 30
0.0
 11
-24.44125938415528
 21
60.93108940124512
 31
0.0
  0
LINE
  5
142
330
1F
100
AcDbEntity
  8
TFR-TRI
  6
Continuous
 62
   251
100
AcDbLine
 10
-24.44125938415528
 20
-23.60538673400879
 30
0.0
 11
22.53512001037598
 21
-23.60538673400879
 31
0.0
  0
LINE
  5
143
330
1F
100
AcDbEntity
  8
TFR-TRI
  6
Continuous
 62
     1
100
AcDbLine
 10
-24.41763877868652
 20
-22.97105598449707
 30
0.0
 11
22.51149940490723
 21
-22.97105598449707
 31
0.0
  0
LINE
  5
144
330
1F
100
AcDbEntity
  8
TFR-TRI
  6
Continuous
 62
     1
100
AcDbLine
 10
-24.41763877868652
 20
-22.97105598449707
 30
0.0
 11
-24.41763877868652
 21
-22.99194526672363
 31
0.0
  0
LINE
  5
145
330
1F
100
AcDbEntity
  8
TFR-TRI
  6
Continuous
 62
     1
100
AcDbLine
 10
-24.41763877868652
 20
-22.99194526672363
 30
0.0
 11
-24.41763877868652
 21
-23.04538154602051
 31
0.0
  0
LINE
  5
146
330
1F
100
AcDbEntity
  8
TFR-TRI
  6
Continuous
 62
     1
100
AcDbLine
 10
22.51149940490723
 20
-22.97105598449707
 30
0.0
 11
22.51149940490723
 21
-22.99194526672363
 31
0.0
  0
LINE
  5
147
330
1F
100
AcDbEntity
  8
TFR-TRI
  6
Continuous
 62
     1
100
AcDbLine
 10
22.51149940490723
 20
-22.99194526672363
 30
0.0
 11
22.51149940490723
 21
-23.04538154602051
 31
0.0
  0
LINE
  5
148
330
1F
100
AcDbEntity
  8
TFR-TRI
  6
Continuous
 62
   251
100
AcDbLine
 10
22.53512001037598
 20
-23.26562690734863
 30
0.0
 11
22.53512001037598
 21
-23.20939826965332
 31
0.0
  0
LINE
  5
149
330
1F
100
AcDbEntity
  8
TFR-TRI
  6
Continuous
 62
   251
100
AcDbLine
 10
-24.44125938415528
 20
-23.20939826965332
 30
0.0
 11
22.53512001037598
 21
-23.20939826965332
 31
0.0
  0
LINE
  5
14A
330
1F
100
AcDbEntity
  8
TFR-TRI
  6
Continuous
 62
   251
100
AcDbLine
 10
-24.44125938415528
 20
-23.26562690734863
 30
0.0
 11
-24.44125938415528
 21
-23.20939826965332
 31
0.0
  0
LINE
  5
14B
330
1F
100
AcDbEntity
  8
TFR-TRI
  6
Continuous
 62
   251
100
AcDbLine
 10
-24.44125938415528
 20
-23.26562690734863
 30
0.0
 11
22.53512001037598
 21
-23.26562690734863
 31
0.0
  0
LINE
  5
14C
330
1F
100
AcDbEntity
  8
TFR-TRI
  6
Continuous
 62
   251
100
AcDbLine
 10
22.53512001037598
 20
-23.20939826965332
 30
0.0
 11
22.53512001037598
 21
-23.0702075958252
 31
0.0
  0
LINE
  5
14D
330
1F
100
AcDbEntity
  8
TFR-TRI
  6
Continuous
 62
   251
100
AcDbLine
 10
-24.44125938415528
 20
-23.0702075958252
 30
0.0
 11
22.53512001037598
 21
-23.0702075958252
 31
0.0
  0
LINE
  5
14E
330
1F
100
AcDbEntity
  8
TFR-TRI
  6
Continuous
 62
   251
100
AcDbLine
 10
-24.44125938415528
 20
-23.20939826965332
 30
0.0
 11
-24.44125938415528
 21
-23.0702075958252
 31
0.0
  0
LINE
  5
14F
330
1F
100
AcDbEntity
  8
TFR-TRI
  6
Continuous
 62
   251
100
AcDbLine
 10
22.53512001037598
 20
-23.0702075958252
 30
0.0
 11
22.53512001037598
 21
-23.04538154602051
 31
0.0
  0
LINE
  5
150
330
1F
100
AcDbEntity
  8
TFR-TRI
  6
Continuous
 62
   251
100
AcDbLine
 10
-24.44125938415528
 20
-23.04538154602051
 30
0.0
 11
22.53512001037598
 21
-23.04538154602051
 31
0.0
  0
LINE
  5
151
330
1F
100
AcDbEntity
  8
TFR-TRI
  6
Continuous
 62
   251
100
AcDbLine
 10
-24.44125938415528
 20
-23.0702075958252
 30
0.0
 11
-24.44125938415528
 21
-23.04538154602051
 31
0.0
  0
LINE
  5
152
330
1F
100
AcDbEntity
  8
TFR-TRI
  6
Continuous
 62
   251
100
AcDbLine
 10
22.53512001037598
 20
-23.60538673400879
 30
0.0
 11
22.53512001037598
 21
-23.58500862121582
 31
0.0
  0
LINE
  5
153
330
1F
100
AcDbEntity
  8
TFR-TRI
  6
Continuous
 62
   251
100
AcDbLine
 10
22.53512001037598
 20
-23.58500862121582
 30
0.0
 11
22.53512001037598
 21
-23.53580665588379
 31
0.0
  0
LINE
  5
154
330
1F
100
AcDbEntity
  8
TFR-TRI
  6
Continuous
 62
   251
100
AcDbLine
 10
-24.44125938415528
 20
-23.60538673400879
 30
0.0
 11
-24.44125938415528
 21
-23.58500862121582
 31
0.0
  0
LINE
  5
155
330
1F
100
AcDbEntity
  8
TFR-TRI
  6
Continuous
 62
   251
100
AcDbLine
 10
-24.44125938415528
 20
-23.58500862121582
 30
0.0
 11
-24.44125938415528
 21
-23.53580665588379
 31
0.0
  0
LINE
  5
156
330
1F
100
AcDbEntity
  8
TFR-TRI
  6
Continuous
 62
   251
100
AcDbLine
 10
-24.44125938415528
 20
-23.53580665588379
 30
0.0
 11
22.53512001037598
 21
-23.53580665588379
 31
0.0
  0
LINE
  5
157
330
1F
100
AcDbEntity
  8
TFR-TRI
  6
Continuous
 62
   251
100
AcDbLine
 10
22.53512001037598
 20
-23.53580665588379
 30
0.0
 11
22.53512001037598
 21
-23.39661598205566
 31
0.0
  0
LINE
  5
158
330
1F
100
AcDbEntity
  8
TFR-TRI
  6
Continuous
 62
   251
100
AcDbLine
 10
-24.44125938415528
 20
-23.39661598205566
 30
0.0
 11
22.53512001037598
 21
-23.39661598205566
 31
0.0
  0
LINE
  5
159
330
1F
100
AcDbEntity
  8
TFR-TRI
  6
Continuous
 62
   251
100
AcDbLine
 10
-24.44125938415528
 20
-23.53580665588379
 30
0.0
 11
-24.44125938415528
 21
-23.39661598205566
 31
0.0
  0
LINE
  5
15A
330
1F
100
AcDbEntity
  8
TFR-TRI
  6
Continuous
 62
   251
100
AcDbLine
 10
22.53512001037598
 20
-23.39661598205566
 30
0.0
 11
22.53512001037598
 21
-23.3304615020752
 31
0.0
  0
LINE
  5
15B
330
1F
100
AcDbEntity
  8
TFR-TRI
  6
Continuous
 62
   251
100
AcDbLine
 10
-24.44125938415528
 20
-23.3304615020752
 30
0.0
 11
22.53512001037598
 21
-23.3304615020752
 31
0.0
  0
LINE
  5
15C
330
1F
100
AcDbEntity
  8
TFR-TRI
  6
Continuous
 62
   251
100
AcDbLine
 10
-24.44125938415528
 20
-23.39661598205566
 30
0.0
 11
-24.44125938415528
 21
-23.3304615020752
 31
0.0
  0
LINE
  5
15D
330
1F
100
AcDbEntity
  8
TFR-TRI
  6
Continuous
 62
   251
100
AcDbLine
 10
22.53512001037598
 20
-23.3304615020752
 30
0.0
 11
22.53512001037598
 21
-23.26562690734863
 31
0.0
  0
LINE
  5
15E
330
1F
100
AcDbEntity
  8
TFR-TRI
  6
Continuous
 62
   251
100
AcDbLine
 10
-24.44125938415528
 20
-23.3304615020752
 30
0.0
 11
-24.44125938415528
 21
-23.26562690734863
 31
0.0
  0
LINE
  5
15F
330
1F
100
AcDbEntity
  8
TFR-TRI
  6
Continuous
 62
     1
100
AcDbLine
 10
140.6956272125244
 20
19.4788646697998
 30
0.0
 11
128.6050815582275
 21
19.4788646697998
 31
0.0
  0
LINE
  5
160
330
1F
100
AcDbEntity
  8
TFR-TRI
  6
Continuous
 62
     1
100
AcDbLine
 10
140.6956272125244
 20
19.4788646697998
 30
0.0
 11
140.6956272125244
 21
19.5418529510498
 31
0.0
  0
LINE
  5
161
330
1F
100
AcDbEntity
  8
TFR-TRI
  6
Continuous
 62
     1
100
AcDbLine
 10
128.6050815582275
 20
19.5418529510498
 30
0.0
 11
140.6956272125244
 21
19.5418529510498
 31
0.0
  0
LINE
  5
162
330
1F
100
AcDbEntity
  8
TFR-TRI
  6
Continuous
 62
     1
100
AcDbLine
 10
128.6050815582275
 20
19.5418529510498
 30
0.0
 11
128.6050815582275
 21
19.4788646697998
 31
0.0
  0
LINE
  5
163
330
1F
100
AcDbEntity
  8
TFR-TRI
  6
Continuous
 62
     1
100
AcDbLine
 10
124.0381565093994
 20
19.5418529510498
 30
0.0
 11
111.9475803375244
 21
19.5418529510498
 31
0.0
  0
LINE
  5
164
330
1F
100
AcDbEntity
  8
TFR-TRI
  6
Continuous
 62
     1
100
AcDbLine
 10
111.9475803375244
 20
19.5418529510498
 30
0.0
 11
111.9475803375244
 21
19.4788646697998
 31
0.0
  0
LINE
  5
165
330
1F
100
AcDbEntity
  8
TFR-TRI
  6
Continuous
 62
     1
100
AcDbLine
 10
111.9475803375244
 20
19.4788646697998
 30
0.0
 11
124.0381565093994
 21
19.4788646697998
 31
0.0
  0
LINE
  5
166
330
1F
100
AcDbEntity
  8
TFR-TRI
  6
Continuous
 62
     1
100
AcDbLine
 10
124.0381565093994
 20
19.4788646697998
 30
0.0
 11
124.0381565093994
 21
19.5418529510498
 31
0.0
  0
LINE
  5
167
330
1F
100
AcDbEntity
  8
TFR-TRI
  6
Continuous
 62
     1
100
AcDbLine
 10
127.4239597320556
 20
20.90405082702637
 30
0.0
 11
125.2192478179931
 21
20.90405082702637
 31
0.0
  0
LINE
  5
168
330
1F
100
AcDbEntity
  8
TFR-TRI
  6
Continuous
 62
     1
100
AcDbLine
 10
124.1956272125244
 20
19.4473705291748
 30
0.0
 11
124.1956272125244
 21
20.03791618347168
 31
0.0
  0
LINE
  5
169
330
1F
100
AcDbEntity
  8
TFR-TRI
  6
Continuous
 62
     1
100
AcDbLine
 10
126.4101963043213
 20
20.41114616394043
 30
0.0
 11
126.2330112457275
 21
20.41114616394043
 31
0.0
  0
LINE
  5
16A
330
1F
100
AcDbEntity
  8
TFR-TRI
  6
Continuous
 62
     1
100
AcDbLine
 10
126.2330112457275
 20
20.62768363952637
 30
0.0
 11
126.4101963043213
 21
20.62768363952637
 31
0.0
  0
LINE
  5
16B
330
1F
100
AcDbEntity
  8
TFR-TRI
  6
Continuous
 62
     1
100
AcDbLine
 10
128.4475803375244
 20
19.4473705291748
 30
0.0
 11
128.4475803375244
 21
20.03791618347168
 31
0.0
  0
LINE
  5
16C
330
1F
100
AcDbEntity
  8
TFR-TRI
  6
Continuous
 62
     1
100
AcDbLine
 10
128.4475803375244
 20
20.03791618347168
 30
0.0
 11
128.3688449859619
 21
20.11665153503418
 31
0.0
  0
LINE
  5
16D
330
1F
100
AcDbEntity
  8
TFR-TRI
  6
Continuous
 62
     1
100
AcDbLine
 10
128.3688449859619
 20
20.11665153503418
 30
0.0
 11
127.5814609527588
 21
20.11665153503418
 31
0.0
  0
LINE
  5
16E
330
1F
100
AcDbEntity
  8
TFR-TRI
  6
Continuous
 62
     1
100
AcDbLine
 10
127.5814609527588
 20
20.11665153503418
 30
0.0
 11
127.5026950836181
 21
20.19540214538574
 31
0.0
  0
LINE
  5
16F
330
1F
100
AcDbEntity
  8
TFR-TRI
  6
Continuous
 62
     1
100
AcDbLine
 10
127.5026950836181
 20
20.19540214538574
 30
0.0
 11
127.5026950836181
 21
20.82531547546387
 31
0.0
  0
LINE
  5
170
330
1F
100
AcDbEntity
  8
TFR-TRI
  6
Continuous
 62
     1
100
AcDbLine
 10
127.5026950836181
 20
20.82531547546387
 30
0.0
 11
127.4239597320556
 21
20.90405082702637
 31
0.0
  0
LINE
  5
171
330
1F
100
AcDbEntity
  8
TFR-TRI
  6
Continuous
 62
     1
100
AcDbLine
 10
125.2192478179931
 20
20.90405082702637
 30
0.0
 11
125.1405124664306
 21
20.82531547546387
 31
0.0
  0
LINE
  5
172
330
1F
100
AcDbEntity
  8
TFR-TRI
  6
Continuous
 62
     1
100
AcDbLine
 10
125.1405124664306
 20
20.19540214538574
 30
0.0
 11
125.1405124664306
 21
20.82531547546387
 31
0.0
  0
LINE
  5
173
330
1F
100
AcDbEntity
  8
TFR-TRI
  6
Continuous
 62
     1
100
AcDbLine
 10
125.1405124664306
 20
20.19540214538574
 30
0.0
 11
125.0617771148681
 21
20.11665153503418
 31
0.0
  0
LINE
  5
174
330
1F
100
AcDbEntity
  8
TFR-TRI
  6
Continuous
 62
     1
100
AcDbLine
 10
124.2743625640869
 20
20.11665153503418
 30
0.0
 11
125.0617771148681
 21
20.11665153503418
 31
0.0
  0
LINE
  5
175
330
1F
100
AcDbEntity
  8
TFR-TRI
  6
Continuous
 62
     1
100
AcDbLine
 10
124.2743625640869
 20
20.11665153503418
 30
0.0
 11
124.1956272125244
 21
20.03791618347168
 31
0.0
  0
LINE
  5
176
330
1F
100
AcDbEntity
  8
TFR-TRI
  6
Continuous
 62
     1
100
AcDbLine
 10
124.1956272125244
 20
19.4473705291748
 30
0.0
 11
124.1168918609619
 21
19.4473705291748
 31
0.0
  0
LINE
  5
177
330
1F
100
AcDbEntity
  8
TFR-TRI
  6
Continuous
 62
     1
100
AcDbLine
 10
105.9633274078369
 20
19.4473705291748
 30
0.0
 11
124.1168918609619
 21
19.4473705291748
 31
0.0
  0
LINE
  5
178
330
1F
100
AcDbEntity
  8
TFR-TRI
  6
Continuous
 62
     1
100
AcDbLine
 10
105.9633274078369
 20
19.4473705291748
 30
0.0
 11
102.93577003479
 21
19.4473705291748
 31
0.0
  0
LINE
  5
179
330
1F
100
AcDbEntity
  8
TFR-TRI
  6
Continuous
 62
     1
100
AcDbLine
 10
102.93577003479
 20
19.4473705291748
 30
0.0
 11
102.8570346832275
 21
19.36861991882324
 31
0.0
  0
LINE
  5
17A
330
1F
100
AcDbEntity
  8
TFR-TRI
  6
Continuous
 62
     1
100
AcDbLine
 10
102.8570346832275
 20
18.98022270202637
 30
0.0
 11
102.8570346832275
 21
19.36861991882324
 31
0.0
  0
LINE
  5
17B
330
1F
100
AcDbEntity
  8
TFR-TRI
  6
Continuous
 62
     1
100
AcDbLine
 10
149.7861728668213
 20
18.98022270202637
 30
0.0
 11
149.7861728668213
 21
19.36861991882324
 31
0.0
  0
LINE
  5
17C
330
1F
100
AcDbEntity
  8
TFR-TRI
  6
Continuous
 62
     1
100
AcDbLine
 10
149.7861728668213
 20
19.36861991882324
 30
0.0
 11
149.7074375152588
 21
19.4473705291748
 31
0.0
  0
LINE
  5
17D
330
1F
100
AcDbEntity
  8
TFR-TRI
  6
Continuous
 62
     1
100
AcDbLine
 10
149.7074375152588
 20
19.4473705291748
 30
0.0
 11
146.6798801422119
 21
19.4473705291748
 31
0.0
  0
LINE
  5
17E
330
1F
100
AcDbEntity
  8
TFR-TRI
  6
Continuous
 62
     1
100
AcDbLine
 10
146.6798801422119
 20
19.4473705291748
 30
0.0
 11
128.5263156890869
 21
19.4473705291748
 31
0.0
  0
LINE
  5
17F
330
1F
100
AcDbEntity
  8
TFR-TRI
  6
Continuous
 62
     1
100
AcDbLine
 10
128.5263156890869
 20
19.4473705291748
 30
0.0
 11
128.4475803375244
 21
19.4473705291748
 31
0.0
  0
LINE
  5
180
330
1F
100
AcDbEntity
  8
TFR-TRI
  6
Continuous
 62
     1
100
AcDbLine
 10
148.1660861968994
 20
19.0926342010498
 30
0.0
 11
147.9889316558837
 21
19.0926342010498
 31
0.0
  0
LINE
  5
181
330
1F
100
AcDbEntity
  8
TFR-TRI
  6
Continuous
 62
     1
100
AcDbLine
 10
147.9889316558837
 20
19.30917167663574
 30
0.0
 11
148.1660861968994
 21
19.30917167663574
 31
0.0
  0
LINE
  5
182
330
1F
100
AcDbEntity
  8
TFR-TRI
  6
Continuous
 62
     1
100
AcDbLine
 10
147.3787021636963
 20
19.0926342010498
 30
0.0
 11
147.2015171051025
 21
19.0926342010498
 31
0.0
  0
LINE
  5
183
330
1F
100
AcDbEntity
  8
TFR-TRI
  6
Continuous
 62
     1
100
AcDbLine
 10
147.2015171051025
 20
19.30917167663574
 30
0.0
 11
147.3787021636963
 21
19.30917167663574
 31
0.0
  0
LINE
  5
184
330
1F
100
AcDbEntity
  8
TFR-TRI
  6
Continuous
 62
     1
100
AcDbLine
 10
104.654275894165
 20
19.30917167663574
 30
0.0
 11
104.4771213531494
 21
19.30917167663574
 31
0.0
  0
LINE
  5
185
330
1F
100
AcDbEntity
  8
TFR-TRI
  6
Continuous
 62
     1
100
AcDbLine
 10
104.4771213531494
 20
19.0926342010498
 30
0.0
 11
104.654275894165
 21
19.0926342010498
 31
0.0
  0
LINE
  5
186
330
1F
100
AcDbEntity
  8
TFR-TRI
  6
Continuous
 62
     1
100
AcDbLine
 10
105.4416904449463
 20
19.30917167663574
 30
0.0
 11
105.2645053863525
 21
19.30917167663574
 31
0.0
  0
LINE
  5
187
330
1F
100
AcDbEntity
  8
TFR-TRI
  6
Continuous
 62
     1
100
AcDbLine
 10
105.2645053863525
 20
19.0926342010498
 30
0.0
 11
105.4416904449463
 21
19.0926342010498
 31
0.0
  0
LINE
  5
188
330
1F
100
AcDbEntity
  8
TFR-TRI
  6
Continuous
 62
     1
100
AcDbLine
 10
128.5263156890869
 20
19.4473705291748
 30
0.0
 11
128.5263156890869
 21
19.46963310241699
 31
0.0
  0
LINE
  5
189
330
1F
100
AcDbEntity
  8
TFR-TRI
  6
Continuous
 62
     1
100
AcDbLine
 10
128.5263156890869
 20
19.46963310241699
 30
0.0
 11
128.5263156890869
 21
19.4788646697998
 31
0.0
  0
LINE
  5
18A
330
1F
100
AcDbEntity
  8
TFR-TRI
  6
Continuous
 62
     1
100
AcDbLine
 10
146.6798801422119
 20
19.4473705291748
 30
0.0
 11
146.6798801422119
 21
19.46963310241699
 31
0.0
  0
LINE
  5
18B
330
1F
100
AcDbEntity
  8
TFR-TRI
  6
Continuous
 62
     1
100
AcDbLine
 10
146.6798801422119
 20
19.46963310241699
 30
0.0
 11
146.6798801422119
 21
19.4788646697998
 31
0.0
  0
LINE
  5
18C
330
1F
100
AcDbEntity
  8
TFR-TRI
  6
Continuous
 62
     1
100
AcDbLine
 10
128.5263156890869
 20
19.4788646697998
 30
0.0
 11
128.5263156890869
 21
19.5418529510498
 31
0.0
  0
LINE
  5
18D
330
1F
100
AcDbEntity
  8
TFR-TRI
  6
Continuous
 62
     1
100
AcDbLine
 10
146.6798801422119
 20
19.5418529510498
 30
0.0
 11
146.6798801422119
 21
19.4788646697998
 31
0.0
  0
LINE
  5
18E
330
1F
100
AcDbEntity
  8
TFR-TRI
  6
Continuous
 62
     1
100
AcDbLine
 10
140.6956272125244
 20
19.5418529510498
 30
0.0
 11
140.7743625640869
 21
19.5418529510498
 31
0.0
  0
LINE
  5
18F
330
1F
100
AcDbEntity
  8
TFR-TRI
  6
Continuous
 62
     1
100
AcDbLine
 10
142.7428684234619
 20
19.5418529510498
 30
0.0
 11
140.7743625640869
 21
19.5418529510498
 31
0.0
  0
LINE
  5
190
330
1F
100
AcDbEntity
  8
TFR-TRI
  6
Continuous
 62
     1
100
AcDbLine
 10
142.7428684234619
 20
19.5418529510498
 30
0.0
 11
142.8216037750244
 21
19.5418529510498
 31
0.0
  0
LINE
  5
191
330
1F
100
AcDbEntity
  8
TFR-TRI
  6
Continuous
 62
     1
100
AcDbLine
 10
142.8216037750244
 20
19.5418529510498
 30
0.0
 11
146.6011447906494
 21
19.5418529510498
 31
0.0
  0
LINE
  5
192
330
1F
100
AcDbEntity
  8
TFR-TRI
  6
Continuous
 62
     1
100
AcDbLine
 10
146.6011447906494
 20
19.5418529510498
 30
0.0
 11
146.6798801422119
 21
19.5418529510498
 31
0.0
  0
LINE
  5
193
330
1F
100
AcDbEntity
  8
TFR-TRI
  6
Continuous
 62
     1
100
AcDbLine
 10
128.5263156890869
 20
19.5418529510498
 30
0.0
 11
128.6050815582275
 21
19.5418529510498
 31
0.0
  0
LINE
  5
194
330
1F
100
AcDbEntity
  8
TFR-TRI
  6
Continuous
 62
     1
100
AcDbLine
 10
140.7743625640869
 20
19.4788646697998
 30
0.0
 11
140.6956272125244
 21
19.4788646697998
 31
0.0
  0
LINE
  5
195
330
1F
100
AcDbEntity
  8
TFR-TRI
  6
Continuous
 62
     1
100
AcDbLine
 10
128.6050815582275
 20
19.4788646697998
 30
0.0
 11
128.5263156890869
 21
19.4788646697998
 31
0.0
  0
LINE
  5
196
330
1F
100
AcDbEntity
  8
TFR-TRI
  6
Continuous
 62
     1
100
AcDbLine
 10
146.6798801422119
 20
19.4788646697998
 30
0.0
 11
146.6011447906494
 21
19.4788646697998
 31
0.0
  0
LINE
  5
197
330
1F
100
AcDbEntity
  8
TFR-TRI
  6
Continuous
 62
     1
100
AcDbLine
 10
146.6011447906494
 20
19.4788646697998
 30
0.0
 11
142.8216037750244
 21
19.4788646697998
 31
0.0
  0
LINE
  5
198
330
1F
100
AcDbEntity
  8
TFR-TRI
  6
Continuous
 62
     1
100
AcDbLine
 10
142.8216037750244
 20
19.4788646697998
 30
0.0
 11
142.7428684234619
 21
19.4788646697998
 31
0.0
  0
LINE
  5
199
330
1F
100
AcDbEntity
  8
TFR-TRI
  6
Continuous
 62
     1
100
AcDbLine
 10
140.7743625640869
 20
19.4788646697998
 30
0.0
 11
142.7428684234619
 21
19.4788646697998
 31
0.0
  0
LINE
  5
19A
330
1F
100
AcDbEntity
  8
TFR-TRI
  6
Continuous
 62
     1
100
AcDbLine
 10
142.8216037750244
 20
19.5418529510498
 30
0.0
 11
142.8216037750244
 21
19.4788646697998
 31
0.0
  0
LINE
  5
19B
330
1F
100
AcDbEntity
  8
TFR-TRI
  6
Continuous
 62
     1
100
AcDbLine
 10
146.6011447906494
 20
19.4788646697998
 30
0.0
 11
146.6011447906494
 21
19.5418529510498
 31
0.0
  0
LINE
  5
19C
330
1F
100
AcDbEntity
  8
TFR-TRI
  6
Continuous
 62
     1
100
AcDbLine
 10
124.1168918609619
 20
19.4473705291748
 30
0.0
 11
124.1168918609619
 21
19.46963310241699
 31
0.0
  0
LINE
  5
19D
330
1F
100
AcDbEntity
  8
TFR-TRI
  6
Continuous
 62
     1
100
AcDbLine
 10
124.1168918609619
 20
19.46963310241699
 30
0.0
 11
124.1168918609619
 21
19.4788646697998
 31
0.0
  0
LINE
  5
19E
330
1F
100
AcDbEntity
  8
TFR-TRI
  6
Continuous
 62
     1
100
AcDbLine
 10
105.9633274078369
 20
19.4473705291748
 30
0.0
 11
105.9633274078369
 21
19.46963310241699
 31
0.0
  0
LINE
  5
19F
330
1F
100
AcDbEntity
  8
TFR-TRI
  6
Continuous
 62
     1
100
AcDbLine
 10
105.9633274078369
 20
19.46963310241699
 30
0.0
 11
105.9633274078369
 21
19.4788646697998
 31
0.0
  0
LINE
  5
1A0
330
1F
100
AcDbEntity
  8
TFR-TRI
  6
Continuous
 62
     1
100
AcDbLine
 10
124.1168918609619
 20
19.5418529510498
 30
0.0
 11
124.1168918609619
 21
19.4788646697998
 31
0.0
  0
LINE
  5
1A1
330
1F
100
AcDbEntity
  8
TFR-TRI
  6
Continuous
 62
     1
100
AcDbLine
 10
105.9633274078369
 20
19.4788646697998
 30
0.0
 11
105.9633274078369
 21
19.5418529510498
 31
0.0
  0
LINE
  5
1A2
330
1F
100
AcDbEntity
  8
TFR-TRI
  6
Continuous
 62
     1
100
AcDbLine
 10
111.8688449859619
 20
19.5418529510498
 30
0.0
 11
111.9475803375244
 21
19.5418529510498
 31
0.0
  0
LINE
  5
1A3
330
1F
100
AcDbEntity
  8
TFR-TRI
  6
Continuous
 62
     1
100
AcDbLine
 10
124.0381565093994
 20
19.5418529510498
 30
0.0
 11
124.1168918609619
 21
19.5418529510498
 31
0.0
  0
LINE
  5
1A4
330
1F
100
AcDbEntity
  8
TFR-TRI
  6
Continuous
 62
     1
100
AcDbLine
 10
105.9633274078369
 20
19.5418529510498
 30
0.0
 11
106.0420932769775
 21
19.5418529510498
 31
0.0
  0
LINE
  5
1A5
330
1F
100
AcDbEntity
  8
TFR-TRI
  6
Continuous
 62
     1
100
AcDbLine
 10
109.8216037750244
 20
19.5418529510498
 30
0.0
 11
106.0420932769775
 21
19.5418529510498
 31
0.0
  0
LINE
  5
1A6
330
1F
100
AcDbEntity
  8
TFR-TRI
  6
Continuous
 62
     1
100
AcDbLine
 10
109.8216037750244
 20
19.5418529510498
 30
0.0
 11
109.9003391265869
 21
19.5418529510498
 31
0.0
  0
LINE
  5
1A7
330
1F
100
AcDbEntity
  8
TFR-TRI
  6
Continuous
 62
     1
100
AcDbLine
 10
111.8688449859619
 20
19.5418529510498
 30
0.0
 11
109.9003391265869
 21
19.5418529510498
 31
0.0
  0
LINE
  5
1A8
330
1F
100
AcDbEntity
  8
TFR-TRI
  6
Continuous
 62
     1
100
AcDbLine
 10
111.9475803375244
 20
19.4788646697998
 30
0.0
 11
111.8688449859619
 21
19.4788646697998
 31
0.0
  0
LINE
  5
1A9
330
1F
100
AcDbEntity
  8
TFR-TRI
  6
Continuous
 62
     1
100
AcDbLine
 10
109.9003391265869
 20
19.4788646697998
 30
0.0
 11
111.8688449859619
 21
19.4788646697998
 31
0.0
  0
LINE
  5
1AA
330
1F
100
AcDbEntity
  8
TFR-TRI
  6
Continuous
 62
     1
100
AcDbLine
 10
109.9003391265869
 20
19.4788646697998
 30
0.0
 11
109.8216037750244
 21
19.4788646697998
 31
0.0
  0
LINE
  5
1AB
330
1F
100
AcDbEntity
  8
TFR-TRI
  6
Continuous
 62
     1
100
AcDbLine
 10
106.0420932769775
 20
19.4788646697998
 30
0.0
 11
109.8216037750244
 21
19.4788646697998
 31
0.0
  0
LINE
  5
1AC
330
1F
100
AcDbEntity
  8
TFR-TRI
  6
Continuous
 62
     1
100
AcDbLine
 10
106.0420932769775
 20
19.4788646697998
 30
0.0
 11
105.9633274078369
 21
19.4788646697998
 31
0.0
  0
LINE
  5
1AD
330
1F
100
AcDbEntity
  8
TFR-TRI
  6
Continuous
 62
     1
100
AcDbLine
 10
124.1168918609619
 20
19.4788646697998
 30
0.0
 11
124.0381565093994
 21
19.4788646697998
 31
0.0
  0
LINE
  5
1AE
330
1F
100
AcDbEntity
  8
TFR-TRI
  6
Continuous
 62
     1
100
AcDbLine
 10
109.8216037750244
 20
19.4788646697998
 30
0.0
 11
109.8216037750244
 21
19.5418529510498
 31
0.0
  0
LINE
  5
1AF
330
1F
100
AcDbEntity
  8
TFR-TRI
  6
Continuous
 62
     1
100
AcDbLine
 10
106.0420932769775
 20
19.5418529510498
 30
0.0
 11
106.0420932769775
 21
19.4788646697998
 31
0.0
  0
LINE
  5
1B0
330
1F
100
AcDbEntity
  8
TFR-TRI
  6
Continuous
 62
     1
100
AcDbLine
 10
111.8688449859619
 20
19.4788646697998
 30
0.0
 11
111.8688449859619
 21
19.5418529510498
 31
0.0
  0
LINE
  5
1B1
330
1F
100
AcDbEntity
  8
TFR-TRI
  6
Continuous
 62
     1
100
AcDbLine
 10
109.9003391265869
 20
19.5418529510498
 30
0.0
 11
109.9003391265869
 21
19.4788646697998
 31
0.0
  0
LINE
  5
1B2
330
1F
100
AcDbEntity
  8
TFR-TRI
  6
Continuous
 62
     1
100
AcDbLine
 10
140.7743625640869
 20
19.5418529510498
 30
0.0
 11
140.7743625640869
 21
19.4788646697998
 31
0.0
  0
LINE
  5
1B3
330
1F
100
AcDbEntity
  8
TFR-TRI
  6
Continuous
 62
     1
100
AcDbLine
 10
142.7428684234619
 20
19.4788646697998
 30
0.0
 11
142.7428684234619
 21
19.5418529510498
 31
0.0
  0
LINE
  5
1B4
330
1F
100
AcDbEntity
  8
TFR-TRI
  6
Continuous
 62
   251
100
AcDbLine
 10
149.80979347229
 20
18.98022270202637
 30
0.0
 11
102.8334140777588
 21
18.98022270202637
 31
0.0
  0
LINE
  5
1B5
330
1F
100
AcDbEntity
  8
TFR-TRI
  6
Continuous
 62
   251
100
AcDbLine
 10
102.8334140777588
 20
18.98022270202637
 30
0.0
 11
102.8334140777588
 21
18.94543266296387
 31
0.0
  0
LINE
  5
1B6
330
1F
100
AcDbEntity
  8
TFR-TRI
  6
Continuous
 62
   251
100
AcDbLine
 10
102.8334140777588
 20
18.94543266296387
 30
0.0
 11
102.8334140777588
 21
18.87585258483887
 31
0.0
  0
LINE
  5
1B7
330
1F
100
AcDbEntity
  8
TFR-TRI
  6
Continuous
 62
   251
100
AcDbLine
 10
102.8334140777588
 20
18.87585258483887
 30
0.0
 11
102.8334140777588
 21
18.84106254577637
 31
0.0
  0
LINE
  5
1B8
330
1F
100
AcDbEntity
  8
TFR-TRI
  6
Continuous
 62
   251
100
AcDbLine
 10
149.80979347229
 20
18.84106254577637
 30
0.0
 11
102.8334140777588
 21
18.84106254577637
 31
0.0
  0
LINE
  5
1B9
330
1F
100
AcDbEntity
  8
TFR-TRI
  6
Continuous
 62
   251
100
AcDbLine
 10
149.80979347229
 20
18.98022270202637
 30
0.0
 11
149.80979347229
 21
18.94543266296387
 31
0.0
  0
LINE
  5
1BA
330
1F
100
AcDbEntity
  8
TFR-TRI
  6
Continuous
 62
   251
100
AcDbLine
 10
149.80979347229
 20
18.94543266296387
 30
0.0
 11
149.80979347229
 21
18.87585258483887
 31
0.0
  0
LINE
  5
1BB
330
1F
100
AcDbEntity
  8
TFR-TRI
  6
Continuous
 62
   251
100
AcDbLine
 10
149.80979347229
 20
18.87585258483887
 30
0.0
 11
149.80979347229
 21
18.84106254577637
 31
0.0
  0
LINE
  5
1BC
330
1F
100
AcDbEntity
  8
TFR-TRI
  6
Continuous
 62
   251
100
AcDbLine
 10
102.8334140777588
 20
18.84106254577637
 30
0.0
 11
102.8334140777588
 21
18.82137870788574
 31
0.0
  0
LINE
  5
1BD
330
1F
100
AcDbEntity
  8
TFR-TRI
  6
Continuous
 62
   251
100
AcDbLine
 10
149.80979347229
 20
18.82137870788574
 30
0.0
 11
102.8334140777588
 21
18.82137870788574
 31
0.0
  0
LINE
  5
1BE
330
1F
100
AcDbEntity
  8
TFR-TRI
  6
Continuous
 62
   251
100
AcDbLine
 10
149.80979347229
 20
18.84106254577637
 30
0.0
 11
149.80979347229
 21
18.82137870788574
 31
0.0
  0
LINE
  5
1BF
330
1F
100
AcDbEntity
  8
TFR-TRI
  6
Continuous
 62
   251
100
AcDbLine
 10
102.8334140777588
 20
18.82137870788574
 30
0.0
 11
102.8334140777588
 21
18.68218803405762
 31
0.0
  0
LINE
  5
1C0
330
1F
100
AcDbEntity
  8
TFR-TRI
  6
Continuous
 62
   251
100
AcDbLine
 10
149.80979347229
 20
18.68218803405762
 30
0.0
 11
102.8334140777588
 21
18.68218803405762
 31
0.0
  0
LINE
  5
1C1
330
1F
100
AcDbEntity
  8
TFR-TRI
  6
Continuous
 62
   251
100
AcDbLine
 10
149.80979347229
 20
18.82137870788574
 30
0.0
 11
149.80979347229
 21
18.68218803405762
 31
0.0
  0
LINE
  5
1C2
330
1F
100
AcDbEntity
  8
TFR-TRI
  6
Continuous
 62
   251
100
AcDbLine
 10
102.8334140777588
 20
18.68218803405762
 30
0.0
 11
102.8334140777588
 21
17.09106254577636
 31
0.0
  0
LINE
  5
1C3
330
1F
100
AcDbEntity
  8
TFR-TRI
  6
Continuous
 62
   251
100
AcDbLine
 10
149.80979347229
 20
17.09106254577636
 30
0.0
 11
102.8334140777588
 21
17.09106254577636
 31
0.0
  0
LINE
  5
1C4
330
1F
100
AcDbEntity
  8
TFR-TRI
  6
Continuous
 62
   251
100
AcDbLine
 10
149.80979347229
 20
18.68218803405762
 30
0.0
 11
149.80979347229
 21
17.09106254577636
 31
0.0
  0
ARC
  5
1C5
330
1F
100
AcDbEntity
  8
TFR-TRI
  6
Continuous
 62
     1
100
AcDbCircle
 10
-87.62357902526856
 20
18.97492790222168
 30
0.0
 40
0.031496062874794
100
AcDbArc
 50
309.7926577857963
 51
0.0
  0
ARC
  5
1C6
330
1F
100
AcDbEntity
  8
TFR-TRI
  6
Continuous
 62
     1
100
AcDbCircle
 10
-87.62357902526856
 20
18.97492790222168
 30
0.0
 40
0.094488188624382
100
AcDbArc
 50
270.0
 51
0.0
  0
ARC
  5
1C7
330
1F
100
AcDbEntity
  8
TFR-TRI
  6
Continuous
 62
     1
100
AcDbCircle
 10
-87.62357902526856
 20
19.4473705291748
 30
0.0
 40
0.094488188624382
100
AcDbArc
 50
0.0
 51
90.0
  0
ARC
  5
1C8
330
1F
100
AcDbEntity
  8
TFR-TRI
  6
Continuous
 62
     1
100
AcDbCircle
 10
-87.62357902526856
 20
19.4473705291748
 30
0.0
 40
0.031496062874794
100
AcDbArc
 50
0.0
 51
90.0
  0
ARC
  5
1C9
330
1F
100
AcDbEntity
  8
TFR-TRI
  6
Continuous
 62
   251
100
AcDbCircle
 10
-88.09384727478027
 20
18.91064262390137
 30
0.0
 40
0.0302057284861803
100
AcDbArc
 50
90.0
 51
270.0
  0
ARC
  5
1CA
330
1F
100
AcDbEntity
  8
TFR-TRI
  6
Continuous
 62
   251
100
AcDbCircle
 10
-88.09384727478027
 20
18.91064262390137
 30
0.0
 40
0.069575808942318
100
AcDbArc
 50
90.0
 51
270.0
  0
ARC
  5
1CB
330
1F
100
AcDbEntity
  8
TFR-TRI
  6
Continuous
 62
     1
100
AcDbCircle
 10
-1.04164695739746
 20
20.51940727233887
 30
0.0
 40
0.108267717063427
100
AcDbArc
 50
90.0
 51
270.0
  0
ARC
  5
1CC
330
1F
100
AcDbEntity
  8
TFR-TRI
  6
Continuous
 62
     1
100
AcDbCircle
 10
-0.8644924163818359
 20
20.51940727233887
 30
0.0
 40
0.108267717063427
100
AcDbArc
 50
270.0
 51
90.0
  0
ARC
  5
1CD
330
1F
100
AcDbEntity
  8
TFR-TRI
  6
Continuous
 62
     1
100
AcDbCircle
 10
-22.79755210876465
 20
19.2009105682373
 30
0.0
 40
0.108267717063427
100
AcDbArc
 50
90.0
 51
270.0
  0
ARC
  5
1CE
330
1F
100
AcDbEntity
  8
TFR-TRI
  6
Continuous
 62
     1
100
AcDbCircle
 10
-22.62039756774902
 20
19.2009105682373
 30
0.0
 40
0.108267717063427
100
AcDbArc
 50
270.0
 51
90.0
  0
ARC
  5
1CF
330
1F
100
AcDbEntity
  8
TFR-TRI
  6
Continuous
 62
     1
100
AcDbCircle
 10
-22.01015281677246
 20
19.2009105682373
 30
0.0
 40
0.108267717063427
100
AcDbArc
 50
90.0
 51
270.0
  0
ARC
  5
1D0
330
1F
100
AcDbEntity
  8
TFR-TRI
  6
Continuous
 62
     1
100
AcDbCircle
 10
-21.83299827575684
 20
19.2009105682373
 30
0.0
 40
0.108267717063427
100
AcDbArc
 50
270.0
 51
90.0
  0
ARC
  5
1D1
330
1F
100
AcDbEntity
  8
TFR-TRI
  6
Continuous
 62
     1
100
AcDbCircle
 10
20.89141273498535
 20
19.2009105682373
 30
0.0
 40
0.108267717063427
100
AcDbArc
 50
270.0
 51
90.0
  0
ARC
  5
1D2
330
1F
100
AcDbEntity
  8
TFR-TRI
  6
Continuous
 62
     1
100
AcDbCircle
 10
20.71425819396973
 20
19.2009105682373
 30
0.0
 40
0.108267717063427
100
AcDbArc
 50
90.0
 51
270.0
  0
ARC
  5
1D3
330
1F
100
AcDbEntity
  8
TFR-TRI
  6
Continuous
 62
     1
100
AcDbCircle
 10
20.10401344299316
 20
19.2009105682373
 30
0.0
 40
0.108267717063427
100
AcDbArc
 50
270.0
 51
90.0
  0
ARC
  5
1D4
330
1F
100
AcDbEntity
  8
TFR-TRI
  6
Continuous
 62
     1
100
AcDbCircle
 10
19.92684364318847
 20
19.2009105682373
 30
0.0
 40
0.108267717063427
100
AcDbArc
 50
90.0
 51
270.0
  0
ARC
  5
1D5
330
1F
100
AcDbEntity
  8
TFR-TRI
  6
Continuous
 62
     1
100
AcDbCircle
 10
64.87238502502441
 20
18.97492790222168
 30
0.0
 40
0.094488188624382
100
AcDbArc
 50
180.0
 51
270.0
  0
ARC
  5
1D6
330
1F
100
AcDbEntity
  8
TFR-TRI
  6
Continuous
 62
     1
100
AcDbCircle
 10
64.87238502502441
 20
18.97492790222168
 30
0.0
 40
0.031496062874794
100
AcDbArc
 50
180.0
 51
230.2073422142036
  0
ARC
  5
1D7
330
1F
100
AcDbEntity
  8
TFR-TRI
  6
Continuous
 62
     1
100
AcDbCircle
 10
64.87238502502441
 20
19.4473705291748
 30
0.0
 40
0.031496062874794
100
AcDbArc
 50
90.0
 51
180.0
  0
ARC
  5
1D8
330
1F
100
AcDbEntity
  8
TFR-TRI
  6
Continuous
 62
     1
100
AcDbCircle
 10
64.87238502502441
 20
19.4473705291748
 30
0.0
 40
0.094488188624382
100
AcDbArc
 50
90.0
 51
180.0
  0
ARC
  5
1D9
330
1F
100
AcDbEntity
  8
TFR-TRI
  6
Continuous
 62
   251
100
AcDbCircle
 10
65.34266090393066
 20
18.91064262390137
 30
0.0
 40
0.0302057284861803
100
AcDbArc
 50
270.0
 51
90.0
  0
ARC
  5
1DA
330
1F
100
AcDbEntity
  8
TFR-TRI
  6
Continuous
 62
   251
100
AcDbCircle
 10
65.34266090393066
 20
18.91064262390137
 30
0.0
 40
0.069575808942318
100
AcDbArc
 50
270.0
 51
90.0
  0
ARC
  5
1DB
330
1F
100
AcDbEntity
  8
TFR-TRI
  6
Continuous
 62
     1
100
AcDbCircle
 10
126.4101963043213
 20
20.51940727233887
 30
0.0
 40
0.108267717063427
100
AcDbArc
 50
270.0
 51
90.0
  0
ARC
  5
1DC
330
1F
100
AcDbEntity
  8
TFR-TRI
  6
Continuous
 62
     1
100
AcDbCircle
 10
126.2330112457275
 20
20.51940727233887
 30
0.0
 40
0.108267717063427
100
AcDbArc
 50
90.0
 51
270.0
  0
ARC
  5
1DD
330
1F
100
AcDbEntity
  8
TFR-TRI
  6
Continuous
 62
     1
100
AcDbCircle
 10
148.1660861968994
 20
19.2009105682373
 30
0.0
 40
0.108267717063427
100
AcDbArc
 50
270.0
 51
90.0
  0
ARC
  5
1DE
330
1F
100
AcDbEntity
  8
TFR-TRI
  6
Continuous
 62
     1
100
AcDbCircle
 10
147.9889316558837
 20
19.2009105682373
 30
0.0
 40
0.108267717063427
100
AcDbArc
 50
90.0
 51
270.0
  0
ARC
  5
1DF
330
1F
100
AcDbEntity
  8
TFR-TRI
  6
Continuous
 62
     1
100
AcDbCircle
 10
147.3787021636963
 20
19.2009105682373
 30
0.0
 40
0.108267717063427
100
AcDbArc
 50
270.0
 51
90.0
  0
ARC
  5
1E0
330
1F
100
AcDbEntity
  8
TFR-TRI
  6
Continuous
 62
     1
100
AcDbCircle
 10
147.2015171051025
 20
19.2009105682373
 30
0.0
 40
0.108267717063427
100
AcDbArc
 50
90.0
 51
270.0
  0
ARC
  5
1E1
330
1F
100
AcDbEntity
  8
TFR-TRI
  6
Continuous
 62
     1
100
AcDbCircle
 10
104.4771213531494
 20
19.2009105682373
 30
0.0
 40
0.108267717063427
100
AcDbArc
 50
90.0
 51
270.0
  0
ARC
  5
1E2
330
1F
100
AcDbEntity
  8
TFR-TRI
  6
Continuous
 62
     1
100
AcDbCircle
 10
104.654275894165
 20
19.2009105682373
 30
0.0
 40
0.108267717063427
100
AcDbArc
 50
270.0
 51
90.0
  0
ARC
  5
1E3
330
1F
100
AcDbEntity
  8
TFR-TRI
  6
Continuous
 62
     1
100
AcDbCircle
 10
105.2645053863525
 20
19.2009105682373
 30
0.0
 40
0.108267717063427
100
AcDbArc
 50
90.0
 51
270.0
  0
ARC
  5
1E4
330
1F
100
AcDbEntity
  8
TFR-TRI
  6
Continuous
 62
     1
100
AcDbCircle
 10
105.4416904449463
 20
19.2009105682373
 30
0.0
 40
0.108267717063427
100
AcDbArc
 50
270.0
 51
90.0
  0
ENDSEC
  0
SECTION
  2
OBJECTS
  0
DICTIONARY
  5
C
330
0
100
AcDbDictionary
281
     1
  3
ACAD_CIP_PREVIOUS_PRODUCT_INFO
350
240
  3
ACAD_COLOR
350
228
  3
ACAD_GROUP
350
D
  3
ACAD_LAYOUT
350
1A
  3
ACAD_MATERIAL
350
3B
  3
ACAD_MLEADERSTYLE
350
21C
  3
ACAD_MLINESTYLE
350
17
  3
ACAD_PLOTSETTINGS
350
19
  3
ACAD_PLOTSTYLENAME
350
E
  3
ACAD_SCALELIST
350
22A
  3
ACAD_TABLESTYLE
350
21B
  3
ACAD_VISUALSTYLE
350
2A
  3
ACDB_RECOMPOSE_DATA
350
307
  3
AcDbVariableDictionary
350
2FA
  3
DWGPROPS
350
308
  0
DICTIONARY
  5
241
330
10
100
AcDbDictionary
280
     1
281
     1
  3
ADSK_XREC_LAYER_RECONCILED
360
242
  0
DICTIONARY
  5
243
330
46
100
AcDbDictionary
280
     1
281
     1
  3
ADSK_XREC_LAYER_RECONCILED
360
244
  0
XRECORD
  5
240
102
{ACAD_REACTORS
330
C
102
}
330
C
100
AcDbXrecord
280
     1
300
ACD
300
2012
300
85730ACD_2012_0F
  0
DICTIONARY
  5
228
102
{ACAD_REACTORS
330
C
102
}
330
C
100
AcDbDictionary
281
     1
  0
DICTIONARY
  5
D
102
{ACAD_REACTORS
330
C
102
}
330
C
100
AcDbDictionary
281
     1
  0
DICTIONARY
  5
1A
102
{ACAD_REACTORS
330
C
102
}
330
C
100
AcDbDictionary
281
     1
  3
Layout1
350
1E
  3
Layout2
350
26
  3
Model
350
22
  0
DICTIONARY
  5
3B
102
{ACAD_REACTORS
330
C
102
}
330
C
100
AcDbDictionary
281
     1
  3
BYBLOCK
350
3D
  3
BYLAYER
350
3C
  3
Global
350
3E
  0
DICTIONARY
  5
21C
102
{ACAD_REACTORS
330
C
102
}
330
C
100
AcDbDictionary
281
     1
  3
Standard
350
23C
  0
DICTIONARY
  5
17
102
{ACAD_REACTORS
330
C
102
}
330
C
100
AcDbDictionary
281
     1
  3
Standard
350
18
  0
DICTIONARY
  5
19
102
{ACAD_REACTORS
330
C
102
}
330
C
100
AcDbDictionary
281
     1
  0
ACDBDICTIONARYWDFLT
  5
E
102
{ACAD_REACTORS
330
C
102
}
330
C
100
AcDbDictionary
281
     1
  3
Normal
350
F
100
AcDbDictionaryWithDefault
340
F
  0
DICTIONARY
  5
22A
102
{ACAD_REACTORS
330
C
102
}
330
C
100
AcDbDictionary
281
     1
  3
A0
350
22B
  3
A1
350
22C
  3
A2
350
22D
  3
A3
350
22E
  3
A4
350
22F
  3
A5
350
230
  3
A6
350
231
  3
A7
350
232
  3
A8
350
233
  3
A9
350
234
  3
B0
350
235
  3
B1
350
236
  3
B2
350
237
  3
B3
350
238
  3
B4
350
239
  3
B5
350
23A
  3
B6
350
23B
  0
DICTIONARY
  5
21B
102
{ACAD_REACTORS
330
C
102
}
330
C
100
AcDbDictionary
281
     1
  3
Standard
350
229
  0
DICTIONARY
  5
2A
102
{ACAD_REACTORS
330
C
102
}
330
C
100
AcDbDictionary
281
     1
  3
2dWireframe
350
2F
  3
3D Hidden
350
31
  3
3dWireframe
350
30
  3
Basic
350
32
  3
Brighten
350
36
  3
ColorChange
350
3A
  3
Conceptual
350
34
  3
Dim
350
35
  3
EdgeColorOff
350
227
  3
Facepattern
350
39
  3
Flat
350
2B
  3
FlatWithEdges
350
2C
  3
Gouraud
350
2D
  3
GouraudWithEdges
350
2E
  3
Hidden
350
21F
  3
JitterOff
350
225
  3
Linepattern
350
38
  3
OverhangOff
350
226
  3
Realistic
350
33
  3
Shaded
350
224
  3
Shaded with edges
350
223
  3
Shades of Gray
350
220
  3
Sketchy
350
221
  3
Thicken
350
37
  3
Wireframe
350
21E
  3
X-Ray
350
222
  0
XRECORD
  5
307
102
{ACAD_REACTORS
330
C
102
}
330
C
100
AcDbXrecord
280
     1
 90
        1
330
229
  0
DICTIONARY
  5
2FA
102
{ACAD_REACTORS
330
C
102
}
330
C
100
AcDbDictionary
281
     1
  3
CANNOSCALE
350
2FD
  3
CMLEADERSTYLE
350
2FC
  3
CTABLESTYLE
350
2FB
  3
DIMASSOC
350
302
  3
HIDETEXT
350
300
  3
INDEXCTL
350
2FF
  3
SORTENTS
350
2FE
  3
XCLIPFRAME
350
301
  0
XRECORD
  5
308
102
{ACAD_REACTORS
330
C
102
}
330
C
100
AcDbXrecord
280
     1
  1
DWGPROPS COOKIE
  2

  3

  4

  6

  7

  8
mdca
  9

300
=
301
=
302
=
303
=
304
=
305
=
306
=
307
=
308
=
309
=
 40
0.0030280439814815
 41
2456826.358318368
 42
2456826.36218235
  1

 90
        0
  0
XRECORD
  5
242
102
{ACAD_REACTORS
330
241
102
}
330
241
100
AcDbXrecord
280
     1
290
     1
  0
XRECORD
  5
244
102
{ACAD_REACTORS
330
243
102
}
330
243
100
AcDbXrecord
280
     1
290
     1
  0
LAYOUT
  5
1E
102
{ACAD_XDICTIONARY
360
309
102
}
102
{ACAD_REACTORS
330
1A
102
}
330
1A
100
AcDbPlotSettings
  1

  2
none_device
  4

  6

 40
0.0
 41
0.0
 42
0.0
 43
0.0
 44
0.0
 45
0.0
 46
0.0
 47
0.0
 48
0.0
 49
0.0
140
0.0
141
0.0
142
1.0
143
1.0
 70
   688
 72
     0
 73
     0
 74
     5
  7

 75
    16
147
1.0
148
0.0
149
0.0
100
AcDbLayout
  1
Layout1
 70
     1
 71
     1
 10
-0.5
 20
-0.5
 11
5.0
 21
5.0
 12
0.0
 22
0.0
 32
0.0
 14
-0.5
 24
-0.5
 34
-0.5
 15
5.0
 25
5.0
 35
5.0
146
0.0
 13
0.0
 23
0.0
 33
0.0
 16
1.0
 26
0.0
 36
0.0
 17
0.0
 27
1.0
 37
0.0
 76
     0
330
1B
  0
LAYOUT
  5
26
102
{ACAD_XDICTIONARY
360
30D
102
}
102
{ACAD_REACTORS
330
1A
102
}
330
1A
100
AcDbPlotSettings
  1

  2
none_device
  4

  6

 40
0.0
 41
0.0
 42
0.0
 43
0.0
 44
0.0
 45
0.0
 46
0.0
 47
0.0
 48
0.0
 49
0.0
140
0.0
141
0.0
142
1.0
143
1.0
 70
   688
 72
     0
 73
     0
 74
     5
  7

 75
    16
147
1.0
148
0.0
149
0.0
100
AcDbLayout
  1
Layout2
 70
     1
 71
     2
 10
0.0
 20
0.0
 11
0.0
 21
0.0
 12
0.0
 22
0.0
 32
0.0
 14
0.0
 24
0.0
 34
0.0
 15
0.0
 25
0.0
 35
0.0
146
0.0
 13
0.0
 23
0.0
 33
0.0
 16
1.0
 26
0.0
 36
0.0
 17
0.0
 27
1.0
 37
0.0
 76
     0
330
23
  0
LAYOUT
  5
22
102
{ACAD_XDICTIONARY
360
30B
102
}
102
{ACAD_REACTORS
330
1A
102
}
330
1A
100
AcDbPlotSettings
  1

  2
none_device
  4

  6

 40
0.0
 41
0.0
 42
0.0
 43
0.0
 44
0.0
 45
0.0
 46
0.0
 47
0.0
 48
0.0
 49
0.0
140
0.0
141
0.0
142
1.0
143
1.0
 70
  1712
 72
     0
 73
     0
 74
     0
  7

 75
     0
147
1.0
148
0.0
149
0.0
100
AcDbLayout
  1
Model
 70
     1
 71
     0
 10
-0.5
 20
-0.5
 11
5.0
 21
5.0
 12
0.0
 22
0.0
 32
0.0
 14
-0.5
 24
-0.5
 34
-0.5
 15
5.0
 25
5.0
 35
5.0
146
0.0
 13
0.0
 23
0.0
 33
0.0
 16
1.0
 26
0.0
 36
0.0
 17
0.0
 27
1.0
 37
0.0
 76
     0
330
1F
331
1E5
  0
MATERIAL
  5
3D
102
{ACAD_XDICTIONARY
360
331
102
}
102
{ACAD_REACTORS
330
3B
102
}
330
3B
100
AcDbMaterial
  1
BYBLOCK
 73
     1
 78
     1
172
     1
176
     1
270
     1
274
     1
  0
MATERIAL
  5
3C
102
{ACAD_XDICTIONARY
360
32F
102
}
102
{ACAD_REACTORS
330
3B
102
}
330
3B
100
AcDbMaterial
  1
BYLAYER
 73
     1
 78
     1
172
     1
176
     1
270
     1
274
     1
  0
MATERIAL
  5
3E
102
{ACAD_XDICTIONARY
360
333
102
}
102
{ACAD_REACTORS
330
3B
102
}
330
3B
100
AcDbMaterial
  1
Global
 73
     1
 78
     1
172
     1
176
     1
270
     1
274
     1
  0
MLEADERSTYLE
  5
23C
102
{ACAD_XDICTIONARY
360
305
102
}
102
{ACAD_REACTORS
330
21C
102
}
330
21C
100
AcDbMLeaderStyle
170
     2
171
     1
172
     0
 90
        2
 40
0.0
 41
0.0
173
     1
 91
-1056964608
340
14
 92
       -2
290
     1
 42
0.09
291
     1
 43
0.36
  3
Standard
 44
0.18
300

342
11
174
     1
178
     6
175
     1
176
     0
 93
-1056964608
 45
0.18
292
     0
297
     0
 46
0.18
 94
-1056964608
 47
1.0
 49
1.0
140
1.0
293
     1
141
0.0
294
     1
177
     0
142
1.0
295
     0
296
     0
143
0.125
1001
ACAD_MLEADERVER
1070
     2
  0
MLINESTYLE
  5
18
102
{ACAD_REACTORS
330
17
102
}
330
17
100
AcDbMlineStyle
  2
STANDARD
 70
     0
  3

 62
   256
 51
90.0
 52
90.0
 71
     2
 49
0.5
 62
   256
  6
BYLAYER
 49
-0.5
 62
   256
  6
BYLAYER
  0
ACDBPLACEHOLDER
  5
F
102
{ACAD_REACTORS
330
E
102
}
330
E
  0
SCALE
  5
22B
102
{ACAD_REACTORS
330
22A
102
}
330
22A
100
AcDbScale
 70
     0
300
1:1
140
1.0
141
1.0
290
     1
  0
SCALE
  5
22C
102
{ACAD_REACTORS
330
22A
102
}
330
22A
100
AcDbScale
 70
     0
300
1/128" = 1'-0"
140
0.0078125
141
12.0
290
     0
  0
SCALE
  5
22D
102
{ACAD_REACTORS
330
22A
102
}
330
22A
100
AcDbScale
 70
     0
300
1/64" = 1'-0"
140
0.015625
141
12.0
290
     0
  0
SCALE
  5
22E
102
{ACAD_REACTORS
330
22A
102
}
330
22A
100
AcDbScale
 70
     0
300
1/32" = 1'-0"
140
0.03125
141
12.0
290
     0
  0
SCALE
  5
22F
102
{ACAD_REACTORS
330
22A
102
}
330
22A
100
AcDbScale
 70
     0
300
1/16" = 1'-0"
140
0.0625
141
12.0
290
     0
  0
SCALE
  5
230
102
{ACAD_REACTORS
330
22A
102
}
330
22A
100
AcDbScale
 70
     0
300
3/32" = 1'-0"
140
0.09375
141
12.0
290
     0
  0
SCALE
  5
231
102
{ACAD_REACTORS
330
22A
102
}
330
22A
100
AcDbScale
 70
     0
300
1/8" = 1'-0"
140
0.125
141
12.0
290
     0
  0
SCALE
  5
232
102
{ACAD_REACTORS
330
22A
102
}
330
22A
100
AcDbScale
 70
     0
300
3/16" = 1'-0"
140
0.1875
141
12.0
290
     0
  0
SCALE
  5
233
102
{ACAD_REACTORS
330
22A
102
}
330
22A
100
AcDbScale
 70
     0
300
1/4" = 1'-0"
140
0.25
141
12.0
290
     0
  0
SCALE
  5
234
102
{ACAD_REACTORS
330
22A
102
}
330
22A
100
AcDbScale
 70
     0
300
3/8" = 1'-0"
140
0.375
141
12.0
290
     0
  0
SCALE
  5
235
102
{ACAD_REACTORS
330
22A
102
}
330
22A
100
AcDbScale
 70
     0
300
1/2" = 1'-0"
140
0.5
141
12.0
290
     0
  0
SCALE
  5
236
102
{ACAD_REACTORS
330
22A
102
}
330
22A
100
AcDbScale
 70
     0
300
3/4" = 1'-0"
140
0.75
141
12.0
290
     0
  0
SCALE
  5
237
102
{ACAD_REACTORS
330
22A
102
}
330
22A
100
AcDbScale
 70
     0
300
1" = 1'-0"
140
1.0
141
12.0
290
     0
  0
SCALE
  5
238
102
{ACAD_REACTORS
330
22A
102
}
330
22A
100
AcDbScale
 70
     0
300
1-1/2" = 1'-0"
140
1.5
141
12.0
290
     0
  0
SCALE
  5
239
102
{ACAD_REACTORS
330
22A
102
}
330
22A
100
AcDbScale
 70
     0
300
3" = 1'-0"
140
3.0
141
12.0
290
     0
  0
SCALE
  5
23A
102
{ACAD_REACTORS
330
22A
102
}
330
22A
100
AcDbScale
 70
     0
300
6" = 1'-0"
140
6.0
141
12.0
290
     0
  0
SCALE
  5
23B
102
{ACAD_REACTORS
330
22A
102
}
330
22A
100
AcDbScale
 70
     0
300
1'-0" = 1'-0"
140
12.0
141
12.0
290
     0
  0
TABLESTYLE
  5
229
102
{ACAD_XDICTIONARY
360
303
102
}
102
{ACAD_REACTORS
330
21B
102
}
330
21B
100
AcDbTableStyle
  3
Standard
 70
     0
 71
     0
 40
0.06
 41
0.06
280
     0
281
     0
  7
Standard
140
0.18
170
     2
 62
     0
 63
     7
283
     0
274
    -2
284
     1
 64
     0
275
    -2
285
     1
 65
     0
276
    -2
286
     1
 66
     0
277
    -2
287
     1
 67
     0
278
    -2
288
     1
 68
     0
279
    -2
289
     1
 69
     0
  7
Standard
140
0.25
170
     5
 62
     0
 63
     7
283
     0
274
    -2
284
     1
 64
     0
275
    -2
285
     1
 65
     0
276
    -2
286
     1
 66
     0
277
    -2
287
     1
 67
     0
278
    -2
288
     1
 68
     0
279
    -2
289
     1
 69
     0
  7
Standard
140
0.18
170
     5
 62
     0
 63
     7
283
     0
274
    -2
284
     1
 64
     0
275
    -2
285
     1
 65
     0
276
    -2
286
     1
 66
     0
277
    -2
287
     1
 67
     0
278
    -2
288
     1
 68
     0
279
    -2
289
     1
 69
     0
  0
VISUALSTYLE
  5
2F
102
{ACAD_XDICTIONARY
360
317
102
}
102
{ACAD_REACTORS
330
2A
102
}
330
2A
100
AcDbVisualStyle
  2
2dWireframe
 70
     4
 71
     0
 72
     2
 73
     0
 90
        0
 40
-0.6
 41
-30.0
 62
     5
 63
     7
 74
     1
 91
        4
 64
     7
 65
   257
 75
     1
175
     1
 42
1.0
 92
        0
 66
   257
 43
1.0
 76
     1
 77
     6
 78
     2
 67
     7
 79
     5
170
     0
171
     0
290
     0
174
     0
 93
        1
 44
0.0
173
     0
291
     0
 45
0.0
1001
ACAD
1000
AcDbSavedByObjectVersion
1070
     0
  0
VISUALSTYLE
  5
31
102
{ACAD_XDICTIONARY
360
31B
102
}
102
{ACAD_REACTORS
330
2A
102
}
330
2A
100
AcDbVisualStyle
  2
3D Hidden
 70
     6
 71
     1
 72
     2
 73
     2
 90
        0
 40
-0.6
 41
-30.0
 62
     5
 63
     7
 74
     2
 91
        2
 64
     7
 65
   257
 75
     2
175
     1
 42
40.0
 92
        0
 66
   257
 43
1.0
 76
     1
 77
     6
 78
     2
 67
     7
 79
     3
170
     0
171
     0
290
     0
174
     0
 93
        1
 44
0.0
173
     0
291
     0
 45
0.0
1001
ACAD
1000
AcDbSavedByObjectVersion
1070
     0
  0
VISUALSTYLE
  5
30
102
{ACAD_XDICTIONARY
360
319
102
}
102
{ACAD_REACTORS
330
2A
102
}
330
2A
100
AcDbVisualStyle
  2
3dWireframe
 70
     5
 71
     0
 72
     2
 73
     0
 90
        0
 40
-0.6
 41
-30.0
 62
     5
 63
     7
 74
     1
 91
        4
 64
     7
 65
   257
 75
     1
175
     1
 42
1.0
 92
        0
 66
   257
 43
1.0
 76
     1
 77
     6
 78
     2
 67
     7
 79
     5
170
     0
171
     0
290
     0
174
     0
 93
        1
 44
0.0
173
     0
291
     0
 45
0.0
1001
ACAD
1000
AcDbSavedByObjectVersion
1070
     0
  0
VISUALSTYLE
  5
32
102
{ACAD_XDICTIONARY
360
31D
102
}
102
{ACAD_REACTORS
330
2A
102
}
330
2A
100
AcDbVisualStyle
  2
Basic
 70
     7
 71
     1
 72
     0
 73
     1
 90
        0
 40
-0.6
 41
-30.0
 62
     5
 63
     7
 74
     0
 91
        4
 64
     7
 65
   257
 75
     1
175
     1
 42
1.0
 92
        8
 66
     7
 43
1.0
 76
     1
 77
     6
 78
     2
 67
     7
 79
     5
170
     0
171
     0
290
     0
174
     0
 93
        1
 44
0.0
173
     0
291
     1
 45
0.0
1001
ACAD
1000
AcDbSavedByObjectVersion
1070
     0
  0
VISUALSTYLE
  5
36
102
{ACAD_XDICTIONARY
360
325
102
}
102
{ACAD_REACTORS
330
2A
102
}
330
2A
100
AcDbVisualStyle
  2
Brighten
 70
    12
 71
     2
 72
     2
 73
     0
 90
        0
 40
-0.6
 41
-30.0
 62
     5
 63
     7
 74
     1
 91
        4
 64
     7
 65
   257
 75
     1
175
     1
 42
1.0
 92
        8
 66
     7
 43
1.0
 76
     1
 77
     6
 78
     2
 67
     7
 79
     5
170
     0
171
     0
290
     0
174
     0
 93
        1
 44
50.0
173
     0
291
     1
 45
0.0
1001
ACAD
1000
AcDbSavedByObjectVersion
1070
     0
  0
VISUALSTYLE
  5
3A
102
{ACAD_XDICTIONARY
360
32D
102
}
102
{ACAD_REACTORS
330
2A
102
}
330
2A
100
AcDbVisualStyle
  2
ColorChange
 70
    16
 71
     2
 72
     2
 73
     3
 90
        0
 40
-0.6
 41
-30.0
 62
     5
 63
     8
 74
     1
 91
        4
 64
     7
 65
   257
 75
     1
175
     1
 42
1.0
 92
        8
 66
     8
 43
1.0
 76
     1
 77
     6
 78
     2
 67
     7
 79
     5
170
     0
171
     0
290
     0
174
     0
 93
        1
 44
0.0
173
     0
291
     1
 45
0.0
1001
ACAD
1000
AcDbSavedByObjectVersion
1070
     0
  0
VISUALSTYLE
  5
34
102
{ACAD_XDICTIONARY
360
321
102
}
102
{ACAD_REACTORS
330
2A
102
}
330
2A
100
AcDbVisualStyle
  2
Conceptual
 70
     9
 71
     3
 72
     2
 73
     0
 90
        0
 40
-0.6
 41
-30.0
 62
     5
 63
     7
 74
     2
 91
        2
 64
     7
 65
   257
 75
     1
175
     1
 42
40.0
 92
        8
 66
     7
 43
1.0
 76
     1
 77
     6
 78
     2
 67
     7
 79
     3
170
     0
171
     0
290
     0
174
     0
 93
        1
 44
0.0
173
     0
291
     0
 45
0.0
1001
ACAD
1000
AcDbSavedByObjectVersion
1070
     0
  0
VISUALSTYLE
  5
35
102
{ACAD_XDICTIONARY
360
323
102
}
102
{ACAD_REACTORS
330
2A
102
}
330
2A
100
AcDbVisualStyle
  2
Dim
 70
    11
 71
     2
 72
     2
 73
     0
 90
        0
 40
-0.6
 41
-30.0
 62
     5
 63
     7
 74
     1
 91
        4
 64
     7
 65
   257
 75
     1
175
     1
 42
1.0
 92
        8
 66
     7
 43
1.0
 76
     1
 77
     6
 78
     2
 67
     7
 79
     5
170
     0
171
     0
290
     0
174
     0
 93
        1
 44
-50.0
173
     0
291
     1
 45
0.0
1001
ACAD
1000
AcDbSavedByObjectVersion
1070
     0
  0
VISUALSTYLE
  5
227
102
{ACAD_XDICTIONARY
360
347
102
}
102
{ACAD_REACTORS
330
2A
102
}
330
2A
100
AcDbVisualStyle
  2
EdgeColorOff
 70
    22
 71
     2
 72
     2
 73
     0
 90
        0
 40
-0.6
 41
-30.0
 62
     5
 63
     7
 74
     1
 91
        4
 64
     7
 65
   257
 75
     1
175
     1
 42
1.0
 92
        8
 66
     7
 43
1.0
 76
     1
 77
     6
 78
     2
 67
     7
 79
     5
170
     0
171
     0
290
     0
174
     0
 93
        1
 44
0.0
173
     0
291
     1
 45
0.0
1001
ACAD
1000
AcDbSavedByObjectVersion
1070
     0
  0
VISUALSTYLE
  5
39
102
{ACAD_XDICTIONARY
360
32B
102
}
102
{ACAD_REACTORS
330
2A
102
}
330
2A
100
AcDbVisualStyle
  2
Facepattern
 70
    15
 71
     2
 72
     2
 73
     0
 90
        0
 40
-0.6
 41
-30.0
 62
     5
 63
     7
 74
     1
 91
        4
 64
     7
 65
   257
 75
     1
175
     1
 42
1.0
 92
        8
 66
     7
 43
1.0
 76
     1
 77
     6
 78
     2
 67
     7
 79
     5
170
     0
171
     0
290
     0
174
     0
 93
        1
 44
0.0
173
     0
291
     1
 45
0.0
1001
ACAD
1000
AcDbSavedByObjectVersion
1070
     0
  0
VISUALSTYLE
  5
2B
102
{ACAD_XDICTIONARY
360
30F
102
}
102
{ACAD_REACTORS
330
2A
102
}
330
2A
100
AcDbVisualStyle
  2
Flat
 70
     0
 71
     2
 72
     1
 73
     1
 90
        2
 40
-0.6
 41
30.0
 62
     5
 63
     7
 74
     0
 91
        4
 64
     7
 65
   257
 75
     1
175
     1
 42
1.0
 92
        8
 66
     7
 43
1.0
 76
     1
 77
     6
 78
     2
 67
     7
 79
     5
170
     0
171
     0
290
     0
174
     0
 93
       13
 44
0.0
173
     0
291
     1
 45
0.0
1001
ACAD
1000
AcDbSavedByObjectVersion
1070
     0
  0
VISUALSTYLE
  5
2C
102
{ACAD_XDICTIONARY
360
311
102
}
102
{ACAD_REACTORS
330
2A
102
}
330
2A
100
AcDbVisualStyle
  2
FlatWithEdges
 70
     1
 71
     2
 72
     1
 73
     1
 90
        2
 40
-0.6
 41
30.0
 62
     5
 63
     7
 74
     1
 91
        4
 64
     7
 65
   257
 75
     1
175
     1
 42
1.0
 92
        0
 66
   257
 43
1.0
 76
     1
 77
     6
 78
     2
 67
     7
 79
     5
170
     0
171
     0
290
     0
174
     0
 93
       13
 44
0.0
173
     0
291
     1
 45
0.0
1001
ACAD
1000
AcDbSavedByObjectVersion
1070
     0
  0
VISUALSTYLE
  5
2D
102
{ACAD_XDICTIONARY
360
313
102
}
102
{ACAD_REACTORS
330
2A
102
}
330
2A
100
AcDbVisualStyle
  2
Gouraud
 70
     2
 71
     2
 72
     2
 73
     1
 90
        2
 40
-0.6
 41
30.0
 62
     5
 63
     7
 74
     0
 91
        4
 64
     7
 65
   257
 75
     1
175
     1
 42
1.0
 92
        0
 66
     7
 43
1.0
 76
     1
 77
     6
 78
     2
 67
     7
 79
     5
170
     0
171
     0
290
     0
174
     0
 93
       13
 44
0.0
173
     0
291
     1
 45
0.0
1001
ACAD
1000
AcDbSavedByObjectVersion
1070
     0
  0
VISUALSTYLE
  5
2E
102
{ACAD_XDICTIONARY
360
315
102
}
102
{ACAD_REACTORS
330
2A
102
}
330
2A
100
AcDbVisualStyle
  2
GouraudWithEdges
 70
     3
 71
     2
 72
     2
 73
     1
 90
        2
 40
-0.6
 41
30.0
 62
     5
 63
     7
 74
     1
 91
        4
 64
     7
 65
   257
 75
     1
175
     1
 42
1.0
 92
        0
 66
   257
 43
1.0
 76
     1
 77
     6
 78
     2
 67
     7
 79
     5
170
     0
171
     0
290
     0
174
     0
 93
       13
 44
0.0
173
     0
291
     1
 45
0.0
1001
ACAD
1000
AcDbSavedByObjectVersion
1070
     0
  0
VISUALSTYLE
  5
21F
102
{ACAD_XDICTIONARY
360
337
102
}
102
{ACAD_REACTORS
330
2A
102
}
330
2A
100
AcDbVisualStyle
  2
Hidden
 70
     6
 71
     1
 72
     2
 73
     2
 90
        0
 40
-0.6
 41
-30.0
 62
     5
 63
     7
 74
     2
 91
        2
 64
     7
 65
   257
 75
     2
175
     1
 42
40.0
 92
        0
 66
   257
 43
1.0
 76
     1
 77
     6
 78
     2
 67
     7
 79
     3
170
     0
171
     0
290
     0
174
     0
 93
        1
 44
0.0
173
     0
291
     0
 45
0.0
1001
ACAD
1000
AcDbSavedByObjectVersion
1070
     0
  0
VISUALSTYLE
  5
225
102
{ACAD_XDICTIONARY
360
343
102
}
102
{ACAD_REACTORS
330
2A
102
}
330
2A
100
AcDbVisualStyle
  2
JitterOff
 70
    20
 71
     2
 72
     2
 73
     0
 90
        0
 40
-0.6
 41
-30.0
 62
     5
 63
     7
 74
     1
 91
        4
 64
     7
 65
   257
 75
     1
175
     1
 42
1.0
 92
       10
 66
     7
 43
1.0
 76
     1
 77
     6
 78
     2
 67
     7
 79
     5
170
     0
171
     0
290
     0
174
     0
 93
        1
 44
0.0
173
     0
291
     1
 45
0.0
1001
ACAD
1000
AcDbSavedByObjectVersion
1070
     0
  0
VISUALSTYLE
  5
38
102
{ACAD_XDICTIONARY
360
329
102
}
102
{ACAD_REACTORS
330
2A
102
}
330
2A
100
AcDbVisualStyle
  2
Linepattern
 70
    14
 71
     2
 72
     2
 73
     0
 90
        0
 40
-0.6
 41
-30.0
 62
     5
 63
     7
 74
     1
 91
        4
 64
     7
 65
   257
 75
     7
175
     7
 42
1.0
 92
        8
 66
     7
 43
1.0
 76
     1
 77
     6
 78
     2
 67
     7
 79
     5
170
     0
171
     0
290
     0
174
     0
 93
        1
 44
0.0
173
     0
291
     1
 45
0.0
1001
ACAD
1000
AcDbSavedByObjectVersion
1070
     0
  0
VISUALSTYLE
  5
226
102
{ACAD_XDICTIONARY
360
345
102
}
102
{ACAD_REACTORS
330
2A
102
}
330
2A
100
AcDbVisualStyle
  2
OverhangOff
 70
    21
 71
     2
 72
     2
 73
     0
 90
        0
 40
-0.6
 41
-30.0
 62
     5
 63
     7
 74
     1
 91
        4
 64
     7
 65
   257
 75
     1
175
     1
 42
1.0
 92
        9
 66
     7
 43
1.0
 76
     1
 77
     6
 78
     2
 67
     7
 79
     5
170
     0
171
     0
290
     0
174
     0
 93
        1
 44
0.0
173
     0
291
     1
 45
0.0
1001
ACAD
1000
AcDbSavedByObjectVersion
1070
     0
  0
VISUALSTYLE
  5
33
102
{ACAD_XDICTIONARY
360
31F
102
}
102
{ACAD_REACTORS
330
2A
102
}
330
2A
100
AcDbVisualStyle
  2
Realistic
 70
     8
 71
     2
 72
     2
 73
     0
 90
        0
 40
-0.6
 41
-30.0
 62
     5
 63
     7
 74
     1
 91
        0
 64
     7
 65
   257
 75
     1
175
     1
 42
1.0
 92
        8
 66
     8
 43
1.0
 76
     1
 77
     6
 78
     2
 67
     7
 79
     5
170
     0
171
     0
290
     0
174
     0
 93
       13
 44
0.0
173
     0
291
     0
 45
0.0
1001
ACAD
1000
AcDbSavedByObjectVersion
1070
     0
  0
VISUALSTYLE
  5
224
102
{ACAD_XDICTIONARY
360
341
102
}
102
{ACAD_REACTORS
330
2A
102
}
330
2A
100
AcDbVisualStyle
  2
Shaded
 70
    27
 71
     2
 72
     2
 73
     1
 90
        2
 40
-0.6
 41
30.0
 62
     5
 63
     7
 74
     0
 91
        4
 64
     7
 65
   257
 75
     1
175
     1
 42
1.0
 92
        8
 66
   257
 43
1.0
 76
     1
 77
     6
 78
     2
 67
     8
 79
     3
170
     0
171
     0
290
     0
174
     0
 93
        5
 44
0.0
173
     0
291
     0
 45
0.0
1001
ACAD
1000
AcDbSavedByObjectVersion
1070
     0
  0
VISUALSTYLE
  5
223
102
{ACAD_XDICTIONARY
360
33F
102
}
102
{ACAD_REACTORS
330
2A
102
}
330
2A
100
AcDbVisualStyle
  2
Shaded with edges
 70
    26
 71
     2
 72
     2
 73
     1
 90
        2
 40
-0.6
 41
30.0
 62
     5
 63
     7
 74
     1
 91
       10
 64
     7
 65
   257
 75
     2
175
     1
 42
1.0
 92
        8
 66
   257
 43
1.0
 76
     1
 77
     6
 78
     2
 67
     7
 79
     3
170
     0
171
     0
290
     0
174
     0
 93
        5
 44
0.0
173
     0
291
     0
 45
0.0
1001
ACAD
1000
AcDbSavedByObjectVersion
1070
     0
  0
VISUALSTYLE
  5
220
102
{ACAD_XDICTIONARY
360
339
102
}
102
{ACAD_REACTORS
330
2A
102
}
330
2A
100
AcDbVisualStyle
  2
Shades of Gray
 70
    23
 71
     2
 72
     2
 73
     3
 90
        0
 40
-0.6
 41
-30.0
 62
     5
 63
     7
 74
     2
 91
        2
 64
     7
 65
     7
 75
     1
175
     1
 42
40.0
 92
        8
 66
     7
 43
1.0
 76
     1
 77
     6
 78
     2
 67
     7
 79
     3
170
     0
171
     0
290
     0
174
     0
 93
        1
 44
0.0
173
     0
291
     0
 45
0.0
1001
ACAD
1000
AcDbSavedByObjectVersion
1070
     0
  0
VISUALSTYLE
  5
221
102
{ACAD_XDICTIONARY
360
33B
102
}
102
{ACAD_REACTORS
330
2A
102
}
330
2A
100
AcDbVisualStyle
  2
Sketchy
 70
    24
 71
     1
 72
     2
 73
     2
 90
        0
 40
-0.6
 41
-30.0
 62
     5
 63
     7
 74
     2
 91
        2
 64
     7
 65
     7
 75
     1
175
     1
 42
40.0
 92
       11
 66
     7
 43
1.0
 76
     1
 77
     6
 78
     2
 67
     7
 79
     6
170
     0
171
     0
290
     0
174
     0
 93
        1
 44
0.0
173
     0
291
     0
 45
0.0
1001
ACAD
1000
AcDbSavedByObjectVersion
1070
     0
  0
VISUALSTYLE
  5
37
102
{ACAD_XDICTIONARY
360
327
102
}
102
{ACAD_REACTORS
330
2A
102
}
330
2A
100
AcDbVisualStyle
  2
Thicken
 70
    13
 71
     2
 72
     2
 73
     0
 90
        0
 40
-0.6
 41
-30.0
 62
     5
 63
     7
 74
     1
 91
        4
 64
     7
 65
   257
 75
     1
175
     1
 42
1.0
 92
       12
 66
     7
 43
1.0
 76
     1
 77
     6
 78
     2
 67
     7
 79
     5
170
     0
171
     0
290
     0
174
     0
 93
        1
 44
0.0
173
     0
291
     1
 45
0.0
1001
ACAD
1000
AcDbSavedByObjectVersion
1070
     0
  0
VISUALSTYLE
  5
21E
102
{ACAD_XDICTIONARY
360
335
102
}
102
{ACAD_REACTORS
330
2A
102
}
330
2A
100
AcDbVisualStyle
  2
Wireframe
 70
     5
 71
     0
 72
     2
 73
     0
 90
        0
 40
-0.6
 41
-30.0
 62
     5
 63
     7
 74
     1
 91
        4
 64
     7
 65
   257
 75
     1
175
     1
 42
1.0
 92
        0
 66
   257
 43
1.0
 76
     1
 77
     6
 78
     2
 67
     7
 79
     3
170
     0
171
     0
290
     0
174
     0
 93
        1
 44
0.0
173
     0
291
     0
 45
0.0
1001
ACAD
1000
AcDbSavedByObjectVersion
1070
     0
  0
VISUALSTYLE
  5
222
102
{ACAD_XDICTIONARY
360
33D
102
}
102
{ACAD_REACTORS
330
2A
102
}
330
2A
100
AcDbVisualStyle
  2
X-Ray
 70
    25
 71
     2
 72
     2
 73
     1
 90
        1
 40
0.5
 41
-30.0
 62
     5
 63
     7
 74
     1
 91
        0
 64
     7
 65
   257
 75
     1
175
     1
 42
1.0
 92
        8
 66
     7
 43
1.0
 76
     1
 77
     6
 78
     2
 67
     7
 79
     3
170
     0
171
     0
290
     0
174
     0
 93
       13
 44
0.0
173
     0
291
     0
 45
0.0
1001
ACAD
1000
AcDbSavedByObjectVersion
1070
     0
  0
DICTIONARYVAR
  5
2FD
102
{ACAD_REACTORS
330
2FA
102
}
330
2FA
100
DictionaryVariables
280
     0
  1
1:1
  0
DICTIONARYVAR
  5
2FC
102
{ACAD_REACTORS
330
2FA
102
}
330
2FA
100
DictionaryVariables
280
     0
  1
STANDARD
  0
DICTIONARYVAR
  5
2FB
102
{ACAD_REACTORS
330
2FA
102
}
330
2FA
100
DictionaryVariables
280
     0
  1
STANDARD
  0
DICTIONARYVAR
  5
302
102
{ACAD_REACTORS
330
2FA
102
}
330
2FA
100
DictionaryVariables
280
     0
  1
2
  0
DICTIONARYVAR
  5
300
102
{ACAD_REACTORS
330
2FA
102
}
330
2FA
100
DictionaryVariables
280
     0
  1
1
  0
DICTIONARYVAR
  5
2FF
102
{ACAD_REACTORS
330
2FA
102
}
330
2FA
100
DictionaryVariables
280
     0
  1
0
  0
DICTIONARYVAR
  5
2FE
102
{ACAD_REACTORS
330
2FA
102
}
330
2FA
100
DictionaryVariables
280
     0
  1
127
  0
DICTIONARYVAR
  5
301
102
{ACAD_REACTORS
330
2FA
102
}
330
2FA
100
DictionaryVariables
280
     0
  1
0
  0
DICTIONARY
  5
309
330
1E
100
AcDbDictionary
280
     1
281
     1
  3
ACAD_XREC_ROUNDTRIP
360
30A
  0
DICTIONARY
  5
30D
330
26
100
AcDbDictionary
280
     1
281
     1
  3
ACAD_XREC_ROUNDTRIP
360
30E
  0
DICTIONARY
  5
30B
330
22
100
AcDbDictionary
280
     1
281
     1
  3
ACAD_XREC_ROUNDTRIP
360
30C
  0
DICTIONARY
  5
331
330
3D
100
AcDbDictionary
280
     1
281
     1
  3
ACAD_XREC_ROUNDTRIP
360
332
  0
DICTIONARY
  5
32F
330
3C
100
AcDbDictionary
280
     1
281
     1
  3
ACAD_XREC_ROUNDTRIP
360
330
  0
DICTIONARY
  5
333
330
3E
100
AcDbDictionary
280
     1
281
     1
  3
ACAD_XREC_ROUNDTRIP
360
334
  0
DICTIONARY
  5
305
330
23C
100
AcDbDictionary
280
     1
281
     1
  3
ACAD_XREC_ROUNDTRIP
360
306
  0
DICTIONARY
  5
303
330
229
100
AcDbDictionary
280
     1
281
     1
  3
ACAD_ROUNDTRIP_2008_TABLESTYLE_CELLSTYLEMAP
360
304
  3
ACAD_XREC_ROUNDTRIP
360
349
  0
DICTIONARY
  5
317
330
2F
100
AcDbDictionary
280
     1
281
     1
  3
ACAD_XREC_ROUNDTRIP
360
318
  0
DICTIONARY
  5
31B
330
31
100
AcDbDictionary
280
     1
281
     1
  3
ACAD_XREC_ROUNDTRIP
360
31C
  0
DICTIONARY
  5
319
330
30
100
AcDbDictionary
280
     1
281
     1
  3
ACAD_XREC_ROUNDTRIP
360
31A
  0
DICTIONARY
  5
31D
330
32
100
AcDbDictionary
280
     1
281
     1
  3
ACAD_XREC_ROUNDTRIP
360
31E
  0
DICTIONARY
  5
325
330
36
100
AcDbDictionary
280
     1
281
     1
  3
ACAD_XREC_ROUNDTRIP
360
326
  0
DICTIONARY
  5
32D
330
3A
100
AcDbDictionary
280
     1
281
     1
  3
ACAD_XREC_ROUNDTRIP
360
32E
  0
DICTIONARY
  5
321
330
34
100
AcDbDictionary
280
     1
281
     1
  3
ACAD_XREC_ROUNDTRIP
360
322
  0
DICTIONARY
  5
323
330
35
100
AcDbDictionary
280
     1
281
     1
  3
ACAD_XREC_ROUNDTRIP
360
324
  0
DICTIONARY
  5
347
330
227
100
AcDbDictionary
280
     1
281
     1
  3
ACAD_XREC_ROUNDTRIP
360
348
  0
DICTIONARY
  5
32B
330
39
100
AcDbDictionary
280
     1
281
     1
  3
ACAD_XREC_ROUNDTRIP
360
32C
  0
DICTIONARY
  5
30F
330
2B
100
AcDbDictionary
280
     1
281
     1
  3
ACAD_XREC_ROUNDTRIP
360
310
  0
DICTIONARY
  5
311
330
2C
100
AcDbDictionary
280
     1
281
     1
  3
ACAD_XREC_ROUNDTRIP
360
312
  0
DICTIONARY
  5
313
330
2D
100
AcDbDictionary
280
     1
281
     1
  3
ACAD_XREC_ROUNDTRIP
360
314
  0
DICTIONARY
  5
315
330
2E
100
AcDbDictionary
280
     1
281
     1
  3
ACAD_XREC_ROUNDTRIP
360
316
  0
DICTIONARY
  5
337
330
21F
100
AcDbDictionary
280
     1
281
     1
  3
ACAD_XREC_ROUNDTRIP
360
338
  0
DICTIONARY
  5
343
330
225
100
AcDbDictionary
280
     1
281
     1
  3
ACAD_XREC_ROUNDTRIP
360
344
  0
DICTIONARY
  5
329
330
38
100
AcDbDictionary
280
     1
281
     1
  3
ACAD_XREC_ROUNDTRIP
360
32A
  0
DICTIONARY
  5
345
330
226
100
AcDbDictionary
280
     1
281
     1
  3
ACAD_XREC_ROUNDTRIP
360
346
  0
DICTIONARY
  5
31F
330
33
100
AcDbDictionary
280
     1
281
     1
  3
ACAD_XREC_ROUNDTRIP
360
320
  0
DICTIONARY
  5
341
330
224
100
AcDbDictionary
280
     1
281
     1
  3
ACAD_XREC_ROUNDTRIP
360
342
  0
DICTIONARY
  5
33F
330
223
100
AcDbDictionary
280
     1
281
     1
  3
ACAD_XREC_ROUNDTRIP
360
340
  0
DICTIONARY
  5
339
330
220
100
AcDbDictionary
280
     1
281
     1
  3
ACAD_XREC_ROUNDTRIP
360
33A
  0
DICTIONARY
  5
33B
330
221
100
AcDbDictionary
280
     1
281
     1
  3
ACAD_XREC_ROUNDTRIP
360
33C
  0
DICTIONARY
  5
327
330
37
100
AcDbDictionary
280
     1
281
     1
  3
ACAD_XREC_ROUNDTRIP
360
328
  0
DICTIONARY
  5
335
330
21E
100
AcDbDictionary
280
     1
281
     1
  3
ACAD_XREC_ROUNDTRIP
360
336
  0
DICTIONARY
  5
33D
330
222
100
AcDbDictionary
280
     1
281
     1
  3
ACAD_XREC_ROUNDTRIP
360
33E
  0
XRECORD
  5
30A
102
{ACAD_REACTORS
330
309
102
}
330
309
100
AcDbXrecord
280
     1
102
SHADEPLOT
 70
     0
102
SHADEPLOTRESLEVEL
 70
     2
102
SHADEPLOTCUSTOMDPI
 70
   300
  0
XRECORD
  5
30E
102
{ACAD_REACTORS
330
30D
102
}
330
30D
100
AcDbXrecord
280
     1
102
SHADEPLOT
 70
     0
102
SHADEPLOTRESLEVEL
 70
     2
102
SHADEPLOTCUSTOMDPI
 70
   300
  0
XRECORD
  5
30C
102
{ACAD_REACTORS
330
30B
102
}
330
30B
100
AcDbXrecord
280
     1
102
SHADEPLOT
 70
     0
102
SHADEPLOTRESLEVEL
 70
     2
102
SHADEPLOTCUSTOMDPI
 70
   300
  0
XRECORD
  5
332
102
{ACAD_REACTORS
330
331
102
}
330
331
100
AcDbXrecord
280
     1
102
MATERIAL
148
0.0
149
0.0
149
0.0
 93
        0
 94
      127
282
     0
 72
     1
 77
     1
171
     1
175
     1
179
     1
273
     0
  0
XRECORD
  5
330
102
{ACAD_REACTORS
330
32F
102
}
330
32F
100
AcDbXrecord
280
     1
102
MATERIAL
148
0.0
149
0.0
149
0.0
 93
        0
 94
      127
282
     0
 72
     1
 77
     1
171
     1
175
     1
179
     1
273
     0
  0
XRECORD
  5
334
102
{ACAD_REACTORS
330
333
102
}
330
333
100
AcDbXrecord
280
     1
102
MATERIAL
148
0.0
149
0.0
149
0.0
 93
        0
 94
      127
282
     0
 72
     1
 77
     1
171
     1
175
     1
179
     1
273
     0
  0
XRECORD
  5
306
102
{ACAD_REACTORS
330
305
102
}
330
305
100
AcDbXrecord
280
     1
102
ACAD_ROUNDTRIP_2012_MLEADER_STYLE
298
     1
  0
CELLSTYLEMAP
  5
304
102
{ACAD_REACTORS
330
303
102
}
330
303
100
AcDbCellStyleMap
 90
        3
300
CELLSTYLE
  1
TABLEFORMAT_BEGIN
 90
        5
170
     1
 91
        0
 92
    32768
 62
   257
 93
        1
300
CONTENTFORMAT
  1
CONTENTFORMAT_BEGIN
 90
        0
 91
        0
 92
      512
 93
        0
300

 40
0.0
140
1.0
 94
        5
 62
     0
340
11
144
0.25
309
CONTENTFORMAT_END
171
     0
 94
        0
309
TABLEFORMAT_END
  1
CELLSTYLE_BEGIN
 90
        1
 91
        1
300
_TITLE
309
CELLSTYLE_END
300
CELLSTYLE
  1
TABLEFORMAT_BEGIN
 90
        5
170
     1
 91
        0
 92
        0
 62
   257
 93
        1
300
CONTENTFORMAT
  1
CONTENTFORMAT_BEGIN
 90
        0
 91
        0
 92
      512
 93
        0
300

 40
0.0
140
1.0
 94
        5
 62
     0
340
11
144
0.18
309
CONTENTFORMAT_END
171
     0
 94
        0
309
TABLEFORMAT_END
  1
CELLSTYLE_BEGIN
 90
        2
 91
        1
300
_HEADER
309
CELLSTYLE_END
300
CELLSTYLE
  1
TABLEFORMAT_BEGIN
 90
        5
170
     1
 91
        0
 92
        0
 62
   257
 93
        1
300
CONTENTFORMAT
  1
CONTENTFORMAT_BEGIN
 90
        0
 91
        0
 92
      512
 93
        0
300

 40
0.0
140
1.0
 94
        2
 62
     0
340
11
144
0.18
309
CONTENTFORMAT_END
171
     0
 94
        0
309
TABLEFORMAT_END
  1
CELLSTYLE_BEGIN
 90
        3
 91
        2
300
_DATA
309
CELLSTYLE_END
  0
XRECORD
  5
349
102
{ACAD_REACTORS
330
303
102
}
330
303
100
AcDbXrecord
280
     1
102
ACAD_ROUNDTRIP_PRE2007_TABLESTYLE
 90
      512
 91
        0
  1

 92
      512
 93
        0
  2

 94
      512
 95
        0
  3

  0
XRECORD
  5
318
102
{ACAD_REACTORS
330
317
102
}
330
317
100
AcDbXrecord
280
     1
102
RTVSPropertyOp0
 70
     1
102
RTVSPropertyOp1
 70
     1
102
RTVSPropertyOp2
 70
     1
102
RTVSPropertyOp3
 70
     1
102
RTVSPropertyOp4
 70
     1
102
RTVSPropertyOp5
 70
     1
102
RTVSPropertyOp6
 70
     1
102
RTVSPropertyOp7
 70
     1
102
RTVSPropertyOp8
 70
     1
102
RTVSPropertyOp9
 70
     1
102
RTVSPropertyOp10
 70
     1
102
RTVSPropertyOp11
 70
     1
102
RTVSPropertyOp12
 70
     1
102
RTVSPropertyOp13
 70
     1
102
RTVSPropertyOp14
 70
     1
102
RTVSPropertyOp15
 70
     1
102
RTVSPropertyOp16
 70
     1
102
RTVSPropertyOp17
 70
     1
102
RTVSPropertyOp18
 70
     1
102
RTVSPropertyOp19
 70
     1
102
RTVSPropertyOp20
 70
     1
102
RTVSPropertyOp21
 70
     1
102
RTVSPropertyOp22
 70
     1
102
RTVSPropertyOp23
 70
     1
102
RTVSPropertyOp24
 70
     1
102
RTVSPropertyOp25
 70
     1
102
RTVSPropertyOp26
 70
     1
102
RTVSPropertyOp27
 70
     1
102
RTVSPropertyOp28
 70
     1
102
RTVSPropertyOp29
 70
     1
102
RTVSPropertyOp30
 70
     1
102
RTVSPropertyOp31
 70
     1
102
RTVSPropertyOp32
 70
     1
  0
XRECORD
  5
31C
102
{ACAD_REACTORS
330
31B
102
}
330
31B
100
AcDbXrecord
280
     1
102
RTVSPropertyOp0
 70
     1
102
RTVSPropertyOp1
 70
     1
102
RTVSPropertyOp2
 70
     1
102
RTVSPropertyOp3
 70
     1
102
RTVSPropertyOp4
 70
     1
102
RTVSPropertyOp5
 70
     1
102
RTVSPropertyOp6
 70
     1
102
RTVSPropertyOp7
 70
     1
102
RTVSPropertyOp8
 70
     1
102
RTVSPropertyOp9
 70
     1
102
RTVSPropertyOp10
 70
     1
102
RTVSPropertyOp11
 70
     1
102
RTVSPropertyOp12
 70
     1
102
RTVSPropertyOp13
 70
     1
102
RTVSPropertyOp14
 70
     1
102
RTVSPropertyOp15
 70
     1
102
RTVSPropertyOp16
 70
     1
102
RTVSPropertyOp17
 70
     1
102
RTVSPropertyOp18
 70
     1
102
RTVSPropertyOp19
 70
     1
102
RTVSPropertyOp20
 70
     1
102
RTVSPropertyOp21
 70
     1
102
RTVSPropertyOp22
 70
     1
102
RTVSPropertyOp23
 70
     1
102
RTVSPropertyOp24
 70
     1
102
RTVSPropertyOp25
 70
     1
102
RTVSPropertyOp26
 70
     1
102
RTVSPropertyOp27
 70
     1
102
RTVSPropertyOp28
 70
     1
102
RTVSPropertyOp29
 70
     1
102
RTVSPropertyOp30
 70
     1
102
RTVSPropertyOp31
 70
     1
102
RTVSPropertyOp32
 70
     1
  0
XRECORD
  5
31A
102
{ACAD_REACTORS
330
319
102
}
330
319
100
AcDbXrecord
280
     1
102
RTVSPropertyOp0
 70
     1
102
RTVSPropertyOp1
 70
     1
102
RTVSPropertyOp2
 70
     1
102
RTVSPropertyOp3
 70
     1
102
RTVSPropertyOp4
 70
     1
102
RTVSPropertyOp5
 70
     1
102
RTVSPropertyOp6
 70
     1
102
RTVSPropertyOp7
 70
     1
102
RTVSPropertyOp8
 70
     1
102
RTVSPropertyOp9
 70
     1
102
RTVSPropertyOp10
 70
     1
102
RTVSPropertyOp11
 70
     1
102
RTVSPropertyOp12
 70
     1
102
RTVSPropertyOp13
 70
     1
102
RTVSPropertyOp14
 70
     1
102
RTVSPropertyOp15
 70
     1
102
RTVSPropertyOp16
 70
     1
102
RTVSPropertyOp17
 70
     1
102
RTVSPropertyOp18
 70
     1
102
RTVSPropertyOp19
 70
     1
102
RTVSPropertyOp20
 70
     1
102
RTVSPropertyOp21
 70
     1
102
RTVSPropertyOp22
 70
     1
102
RTVSPropertyOp23
 70
     1
102
RTVSPropertyOp24
 70
     1
102
RTVSPropertyOp25
 70
     1
102
RTVSPropertyOp26
 70
     1
102
RTVSPropertyOp27
 70
     1
102
RTVSPropertyOp28
 70
     1
102
RTVSPropertyOp29
 70
     1
102
RTVSPropertyOp30
 70
     1
102
RTVSPropertyOp31
 70
     1
102
RTVSPropertyOp32
 70
     1
  0
XRECORD
  5
31E
102
{ACAD_REACTORS
330
31D
102
}
330
31D
100
AcDbXrecord
280
     1
102
RTVSPropertyOp0
 70
     1
102
RTVSPropertyOp1
 70
     1
102
RTVSPropertyOp2
 70
     1
102
RTVSPropertyOp3
 70
     1
102
RTVSPropertyOp4
 70
     1
102
RTVSPropertyOp5
 70
     1
102
RTVSPropertyOp6
 70
     1
102
RTVSPropertyOp7
 70
     1
102
RTVSPropertyOp8
 70
     1
102
RTVSPropertyOp9
 70
     1
102
RTVSPropertyOp10
 70
     1
102
RTVSPropertyOp11
 70
     1
102
RTVSPropertyOp12
 70
     1
102
RTVSPropertyOp13
 70
     1
102
RTVSPropertyOp14
 70
     1
102
RTVSPropertyOp15
 70
     1
102
RTVSPropertyOp16
 70
     1
102
RTVSPropertyOp17
 70
     1
102
RTVSPropertyOp18
 70
     1
102
RTVSPropertyOp19
 70
     1
102
RTVSPropertyOp20
 70
     1
102
RTVSPropertyOp21
 70
     1
102
RTVSPropertyOp22
 70
     1
102
RTVSPropertyOp23
 70
     1
102
RTVSPropertyOp24
 70
     1
102
RTVSPropertyOp25
 70
     1
102
RTVSPropertyOp26
 70
     1
102
RTVSPropertyOp27
 70
     1
102
RTVSPropertyOp28
 70
     1
102
RTVSPropertyOp29
 70
     1
102
RTVSPropertyOp30
 70
     1
102
RTVSPropertyOp31
 70
     1
102
RTVSPropertyOp32
 70
     1
  0
XRECORD
  5
326
102
{ACAD_REACTORS
330
325
102
}
330
325
100
AcDbXrecord
280
     1
102
RTVSPropertyOp0
 70
     1
102
RTVSPropertyOp1
 70
     1
102
RTVSPropertyOp2
 70
     1
102
RTVSPropertyOp3
 70
     1
102
RTVSPropertyOp4
 70
     1
102
RTVSPropertyOp5
 70
     1
102
RTVSPropertyOp6
 70
     1
102
RTVSPropertyOp7
 70
     1
102
RTVSPropertyOp8
 70
     1
102
RTVSPropertyOp9
 70
     1
102
RTVSPropertyOp10
 70
     1
102
RTVSPropertyOp11
 70
     1
102
RTVSPropertyOp12
 70
     1
102
RTVSPropertyOp13
 70
     1
102
RTVSPropertyOp14
 70
     1
102
RTVSPropertyOp15
 70
     1
102
RTVSPropertyOp16
 70
     1
102
RTVSPropertyOp17
 70
     1
102
RTVSPropertyOp18
 70
     1
102
RTVSPropertyOp19
 70
     1
102
RTVSPropertyOp20
 70
     1
102
RTVSPropertyOp21
 70
     1
102
RTVSPropertyOp22
 70
     1
102
RTVSPropertyOp23
 70
     1
102
RTVSPropertyOp24
 70
     1
102
RTVSPropertyOp25
 70
     1
102
RTVSPropertyOp26
 70
     1
102
RTVSPropertyOp27
 70
     1
102
RTVSPropertyOp28
 70
     1
102
RTVSPropertyOp29
 70
     1
102
RTVSPropertyOp30
 70
     1
102
RTVSPropertyOp31
 70
     1
102
RTVSPropertyOp32
 70
     1
  0
XRECORD
  5
32E
102
{ACAD_REACTORS
330
32D
102
}
330
32D
100
AcDbXrecord
280
     1
102
RTVSPropertyOp0
 70
     1
102
RTVSPropertyOp1
 70
     1
102
RTVSPropertyOp2
 70
     1
102
RTVSPropertyOp3
 70
     1
102
RTVSPropertyOp4
 70
     1
102
RTVSPropertyOp5
 70
     1
102
RTVSPropertyOp6
 70
     1
102
RTVSPropertyOp7
 70
     1
102
RTVSPropertyOp8
 70
     1
102
RTVSPropertyOp9
 70
     1
102
RTVSPropertyOp10
 70
     1
102
RTVSPropertyOp11
 70
     1
102
RTVSPropertyOp12
 70
     1
102
RTVSPropertyOp13
 70
     1
102
RTVSPropertyOp14
 70
     1
102
RTVSPropertyOp15
 70
     1
102
RTVSPropertyOp16
 70
     1
102
RTVSPropertyOp17
 70
     1
102
RTVSPropertyOp18
 70
     1
102
RTVSPropertyOp19
 70
     1
102
RTVSPropertyOp20
 70
     1
102
RTVSPropertyOp21
 70
     1
102
RTVSPropertyOp22
 70
     1
102
RTVSPropertyOp23
 70
     1
102
RTVSPropertyOp24
 70
     1
102
RTVSPropertyOp25
 70
     1
102
RTVSPropertyOp26
 70
     1
102
RTVSPropertyOp27
 70
     1
102
RTVSPropertyOp28
 70
     1
102
RTVSPropertyOp29
 70
     1
102
RTVSPropertyOp30
 70
     1
102
RTVSPropertyOp31
 70
     1
102
RTVSPropertyOp32
 70
     1
  0
XRECORD
  5
322
102
{ACAD_REACTORS
330
321
102
}
330
321
100
AcDbXrecord
280
     1
102
RTVSPropertyOp0
 70
     1
102
RTVSPropertyOp1
 70
     1
102
RTVSPropertyOp2
 70
     1
102
RTVSPropertyOp3
 70
     1
102
RTVSPropertyOp4
 70
     1
102
RTVSPropertyOp5
 70
     1
102
RTVSPropertyOp6
 70
     1
102
RTVSPropertyOp7
 70
     1
102
RTVSPropertyOp8
 70
     1
102
RTVSPropertyOp9
 70
     1
102
RTVSPropertyOp10
 70
     1
102
RTVSPropertyOp11
 70
     1
102
RTVSPropertyOp12
 70
     1
102
RTVSPropertyOp13
 70
     1
102
RTVSPropertyOp14
 70
     1
102
RTVSPropertyOp15
 70
     1
102
RTVSPropertyOp16
 70
     1
102
RTVSPropertyOp17
 70
     1
102
RTVSPropertyOp18
 70
     1
102
RTVSPropertyOp19
 70
     1
102
RTVSPropertyOp20
 70
     1
102
RTVSPropertyOp21
 70
     1
102
RTVSPropertyOp22
 70
     1
102
RTVSPropertyOp23
 70
     1
102
RTVSPropertyOp24
 70
     1
102
RTVSPropertyOp25
 70
     1
102
RTVSPropertyOp26
 70
     1
102
RTVSPropertyOp27
 70
     1
102
RTVSPropertyOp28
 70
     1
102
RTVSPropertyOp29
 70
     1
102
RTVSPropertyOp30
 70
     1
102
RTVSPropertyOp31
 70
     1
102
RTVSPropertyOp32
 70
     1
  0
XRECORD
  5
324
102
{ACAD_REACTORS
330
323
102
}
330
323
100
AcDbXrecord
280
     1
102
RTVSPropertyOp0
 70
     1
102
RTVSPropertyOp1
 70
     1
102
RTVSPropertyOp2
 70
     1
102
RTVSPropertyOp3
 70
     1
102
RTVSPropertyOp4
 70
     1
102
RTVSPropertyOp5
 70
     1
102
RTVSPropertyOp6
 70
     1
102
RTVSPropertyOp7
 70
     1
102
RTVSPropertyOp8
 70
     1
102
RTVSPropertyOp9
 70
     1
102
RTVSPropertyOp10
 70
     1
102
RTVSPropertyOp11
 70
     1
102
RTVSPropertyOp12
 70
     1
102
RTVSPropertyOp13
 70
     1
102
RTVSPropertyOp14
 70
     1
102
RTVSPropertyOp15
 70
     1
102
RTVSPropertyOp16
 70
     1
102
RTVSPropertyOp17
 70
     1
102
RTVSPropertyOp18
 70
     1
102
RTVSPropertyOp19
 70
     1
102
RTVSPropertyOp20
 70
     1
102
RTVSPropertyOp21
 70
     1
102
RTVSPropertyOp22
 70
     1
102
RTVSPropertyOp23
 70
     1
102
RTVSPropertyOp24
 70
     1
102
RTVSPropertyOp25
 70
     1
102
RTVSPropertyOp26
 70
     1
102
RTVSPropertyOp27
 70
     1
102
RTVSPropertyOp28
 70
     1
102
RTVSPropertyOp29
 70
     1
102
RTVSPropertyOp30
 70
     1
102
RTVSPropertyOp31
 70
     1
102
RTVSPropertyOp32
 70
     1
  0
XRECORD
  5
348
102
{ACAD_REACTORS
330
347
102
}
330
347
100
AcDbXrecord
280
     1
102
RTVSPropertyOp0
 70
     0
102
RTVSPropertyOp1
 70
     0
102
RTVSPropertyOp2
 70
     0
102
RTVSPropertyOp3
 70
     0
102
RTVSPropertyOp4
 70
     0
102
RTVSPropertyOp5
 70
     0
102
RTVSPropertyOp6
 70
     0
102
RTVSPropertyOp7
 70
     0
102
RTVSPropertyOp8
 70
     0
102
RTVSPropertyOp9
 70
     0
102
RTVSPropertyOp10
 70
     0
102
RTVSPropertyOp11
 70
     0
102
RTVSPropertyOp12
 70
     0
102
RTVSPropertyOp13
 70
     0
102
RTVSPropertyOp14
 70
     2
102
RTVSPropertyOp15
 70
     0
102
RTVSPropertyOp16
 70
     0
102
RTVSPropertyOp17
 70
     0
102
RTVSPropertyOp18
 70
     0
102
RTVSPropertyOp19
 70
     0
102
RTVSPropertyOp20
 70
     0
102
RTVSPropertyOp21
 70
     0
102
RTVSPropertyOp22
 70
     0
102
RTVSPropertyOp23
 70
     0
102
RTVSPropertyOp24
 70
     0
102
RTVSPropertyOp25
 70
     0
102
RTVSPropertyOp26
 70
     0
102
RTVSPropertyOp27
 70
     0
102
RTVSPropertyOp28
 70
     0
102
RTVSPropertyOp29
 70
     0
102
RTVSPropertyOp30
 70
     0
102
RTVSPropertyOp31
 70
     0
102
RTVSPropertyOp32
 70
     0
  0
XRECORD
  5
32C
102
{ACAD_REACTORS
330
32B
102
}
330
32B
100
AcDbXrecord
280
     1
102
RTVSPropertyOp0
 70
     1
102
RTVSPropertyOp1
 70
     1
102
RTVSPropertyOp2
 70
     1
102
RTVSPropertyOp3
 70
     1
102
RTVSPropertyOp4
 70
     1
102
RTVSPropertyOp5
 70
     1
102
RTVSPropertyOp6
 70
     1
102
RTVSPropertyOp7
 70
     1
102
RTVSPropertyOp8
 70
     1
102
RTVSPropertyOp9
 70
     1
102
RTVSPropertyOp10
 70
     1
102
RTVSPropertyOp11
 70
     1
102
RTVSPropertyOp12
 70
     1
102
RTVSPropertyOp13
 70
     1
102
RTVSPropertyOp14
 70
     1
102
RTVSPropertyOp15
 70
     1
102
RTVSPropertyOp16
 70
     1
102
RTVSPropertyOp17
 70
     1
102
RTVSPropertyOp18
 70
     1
102
RTVSPropertyOp19
 70
     1
102
RTVSPropertyOp20
 70
     1
102
RTVSPropertyOp21
 70
     1
102
RTVSPropertyOp22
 70
     1
102
RTVSPropertyOp23
 70
     1
102
RTVSPropertyOp24
 70
     1
102
RTVSPropertyOp25
 70
     1
102
RTVSPropertyOp26
 70
     1
102
RTVSPropertyOp27
 70
     1
102
RTVSPropertyOp28
 70
     1
102
RTVSPropertyOp29
 70
     1
102
RTVSPropertyOp30
 70
     1
102
RTVSPropertyOp31
 70
     1
102
RTVSPropertyOp32
 70
     1
  0
XRECORD
  5
310
102
{ACAD_REACTORS
330
30F
102
}
330
30F
100
AcDbXrecord
280
     1
102
RTVSPropertyOp0
 70
     1
102
RTVSPropertyOp1
 70
     1
102
RTVSPropertyOp2
 70
     1
102
RTVSPropertyOp3
 70
     1
102
RTVSPropertyOp4
 70
     1
102
RTVSPropertyOp5
 70
     1
102
RTVSPropertyOp6
 70
     1
102
RTVSPropertyOp7
 70
     1
102
RTVSPropertyOp8
 70
     1
102
RTVSPropertyOp9
 70
     1
102
RTVSPropertyOp10
 70
     1
102
RTVSPropertyOp11
 70
     1
102
RTVSPropertyOp12
 70
     1
102
RTVSPropertyOp13
 70
     1
102
RTVSPropertyOp14
 70
     1
102
RTVSPropertyOp15
 70
     1
102
RTVSPropertyOp16
 70
     1
102
RTVSPropertyOp17
 70
     1
102
RTVSPropertyOp18
 70
     1
102
RTVSPropertyOp19
 70
     1
102
RTVSPropertyOp20
 70
     1
102
RTVSPropertyOp21
 70
     1
102
RTVSPropertyOp22
 70
     1
102
RTVSPropertyOp23
 70
     1
102
RTVSPropertyOp24
 70
     1
102
RTVSPropertyOp25
 70
     1
102
RTVSPropertyOp26
 70
     1
102
RTVSPropertyOp27
 70
     1
102
RTVSPropertyOp28
 70
     1
102
RTVSPropertyOp29
 70
     1
102
RTVSPropertyOp30
 70
     1
102
RTVSPropertyOp31
 70
     1
102
RTVSPropertyOp32
 70
     1
  0
XRECORD
  5
312
102
{ACAD_REACTORS
330
311
102
}
330
311
100
AcDbXrecord
280
     1
102
RTVSPropertyOp0
 70
     1
102
RTVSPropertyOp1
 70
     1
102
RTVSPropertyOp2
 70
     1
102
RTVSPropertyOp3
 70
     1
102
RTVSPropertyOp4
 70
     1
102
RTVSPropertyOp5
 70
     1
102
RTVSPropertyOp6
 70
     1
102
RTVSPropertyOp7
 70
     1
102
RTVSPropertyOp8
 70
     1
102
RTVSPropertyOp9
 70
     1
102
RTVSPropertyOp10
 70
     1
102
RTVSPropertyOp11
 70
     1
102
RTVSPropertyOp12
 70
     1
102
RTVSPropertyOp13
 70
     1
102
RTVSPropertyOp14
 70
     1
102
RTVSPropertyOp15
 70
     1
102
RTVSPropertyOp16
 70
     1
102
RTVSPropertyOp17
 70
     1
102
RTVSPropertyOp18
 70
     1
102
RTVSPropertyOp19
 70
     1
102
RTVSPropertyOp20
 70
     1
102
RTVSPropertyOp21
 70
     1
102
RTVSPropertyOp22
 70
     1
102
RTVSPropertyOp23
 70
     1
102
RTVSPropertyOp24
 70
     1
102
RTVSPropertyOp25
 70
     1
102
RTVSPropertyOp26
 70
     1
102
RTVSPropertyOp27
 70
     1
102
RTVSPropertyOp28
 70
     1
102
RTVSPropertyOp29
 70
     1
102
RTVSPropertyOp30
 70
     1
102
RTVSPropertyOp31
 70
     1
102
RTVSPropertyOp32
 70
     1
  0
XRECORD
  5
314
102
{ACAD_REACTORS
330
313
102
}
330
313
100
AcDbXrecord
280
     1
102
RTVSPropertyOp0
 70
     1
102
RTVSPropertyOp1
 70
     1
102
RTVSPropertyOp2
 70
     1
102
RTVSPropertyOp3
 70
     1
102
RTVSPropertyOp4
 70
     1
102
RTVSPropertyOp5
 70
     1
102
RTVSPropertyOp6
 70
     1
102
RTVSPropertyOp7
 70
     1
102
RTVSPropertyOp8
 70
     1
102
RTVSPropertyOp9
 70
     1
102
RTVSPropertyOp10
 70
     1
102
RTVSPropertyOp11
 70
     1
102
RTVSPropertyOp12
 70
     1
102
RTVSPropertyOp13
 70
     1
102
RTVSPropertyOp14
 70
     1
102
RTVSPropertyOp15
 70
     1
102
RTVSPropertyOp16
 70
     1
102
RTVSPropertyOp17
 70
     1
102
RTVSPropertyOp18
 70
     1
102
RTVSPropertyOp19
 70
     1
102
RTVSPropertyOp20
 70
     1
102
RTVSPropertyOp21
 70
     1
102
RTVSPropertyOp22
 70
     1
102
RTVSPropertyOp23
 70
     1
102
RTVSPropertyOp24
 70
     1
102
RTVSPropertyOp25
 70
     1
102
RTVSPropertyOp26
 70
     1
102
RTVSPropertyOp27
 70
     1
102
RTVSPropertyOp28
 70
     1
102
RTVSPropertyOp29
 70
     1
102
RTVSPropertyOp30
 70
     1
102
RTVSPropertyOp31
 70
     1
102
RTVSPropertyOp32
 70
     1
  0
XRECORD
  5
316
102
{ACAD_REACTORS
330
315
102
}
330
315
100
AcDbXrecord
280
     1
102
RTVSPropertyOp0
 70
     1
102
RTVSPropertyOp1
 70
     1
102
RTVSPropertyOp2
 70
     1
102
RTVSPropertyOp3
 70
     1
102
RTVSPropertyOp4
 70
     1
102
RTVSPropertyOp5
 70
     1
102
RTVSPropertyOp6
 70
     1
102
RTVSPropertyOp7
 70
     1
102
RTVSPropertyOp8
 70
     1
102
RTVSPropertyOp9
 70
     1
102
RTVSPropertyOp10
 70
     1
102
RTVSPropertyOp11
 70
     1
102
RTVSPropertyOp12
 70
     1
102
RTVSPropertyOp13
 70
     1
102
RTVSPropertyOp14
 70
     1
102
RTVSPropertyOp15
 70
     1
102
RTVSPropertyOp16
 70
     1
102
RTVSPropertyOp17
 70
     1
102
RTVSPropertyOp18
 70
     1
102
RTVSPropertyOp19
 70
     1
102
RTVSPropertyOp20
 70
     1
102
RTVSPropertyOp21
 70
     1
102
RTVSPropertyOp22
 70
     1
102
RTVSPropertyOp23
 70
     1
102
RTVSPropertyOp24
 70
     1
102
RTVSPropertyOp25
 70
     1
102
RTVSPropertyOp26
 70
     1
102
RTVSPropertyOp27
 70
     1
102
RTVSPropertyOp28
 70
     1
102
RTVSPropertyOp29
 70
     1
102
RTVSPropertyOp30
 70
     1
102
RTVSPropertyOp31
 70
     1
102
RTVSPropertyOp32
 70
     1
  0
XRECORD
  5
338
102
{ACAD_REACTORS
330
337
102
}
330
337
100
AcDbXrecord
280
     1
102
RTVSPropertyOp0
 70
     1
102
RTVSPropertyOp1
 70
     1
102
RTVSPropertyOp2
 70
     1
102
RTVSPropertyOp3
 70
     1
102
RTVSPropertyOp4
 70
     1
102
RTVSPropertyOp5
 70
     1
102
RTVSPropertyOp6
 70
     1
102
RTVSPropertyOp7
 70
     1
102
RTVSPropertyOp8
 70
     1
102
RTVSPropertyOp9
 70
     1
102
RTVSPropertyOp10
 70
     1
102
RTVSPropertyOp11
 70
     1
102
RTVSPropertyOp12
 70
     1
102
RTVSPropertyOp13
 70
     1
102
RTVSPropertyOp14
 70
     1
102
RTVSPropertyOp15
 70
     1
102
RTVSPropertyOp16
 70
     1
102
RTVSPropertyOp17
 70
     1
102
RTVSPropertyOp18
 70
     1
102
RTVSPropertyOp19
 70
     1
102
RTVSPropertyOp20
 70
     1
102
RTVSPropertyOp21
 70
     1
102
RTVSPropertyOp22
 70
     1
102
RTVSPropertyOp23
 70
     1
102
RTVSPropertyOp24
 70
     1
102
RTVSPropertyOp25
 70
     1
102
RTVSPropertyOp26
 70
     1
102
RTVSPropertyOp27
 70
     1
102
RTVSPropertyOp28
 70
     1
102
RTVSPropertyOp29
 70
     1
102
RTVSPropertyOp30
 70
     1
102
RTVSPropertyOp31
 70
     1
102
RTVSPropertyOp32
 70
     1
  0
XRECORD
  5
344
102
{ACAD_REACTORS
330
343
102
}
330
343
100
AcDbXrecord
280
     1
102
RTVSPropertyOp0
 70
     0
102
RTVSPropertyOp1
 70
     0
102
RTVSPropertyOp2
 70
     0
102
RTVSPropertyOp3
 70
     0
102
RTVSPropertyOp4
 70
     0
102
RTVSPropertyOp5
 70
     0
102
RTVSPropertyOp6
 70
     0
102
RTVSPropertyOp7
 70
     0
102
RTVSPropertyOp8
 70
     0
102
RTVSPropertyOp9
 70
     0
102
RTVSPropertyOp10
 70
     0
102
RTVSPropertyOp11
 70
     0
102
RTVSPropertyOp12
 70
     0
102
RTVSPropertyOp13
 70
     0
102
RTVSPropertyOp14
 70
     2
102
RTVSPropertyOp15
 70
     0
102
RTVSPropertyOp16
 70
     0
102
RTVSPropertyOp17
 70
     0
102
RTVSPropertyOp18
 70
     0
102
RTVSPropertyOp19
 70
     0
102
RTVSPropertyOp20
 70
     0
102
RTVSPropertyOp21
 70
     0
102
RTVSPropertyOp22
 70
     0
102
RTVSPropertyOp23
 70
     0
102
RTVSPropertyOp24
 70
     0
102
RTVSPropertyOp25
 70
     0
102
RTVSPropertyOp26
 70
     0
102
RTVSPropertyOp27
 70
     0
102
RTVSPropertyOp28
 70
     0
102
RTVSPropertyOp29
 70
     0
102
RTVSPropertyOp30
 70
     0
102
RTVSPropertyOp31
 70
     0
102
RTVSPropertyOp32
 70
     0
  0
XRECORD
  5
32A
102
{ACAD_REACTORS
330
329
102
}
330
329
100
AcDbXrecord
280
     1
102
RTVSPropertyOp0
 70
     1
102
RTVSPropertyOp1
 70
     1
102
RTVSPropertyOp2
 70
     1
102
RTVSPropertyOp3
 70
     1
102
RTVSPropertyOp4
 70
     1
102
RTVSPropertyOp5
 70
     1
102
RTVSPropertyOp6
 70
     1
102
RTVSPropertyOp7
 70
     1
102
RTVSPropertyOp8
 70
     1
102
RTVSPropertyOp9
 70
     1
102
RTVSPropertyOp10
 70
     1
102
RTVSPropertyOp11
 70
     1
102
RTVSPropertyOp12
 70
     1
102
RTVSPropertyOp13
 70
     1
102
RTVSPropertyOp14
 70
     1
102
RTVSPropertyOp15
 70
     1
102
RTVSPropertyOp16
 70
     1
102
RTVSPropertyOp17
 70
     1
102
RTVSPropertyOp18
 70
     1
102
RTVSPropertyOp19
 70
     1
102
RTVSPropertyOp20
 70
     1
102
RTVSPropertyOp21
 70
     1
102
RTVSPropertyOp22
 70
     1
102
RTVSPropertyOp23
 70
     1
102
RTVSPropertyOp24
 70
     1
102
RTVSPropertyOp25
 70
     1
102
RTVSPropertyOp26
 70
     1
102
RTVSPropertyOp27
 70
     1
102
RTVSPropertyOp28
 70
     1
102
RTVSPropertyOp29
 70
     1
102
RTVSPropertyOp30
 70
     1
102
RTVSPropertyOp31
 70
     1
102
RTVSPropertyOp32
 70
     1
  0
XRECORD
  5
346
102
{ACAD_REACTORS
330
345
102
}
330
345
100
AcDbXrecord
280
     1
102
RTVSPropertyOp0
 70
     0
102
RTVSPropertyOp1
 70
     0
102
RTVSPropertyOp2
 70
     0
102
RTVSPropertyOp3
 70
     0
102
RTVSPropertyOp4
 70
     0
102
RTVSPropertyOp5
 70
     0
102
RTVSPropertyOp6
 70
     0
102
RTVSPropertyOp7
 70
     0
102
RTVSPropertyOp8
 70
     0
102
RTVSPropertyOp9
 70
     0
102
RTVSPropertyOp10
 70
     0
102
RTVSPropertyOp11
 70
     0
102
RTVSPropertyOp12
 70
     0
102
RTVSPropertyOp13
 70
     0
102
RTVSPropertyOp14
 70
     2
102
RTVSPropertyOp15
 70
     0
102
RTVSPropertyOp16
 70
     0
102
RTVSPropertyOp17
 70
     0
102
RTVSPropertyOp18
 70
     0
102
RTVSPropertyOp19
 70
     0
102
RTVSPropertyOp20
 70
     0
102
RTVSPropertyOp21
 70
     0
102
RTVSPropertyOp22
 70
     0
102
RTVSPropertyOp23
 70
     0
102
RTVSPropertyOp24
 70
     0
102
RTVSPropertyOp25
 70
     0
102
RTVSPropertyOp26
 70
     0
102
RTVSPropertyOp27
 70
     0
102
RTVSPropertyOp28
 70
     0
102
RTVSPropertyOp29
 70
     0
102
RTVSPropertyOp30
 70
     0
102
RTVSPropertyOp31
 70
     0
102
RTVSPropertyOp32
 70
     0
  0
XRECORD
  5
320
102
{ACAD_REACTORS
330
31F
102
}
330
31F
100
AcDbXrecord
280
     1
102
RTVSPropertyOp0
 70
     1
102
RTVSPropertyOp1
 70
     1
102
RTVSPropertyOp2
 70
     1
102
RTVSPropertyOp3
 70
     1
102
RTVSPropertyOp4
 70
     1
102
RTVSPropertyOp5
 70
     1
102
RTVSPropertyOp6
 70
     1
102
RTVSPropertyOp7
 70
     1
102
RTVSPropertyOp8
 70
     1
102
RTVSPropertyOp9
 70
     1
102
RTVSPropertyOp10
 70
     1
102
RTVSPropertyOp11
 70
     1
102
RTVSPropertyOp12
 70
     1
102
RTVSPropertyOp13
 70
     1
102
RTVSPropertyOp14
 70
     1
102
RTVSPropertyOp15
 70
     1
102
RTVSPropertyOp16
 70
     1
102
RTVSPropertyOp17
 70
     1
102
RTVSPropertyOp18
 70
     1
102
RTVSPropertyOp19
 70
     1
102
RTVSPropertyOp20
 70
     1
102
RTVSPropertyOp21
 70
     1
102
RTVSPropertyOp22
 70
     1
102
RTVSPropertyOp23
 70
     1
102
RTVSPropertyOp24
 70
     1
102
RTVSPropertyOp25
 70
     1
102
RTVSPropertyOp26
 70
     1
102
RTVSPropertyOp27
 70
     1
102
RTVSPropertyOp28
 70
     1
102
RTVSPropertyOp29
 70
     1
102
RTVSPropertyOp30
 70
     1
102
RTVSPropertyOp31
 70
     1
102
RTVSPropertyOp32
 70
     1
  0
XRECORD
  5
342
102
{ACAD_REACTORS
330
341
102
}
330
341
100
AcDbXrecord
280
     1
102
RTVSPropertyOp0
 70
     1
102
RTVSPropertyOp1
 70
     1
102
RTVSPropertyOp2
 70
     1
102
RTVSPropertyOp3
 70
     1
102
RTVSPropertyOp4
 70
     1
102
RTVSPropertyOp5
 70
     1
102
RTVSPropertyOp6
 70
     1
102
RTVSPropertyOp7
 70
     1
102
RTVSPropertyOp8
 70
     1
102
RTVSPropertyOp9
 70
     1
102
RTVSPropertyOp10
 70
     1
102
RTVSPropertyOp11
 70
     1
102
RTVSPropertyOp12
 70
     1
102
RTVSPropertyOp13
 70
     1
102
RTVSPropertyOp14
 70
     1
102
RTVSPropertyOp15
 70
     1
102
RTVSPropertyOp16
 70
     1
102
RTVSPropertyOp17
 70
     1
102
RTVSPropertyOp18
 70
     1
102
RTVSPropertyOp19
 70
     1
102
RTVSPropertyOp20
 70
     1
102
RTVSPropertyOp21
 70
     1
102
RTVSPropertyOp22
 70
     1
102
RTVSPropertyOp23
 70
     1
102
RTVSPropertyOp24
 70
     1
102
RTVSPropertyOp25
 70
     1
102
RTVSPropertyOp26
 70
     1
102
RTVSPropertyOp27
 70
     1
102
RTVSPropertyOp28
 70
     1
102
RTVSPropertyOp29
 70
     1
102
RTVSPropertyOp30
 70
     1
102
RTVSPropertyOp31
 70
     1
102
RTVSPropertyOp32
 70
     1
  0
XRECORD
  5
340
102
{ACAD_REACTORS
330
33F
102
}
330
33F
100
AcDbXrecord
280
     1
102
RTVSPropertyOp0
 70
     1
102
RTVSPropertyOp1
 70
     1
102
RTVSPropertyOp2
 70
     1
102
RTVSPropertyOp3
 70
     1
102
RTVSPropertyOp4
 70
     1
102
RTVSPropertyOp5
 70
     1
102
RTVSPropertyOp6
 70
     1
102
RTVSPropertyOp7
 70
     1
102
RTVSPropertyOp8
 70
     1
102
RTVSPropertyOp9
 70
     1
102
RTVSPropertyOp10
 70
     1
102
RTVSPropertyOp11
 70
     1
102
RTVSPropertyOp12
 70
     1
102
RTVSPropertyOp13
 70
     1
102
RTVSPropertyOp14
 70
     1
102
RTVSPropertyOp15
 70
     1
102
RTVSPropertyOp16
 70
     1
102
RTVSPropertyOp17
 70
     1
102
RTVSPropertyOp18
 70
     1
102
RTVSPropertyOp19
 70
     1
102
RTVSPropertyOp20
 70
     1
102
RTVSPropertyOp21
 70
     1
102
RTVSPropertyOp22
 70
     1
102
RTVSPropertyOp23
 70
     1
102
RTVSPropertyOp24
 70
     1
102
RTVSPropertyOp25
 70
     1
102
RTVSPropertyOp26
 70
     1
102
RTVSPropertyOp27
 70
     1
102
RTVSPropertyOp28
 70
     1
102
RTVSPropertyOp29
 70
     1
102
RTVSPropertyOp30
 70
     1
102
RTVSPropertyOp31
 70
     1
102
RTVSPropertyOp32
 70
     1
  0
XRECORD
  5
33A
102
{ACAD_REACTORS
330
339
102
}
330
339
100
AcDbXrecord
280
     1
102
RTVSPropertyOp0
 70
     1
102
RTVSPropertyOp1
 70
     1
102
RTVSPropertyOp2
 70
     1
102
RTVSPropertyOp3
 70
     1
102
RTVSPropertyOp4
 70
     1
102
RTVSPropertyOp5
 70
     1
102
RTVSPropertyOp6
 70
     1
102
RTVSPropertyOp7
 70
     1
102
RTVSPropertyOp8
 70
     1
102
RTVSPropertyOp9
 70
     1
102
RTVSPropertyOp10
 70
     1
102
RTVSPropertyOp11
 70
     1
102
RTVSPropertyOp12
 70
     1
102
RTVSPropertyOp13
 70
     1
102
RTVSPropertyOp14
 70
     1
102
RTVSPropertyOp15
 70
     1
102
RTVSPropertyOp16
 70
     1
102
RTVSPropertyOp17
 70
     1
102
RTVSPropertyOp18
 70
     1
102
RTVSPropertyOp19
 70
     1
102
RTVSPropertyOp20
 70
     1
102
RTVSPropertyOp21
 70
     1
102
RTVSPropertyOp22
 70
     1
102
RTVSPropertyOp23
 70
     1
102
RTVSPropertyOp24
 70
     1
102
RTVSPropertyOp25
 70
     1
102
RTVSPropertyOp26
 70
     1
102
RTVSPropertyOp27
 70
     1
102
RTVSPropertyOp28
 70
     1
102
RTVSPropertyOp29
 70
     1
102
RTVSPropertyOp30
 70
     1
102
RTVSPropertyOp31
 70
     1
102
RTVSPropertyOp32
 70
     1
  0
XRECORD
  5
33C
102
{ACAD_REACTORS
330
33B
102
}
330
33B
100
AcDbXrecord
280
     1
102
RTVSPropertyOp0
 70
     1
102
RTVSPropertyOp1
 70
     1
102
RTVSPropertyOp2
 70
     1
102
RTVSPropertyOp3
 70
     1
102
RTVSPropertyOp4
 70
     1
102
RTVSPropertyOp5
 70
     1
102
RTVSPropertyOp6
 70
     1
102
RTVSPropertyOp7
 70
     1
102
RTVSPropertyOp8
 70
     1
102
RTVSPropertyOp9
 70
     1
102
RTVSPropertyOp10
 70
     1
102
RTVSPropertyOp11
 70
     1
102
RTVSPropertyOp12
 70
     1
102
RTVSPropertyOp13
 70
     1
102
RTVSPropertyOp14
 70
     1
102
RTVSPropertyOp15
 70
     1
102
RTVSPropertyOp16
 70
     1
102
RTVSPropertyOp17
 70
     1
102
RTVSPropertyOp18
 70
     1
102
RTVSPropertyOp19
 70
     1
102
RTVSPropertyOp20
 70
     1
102
RTVSPropertyOp21
 70
     1
102
RTVSPropertyOp22
 70
     1
102
RTVSPropertyOp23
 70
     1
102
RTVSPropertyOp24
 70
     1
102
RTVSPropertyOp25
 70
     1
102
RTVSPropertyOp26
 70
     1
102
RTVSPropertyOp27
 70
     1
102
RTVSPropertyOp28
 70
     1
102
RTVSPropertyOp29
 70
     1
102
RTVSPropertyOp30
 70
     1
102
RTVSPropertyOp31
 70
     1
102
RTVSPropertyOp32
 70
     1
  0
XRECORD
  5
328
102
{ACAD_REACTORS
330
327
102
}
330
327
100
AcDbXrecord
280
     1
102
RTVSPropertyOp0
 70
     1
102
RTVSPropertyOp1
 70
     1
102
RTVSPropertyOp2
 70
     1
102
RTVSPropertyOp3
 70
     1
102
RTVSPropertyOp4
 70
     1
102
RTVSPropertyOp5
 70
     1
102
RTVSPropertyOp6
 70
     1
102
RTVSPropertyOp7
 70
     1
102
RTVSPropertyOp8
 70
     1
102
RTVSPropertyOp9
 70
     1
102
RTVSPropertyOp10
 70
     1
102
RTVSPropertyOp11
 70
     1
102
RTVSPropertyOp12
 70
     1
102
RTVSPropertyOp13
 70
     1
102
RTVSPropertyOp14
 70
     1
102
RTVSPropertyOp15
 70
     1
102
RTVSPropertyOp16
 70
     1
102
RTVSPropertyOp17
 70
     1
102
RTVSPropertyOp18
 70
     1
102
RTVSPropertyOp19
 70
     1
102
RTVSPropertyOp20
 70
     1
102
RTVSPropertyOp21
 70
     1
102
RTVSPropertyOp22
 70
     1
102
RTVSPropertyOp23
 70
     1
102
RTVSPropertyOp24
 70
     1
102
RTVSPropertyOp25
 70
     1
102
RTVSPropertyOp26
 70
     1
102
RTVSPropertyOp27
 70
     1
102
RTVSPropertyOp28
 70
     1
102
RTVSPropertyOp29
 70
     1
102
RTVSPropertyOp30
 70
     1
102
RTVSPropertyOp31
 70
     1
102
RTVSPropertyOp32
 70
     1
  0
XRECORD
  5
336
102
{ACAD_REACTORS
330
335
102
}
330
335
100
AcDbXrecord
280
     1
102
RTVSPropertyOp0
 70
     1
102
RTVSPropertyOp1
 70
     1
102
RTVSPropertyOp2
 70
     1
102
RTVSPropertyOp3
 70
     1
102
RTVSPropertyOp4
 70
     1
102
RTVSPropertyOp5
 70
     1
102
RTVSPropertyOp6
 70
     1
102
RTVSPropertyOp7
 70
     1
102
RTVSPropertyOp8
 70
     1
102
RTVSPropertyOp9
 70
     1
102
RTVSPropertyOp10
 70
     1
102
RTVSPropertyOp11
 70
     1
102
RTVSPropertyOp12
 70
     1
102
RTVSPropertyOp13
 70
     1
102
RTVSPropertyOp14
 70
     1
102
RTVSPropertyOp15
 70
     1
102
RTVSPropertyOp16
 70
     1
102
RTVSPropertyOp17
 70
     1
102
RTVSPropertyOp18
 70
     1
102
RTVSPropertyOp19
 70
     1
102
RTVSPropertyOp20
 70
     1
102
RTVSPropertyOp21
 70
     1
102
RTVSPropertyOp22
 70
     1
102
RTVSPropertyOp23
 70
     1
102
RTVSPropertyOp24
 70
     1
102
RTVSPropertyOp25
 70
     1
102
RTVSPropertyOp26
 70
     1
102
RTVSPropertyOp27
 70
     1
102
RTVSPropertyOp28
 70
     1
102
RTVSPropertyOp29
 70
     1
102
RTVSPropertyOp30
 70
     1
102
RTVSPropertyOp31
 70
     1
102
RTVSPropertyOp32
 70
     1
  0
XRECORD
  5
33E
102
{ACAD_REACTORS
330
33D
102
}
330
33D
100
AcDbXrecord
280
     1
102
RTVSPropertyOp0
 70
     1
102
RTVSPropertyOp1
 70
     1
102
RTVSPropertyOp2
 70
     1
102
RTVSPropertyOp3
 70
     1
102
RTVSPropertyOp4
 70
     1
102
RTVSPropertyOp5
 70
     1
102
RTVSPropertyOp6
 70
     1
102
RTVSPropertyOp7
 70
     1
102
RTVSPropertyOp8
 70
     1
102
RTVSPropertyOp9
 70
     1
102
RTVSPropertyOp10
 70
     1
102
RTVSPropertyOp11
 70
     1
102
RTVSPropertyOp12
 70
     1
102
RTVSPropertyOp13
 70
     1
102
RTVSPropertyOp14
 70
     1
102
RTVSPropertyOp15
 70
     1
102
RTVSPropertyOp16
 70
     1
102
RTVSPropertyOp17
 70
     1
102
RTVSPropertyOp18
 70
     1
102
RTVSPropertyOp19
 70
     1
102
RTVSPropertyOp20
 70
     1
102
RTVSPropertyOp21
 70
     1
102
RTVSPropertyOp22
 70
     1
102
RTVSPropertyOp23
 70
     1
102
RTVSPropertyOp24
 70
     1
102
RTVSPropertyOp25
 70
     1
102
RTVSPropertyOp26
 70
     1
102
RTVSPropertyOp27
 70
     1
102
RTVSPropertyOp28
 70
     1
102
RTVSPropertyOp29
 70
     1
102
RTVSPropertyOp30
 70
     1
102
RTVSPropertyOp31
 70
     1
102
RTVSPropertyOp32
 70
     1
  0
ENDSEC
  0
EOF
