  0
SECTION
  2
HEADER
  9
$ACADVER
  1
AC1014
  9
$ACADMAINTVER
 70
     9
  9
$DWGCODEPAGE
  3
ANSI_1252
  9
$INSBASE
 10
0.0
 20
0.0
 30
0.0
  9
$EXTMIN
 10
2.192321807835625
 20
0.7921142796894003
 30
-0.0015258207003583
  9
$EXTMAX
 10
5.573364278270588
 20
9.164382955716437
 30
0.0000000349246037
  9
$LIMMIN
 10
0.0
 20
0.0
  9
$LIMMAX
 10
12.0
 20
9.0
  9
$ORTHOMODE
 70
     0
  9
$REGENMODE
 70
     1
  9
$FILLMODE
 70
     1
  9
$QTEXTMODE
 70
     0
  9
$MIRRTEXT
 70
     1
  9
$DRAGMODE
 70
     2
  9
$LTSCALE
 40
1.0
  9
$OSMODE
 70
    37
  9
$ATTMODE
 70
     1
  9
$TEXTSIZE
 40
0.2
  9
$TRACEWID
 40
0.05
  9
$TEXTSTYLE
  7
STANDARD
  9
$CLAYER
  8
0
  9
$CELTYPE
  6
BYLAYER
  9
$CECOLOR
 62
   256
  9
$CELTSCALE
 40
1.0
  9
$DELOBJ
 70
     1
  9
$DISPSILH
 70
     0
  9
$DIMSCALE
 40
1.0
  9
$DIMASZ
 40
0.18
  9
$DIMEXO
 40
0.0625
  9
$DIMDLI
 40
0.38
  9
$DIMRND
 40
0.0
  9
$DIMDLE
 40
0.0
  9
$DIMEXE
 40
0.18
  9
$DIMTP
 40
0.0
  9
$DIMTM
 40
0.0
  9
$DIMTXT
 40
0.18
  9
$DIMCEN
 40
0.09
  9
$DIMTSZ
 40
0.0
  9
$DIMTOL
 70
     0
  9
$DIMLIM
 70
     0
  9
$DIMTIH
 70
     1
  9
$DIMTOH
 70
     1
  9
$DIMSE1
 70
     0
  9
$DIMSE2
 70
     0
  9
$DIMTAD
 70
     0
  9
$DIMZIN
 70
     0
  9
$DIMBLK
  1

  9
$DIMASO
 70
     1
  9
$DIMSHO
 70
     1
  9
$DIMPOST
  1

  9
$DIMAPOST
  1

  9
$DIMALT
 70
     0
  9
$DIMALTD
 70
     2
  9
$DIMALTF
 40
25.4
  9
$DIMLFAC
 40
1.0
  9
$DIMTOFL
 70
     0
  9
$DIMTVP
 40
0.0
  9
$DIMTIX
 70
     0
  9
$DIMSOXD
 70
     0
  9
$DIMSAH
 70
     0
  9
$DIMBLK1
  1

  9
$DIMBLK2
  1

  9
$DIMSTYLE
  2
STANDARD
  9
$DIMCLRD
 70
     0
  9
$DIMCLRE
 70
     0
  9
$DIMCLRT
 70
     0
  9
$DIMTFAC
 40
1.0
  9
$DIMGAP
 40
0.09
  9
$DIMJUST
 70
     0
  9
$DIMSD1
 70
     0
  9
$DIMSD2
 70
     0
  9
$DIMTOLJ
 70
     1
  9
$DIMTZIN
 70
     0
  9
$DIMALTZ
 70
     0
  9
$DIMALTTZ
 70
     0
  9
$DIMFIT
 70
     5
  9
$DIMUPT
 70
     0
  9
$DIMUNIT
 70
     2
  9
$DIMDEC
 70
     4
  9
$DIMTDEC
 70
     4
  9
$DIMALTU
 70
     2
  9
$DIMALTTD
 70
     2
  9
$DIMTXSTY
  7
STANDARD
  9
$DIMAUNIT
 70
     0
  9
$LUNITS
 70
     2
  9
$LUPREC
 70
     4
  9
$SKETCHINC
 40
0.1
  9
$FILLETRAD
 40
0.0
  9
$AUNITS
 70
     0
  9
$AUPREC
 70
     0
  9
$MENU
  1
acad
  9
$ELEVATION
 40
0.0
  9
$PELEVATION
 40
0.0
  9
$THICKNESS
 40
0.0
  9
$LIMCHECK
 70
     0
  9
$BLIPMODE
 70
     0
  9
$CHAMFERA
 40
0.0
  9
$CHAMFERB
 40
0.0
  9
$CHAMFERC
 40
0.0
  9
$CHAMFERD
 40
0.0
  9
$SKPOLY
 70
     0
  9
$TDCREATE
 40
2452397.575474537
  9
$TDUPDATE
 40
2452397.589769051
  9
$TDINDWG
 40
0.0022692361
  9
$TDUSRTIMER
 40
0.0022692361
  9
$USRTIMER
 70
     1
  9
$ANGBASE
 50
0.0
  9
$ANGDIR
 70
     0
  9
$PDMODE
 70
     0
  9
$PDSIZE
 40
0.0
  9
$PLINEWID
 40
0.0
  9
$COORDS
 70
     2
  9
$SPLFRAME
 70
     0
  9
$SPLINETYPE
 70
     6
  9
$SPLINESEGS
 70
     8
  9
$ATTDIA
 70
     0
  9
$ATTREQ
 70
     1
  9
$HANDLING
 70
-16383
  9
$HANDSEED
  5
358E
  9
$SURFTAB1
 70
     6
  9
$SURFTAB2
 70
     6
  9
$SURFTYPE
 70
     6
  9
$SURFU
 70
     6
  9
$SURFV
 70
     6
  9
$UCSNAME
  2

  9
$UCSORG
 10
0.0
 20
0.0
 30
0.0
  9
$UCSXDIR
 10
1.0
 20
0.0
 30
0.0
  9
$UCSYDIR
 10
0.0
 20
1.0
 30
0.0
  9
$PUCSNAME
  2

  9
$PUCSORG
 10
0.0
 20
0.0
 30
0.0
  9
$PUCSXDIR
 10
1.0
 20
0.0
 30
0.0
  9
$PUCSYDIR
 10
0.0
 20
1.0
 30
0.0
  9
$USERI1
 70
     0
  9
$USERI2
 70
     0
  9
$USERI3
 70
     0
  9
$USERI4
 70
     0
  9
$USERI5
 70
     0
  9
$USERR1
 40
0.0
  9
$USERR2
 40
0.0
  9
$USERR3
 40
0.0
  9
$USERR4
 40
0.0
  9
$USERR5
 40
0.0
  9
$WORLDVIEW
 70
     1
  9
$SHADEDGE
 70
     3
  9
$SHADEDIF
 70
    70
  9
$TILEMODE
 70
     1
  9
$MAXACTVP
 70
    16
  9
$PINSBASE
 10
0.0
 20
0.0
 30
0.0
  9
$PLIMCHECK
 70
     0
  9
$PEXTMIN
 10
1.000000000000000E+20
 20
1.000000000000000E+20
 30
1.000000000000000E+20
  9
$PEXTMAX
 10
-1.000000000000000E+20
 20
-1.000000000000000E+20
 30
-1.000000000000000E+20
  9
$PLIMMIN
 10
0.0
 20
0.0
  9
$PLIMMAX
 10
12.0
 20
9.0
  9
$UNITMODE
 70
     0
  9
$VISRETAIN
 70
     0
  9
$PLINEGEN
 70
     0
  9
$PSLTSCALE
 70
     1
  9
$TREEDEPTH
 70
  3020
  9
$PICKSTYLE
 70
     0
  9
$CMLSTYLE
  2
STANDARD
  9
$CMLJUST
 70
     0
  9
$CMLSCALE
 40
1.0
  9
$PROXYGRAPHICS
 70
     1
  9
$MEASUREMENT
 70
     0
  0
ENDSEC
  0
SECTION
  2
CLASSES
  0
CLASS
  1
ACDBDICTIONARYWDFLT
  2
AcDbDictionaryWithDefault
  3
AutoCAD 2000
 90
        0
280
     0
281
     0
  0
CLASS
  1
ACDBPLACEHOLDER
  2
AcDbPlaceHolder
  3
AutoCAD 2000
 90
        0
280
     0
281
     0
  0
CLASS
  1
LAYOUT
  2
AcDbLayout
  3
AutoCAD 2000
 90
        0
280
     0
281
     0
  0
CLASS
  1
LONG_TRANSACTION
  2
AcDbLongTransaction
  3
AutoCAD 2000
 90
        0
280
     0
281
     0
  0
CLASS
  1
LWPOLYLINE
  2
AcDbPolyline
  3
AutoCAD 2000
 90
        0
280
     0
281
     1
  0
CLASS
  1
HATCH
  2
AcDbHatch
  3
AutoCAD 2000
 90
        0
280
     0
281
     1
  0
CLASS
  1
XRECORD
  2
AcDbXrecord
  3
AutoCAD 2000
 90
        0
280
     0
281
     0
  0
ENDSEC
  0
SECTION
  2
TABLES
  0
TABLE
  2
VPORT
  5
8
330
0
100
AcDbSymbolTable
 70
     3
  0
VPORT
  5
3568
330
8
100
AcDbSymbolTableRecord
100
AcDbViewportTableRecord
  2
*ACTIVE
 70
     0
 10
0.0
 20
0.0
 11
1.0
 21
1.0
 12
3.882843043053106
 22
4.978248617702918
 13
0.0
 23
0.0
 14
1.0
 24
1.0
 15
0.0
 25
0.0
 16
0.0
 26
0.0
 36
1.0
 17
0.0
 27
0.0
 37
0.0
 40
8.439515813987092
 41
1.498659517426273
 42
50.0
 43
0.0
 44
0.0
 50
0.0
 51
0.0
 71
     0
 72
   100
 73
     1
 74
     1
 75
     0
 76
     0
 77
     0
 78
     0
  0
ENDTAB
  0
TABLE
  2
LTYPE
  5
5
330
0
100
AcDbSymbolTable
 70
    25
  0
LTYPE
  5
13
330
5
100
AcDbSymbolTableRecord
100
AcDbLinetypeTableRecord
  2
BYBLOCK
 70
     0
  3

 72
    65
 73
     0
 40
0.0
  0
LTYPE
  5
14
330
5
100
AcDbSymbolTableRecord
100
AcDbLinetypeTableRecord
  2
BYLAYER
 70
     0
  3

 72
    65
 73
     0
 40
0.0
  0
LTYPE
  5
15
330
5
100
AcDbSymbolTableRecord
100
AcDbLinetypeTableRecord
  2
CONTINUOUS
 70
     0
  3
Solid line
 72
    65
 73
     0
 40
0.0
  0
LTYPE
  5
22
330
5
100
AcDbSymbolTableRecord
100
AcDbLinetypeTableRecord
  2
BORDER
 70
     0
  3
__ __ . __ __ . __ __ . __ __ . __ __ . __ __ .
 72
    65
 73
     6
 40
1.75
 49
0.5
 74
     0
 49
-0.25
 74
     0
 49
0.5
 74
     0
 49
-0.25
 74
     0
 49
0.5
 74
     0
 49
-0.25
 74
     0
  0
LTYPE
  5
23
330
5
100
AcDbSymbolTableRecord
100
AcDbLinetypeTableRecord
  2
BORDER2
 70
     0
  3
__.__.__.__.__.__.__.__.__.__.__.__.__.__.__.__
 72
    65
 73
     6
 40
0.875
 49
0.25
 74
     0
 49
-0.125
 74
     0
 49
0.25
 74
     0
 49
-0.125
 74
     0
 49
0.25
 74
     0
 49
-0.125
 74
     0
  0
LTYPE
  5
24
330
5
100
AcDbSymbolTableRecord
100
AcDbLinetypeTableRecord
  2
BORDERX2
 70
     0
  3
____  ____  .  ____  ____  .  
 72
    65
 73
     6
 40
3.5
 49
1.0
 74
     0
 49
-0.5
 74
     0
 49
1.0
 74
     0
 49
-0.5
 74
     0
 49
1.0
 74
     0
 49
-0.5
 74
     0
  0
LTYPE
  5
25
330
5
100
AcDbSymbolTableRecord
100
AcDbLinetypeTableRecord
  2
CENTER
 70
     0
  3
____ _ ____ _ ____ _ ____ _ ____ _ ____ _ ____
 72
    65
 73
     4
 40
2.0
 49
1.25
 74
     0
 49
-0.25
 74
     0
 49
0.25
 74
     0
 49
-0.25
 74
     0
  0
LTYPE
  5
26
330
5
100
AcDbSymbolTableRecord
100
AcDbLinetypeTableRecord
  2
CENTER2
 70
     0
  3
____ _ ____ _ ____ _ ____ _ ____ _ ____ _ ____
 72
    65
 73
     4
 40
1.125
 49
0.75
 74
     0
 49
-0.125
 74
     0
 49
0.125
 74
     0
 49
-0.125
 74
     0
  0
LTYPE
  5
27
330
5
100
AcDbSymbolTableRecord
100
AcDbLinetypeTableRecord
  2
CENTERX2
 70
     0
  3
________  __  ________  __  ________  __  
 72
    65
 73
     4
 40
4.0
 49
2.5
 74
     0
 49
-0.5
 74
     0
 49
0.5
 74
     0
 49
-0.5
 74
     0
  0
LTYPE
  5
28
330
5
100
AcDbSymbolTableRecord
100
AcDbLinetypeTableRecord
  2
DASHDOT
 70
     0
  3
__ . __ . __ . __ . __ . __ . __ . 
 72
    65
 73
     4
 40
1.0
 49
0.5
 74
     0
 49
-0.25
 74
     0
 49
0.0
 74
     0
 49
-0.25
 74
     0
  0
LTYPE
  5
29
330
5
100
AcDbSymbolTableRecord
100
AcDbLinetypeTableRecord
  2
DASHDOT2
 70
     0
  3
_._._._._._._._._._._._._._._._.
 72
    65
 73
     4
 40
0.5
 49
0.25
 74
     0
 49
-0.125
 74
     0
 49
0.0
 74
     0
 49
-0.125
 74
     0
  0
LTYPE
  5
2A
330
5
100
AcDbSymbolTableRecord
100
AcDbLinetypeTableRecord
  2
DASHDOTX2
 70
     0
  3
____  .  ____  .  ____  .  ____  .  
 72
    65
 73
     4
 40
2.0
 49
1.0
 74
     0
 49
-0.5
 74
     0
 49
0.0
 74
     0
 49
-0.5
 74
     0
  0
LTYPE
  5
2B
330
5
100
AcDbSymbolTableRecord
100
AcDbLinetypeTableRecord
  2
DASHED
 70
     0
  3
__ __ __ __ __ __ __ __ __ __ __ __ 
 72
    65
 73
     2
 40
0.75
 49
0.5
 74
     0
 49
-0.25
 74
     0
  0
LTYPE
  5
2C
330
5
100
AcDbSymbolTableRecord
100
AcDbLinetypeTableRecord
  2
DASHED2
 70
     0
  3
_ _ _ _ _ _ _ _ _ _ _ _ _ _ _ _ _ _ 
 72
    65
 73
     2
 40
0.375
 49
0.25
 74
     0
 49
-0.125
 74
     0
  0
LTYPE
  5
2D
330
5
100
AcDbSymbolTableRecord
100
AcDbLinetypeTableRecord
  2
DASHEDX2
 70
     0
  3
____  ____  ____  ____  ____  ____  
 72
    65
 73
     2
 40
1.5
 49
1.0
 74
     0
 49
-0.5
 74
     0
  0
LTYPE
  5
2E
330
5
100
AcDbSymbolTableRecord
100
AcDbLinetypeTableRecord
  2
DIVIDE
 70
     0
  3
____ . . ____ . . ____ . . ____ . . 
 72
    65
 73
     6
 40
1.25
 49
0.5
 74
     0
 49
-0.25
 74
     0
 49
0.0
 74
     0
 49
-0.25
 74
     0
 49
0.0
 74
     0
 49
-0.25
 74
     0
  0
LTYPE
  5
2F
330
5
100
AcDbSymbolTableRecord
100
AcDbLinetypeTableRecord
  2
DIVIDE2
 70
     0
  3
__..__..__..__..__..__..__..__..__..
 72
    65
 73
     6
 40
0.625
 49
0.25
 74
     0
 49
-0.125
 74
     0
 49
0.0
 74
     0
 49
-0.125
 74
     0
 49
0.0
 74
     0
 49
-0.125
 74
     0
  0
LTYPE
  5
30
330
5
100
AcDbSymbolTableRecord
100
AcDbLinetypeTableRecord
  2
DIVIDEX2
 70
     0
  3
________  .  .  ________  .  .  ________  .  . 
 72
    65
 73
     6
 40
2.5
 49
1.0
 74
     0
 49
-0.5
 74
     0
 49
0.0
 74
     0
 49
-0.5
 74
     0
 49
0.0
 74
     0
 49
-0.5
 74
     0
  0
LTYPE
  5
31
330
5
100
AcDbSymbolTableRecord
100
AcDbLinetypeTableRecord
  2
DOT
 70
     0
  3
. . . . . . . . . . . . . . . . . . 
 72
    65
 73
     2
 40
0.25
 49
0.0
 74
     0
 49
-0.25
 74
     0
  0
LTYPE
  5
32
330
5
100
AcDbSymbolTableRecord
100
AcDbLinetypeTableRecord
  2
DOT2
 70
     0
  3
....................................
 72
    65
 73
     2
 40
0.125
 49
0.0
 74
     0
 49
-0.125
 74
     0
  0
LTYPE
  5
33
330
5
100
AcDbSymbolTableRecord
100
AcDbLinetypeTableRecord
  2
DOTX2
 70
     0
  3
.  .  .  .  .  .  .  .  .  .  .  .  .  
 72
    65
 73
     2
 40
0.5
 49
0.0
 74
     0
 49
-0.5
 74
     0
  0
LTYPE
  5
34
330
5
100
AcDbSymbolTableRecord
100
AcDbLinetypeTableRecord
  2
HIDDEN
 70
     0
  3
__ __ __ __ __ __ __ __ __ __ __ __ 
 72
    65
 73
     2
 40
0.375
 49
0.25
 74
     0
 49
-0.125
 74
     0
  0
LTYPE
  5
35
330
5
100
AcDbSymbolTableRecord
100
AcDbLinetypeTableRecord
  2
HIDDEN2
 70
     0
  3
_ _ _ _ _ _ _ _ _ _ _ _ _ _ _ _ _ _ 
 72
    65
 73
     2
 40
0.1875
 49
0.125
 74
     0
 49
-0.0625
 74
     0
  0
LTYPE
  5
36
330
5
100
AcDbSymbolTableRecord
100
AcDbLinetypeTableRecord
  2
HIDDENX2
 70
     0
  3
____ ____ ____ ____ ____ ____ ____ 
 72
    65
 73
     2
 40
0.75
 49
0.5
 74
     0
 49
-0.25
 74
     0
  0
LTYPE
  5
37
330
5
100
AcDbSymbolTableRecord
100
AcDbLinetypeTableRecord
  2
PHANTOM
 70
     0
  3
______  __  __  ______  __  __  
 72
    65
 73
     6
 40
2.5
 49
1.25
 74
     0
 49
-0.25
 74
     0
 49
0.25
 74
     0
 49
-0.25
 74
     0
 49
0.25
 74
     0
 49
-0.25
 74
     0
  0
LTYPE
  5
38
330
5
100
AcDbSymbolTableRecord
100
AcDbLinetypeTableRecord
  2
PHANTOM2
 70
     0
  3
___ _ _ ___ _ _ ___ _ _ ___ _ _ 
 72
    65
 73
     6
 40
1.25
 49
0.625
 74
     0
 49
-0.125
 74
     0
 49
0.125
 74
     0
 49
-0.125
 74
     0
 49
0.125
 74
     0
 49
-0.125
 74
     0
  0
LTYPE
  5
39
330
5
100
AcDbSymbolTableRecord
100
AcDbLinetypeTableRecord
  2
PHANTOMX2
 70
     0
  3
___ _ _ ___ _ _ ___ _ _ ___ _ _ 
 72
    65
 73
     6
 40
5.0
 49
2.5
 74
     0
 49
-0.5
 74
     0
 49
0.5
 74
     0
 49
-0.5
 74
     0
 49
0.5
 74
     0
 49
-0.5
 74
     0
  0
ENDTAB
  0
TABLE
  2
LAYER
  5
2
330
0
100
AcDbSymbolTable
 70
   256
  0
LAYER
  5
10
330
2
100
AcDbSymbolTableRecord
100
AcDbLayerTableRecord
  2
0
 70
     0
 62
     7
  6
CONTINUOUS
  0
LAYER
  5
3A
330
2
100
AcDbSymbolTableRecord
100
AcDbLayerTableRecord
  2
1
 70
     0
 62
     1
  6
CONTINUOUS
  0
LAYER
  5
3B
330
2
100
AcDbSymbolTableRecord
100
AcDbLayerTableRecord
  2
2
 70
     0
 62
     2
  6
CONTINUOUS
  0
LAYER
  5
3C
330
2
100
AcDbSymbolTableRecord
100
AcDbLayerTableRecord
  2
3
 70
     0
 62
     3
  6
CONTINUOUS
  0
LAYER
  5
3D
330
2
100
AcDbSymbolTableRecord
100
AcDbLayerTableRecord
  2
4
 70
     0
 62
     4
  6
CONTINUOUS
  0
LAYER
  5
3E
330
2
100
AcDbSymbolTableRecord
100
AcDbLayerTableRecord
  2
5
 70
     0
 62
     5
  6
CONTINUOUS
  0
LAYER
  5
3F
330
2
100
AcDbSymbolTableRecord
100
AcDbLayerTableRecord
  2
6
 70
     0
 62
     6
  6
CONTINUOUS
  0
LAYER
  5
40
330
2
100
AcDbSymbolTableRecord
100
AcDbLayerTableRecord
  2
7
 70
     0
 62
     7
  6
CONTINUOUS
  0
LAYER
  5
41
330
2
100
AcDbSymbolTableRecord
100
AcDbLayerTableRecord
  2
8
 70
     0
 62
     8
  6
CONTINUOUS
  0
LAYER
  5
42
330
2
100
AcDbSymbolTableRecord
100
AcDbLayerTableRecord
  2
9
 70
     0
 62
     9
  6
CONTINUOUS
  0
LAYER
  5
43
330
2
100
AcDbSymbolTableRecord
100
AcDbLayerTableRecord
  2
10
 70
     0
 62
    10
  6
CONTINUOUS
  0
LAYER
  5
44
330
2
100
AcDbSymbolTableRecord
100
AcDbLayerTableRecord
  2
11
 70
     0
 62
    11
  6
CONTINUOUS
  0
LAYER
  5
45
330
2
100
AcDbSymbolTableRecord
100
AcDbLayerTableRecord
  2
12
 70
     0
 62
    12
  6
CONTINUOUS
  0
LAYER
  5
46
330
2
100
AcDbSymbolTableRecord
100
AcDbLayerTableRecord
  2
13
 70
     0
 62
    13
  6
CONTINUOUS
  0
LAYER
  5
47
330
2
100
AcDbSymbolTableRecord
100
AcDbLayerTableRecord
  2
14
 70
     0
 62
    14
  6
CONTINUOUS
  0
LAYER
  5
48
330
2
100
AcDbSymbolTableRecord
100
AcDbLayerTableRecord
  2
15
 70
     0
 62
    15
  6
CONTINUOUS
  0
LAYER
  5
49
330
2
100
AcDbSymbolTableRecord
100
AcDbLayerTableRecord
  2
16
 70
     0
 62
    16
  6
CONTINUOUS
  0
LAYER
  5
4A
330
2
100
AcDbSymbolTableRecord
100
AcDbLayerTableRecord
  2
17
 70
     0
 62
    17
  6
CONTINUOUS
  0
LAYER
  5
4B
330
2
100
AcDbSymbolTableRecord
100
AcDbLayerTableRecord
  2
18
 70
     0
 62
    18
  6
CONTINUOUS
  0
LAYER
  5
4C
330
2
100
AcDbSymbolTableRecord
100
AcDbLayerTableRecord
  2
19
 70
     0
 62
    19
  6
CONTINUOUS
  0
LAYER
  5
4D
330
2
100
AcDbSymbolTableRecord
100
AcDbLayerTableRecord
  2
20
 70
     0
 62
    20
  6
CONTINUOUS
  0
LAYER
  5
4E
330
2
100
AcDbSymbolTableRecord
100
AcDbLayerTableRecord
  2
21
 70
     0
 62
    21
  6
CONTINUOUS
  0
LAYER
  5
4F
330
2
100
AcDbSymbolTableRecord
100
AcDbLayerTableRecord
  2
22
 70
     0
 62
    22
  6
CONTINUOUS
  0
LAYER
  5
50
330
2
100
AcDbSymbolTableRecord
100
AcDbLayerTableRecord
  2
23
 70
     0
 62
    23
  6
CONTINUOUS
  0
LAYER
  5
51
330
2
100
AcDbSymbolTableRecord
100
AcDbLayerTableRecord
  2
24
 70
     0
 62
    24
  6
CONTINUOUS
  0
LAYER
  5
52
330
2
100
AcDbSymbolTableRecord
100
AcDbLayerTableRecord
  2
25
 70
     0
 62
    25
  6
CONTINUOUS
  0
LAYER
  5
53
330
2
100
AcDbSymbolTableRecord
100
AcDbLayerTableRecord
  2
26
 70
     0
 62
    26
  6
CONTINUOUS
  0
LAYER
  5
54
330
2
100
AcDbSymbolTableRecord
100
AcDbLayerTableRecord
  2
27
 70
     0
 62
    27
  6
CONTINUOUS
  0
LAYER
  5
55
330
2
100
AcDbSymbolTableRecord
100
AcDbLayerTableRecord
  2
28
 70
     0
 62
    28
  6
CONTINUOUS
  0
LAYER
  5
56
330
2
100
AcDbSymbolTableRecord
100
AcDbLayerTableRecord
  2
29
 70
     0
 62
    29
  6
CONTINUOUS
  0
LAYER
  5
57
330
2
100
AcDbSymbolTableRecord
100
AcDbLayerTableRecord
  2
30
 70
     0
 62
    30
  6
CONTINUOUS
  0
LAYER
  5
58
330
2
100
AcDbSymbolTableRecord
100
AcDbLayerTableRecord
  2
31
 70
     0
 62
    31
  6
CONTINUOUS
  0
LAYER
  5
59
330
2
100
AcDbSymbolTableRecord
100
AcDbLayerTableRecord
  2
32
 70
     0
 62
    32
  6
CONTINUOUS
  0
LAYER
  5
5A
330
2
100
AcDbSymbolTableRecord
100
AcDbLayerTableRecord
  2
33
 70
     0
 62
    33
  6
CONTINUOUS
  0
LAYER
  5
5B
330
2
100
AcDbSymbolTableRecord
100
AcDbLayerTableRecord
  2
34
 70
     0
 62
    34
  6
CONTINUOUS
  0
LAYER
  5
5C
330
2
100
AcDbSymbolTableRecord
100
AcDbLayerTableRecord
  2
35
 70
     0
 62
    35
  6
CONTINUOUS
  0
LAYER
  5
5D
330
2
100
AcDbSymbolTableRecord
100
AcDbLayerTableRecord
  2
36
 70
     0
 62
    36
  6
CONTINUOUS
  0
LAYER
  5
5E
330
2
100
AcDbSymbolTableRecord
100
AcDbLayerTableRecord
  2
37
 70
     0
 62
    37
  6
CONTINUOUS
  0
LAYER
  5
5F
330
2
100
AcDbSymbolTableRecord
100
AcDbLayerTableRecord
  2
38
 70
     0
 62
    38
  6
CONTINUOUS
  0
LAYER
  5
60
330
2
100
AcDbSymbolTableRecord
100
AcDbLayerTableRecord
  2
39
 70
     0
 62
    39
  6
CONTINUOUS
  0
LAYER
  5
61
330
2
100
AcDbSymbolTableRecord
100
AcDbLayerTableRecord
  2
40
 70
     0
 62
    40
  6
CONTINUOUS
  0
LAYER
  5
62
330
2
100
AcDbSymbolTableRecord
100
AcDbLayerTableRecord
  2
41
 70
     0
 62
    41
  6
CONTINUOUS
  0
LAYER
  5
63
330
2
100
AcDbSymbolTableRecord
100
AcDbLayerTableRecord
  2
42
 70
     0
 62
    42
  6
CONTINUOUS
  0
LAYER
  5
64
330
2
100
AcDbSymbolTableRecord
100
AcDbLayerTableRecord
  2
43
 70
     0
 62
    43
  6
CONTINUOUS
  0
LAYER
  5
65
330
2
100
AcDbSymbolTableRecord
100
AcDbLayerTableRecord
  2
44
 70
     0
 62
    44
  6
CONTINUOUS
  0
LAYER
  5
66
330
2
100
AcDbSymbolTableRecord
100
AcDbLayerTableRecord
  2
45
 70
     0
 62
    45
  6
CONTINUOUS
  0
LAYER
  5
67
330
2
100
AcDbSymbolTableRecord
100
AcDbLayerTableRecord
  2
46
 70
     0
 62
    46
  6
CONTINUOUS
  0
LAYER
  5
68
330
2
100
AcDbSymbolTableRecord
100
AcDbLayerTableRecord
  2
47
 70
     0
 62
    47
  6
CONTINUOUS
  0
LAYER
  5
69
330
2
100
AcDbSymbolTableRecord
100
AcDbLayerTableRecord
  2
48
 70
     0
 62
    48
  6
CONTINUOUS
  0
LAYER
  5
6A
330
2
100
AcDbSymbolTableRecord
100
AcDbLayerTableRecord
  2
49
 70
     0
 62
    49
  6
CONTINUOUS
  0
LAYER
  5
6B
330
2
100
AcDbSymbolTableRecord
100
AcDbLayerTableRecord
  2
50
 70
     0
 62
    50
  6
CONTINUOUS
  0
LAYER
  5
6C
330
2
100
AcDbSymbolTableRecord
100
AcDbLayerTableRecord
  2
51
 70
     0
 62
    51
  6
CONTINUOUS
  0
LAYER
  5
6D
330
2
100
AcDbSymbolTableRecord
100
AcDbLayerTableRecord
  2
52
 70
     0
 62
    52
  6
CONTINUOUS
  0
LAYER
  5
6E
330
2
100
AcDbSymbolTableRecord
100
AcDbLayerTableRecord
  2
53
 70
     0
 62
    53
  6
CONTINUOUS
  0
LAYER
  5
6F
330
2
100
AcDbSymbolTableRecord
100
AcDbLayerTableRecord
  2
54
 70
     0
 62
    54
  6
CONTINUOUS
  0
LAYER
  5
70
330
2
100
AcDbSymbolTableRecord
100
AcDbLayerTableRecord
  2
55
 70
     0
 62
    55
  6
CONTINUOUS
  0
LAYER
  5
71
330
2
100
AcDbSymbolTableRecord
100
AcDbLayerTableRecord
  2
56
 70
     0
 62
    56
  6
CONTINUOUS
  0
LAYER
  5
72
330
2
100
AcDbSymbolTableRecord
100
AcDbLayerTableRecord
  2
57
 70
     0
 62
    57
  6
CONTINUOUS
  0
LAYER
  5
73
330
2
100
AcDbSymbolTableRecord
100
AcDbLayerTableRecord
  2
58
 70
     0
 62
    58
  6
CONTINUOUS
  0
LAYER
  5
74
330
2
100
AcDbSymbolTableRecord
100
AcDbLayerTableRecord
  2
59
 70
     0
 62
    59
  6
CONTINUOUS
  0
LAYER
  5
75
330
2
100
AcDbSymbolTableRecord
100
AcDbLayerTableRecord
  2
60
 70
     0
 62
    60
  6
CONTINUOUS
  0
LAYER
  5
76
330
2
100
AcDbSymbolTableRecord
100
AcDbLayerTableRecord
  2
61
 70
     0
 62
    61
  6
CONTINUOUS
  0
LAYER
  5
77
330
2
100
AcDbSymbolTableRecord
100
AcDbLayerTableRecord
  2
62
 70
     0
 62
    62
  6
CONTINUOUS
  0
LAYER
  5
78
330
2
100
AcDbSymbolTableRecord
100
AcDbLayerTableRecord
  2
63
 70
     0
 62
    63
  6
CONTINUOUS
  0
LAYER
  5
79
330
2
100
AcDbSymbolTableRecord
100
AcDbLayerTableRecord
  2
64
 70
     0
 62
    64
  6
CONTINUOUS
  0
LAYER
  5
7A
330
2
100
AcDbSymbolTableRecord
100
AcDbLayerTableRecord
  2
65
 70
     0
 62
    65
  6
CONTINUOUS
  0
LAYER
  5
7B
330
2
100
AcDbSymbolTableRecord
100
AcDbLayerTableRecord
  2
66
 70
     0
 62
    66
  6
CONTINUOUS
  0
LAYER
  5
7C
330
2
100
AcDbSymbolTableRecord
100
AcDbLayerTableRecord
  2
67
 70
     0
 62
    67
  6
CONTINUOUS
  0
LAYER
  5
7D
330
2
100
AcDbSymbolTableRecord
100
AcDbLayerTableRecord
  2
68
 70
     0
 62
    68
  6
CONTINUOUS
  0
LAYER
  5
7E
330
2
100
AcDbSymbolTableRecord
100
AcDbLayerTableRecord
  2
69
 70
     0
 62
    69
  6
CONTINUOUS
  0
LAYER
  5
7F
330
2
100
AcDbSymbolTableRecord
100
AcDbLayerTableRecord
  2
70
 70
     0
 62
    70
  6
CONTINUOUS
  0
LAYER
  5
80
330
2
100
AcDbSymbolTableRecord
100
AcDbLayerTableRecord
  2
71
 70
     0
 62
    71
  6
CONTINUOUS
  0
LAYER
  5
81
330
2
100
AcDbSymbolTableRecord
100
AcDbLayerTableRecord
  2
72
 70
     0
 62
    72
  6
CONTINUOUS
  0
LAYER
  5
82
330
2
100
AcDbSymbolTableRecord
100
AcDbLayerTableRecord
  2
73
 70
     0
 62
    73
  6
CONTINUOUS
  0
LAYER
  5
83
330
2
100
AcDbSymbolTableRecord
100
AcDbLayerTableRecord
  2
74
 70
     0
 62
    74
  6
CONTINUOUS
  0
LAYER
  5
84
330
2
100
AcDbSymbolTableRecord
100
AcDbLayerTableRecord
  2
75
 70
     0
 62
    75
  6
CONTINUOUS
  0
LAYER
  5
85
330
2
100
AcDbSymbolTableRecord
100
AcDbLayerTableRecord
  2
76
 70
     0
 62
    76
  6
CONTINUOUS
  0
LAYER
  5
86
330
2
100
AcDbSymbolTableRecord
100
AcDbLayerTableRecord
  2
77
 70
     0
 62
    77
  6
CONTINUOUS
  0
LAYER
  5
87
330
2
100
AcDbSymbolTableRecord
100
AcDbLayerTableRecord
  2
78
 70
     0
 62
    78
  6
CONTINUOUS
  0
LAYER
  5
88
330
2
100
AcDbSymbolTableRecord
100
AcDbLayerTableRecord
  2
79
 70
     0
 62
    79
  6
CONTINUOUS
  0
LAYER
  5
89
330
2
100
AcDbSymbolTableRecord
100
AcDbLayerTableRecord
  2
80
 70
     0
 62
    80
  6
CONTINUOUS
  0
LAYER
  5
8A
330
2
100
AcDbSymbolTableRecord
100
AcDbLayerTableRecord
  2
81
 70
     0
 62
    81
  6
CONTINUOUS
  0
LAYER
  5
8B
330
2
100
AcDbSymbolTableRecord
100
AcDbLayerTableRecord
  2
82
 70
     0
 62
    82
  6
CONTINUOUS
  0
LAYER
  5
8C
330
2
100
AcDbSymbolTableRecord
100
AcDbLayerTableRecord
  2
83
 70
     0
 62
    83
  6
CONTINUOUS
  0
LAYER
  5
8D
330
2
100
AcDbSymbolTableRecord
100
AcDbLayerTableRecord
  2
84
 70
     0
 62
    84
  6
CONTINUOUS
  0
LAYER
  5
8E
330
2
100
AcDbSymbolTableRecord
100
AcDbLayerTableRecord
  2
85
 70
     0
 62
    85
  6
CONTINUOUS
  0
LAYER
  5
8F
330
2
100
AcDbSymbolTableRecord
100
AcDbLayerTableRecord
  2
86
 70
     0
 62
    86
  6
CONTINUOUS
  0
LAYER
  5
90
330
2
100
AcDbSymbolTableRecord
100
AcDbLayerTableRecord
  2
87
 70
     0
 62
    87
  6
CONTINUOUS
  0
LAYER
  5
91
330
2
100
AcDbSymbolTableRecord
100
AcDbLayerTableRecord
  2
88
 70
     0
 62
    88
  6
CONTINUOUS
  0
LAYER
  5
92
330
2
100
AcDbSymbolTableRecord
100
AcDbLayerTableRecord
  2
89
 70
     0
 62
    89
  6
CONTINUOUS
  0
LAYER
  5
93
330
2
100
AcDbSymbolTableRecord
100
AcDbLayerTableRecord
  2
90
 70
     0
 62
    90
  6
CONTINUOUS
  0
LAYER
  5
94
330
2
100
AcDbSymbolTableRecord
100
AcDbLayerTableRecord
  2
91
 70
     0
 62
    91
  6
CONTINUOUS
  0
LAYER
  5
95
330
2
100
AcDbSymbolTableRecord
100
AcDbLayerTableRecord
  2
92
 70
     0
 62
    92
  6
CONTINUOUS
  0
LAYER
  5
96
330
2
100
AcDbSymbolTableRecord
100
AcDbLayerTableRecord
  2
93
 70
     0
 62
    93
  6
CONTINUOUS
  0
LAYER
  5
97
330
2
100
AcDbSymbolTableRecord
100
AcDbLayerTableRecord
  2
94
 70
     0
 62
    94
  6
CONTINUOUS
  0
LAYER
  5
98
330
2
100
AcDbSymbolTableRecord
100
AcDbLayerTableRecord
  2
95
 70
     0
 62
    95
  6
CONTINUOUS
  0
LAYER
  5
99
330
2
100
AcDbSymbolTableRecord
100
AcDbLayerTableRecord
  2
96
 70
     0
 62
    96
  6
CONTINUOUS
  0
LAYER
  5
9A
330
2
100
AcDbSymbolTableRecord
100
AcDbLayerTableRecord
  2
97
 70
     0
 62
    97
  6
CONTINUOUS
  0
LAYER
  5
9B
330
2
100
AcDbSymbolTableRecord
100
AcDbLayerTableRecord
  2
98
 70
     0
 62
    98
  6
CONTINUOUS
  0
LAYER
  5
9C
330
2
100
AcDbSymbolTableRecord
100
AcDbLayerTableRecord
  2
99
 70
     0
 62
    99
  6
CONTINUOUS
  0
LAYER
  5
9D
330
2
100
AcDbSymbolTableRecord
100
AcDbLayerTableRecord
  2
100
 70
     0
 62
   100
  6
CONTINUOUS
  0
LAYER
  5
9E
330
2
100
AcDbSymbolTableRecord
100
AcDbLayerTableRecord
  2
101
 70
     0
 62
   101
  6
CONTINUOUS
  0
LAYER
  5
9F
330
2
100
AcDbSymbolTableRecord
100
AcDbLayerTableRecord
  2
102
 70
     0
 62
   102
  6
CONTINUOUS
  0
LAYER
  5
A0
330
2
100
AcDbSymbolTableRecord
100
AcDbLayerTableRecord
  2
103
 70
     0
 62
   103
  6
CONTINUOUS
  0
LAYER
  5
A1
330
2
100
AcDbSymbolTableRecord
100
AcDbLayerTableRecord
  2
104
 70
     0
 62
   104
  6
CONTINUOUS
  0
LAYER
  5
A2
330
2
100
AcDbSymbolTableRecord
100
AcDbLayerTableRecord
  2
105
 70
     0
 62
   105
  6
CONTINUOUS
  0
LAYER
  5
A3
330
2
100
AcDbSymbolTableRecord
100
AcDbLayerTableRecord
  2
106
 70
     0
 62
   106
  6
CONTINUOUS
  0
LAYER
  5
A4
330
2
100
AcDbSymbolTableRecord
100
AcDbLayerTableRecord
  2
107
 70
     0
 62
   107
  6
CONTINUOUS
  0
LAYER
  5
A5
330
2
100
AcDbSymbolTableRecord
100
AcDbLayerTableRecord
  2
108
 70
     0
 62
   108
  6
CONTINUOUS
  0
LAYER
  5
A6
330
2
100
AcDbSymbolTableRecord
100
AcDbLayerTableRecord
  2
109
 70
     0
 62
   109
  6
CONTINUOUS
  0
LAYER
  5
A7
330
2
100
AcDbSymbolTableRecord
100
AcDbLayerTableRecord
  2
110
 70
     0
 62
   110
  6
CONTINUOUS
  0
LAYER
  5
A8
330
2
100
AcDbSymbolTableRecord
100
AcDbLayerTableRecord
  2
111
 70
     0
 62
   111
  6
CONTINUOUS
  0
LAYER
  5
A9
330
2
100
AcDbSymbolTableRecord
100
AcDbLayerTableRecord
  2
112
 70
     0
 62
   112
  6
CONTINUOUS
  0
LAYER
  5
AA
330
2
100
AcDbSymbolTableRecord
100
AcDbLayerTableRecord
  2
113
 70
     0
 62
   113
  6
CONTINUOUS
  0
LAYER
  5
AB
330
2
100
AcDbSymbolTableRecord
100
AcDbLayerTableRecord
  2
114
 70
     0
 62
   114
  6
CONTINUOUS
  0
LAYER
  5
AC
330
2
100
AcDbSymbolTableRecord
100
AcDbLayerTableRecord
  2
115
 70
     0
 62
   115
  6
CONTINUOUS
  0
LAYER
  5
AD
330
2
100
AcDbSymbolTableRecord
100
AcDbLayerTableRecord
  2
116
 70
     0
 62
   116
  6
CONTINUOUS
  0
LAYER
  5
AE
330
2
100
AcDbSymbolTableRecord
100
AcDbLayerTableRecord
  2
117
 70
     0
 62
   117
  6
CONTINUOUS
  0
LAYER
  5
AF
330
2
100
AcDbSymbolTableRecord
100
AcDbLayerTableRecord
  2
118
 70
     0
 62
   118
  6
CONTINUOUS
  0
LAYER
  5
B0
330
2
100
AcDbSymbolTableRecord
100
AcDbLayerTableRecord
  2
119
 70
     0
 62
   119
  6
CONTINUOUS
  0
LAYER
  5
B1
330
2
100
AcDbSymbolTableRecord
100
AcDbLayerTableRecord
  2
120
 70
     0
 62
   120
  6
CONTINUOUS
  0
LAYER
  5
B2
330
2
100
AcDbSymbolTableRecord
100
AcDbLayerTableRecord
  2
121
 70
     0
 62
   121
  6
CONTINUOUS
  0
LAYER
  5
B3
330
2
100
AcDbSymbolTableRecord
100
AcDbLayerTableRecord
  2
122
 70
     0
 62
   122
  6
CONTINUOUS
  0
LAYER
  5
B4
330
2
100
AcDbSymbolTableRecord
100
AcDbLayerTableRecord
  2
123
 70
     0
 62
   123
  6
CONTINUOUS
  0
LAYER
  5
B5
330
2
100
AcDbSymbolTableRecord
100
AcDbLayerTableRecord
  2
124
 70
     0
 62
   124
  6
CONTINUOUS
  0
LAYER
  5
B6
330
2
100
AcDbSymbolTableRecord
100
AcDbLayerTableRecord
  2
125
 70
     0
 62
   125
  6
CONTINUOUS
  0
LAYER
  5
B7
330
2
100
AcDbSymbolTableRecord
100
AcDbLayerTableRecord
  2
126
 70
     0
 62
   126
  6
CONTINUOUS
  0
LAYER
  5
B8
330
2
100
AcDbSymbolTableRecord
100
AcDbLayerTableRecord
  2
127
 70
     0
 62
   127
  6
CONTINUOUS
  0
LAYER
  5
B9
330
2
100
AcDbSymbolTableRecord
100
AcDbLayerTableRecord
  2
128
 70
     0
 62
   128
  6
CONTINUOUS
  0
LAYER
  5
BA
330
2
100
AcDbSymbolTableRecord
100
AcDbLayerTableRecord
  2
129
 70
     0
 62
   129
  6
CONTINUOUS
  0
LAYER
  5
BB
330
2
100
AcDbSymbolTableRecord
100
AcDbLayerTableRecord
  2
130
 70
     0
 62
   130
  6
CONTINUOUS
  0
LAYER
  5
BC
330
2
100
AcDbSymbolTableRecord
100
AcDbLayerTableRecord
  2
131
 70
     0
 62
   131
  6
CONTINUOUS
  0
LAYER
  5
BD
330
2
100
AcDbSymbolTableRecord
100
AcDbLayerTableRecord
  2
132
 70
     0
 62
   132
  6
CONTINUOUS
  0
LAYER
  5
BE
330
2
100
AcDbSymbolTableRecord
100
AcDbLayerTableRecord
  2
133
 70
     0
 62
   133
  6
CONTINUOUS
  0
LAYER
  5
BF
330
2
100
AcDbSymbolTableRecord
100
AcDbLayerTableRecord
  2
134
 70
     0
 62
   134
  6
CONTINUOUS
  0
LAYER
  5
C0
330
2
100
AcDbSymbolTableRecord
100
AcDbLayerTableRecord
  2
135
 70
     0
 62
   135
  6
CONTINUOUS
  0
LAYER
  5
C1
330
2
100
AcDbSymbolTableRecord
100
AcDbLayerTableRecord
  2
136
 70
     0
 62
   136
  6
CONTINUOUS
  0
LAYER
  5
C2
330
2
100
AcDbSymbolTableRecord
100
AcDbLayerTableRecord
  2
137
 70
     0
 62
   137
  6
CONTINUOUS
  0
LAYER
  5
C3
330
2
100
AcDbSymbolTableRecord
100
AcDbLayerTableRecord
  2
138
 70
     0
 62
   138
  6
CONTINUOUS
  0
LAYER
  5
C4
330
2
100
AcDbSymbolTableRecord
100
AcDbLayerTableRecord
  2
139
 70
     0
 62
   139
  6
CONTINUOUS
  0
LAYER
  5
C5
330
2
100
AcDbSymbolTableRecord
100
AcDbLayerTableRecord
  2
140
 70
     0
 62
   140
  6
CONTINUOUS
  0
LAYER
  5
C6
330
2
100
AcDbSymbolTableRecord
100
AcDbLayerTableRecord
  2
141
 70
     0
 62
   141
  6
CONTINUOUS
  0
LAYER
  5
C7
330
2
100
AcDbSymbolTableRecord
100
AcDbLayerTableRecord
  2
142
 70
     0
 62
   142
  6
CONTINUOUS
  0
LAYER
  5
C8
330
2
100
AcDbSymbolTableRecord
100
AcDbLayerTableRecord
  2
143
 70
     0
 62
   143
  6
CONTINUOUS
  0
LAYER
  5
C9
330
2
100
AcDbSymbolTableRecord
100
AcDbLayerTableRecord
  2
144
 70
     0
 62
   144
  6
CONTINUOUS
  0
LAYER
  5
CA
330
2
100
AcDbSymbolTableRecord
100
AcDbLayerTableRecord
  2
145
 70
     0
 62
   145
  6
CONTINUOUS
  0
LAYER
  5
CB
330
2
100
AcDbSymbolTableRecord
100
AcDbLayerTableRecord
  2
146
 70
     0
 62
   146
  6
CONTINUOUS
  0
LAYER
  5
CC
330
2
100
AcDbSymbolTableRecord
100
AcDbLayerTableRecord
  2
147
 70
     0
 62
   147
  6
CONTINUOUS
  0
LAYER
  5
CD
330
2
100
AcDbSymbolTableRecord
100
AcDbLayerTableRecord
  2
148
 70
     0
 62
   148
  6
CONTINUOUS
  0
LAYER
  5
CE
330
2
100
AcDbSymbolTableRecord
100
AcDbLayerTableRecord
  2
149
 70
     0
 62
   149
  6
CONTINUOUS
  0
LAYER
  5
CF
330
2
100
AcDbSymbolTableRecord
100
AcDbLayerTableRecord
  2
150
 70
     0
 62
   150
  6
CONTINUOUS
  0
LAYER
  5
D0
330
2
100
AcDbSymbolTableRecord
100
AcDbLayerTableRecord
  2
151
 70
     0
 62
   151
  6
CONTINUOUS
  0
LAYER
  5
D1
330
2
100
AcDbSymbolTableRecord
100
AcDbLayerTableRecord
  2
152
 70
     0
 62
   152
  6
CONTINUOUS
  0
LAYER
  5
D2
330
2
100
AcDbSymbolTableRecord
100
AcDbLayerTableRecord
  2
153
 70
     0
 62
   153
  6
CONTINUOUS
  0
LAYER
  5
D3
330
2
100
AcDbSymbolTableRecord
100
AcDbLayerTableRecord
  2
154
 70
     0
 62
   154
  6
CONTINUOUS
  0
LAYER
  5
D4
330
2
100
AcDbSymbolTableRecord
100
AcDbLayerTableRecord
  2
155
 70
     0
 62
   155
  6
CONTINUOUS
  0
LAYER
  5
D5
330
2
100
AcDbSymbolTableRecord
100
AcDbLayerTableRecord
  2
156
 70
     0
 62
   156
  6
CONTINUOUS
  0
LAYER
  5
D6
330
2
100
AcDbSymbolTableRecord
100
AcDbLayerTableRecord
  2
157
 70
     0
 62
   157
  6
CONTINUOUS
  0
LAYER
  5
D7
330
2
100
AcDbSymbolTableRecord
100
AcDbLayerTableRecord
  2
158
 70
     0
 62
   158
  6
CONTINUOUS
  0
LAYER
  5
D8
330
2
100
AcDbSymbolTableRecord
100
AcDbLayerTableRecord
  2
159
 70
     0
 62
   159
  6
CONTINUOUS
  0
LAYER
  5
D9
330
2
100
AcDbSymbolTableRecord
100
AcDbLayerTableRecord
  2
160
 70
     0
 62
   160
  6
CONTINUOUS
  0
LAYER
  5
DA
330
2
100
AcDbSymbolTableRecord
100
AcDbLayerTableRecord
  2
161
 70
     0
 62
   161
  6
CONTINUOUS
  0
LAYER
  5
DB
330
2
100
AcDbSymbolTableRecord
100
AcDbLayerTableRecord
  2
162
 70
     0
 62
   162
  6
CONTINUOUS
  0
LAYER
  5
DC
330
2
100
AcDbSymbolTableRecord
100
AcDbLayerTableRecord
  2
163
 70
     0
 62
   163
  6
CONTINUOUS
  0
LAYER
  5
DD
330
2
100
AcDbSymbolTableRecord
100
AcDbLayerTableRecord
  2
164
 70
     0
 62
   164
  6
CONTINUOUS
  0
LAYER
  5
DE
330
2
100
AcDbSymbolTableRecord
100
AcDbLayerTableRecord
  2
165
 70
     0
 62
   165
  6
CONTINUOUS
  0
LAYER
  5
DF
330
2
100
AcDbSymbolTableRecord
100
AcDbLayerTableRecord
  2
166
 70
     0
 62
   166
  6
CONTINUOUS
  0
LAYER
  5
E0
330
2
100
AcDbSymbolTableRecord
100
AcDbLayerTableRecord
  2
167
 70
     0
 62
   167
  6
CONTINUOUS
  0
LAYER
  5
E1
330
2
100
AcDbSymbolTableRecord
100
AcDbLayerTableRecord
  2
168
 70
     0
 62
   168
  6
CONTINUOUS
  0
LAYER
  5
E2
330
2
100
AcDbSymbolTableRecord
100
AcDbLayerTableRecord
  2
169
 70
     0
 62
   169
  6
CONTINUOUS
  0
LAYER
  5
E3
330
2
100
AcDbSymbolTableRecord
100
AcDbLayerTableRecord
  2
170
 70
     0
 62
   170
  6
CONTINUOUS
  0
LAYER
  5
E4
330
2
100
AcDbSymbolTableRecord
100
AcDbLayerTableRecord
  2
171
 70
     0
 62
   171
  6
CONTINUOUS
  0
LAYER
  5
E5
330
2
100
AcDbSymbolTableRecord
100
AcDbLayerTableRecord
  2
172
 70
     0
 62
   172
  6
CONTINUOUS
  0
LAYER
  5
E6
330
2
100
AcDbSymbolTableRecord
100
AcDbLayerTableRecord
  2
173
 70
     0
 62
   173
  6
CONTINUOUS
  0
LAYER
  5
E7
330
2
100
AcDbSymbolTableRecord
100
AcDbLayerTableRecord
  2
174
 70
     0
 62
   174
  6
CONTINUOUS
  0
LAYER
  5
E8
330
2
100
AcDbSymbolTableRecord
100
AcDbLayerTableRecord
  2
175
 70
     0
 62
   175
  6
CONTINUOUS
  0
LAYER
  5
E9
330
2
100
AcDbSymbolTableRecord
100
AcDbLayerTableRecord
  2
176
 70
     0
 62
   176
  6
CONTINUOUS
  0
LAYER
  5
EA
330
2
100
AcDbSymbolTableRecord
100
AcDbLayerTableRecord
  2
177
 70
     0
 62
   177
  6
CONTINUOUS
  0
LAYER
  5
EB
330
2
100
AcDbSymbolTableRecord
100
AcDbLayerTableRecord
  2
178
 70
     0
 62
   178
  6
CONTINUOUS
  0
LAYER
  5
EC
330
2
100
AcDbSymbolTableRecord
100
AcDbLayerTableRecord
  2
179
 70
     0
 62
   179
  6
CONTINUOUS
  0
LAYER
  5
ED
330
2
100
AcDbSymbolTableRecord
100
AcDbLayerTableRecord
  2
180
 70
     0
 62
   180
  6
CONTINUOUS
  0
LAYER
  5
EE
330
2
100
AcDbSymbolTableRecord
100
AcDbLayerTableRecord
  2
181
 70
     0
 62
   181
  6
CONTINUOUS
  0
LAYER
  5
EF
330
2
100
AcDbSymbolTableRecord
100
AcDbLayerTableRecord
  2
182
 70
     0
 62
   182
  6
CONTINUOUS
  0
LAYER
  5
F0
330
2
100
AcDbSymbolTableRecord
100
AcDbLayerTableRecord
  2
183
 70
     0
 62
   183
  6
CONTINUOUS
  0
LAYER
  5
F1
330
2
100
AcDbSymbolTableRecord
100
AcDbLayerTableRecord
  2
184
 70
     0
 62
   184
  6
CONTINUOUS
  0
LAYER
  5
F2
330
2
100
AcDbSymbolTableRecord
100
AcDbLayerTableRecord
  2
185
 70
     0
 62
   185
  6
CONTINUOUS
  0
LAYER
  5
F3
330
2
100
AcDbSymbolTableRecord
100
AcDbLayerTableRecord
  2
186
 70
     0
 62
   186
  6
CONTINUOUS
  0
LAYER
  5
F4
330
2
100
AcDbSymbolTableRecord
100
AcDbLayerTableRecord
  2
187
 70
     0
 62
   187
  6
CONTINUOUS
  0
LAYER
  5
F5
330
2
100
AcDbSymbolTableRecord
100
AcDbLayerTableRecord
  2
188
 70
     0
 62
   188
  6
CONTINUOUS
  0
LAYER
  5
F6
330
2
100
AcDbSymbolTableRecord
100
AcDbLayerTableRecord
  2
189
 70
     0
 62
   189
  6
CONTINUOUS
  0
LAYER
  5
F7
330
2
100
AcDbSymbolTableRecord
100
AcDbLayerTableRecord
  2
190
 70
     0
 62
   190
  6
CONTINUOUS
  0
LAYER
  5
F8
330
2
100
AcDbSymbolTableRecord
100
AcDbLayerTableRecord
  2
191
 70
     0
 62
   191
  6
CONTINUOUS
  0
LAYER
  5
F9
330
2
100
AcDbSymbolTableRecord
100
AcDbLayerTableRecord
  2
192
 70
     0
 62
   192
  6
CONTINUOUS
  0
LAYER
  5
FA
330
2
100
AcDbSymbolTableRecord
100
AcDbLayerTableRecord
  2
193
 70
     0
 62
   193
  6
CONTINUOUS
  0
LAYER
  5
FB
330
2
100
AcDbSymbolTableRecord
100
AcDbLayerTableRecord
  2
194
 70
     0
 62
   194
  6
CONTINUOUS
  0
LAYER
  5
FC
330
2
100
AcDbSymbolTableRecord
100
AcDbLayerTableRecord
  2
195
 70
     0
 62
   195
  6
CONTINUOUS
  0
LAYER
  5
FD
330
2
100
AcDbSymbolTableRecord
100
AcDbLayerTableRecord
  2
196
 70
     0
 62
   196
  6
CONTINUOUS
  0
LAYER
  5
FE
330
2
100
AcDbSymbolTableRecord
100
AcDbLayerTableRecord
  2
197
 70
     0
 62
   197
  6
CONTINUOUS
  0
LAYER
  5
FF
330
2
100
AcDbSymbolTableRecord
100
AcDbLayerTableRecord
  2
198
 70
     0
 62
   198
  6
CONTINUOUS
  0
LAYER
  5
100
330
2
100
AcDbSymbolTableRecord
100
AcDbLayerTableRecord
  2
199
 70
     0
 62
   199
  6
CONTINUOUS
  0
LAYER
  5
101
330
2
100
AcDbSymbolTableRecord
100
AcDbLayerTableRecord
  2
200
 70
     0
 62
   200
  6
CONTINUOUS
  0
LAYER
  5
102
330
2
100
AcDbSymbolTableRecord
100
AcDbLayerTableRecord
  2
201
 70
     0
 62
   201
  6
CONTINUOUS
  0
LAYER
  5
103
330
2
100
AcDbSymbolTableRecord
100
AcDbLayerTableRecord
  2
202
 70
     0
 62
   202
  6
CONTINUOUS
  0
LAYER
  5
104
330
2
100
AcDbSymbolTableRecord
100
AcDbLayerTableRecord
  2
203
 70
     0
 62
   203
  6
CONTINUOUS
  0
LAYER
  5
105
330
2
100
AcDbSymbolTableRecord
100
AcDbLayerTableRecord
  2
204
 70
     0
 62
   204
  6
CONTINUOUS
  0
LAYER
  5
106
330
2
100
AcDbSymbolTableRecord
100
AcDbLayerTableRecord
  2
205
 70
     0
 62
   205
  6
CONTINUOUS
  0
LAYER
  5
107
330
2
100
AcDbSymbolTableRecord
100
AcDbLayerTableRecord
  2
206
 70
     0
 62
   206
  6
CONTINUOUS
  0
LAYER
  5
108
330
2
100
AcDbSymbolTableRecord
100
AcDbLayerTableRecord
  2
207
 70
     0
 62
   207
  6
CONTINUOUS
  0
LAYER
  5
109
330
2
100
AcDbSymbolTableRecord
100
AcDbLayerTableRecord
  2
208
 70
     0
 62
   208
  6
CONTINUOUS
  0
LAYER
  5
10A
330
2
100
AcDbSymbolTableRecord
100
AcDbLayerTableRecord
  2
209
 70
     0
 62
   209
  6
CONTINUOUS
  0
LAYER
  5
10B
330
2
100
AcDbSymbolTableRecord
100
AcDbLayerTableRecord
  2
210
 70
     0
 62
   210
  6
CONTINUOUS
  0
LAYER
  5
10C
330
2
100
AcDbSymbolTableRecord
100
AcDbLayerTableRecord
  2
211
 70
     0
 62
   211
  6
CONTINUOUS
  0
LAYER
  5
10D
330
2
100
AcDbSymbolTableRecord
100
AcDbLayerTableRecord
  2
212
 70
     0
 62
   212
  6
CONTINUOUS
  0
LAYER
  5
10E
330
2
100
AcDbSymbolTableRecord
100
AcDbLayerTableRecord
  2
213
 70
     0
 62
   213
  6
CONTINUOUS
  0
LAYER
  5
10F
330
2
100
AcDbSymbolTableRecord
100
AcDbLayerTableRecord
  2
214
 70
     0
 62
   214
  6
CONTINUOUS
  0
LAYER
  5
110
330
2
100
AcDbSymbolTableRecord
100
AcDbLayerTableRecord
  2
215
 70
     0
 62
   215
  6
CONTINUOUS
  0
LAYER
  5
111
330
2
100
AcDbSymbolTableRecord
100
AcDbLayerTableRecord
  2
216
 70
     0
 62
   216
  6
CONTINUOUS
  0
LAYER
  5
112
330
2
100
AcDbSymbolTableRecord
100
AcDbLayerTableRecord
  2
217
 70
     0
 62
   217
  6
CONTINUOUS
  0
LAYER
  5
113
330
2
100
AcDbSymbolTableRecord
100
AcDbLayerTableRecord
  2
218
 70
     0
 62
   218
  6
CONTINUOUS
  0
LAYER
  5
114
330
2
100
AcDbSymbolTableRecord
100
AcDbLayerTableRecord
  2
219
 70
     0
 62
   219
  6
CONTINUOUS
  0
LAYER
  5
115
330
2
100
AcDbSymbolTableRecord
100
AcDbLayerTableRecord
  2
220
 70
     0
 62
   220
  6
CONTINUOUS
  0
LAYER
  5
116
330
2
100
AcDbSymbolTableRecord
100
AcDbLayerTableRecord
  2
221
 70
     0
 62
   221
  6
CONTINUOUS
  0
LAYER
  5
117
330
2
100
AcDbSymbolTableRecord
100
AcDbLayerTableRecord
  2
222
 70
     0
 62
   222
  6
CONTINUOUS
  0
LAYER
  5
118
330
2
100
AcDbSymbolTableRecord
100
AcDbLayerTableRecord
  2
223
 70
     0
 62
   223
  6
CONTINUOUS
  0
LAYER
  5
119
330
2
100
AcDbSymbolTableRecord
100
AcDbLayerTableRecord
  2
224
 70
     0
 62
   224
  6
CONTINUOUS
  0
LAYER
  5
11A
330
2
100
AcDbSymbolTableRecord
100
AcDbLayerTableRecord
  2
225
 70
     0
 62
   225
  6
CONTINUOUS
  0
LAYER
  5
11B
330
2
100
AcDbSymbolTableRecord
100
AcDbLayerTableRecord
  2
226
 70
     0
 62
   226
  6
CONTINUOUS
  0
LAYER
  5
11C
330
2
100
AcDbSymbolTableRecord
100
AcDbLayerTableRecord
  2
227
 70
     0
 62
   227
  6
CONTINUOUS
  0
LAYER
  5
11D
330
2
100
AcDbSymbolTableRecord
100
AcDbLayerTableRecord
  2
228
 70
     0
 62
   228
  6
CONTINUOUS
  0
LAYER
  5
11E
330
2
100
AcDbSymbolTableRecord
100
AcDbLayerTableRecord
  2
229
 70
     0
 62
   229
  6
CONTINUOUS
  0
LAYER
  5
11F
330
2
100
AcDbSymbolTableRecord
100
AcDbLayerTableRecord
  2
230
 70
     0
 62
   230
  6
CONTINUOUS
  0
LAYER
  5
120
330
2
100
AcDbSymbolTableRecord
100
AcDbLayerTableRecord
  2
231
 70
     0
 62
   231
  6
CONTINUOUS
  0
LAYER
  5
121
330
2
100
AcDbSymbolTableRecord
100
AcDbLayerTableRecord
  2
232
 70
     0
 62
   232
  6
CONTINUOUS
  0
LAYER
  5
122
330
2
100
AcDbSymbolTableRecord
100
AcDbLayerTableRecord
  2
233
 70
     0
 62
   233
  6
CONTINUOUS
  0
LAYER
  5
123
330
2
100
AcDbSymbolTableRecord
100
AcDbLayerTableRecord
  2
234
 70
     0
 62
   234
  6
CONTINUOUS
  0
LAYER
  5
124
330
2
100
AcDbSymbolTableRecord
100
AcDbLayerTableRecord
  2
235
 70
     0
 62
   235
  6
CONTINUOUS
  0
LAYER
  5
125
330
2
100
AcDbSymbolTableRecord
100
AcDbLayerTableRecord
  2
236
 70
     0
 62
   236
  6
CONTINUOUS
  0
LAYER
  5
126
330
2
100
AcDbSymbolTableRecord
100
AcDbLayerTableRecord
  2
237
 70
     0
 62
   237
  6
CONTINUOUS
  0
LAYER
  5
127
330
2
100
AcDbSymbolTableRecord
100
AcDbLayerTableRecord
  2
238
 70
     0
 62
   238
  6
CONTINUOUS
  0
LAYER
  5
128
330
2
100
AcDbSymbolTableRecord
100
AcDbLayerTableRecord
  2
239
 70
     0
 62
   239
  6
CONTINUOUS
  0
LAYER
  5
129
330
2
100
AcDbSymbolTableRecord
100
AcDbLayerTableRecord
  2
240
 70
     0
 62
   240
  6
CONTINUOUS
  0
LAYER
  5
12A
330
2
100
AcDbSymbolTableRecord
100
AcDbLayerTableRecord
  2
241
 70
     0
 62
   241
  6
CONTINUOUS
  0
LAYER
  5
12B
330
2
100
AcDbSymbolTableRecord
100
AcDbLayerTableRecord
  2
242
 70
     0
 62
   242
  6
CONTINUOUS
  0
LAYER
  5
12C
330
2
100
AcDbSymbolTableRecord
100
AcDbLayerTableRecord
  2
243
 70
     0
 62
   243
  6
CONTINUOUS
  0
LAYER
  5
12D
330
2
100
AcDbSymbolTableRecord
100
AcDbLayerTableRecord
  2
244
 70
     0
 62
   244
  6
CONTINUOUS
  0
LAYER
  5
12E
330
2
100
AcDbSymbolTableRecord
100
AcDbLayerTableRecord
  2
245
 70
     0
 62
   245
  6
CONTINUOUS
  0
LAYER
  5
12F
330
2
100
AcDbSymbolTableRecord
100
AcDbLayerTableRecord
  2
246
 70
     0
 62
   246
  6
CONTINUOUS
  0
LAYER
  5
130
330
2
100
AcDbSymbolTableRecord
100
AcDbLayerTableRecord
  2
247
 70
     0
 62
   247
  6
CONTINUOUS
  0
LAYER
  5
131
330
2
100
AcDbSymbolTableRecord
100
AcDbLayerTableRecord
  2
248
 70
     0
 62
   248
  6
CONTINUOUS
  0
LAYER
  5
132
330
2
100
AcDbSymbolTableRecord
100
AcDbLayerTableRecord
  2
249
 70
     0
 62
   249
  6
CONTINUOUS
  0
LAYER
  5
133
330
2
100
AcDbSymbolTableRecord
100
AcDbLayerTableRecord
  2
250
 70
     0
 62
   250
  6
CONTINUOUS
  0
LAYER
  5
134
330
2
100
AcDbSymbolTableRecord
100
AcDbLayerTableRecord
  2
251
 70
     0
 62
   251
  6
CONTINUOUS
  0
LAYER
  5
135
330
2
100
AcDbSymbolTableRecord
100
AcDbLayerTableRecord
  2
252
 70
     0
 62
   252
  6
CONTINUOUS
  0
LAYER
  5
136
330
2
100
AcDbSymbolTableRecord
100
AcDbLayerTableRecord
  2
253
 70
     0
 62
   253
  6
CONTINUOUS
  0
LAYER
  5
137
330
2
100
AcDbSymbolTableRecord
100
AcDbLayerTableRecord
  2
254
 70
     0
 62
   254
  6
CONTINUOUS
  0
LAYER
  5
138
330
2
100
AcDbSymbolTableRecord
100
AcDbLayerTableRecord
  2
255
 70
     0
 62
   255
  6
CONTINUOUS
  0
ENDTAB
  0
TABLE
  2
STYLE
  5
3
330
0
100
AcDbSymbolTable
 70
     1
  0
STYLE
  5
11
330
3
100
AcDbSymbolTableRecord
100
AcDbTextStyleTableRecord
  2
STANDARD
 70
     0
 40
0.0
 41
1.0
 50
0.0
 71
     0
 42
0.2
  3
monotxt
  4

  0
ENDTAB
  0
TABLE
  2
VIEW
  5
6
330
0
100
AcDbSymbolTable
 70
     0
  0
ENDTAB
  0
TABLE
  2
UCS
  5
7
330
0
100
AcDbSymbolTable
 70
     0
  0
ENDTAB
  0
TABLE
  2
APPID
  5
9
330
0
100
AcDbSymbolTable
 70
     1
  0
APPID
  5
12
330
9
100
AcDbSymbolTableRecord
100
AcDbRegAppTableRecord
  2
ACAD
 70
     0
  0
ENDTAB
  0
TABLE
  2
DIMSTYLE
  5
A
330
0
100
AcDbSymbolTable
 70
     1
  0
DIMSTYLE
105
3298
330
A
100
AcDbSymbolTableRecord
100
AcDbDimStyleTableRecord
  2
STANDARD
 70
     0
  3

  4

  5

  6

  7

 40
1.0
 41
0.18
 42
0.0625
 43
0.38
 44
0.18
 45
0.0
 46
0.0
 47
0.0
 48
0.0
140
0.18
141
0.09
142
0.0
143
25.4
144
1.0
145
0.0
146
1.0
147
0.09
 71
     0
 72
     0
 73
     1
 74
     1
 75
     0
 76
     0
 77
     0
 78
     0
170
     0
171
     2
172
     0
173
     0
174
     0
175
     0
176
     0
177
     0
178
     0
270
     2
271
     4
272
     4
273
     2
274
     2
340
11
275
     0
280
     0
281
     0
282
     0
283
     1
284
     0
285
     0
286
     0
287
     3
288
     0
  0
ENDTAB
  0
TABLE
  2
BLOCK_RECORD
  5
1
330
0
100
AcDbSymbolTable
 70
     0
  0
BLOCK_RECORD
  5
1E
102
{ACAD_XDICTIONARY
360
358C
102
}
330
1
100
AcDbSymbolTableRecord
100
AcDbBlockTableRecord
  2
*MODEL_SPACE
  0
BLOCK_RECORD
  5
1A
102
{ACAD_XDICTIONARY
360
358A
102
}
330
1
100
AcDbSymbolTableRecord
100
AcDbBlockTableRecord
  2
*PAPER_SPACE
  0
ENDTAB
  0
ENDSEC
  0
SECTION
  2
BLOCKS
  0
BLOCK
  5
13B
330
1E
100
AcDbEntity
  8
0
100
AcDbBlockBegin
  2
*MODEL_SPACE
 70
     0
 10
0.0
 20
0.0
 30
0.0
  3
*MODEL_SPACE
  1

  0
ENDBLK
  5
13C
330
1E
100
AcDbEntity
  8
0
100
AcDbBlockEnd
  0
BLOCK
  5
139
330
1A
100
AcDbEntity
 67
     1
  8
0
100
AcDbBlockBegin
  2
*PAPER_SPACE
 70
     0
 10
0.0
 20
0.0
 30
0.0
  3
*PAPER_SPACE
  1

  0
ENDBLK
  5
13A
330
1A
100
AcDbEntity
 67
     1
  8
0
100
AcDbBlockEnd
  0
ENDSEC
  0
SECTION
  2
ENTITIES
  0
LINE
  5
26B7
330
1E
100
AcDbEntity
  8
7
100
AcDbLine
 10
2.192913385826771
 20
8.884842519685038
 30
0.0
 11
2.192913385826771
 21
2.973425196850394
 31
0.0
  0
LINE
  5
26B8
330
1E
100
AcDbEntity
  8
7
100
AcDbLine
 10
5.572834645669291
 20
2.973425196850394
 30
0.0
 11
5.572834645669291
 21
8.884842519685038
 31
0.0
  0
LINE
  5
26B9
330
1E
100
AcDbEntity
  8
7
100
AcDbLine
 10
3.474409448818898
 20
2.764763779527561
 30
0.0
 11
4.293307086614173
 21
2.764763779527561
 31
0.0
  0
LINE
  5
26BA
330
1E
100
AcDbEntity
  8
7
100
AcDbLine
 10
2.208661417322834
 20
9.164370078740157
 30
0.0
 11
2.208661417322834
 21
8.884842519685038
 31
0.0
  0
LINE
  5
26BB
330
1E
100
AcDbEntity
  8
7
100
AcDbLine
 10
4.633858267716535
 20
9.164370078740157
 30
0.0
 11
3.133858267716535
 21
9.164370078740157
 31
0.0
  0
LINE
  5
26BC
330
1E
100
AcDbEntity
  8
7
100
AcDbLine
 10
5.559055118110236
 20
8.884842519685038
 30
0.0
 11
5.559055118110236
 21
9.164370078740157
 31
0.0
  0
LINE
  5
26BD
330
1E
100
AcDbEntity
  8
7
100
AcDbLine
 10
2.448818897637795
 20
2.951771653543309
 30
0.0
 11
2.448818897637795
 21
2.729330708661416
 31
0.0
  0
LINE
  5
26BE
330
1E
100
AcDbEntity
  8
7
100
AcDbLine
 10
5.318897637795275
 20
2.729330708661416
 30
0.0
 11
5.318897637795275
 21
2.951771653543309
 31
0.0
  0
LINE
  5
26BF
330
1E
100
AcDbEntity
  8
7
100
AcDbLine
 10
5.372047244094487
 20
2.973425196850394
 30
0.0
 11
2.395669291338582
 21
2.973425196850394
 31
0.0
  0
LINE
  5
26C0
330
1E
100
AcDbEntity
  8
7
100
AcDbLine
 10
5.372047244094487
 20
8.884842519685038
 30
0.0
 11
5.372047244094487
 21
2.973425196850394
 31
0.0
  0
LINE
  5
26C1
330
1E
100
AcDbEntity
  8
7
100
AcDbLine
 10
2.395669291338582
 20
8.884842519685038
 30
0.0
 11
5.372047244094487
 21
8.884842519685038
 31
0.0
  0
LINE
  5
26E6
330
1E
100
AcDbEntity
  8
7
100
AcDbLine
 10
5.127952755905512
 20
2.514763779527559
 30
0.0
 11
4.442913385826771
 21
2.514763779527559
 31
0.0
  0
LINE
  5
26E7
330
1E
100
AcDbEntity
  8
7
100
AcDbLine
 10
2.570866141732283
 20
9.164370078740157
 30
0.0
 11
2.984251968503937
 21
9.164370078740157
 31
0.0
  0
LINE
  5
26E8
330
1E
100
AcDbEntity
  8
7
100
AcDbLine
 10
2.858267716535433
 20
2.684055118110235
 30
0.0
 11
2.858267716535433
 21
2.843503937007875
 31
0.0
  0
LINE
  5
26F1
330
1E
100
AcDbEntity
  8
7
100
AcDbLine
 10
2.948818897637795
 20
2.684055118110235
 30
0.0
 11
2.948818897637795
 21
2.843503937007875
 31
0.0
  0
LINE
  5
26FD
330
1E
100
AcDbEntity
  8
7
100
AcDbLine
 10
4.818897637795275
 20
2.684055118110235
 30
0.0
 11
4.818897637795275
 21
2.843503937007875
 31
0.0
  0
LINE
  5
2706
330
1E
100
AcDbEntity
  8
7
100
AcDbLine
 10
4.909448818897637
 20
2.684055118110235
 30
0.0
 11
4.909448818897637
 21
2.843503937007875
 31
0.0
  0
LINE
  5
270F
330
1E
100
AcDbEntity
  8
7
100
AcDbLine
 10
3.159448818897637
 20
2.684055118110235
 30
0.0
 11
3.159448818897637
 21
2.843503937007875
 31
0.0
  0
LINE
  5
2710
330
1E
100
AcDbEntity
  8
7
100
AcDbLine
 10
3.246062992125984
 20
2.843503937007875
 30
0.0
 11
3.238188976377952
 21
2.869094488188975
 31
0.0
  0
LINE
  5
2718
330
1E
100
AcDbEntity
  8
7
100
AcDbLine
 10
3.248031496062991
 20
2.684055118110235
 30
0.0
 11
3.248031496062991
 21
2.843503937007875
 31
0.0
  0
LINE
  5
2721
330
1E
100
AcDbEntity
  8
7
100
AcDbLine
 10
4.517716535433071
 20
2.684055118110235
 30
0.0
 11
4.517716535433071
 21
2.843503937007875
 31
0.0
  0
LINE
  5
272A
330
1E
100
AcDbEntity
  8
7
100
AcDbLine
 10
4.608267716535433
 20
2.684055118110235
 30
0.0
 11
4.608267716535433
 21
2.843503937007875
 31
0.0
  0
LINE
  5
2733
330
1E
100
AcDbEntity
  8
7
100
AcDbLine
 10
2.578740157480314
 20
2.973425196850394
 30
0.0
 11
2.578740157480314
 21
2.951771653543309
 31
0.0
  0
LINE
  5
2734
330
1E
100
AcDbEntity
  8
7
100
AcDbLine
 10
2.578740157480314
 20
2.729330708661416
 30
0.0
 11
2.578740157480314
 21
2.573818897637794
 31
0.0
  0
LINE
  5
273B
330
1E
100
AcDbEntity
  8
7
100
AcDbLine
 10
3.32283464566929
 20
2.514763779527559
 30
0.0
 11
2.63779527559055
 21
2.514763779527559
 31
0.0
  0
LINE
  5
2742
330
1E
100
AcDbEntity
  8
7
100
AcDbLine
 10
3.383858267716535
 20
2.573818897637794
 30
0.0
 11
3.383858267716535
 21
2.936023622047246
 31
0.0
  0
LINE
  5
2757
330
1E
100
AcDbEntity
  8
7
100
AcDbLine
 10
4.383858267716535
 20
2.573818897637794
 30
0.0
 11
4.383858267716535
 21
2.936023622047246
 31
0.0
  0
LINE
  5
2764
330
1E
100
AcDbEntity
  8
7
100
AcDbLine
 10
5.188976377952755
 20
2.729330708661416
 30
0.0
 11
5.188976377952755
 21
2.573818897637794
 31
0.0
  0
LINE
  5
2765
330
1E
100
AcDbEntity
  8
7
100
AcDbLine
 10
5.188976377952755
 20
2.973425196850394
 30
0.0
 11
5.188976377952755
 21
2.951771653543309
 31
0.0
  0
LINE
  5
2766
330
1E
100
AcDbEntity
  8
7
100
AcDbLine
 10
4.783464566929134
 20
9.164370078740157
 30
0.0
 11
5.196850393700787
 21
9.164370078740157
 31
0.0
  0
LINE
  5
276D
330
1E
100
AcDbEntity
  8
7
100
AcDbLine
 10
4.724409448818898
 20
8.991141732283464
 30
0.0
 11
4.724409448818898
 21
9.103346456692912
 31
0.0
  0
LINE
  5
2781
330
1E
100
AcDbEntity
  8
7
100
AcDbLine
 10
3.043307086614173
 20
8.991141732283464
 30
0.0
 11
3.043307086614173
 21
9.103346456692912
 31
0.0
  0
LINE
  5
2795
330
1E
100
AcDbEntity
  8
7
100
AcDbLine
 10
2.629921259842519
 20
8.884842519685038
 30
0.0
 11
2.629921259842519
 21
9.103346456692912
 31
0.0
  0
LINE
  5
27A5
330
1E
100
AcDbEntity
  8
7
100
AcDbLine
 10
5.385826771653543
 20
9.164370078740157
 30
0.0
 11
5.196850393700787
 21
9.164370078740157
 31
0.0
  0
LINE
  5
27AC
330
1E
100
AcDbEntity
  8
7
100
AcDbLine
 10
5.135826771653543
 20
9.103346456692912
 30
0.0
 11
5.135826771653543
 21
8.884842519685038
 31
0.0
  0
LINE
  5
27C0
330
1E
100
AcDbEntity
  8
7
100
AcDbLine
 10
3.133858267716535
 20
8.991141732283464
 30
0.0
 11
4.633858267716535
 21
8.991141732283464
 31
0.0
  0
LINE
  5
27C1
330
1E
100
AcDbEntity
  8
7
100
AcDbLine
 10
3.133858267716535
 20
8.991141732283464
 30
0.0
 11
3.133858267716535
 21
8.884842519685038
 31
0.0
  0
LINE
  5
27C2
330
1E
100
AcDbEntity
  8
7
100
AcDbLine
 10
4.633858267716535
 20
8.991141732283464
 30
0.0
 11
4.633858267716535
 21
8.884842519685038
 31
0.0
  0
LINE
  5
27D3
330
1E
100
AcDbEntity
  8
7
100
AcDbLine
 10
4.293307086614173
 20
2.936023622047246
 30
0.0
 11
3.474409448818898
 21
2.936023622047246
 31
0.0
  0
LINE
  5
27D4
330
1E
100
AcDbEntity
  8
7
100
AcDbLine
 10
4.293307086614173
 20
2.936023622047246
 30
0.0
 11
4.293307086614173
 21
2.973425196850394
 31
0.0
  0
LINE
  5
27D5
330
1E
100
AcDbEntity
  8
7
100
AcDbLine
 10
3.474409448818898
 20
2.936023622047246
 30
0.0
 11
3.474409448818898
 21
2.973425196850394
 31
0.0
  0
LINE
  5
27DC
330
1E
100
AcDbEntity
  8
7
100
AcDbLine
 10
5.318897637795275
 20
2.729330708661416
 30
0.0
 11
5.309055118110236
 21
2.729330708661416
 31
0.0
  0
LINE
  5
27E2
330
1E
100
AcDbEntity
  8
7
100
AcDbLine
 10
5.244094488188976
 20
2.951771653543309
 30
0.0
 11
5.244094488188976
 21
2.729330708661416
 31
0.0
  0
LINE
  5
27E3
330
1E
100
AcDbEntity
  8
7
100
AcDbLine
 10
5.051181102362204
 20
2.951771653543309
 30
0.0
 11
5.061023622047244
 21
2.951771653543309
 31
0.0
  0
LINE
  5
27E4
330
1E
100
AcDbEntity
  8
7
100
AcDbLine
 10
5.244094488188976
 20
2.951771653543309
 30
0.0
 11
5.061023622047244
 21
2.951771653543309
 31
0.0
  0
LINE
  5
2804
330
1E
100
AcDbEntity
  8
7
100
AcDbLine
 10
4.992125984251968
 20
2.790354330708661
 30
0.0
 11
5.003937007874015
 21
2.790354330708661
 31
0.0
  0
LINE
  5
2805
330
1E
100
AcDbEntity
  8
7
100
AcDbLine
 10
5.003937007874015
 20
2.892716535433072
 30
0.0
 11
4.992125984251968
 21
2.892716535433072
 31
0.0
  0
LINE
  5
2811
330
1E
100
AcDbEntity
  8
7
100
AcDbLine
 10
2.484251968503937
 20
2.951771653543309
 30
0.0
 11
2.523622047244094
 21
2.951771653543309
 31
0.0
  0
LINE
  5
2812
330
1E
100
AcDbEntity
  8
7
100
AcDbLine
 10
2.523622047244094
 20
2.729330708661416
 30
0.0
 11
2.523622047244094
 21
2.951771653543309
 31
0.0
  0
LINE
  5
2813
330
1E
100
AcDbEntity
  8
7
100
AcDbLine
 10
2.716535433070865
 20
2.729330708661416
 30
0.0
 11
2.706692913385826
 21
2.729330708661416
 31
0.0
  0
LINE
  5
2814
330
1E
100
AcDbEntity
  8
7
100
AcDbLine
 10
2.523622047244094
 20
2.729330708661416
 30
0.0
 11
2.706692913385826
 21
2.729330708661416
 31
0.0
  0
LINE
  5
281A
330
1E
100
AcDbEntity
  8
7
100
AcDbLine
 10
2.706692913385826
 20
2.729330708661416
 30
0.0
 11
2.734251968503937
 21
2.737204724409449
 31
0.0
  0
LINE
  5
282B
330
1E
100
AcDbEntity
  8
7
100
AcDbLine
 10
2.716535433070865
 20
2.951771653543309
 30
0.0
 11
2.746062992125984
 21
2.943897637795275
 31
0.0
  0
LINE
  5
2831
330
1E
100
AcDbEntity
  8
7
100
AcDbLine
 10
2.763779527559054
 20
2.790354330708661
 30
0.0
 11
2.773622047244094
 21
2.790354330708661
 31
0.0
  0
LINE
  5
2832
330
1E
100
AcDbEntity
  8
7
100
AcDbLine
 10
2.773622047244094
 20
2.892716535433072
 30
0.0
 11
2.763779527559054
 21
2.892716535433072
 31
0.0
  0
LINE
  5
2833
330
1E
100
AcDbEntity
  8
7
100
AcDbLine
 10
5.372047244094487
 20
1.166338582677165
 30
0.0
 11
2.395669291338582
 21
1.166338582677165
 31
0.0
  0
LINE
  5
2834
330
1E
100
AcDbEntity
  8
7
100
AcDbLine
 10
5.372047244094487
 20
1.136811023622047
 30
0.0
 11
5.372047244094487
 21
1.166338582677165
 31
0.0
  0
LINE
  5
2835
330
1E
100
AcDbEntity
  8
7
100
AcDbLine
 10
2.395669291338582
 20
1.136811023622047
 30
0.0
 11
2.395669291338582
 21
1.166338582677165
 31
0.0
  0
LINE
  5
2836
330
1E
100
AcDbEntity
  8
7
100
AcDbLine
 10
2.395669291338582
 20
1.136811023622047
 30
0.0
 11
3.474409448818898
 21
1.136811023622047
 31
0.0
  0
LINE
  5
2837
330
1E
100
AcDbEntity
  8
7
100
AcDbLine
 10
4.293307086614173
 20
1.136811023622047
 30
0.0
 11
5.372047244094487
 21
1.136811023622047
 31
0.0
  0
LINE
  5
2846
330
1E
100
AcDbEntity
  8
7
100
AcDbLine
 10
2.265748031496062
 20
0.8100393700787407
 30
0.0
 11
2.285433070866141
 21
0.8336614173228351
 31
0.0
  0
LINE
  5
285F
330
1E
100
AcDbEntity
  8
7
100
AcDbLine
 10
5.423228346456692
 20
1.128937007874015
 30
0.0
 11
5.372047244094487
 21
1.136811023622047
 31
0.0
  0
LINE
  5
2860
330
1E
100
AcDbEntity
  8
7
100
AcDbLine
 10
5.482283464566929
 20
0.8336614173228351
 30
0.0
 11
5.501968503937008
 21
0.8100393700787407
 31
0.0
  0
LINE
  5
286B
330
1E
100
AcDbEntity
  8
7
100
AcDbLine
 10
5.433070866141732
 20
1.156496062992126
 30
0.0
 11
5.372047244094487
 21
1.166338582677165
 31
0.0
  0
LINE
  5
2873
330
1E
100
AcDbEntity
  8
7
100
AcDbLine
 10
5.135826771653543
 20
1.097440944881889
 30
0.0
 11
5.135826771653543
 21
1.136811023622047
 31
0.0
  0
LINE
  5
2874
330
1E
100
AcDbEntity
  8
7
100
AcDbLine
 10
2.629921259842519
 20
1.136811023622047
 30
0.0
 11
2.629921259842519
 21
1.097440944881889
 31
0.0
  0
LINE
  5
2875
330
1E
100
AcDbEntity
  8
7
100
AcDbLine
 10
2.383858267716535
 20
0.8336614173228351
 30
0.0
 11
2.468503937007874
 21
0.8336614173228351
 31
0.0
  0
LINE
  5
287D
330
1E
100
AcDbEntity
  8
7
100
AcDbLine
 10
3.32283464566929
 20
0.8336614173228351
 30
0.0
 11
2.63779527559055
 21
0.8336614173228351
 31
0.0
  0
LINE
  5
28A1
330
1E
100
AcDbEntity
  8
7
100
AcDbLine
 10
5.299212598425197
 20
0.8336614173228351
 30
0.0
 11
5.383858267716535
 21
0.8336614173228351
 31
0.0
  0
LINE
  5
28A7
330
1E
100
AcDbEntity
  8
7
100
AcDbLine
 10
2.63779527559055
 20
0.8336614173228351
 30
0.0
 11
2.63779527559055
 21
0.7923228346456695
 31
0.0
  0
LINE
  5
28A8
330
1E
100
AcDbEntity
  8
7
100
AcDbLine
 10
2.379921259842519
 20
0.7923228346456695
 30
0.0
 11
2.383858267716535
 21
0.7923228346456695
 31
0.0
  0
LINE
  5
28A9
330
1E
100
AcDbEntity
  8
7
100
AcDbLine
 10
5.383858267716535
 20
0.7923228346456695
 30
0.0
 11
5.385826771653543
 21
0.7923228346456695
 31
0.0
  0
LINE
  5
28AA
330
1E
100
AcDbEntity
  8
7
100
AcDbLine
 10
5.218503937007874
 20
0.7923228346456695
 30
0.0
 11
5.383858267716535
 21
0.7923228346456695
 31
0.0
  0
LINE
  5
28AB
330
1E
100
AcDbEntity
  8
7
100
AcDbLine
 10
5.188976377952755
 20
0.7923228346456695
 30
0.0
 11
5.218503937007874
 21
0.7923228346456695
 31
0.0
  0
LINE
  5
28B7
330
1E
100
AcDbEntity
  8
7
100
AcDbLine
 10
4.391732283464566
 20
0.7923228346456695
 30
0.0
 11
4.383858267716535
 21
0.7923228346456695
 31
0.0
  0
LINE
  5
28C0
330
1E
100
AcDbEntity
  8
7
100
AcDbLine
 10
4.293307086614173
 20
0.7923228346456695
 30
0.0
 11
3.474409448818898
 21
0.7923228346456695
 31
0.0
  0
LINE
  5
28D5
330
1E
100
AcDbEntity
  8
7
100
AcDbLine
 10
2.549212598425196
 20
0.7923228346456695
 30
0.0
 11
2.578740157480314
 21
0.7923228346456695
 31
0.0
  0
LINE
  5
28D6
330
1E
100
AcDbEntity
  8
7
100
AcDbLine
 10
2.383858267716535
 20
0.7923228346456695
 30
0.0
 11
2.549212598425196
 21
0.7923228346456695
 31
0.0
  0
LINE
  5
28E0
330
1E
100
AcDbEntity
  8
7
100
AcDbLine
 10
2.379921259842519
 20
1.097440944881889
 30
0.0
 11
2.379921259842519
 21
1.136811023622047
 31
0.0
  0
LINE
  5
28F6
330
1E
100
AcDbEntity
  8
7
100
AcDbLine
 10
5.385826771653543
 20
1.136811023622047
 30
0.0
 11
5.385826771653543
 21
1.097440944881889
 31
0.0
  0
LINE
  5
2900
330
1E
100
AcDbEntity
  8
7
100
AcDbLine
 10
5.196850393700787
 20
1.136811023622047
 30
0.0
 11
5.196850393700787
 21
1.097440944881889
 31
0.0
  0
LINE
  5
2908
330
1E
100
AcDbEntity
  8
7
100
AcDbLine
 10
2.383858267716535
 20
0.8336614173228351
 30
0.0
 11
2.383858267716535
 21
0.7923228346456695
 31
0.0
  0
LINE
  5
2909
330
1E
100
AcDbEntity
  8
7
100
AcDbLine
 10
5.383858267716535
 20
0.8336614173228351
 30
0.0
 11
5.383858267716535
 21
0.7923228346456695
 31
0.0
  0
LINE
  5
290A
330
1E
100
AcDbEntity
  8
7
100
AcDbLine
 10
2.578740157480314
 20
0.7923228346456695
 30
0.0
 11
2.578740157480314
 21
0.8336614173228351
 31
0.0
  0
LINE
  5
290B
330
1E
100
AcDbEntity
  8
7
100
AcDbLine
 10
2.549212598425196
 20
0.8336614173228351
 30
0.0
 11
2.549212598425196
 21
0.7923228346456695
 31
0.0
  0
LINE
  5
290C
330
1E
100
AcDbEntity
  8
7
100
AcDbLine
 10
5.188976377952755
 20
0.8336614173228351
 30
0.0
 11
5.188976377952755
 21
0.7923228346456695
 31
0.0
  0
LINE
  5
290D
330
1E
100
AcDbEntity
  8
7
100
AcDbLine
 10
5.218503937007874
 20
0.8336614173228351
 30
0.0
 11
5.218503937007874
 21
0.7923228346456695
 31
0.0
  0
LINE
  5
2922
330
1E
100
AcDbEntity
  8
7
100
AcDbLine
 10
3.133858267716535
 20
1.097440944881889
 30
0.0
 11
3.133858267716535
 21
1.136811023622047
 31
0.0
  0
LINE
  5
2932
330
1E
100
AcDbEntity
  8
7
100
AcDbLine
 10
4.572834645669291
 20
1.097440944881889
 30
0.0
 11
4.572834645669291
 21
1.136811023622047
 31
0.0
  0
LINE
  5
2933
330
1E
100
AcDbEntity
  8
7
100
AcDbLine
 10
3.192913385826771
 20
1.136811023622047
 30
0.0
 11
3.192913385826771
 21
1.097440944881889
 31
0.0
  0
LINE
  5
2934
330
1E
100
AcDbEntity
  8
7
100
AcDbLine
 10
4.383858267716535
 20
0.7923228346456695
 30
0.0
 11
4.383858267716535
 21
0.8336614173228351
 31
0.0
  0
LINE
  5
2935
330
1E
100
AcDbEntity
  8
7
100
AcDbLine
 10
3.383858267716535
 20
0.8336614173228351
 30
0.0
 11
3.383858267716535
 21
0.7923228346456695
 31
0.0
  0
LINE
  5
2953
330
1E
100
AcDbEntity
  8
7
100
AcDbLine
 10
4.293307086614173
 20
1.136811023622047
 30
0.0
 11
3.474409448818898
 21
1.136811023622047
 31
0.0
  0
LINE
  5
295D
330
1E
100
AcDbEntity
  8
7
100
AcDbLine
 10
5.444881889763779
 20
0.9694881889763786
 30
0.0
 11
5.409448818897637
 21
0.987204724409449
 31
0.0
  0
LINE
  5
295E
330
1E
100
AcDbEntity
  8
7
100
AcDbLine
 10
5.409448818897637
 20
0.9891732283464573
 30
0.0
 11
5.399606299212598
 21
0.9517716535433073
 31
0.0
  0
LINE
  5
296C
330
1E
100
AcDbEntity
  8
7
100
AcDbLine
 10
5.399606299212598
 20
0.9517716535433073
 30
0.0
 11
5.216535433070865
 21
1.000984251968504
 31
0.0
  0
LINE
  5
2982
330
1E
100
AcDbEntity
  8
7
100
AcDbLine
 10
2.368110236220472
 20
0.9517716535433073
 30
0.0
 11
2.358267716535433
 21
0.9891732283464573
 31
0.0
  0
LINE
  5
2983
330
1E
100
AcDbEntity
  8
7
100
AcDbLine
 10
2.358267716535433
 20
0.987204724409449
 30
0.0
 11
2.322834645669291
 21
0.9694881889763786
 31
0.0
  0
LINE
  5
2998
330
1E
100
AcDbEntity
  8
7
100
AcDbLine
 10
2.590551181102362
 20
1.052165354330709
 30
0.0
 11
2.598425196850393
 21
1.054133858267716
 31
0.0
  0
LINE
  5
299F
330
1E
100
AcDbEntity
  8
7
100
AcDbLine
 10
2.598425196850393
 20
1.054133858267716
 30
0.0
 11
2.61023622047244
 21
1.016732283464567
 31
0.0
  0
LINE
  5
29AD
330
1E
100
AcDbEntity
  8
7
100
AcDbLine
 10
5.244094488188976
 20
0.9891732283464573
 30
0.0
 11
5.234251968503937
 21
0.9517716535433073
 31
0.0
  0
LINE
  5
29BB
330
1E
100
AcDbEntity
  8
7
100
AcDbLine
 10
5.234251968503937
 20
0.9517716535433073
 30
0.0
 11
5.051181102362204
 21
1.000984251968504
 31
0.0
  0
LINE
  5
29D4
330
1E
100
AcDbEntity
  8
7
100
AcDbLine
 10
2.533464566929133
 20
0.9517716535433073
 30
0.0
 11
2.523622047244094
 21
0.9891732283464573
 31
0.0
  0
LINE
  5
29F1
330
1E
100
AcDbEntity
  8
7
100
AcDbLine
 10
2.763779527559054
 20
1.054133858267716
 30
0.0
 11
2.773622047244094
 21
1.016732283464567
 31
0.0
  0
LINE
  5
329B
330
1E
100
AcDbEntity
  8
7
100
AcDbLine
 10
2.773622047244094
 20
2.892716535433072
 30
0.0
 11
2.773622047244094
 21
2.790354330708661
 31
0.0
  0
LINE
  5
329C
330
1E
100
AcDbEntity
  8
7
100
AcDbLine
 10
2.773622047244094
 20
2.790354330708661
 30
0.0
 11
2.76771653543307
 21
2.760826771653542
 31
0.0
  0
LINE
  5
329D
330
1E
100
AcDbEntity
  8
7
100
AcDbLine
 10
2.76771653543307
 20
2.760826771653542
 30
0.0
 11
2.746062992125984
 21
2.737204724409449
 31
0.0
  0
LINE
  5
329E
330
1E
100
AcDbEntity
  8
7
100
AcDbLine
 10
2.746062992125984
 20
2.737204724409449
 30
0.0
 11
2.716535433070865
 21
2.729330708661416
 31
0.0
  0
LINE
  5
329F
330
1E
100
AcDbEntity
  8
7
100
AcDbLine
 10
2.734251968503937
 20
2.737204724409449
 30
0.0
 11
2.755905511811023
 21
2.760826771653542
 31
0.0
  0
LINE
  5
32A0
330
1E
100
AcDbEntity
  8
7
100
AcDbLine
 10
2.755905511811023
 20
2.760826771653542
 30
0.0
 11
2.763779527559054
 21
2.790354330708661
 31
0.0
  0
LINE
  5
32A1
330
1E
100
AcDbEntity
  8
7
100
AcDbLine
 10
2.763779527559054
 20
2.790354330708661
 30
0.0
 11
2.763779527559054
 21
2.892716535433072
 31
0.0
  0
LINE
  5
32A2
330
1E
100
AcDbEntity
  8
7
100
AcDbLine
 10
2.763779527559054
 20
2.892716535433072
 30
0.0
 11
2.755905511811023
 21
2.92224409448819
 31
0.0
  0
LINE
  5
32A3
330
1E
100
AcDbEntity
  8
7
100
AcDbLine
 10
2.755905511811023
 20
2.92224409448819
 30
0.0
 11
2.734251968503937
 21
2.943897637795275
 31
0.0
  0
LINE
  5
32A4
330
1E
100
AcDbEntity
  8
7
100
AcDbLine
 10
2.734251968503937
 20
2.943897637795275
 30
0.0
 11
2.706692913385826
 21
2.951771653543309
 31
0.0
  0
LINE
  5
32A5
330
1E
100
AcDbEntity
  8
7
100
AcDbLine
 10
5.051181102362204
 20
2.729330708661416
 30
0.0
 11
5.021653543307087
 21
2.737204724409449
 31
0.0
  0
LINE
  5
32A6
330
1E
100
AcDbEntity
  8
7
100
AcDbLine
 10
5.021653543307087
 20
2.737204724409449
 30
0.0
 11
5.0
 21
2.760826771653542
 31
0.0
  0
LINE
  5
32A7
330
1E
100
AcDbEntity
  8
7
100
AcDbLine
 10
5.0
 20
2.760826771653542
 30
0.0
 11
4.992125984251968
 21
2.790354330708661
 31
0.0
  0
LINE
  5
32A8
330
1E
100
AcDbEntity
  8
7
100
AcDbLine
 10
4.992125984251968
 20
2.790354330708661
 30
0.0
 11
4.992125984251968
 21
2.892716535433072
 31
0.0
  0
LINE
  5
32A9
330
1E
100
AcDbEntity
  8
7
100
AcDbLine
 10
5.003937007874015
 20
2.892716535433072
 30
0.0
 11
5.003937007874015
 21
2.790354330708661
 31
0.0
  0
LINE
  5
32AA
330
1E
100
AcDbEntity
  8
7
100
AcDbLine
 10
5.003937007874015
 20
2.790354330708661
 30
0.0
 11
5.009842519685039
 21
2.760826771653542
 31
0.0
  0
LINE
  5
32AB
330
1E
100
AcDbEntity
  8
7
100
AcDbLine
 10
5.009842519685039
 20
2.760826771653542
 30
0.0
 11
5.031496062992125
 21
2.737204724409449
 31
0.0
  0
LINE
  5
32AC
330
1E
100
AcDbEntity
  8
7
100
AcDbLine
 10
5.031496062992125
 20
2.737204724409449
 30
0.0
 11
5.061023622047244
 21
2.729330708661416
 31
0.0
  0
LINE
  5
32AD
330
1E
100
AcDbEntity
  8
7
100
AcDbLine
 10
3.474409448818898
 20
2.764763779527561
 30
0.0
 11
3.474409448818898
 21
2.77263779527559
 31
0.0
  0
LINE
  5
32AE
330
1E
100
AcDbEntity
  8
7
100
AcDbLine
 10
3.474409448818898
 20
2.77263779527559
 30
0.0
 11
3.474409448818898
 21
2.796259842519686
 31
0.0
  0
LINE
  5
32AF
330
1E
100
AcDbEntity
  8
7
100
AcDbLine
 10
3.474409448818898
 20
2.796259842519686
 30
0.0
 11
3.474409448818898
 21
2.835629921259842
 31
0.0
  0
LINE
  5
32B0
330
1E
100
AcDbEntity
  8
7
100
AcDbLine
 10
3.474409448818898
 20
2.835629921259842
 30
0.0
 11
3.474409448818898
 21
2.882874015748031
 31
0.0
  0
LINE
  5
32B1
330
1E
100
AcDbEntity
  8
7
100
AcDbLine
 10
3.474409448818898
 20
2.882874015748031
 30
0.0
 11
3.474409448818898
 21
2.936023622047246
 31
0.0
  0
LINE
  5
32B2
330
1E
100
AcDbEntity
  8
7
100
AcDbLine
 10
4.293307086614173
 20
2.764763779527561
 30
0.0
 11
4.293307086614173
 21
2.77263779527559
 31
0.0
  0
LINE
  5
32B3
330
1E
100
AcDbEntity
  8
7
100
AcDbLine
 10
4.293307086614173
 20
2.77263779527559
 30
0.0
 11
4.293307086614173
 21
2.796259842519686
 31
0.0
  0
LINE
  5
32B4
330
1E
100
AcDbEntity
  8
7
100
AcDbLine
 10
4.293307086614173
 20
2.796259842519686
 30
0.0
 11
4.293307086614173
 21
2.835629921259842
 31
0.0
  0
LINE
  5
32B5
330
1E
100
AcDbEntity
  8
7
100
AcDbLine
 10
4.293307086614173
 20
2.835629921259842
 30
0.0
 11
4.293307086614173
 21
2.882874015748031
 31
0.0
  0
LINE
  5
32B6
330
1E
100
AcDbEntity
  8
7
100
AcDbLine
 10
4.293307086614173
 20
2.882874015748031
 30
0.0
 11
4.293307086614173
 21
2.936023622047246
 31
0.0
  0
LINE
  5
32B7
330
1E
100
AcDbEntity
  8
7
100
AcDbLine
 10
4.606299212598425
 20
2.843503937007875
 30
0.0
 11
4.598425196850393
 21
2.869094488188975
 31
0.0
  0
LINE
  5
32B8
330
1E
100
AcDbEntity
  8
7
100
AcDbLine
 10
4.598425196850393
 20
2.869094488188975
 30
0.0
 11
4.576771653543307
 21
2.884842519685038
 31
0.0
  0
LINE
  5
32B9
330
1E
100
AcDbEntity
  8
7
100
AcDbLine
 10
4.576771653543307
 20
2.884842519685038
 30
0.0
 11
4.549212598425197
 21
2.884842519685038
 31
0.0
  0
LINE
  5
32BA
330
1E
100
AcDbEntity
  8
7
100
AcDbLine
 10
4.549212598425197
 20
2.884842519685038
 30
0.0
 11
4.52755905511811
 21
2.869094488188975
 31
0.0
  0
LINE
  5
32BB
330
1E
100
AcDbEntity
  8
7
100
AcDbLine
 10
4.52755905511811
 20
2.869094488188975
 30
0.0
 11
4.519685039370078
 21
2.843503937007875
 31
0.0
  0
LINE
  5
32BC
330
1E
100
AcDbEntity
  8
7
100
AcDbLine
 10
3.238188976377952
 20
2.869094488188975
 30
0.0
 11
3.216535433070865
 21
2.884842519685038
 31
0.0
  0
LINE
  5
32BD
330
1E
100
AcDbEntity
  8
7
100
AcDbLine
 10
3.216535433070865
 20
2.884842519685038
 30
0.0
 11
3.188976377952755
 21
2.884842519685038
 31
0.0
  0
LINE
  5
32BE
330
1E
100
AcDbEntity
  8
7
100
AcDbLine
 10
3.188976377952755
 20
2.884842519685038
 30
0.0
 11
3.167322834645669
 21
2.869094488188975
 31
0.0
  0
LINE
  5
32BF
330
1E
100
AcDbEntity
  8
7
100
AcDbLine
 10
3.167322834645669
 20
2.869094488188975
 30
0.0
 11
3.159448818897637
 21
2.843503937007875
 31
0.0
  0
LINE
  5
32C0
330
1E
100
AcDbEntity
  8
7
100
AcDbLine
 10
4.907480314960629
 20
2.843503937007875
 30
0.0
 11
4.899606299212598
 21
2.869094488188975
 31
0.0
  0
LINE
  5
32C1
330
1E
100
AcDbEntity
  8
7
100
AcDbLine
 10
4.899606299212598
 20
2.869094488188975
 30
0.0
 11
4.877952755905512
 21
2.884842519685038
 31
0.0
  0
LINE
  5
32C2
330
1E
100
AcDbEntity
  8
7
100
AcDbLine
 10
4.877952755905512
 20
2.884842519685038
 30
0.0
 11
4.850393700787401
 21
2.884842519685038
 31
0.0
  0
LINE
  5
32C3
330
1E
100
AcDbEntity
  8
7
100
AcDbLine
 10
4.850393700787401
 20
2.884842519685038
 30
0.0
 11
4.828740157480314
 21
2.869094488188975
 31
0.0
  0
LINE
  5
32C4
330
1E
100
AcDbEntity
  8
7
100
AcDbLine
 10
4.828740157480314
 20
2.869094488188975
 30
0.0
 11
4.820866141732283
 21
2.843503937007875
 31
0.0
  0
LINE
  5
32C5
330
1E
100
AcDbEntity
  8
7
100
AcDbLine
 10
2.946850393700787
 20
2.843503937007875
 30
0.0
 11
2.938976377952755
 21
2.869094488188975
 31
0.0
  0
LINE
  5
32C6
330
1E
100
AcDbEntity
  8
7
100
AcDbLine
 10
2.938976377952755
 20
2.869094488188975
 30
0.0
 11
2.917322834645669
 21
2.884842519685038
 31
0.0
  0
LINE
  5
32C7
330
1E
100
AcDbEntity
  8
7
100
AcDbLine
 10
2.917322834645669
 20
2.884842519685038
 30
0.0
 11
2.889763779527559
 21
2.884842519685038
 31
0.0
  0
LINE
  5
32C8
330
1E
100
AcDbEntity
  8
7
100
AcDbLine
 10
2.889763779527559
 20
2.884842519685038
 30
0.0
 11
2.868110236220472
 21
2.869094488188975
 31
0.0
  0
LINE
  5
32C9
330
1E
100
AcDbEntity
  8
7
100
AcDbLine
 10
2.868110236220472
 20
2.869094488188975
 30
0.0
 11
2.86023622047244
 21
2.843503937007875
 31
0.0
  0
LINE
  5
332D
330
1E
100
AcDbEntity
  8
7
100
AcDbLine
 10
2.63779527559055
 20
0.7923228346456695
 30
0.0
 11
3.32283464566929
 21
0.7923228346456695
 31
0.0
  0
LINE
  5
332E
330
1E
100
AcDbEntity
  8
7
100
AcDbLine
 10
3.32283464566929
 20
0.7923228346456695
 30
0.0
 11
3.32283464566929
 21
0.8336614173228351
 31
0.0
  0
LINE
  5
3332
330
1E
100
AcDbEntity
  8
7
100
AcDbLine
 10
2.523622047244094
 20
0.9891732283464573
 30
0.0
 11
2.706692913385826
 21
1.038385826771653
 31
0.0
  0
LINE
  5
3333
330
1E
100
AcDbEntity
  8
7
100
AcDbLine
 10
2.706692913385826
 20
1.038385826771653
 30
0.0
 11
2.734251968503937
 21
1.046259842519685
 31
0.0
  0
LINE
  5
3334
330
1E
100
AcDbEntity
  8
7
100
AcDbLine
 10
2.734251968503937
 20
1.046259842519685
 30
0.0
 11
2.755905511811023
 21
1.052165354330709
 31
0.0
  0
LINE
  5
3335
330
1E
100
AcDbEntity
  8
7
100
AcDbLine
 10
2.755905511811023
 20
1.052165354330709
 30
0.0
 11
2.763779527559054
 21
1.054133858267716
 31
0.0
  0
LINE
  5
3336
330
1E
100
AcDbEntity
  8
7
100
AcDbLine
 10
2.533464566929133
 20
0.9517716535433073
 30
0.0
 11
2.716535433070865
 21
1.000984251968504
 31
0.0
  0
LINE
  5
3337
330
1E
100
AcDbEntity
  8
7
100
AcDbLine
 10
2.716535433070865
 20
1.000984251968504
 30
0.0
 11
2.706692913385826
 21
1.038385826771653
 31
0.0
  0
LINE
  5
3338
330
1E
100
AcDbEntity
  8
7
100
AcDbLine
 10
2.523622047244094
 20
0.987204724409449
 30
0.0
 11
2.488188976377952
 21
0.9694881889763786
 31
0.0
  0
LINE
  5
3339
330
1E
100
AcDbEntity
  8
7
100
AcDbLine
 10
2.488188976377952
 20
0.9694881889763786
 30
0.0
 11
2.46259842519685
 21
0.9379921259842527
 31
0.0
  0
LINE
  5
333A
330
1E
100
AcDbEntity
  8
7
100
AcDbLine
 10
2.46259842519685
 20
0.9379921259842527
 30
0.0
 11
2.450787401574803
 21
0.9005905511811027
 31
0.0
  0
LINE
  5
333B
330
1E
100
AcDbEntity
  8
7
100
AcDbLine
 10
2.450787401574803
 20
0.9005905511811027
 30
0.0
 11
2.456692913385826
 21
0.859251968503937
 31
0.0
  0
LINE
  5
333C
330
1E
100
AcDbEntity
  8
7
100
AcDbLine
 10
2.456692913385826
 20
0.859251968503937
 30
0.0
 11
2.476377952755905
 21
0.8257874015748036
 31
0.0
  0
LINE
  5
333D
330
1E
100
AcDbEntity
  8
7
100
AcDbLine
 10
2.476377952755905
 20
0.8257874015748036
 30
0.0
 11
2.509842519685039
 21
0.8021653543307092
 31
0.0
  0
LINE
  5
333E
330
1E
100
AcDbEntity
  8
7
100
AcDbLine
 10
2.509842519685039
 20
0.8021653543307092
 30
0.0
 11
2.549212598425196
 21
0.7942913385826778
 31
0.0
  0
LINE
  5
333F
330
1E
100
AcDbEntity
  8
7
100
AcDbLine
 10
2.533464566929133
 20
0.9498031496062999
 30
0.0
 11
2.505905511811023
 21
0.9320866141732286
 31
0.0
  0
LINE
  5
3340
330
1E
100
AcDbEntity
  8
7
100
AcDbLine
 10
2.505905511811023
 20
0.9320866141732286
 30
0.0
 11
2.49015748031496
 21
0.902559055118111
 31
0.0
  0
LINE
  5
3341
330
1E
100
AcDbEntity
  8
7
100
AcDbLine
 10
2.49015748031496
 20
0.902559055118111
 30
0.0
 11
2.496062992125984
 21
0.8690944881889768
 31
0.0
  0
LINE
  5
3342
330
1E
100
AcDbEntity
  8
7
100
AcDbLine
 10
2.496062992125984
 20
0.8690944881889768
 30
0.0
 11
2.51771653543307
 21
0.843503937007874
 31
0.0
  0
LINE
  5
3343
330
1E
100
AcDbEntity
  8
7
100
AcDbLine
 10
2.51771653543307
 20
0.843503937007874
 30
0.0
 11
2.549212598425196
 21
0.8336614173228351
 31
0.0
  0
LINE
  5
3344
330
1E
100
AcDbEntity
  8
7
100
AcDbLine
 10
2.358267716535433
 20
0.9891732283464573
 30
0.0
 11
2.541338582677165
 21
1.038385826771653
 31
0.0
  0
LINE
  5
3345
330
1E
100
AcDbEntity
  8
7
100
AcDbLine
 10
2.541338582677165
 20
1.038385826771653
 30
0.0
 11
2.570866141732283
 21
1.046259842519685
 31
0.0
  0
LINE
  5
3346
330
1E
100
AcDbEntity
  8
7
100
AcDbLine
 10
2.570866141732283
 20
1.046259842519685
 30
0.0
 11
2.590551181102362
 21
1.052165354330709
 31
0.0
  0
LINE
  5
3347
330
1E
100
AcDbEntity
  8
7
100
AcDbLine
 10
2.368110236220472
 20
0.9517716535433073
 30
0.0
 11
2.551181102362204
 21
1.000984251968504
 31
0.0
  0
LINE
  5
3348
330
1E
100
AcDbEntity
  8
7
100
AcDbLine
 10
2.551181102362204
 20
1.000984251968504
 30
0.0
 11
2.541338582677165
 21
1.038385826771653
 31
0.0
  0
LINE
  5
3349
330
1E
100
AcDbEntity
  8
7
100
AcDbLine
 10
2.379921259842519
 20
1.097440944881889
 30
0.0
 11
2.570866141732283
 21
1.097440944881889
 31
0.0
  0
LINE
  5
334A
330
1E
100
AcDbEntity
  8
7
100
AcDbLine
 10
2.570866141732283
 20
1.097440944881889
 30
0.0
 11
2.570866141732283
 21
1.136811023622047
 31
0.0
  0
LINE
  5
334B
330
1E
100
AcDbEntity
  8
7
100
AcDbLine
 10
2.379921259842519
 20
1.097440944881889
 30
0.0
 11
2.330708661417323
 21
1.08759842519685
 31
0.0
  0
LINE
  5
334C
330
1E
100
AcDbEntity
  8
7
100
AcDbLine
 10
2.330708661417323
 20
1.08759842519685
 30
0.0
 11
2.287401574803149
 21
1.06003937007874
 31
0.0
  0
LINE
  5
334D
330
1E
100
AcDbEntity
  8
7
100
AcDbLine
 10
2.287401574803149
 20
1.06003937007874
 30
0.0
 11
2.257874015748031
 21
1.016732283464567
 31
0.0
  0
LINE
  5
334E
330
1E
100
AcDbEntity
  8
7
100
AcDbLine
 10
2.257874015748031
 20
1.016732283464567
 30
0.0
 11
2.248031496062992
 21
0.9675196850393703
 31
0.0
  0
LINE
  5
334F
330
1E
100
AcDbEntity
  8
7
100
AcDbLine
 10
2.248031496062992
 20
0.9675196850393703
 30
0.0
 11
2.257874015748031
 21
0.9163385826771657
 31
0.0
  0
LINE
  5
3350
330
1E
100
AcDbEntity
  8
7
100
AcDbLine
 10
2.257874015748031
 20
0.9163385826771657
 30
0.0
 11
2.285433070866141
 21
0.875
 31
0.0
  0
LINE
  5
3351
330
1E
100
AcDbEntity
  8
7
100
AcDbLine
 10
2.395669291338582
 20
1.136811023622047
 30
0.0
 11
2.344488188976378
 21
1.128937007874015
 31
0.0
  0
LINE
  5
3352
330
1E
100
AcDbEntity
  8
7
100
AcDbLine
 10
2.344488188976378
 20
1.128937007874015
 30
0.0
 11
2.297244094488188
 21
1.105314960629921
 31
0.0
  0
LINE
  5
3353
330
1E
100
AcDbEntity
  8
7
100
AcDbLine
 10
2.297244094488188
 20
1.105314960629921
 30
0.0
 11
2.259842519685039
 21
1.069881889763779
 31
0.0
  0
LINE
  5
3354
330
1E
100
AcDbEntity
  8
7
100
AcDbLine
 10
2.259842519685039
 20
1.069881889763779
 30
0.0
 11
2.234251968503937
 21
1.024606299212599
 31
0.0
  0
LINE
  5
3355
330
1E
100
AcDbEntity
  8
7
100
AcDbLine
 10
2.395669291338582
 20
1.166338582677165
 30
0.0
 11
2.334645669291338
 21
1.156496062992126
 31
0.0
  0
LINE
  5
3356
330
1E
100
AcDbEntity
  8
7
100
AcDbLine
 10
2.334645669291338
 20
1.156496062992126
 30
0.0
 11
2.279527559055118
 21
1.130905511811024
 31
0.0
  0
LINE
  5
3357
330
1E
100
AcDbEntity
  8
7
100
AcDbLine
 10
2.279527559055118
 20
1.130905511811024
 30
0.0
 11
2.236220472440944
 21
1.08759842519685
 31
0.0
  0
LINE
  5
3358
330
1E
100
AcDbEntity
  8
7
100
AcDbLine
 10
2.236220472440944
 20
1.08759842519685
 30
0.0
 11
2.206692913385826
 21
1.034448818897637
 31
0.0
  0
LINE
  5
3359
330
1E
100
AcDbEntity
  8
7
100
AcDbLine
 10
2.206692913385826
 20
1.034448818897637
 30
0.0
 11
2.194881889763779
 21
0.9734251968503944
 31
0.0
  0
LINE
  5
335A
330
1E
100
AcDbEntity
  8
7
100
AcDbLine
 10
2.322834645669291
 20
0.9694881889763786
 30
0.0
 11
2.297244094488188
 21
0.9379921259842527
 31
0.0
  0
LINE
  5
335B
330
1E
100
AcDbEntity
  8
7
100
AcDbLine
 10
2.297244094488188
 20
0.9379921259842527
 30
0.0
 11
2.285433070866141
 21
0.9005905511811027
 31
0.0
  0
LINE
  5
335C
330
1E
100
AcDbEntity
  8
7
100
AcDbLine
 10
2.285433070866141
 20
0.9005905511811027
 30
0.0
 11
2.291338582677165
 21
0.859251968503937
 31
0.0
  0
LINE
  5
335D
330
1E
100
AcDbEntity
  8
7
100
AcDbLine
 10
2.291338582677165
 20
0.859251968503937
 30
0.0
 11
2.311023622047243
 21
0.8257874015748036
 31
0.0
  0
LINE
  5
335E
330
1E
100
AcDbEntity
  8
7
100
AcDbLine
 10
2.311023622047243
 20
0.8257874015748036
 30
0.0
 11
2.344488188976378
 21
0.8021653543307092
 31
0.0
  0
LINE
  5
335F
330
1E
100
AcDbEntity
  8
7
100
AcDbLine
 10
2.344488188976378
 20
0.8021653543307092
 30
0.0
 11
2.383858267716535
 21
0.7942913385826778
 31
0.0
  0
LINE
  5
3360
330
1E
100
AcDbEntity
  8
7
100
AcDbLine
 10
2.279527559055118
 20
0.8277559055118111
 30
0.0
 11
2.326771653543307
 21
0.8021653543307092
 31
0.0
  0
LINE
  5
3361
330
1E
100
AcDbEntity
  8
7
100
AcDbLine
 10
2.326771653543307
 20
0.8021653543307092
 30
0.0
 11
2.379921259842519
 21
0.7942913385826778
 31
0.0
  0
LINE
  5
3362
330
1E
100
AcDbEntity
  8
7
100
AcDbLine
 10
2.234251968503937
 20
1.024606299212599
 30
0.0
 11
2.224409448818897
 21
0.9734251968503944
 31
0.0
  0
LINE
  5
3363
330
1E
100
AcDbEntity
  8
7
100
AcDbLine
 10
2.224409448818897
 20
0.9734251968503944
 30
0.0
 11
2.230314960629921
 21
0.9202755905511814
 31
0.0
  0
LINE
  5
3364
330
1E
100
AcDbEntity
  8
7
100
AcDbLine
 10
2.230314960629921
 20
0.9202755905511814
 30
0.0
 11
2.251968503937007
 21
0.8730314960629925
 31
0.0
  0
LINE
  5
3365
330
1E
100
AcDbEntity
  8
7
100
AcDbLine
 10
2.251968503937007
 20
0.8730314960629925
 30
0.0
 11
2.285433070866141
 21
0.8336614173228351
 31
0.0
  0
LINE
  5
3366
330
1E
100
AcDbEntity
  8
7
100
AcDbLine
 10
2.194881889763779
 20
0.9734251968503944
 30
0.0
 11
2.200787401574803
 21
0.9143700787401582
 31
0.0
  0
LINE
  5
3367
330
1E
100
AcDbEntity
  8
7
100
AcDbLine
 10
2.200787401574803
 20
0.9143700787401582
 30
0.0
 11
2.226377952755905
 21
0.8572834645669296
 31
0.0
  0
LINE
  5
3368
330
1E
100
AcDbEntity
  8
7
100
AcDbLine
 10
2.226377952755905
 20
0.8572834645669296
 30
0.0
 11
2.265748031496062
 21
0.8120078740157481
 31
0.0
  0
LINE
  5
3369
330
1E
100
AcDbEntity
  8
7
100
AcDbLine
 10
2.368110236220472
 20
0.9498031496062999
 30
0.0
 11
2.340551181102362
 21
0.9320866141732286
 31
0.0
  0
LINE
  5
336A
330
1E
100
AcDbEntity
  8
7
100
AcDbLine
 10
2.340551181102362
 20
0.9320866141732286
 30
0.0
 11
2.324803149606299
 21
0.902559055118111
 31
0.0
  0
LINE
  5
336B
330
1E
100
AcDbEntity
  8
7
100
AcDbLine
 10
2.324803149606299
 20
0.902559055118111
 30
0.0
 11
2.330708661417323
 21
0.8690944881889768
 31
0.0
  0
LINE
  5
336C
330
1E
100
AcDbEntity
  8
7
100
AcDbLine
 10
2.330708661417323
 20
0.8690944881889768
 30
0.0
 11
2.352362204724409
 21
0.843503937007874
 31
0.0
  0
LINE
  5
336D
330
1E
100
AcDbEntity
  8
7
100
AcDbLine
 10
2.352362204724409
 20
0.843503937007874
 30
0.0
 11
2.383858267716535
 21
0.8336614173228351
 31
0.0
  0
LINE
  5
336E
330
1E
100
AcDbEntity
  8
7
100
AcDbLine
 10
2.629921259842519
 20
1.097440944881889
 30
0.0
 11
2.622047244094487
 21
1.097440944881889
 31
0.0
  0
LINE
  5
336F
330
1E
100
AcDbEntity
  8
7
100
AcDbLine
 10
2.622047244094487
 20
1.097440944881889
 30
0.0
 11
2.600393700787401
 21
1.097440944881889
 31
0.0
  0
LINE
  5
3370
330
1E
100
AcDbEntity
  8
7
100
AcDbLine
 10
2.600393700787401
 20
1.097440944881889
 30
0.0
 11
2.570866141732283
 21
1.097440944881889
 31
0.0
  0
LINE
  5
3371
330
1E
100
AcDbEntity
  8
7
100
AcDbLine
 10
2.773622047244094
 20
1.016732283464567
 30
0.0
 11
2.76771653543307
 21
1.012795275590551
 31
0.0
  0
LINE
  5
3372
330
1E
100
AcDbEntity
  8
7
100
AcDbLine
 10
2.76771653543307
 20
1.012795275590551
 30
0.0
 11
2.746062992125984
 21
1.008858267716536
 31
0.0
  0
LINE
  5
3373
330
1E
100
AcDbEntity
  8
7
100
AcDbLine
 10
2.746062992125984
 20
1.008858267716536
 30
0.0
 11
2.716535433070865
 21
1.000984251968504
 31
0.0
  0
LINE
  5
3374
330
1E
100
AcDbEntity
  8
7
100
AcDbLine
 10
2.61023622047244
 20
1.016732283464567
 30
0.0
 11
2.602362204724409
 21
1.012795275590551
 31
0.0
  0
LINE
  5
3375
330
1E
100
AcDbEntity
  8
7
100
AcDbLine
 10
2.602362204724409
 20
1.012795275590551
 30
0.0
 11
2.580708661417323
 21
1.008858267716536
 31
0.0
  0
LINE
  5
3376
330
1E
100
AcDbEntity
  8
7
100
AcDbLine
 10
2.580708661417323
 20
1.008858267716536
 30
0.0
 11
2.551181102362204
 21
1.000984251968504
 31
0.0
  0
LINE
  5
3377
330
1E
100
AcDbEntity
  8
7
100
AcDbLine
 10
2.63779527559055
 20
0.7923228346456695
 30
0.0
 11
2.608267716535433
 21
0.7923228346456695
 31
0.0
  0
LINE
  5
3378
330
1E
100
AcDbEntity
  8
7
100
AcDbLine
 10
2.608267716535433
 20
0.7923228346456695
 30
0.0
 11
2.586614173228346
 21
0.7923228346456695
 31
0.0
  0
LINE
  5
3379
330
1E
100
AcDbEntity
  8
7
100
AcDbLine
 10
2.586614173228346
 20
0.7923228346456695
 30
0.0
 11
2.578740157480314
 21
0.7923228346456695
 31
0.0
  0
LINE
  5
337A
330
1E
100
AcDbEntity
  8
7
100
AcDbLine
 10
2.549212598425196
 20
0.8336614173228351
 30
0.0
 11
2.578740157480314
 21
0.8336614173228351
 31
0.0
  0
LINE
  5
337B
330
1E
100
AcDbEntity
  8
7
100
AcDbLine
 10
2.578740157480314
 20
0.8336614173228351
 30
0.0
 11
2.586614173228346
 21
0.8336614173228351
 31
0.0
  0
LINE
  5
337C
330
1E
100
AcDbEntity
  8
7
100
AcDbLine
 10
2.586614173228346
 20
0.8336614173228351
 30
0.0
 11
2.608267716535433
 21
0.8336614173228351
 31
0.0
  0
LINE
  5
337D
330
1E
100
AcDbEntity
  8
7
100
AcDbLine
 10
2.608267716535433
 20
0.8336614173228351
 30
0.0
 11
2.63779527559055
 21
0.8336614173228351
 31
0.0
  0
LINE
  5
338D
330
1E
100
AcDbEntity
  8
7
100
AcDbLine
 10
3.474409448818898
 20
0.9655511811023629
 30
0.0
 11
3.474409448818898
 21
1.018700787401574
 31
0.0
  0
LINE
  5
338E
330
1E
100
AcDbEntity
  8
7
100
AcDbLine
 10
3.474409448818898
 20
1.018700787401574
 30
0.0
 11
3.474409448818898
 21
1.065944881889763
 31
0.0
  0
LINE
  5
338F
330
1E
100
AcDbEntity
  8
7
100
AcDbLine
 10
3.474409448818898
 20
1.065944881889763
 30
0.0
 11
3.474409448818898
 21
1.103346456692913
 31
0.0
  0
LINE
  5
3390
330
1E
100
AcDbEntity
  8
7
100
AcDbLine
 10
3.474409448818898
 20
1.103346456692913
 30
0.0
 11
3.474409448818898
 21
1.128937007874015
 31
0.0
  0
LINE
  5
3391
330
1E
100
AcDbEntity
  8
7
100
AcDbLine
 10
3.474409448818898
 20
1.128937007874015
 30
0.0
 11
3.474409448818898
 21
1.136811023622047
 31
0.0
  0
LINE
  5
3392
330
1E
100
AcDbEntity
  8
7
100
AcDbLine
 10
3.474409448818898
 20
0.7923228346456695
 30
0.0
 11
3.474409448818898
 21
0.8021653543307092
 31
0.0
  0
LINE
  5
3393
330
1E
100
AcDbEntity
  8
7
100
AcDbLine
 10
3.474409448818898
 20
0.8021653543307092
 30
0.0
 11
3.474409448818898
 21
0.8257874015748036
 31
0.0
  0
LINE
  5
3394
330
1E
100
AcDbEntity
  8
7
100
AcDbLine
 10
3.474409448818898
 20
0.8257874015748036
 30
0.0
 11
3.474409448818898
 21
0.8631889763779527
 31
0.0
  0
LINE
  5
3395
330
1E
100
AcDbEntity
  8
7
100
AcDbLine
 10
3.474409448818898
 20
0.8631889763779527
 30
0.0
 11
3.474409448818898
 21
0.9124015748031499
 31
0.0
  0
LINE
  5
3396
330
1E
100
AcDbEntity
  8
7
100
AcDbLine
 10
3.474409448818898
 20
0.9124015748031499
 30
0.0
 11
3.474409448818898
 21
0.9655511811023629
 31
0.0
  0
LINE
  5
3397
330
1E
100
AcDbEntity
  8
7
100
AcDbLine
 10
3.474409448818898
 20
1.097440944881889
 30
0.0
 11
3.192913385826771
 21
1.097440944881889
 31
0.0
  0
LINE
  5
3398
330
1E
100
AcDbEntity
  8
7
100
AcDbLine
 10
3.192913385826771
 20
1.097440944881889
 30
0.0
 11
3.163385826771653
 21
1.097440944881889
 31
0.0
  0
LINE
  5
3399
330
1E
100
AcDbEntity
  8
7
100
AcDbLine
 10
3.163385826771653
 20
1.097440944881889
 30
0.0
 11
3.141732283464566
 21
1.097440944881889
 31
0.0
  0
LINE
  5
339A
330
1E
100
AcDbEntity
  8
7
100
AcDbLine
 10
3.141732283464566
 20
1.097440944881889
 30
0.0
 11
3.133858267716535
 21
1.097440944881889
 31
0.0
  0
LINE
  5
339B
330
1E
100
AcDbEntity
  8
7
100
AcDbLine
 10
3.133858267716535
 20
1.042322834645669
 30
0.0
 11
3.133858267716535
 21
1.083661417322835
 31
0.0
  0
LINE
  5
339C
330
1E
100
AcDbEntity
  8
7
100
AcDbLine
 10
3.133858267716535
 20
1.083661417322835
 30
0.0
 11
3.133858267716535
 21
1.097440944881889
 31
0.0
  0
LINE
  5
339D
330
1E
100
AcDbEntity
  8
7
100
AcDbLine
 10
3.383858267716535
 20
0.7923228346456695
 30
0.0
 11
3.375984251968503
 21
0.7923228346456695
 31
0.0
  0
LINE
  5
339E
330
1E
100
AcDbEntity
  8
7
100
AcDbLine
 10
3.375984251968503
 20
0.7923228346456695
 30
0.0
 11
3.354330708661417
 21
0.7923228346456695
 31
0.0
  0
LINE
  5
339F
330
1E
100
AcDbEntity
  8
7
100
AcDbLine
 10
3.354330708661417
 20
0.7923228346456695
 30
0.0
 11
3.32283464566929
 21
0.7923228346456695
 31
0.0
  0
LINE
  5
33A0
330
1E
100
AcDbEntity
  8
7
100
AcDbLine
 10
3.383858267716535
 20
0.7923228346456695
 30
0.0
 11
3.391732283464566
 21
0.7923228346456695
 31
0.0
  0
LINE
  5
33A1
330
1E
100
AcDbEntity
  8
7
100
AcDbLine
 10
3.391732283464566
 20
0.7923228346456695
 30
0.0
 11
3.415354330708661
 21
0.7923228346456695
 31
0.0
  0
LINE
  5
33A2
330
1E
100
AcDbEntity
  8
7
100
AcDbLine
 10
3.415354330708661
 20
0.7923228346456695
 30
0.0
 11
3.442913385826771
 21
0.7923228346456695
 31
0.0
  0
LINE
  5
33A3
330
1E
100
AcDbEntity
  8
7
100
AcDbLine
 10
3.442913385826771
 20
0.7923228346456695
 30
0.0
 11
3.464566929133858
 21
0.7923228346456695
 31
0.0
  0
LINE
  5
33A4
330
1E
100
AcDbEntity
  8
7
100
AcDbLine
 10
3.464566929133858
 20
0.7923228346456695
 30
0.0
 11
3.474409448818898
 21
0.7923228346456695
 31
0.0
  0
LINE
  5
33A5
330
1E
100
AcDbEntity
  8
7
100
AcDbLine
 10
3.474409448818898
 20
0.8336614173228351
 30
0.0
 11
3.464566929133858
 21
0.8336614173228351
 31
0.0
  0
LINE
  5
33A6
330
1E
100
AcDbEntity
  8
7
100
AcDbLine
 10
3.464566929133858
 20
0.8336614173228351
 30
0.0
 11
3.442913385826771
 21
0.8336614173228351
 31
0.0
  0
LINE
  5
33A7
330
1E
100
AcDbEntity
  8
7
100
AcDbLine
 10
3.442913385826771
 20
0.8336614173228351
 30
0.0
 11
3.415354330708661
 21
0.8336614173228351
 31
0.0
  0
LINE
  5
33A8
330
1E
100
AcDbEntity
  8
7
100
AcDbLine
 10
3.415354330708661
 20
0.8336614173228351
 30
0.0
 11
3.391732283464566
 21
0.8336614173228351
 31
0.0
  0
LINE
  5
33A9
330
1E
100
AcDbEntity
  8
7
100
AcDbLine
 10
3.391732283464566
 20
0.8336614173228351
 30
0.0
 11
3.383858267716535
 21
0.8336614173228351
 31
0.0
  0
LINE
  5
33AA
330
1E
100
AcDbEntity
  8
7
100
AcDbLine
 10
3.32283464566929
 20
0.8336614173228351
 30
0.0
 11
3.354330708661417
 21
0.8336614173228351
 31
0.0
  0
LINE
  5
33AB
330
1E
100
AcDbEntity
  8
7
100
AcDbLine
 10
3.354330708661417
 20
0.8336614173228351
 30
0.0
 11
3.375984251968503
 21
0.8336614173228351
 31
0.0
  0
LINE
  5
33AC
330
1E
100
AcDbEntity
  8
7
100
AcDbLine
 10
3.375984251968503
 20
0.8336614173228351
 30
0.0
 11
3.383858267716535
 21
0.8336614173228351
 31
0.0
  0
LINE
  5
33B7
330
1E
100
AcDbEntity
  8
7
100
AcDbLine
 10
2.448818897637795
 20
2.729330708661416
 30
0.0
 11
2.458661417322834
 21
2.729330708661416
 31
0.0
  0
LINE
  5
33B8
330
1E
100
AcDbEntity
  8
7
100
AcDbLine
 10
2.458661417322834
 20
2.729330708661416
 30
0.0
 11
2.484251968503937
 21
2.729330708661416
 31
0.0
  0
LINE
  5
33B9
330
1E
100
AcDbEntity
  8
7
100
AcDbLine
 10
2.484251968503937
 20
2.729330708661416
 30
0.0
 11
2.523622047244094
 21
2.729330708661416
 31
0.0
  0
LINE
  5
33BA
330
1E
100
AcDbEntity
  8
7
100
AcDbLine
 10
2.578740157480314
 20
2.573818897637794
 30
0.0
 11
2.586614173228346
 21
2.544291338582677
 31
0.0
  0
LINE
  5
33BB
330
1E
100
AcDbEntity
  8
7
100
AcDbLine
 10
2.586614173228346
 20
2.544291338582677
 30
0.0
 11
2.608267716535433
 21
2.52263779527559
 31
0.0
  0
LINE
  5
33BC
330
1E
100
AcDbEntity
  8
7
100
AcDbLine
 10
2.608267716535433
 20
2.52263779527559
 30
0.0
 11
2.63779527559055
 21
2.514763779527559
 31
0.0
  0
LINE
  5
33BD
330
1E
100
AcDbEntity
  8
7
100
AcDbLine
 10
2.889763779527559
 20
2.642716535433072
 30
0.0
 11
2.917322834645669
 21
2.642716535433072
 31
0.0
  0
LINE
  5
33BE
330
1E
100
AcDbEntity
  8
7
100
AcDbLine
 10
2.917322834645669
 20
2.642716535433072
 30
0.0
 11
2.938976377952755
 21
2.658464566929135
 31
0.0
  0
LINE
  5
33BF
330
1E
100
AcDbEntity
  8
7
100
AcDbLine
 10
2.938976377952755
 20
2.658464566929135
 30
0.0
 11
2.946850393700787
 21
2.684055118110235
 31
0.0
  0
LINE
  5
33C0
330
1E
100
AcDbEntity
  8
7
100
AcDbLine
 10
2.86023622047244
 20
2.684055118110235
 30
0.0
 11
2.868110236220472
 21
2.658464566929135
 31
0.0
  0
LINE
  5
33C1
330
1E
100
AcDbEntity
  8
7
100
AcDbLine
 10
2.868110236220472
 20
2.658464566929135
 30
0.0
 11
2.889763779527559
 21
2.642716535433072
 31
0.0
  0
LINE
  5
33DD
330
1E
100
AcDbEntity
  8
7
100
AcDbLine
 10
3.159448818897637
 20
2.684055118110235
 30
0.0
 11
3.167322834645669
 21
2.658464566929135
 31
0.0
  0
LINE
  5
33DE
330
1E
100
AcDbEntity
  8
7
100
AcDbLine
 10
3.167322834645669
 20
2.658464566929135
 30
0.0
 11
3.188976377952755
 21
2.642716535433072
 31
0.0
  0
LINE
  5
33DF
330
1E
100
AcDbEntity
  8
7
100
AcDbLine
 10
3.188976377952755
 20
2.642716535433072
 30
0.0
 11
3.216535433070865
 21
2.642716535433072
 31
0.0
  0
LINE
  5
33E0
330
1E
100
AcDbEntity
  8
7
100
AcDbLine
 10
3.216535433070865
 20
2.642716535433072
 30
0.0
 11
3.238188976377952
 21
2.658464566929135
 31
0.0
  0
LINE
  5
33E1
330
1E
100
AcDbEntity
  8
7
100
AcDbLine
 10
3.238188976377952
 20
2.658464566929135
 30
0.0
 11
3.246062992125984
 21
2.684055118110235
 31
0.0
  0
LINE
  5
33E2
330
1E
100
AcDbEntity
  8
7
100
AcDbLine
 10
3.32283464566929
 20
2.514763779527559
 30
0.0
 11
3.352362204724409
 21
2.52263779527559
 31
0.0
  0
LINE
  5
33E3
330
1E
100
AcDbEntity
  8
7
100
AcDbLine
 10
3.352362204724409
 20
2.52263779527559
 30
0.0
 11
3.374015748031496
 21
2.544291338582677
 31
0.0
  0
LINE
  5
33E4
330
1E
100
AcDbEntity
  8
7
100
AcDbLine
 10
3.374015748031496
 20
2.544291338582677
 30
0.0
 11
3.381889763779527
 21
2.573818897637794
 31
0.0
  0
LINE
  5
33F7
330
1E
100
AcDbEntity
  8
7
100
AcDbLine
 10
4.442913385826771
 20
0.7923228346456695
 30
0.0
 11
5.127952755905512
 21
0.7923228346456695
 31
0.0
  0
LINE
  5
33F8
330
1E
100
AcDbEntity
  8
7
100
AcDbLine
 10
5.127952755905512
 20
0.7923228346456695
 30
0.0
 11
5.127952755905512
 21
0.8336614173228351
 31
0.0
  0
LINE
  5
33F9
330
1E
100
AcDbEntity
  8
7
100
AcDbLine
 10
5.127952755905512
 20
0.8336614173228351
 30
0.0
 11
4.442913385826771
 21
0.8336614173228351
 31
0.0
  0
LINE
  5
33FA
330
1E
100
AcDbEntity
  8
7
100
AcDbLine
 10
4.442913385826771
 20
0.8336614173228351
 30
0.0
 11
4.442913385826771
 21
0.7923228346456695
 31
0.0
  0
LINE
  5
33FE
330
1E
100
AcDbEntity
  8
7
100
AcDbLine
 10
4.633858267716535
 20
1.136811023622047
 30
0.0
 11
4.633858267716535
 21
1.097440944881889
 31
0.0
  0
LINE
  5
33FF
330
1E
100
AcDbEntity
  8
7
100
AcDbLine
 10
4.633858267716535
 20
1.097440944881889
 30
0.0
 11
4.625984251968503
 21
1.097440944881889
 31
0.0
  0
LINE
  5
3400
330
1E
100
AcDbEntity
  8
7
100
AcDbLine
 10
4.625984251968503
 20
1.097440944881889
 30
0.0
 11
4.604330708661417
 21
1.097440944881889
 31
0.0
  0
LINE
  5
3401
330
1E
100
AcDbEntity
  8
7
100
AcDbLine
 10
4.604330708661417
 20
1.097440944881889
 30
0.0
 11
4.572834645669291
 21
1.097440944881889
 31
0.0
  0
LINE
  5
3402
330
1E
100
AcDbEntity
  8
7
100
AcDbLine
 10
4.572834645669291
 20
1.097440944881889
 30
0.0
 11
4.293307086614173
 21
1.097440944881889
 31
0.0
  0
LINE
  5
3403
330
1E
100
AcDbEntity
  8
7
100
AcDbLine
 10
4.442913385826771
 20
0.7923228346456695
 30
0.0
 11
4.413385826771653
 21
0.7923228346456695
 31
0.0
  0
LINE
  5
3404
330
1E
100
AcDbEntity
  8
7
100
AcDbLine
 10
4.413385826771653
 20
0.7923228346456695
 30
0.0
 11
4.391732283464566
 21
0.7923228346456695
 31
0.0
  0
LINE
  5
3405
330
1E
100
AcDbEntity
  8
7
100
AcDbLine
 10
4.383858267716535
 20
0.8336614173228351
 30
0.0
 11
4.391732283464566
 21
0.8336614173228351
 31
0.0
  0
LINE
  5
3406
330
1E
100
AcDbEntity
  8
7
100
AcDbLine
 10
4.391732283464566
 20
0.8336614173228351
 30
0.0
 11
4.413385826771653
 21
0.8336614173228351
 31
0.0
  0
LINE
  5
3407
330
1E
100
AcDbEntity
  8
7
100
AcDbLine
 10
4.413385826771653
 20
0.8336614173228351
 30
0.0
 11
4.442913385826771
 21
0.8336614173228351
 31
0.0
  0
LINE
  5
3408
330
1E
100
AcDbEntity
  8
7
100
AcDbLine
 10
4.293307086614173
 20
0.7923228346456695
 30
0.0
 11
4.293307086614173
 21
0.8021653543307092
 31
0.0
  0
LINE
  5
3409
330
1E
100
AcDbEntity
  8
7
100
AcDbLine
 10
4.293307086614173
 20
0.8021653543307092
 30
0.0
 11
4.293307086614173
 21
0.8257874015748036
 31
0.0
  0
LINE
  5
340A
330
1E
100
AcDbEntity
  8
7
100
AcDbLine
 10
4.293307086614173
 20
0.8257874015748036
 30
0.0
 11
4.293307086614173
 21
0.8631889763779527
 31
0.0
  0
LINE
  5
340B
330
1E
100
AcDbEntity
  8
7
100
AcDbLine
 10
4.293307086614173
 20
0.8631889763779527
 30
0.0
 11
4.293307086614173
 21
0.9124015748031499
 31
0.0
  0
LINE
  5
340C
330
1E
100
AcDbEntity
  8
7
100
AcDbLine
 10
4.293307086614173
 20
0.9124015748031499
 30
0.0
 11
4.293307086614173
 21
0.9655511811023629
 31
0.0
  0
LINE
  5
340D
330
1E
100
AcDbEntity
  8
7
100
AcDbLine
 10
4.293307086614173
 20
0.9655511811023629
 30
0.0
 11
4.293307086614173
 21
1.018700787401574
 31
0.0
  0
LINE
  5
340E
330
1E
100
AcDbEntity
  8
7
100
AcDbLine
 10
4.293307086614173
 20
1.018700787401574
 30
0.0
 11
4.293307086614173
 21
1.065944881889763
 31
0.0
  0
LINE
  5
340F
330
1E
100
AcDbEntity
  8
7
100
AcDbLine
 10
4.293307086614173
 20
1.065944881889763
 30
0.0
 11
4.293307086614173
 21
1.103346456692913
 31
0.0
  0
LINE
  5
3410
330
1E
100
AcDbEntity
  8
7
100
AcDbLine
 10
4.293307086614173
 20
1.103346456692913
 30
0.0
 11
4.293307086614173
 21
1.128937007874015
 31
0.0
  0
LINE
  5
3411
330
1E
100
AcDbEntity
  8
7
100
AcDbLine
 10
4.293307086614173
 20
1.128937007874015
 30
0.0
 11
4.293307086614173
 21
1.136811023622047
 31
0.0
  0
LINE
  5
3412
330
1E
100
AcDbEntity
  8
7
100
AcDbLine
 10
4.293307086614173
 20
0.7923228346456695
 30
0.0
 11
4.303149606299212
 21
0.7923228346456695
 31
0.0
  0
LINE
  5
3413
330
1E
100
AcDbEntity
  8
7
100
AcDbLine
 10
4.303149606299212
 20
0.7923228346456695
 30
0.0
 11
4.324803149606299
 21
0.7923228346456695
 31
0.0
  0
LINE
  5
3414
330
1E
100
AcDbEntity
  8
7
100
AcDbLine
 10
4.324803149606299
 20
0.7923228346456695
 30
0.0
 11
4.352362204724409
 21
0.7923228346456695
 31
0.0
  0
LINE
  5
3415
330
1E
100
AcDbEntity
  8
7
100
AcDbLine
 10
4.352362204724409
 20
0.7923228346456695
 30
0.0
 11
4.374015748031496
 21
0.7923228346456695
 31
0.0
  0
LINE
  5
3416
330
1E
100
AcDbEntity
  8
7
100
AcDbLine
 10
4.374015748031496
 20
0.7923228346456695
 30
0.0
 11
4.383858267716535
 21
0.7923228346456695
 31
0.0
  0
LINE
  5
3417
330
1E
100
AcDbEntity
  8
7
100
AcDbLine
 10
4.383858267716535
 20
0.8336614173228351
 30
0.0
 11
4.374015748031496
 21
0.8336614173228351
 31
0.0
  0
LINE
  5
3418
330
1E
100
AcDbEntity
  8
7
100
AcDbLine
 10
4.374015748031496
 20
0.8336614173228351
 30
0.0
 11
4.352362204724409
 21
0.8336614173228351
 31
0.0
  0
LINE
  5
3419
330
1E
100
AcDbEntity
  8
7
100
AcDbLine
 10
4.352362204724409
 20
0.8336614173228351
 30
0.0
 11
4.324803149606299
 21
0.8336614173228351
 31
0.0
  0
LINE
  5
341A
330
1E
100
AcDbEntity
  8
7
100
AcDbLine
 10
4.324803149606299
 20
0.8336614173228351
 30
0.0
 11
4.303149606299212
 21
0.8336614173228351
 31
0.0
  0
LINE
  5
341B
330
1E
100
AcDbEntity
  8
7
100
AcDbLine
 10
4.303149606299212
 20
0.8336614173228351
 30
0.0
 11
4.293307086614173
 21
0.8336614173228351
 31
0.0
  0
LINE
  5
341C
330
1E
100
AcDbEntity
  8
7
100
AcDbLine
 10
4.633858267716535
 20
0.8986220472440953
 30
0.0
 11
4.633858267716535
 21
0.9419291338582684
 31
0.0
  0
LINE
  5
341D
330
1E
100
AcDbEntity
  8
7
100
AcDbLine
 10
4.633858267716535
 20
0.9419291338582684
 30
0.0
 11
4.633858267716535
 21
0.987204724409449
 31
0.0
  0
LINE
  5
341E
330
1E
100
AcDbEntity
  8
7
100
AcDbLine
 10
4.633858267716535
 20
0.987204724409449
 30
0.0
 11
4.633858267716535
 21
1.030511811023622
 31
0.0
  0
LINE
  5
341F
330
1E
100
AcDbEntity
  8
7
100
AcDbLine
 10
4.633858267716535
 20
1.030511811023622
 30
0.0
 11
4.633858267716535
 21
1.065944881889763
 31
0.0
  0
LINE
  5
3420
330
1E
100
AcDbEntity
  8
7
100
AcDbLine
 10
4.633858267716535
 20
1.065944881889763
 30
0.0
 11
4.633858267716535
 21
1.089566929133858
 31
0.0
  0
LINE
  5
3421
330
1E
100
AcDbEntity
  8
7
100
AcDbLine
 10
4.633858267716535
 20
1.089566929133858
 30
0.0
 11
4.633858267716535
 21
1.097440944881889
 31
0.0
  0
LINE
  5
3422
330
1E
100
AcDbEntity
  8
7
100
AcDbLine
 10
4.633858267716535
 20
0.8336614173228351
 30
0.0
 11
4.633858267716535
 21
0.8415354330708666
 31
0.0
  0
LINE
  5
3423
330
1E
100
AcDbEntity
  8
7
100
AcDbLine
 10
4.633858267716535
 20
0.8415354330708666
 30
0.0
 11
4.633858267716535
 21
0.8631889763779527
 31
0.0
  0
LINE
  5
3424
330
1E
100
AcDbEntity
  8
7
100
AcDbLine
 10
4.633858267716535
 20
0.8631889763779527
 30
0.0
 11
4.633858267716535
 21
0.8986220472440953
 31
0.0
  0
LINE
  5
3428
330
1E
100
AcDbEntity
  8
7
100
AcDbLine
 10
5.409448818897637
 20
0.9891732283464573
 30
0.0
 11
5.226377952755905
 21
1.038385826771653
 31
0.0
  0
LINE
  5
3429
330
1E
100
AcDbEntity
  8
7
100
AcDbLine
 10
5.226377952755905
 20
1.038385826771653
 30
0.0
 11
5.216535433070865
 21
1.000984251968504
 31
0.0
  0
LINE
  5
342A
330
1E
100
AcDbEntity
  8
7
100
AcDbLine
 10
5.385826771653543
 20
1.097440944881889
 30
0.0
 11
5.196850393700787
 21
1.097440944881889
 31
0.0
  0
LINE
  5
342B
330
1E
100
AcDbEntity
  8
7
100
AcDbLine
 10
5.196850393700787
 20
1.097440944881889
 30
0.0
 11
5.167322834645669
 21
1.097440944881889
 31
0.0
  0
LINE
  5
342C
330
1E
100
AcDbEntity
  8
7
100
AcDbLine
 10
5.167322834645669
 20
1.097440944881889
 30
0.0
 11
5.143700787401574
 21
1.097440944881889
 31
0.0
  0
LINE
  5
342D
330
1E
100
AcDbEntity
  8
7
100
AcDbLine
 10
5.143700787401574
 20
1.097440944881889
 30
0.0
 11
5.135826771653543
 21
1.097440944881889
 31
0.0
  0
LINE
  5
342E
330
1E
100
AcDbEntity
  8
7
100
AcDbLine
 10
5.244094488188976
 20
0.9891732283464573
 30
0.0
 11
5.061023622047244
 21
1.038385826771653
 31
0.0
  0
LINE
  5
342F
330
1E
100
AcDbEntity
  8
7
100
AcDbLine
 10
5.061023622047244
 20
1.038385826771653
 30
0.0
 11
5.051181102362204
 21
1.000984251968504
 31
0.0
  0
LINE
  5
3430
330
1E
100
AcDbEntity
  8
7
100
AcDbLine
 10
5.0
 20
1.012795275590551
 30
0.0
 11
4.992125984251968
 21
1.016732283464567
 31
0.0
  0
LINE
  5
3431
330
1E
100
AcDbEntity
  8
7
100
AcDbLine
 10
4.992125984251968
 20
1.016732283464567
 30
0.0
 11
5.003937007874015
 21
1.054133858267716
 31
0.0
  0
LINE
  5
3432
330
1E
100
AcDbEntity
  8
7
100
AcDbLine
 10
5.051181102362204
 20
1.000984251968504
 30
0.0
 11
5.021653543307087
 21
1.008858267716536
 31
0.0
  0
LINE
  5
3433
330
1E
100
AcDbEntity
  8
7
100
AcDbLine
 10
5.021653543307087
 20
1.008858267716536
 30
0.0
 11
5.0
 21
1.012795275590551
 31
0.0
  0
LINE
  5
3434
330
1E
100
AcDbEntity
  8
7
100
AcDbLine
 10
5.003937007874015
 20
1.054133858267716
 30
0.0
 11
5.009842519685039
 21
1.052165354330709
 31
0.0
  0
LINE
  5
3435
330
1E
100
AcDbEntity
  8
7
100
AcDbLine
 10
5.009842519685039
 20
1.052165354330709
 30
0.0
 11
5.031496062992125
 21
1.046259842519685
 31
0.0
  0
LINE
  5
3436
330
1E
100
AcDbEntity
  8
7
100
AcDbLine
 10
5.031496062992125
 20
1.046259842519685
 30
0.0
 11
5.061023622047244
 21
1.038385826771653
 31
0.0
  0
LINE
  5
3437
330
1E
100
AcDbEntity
  8
7
100
AcDbLine
 10
5.218503937007874
 20
0.8336614173228351
 30
0.0
 11
5.25
 21
0.843503937007874
 31
0.0
  0
LINE
  5
3438
330
1E
100
AcDbEntity
  8
7
100
AcDbLine
 10
5.25
 20
0.843503937007874
 30
0.0
 11
5.271653543307087
 21
0.8690944881889768
 31
0.0
  0
LINE
  5
3439
330
1E
100
AcDbEntity
  8
7
100
AcDbLine
 10
5.271653543307087
 20
0.8690944881889768
 30
0.0
 11
5.27755905511811
 21
0.902559055118111
 31
0.0
  0
LINE
  5
343A
330
1E
100
AcDbEntity
  8
7
100
AcDbLine
 10
5.27755905511811
 20
0.902559055118111
 30
0.0
 11
5.261811023622047
 21
0.9320866141732286
 31
0.0
  0
LINE
  5
343B
330
1E
100
AcDbEntity
  8
7
100
AcDbLine
 10
5.261811023622047
 20
0.9320866141732286
 30
0.0
 11
5.234251968503937
 21
0.9498031496062999
 31
0.0
  0
LINE
  5
343C
330
1E
100
AcDbEntity
  8
7
100
AcDbLine
 10
5.316929133858267
 20
0.9005905511811027
 30
0.0
 11
5.30511811023622
 21
0.9379921259842527
 31
0.0
  0
LINE
  5
343D
330
1E
100
AcDbEntity
  8
7
100
AcDbLine
 10
5.30511811023622
 20
0.9379921259842527
 30
0.0
 11
5.279527559055118
 21
0.9694881889763786
 31
0.0
  0
LINE
  5
343E
330
1E
100
AcDbEntity
  8
7
100
AcDbLine
 10
5.279527559055118
 20
0.9694881889763786
 30
0.0
 11
5.244094488188976
 21
0.987204724409449
 31
0.0
  0
LINE
  5
343F
330
1E
100
AcDbEntity
  8
7
100
AcDbLine
 10
5.218503937007874
 20
0.7942913385826778
 30
0.0
 11
5.257874015748031
 21
0.8021653543307092
 31
0.0
  0
LINE
  5
3440
330
1E
100
AcDbEntity
  8
7
100
AcDbLine
 10
5.257874015748031
 20
0.8021653543307092
 30
0.0
 11
5.291338582677165
 21
0.8257874015748036
 31
0.0
  0
LINE
  5
3441
330
1E
100
AcDbEntity
  8
7
100
AcDbLine
 10
5.291338582677165
 20
0.8257874015748036
 30
0.0
 11
5.311023622047244
 21
0.859251968503937
 31
0.0
  0
LINE
  5
3442
330
1E
100
AcDbEntity
  8
7
100
AcDbLine
 10
5.311023622047244
 20
0.859251968503937
 30
0.0
 11
5.316929133858267
 21
0.9005905511811027
 31
0.0
  0
LINE
  5
3443
330
1E
100
AcDbEntity
  8
7
100
AcDbLine
 10
5.216535433070865
 20
1.000984251968504
 30
0.0
 11
5.187007874015748
 21
1.008858267716536
 31
0.0
  0
LINE
  5
3444
330
1E
100
AcDbEntity
  8
7
100
AcDbLine
 10
5.187007874015748
 20
1.008858267716536
 30
0.0
 11
5.165354330708661
 21
1.012795275590551
 31
0.0
  0
LINE
  5
3445
330
1E
100
AcDbEntity
  8
7
100
AcDbLine
 10
5.165354330708661
 20
1.012795275590551
 30
0.0
 11
5.157480314960629
 21
1.016732283464567
 31
0.0
  0
LINE
  5
3446
330
1E
100
AcDbEntity
  8
7
100
AcDbLine
 10
5.157480314960629
 20
1.016732283464567
 30
0.0
 11
5.167322834645669
 21
1.054133858267716
 31
0.0
  0
LINE
  5
3447
330
1E
100
AcDbEntity
  8
7
100
AcDbLine
 10
5.167322834645669
 20
1.054133858267716
 30
0.0
 11
5.1751968503937
 21
1.052165354330709
 31
0.0
  0
LINE
  5
3448
330
1E
100
AcDbEntity
  8
7
100
AcDbLine
 10
5.1751968503937
 20
1.052165354330709
 30
0.0
 11
5.196850393700787
 21
1.046259842519685
 31
0.0
  0
LINE
  5
3449
330
1E
100
AcDbEntity
  8
7
100
AcDbLine
 10
5.196850393700787
 20
1.046259842519685
 30
0.0
 11
5.226377952755905
 21
1.038385826771653
 31
0.0
  0
LINE
  5
344A
330
1E
100
AcDbEntity
  8
7
100
AcDbLine
 10
5.188976377952755
 20
0.7923228346456695
 30
0.0
 11
5.181102362204724
 21
0.7923228346456695
 31
0.0
  0
LINE
  5
344B
330
1E
100
AcDbEntity
  8
7
100
AcDbLine
 10
5.181102362204724
 20
0.7923228346456695
 30
0.0
 11
5.159448818897637
 21
0.7923228346456695
 31
0.0
  0
LINE
  5
344C
330
1E
100
AcDbEntity
  8
7
100
AcDbLine
 10
5.159448818897637
 20
0.7923228346456695
 30
0.0
 11
5.127952755905512
 21
0.7923228346456695
 31
0.0
  0
LINE
  5
344D
330
1E
100
AcDbEntity
  8
7
100
AcDbLine
 10
5.127952755905512
 20
0.8336614173228351
 30
0.0
 11
5.159448818897637
 21
0.8336614173228351
 31
0.0
  0
LINE
  5
344E
330
1E
100
AcDbEntity
  8
7
100
AcDbLine
 10
5.159448818897637
 20
0.8336614173228351
 30
0.0
 11
5.181102362204724
 21
0.8336614173228351
 31
0.0
  0
LINE
  5
344F
330
1E
100
AcDbEntity
  8
7
100
AcDbLine
 10
5.181102362204724
 20
0.8336614173228351
 30
0.0
 11
5.188976377952755
 21
0.8336614173228351
 31
0.0
  0
LINE
  5
3450
330
1E
100
AcDbEntity
  8
7
100
AcDbLine
 10
5.188976377952755
 20
0.8336614173228351
 30
0.0
 11
5.218503937007874
 21
0.8336614173228351
 31
0.0
  0
LINE
  5
3451
330
1E
100
AcDbEntity
  8
7
100
AcDbLine
 10
5.480314960629921
 20
0.875
 30
0.0
 11
5.507874015748031
 21
0.9163385826771657
 31
0.0
  0
LINE
  5
3452
330
1E
100
AcDbEntity
  8
7
100
AcDbLine
 10
5.507874015748031
 20
0.9163385826771657
 30
0.0
 11
5.517716535433071
 21
0.9675196850393703
 31
0.0
  0
LINE
  5
3453
330
1E
100
AcDbEntity
  8
7
100
AcDbLine
 10
5.517716535433071
 20
0.9675196850393703
 30
0.0
 11
5.507874015748031
 21
1.016732283464567
 31
0.0
  0
LINE
  5
3454
330
1E
100
AcDbEntity
  8
7
100
AcDbLine
 10
5.507874015748031
 20
1.016732283464567
 30
0.0
 11
5.478346456692913
 21
1.06003937007874
 31
0.0
  0
LINE
  5
3455
330
1E
100
AcDbEntity
  8
7
100
AcDbLine
 10
5.478346456692913
 20
1.06003937007874
 30
0.0
 11
5.435039370078739
 21
1.08759842519685
 31
0.0
  0
LINE
  5
3456
330
1E
100
AcDbEntity
  8
7
100
AcDbLine
 10
5.435039370078739
 20
1.08759842519685
 30
0.0
 11
5.385826771653543
 21
1.097440944881889
 31
0.0
  0
LINE
  5
3457
330
1E
100
AcDbEntity
  8
7
100
AcDbLine
 10
5.501968503937008
 20
0.8120078740157481
 30
0.0
 11
5.541338582677165
 21
0.8572834645669296
 31
0.0
  0
LINE
  5
3458
330
1E
100
AcDbEntity
  8
7
100
AcDbLine
 10
5.541338582677165
 20
0.8572834645669296
 30
0.0
 11
5.566929133858267
 21
0.9143700787401582
 31
0.0
  0
LINE
  5
3459
330
1E
100
AcDbEntity
  8
7
100
AcDbLine
 10
5.566929133858267
 20
0.9143700787401582
 30
0.0
 11
5.572834645669291
 21
0.9734251968503944
 31
0.0
  0
LINE
  5
345A
330
1E
100
AcDbEntity
  8
7
100
AcDbLine
 10
5.572834645669291
 20
0.9734251968503944
 30
0.0
 11
5.561023622047244
 21
1.034448818897637
 31
0.0
  0
LINE
  5
345B
330
1E
100
AcDbEntity
  8
7
100
AcDbLine
 10
5.561023622047244
 20
1.034448818897637
 30
0.0
 11
5.531496062992125
 21
1.08759842519685
 31
0.0
  0
LINE
  5
345C
330
1E
100
AcDbEntity
  8
7
100
AcDbLine
 10
5.531496062992125
 20
1.08759842519685
 30
0.0
 11
5.488188976377952
 21
1.130905511811024
 31
0.0
  0
LINE
  5
345D
330
1E
100
AcDbEntity
  8
7
100
AcDbLine
 10
5.488188976377952
 20
1.130905511811024
 30
0.0
 11
5.433070866141732
 21
1.156496062992126
 31
0.0
  0
LINE
  5
345E
330
1E
100
AcDbEntity
  8
7
100
AcDbLine
 10
5.482283464566929
 20
0.8336614173228351
 30
0.0
 11
5.515748031496062
 21
0.8730314960629925
 31
0.0
  0
LINE
  5
345F
330
1E
100
AcDbEntity
  8
7
100
AcDbLine
 10
5.515748031496062
 20
0.8730314960629925
 30
0.0
 11
5.537401574803149
 21
0.9202755905511814
 31
0.0
  0
LINE
  5
3460
330
1E
100
AcDbEntity
  8
7
100
AcDbLine
 10
5.537401574803149
 20
0.9202755905511814
 30
0.0
 11
5.543307086614173
 21
0.9734251968503944
 31
0.0
  0
LINE
  5
3461
330
1E
100
AcDbEntity
  8
7
100
AcDbLine
 10
5.543307086614173
 20
0.9734251968503944
 30
0.0
 11
5.533464566929134
 21
1.024606299212599
 31
0.0
  0
LINE
  5
3462
330
1E
100
AcDbEntity
  8
7
100
AcDbLine
 10
5.533464566929134
 20
1.024606299212599
 30
0.0
 11
5.507874015748031
 21
1.069881889763779
 31
0.0
  0
LINE
  5
3463
330
1E
100
AcDbEntity
  8
7
100
AcDbLine
 10
5.507874015748031
 20
1.069881889763779
 30
0.0
 11
5.470472440944881
 21
1.105314960629921
 31
0.0
  0
LINE
  5
3464
330
1E
100
AcDbEntity
  8
7
100
AcDbLine
 10
5.470472440944881
 20
1.105314960629921
 30
0.0
 11
5.423228346456692
 21
1.128937007874015
 31
0.0
  0
LINE
  5
3465
330
1E
100
AcDbEntity
  8
7
100
AcDbLine
 10
5.383858267716535
 20
0.8336614173228351
 30
0.0
 11
5.415354330708661
 21
0.843503937007874
 31
0.0
  0
LINE
  5
3466
330
1E
100
AcDbEntity
  8
7
100
AcDbLine
 10
5.415354330708661
 20
0.843503937007874
 30
0.0
 11
5.437007874015748
 21
0.8690944881889768
 31
0.0
  0
LINE
  5
3467
330
1E
100
AcDbEntity
  8
7
100
AcDbLine
 10
5.437007874015748
 20
0.8690944881889768
 30
0.0
 11
5.442913385826771
 21
0.902559055118111
 31
0.0
  0
LINE
  5
3468
330
1E
100
AcDbEntity
  8
7
100
AcDbLine
 10
5.442913385826771
 20
0.902559055118111
 30
0.0
 11
5.427165354330708
 21
0.9320866141732286
 31
0.0
  0
LINE
  5
3469
330
1E
100
AcDbEntity
  8
7
100
AcDbLine
 10
5.427165354330708
 20
0.9320866141732286
 30
0.0
 11
5.399606299212598
 21
0.9498031496062999
 31
0.0
  0
LINE
  5
346A
330
1E
100
AcDbEntity
  8
7
100
AcDbLine
 10
5.383858267716535
 20
0.7942913385826778
 30
0.0
 11
5.423228346456692
 21
0.8021653543307092
 31
0.0
  0
LINE
  5
346B
330
1E
100
AcDbEntity
  8
7
100
AcDbLine
 10
5.423228346456692
 20
0.8021653543307092
 30
0.0
 11
5.456692913385826
 21
0.8257874015748036
 31
0.0
  0
LINE
  5
346C
330
1E
100
AcDbEntity
  8
7
100
AcDbLine
 10
5.456692913385826
 20
0.8257874015748036
 30
0.0
 11
5.476377952755905
 21
0.859251968503937
 31
0.0
  0
LINE
  5
346D
330
1E
100
AcDbEntity
  8
7
100
AcDbLine
 10
5.476377952755905
 20
0.859251968503937
 30
0.0
 11
5.482283464566929
 21
0.9005905511811027
 31
0.0
  0
LINE
  5
346E
330
1E
100
AcDbEntity
  8
7
100
AcDbLine
 10
5.482283464566929
 20
0.9005905511811027
 30
0.0
 11
5.470472440944881
 21
0.9379921259842527
 31
0.0
  0
LINE
  5
346F
330
1E
100
AcDbEntity
  8
7
100
AcDbLine
 10
5.470472440944881
 20
0.9379921259842527
 30
0.0
 11
5.444881889763779
 21
0.9694881889763786
 31
0.0
  0
LINE
  5
3470
330
1E
100
AcDbEntity
  8
7
100
AcDbLine
 10
5.385826771653543
 20
0.7942913385826778
 30
0.0
 11
5.438976377952755
 21
0.8021653543307092
 31
0.0
  0
LINE
  5
3471
330
1E
100
AcDbEntity
  8
7
100
AcDbLine
 10
5.438976377952755
 20
0.8021653543307092
 30
0.0
 11
5.486220472440945
 21
0.8277559055118111
 31
0.0
  0
LINE
  5
3472
330
1E
100
AcDbEntity
  8
7
100
AcDbLine
 10
4.820866141732283
 20
2.684055118110235
 30
0.0
 11
4.828740157480314
 21
2.658464566929135
 31
0.0
  0
LINE
  5
3473
330
1E
100
AcDbEntity
  8
7
100
AcDbLine
 10
4.828740157480314
 20
2.658464566929135
 30
0.0
 11
4.850393700787401
 21
2.642716535433072
 31
0.0
  0
LINE
  5
3474
330
1E
100
AcDbEntity
  8
7
100
AcDbLine
 10
4.850393700787401
 20
2.642716535433072
 30
0.0
 11
4.877952755905512
 21
2.642716535433072
 31
0.0
  0
LINE
  5
3475
330
1E
100
AcDbEntity
  8
7
100
AcDbLine
 10
4.877952755905512
 20
2.642716535433072
 30
0.0
 11
4.899606299212598
 21
2.658464566929135
 31
0.0
  0
LINE
  5
3476
330
1E
100
AcDbEntity
  8
7
100
AcDbLine
 10
4.899606299212598
 20
2.658464566929135
 30
0.0
 11
4.907480314960629
 21
2.684055118110235
 31
0.0
  0
LINE
  5
3477
330
1E
100
AcDbEntity
  8
7
100
AcDbLine
 10
4.383858267716535
 20
2.573818897637794
 30
0.0
 11
4.391732283464566
 21
2.544291338582677
 31
0.0
  0
LINE
  5
3478
330
1E
100
AcDbEntity
  8
7
100
AcDbLine
 10
4.391732283464566
 20
2.544291338582677
 30
0.0
 11
4.413385826771653
 21
2.52263779527559
 31
0.0
  0
LINE
  5
3479
330
1E
100
AcDbEntity
  8
7
100
AcDbLine
 10
4.413385826771653
 20
2.52263779527559
 30
0.0
 11
4.442913385826771
 21
2.514763779527559
 31
0.0
  0
LINE
  5
347D
330
1E
100
AcDbEntity
  8
7
100
AcDbLine
 10
4.519685039370078
 20
2.684055118110235
 30
0.0
 11
4.52755905511811
 21
2.658464566929135
 31
0.0
  0
LINE
  5
347E
330
1E
100
AcDbEntity
  8
7
100
AcDbLine
 10
4.52755905511811
 20
2.658464566929135
 30
0.0
 11
4.549212598425197
 21
2.642716535433072
 31
0.0
  0
LINE
  5
347F
330
1E
100
AcDbEntity
  8
7
100
AcDbLine
 10
4.549212598425197
 20
2.642716535433072
 30
0.0
 11
4.576771653543307
 21
2.642716535433072
 31
0.0
  0
LINE
  5
3480
330
1E
100
AcDbEntity
  8
7
100
AcDbLine
 10
4.576771653543307
 20
2.642716535433072
 30
0.0
 11
4.598425196850393
 21
2.658464566929135
 31
0.0
  0
LINE
  5
3481
330
1E
100
AcDbEntity
  8
7
100
AcDbLine
 10
4.598425196850393
 20
2.658464566929135
 30
0.0
 11
4.606299212598425
 21
2.684055118110235
 31
0.0
  0
LINE
  5
3482
330
1E
100
AcDbEntity
  8
7
100
AcDbLine
 10
5.244094488188976
 20
2.729330708661416
 30
0.0
 11
5.061023622047244
 21
2.729330708661416
 31
0.0
  0
LINE
  5
3483
330
1E
100
AcDbEntity
  8
7
100
AcDbLine
 10
5.061023622047244
 20
2.729330708661416
 30
0.0
 11
5.051181102362204
 21
2.729330708661416
 31
0.0
  0
LINE
  5
3484
330
1E
100
AcDbEntity
  8
7
100
AcDbLine
 10
5.309055118110236
 20
2.729330708661416
 30
0.0
 11
5.283464566929134
 21
2.729330708661416
 31
0.0
  0
LINE
  5
3485
330
1E
100
AcDbEntity
  8
7
100
AcDbLine
 10
5.283464566929134
 20
2.729330708661416
 30
0.0
 11
5.244094488188976
 21
2.729330708661416
 31
0.0
  0
LINE
  5
3486
330
1E
100
AcDbEntity
  8
7
100
AcDbLine
 10
5.127952755905512
 20
2.514763779527559
 30
0.0
 11
5.157480314960629
 21
2.52263779527559
 31
0.0
  0
LINE
  5
3487
330
1E
100
AcDbEntity
  8
7
100
AcDbLine
 10
5.157480314960629
 20
2.52263779527559
 30
0.0
 11
5.179133858267716
 21
2.544291338582677
 31
0.0
  0
LINE
  5
3488
330
1E
100
AcDbEntity
  8
7
100
AcDbLine
 10
5.179133858267716
 20
2.544291338582677
 30
0.0
 11
5.187007874015748
 21
2.573818897637794
 31
0.0
  0
LINE
  5
3489
330
1E
100
AcDbEntity
  8
7
100
AcDbLine
 10
2.395669291338582
 20
2.973425196850394
 30
0.0
 11
2.395669291338582
 21
8.884842519685038
 31
0.0
  0
LINE
  5
348A
330
1E
100
AcDbEntity
  8
7
100
AcDbLine
 10
2.395669291338582
 20
8.884842519685038
 30
0.0
 11
2.332677165354331
 21
8.884842519685038
 31
0.0
  0
LINE
  5
348B
330
1E
100
AcDbEntity
  8
7
100
AcDbLine
 10
2.332677165354331
 20
8.884842519685038
 30
0.0
 11
2.27755905511811
 21
8.884842519685038
 31
0.0
  0
LINE
  5
348C
330
1E
100
AcDbEntity
  8
7
100
AcDbLine
 10
2.27755905511811
 20
8.884842519685038
 30
0.0
 11
2.232283464566929
 21
8.884842519685038
 31
0.0
  0
LINE
  5
34C0
330
1E
100
AcDbEntity
  8
7
100
AcDbLine
 10
2.523622047244094
 20
2.951771653543309
 30
0.0
 11
2.706692913385826
 21
2.951771653543309
 31
0.0
  0
LINE
  5
34C1
330
1E
100
AcDbEntity
  8
7
100
AcDbLine
 10
2.706692913385826
 20
2.951771653543309
 30
0.0
 11
2.716535433070865
 21
2.951771653543309
 31
0.0
  0
LINE
  5
34C2
330
1E
100
AcDbEntity
  8
7
100
AcDbLine
 10
2.395669291338582
 20
2.973425196850394
 30
0.0
 11
2.332677165354331
 21
2.973425196850394
 31
0.0
  0
LINE
  5
34C3
330
1E
100
AcDbEntity
  8
7
100
AcDbLine
 10
2.332677165354331
 20
2.973425196850394
 30
0.0
 11
2.27755905511811
 21
2.973425196850394
 31
0.0
  0
LINE
  5
34C4
330
1E
100
AcDbEntity
  8
7
100
AcDbLine
 10
2.27755905511811
 20
2.973425196850394
 30
0.0
 11
2.232283464566929
 21
2.973425196850394
 31
0.0
  0
LINE
  5
34C5
330
1E
100
AcDbEntity
  8
7
100
AcDbLine
 10
2.232283464566929
 20
2.973425196850394
 30
0.0
 11
2.202755905511811
 21
2.973425196850394
 31
0.0
  0
LINE
  5
34C6
330
1E
100
AcDbEntity
  8
7
100
AcDbLine
 10
2.202755905511811
 20
2.973425196850394
 30
0.0
 11
2.192913385826771
 21
2.973425196850394
 31
0.0
  0
LINE
  5
34C7
330
1E
100
AcDbEntity
  8
7
100
AcDbLine
 10
2.448818897637795
 20
2.951771653543309
 30
0.0
 11
2.458661417322834
 21
2.951771653543309
 31
0.0
  0
LINE
  5
34C8
330
1E
100
AcDbEntity
  8
7
100
AcDbLine
 10
2.458661417322834
 20
2.951771653543309
 30
0.0
 11
2.484251968503937
 21
2.951771653543309
 31
0.0
  0
LINE
  5
34C9
330
1E
100
AcDbEntity
  8
7
100
AcDbLine
 10
2.746062992125984
 20
2.943897637795275
 30
0.0
 11
2.76771653543307
 21
2.92224409448819
 31
0.0
  0
LINE
  5
34CA
330
1E
100
AcDbEntity
  8
7
100
AcDbLine
 10
2.76771653543307
 20
2.92224409448819
 30
0.0
 11
2.773622047244094
 21
2.892716535433072
 31
0.0
  0
LINE
  5
34CB
330
1E
100
AcDbEntity
  8
7
100
AcDbLine
 10
3.472440944881889
 20
2.936023622047246
 30
0.0
 11
3.466535433070866
 21
2.957677165354331
 31
0.0
  0
LINE
  5
34CC
330
1E
100
AcDbEntity
  8
7
100
AcDbLine
 10
3.466535433070866
 20
2.957677165354331
 30
0.0
 11
3.452755905511811
 21
2.973425196850394
 31
0.0
  0
LINE
  5
34CD
330
1E
100
AcDbEntity
  8
7
100
AcDbLine
 10
3.405511811023622
 20
2.973425196850394
 30
0.0
 11
3.391732283464566
 21
2.957677165354331
 31
0.0
  0
LINE
  5
34CE
330
1E
100
AcDbEntity
  8
7
100
AcDbLine
 10
3.391732283464566
 20
2.957677165354331
 30
0.0
 11
3.385826771653543
 21
2.936023622047246
 31
0.0
  0
LINE
  5
34EB
330
1E
100
AcDbEntity
  8
7
100
AcDbLine
 10
3.043307086614173
 20
9.103346456692912
 30
0.0
 11
3.035433070866141
 21
9.132874015748031
 31
0.0
  0
LINE
  5
34EC
330
1E
100
AcDbEntity
  8
7
100
AcDbLine
 10
3.035433070866141
 20
9.132874015748031
 30
0.0
 11
3.013779527559054
 21
9.154527559055116
 31
0.0
  0
LINE
  5
34ED
330
1E
100
AcDbEntity
  8
7
100
AcDbLine
 10
3.013779527559054
 20
9.154527559055116
 30
0.0
 11
2.984251968503937
 21
9.162401574803149
 31
0.0
  0
LINE
  5
34EE
330
1E
100
AcDbEntity
  8
7
100
AcDbLine
 10
2.379921259842519
 20
8.884842519685038
 30
0.0
 11
2.379921259842519
 21
9.164370078740157
 31
0.0
  0
LINE
  5
34EF
330
1E
100
AcDbEntity
  8
7
100
AcDbLine
 10
2.379921259842519
 20
9.164370078740157
 30
0.0
 11
2.570866141732283
 21
9.164370078740157
 31
0.0
  0
LINE
  5
34F0
330
1E
100
AcDbEntity
  8
7
100
AcDbLine
 10
2.208661417322834
 20
9.164370078740157
 30
0.0
 11
2.216535433070866
 21
9.164370078740157
 31
0.0
  0
LINE
  5
34F1
330
1E
100
AcDbEntity
  8
7
100
AcDbLine
 10
2.216535433070866
 20
9.164370078740157
 30
0.0
 11
2.242125984251968
 21
9.164370078740157
 31
0.0
  0
LINE
  5
34F2
330
1E
100
AcDbEntity
  8
7
100
AcDbLine
 10
2.242125984251968
 20
9.164370078740157
 30
0.0
 11
2.279527559055118
 21
9.164370078740157
 31
0.0
  0
LINE
  5
34F3
330
1E
100
AcDbEntity
  8
7
100
AcDbLine
 10
2.279527559055118
 20
9.164370078740157
 30
0.0
 11
2.326771653543307
 21
9.164370078740157
 31
0.0
  0
LINE
  5
34F4
330
1E
100
AcDbEntity
  8
7
100
AcDbLine
 10
2.326771653543307
 20
9.164370078740157
 30
0.0
 11
2.379921259842519
 21
9.164370078740157
 31
0.0
  0
LINE
  5
34F5
330
1E
100
AcDbEntity
  8
7
100
AcDbLine
 10
2.232283464566929
 20
8.884842519685038
 30
0.0
 11
2.202755905511811
 21
8.884842519685038
 31
0.0
  0
LINE
  5
34F6
330
1E
100
AcDbEntity
  8
7
100
AcDbLine
 10
2.202755905511811
 20
8.884842519685038
 30
0.0
 11
2.192913385826771
 21
8.884842519685038
 31
0.0
  0
LINE
  5
34F7
330
1E
100
AcDbEntity
  8
7
100
AcDbLine
 10
2.629921259842519
 20
9.103346456692912
 30
0.0
 11
2.622047244094487
 21
9.132874015748031
 31
0.0
  0
LINE
  5
34F8
330
1E
100
AcDbEntity
  8
7
100
AcDbLine
 10
2.622047244094487
 20
9.132874015748031
 30
0.0
 11
2.600393700787401
 21
9.154527559055116
 31
0.0
  0
LINE
  5
34F9
330
1E
100
AcDbEntity
  8
7
100
AcDbLine
 10
2.600393700787401
 20
9.154527559055116
 30
0.0
 11
2.570866141732283
 21
9.162401574803149
 31
0.0
  0
LINE
  5
34FD
330
1E
100
AcDbEntity
  8
7
100
AcDbLine
 10
3.133858267716535
 20
9.130905511811024
 30
0.0
 11
3.133858267716535
 21
9.093503937007875
 31
0.0
  0
LINE
  5
34FE
330
1E
100
AcDbEntity
  8
7
100
AcDbLine
 10
3.133858267716535
 20
9.093503937007875
 30
0.0
 11
3.133858267716535
 21
9.044291338582675
 31
0.0
  0
LINE
  5
34FF
330
1E
100
AcDbEntity
  8
7
100
AcDbLine
 10
3.133858267716535
 20
9.044291338582675
 30
0.0
 11
3.133858267716535
 21
8.991141732283464
 31
0.0
  0
LINE
  5
3500
330
1E
100
AcDbEntity
  8
7
100
AcDbLine
 10
3.133858267716535
 20
9.164370078740157
 30
0.0
 11
3.133858267716535
 21
9.156496062992127
 31
0.0
  0
LINE
  5
3501
330
1E
100
AcDbEntity
  8
7
100
AcDbLine
 10
3.133858267716535
 20
9.156496062992127
 30
0.0
 11
3.133858267716535
 21
9.130905511811024
 31
0.0
  0
LINE
  5
3502
330
1E
100
AcDbEntity
  8
7
100
AcDbLine
 10
3.04527559055118
 20
8.991141732283464
 30
0.0
 11
3.053149606299212
 21
8.965551181102361
 31
0.0
  0
LINE
  5
3503
330
1E
100
AcDbEntity
  8
7
100
AcDbLine
 10
3.053149606299212
 20
8.965551181102361
 30
0.0
 11
3.074803149606299
 21
8.949803149606298
 31
0.0
  0
LINE
  5
3504
330
1E
100
AcDbEntity
  8
7
100
AcDbLine
 10
3.074803149606299
 20
8.949803149606298
 30
0.0
 11
3.102362204724409
 21
8.949803149606298
 31
0.0
  0
LINE
  5
3505
330
1E
100
AcDbEntity
  8
7
100
AcDbLine
 10
3.102362204724409
 20
8.949803149606298
 30
0.0
 11
3.124015748031496
 21
8.965551181102361
 31
0.0
  0
LINE
  5
3506
330
1E
100
AcDbEntity
  8
7
100
AcDbLine
 10
3.124015748031496
 20
8.965551181102361
 30
0.0
 11
3.131889763779527
 21
8.991141732283464
 31
0.0
  0
LINE
  5
3507
330
1E
100
AcDbEntity
  8
7
100
AcDbLine
 10
4.31496062992126
 20
2.973425196850394
 30
0.0
 11
4.301181102362204
 21
2.957677165354331
 31
0.0
  0
LINE
  5
3508
330
1E
100
AcDbEntity
  8
7
100
AcDbLine
 10
4.301181102362204
 20
2.957677165354331
 30
0.0
 11
4.295275590551181
 21
2.936023622047246
 31
0.0
  0
LINE
  5
3509
330
1E
100
AcDbEntity
  8
7
100
AcDbLine
 10
4.381889763779527
 20
2.936023622047246
 30
0.0
 11
4.375984251968503
 21
2.957677165354331
 31
0.0
  0
LINE
  5
350A
330
1E
100
AcDbEntity
  8
7
100
AcDbLine
 10
4.375984251968503
 20
2.957677165354331
 30
0.0
 11
4.362204724409449
 21
2.973425196850394
 31
0.0
  0
LINE
  5
350B
330
1E
100
AcDbEntity
  8
7
100
AcDbLine
 10
4.992125984251968
 20
2.892716535433072
 30
0.0
 11
5.0
 21
2.92224409448819
 31
0.0
  0
LINE
  5
350C
330
1E
100
AcDbEntity
  8
7
100
AcDbLine
 10
5.0
 20
2.92224409448819
 30
0.0
 11
5.021653543307087
 21
2.943897637795275
 31
0.0
  0
LINE
  5
350D
330
1E
100
AcDbEntity
  8
7
100
AcDbLine
 10
5.021653543307087
 20
2.943897637795275
 30
0.0
 11
5.051181102362204
 21
2.951771653543309
 31
0.0
  0
LINE
  5
350E
330
1E
100
AcDbEntity
  8
7
100
AcDbLine
 10
5.061023622047244
 20
2.951771653543309
 30
0.0
 11
5.031496062992125
 21
2.943897637795275
 31
0.0
  0
LINE
  5
350F
330
1E
100
AcDbEntity
  8
7
100
AcDbLine
 10
5.031496062992125
 20
2.943897637795275
 30
0.0
 11
5.009842519685039
 21
2.92224409448819
 31
0.0
  0
LINE
  5
3510
330
1E
100
AcDbEntity
  8
7
100
AcDbLine
 10
5.009842519685039
 20
2.92224409448819
 30
0.0
 11
5.003937007874015
 21
2.892716535433072
 31
0.0
  0
LINE
  5
3511
330
1E
100
AcDbEntity
  8
7
100
AcDbLine
 10
5.318897637795275
 20
2.951771653543309
 30
0.0
 11
5.309055118110236
 21
2.951771653543309
 31
0.0
  0
LINE
  5
3512
330
1E
100
AcDbEntity
  8
7
100
AcDbLine
 10
5.309055118110236
 20
2.951771653543309
 30
0.0
 11
5.283464566929134
 21
2.951771653543309
 31
0.0
  0
LINE
  5
3513
330
1E
100
AcDbEntity
  8
7
100
AcDbLine
 10
5.283464566929134
 20
2.951771653543309
 30
0.0
 11
5.244094488188976
 21
2.951771653543309
 31
0.0
  0
LINE
  5
3514
330
1E
100
AcDbEntity
  8
7
100
AcDbLine
 10
5.372047244094487
 20
2.973425196850394
 30
0.0
 11
5.433070866141732
 21
2.973425196850394
 31
0.0
  0
LINE
  5
3515
330
1E
100
AcDbEntity
  8
7
100
AcDbLine
 10
5.433070866141732
 20
2.973425196850394
 30
0.0
 11
5.490157480314961
 21
2.973425196850394
 31
0.0
  0
LINE
  5
3516
330
1E
100
AcDbEntity
  8
7
100
AcDbLine
 10
5.490157480314961
 20
2.973425196850394
 30
0.0
 11
5.535433070866141
 21
2.973425196850394
 31
0.0
  0
LINE
  5
3517
330
1E
100
AcDbEntity
  8
7
100
AcDbLine
 10
5.535433070866141
 20
2.973425196850394
 30
0.0
 11
5.562992125984251
 21
2.973425196850394
 31
0.0
  0
LINE
  5
3518
330
1E
100
AcDbEntity
  8
7
100
AcDbLine
 10
5.562992125984251
 20
2.973425196850394
 30
0.0
 11
5.572834645669291
 21
2.973425196850394
 31
0.0
  0
LINE
  5
3519
330
1E
100
AcDbEntity
  8
7
100
AcDbLine
 10
4.635826771653543
 20
8.991141732283464
 30
0.0
 11
4.643700787401574
 21
8.965551181102361
 31
0.0
  0
LINE
  5
351A
330
1E
100
AcDbEntity
  8
7
100
AcDbLine
 10
4.643700787401574
 20
8.965551181102361
 30
0.0
 11
4.665354330708661
 21
8.949803149606298
 31
0.0
  0
LINE
  5
351B
330
1E
100
AcDbEntity
  8
7
100
AcDbLine
 10
4.665354330708661
 20
8.949803149606298
 30
0.0
 11
4.692913385826771
 21
8.949803149606298
 31
0.0
  0
LINE
  5
351C
330
1E
100
AcDbEntity
  8
7
100
AcDbLine
 10
4.633858267716535
 20
9.164370078740157
 30
0.0
 11
4.633858267716535
 21
9.156496062992127
 31
0.0
  0
LINE
  5
351D
330
1E
100
AcDbEntity
  8
7
100
AcDbLine
 10
4.633858267716535
 20
9.156496062992127
 30
0.0
 11
4.633858267716535
 21
9.130905511811024
 31
0.0
  0
LINE
  5
351E
330
1E
100
AcDbEntity
  8
7
100
AcDbLine
 10
4.633858267716535
 20
9.130905511811024
 30
0.0
 11
4.633858267716535
 21
9.093503937007875
 31
0.0
  0
LINE
  5
351F
330
1E
100
AcDbEntity
  8
7
100
AcDbLine
 10
4.633858267716535
 20
9.093503937007875
 30
0.0
 11
4.633858267716535
 21
9.044291338582675
 31
0.0
  0
LINE
  5
3520
330
1E
100
AcDbEntity
  8
7
100
AcDbLine
 10
4.633858267716535
 20
9.044291338582675
 30
0.0
 11
4.633858267716535
 21
8.991141732283464
 31
0.0
  0
LINE
  5
3521
330
1E
100
AcDbEntity
  8
7
100
AcDbLine
 10
4.692913385826771
 20
8.949803149606298
 30
0.0
 11
4.714566929133858
 21
8.965551181102361
 31
0.0
  0
LINE
  5
3522
330
1E
100
AcDbEntity
  8
7
100
AcDbLine
 10
4.714566929133858
 20
8.965551181102361
 30
0.0
 11
4.722440944881889
 21
8.991141732283464
 31
0.0
  0
LINE
  5
3523
330
1E
100
AcDbEntity
  8
7
100
AcDbLine
 10
4.783464566929134
 20
9.162401574803149
 30
0.0
 11
4.753937007874015
 21
9.154527559055116
 31
0.0
  0
LINE
  5
3524
330
1E
100
AcDbEntity
  8
7
100
AcDbLine
 10
4.753937007874015
 20
9.154527559055116
 30
0.0
 11
4.732283464566929
 21
9.132874015748031
 31
0.0
  0
LINE
  5
3525
330
1E
100
AcDbEntity
  8
7
100
AcDbLine
 10
4.732283464566929
 20
9.132874015748031
 30
0.0
 11
4.724409448818898
 21
9.103346456692912
 31
0.0
  0
LINE
  5
3526
330
1E
100
AcDbEntity
  8
7
100
AcDbLine
 10
5.196850393700787
 20
9.162401574803149
 30
0.0
 11
5.167322834645669
 21
9.154527559055116
 31
0.0
  0
LINE
  5
3527
330
1E
100
AcDbEntity
  8
7
100
AcDbLine
 10
5.167322834645669
 20
9.154527559055116
 30
0.0
 11
5.145669291338582
 21
9.132874015748031
 31
0.0
  0
LINE
  5
3528
330
1E
100
AcDbEntity
  8
7
100
AcDbLine
 10
5.145669291338582
 20
9.132874015748031
 30
0.0
 11
5.13779527559055
 21
9.103346456692912
 31
0.0
  0
LINE
  5
3529
330
1E
100
AcDbEntity
  8
7
100
AcDbLine
 10
5.559055118110236
 20
9.164370078740157
 30
0.0
 11
5.549212598425197
 21
9.164370078740157
 31
0.0
  0
LINE
  5
352A
330
1E
100
AcDbEntity
  8
7
100
AcDbLine
 10
5.549212598425197
 20
9.164370078740157
 30
0.0
 11
5.525590551181102
 21
9.164370078740157
 31
0.0
  0
LINE
  5
352B
330
1E
100
AcDbEntity
  8
7
100
AcDbLine
 10
5.525590551181102
 20
9.164370078740157
 30
0.0
 11
5.488188976377952
 21
9.164370078740157
 31
0.0
  0
LINE
  5
352C
330
1E
100
AcDbEntity
  8
7
100
AcDbLine
 10
5.488188976377952
 20
9.164370078740157
 30
0.0
 11
5.438976377952755
 21
9.164370078740157
 31
0.0
  0
LINE
  5
352D
330
1E
100
AcDbEntity
  8
7
100
AcDbLine
 10
5.438976377952755
 20
9.164370078740157
 30
0.0
 11
5.385826771653543
 21
9.164370078740157
 31
0.0
  0
LINE
  5
352E
330
1E
100
AcDbEntity
  8
7
100
AcDbLine
 10
5.385826771653543
 20
9.164370078740157
 30
0.0
 11
5.385826771653543
 21
8.884842519685038
 31
0.0
  0
LINE
  5
352F
330
1E
100
AcDbEntity
  8
7
100
AcDbLine
 10
5.372047244094487
 20
8.884842519685038
 30
0.0
 11
5.433070866141732
 21
8.884842519685038
 31
0.0
  0
LINE
  5
3530
330
1E
100
AcDbEntity
  8
7
100
AcDbLine
 10
5.433070866141732
 20
8.884842519685038
 30
0.0
 11
5.490157480314961
 21
8.884842519685038
 31
0.0
  0
LINE
  5
3531
330
1E
100
AcDbEntity
  8
7
100
AcDbLine
 10
5.490157480314961
 20
8.884842519685038
 30
0.0
 11
5.535433070866141
 21
8.884842519685038
 31
0.0
  0
LINE
  5
3532
330
1E
100
AcDbEntity
  8
7
100
AcDbLine
 10
5.535433070866141
 20
8.884842519685038
 30
0.0
 11
5.562992125984251
 21
8.884842519685038
 31
0.0
  0
LINE
  5
3533
330
1E
100
AcDbEntity
  8
7
100
AcDbLine
 10
5.562992125984251
 20
8.884842519685038
 30
0.0
 11
5.572834645669291
 21
8.884842519685038
 31
0.0
  0
ENDSEC
  0
SECTION
  2
OBJECTS
  0
DICTIONARY
  5
C
330
0
100
AcDbDictionary
  3
ACAD_GROUP
350
D
  3
ACAD_LAYOUT
350
19
  3
ACAD_MLINESTYLE
350
16
  3
ACAD_PLOTSETTINGS
350
18
  3
ACAD_PLOTSTYLENAME
350
E
  3
ACDBHEADERROUNDTRIPXREC
350
3569
  0
DICTIONARY
  5
358C
330
1E
100
AcDbDictionary
280
     1
  3
ACAD_LAYOUTSELFREF
360
358D
  0
DICTIONARY
  5
358A
330
1A
100
AcDbDictionary
280
     1
  3
ACAD_LAYOUTSELFREF
360
358B
  0
DICTIONARY
  5
D
102
{ACAD_REACTORS
330
C
102
}
330
C
100
AcDbDictionary
  0
DICTIONARY
  5
19
102
{ACAD_REACTORS
330
C
102
}
330
C
100
AcDbDictionary
  0
DICTIONARY
  5
16
102
{ACAD_REACTORS
330
C
102
}
330
C
100
AcDbDictionary
  3
STANDARD
350
17
  0
DICTIONARY
  5
18
102
{ACAD_REACTORS
330
C
102
}
330
C
100
AcDbDictionary
  0
ACDBDICTIONARYWDFLT
  5
E
102
{ACAD_REACTORS
330
C
102
}
330
C
100
AcDbDictionary
281
     1
  3
Normal
350
F
100
AcDbDictionaryWithDefault
340
F
  0
DICTIONARY
  5
3569
102
{ACAD_REACTORS
330
C
102
}
330
C
100
AcDbDictionary
  3
CEPSNTYPE
350
3573
  3
DIMSTYLEDATA
350
3577
  3
FINGERPRINTGUID
350
3574
  3
HYPERLINKBASE
350
356C
  3
INSUNITS
350
3572
  3
LAYOUTDICT
350
356E
  3
LWETCUNION
350
3571
  3
PLOTSETDICT
350
356F
  3
PLOTSTYLNAMDICT
350
3570
  3
PSVPSCALE
350
3576
  3
PUCSBASE
350
357A
  3
PUCSORGBACK
350
3580
  3
PUCSORGBOTTOM
350
357C
  3
PUCSORGFRONT
350
357F
  3
PUCSORGLEFT
350
357D
  3
PUCSORGRIGHT
350
357E
  3
PUCSORGTOP
350
357B
  3
PUCSORTHOREF
350
3578
  3
PUCSORTHOVIEW
350
3579
  3
STYLESHEET
350
356D
  3
TSTACKALIGN
350
356A
  3
TSTACKSIZE
350
356B
  3
UCSBASE
350
3583
  3
UCSORGBACK
350
3589
  3
UCSORGBOTTOM
350
3585
  3
UCSORGFRONT
350
3588
  3
UCSORGLEFT
350
3586
  3
UCSORGRIGHT
350
3587
  3
UCSORGTOP
350
3584
  3
UCSORTHOREF
350
3581
  3
UCSORTHOVIEW
350
3582
  3
VERSIONGUID
350
3575
  0
XRECORD
  5
358D
102
{ACAD_REACTORS
330
358C
102
}
330
358C
100
AcDbXrecord
340
1E
  0
XRECORD
  5
358B
102
{ACAD_REACTORS
330
358A
102
}
330
358A
100
AcDbXrecord
340
1A
  0
MLINESTYLE
  5
17
102
{ACAD_REACTORS
330
16
102
}
330
16
100
AcDbMlineStyle
  2
STANDARD
 70
     0
  3

 62
   256
 51
90.0
 52
90.0
 71
     2
 49
0.5
 62
   256
  6
BYLAYER
 49
-0.5
 62
   256
  6
BYLAYER
  0
ACDBPLACEHOLDER
  5
F
102
{ACAD_REACTORS
330
E
102
}
330
E
100
AcDbPlaceHolder
280
     0
  0
XRECORD
  5
3573
102
{ACAD_REACTORS
330
3569
102
}
330
3569
100
AcDbXrecord
 90
        0
  0
XRECORD
  5
3577
102
{ACAD_REACTORS
330
3569
102
}
330
3569
100
AcDbXrecord
1000
DSTYLE
1002
{
1070
   279
 70
     2
1002
}
  0
XRECORD
  5
3574
102
{ACAD_REACTORS
330
3569
102
}
330
3569
100
AcDbXrecord
  1
{3A7EC141-5DFF-11D6-B7D2-00B0D0207C23}
  0
XRECORD
  5
356C
102
{ACAD_REACTORS
330
3569
102
}
330
3569
100
AcDbXrecord
  1

  0
XRECORD
  5
3572
102
{ACAD_REACTORS
330
3569
102
}
330
3569
100
AcDbXrecord
 90
        0
  0
XRECORD
  5
356E
102
{ACAD_REACTORS
330
3569
102
}
330
3569
100
AcDbXrecord
340
19
  0
XRECORD
  5
3571
102
{ACAD_REACTORS
330
3569
102
}
330
3569
100
AcDbXrecord
 90
    14877
  0
XRECORD
  5
356F
102
{ACAD_REACTORS
330
3569
102
}
330
3569
100
AcDbXrecord
340
18
  0
XRECORD
  5
3570
102
{ACAD_REACTORS
330
3569
102
}
330
3569
100
AcDbXrecord
340
E
  0
XRECORD
  5
3576
102
{ACAD_REACTORS
330
3569
102
}
330
3569
100
AcDbXrecord
 40
0.0
  0
XRECORD
  5
357A
102
{ACAD_REACTORS
330
3569
102
}
330
3569
100
AcDbXrecord
340
0
  0
XRECORD
  5
3580
102
{ACAD_REACTORS
330
3569
102
}
330
3569
100
AcDbXrecord
 10
0.0
 20
0.0
 30
0.0
  0
XRECORD
  5
357C
102
{ACAD_REACTORS
330
3569
102
}
330
3569
100
AcDbXrecord
 10
0.0
 20
0.0
 30
0.0
  0
XRECORD
  5
357F
102
{ACAD_REACTORS
330
3569
102
}
330
3569
100
AcDbXrecord
 10
0.0
 20
0.0
 30
0.0
  0
XRECORD
  5
357D
102
{ACAD_REACTORS
330
3569
102
}
330
3569
100
AcDbXrecord
 10
0.0
 20
0.0
 30
0.0
  0
XRECORD
  5
357E
102
{ACAD_REACTORS
330
3569
102
}
330
3569
100
AcDbXrecord
 10
0.0
 20
0.0
 30
0.0
  0
XRECORD
  5
357B
102
{ACAD_REACTORS
330
3569
102
}
330
3569
100
AcDbXrecord
 10
0.0
 20
0.0
 30
0.0
  0
XRECORD
  5
3578
102
{ACAD_REACTORS
330
3569
102
}
330
3569
100
AcDbXrecord
340
0
  0
XRECORD
  5
3579
102
{ACAD_REACTORS
330
3569
102
}
330
3569
100
AcDbXrecord
 70
     0
  0
XRECORD
  5
356D
102
{ACAD_REACTORS
330
3569
102
}
330
3569
100
AcDbXrecord
  1

  0
XRECORD
  5
356A
102
{ACAD_REACTORS
330
3569
102
}
330
3569
100
AcDbXrecord
 90
        1
  0
XRECORD
  5
356B
102
{ACAD_REACTORS
330
3569
102
}
330
3569
100
AcDbXrecord
 90
       70
  0
XRECORD
  5
3583
102
{ACAD_REACTORS
330
3569
102
}
330
3569
100
AcDbXrecord
340
0
  0
XRECORD
  5
3589
102
{ACAD_REACTORS
330
3569
102
}
330
3569
100
AcDbXrecord
 10
0.0
 20
0.0
 30
0.0
  0
XRECORD
  5
3585
102
{ACAD_REACTORS
330
3569
102
}
330
3569
100
AcDbXrecord
 10
0.0
 20
0.0
 30
0.0
  0
XRECORD
  5
3588
102
{ACAD_REACTORS
330
3569
102
}
330
3569
100
AcDbXrecord
 10
0.0
 20
0.0
 30
0.0
  0
XRECORD
  5
3586
102
{ACAD_REACTORS
330
3569
102
}
330
3569
100
AcDbXrecord
 10
0.0
 20
0.0
 30
0.0
  0
XRECORD
  5
3587
102
{ACAD_REACTORS
330
3569
102
}
330
3569
100
AcDbXrecord
 10
0.0
 20
0.0
 30
0.0
  0
XRECORD
  5
3584
102
{ACAD_REACTORS
330
3569
102
}
330
3569
100
AcDbXrecord
 10
0.0
 20
0.0
 30
0.0
  0
XRECORD
  5
3581
102
{ACAD_REACTORS
330
3569
102
}
330
3569
100
AcDbXrecord
340
0
  0
XRECORD
  5
3582
102
{ACAD_REACTORS
330
3569
102
}
330
3569
100
AcDbXrecord
 70
     0
  0
XRECORD
  5
3575
102
{ACAD_REACTORS
330
3569
102
}
330
3569
100
AcDbXrecord
  1
{3A7EC143-5DFF-11D6-B7D2-00B0D0207C23}
  0
ENDSEC
  0
EOF
