  0
SECTION
  2
HEADER
  9
$ACADVER
  1
AC1012
  9
$DWGCODEPAGE
  3
ANSI_1252
  9
$INSBASE
 10
0.0
 20
0.0
 30
0.0
  9
$EXTMIN
 10
-2.522644017965816
 20
3.39381411181974
 30
-0.0000000000112498
  9
$EXTMAX
 10
7.314697288110266
 20
8.349334736994158
 30
0.0000000000002956
  9
$LIMMIN
 10
0.0
 20
0.0
  9
$LIMMAX
 10
12.0
 20
9.0
  9
$ORTHOMODE
 70
     0
  9
$REGENMODE
 70
     1
  9
$FILLMODE
 70
     1
  9
$QTEXTMODE
 70
     0
  9
$MIRRTEXT
 70
     1
  9
$DRAGMODE
 70
     2
  9
$LTSCALE
 40
1.0
  9
$OSMODE
 70
    33
  9
$ATTMODE
 70
     1
  9
$TEXTSIZE
 40
0.2
  9
$TRACEWID
 40
0.05
  9
$TEXTSTYLE
  7
STANDARD
  9
$CLAYER
  8
0
  9
$CELTYPE
  6
BYLAYER
  9
$CECOLOR
 62
   256
  9
$CELTSCALE
 40
1.0
  9
$DELOBJ
 70
     1
  9
$DISPSILH
 70
     0
  9
$DIMSCALE
 40
1.0
  9
$DIMASZ
 40
0.18
  9
$DIMEXO
 40
0.0625
  9
$DIMDLI
 40
0.38
  9
$DIMRND
 40
0.0
  9
$DIMDLE
 40
0.0
  9
$DIMEXE
 40
0.18
  9
$DIMTP
 40
0.0
  9
$DIMTM
 40
0.0
  9
$DIMTXT
 40
0.18
  9
$DIMCEN
 40
0.09
  9
$DIMTSZ
 40
0.0
  9
$DIMTOL
 70
     0
  9
$DIMLIM
 70
     0
  9
$DIMTIH
 70
     1
  9
$DIMTOH
 70
     1
  9
$DIMSE1
 70
     0
  9
$DIMSE2
 70
     0
  9
$DIMTAD
 70
     0
  9
$DIMZIN
 70
     0
  9
$DIMBLK
  1

  9
$DIMASO
 70
     1
  9
$DIMSHO
 70
     1
  9
$DIMPOST
  1

  9
$DIMAPOST
  1

  9
$DIMALT
 70
     0
  9
$DIMALTD
 70
     2
  9
$DIMALTF
 40
25.4
  9
$DIMLFAC
 40
1.0
  9
$DIMTOFL
 70
     0
  9
$DIMTVP
 40
0.0
  9
$DIMTIX
 70
     0
  9
$DIMSOXD
 70
     0
  9
$DIMSAH
 70
     0
  9
$DIMBLK1
  1

  9
$DIMBLK2
  1

  9
$DIMSTYLE
  2
STANDARD
  9
$DIMCLRD
 70
     0
  9
$DIMCLRE
 70
     0
  9
$DIMCLRT
 70
     0
  9
$DIMTFAC
 40
1.0
  9
$DIMGAP
 40
0.09
  9
$DIMJUST
 70
     0
  9
$DIMSD1
 70
     0
  9
$DIMSD2
 70
     0
  9
$DIMTOLJ
 70
     1
  9
$DIMTZIN
 70
     0
  9
$DIMALTZ
 70
     0
  9
$DIMALTTZ
 70
     0
  9
$DIMFIT
 70
     5
  9
$DIMUPT
 70
     0
  9
$DIMUNIT
 70
     2
  9
$DIMDEC
 70
     4
  9
$DIMTDEC
 70
     4
  9
$DIMALTU
 70
     2
  9
$DIMALTTD
 70
     2
  9
$DIMTXSTY
  7
STANDARD
  9
$DIMAUNIT
 70
     0
  9
$LUNITS
 70
     2
  9
$LUPREC
 70
     4
  9
$SKETCHINC
 40
0.1
  9
$FILLETRAD
 40
0.0
  9
$AUNITS
 70
     0
  9
$AUPREC
 70
     0
  9
$MENU
  1
acad
  9
$ELEVATION
 40
0.0
  9
$PELEVATION
 40
0.0
  9
$THICKNESS
 40
0.0
  9
$LIMCHECK
 70
     0
  9
$BLIPMODE
 70
     0
  9
$CHAMFERA
 40
0.0
  9
$CHAMFERB
 40
0.0
  9
$CHAMFERC
 40
0.0
  9
$CHAMFERD
 40
0.0
  9
$SKPOLY
 70
     0
  9
$TDCREATE
 40
2452082.530335648
  9
$TDUPDATE
 40
2452339.364405046
  9
$TDINDWG
 40
0.0050343519
  9
$TDUSRTIMER
 40
0.0050343519
  9
$USRTIMER
 70
     1
  9
$ANGBASE
 50
0.0
  9
$ANGDIR
 70
     0
  9
$PDMODE
 70
     0
  9
$PDSIZE
 40
0.0
  9
$PLINEWID
 40
0.0
  9
$COORDS
 70
     2
  9
$SPLFRAME
 70
     0
  9
$SPLINETYPE
 70
     6
  9
$SPLINESEGS
 70
     8
  9
$ATTDIA
 70
     0
  9
$ATTREQ
 70
     1
  9
$HANDLING
 70
  4097
  9
$HANDSEED
  5
1454
  9
$SURFTAB1
 70
     6
  9
$SURFTAB2
 70
     6
  9
$SURFTYPE
 70
     6
  9
$SURFU
 70
     6
  9
$SURFV
 70
     6
  9
$UCSNAME
  2

  9
$UCSORG
 10
0.0
 20
0.0
 30
0.0
  9
$UCSXDIR
 10
1.0
 20
0.0
 30
0.0
  9
$UCSYDIR
 10
0.0
 20
1.0
 30
0.0
  9
$PUCSNAME
  2

  9
$PUCSORG
 10
0.0
 20
0.0
 30
0.0
  9
$PUCSXDIR
 10
1.0
 20
0.0
 30
0.0
  9
$PUCSYDIR
 10
0.0
 20
1.0
 30
0.0
  9
$USERI1
 70
     0
  9
$USERI2
 70
     0
  9
$USERI3
 70
     0
  9
$USERI4
 70
     0
  9
$USERI5
 70
     0
  9
$USERR1
 40
0.0
  9
$USERR2
 40
0.0
  9
$USERR3
 40
0.0
  9
$USERR4
 40
0.0
  9
$USERR5
 40
0.0
  9
$WORLDVIEW
 70
     1
  9
$SHADEDGE
 70
     3
  9
$SHADEDIF
 70
    70
  9
$TILEMODE
 70
     1
  9
$MAXACTVP
 70
    16
  9
$PINSBASE
 10
0.0
 20
0.0
 30
0.0
  9
$PLIMCHECK
 70
     0
  9
$PEXTMIN
 10
1.000000000000000E+20
 20
1.000000000000000E+20
 30
1.000000000000000E+20
  9
$PEXTMAX
 10
-1.000000000000000E+20
 20
-1.000000000000000E+20
 30
-1.000000000000000E+20
  9
$PLIMMIN
 10
0.0
 20
0.0
  9
$PLIMMAX
 10
12.0
 20
9.0
  9
$UNITMODE
 70
     0
  9
$VISRETAIN
 70
     0
  9
$PLINEGEN
 70
     0
  9
$PSLTSCALE
 70
     1
  9
$TREEDEPTH
 70
  3020
  9
$PICKSTYLE
 70
     1
  9
$CMLSTYLE
  2
STANDARD
  9
$CMLJUST
 70
     0
  9
$CMLSCALE
 40
1.0
  9
$SAVEIMAGES
 70
     1
  0
ENDSEC
  0
SECTION
  2
CLASSES
  0
CLASS
  1
ACDBDICTIONARYWDFLT
  2
AcDbDictionaryWithDefault
  3
AutoCAD 2000
 90
    32768
280
     0
281
     0
  0
CLASS
  1
ACDBPLACEHOLDER
  2
AcDbPlaceHolder
  3
AutoCAD 2000
 90
    32768
280
     0
281
     0
  0
CLASS
  1
LAYOUT
  2
AcDbLayout
  3
AutoCAD 2000
 90
    32768
280
     0
281
     0
  0
CLASS
  1
LONG_TRANSACTION
  2
AcDbLongTransaction
  3
AutoCAD 2000
 90
    32768
280
     0
281
     0
  0
CLASS
  1
LWPOLYLINE
  2
AcDbPolyline
  3
AutoCAD 2000
 90
    32768
280
     0
281
     1
  0
CLASS
  1
HATCH
  2
AcDbHatch
  3
AutoCAD 2000
 90
    32768
280
     0
281
     1
  0
CLASS
  1
XRECORD
  2
AcDbXrecord
  3
AutoCAD 2000
 90
    32768
280
     0
281
     0
  0
CLASS
  1
LONG_TRANSACTION
  2
AcDbLongTransaction
  3
AutoCAD 2000
 90
    32768
280
     0
281
     0
  0
CLASS
  1
LWPOLYLINE
  2
AcDbPolyline
  3
AutoCAD 2000
 90
    32768
280
     0
281
     1
  0
CLASS
  1
HATCH
  2
AcDbHatch
  3
AutoCAD 2000
 90
    32768
280
     0
281
     1
  0
CLASS
  1
XRECORD
  2
AcDbXrecord
  3
AutoCAD 2000
 90
    32768
280
     0
281
     0
  0
CLASS
  1
LONG_TRANSACTION
  2
AcDbLongTransaction
  3
AutoCAD 2000
 90
    32768
280
     0
281
     0
  0
CLASS
  1
LWPOLYLINE
  2
AcDbPolyline
  3
AutoCAD 2000
 90
    32768
280
     0
281
     1
  0
CLASS
  1
HATCH
  2
AcDbHatch
  3
AutoCAD 2000
 90
    32768
280
     0
281
     1
  0
CLASS
  1
XRECORD
  2
AcDbXrecord
  3
AutoCAD 2000
 90
    32768
280
     0
281
     0
  0
ENDSEC
  0
SECTION
  2
TABLES
  0
TABLE
  2
VPORT
  5
8
330
0
100
AcDbSymbolTable
 70
     3
  0
VPORT
  5
1451
330
8
100
AcDbSymbolTableRecord
100
AcDbViewportTableRecord
  2
*ACTIVE
 70
     0
 10
0.0
 20
0.0
 11
1.0
 21
1.0
 12
2.396026635072225
 22
5.871574424406949
 13
0.0
 23
0.0
 14
1.0
 24
1.0
 15
0.0
 25
0.0
 16
0.0
 26
0.0
 36
1.0
 17
0.0
 27
0.0
 37
0.0
 40
6.171465167974342
 41
1.601839684625492
 42
50.0
 43
0.0
 44
0.0
 50
0.0
 51
0.0
 71
     0
 72
   100
 73
     1
 74
     1
 75
     0
 76
     0
 77
     0
 78
     0
  0
ENDTAB
  0
TABLE
  2
LTYPE
  5
5
330
0
100
AcDbSymbolTable
 70
    25
  0
LTYPE
  5
13
330
5
100
AcDbSymbolTableRecord
100
AcDbLinetypeTableRecord
  2
BYBLOCK
 70
     0
  3

 72
    65
 73
     0
 40
0.0
  0
LTYPE
  5
14
330
5
100
AcDbSymbolTableRecord
100
AcDbLinetypeTableRecord
  2
BYLAYER
 70
     0
  3

 72
    65
 73
     0
 40
0.0
  0
LTYPE
  5
15
330
5
100
AcDbSymbolTableRecord
100
AcDbLinetypeTableRecord
  2
CONTINUOUS
 70
     0
  3
Solid line
 72
    65
 73
     0
 40
0.0
  0
LTYPE
  5
22
330
5
100
AcDbSymbolTableRecord
100
AcDbLinetypeTableRecord
  2
BORDER
 70
     0
  3
__ __ . __ __ . __ __ . __ __ . __ __ . __ __ .
 72
    65
 73
     6
 40
1.75
 49
0.5
 74
     0
 49
-0.25
 74
     0
 49
0.5
 74
     0
 49
-0.25
 74
     0
 49
0.5
 74
     0
 49
-0.25
 74
     0
  0
LTYPE
  5
23
330
5
100
AcDbSymbolTableRecord
100
AcDbLinetypeTableRecord
  2
BORDER2
 70
     0
  3
__.__.__.__.__.__.__.__.__.__.__.__.__.__.__.__
 72
    65
 73
     6
 40
0.875
 49
0.25
 74
     0
 49
-0.125
 74
     0
 49
0.25
 74
     0
 49
-0.125
 74
     0
 49
0.25
 74
     0
 49
-0.125
 74
     0
  0
LTYPE
  5
24
330
5
100
AcDbSymbolTableRecord
100
AcDbLinetypeTableRecord
  2
BORDERX2
 70
     0
  3
____  ____  .  ____  ____  .  
 72
    65
 73
     6
 40
3.5
 49
1.0
 74
     0
 49
-0.5
 74
     0
 49
1.0
 74
     0
 49
-0.5
 74
     0
 49
1.0
 74
     0
 49
-0.5
 74
     0
  0
LTYPE
  5
25
330
5
100
AcDbSymbolTableRecord
100
AcDbLinetypeTableRecord
  2
CENTER
 70
     0
  3
____ _ ____ _ ____ _ ____ _ ____ _ ____ _ ____
 72
    65
 73
     4
 40
2.0
 49
1.25
 74
     0
 49
-0.25
 74
     0
 49
0.25
 74
     0
 49
-0.25
 74
     0
  0
LTYPE
  5
26
330
5
100
AcDbSymbolTableRecord
100
AcDbLinetypeTableRecord
  2
CENTER2
 70
     0
  3
____ _ ____ _ ____ _ ____ _ ____ _ ____ _ ____
 72
    65
 73
     4
 40
1.125
 49
0.75
 74
     0
 49
-0.125
 74
     0
 49
0.125
 74
     0
 49
-0.125
 74
     0
  0
LTYPE
  5
27
330
5
100
AcDbSymbolTableRecord
100
AcDbLinetypeTableRecord
  2
CENTERX2
 70
     0
  3
________  __  ________  __  ________  __  
 72
    65
 73
     4
 40
4.0
 49
2.5
 74
     0
 49
-0.5
 74
     0
 49
0.5
 74
     0
 49
-0.5
 74
     0
  0
LTYPE
  5
28
330
5
100
AcDbSymbolTableRecord
100
AcDbLinetypeTableRecord
  2
DASHDOT
 70
     0
  3
__ . __ . __ . __ . __ . __ . __ . 
 72
    65
 73
     4
 40
1.0
 49
0.5
 74
     0
 49
-0.25
 74
     0
 49
0.0
 74
     0
 49
-0.25
 74
     0
  0
LTYPE
  5
29
330
5
100
AcDbSymbolTableRecord
100
AcDbLinetypeTableRecord
  2
DASHDOT2
 70
     0
  3
_._._._._._._._._._._._._._._._.
 72
    65
 73
     4
 40
0.5
 49
0.25
 74
     0
 49
-0.125
 74
     0
 49
0.0
 74
     0
 49
-0.125
 74
     0
  0
LTYPE
  5
2A
330
5
100
AcDbSymbolTableRecord
100
AcDbLinetypeTableRecord
  2
DASHDOTX2
 70
     0
  3
____  .  ____  .  ____  .  ____  .  
 72
    65
 73
     4
 40
2.0
 49
1.0
 74
     0
 49
-0.5
 74
     0
 49
0.0
 74
     0
 49
-0.5
 74
     0
  0
LTYPE
  5
2B
330
5
100
AcDbSymbolTableRecord
100
AcDbLinetypeTableRecord
  2
DASHED
 70
     0
  3
__ __ __ __ __ __ __ __ __ __ __ __ 
 72
    65
 73
     2
 40
0.75
 49
0.5
 74
     0
 49
-0.25
 74
     0
  0
LTYPE
  5
2C
330
5
100
AcDbSymbolTableRecord
100
AcDbLinetypeTableRecord
  2
DASHED2
 70
     0
  3
_ _ _ _ _ _ _ _ _ _ _ _ _ _ _ _ _ _ 
 72
    65
 73
     2
 40
0.375
 49
0.25
 74
     0
 49
-0.125
 74
     0
  0
LTYPE
  5
2D
330
5
100
AcDbSymbolTableRecord
100
AcDbLinetypeTableRecord
  2
DASHEDX2
 70
     0
  3
____  ____  ____  ____  ____  ____  
 72
    65
 73
     2
 40
1.5
 49
1.0
 74
     0
 49
-0.5
 74
     0
  0
LTYPE
  5
2E
330
5
100
AcDbSymbolTableRecord
100
AcDbLinetypeTableRecord
  2
DIVIDE
 70
     0
  3
____ . . ____ . . ____ . . ____ . . 
 72
    65
 73
     6
 40
1.25
 49
0.5
 74
     0
 49
-0.25
 74
     0
 49
0.0
 74
     0
 49
-0.25
 74
     0
 49
0.0
 74
     0
 49
-0.25
 74
     0
  0
LTYPE
  5
2F
330
5
100
AcDbSymbolTableRecord
100
AcDbLinetypeTableRecord
  2
DIVIDE2
 70
     0
  3
__..__..__..__..__..__..__..__..__..
 72
    65
 73
     6
 40
0.625
 49
0.25
 74
     0
 49
-0.125
 74
     0
 49
0.0
 74
     0
 49
-0.125
 74
     0
 49
0.0
 74
     0
 49
-0.125
 74
     0
  0
LTYPE
  5
30
330
5
100
AcDbSymbolTableRecord
100
AcDbLinetypeTableRecord
  2
DIVIDEX2
 70
     0
  3
________  .  .  ________  .  .  ________  .  . 
 72
    65
 73
     6
 40
2.5
 49
1.0
 74
     0
 49
-0.5
 74
     0
 49
0.0
 74
     0
 49
-0.5
 74
     0
 49
0.0
 74
     0
 49
-0.5
 74
     0
  0
LTYPE
  5
31
330
5
100
AcDbSymbolTableRecord
100
AcDbLinetypeTableRecord
  2
DOT
 70
     0
  3
. . . . . . . . . . . . . . . . . . 
 72
    65
 73
     2
 40
0.25
 49
0.0
 74
     0
 49
-0.25
 74
     0
  0
LTYPE
  5
32
330
5
100
AcDbSymbolTableRecord
100
AcDbLinetypeTableRecord
  2
DOT2
 70
     0
  3
....................................
 72
    65
 73
     2
 40
0.125
 49
0.0
 74
     0
 49
-0.125
 74
     0
  0
LTYPE
  5
33
330
5
100
AcDbSymbolTableRecord
100
AcDbLinetypeTableRecord
  2
DOTX2
 70
     0
  3
.  .  .  .  .  .  .  .  .  .  .  .  .  
 72
    65
 73
     2
 40
0.5
 49
0.0
 74
     0
 49
-0.5
 74
     0
  0
LTYPE
  5
34
330
5
100
AcDbSymbolTableRecord
100
AcDbLinetypeTableRecord
  2
HIDDEN
 70
     0
  3
__ __ __ __ __ __ __ __ __ __ __ __ 
 72
    65
 73
     2
 40
0.375
 49
0.25
 74
     0
 49
-0.125
 74
     0
  0
LTYPE
  5
35
330
5
100
AcDbSymbolTableRecord
100
AcDbLinetypeTableRecord
  2
HIDDEN2
 70
     0
  3
_ _ _ _ _ _ _ _ _ _ _ _ _ _ _ _ _ _ 
 72
    65
 73
     2
 40
0.1875
 49
0.125
 74
     0
 49
-0.0625
 74
     0
  0
LTYPE
  5
36
330
5
100
AcDbSymbolTableRecord
100
AcDbLinetypeTableRecord
  2
HIDDENX2
 70
     0
  3
____ ____ ____ ____ ____ ____ ____ 
 72
    65
 73
     2
 40
0.75
 49
0.5
 74
     0
 49
-0.25
 74
     0
  0
LTYPE
  5
37
330
5
100
AcDbSymbolTableRecord
100
AcDbLinetypeTableRecord
  2
PHANTOM
 70
     0
  3
______  __  __  ______  __  __  
 72
    65
 73
     6
 40
2.5
 49
1.25
 74
     0
 49
-0.25
 74
     0
 49
0.25
 74
     0
 49
-0.25
 74
     0
 49
0.25
 74
     0
 49
-0.25
 74
     0
  0
LTYPE
  5
38
330
5
100
AcDbSymbolTableRecord
100
AcDbLinetypeTableRecord
  2
PHANTOM2
 70
     0
  3
___ _ _ ___ _ _ ___ _ _ ___ _ _ 
 72
    65
 73
     6
 40
1.25
 49
0.625
 74
     0
 49
-0.125
 74
     0
 49
0.125
 74
     0
 49
-0.125
 74
     0
 49
0.125
 74
     0
 49
-0.125
 74
     0
  0
LTYPE
  5
39
330
5
100
AcDbSymbolTableRecord
100
AcDbLinetypeTableRecord
  2
PHANTOMX2
 70
     0
  3
___ _ _ ___ _ _ ___ _ _ ___ _ _ 
 72
    65
 73
     6
 40
5.0
 49
2.5
 74
     0
 49
-0.5
 74
     0
 49
0.5
 74
     0
 49
-0.5
 74
     0
 49
0.5
 74
     0
 49
-0.5
 74
     0
  0
ENDTAB
  0
TABLE
  2
LAYER
  5
2
330
0
100
AcDbSymbolTable
 70
   257
  0
LAYER
  5
10
330
2
100
AcDbSymbolTableRecord
100
AcDbLayerTableRecord
  2
0
 70
     0
 62
     7
  6
CONTINUOUS
  0
LAYER
  5
3A
330
2
100
AcDbSymbolTableRecord
100
AcDbLayerTableRecord
  2
1
 70
     0
 62
     1
  6
CONTINUOUS
  0
LAYER
  5
3B
330
2
100
AcDbSymbolTableRecord
100
AcDbLayerTableRecord
  2
2
 70
     0
 62
     2
  6
CONTINUOUS
  0
LAYER
  5
3C
330
2
100
AcDbSymbolTableRecord
100
AcDbLayerTableRecord
  2
3
 70
     0
 62
     3
  6
CONTINUOUS
  0
LAYER
  5
3D
330
2
100
AcDbSymbolTableRecord
100
AcDbLayerTableRecord
  2
4
 70
     0
 62
     4
  6
CONTINUOUS
  0
LAYER
  5
3E
330
2
100
AcDbSymbolTableRecord
100
AcDbLayerTableRecord
  2
5
 70
     0
 62
     5
  6
CONTINUOUS
  0
LAYER
  5
3F
330
2
100
AcDbSymbolTableRecord
100
AcDbLayerTableRecord
  2
6
 70
     0
 62
     6
  6
CONTINUOUS
  0
LAYER
  5
40
330
2
100
AcDbSymbolTableRecord
100
AcDbLayerTableRecord
  2
7
 70
     0
 62
     7
  6
CONTINUOUS
  0
LAYER
  5
41
330
2
100
AcDbSymbolTableRecord
100
AcDbLayerTableRecord
  2
8
 70
     0
 62
     8
  6
CONTINUOUS
  0
LAYER
  5
42
330
2
100
AcDbSymbolTableRecord
100
AcDbLayerTableRecord
  2
9
 70
     0
 62
     9
  6
CONTINUOUS
  0
LAYER
  5
43
330
2
100
AcDbSymbolTableRecord
100
AcDbLayerTableRecord
  2
10
 70
     0
 62
    10
  6
CONTINUOUS
  0
LAYER
  5
44
330
2
100
AcDbSymbolTableRecord
100
AcDbLayerTableRecord
  2
11
 70
     0
 62
    11
  6
CONTINUOUS
  0
LAYER
  5
45
330
2
100
AcDbSymbolTableRecord
100
AcDbLayerTableRecord
  2
12
 70
     0
 62
    12
  6
CONTINUOUS
  0
LAYER
  5
46
330
2
100
AcDbSymbolTableRecord
100
AcDbLayerTableRecord
  2
13
 70
     0
 62
    13
  6
CONTINUOUS
  0
LAYER
  5
47
330
2
100
AcDbSymbolTableRecord
100
AcDbLayerTableRecord
  2
14
 70
     0
 62
    14
  6
CONTINUOUS
  0
LAYER
  5
48
330
2
100
AcDbSymbolTableRecord
100
AcDbLayerTableRecord
  2
15
 70
     0
 62
    15
  6
CONTINUOUS
  0
LAYER
  5
49
330
2
100
AcDbSymbolTableRecord
100
AcDbLayerTableRecord
  2
16
 70
     0
 62
    16
  6
CONTINUOUS
  0
LAYER
  5
4A
330
2
100
AcDbSymbolTableRecord
100
AcDbLayerTableRecord
  2
17
 70
     0
 62
    17
  6
CONTINUOUS
  0
LAYER
  5
4B
330
2
100
AcDbSymbolTableRecord
100
AcDbLayerTableRecord
  2
18
 70
     0
 62
    18
  6
CONTINUOUS
  0
LAYER
  5
4C
330
2
100
AcDbSymbolTableRecord
100
AcDbLayerTableRecord
  2
19
 70
     0
 62
    19
  6
CONTINUOUS
  0
LAYER
  5
4D
330
2
100
AcDbSymbolTableRecord
100
AcDbLayerTableRecord
  2
20
 70
     0
 62
    20
  6
CONTINUOUS
  0
LAYER
  5
4E
330
2
100
AcDbSymbolTableRecord
100
AcDbLayerTableRecord
  2
21
 70
     0
 62
    21
  6
CONTINUOUS
  0
LAYER
  5
4F
330
2
100
AcDbSymbolTableRecord
100
AcDbLayerTableRecord
  2
22
 70
     0
 62
    22
  6
CONTINUOUS
  0
LAYER
  5
50
330
2
100
AcDbSymbolTableRecord
100
AcDbLayerTableRecord
  2
23
 70
     0
 62
    23
  6
CONTINUOUS
  0
LAYER
  5
51
330
2
100
AcDbSymbolTableRecord
100
AcDbLayerTableRecord
  2
24
 70
     0
 62
    24
  6
CONTINUOUS
  0
LAYER
  5
52
330
2
100
AcDbSymbolTableRecord
100
AcDbLayerTableRecord
  2
25
 70
     0
 62
    25
  6
CONTINUOUS
  0
LAYER
  5
53
330
2
100
AcDbSymbolTableRecord
100
AcDbLayerTableRecord
  2
26
 70
     0
 62
    26
  6
CONTINUOUS
  0
LAYER
  5
54
330
2
100
AcDbSymbolTableRecord
100
AcDbLayerTableRecord
  2
27
 70
     0
 62
    27
  6
CONTINUOUS
  0
LAYER
  5
55
330
2
100
AcDbSymbolTableRecord
100
AcDbLayerTableRecord
  2
28
 70
     0
 62
    28
  6
CONTINUOUS
  0
LAYER
  5
56
330
2
100
AcDbSymbolTableRecord
100
AcDbLayerTableRecord
  2
29
 70
     0
 62
    29
  6
CONTINUOUS
  0
LAYER
  5
57
330
2
100
AcDbSymbolTableRecord
100
AcDbLayerTableRecord
  2
30
 70
     0
 62
    30
  6
CONTINUOUS
  0
LAYER
  5
58
330
2
100
AcDbSymbolTableRecord
100
AcDbLayerTableRecord
  2
31
 70
     0
 62
    31
  6
CONTINUOUS
  0
LAYER
  5
59
330
2
100
AcDbSymbolTableRecord
100
AcDbLayerTableRecord
  2
32
 70
     0
 62
    32
  6
CONTINUOUS
  0
LAYER
  5
5A
330
2
100
AcDbSymbolTableRecord
100
AcDbLayerTableRecord
  2
33
 70
     0
 62
    33
  6
CONTINUOUS
  0
LAYER
  5
5B
330
2
100
AcDbSymbolTableRecord
100
AcDbLayerTableRecord
  2
34
 70
     0
 62
    34
  6
CONTINUOUS
  0
LAYER
  5
5C
330
2
100
AcDbSymbolTableRecord
100
AcDbLayerTableRecord
  2
35
 70
     0
 62
    35
  6
CONTINUOUS
  0
LAYER
  5
5D
330
2
100
AcDbSymbolTableRecord
100
AcDbLayerTableRecord
  2
36
 70
     0
 62
    36
  6
CONTINUOUS
  0
LAYER
  5
5E
330
2
100
AcDbSymbolTableRecord
100
AcDbLayerTableRecord
  2
37
 70
     0
 62
    37
  6
CONTINUOUS
  0
LAYER
  5
5F
330
2
100
AcDbSymbolTableRecord
100
AcDbLayerTableRecord
  2
38
 70
     0
 62
    38
  6
CONTINUOUS
  0
LAYER
  5
60
330
2
100
AcDbSymbolTableRecord
100
AcDbLayerTableRecord
  2
39
 70
     0
 62
    39
  6
CONTINUOUS
  0
LAYER
  5
61
330
2
100
AcDbSymbolTableRecord
100
AcDbLayerTableRecord
  2
40
 70
     0
 62
    40
  6
CONTINUOUS
  0
LAYER
  5
62
330
2
100
AcDbSymbolTableRecord
100
AcDbLayerTableRecord
  2
41
 70
     0
 62
    41
  6
CONTINUOUS
  0
LAYER
  5
63
330
2
100
AcDbSymbolTableRecord
100
AcDbLayerTableRecord
  2
42
 70
     0
 62
    42
  6
CONTINUOUS
  0
LAYER
  5
64
330
2
100
AcDbSymbolTableRecord
100
AcDbLayerTableRecord
  2
43
 70
     0
 62
    43
  6
CONTINUOUS
  0
LAYER
  5
65
330
2
100
AcDbSymbolTableRecord
100
AcDbLayerTableRecord
  2
44
 70
     0
 62
    44
  6
CONTINUOUS
  0
LAYER
  5
66
330
2
100
AcDbSymbolTableRecord
100
AcDbLayerTableRecord
  2
45
 70
     0
 62
    45
  6
CONTINUOUS
  0
LAYER
  5
67
330
2
100
AcDbSymbolTableRecord
100
AcDbLayerTableRecord
  2
46
 70
     0
 62
    46
  6
CONTINUOUS
  0
LAYER
  5
68
330
2
100
AcDbSymbolTableRecord
100
AcDbLayerTableRecord
  2
47
 70
     0
 62
    47
  6
CONTINUOUS
  0
LAYER
  5
69
330
2
100
AcDbSymbolTableRecord
100
AcDbLayerTableRecord
  2
48
 70
     0
 62
    48
  6
CONTINUOUS
  0
LAYER
  5
6A
330
2
100
AcDbSymbolTableRecord
100
AcDbLayerTableRecord
  2
49
 70
     0
 62
    49
  6
CONTINUOUS
  0
LAYER
  5
6B
330
2
100
AcDbSymbolTableRecord
100
AcDbLayerTableRecord
  2
50
 70
     0
 62
    50
  6
CONTINUOUS
  0
LAYER
  5
6C
330
2
100
AcDbSymbolTableRecord
100
AcDbLayerTableRecord
  2
51
 70
     0
 62
    51
  6
CONTINUOUS
  0
LAYER
  5
6D
330
2
100
AcDbSymbolTableRecord
100
AcDbLayerTableRecord
  2
52
 70
     0
 62
    52
  6
CONTINUOUS
  0
LAYER
  5
6E
330
2
100
AcDbSymbolTableRecord
100
AcDbLayerTableRecord
  2
53
 70
     0
 62
    53
  6
CONTINUOUS
  0
LAYER
  5
6F
330
2
100
AcDbSymbolTableRecord
100
AcDbLayerTableRecord
  2
54
 70
     0
 62
    54
  6
CONTINUOUS
  0
LAYER
  5
70
330
2
100
AcDbSymbolTableRecord
100
AcDbLayerTableRecord
  2
55
 70
     0
 62
    55
  6
CONTINUOUS
  0
LAYER
  5
71
330
2
100
AcDbSymbolTableRecord
100
AcDbLayerTableRecord
  2
56
 70
     0
 62
    56
  6
CONTINUOUS
  0
LAYER
  5
72
330
2
100
AcDbSymbolTableRecord
100
AcDbLayerTableRecord
  2
57
 70
     0
 62
    57
  6
CONTINUOUS
  0
LAYER
  5
73
330
2
100
AcDbSymbolTableRecord
100
AcDbLayerTableRecord
  2
58
 70
     0
 62
    58
  6
CONTINUOUS
  0
LAYER
  5
74
330
2
100
AcDbSymbolTableRecord
100
AcDbLayerTableRecord
  2
59
 70
     0
 62
    59
  6
CONTINUOUS
  0
LAYER
  5
75
330
2
100
AcDbSymbolTableRecord
100
AcDbLayerTableRecord
  2
60
 70
     0
 62
    60
  6
CONTINUOUS
  0
LAYER
  5
76
330
2
100
AcDbSymbolTableRecord
100
AcDbLayerTableRecord
  2
61
 70
     0
 62
    61
  6
CONTINUOUS
  0
LAYER
  5
77
330
2
100
AcDbSymbolTableRecord
100
AcDbLayerTableRecord
  2
62
 70
     0
 62
    62
  6
CONTINUOUS
  0
LAYER
  5
78
330
2
100
AcDbSymbolTableRecord
100
AcDbLayerTableRecord
  2
63
 70
     0
 62
    63
  6
CONTINUOUS
  0
LAYER
  5
79
330
2
100
AcDbSymbolTableRecord
100
AcDbLayerTableRecord
  2
64
 70
     0
 62
    64
  6
CONTINUOUS
  0
LAYER
  5
7A
330
2
100
AcDbSymbolTableRecord
100
AcDbLayerTableRecord
  2
65
 70
     0
 62
    65
  6
CONTINUOUS
  0
LAYER
  5
7B
330
2
100
AcDbSymbolTableRecord
100
AcDbLayerTableRecord
  2
66
 70
     0
 62
    66
  6
CONTINUOUS
  0
LAYER
  5
7C
330
2
100
AcDbSymbolTableRecord
100
AcDbLayerTableRecord
  2
67
 70
     0
 62
    67
  6
CONTINUOUS
  0
LAYER
  5
7D
330
2
100
AcDbSymbolTableRecord
100
AcDbLayerTableRecord
  2
68
 70
     0
 62
    68
  6
CONTINUOUS
  0
LAYER
  5
7E
330
2
100
AcDbSymbolTableRecord
100
AcDbLayerTableRecord
  2
69
 70
     0
 62
    69
  6
CONTINUOUS
  0
LAYER
  5
7F
330
2
100
AcDbSymbolTableRecord
100
AcDbLayerTableRecord
  2
70
 70
     0
 62
    70
  6
CONTINUOUS
  0
LAYER
  5
80
330
2
100
AcDbSymbolTableRecord
100
AcDbLayerTableRecord
  2
71
 70
     0
 62
    71
  6
CONTINUOUS
  0
LAYER
  5
81
330
2
100
AcDbSymbolTableRecord
100
AcDbLayerTableRecord
  2
72
 70
     0
 62
    72
  6
CONTINUOUS
  0
LAYER
  5
82
330
2
100
AcDbSymbolTableRecord
100
AcDbLayerTableRecord
  2
73
 70
     0
 62
    73
  6
CONTINUOUS
  0
LAYER
  5
83
330
2
100
AcDbSymbolTableRecord
100
AcDbLayerTableRecord
  2
74
 70
     0
 62
    74
  6
CONTINUOUS
  0
LAYER
  5
84
330
2
100
AcDbSymbolTableRecord
100
AcDbLayerTableRecord
  2
75
 70
     0
 62
    75
  6
CONTINUOUS
  0
LAYER
  5
85
330
2
100
AcDbSymbolTableRecord
100
AcDbLayerTableRecord
  2
76
 70
     0
 62
    76
  6
CONTINUOUS
  0
LAYER
  5
86
330
2
100
AcDbSymbolTableRecord
100
AcDbLayerTableRecord
  2
77
 70
     0
 62
    77
  6
CONTINUOUS
  0
LAYER
  5
87
330
2
100
AcDbSymbolTableRecord
100
AcDbLayerTableRecord
  2
78
 70
     0
 62
    78
  6
CONTINUOUS
  0
LAYER
  5
88
330
2
100
AcDbSymbolTableRecord
100
AcDbLayerTableRecord
  2
79
 70
     0
 62
    79
  6
CONTINUOUS
  0
LAYER
  5
89
330
2
100
AcDbSymbolTableRecord
100
AcDbLayerTableRecord
  2
80
 70
     0
 62
    80
  6
CONTINUOUS
  0
LAYER
  5
8A
330
2
100
AcDbSymbolTableRecord
100
AcDbLayerTableRecord
  2
81
 70
     0
 62
    81
  6
CONTINUOUS
  0
LAYER
  5
8B
330
2
100
AcDbSymbolTableRecord
100
AcDbLayerTableRecord
  2
82
 70
     0
 62
    82
  6
CONTINUOUS
  0
LAYER
  5
8C
330
2
100
AcDbSymbolTableRecord
100
AcDbLayerTableRecord
  2
83
 70
     0
 62
    83
  6
CONTINUOUS
  0
LAYER
  5
8D
330
2
100
AcDbSymbolTableRecord
100
AcDbLayerTableRecord
  2
84
 70
     0
 62
    84
  6
CONTINUOUS
  0
LAYER
  5
8E
330
2
100
AcDbSymbolTableRecord
100
AcDbLayerTableRecord
  2
85
 70
     0
 62
    85
  6
CONTINUOUS
  0
LAYER
  5
8F
330
2
100
AcDbSymbolTableRecord
100
AcDbLayerTableRecord
  2
86
 70
     0
 62
    86
  6
CONTINUOUS
  0
LAYER
  5
90
330
2
100
AcDbSymbolTableRecord
100
AcDbLayerTableRecord
  2
87
 70
     0
 62
    87
  6
CONTINUOUS
  0
LAYER
  5
91
330
2
100
AcDbSymbolTableRecord
100
AcDbLayerTableRecord
  2
88
 70
     0
 62
    88
  6
CONTINUOUS
  0
LAYER
  5
92
330
2
100
AcDbSymbolTableRecord
100
AcDbLayerTableRecord
  2
89
 70
     0
 62
    89
  6
CONTINUOUS
  0
LAYER
  5
93
330
2
100
AcDbSymbolTableRecord
100
AcDbLayerTableRecord
  2
90
 70
     0
 62
    90
  6
CONTINUOUS
  0
LAYER
  5
94
330
2
100
AcDbSymbolTableRecord
100
AcDbLayerTableRecord
  2
91
 70
     0
 62
    91
  6
CONTINUOUS
  0
LAYER
  5
95
330
2
100
AcDbSymbolTableRecord
100
AcDbLayerTableRecord
  2
92
 70
     0
 62
    92
  6
CONTINUOUS
  0
LAYER
  5
96
330
2
100
AcDbSymbolTableRecord
100
AcDbLayerTableRecord
  2
93
 70
     0
 62
    93
  6
CONTINUOUS
  0
LAYER
  5
97
330
2
100
AcDbSymbolTableRecord
100
AcDbLayerTableRecord
  2
94
 70
     0
 62
    94
  6
CONTINUOUS
  0
LAYER
  5
98
330
2
100
AcDbSymbolTableRecord
100
AcDbLayerTableRecord
  2
95
 70
     0
 62
    95
  6
CONTINUOUS
  0
LAYER
  5
99
330
2
100
AcDbSymbolTableRecord
100
AcDbLayerTableRecord
  2
96
 70
     0
 62
    96
  6
CONTINUOUS
  0
LAYER
  5
9A
330
2
100
AcDbSymbolTableRecord
100
AcDbLayerTableRecord
  2
97
 70
     0
 62
    97
  6
CONTINUOUS
  0
LAYER
  5
9B
330
2
100
AcDbSymbolTableRecord
100
AcDbLayerTableRecord
  2
98
 70
     0
 62
    98
  6
CONTINUOUS
  0
LAYER
  5
9C
330
2
100
AcDbSymbolTableRecord
100
AcDbLayerTableRecord
  2
99
 70
     0
 62
    99
  6
CONTINUOUS
  0
LAYER
  5
9D
330
2
100
AcDbSymbolTableRecord
100
AcDbLayerTableRecord
  2
100
 70
     0
 62
   100
  6
CONTINUOUS
  0
LAYER
  5
9E
330
2
100
AcDbSymbolTableRecord
100
AcDbLayerTableRecord
  2
101
 70
     0
 62
   101
  6
CONTINUOUS
  0
LAYER
  5
9F
330
2
100
AcDbSymbolTableRecord
100
AcDbLayerTableRecord
  2
102
 70
     0
 62
   102
  6
CONTINUOUS
  0
LAYER
  5
A0
330
2
100
AcDbSymbolTableRecord
100
AcDbLayerTableRecord
  2
103
 70
     0
 62
   103
  6
CONTINUOUS
  0
LAYER
  5
A1
330
2
100
AcDbSymbolTableRecord
100
AcDbLayerTableRecord
  2
104
 70
     0
 62
   104
  6
CONTINUOUS
  0
LAYER
  5
A2
330
2
100
AcDbSymbolTableRecord
100
AcDbLayerTableRecord
  2
105
 70
     0
 62
   105
  6
CONTINUOUS
  0
LAYER
  5
A3
330
2
100
AcDbSymbolTableRecord
100
AcDbLayerTableRecord
  2
106
 70
     0
 62
   106
  6
CONTINUOUS
  0
LAYER
  5
A4
330
2
100
AcDbSymbolTableRecord
100
AcDbLayerTableRecord
  2
107
 70
     0
 62
   107
  6
CONTINUOUS
  0
LAYER
  5
A5
330
2
100
AcDbSymbolTableRecord
100
AcDbLayerTableRecord
  2
108
 70
     0
 62
   108
  6
CONTINUOUS
  0
LAYER
  5
A6
330
2
100
AcDbSymbolTableRecord
100
AcDbLayerTableRecord
  2
109
 70
     0
 62
   109
  6
CONTINUOUS
  0
LAYER
  5
A7
330
2
100
AcDbSymbolTableRecord
100
AcDbLayerTableRecord
  2
110
 70
     0
 62
   110
  6
CONTINUOUS
  0
LAYER
  5
A8
330
2
100
AcDbSymbolTableRecord
100
AcDbLayerTableRecord
  2
111
 70
     0
 62
   111
  6
CONTINUOUS
  0
LAYER
  5
A9
330
2
100
AcDbSymbolTableRecord
100
AcDbLayerTableRecord
  2
112
 70
     0
 62
   112
  6
CONTINUOUS
  0
LAYER
  5
AA
330
2
100
AcDbSymbolTableRecord
100
AcDbLayerTableRecord
  2
113
 70
     0
 62
   113
  6
CONTINUOUS
  0
LAYER
  5
AB
330
2
100
AcDbSymbolTableRecord
100
AcDbLayerTableRecord
  2
114
 70
     0
 62
   114
  6
CONTINUOUS
  0
LAYER
  5
AC
330
2
100
AcDbSymbolTableRecord
100
AcDbLayerTableRecord
  2
115
 70
     0
 62
   115
  6
CONTINUOUS
  0
LAYER
  5
AD
330
2
100
AcDbSymbolTableRecord
100
AcDbLayerTableRecord
  2
116
 70
     0
 62
   116
  6
CONTINUOUS
  0
LAYER
  5
AE
330
2
100
AcDbSymbolTableRecord
100
AcDbLayerTableRecord
  2
117
 70
     0
 62
   117
  6
CONTINUOUS
  0
LAYER
  5
AF
330
2
100
AcDbSymbolTableRecord
100
AcDbLayerTableRecord
  2
118
 70
     0
 62
   118
  6
CONTINUOUS
  0
LAYER
  5
B0
330
2
100
AcDbSymbolTableRecord
100
AcDbLayerTableRecord
  2
119
 70
     0
 62
   119
  6
CONTINUOUS
  0
LAYER
  5
B1
330
2
100
AcDbSymbolTableRecord
100
AcDbLayerTableRecord
  2
120
 70
     0
 62
   120
  6
CONTINUOUS
  0
LAYER
  5
B2
330
2
100
AcDbSymbolTableRecord
100
AcDbLayerTableRecord
  2
121
 70
     0
 62
   121
  6
CONTINUOUS
  0
LAYER
  5
B3
330
2
100
AcDbSymbolTableRecord
100
AcDbLayerTableRecord
  2
122
 70
     0
 62
   122
  6
CONTINUOUS
  0
LAYER
  5
B4
330
2
100
AcDbSymbolTableRecord
100
AcDbLayerTableRecord
  2
123
 70
     0
 62
   123
  6
CONTINUOUS
  0
LAYER
  5
B5
330
2
100
AcDbSymbolTableRecord
100
AcDbLayerTableRecord
  2
124
 70
     0
 62
   124
  6
CONTINUOUS
  0
LAYER
  5
B6
330
2
100
AcDbSymbolTableRecord
100
AcDbLayerTableRecord
  2
125
 70
     0
 62
   125
  6
CONTINUOUS
  0
LAYER
  5
B7
330
2
100
AcDbSymbolTableRecord
100
AcDbLayerTableRecord
  2
126
 70
     0
 62
   126
  6
CONTINUOUS
  0
LAYER
  5
B8
330
2
100
AcDbSymbolTableRecord
100
AcDbLayerTableRecord
  2
127
 70
     0
 62
   127
  6
CONTINUOUS
  0
LAYER
  5
B9
330
2
100
AcDbSymbolTableRecord
100
AcDbLayerTableRecord
  2
128
 70
     0
 62
   128
  6
CONTINUOUS
  0
LAYER
  5
BA
330
2
100
AcDbSymbolTableRecord
100
AcDbLayerTableRecord
  2
129
 70
     0
 62
   129
  6
CONTINUOUS
  0
LAYER
  5
BB
330
2
100
AcDbSymbolTableRecord
100
AcDbLayerTableRecord
  2
130
 70
     0
 62
   130
  6
CONTINUOUS
  0
LAYER
  5
BC
330
2
100
AcDbSymbolTableRecord
100
AcDbLayerTableRecord
  2
131
 70
     0
 62
   131
  6
CONTINUOUS
  0
LAYER
  5
BD
330
2
100
AcDbSymbolTableRecord
100
AcDbLayerTableRecord
  2
132
 70
     0
 62
   132
  6
CONTINUOUS
  0
LAYER
  5
BE
330
2
100
AcDbSymbolTableRecord
100
AcDbLayerTableRecord
  2
133
 70
     0
 62
   133
  6
CONTINUOUS
  0
LAYER
  5
BF
330
2
100
AcDbSymbolTableRecord
100
AcDbLayerTableRecord
  2
134
 70
     0
 62
   134
  6
CONTINUOUS
  0
LAYER
  5
C0
330
2
100
AcDbSymbolTableRecord
100
AcDbLayerTableRecord
  2
135
 70
     0
 62
   135
  6
CONTINUOUS
  0
LAYER
  5
C1
330
2
100
AcDbSymbolTableRecord
100
AcDbLayerTableRecord
  2
136
 70
     0
 62
   136
  6
CONTINUOUS
  0
LAYER
  5
C2
330
2
100
AcDbSymbolTableRecord
100
AcDbLayerTableRecord
  2
137
 70
     0
 62
   137
  6
CONTINUOUS
  0
LAYER
  5
C3
330
2
100
AcDbSymbolTableRecord
100
AcDbLayerTableRecord
  2
138
 70
     0
 62
   138
  6
CONTINUOUS
  0
LAYER
  5
C4
330
2
100
AcDbSymbolTableRecord
100
AcDbLayerTableRecord
  2
139
 70
     0
 62
   139
  6
CONTINUOUS
  0
LAYER
  5
C5
330
2
100
AcDbSymbolTableRecord
100
AcDbLayerTableRecord
  2
140
 70
     0
 62
   140
  6
CONTINUOUS
  0
LAYER
  5
C6
330
2
100
AcDbSymbolTableRecord
100
AcDbLayerTableRecord
  2
141
 70
     0
 62
   141
  6
CONTINUOUS
  0
LAYER
  5
C7
330
2
100
AcDbSymbolTableRecord
100
AcDbLayerTableRecord
  2
142
 70
     0
 62
   142
  6
CONTINUOUS
  0
LAYER
  5
C8
330
2
100
AcDbSymbolTableRecord
100
AcDbLayerTableRecord
  2
143
 70
     0
 62
   143
  6
CONTINUOUS
  0
LAYER
  5
C9
330
2
100
AcDbSymbolTableRecord
100
AcDbLayerTableRecord
  2
144
 70
     0
 62
   144
  6
CONTINUOUS
  0
LAYER
  5
CA
330
2
100
AcDbSymbolTableRecord
100
AcDbLayerTableRecord
  2
145
 70
     0
 62
   145
  6
CONTINUOUS
  0
LAYER
  5
CB
330
2
100
AcDbSymbolTableRecord
100
AcDbLayerTableRecord
  2
146
 70
     0
 62
   146
  6
CONTINUOUS
  0
LAYER
  5
CC
330
2
100
AcDbSymbolTableRecord
100
AcDbLayerTableRecord
  2
147
 70
     0
 62
   147
  6
CONTINUOUS
  0
LAYER
  5
CD
330
2
100
AcDbSymbolTableRecord
100
AcDbLayerTableRecord
  2
148
 70
     0
 62
   148
  6
CONTINUOUS
  0
LAYER
  5
CE
330
2
100
AcDbSymbolTableRecord
100
AcDbLayerTableRecord
  2
149
 70
     0
 62
   149
  6
CONTINUOUS
  0
LAYER
  5
CF
330
2
100
AcDbSymbolTableRecord
100
AcDbLayerTableRecord
  2
150
 70
     0
 62
   150
  6
CONTINUOUS
  0
LAYER
  5
D0
330
2
100
AcDbSymbolTableRecord
100
AcDbLayerTableRecord
  2
151
 70
     0
 62
   151
  6
CONTINUOUS
  0
LAYER
  5
D1
330
2
100
AcDbSymbolTableRecord
100
AcDbLayerTableRecord
  2
152
 70
     0
 62
   152
  6
CONTINUOUS
  0
LAYER
  5
D2
330
2
100
AcDbSymbolTableRecord
100
AcDbLayerTableRecord
  2
153
 70
     0
 62
   153
  6
CONTINUOUS
  0
LAYER
  5
D3
330
2
100
AcDbSymbolTableRecord
100
AcDbLayerTableRecord
  2
154
 70
     0
 62
   154
  6
CONTINUOUS
  0
LAYER
  5
D4
330
2
100
AcDbSymbolTableRecord
100
AcDbLayerTableRecord
  2
155
 70
     0
 62
   155
  6
CONTINUOUS
  0
LAYER
  5
D5
330
2
100
AcDbSymbolTableRecord
100
AcDbLayerTableRecord
  2
156
 70
     0
 62
   156
  6
CONTINUOUS
  0
LAYER
  5
D6
330
2
100
AcDbSymbolTableRecord
100
AcDbLayerTableRecord
  2
157
 70
     0
 62
   157
  6
CONTINUOUS
  0
LAYER
  5
D7
330
2
100
AcDbSymbolTableRecord
100
AcDbLayerTableRecord
  2
158
 70
     0
 62
   158
  6
CONTINUOUS
  0
LAYER
  5
D8
330
2
100
AcDbSymbolTableRecord
100
AcDbLayerTableRecord
  2
159
 70
     0
 62
   159
  6
CONTINUOUS
  0
LAYER
  5
D9
330
2
100
AcDbSymbolTableRecord
100
AcDbLayerTableRecord
  2
160
 70
     0
 62
   160
  6
CONTINUOUS
  0
LAYER
  5
DA
330
2
100
AcDbSymbolTableRecord
100
AcDbLayerTableRecord
  2
161
 70
     0
 62
   161
  6
CONTINUOUS
  0
LAYER
  5
DB
330
2
100
AcDbSymbolTableRecord
100
AcDbLayerTableRecord
  2
162
 70
     0
 62
   162
  6
CONTINUOUS
  0
LAYER
  5
DC
330
2
100
AcDbSymbolTableRecord
100
AcDbLayerTableRecord
  2
163
 70
     0
 62
   163
  6
CONTINUOUS
  0
LAYER
  5
DD
330
2
100
AcDbSymbolTableRecord
100
AcDbLayerTableRecord
  2
164
 70
     0
 62
   164
  6
CONTINUOUS
  0
LAYER
  5
DE
330
2
100
AcDbSymbolTableRecord
100
AcDbLayerTableRecord
  2
165
 70
     0
 62
   165
  6
CONTINUOUS
  0
LAYER
  5
DF
330
2
100
AcDbSymbolTableRecord
100
AcDbLayerTableRecord
  2
166
 70
     0
 62
   166
  6
CONTINUOUS
  0
LAYER
  5
E0
330
2
100
AcDbSymbolTableRecord
100
AcDbLayerTableRecord
  2
167
 70
     0
 62
   167
  6
CONTINUOUS
  0
LAYER
  5
E1
330
2
100
AcDbSymbolTableRecord
100
AcDbLayerTableRecord
  2
168
 70
     0
 62
   168
  6
CONTINUOUS
  0
LAYER
  5
E2
330
2
100
AcDbSymbolTableRecord
100
AcDbLayerTableRecord
  2
169
 70
     0
 62
   169
  6
CONTINUOUS
  0
LAYER
  5
E3
330
2
100
AcDbSymbolTableRecord
100
AcDbLayerTableRecord
  2
170
 70
     0
 62
   170
  6
CONTINUOUS
  0
LAYER
  5
E4
330
2
100
AcDbSymbolTableRecord
100
AcDbLayerTableRecord
  2
171
 70
     0
 62
   171
  6
CONTINUOUS
  0
LAYER
  5
E5
330
2
100
AcDbSymbolTableRecord
100
AcDbLayerTableRecord
  2
172
 70
     0
 62
   172
  6
CONTINUOUS
  0
LAYER
  5
E6
330
2
100
AcDbSymbolTableRecord
100
AcDbLayerTableRecord
  2
173
 70
     0
 62
   173
  6
CONTINUOUS
  0
LAYER
  5
E7
330
2
100
AcDbSymbolTableRecord
100
AcDbLayerTableRecord
  2
174
 70
     0
 62
   174
  6
CONTINUOUS
  0
LAYER
  5
E8
330
2
100
AcDbSymbolTableRecord
100
AcDbLayerTableRecord
  2
175
 70
     0
 62
   175
  6
CONTINUOUS
  0
LAYER
  5
E9
330
2
100
AcDbSymbolTableRecord
100
AcDbLayerTableRecord
  2
176
 70
     0
 62
   176
  6
CONTINUOUS
  0
LAYER
  5
EA
330
2
100
AcDbSymbolTableRecord
100
AcDbLayerTableRecord
  2
177
 70
     0
 62
   177
  6
CONTINUOUS
  0
LAYER
  5
EB
330
2
100
AcDbSymbolTableRecord
100
AcDbLayerTableRecord
  2
178
 70
     0
 62
   178
  6
CONTINUOUS
  0
LAYER
  5
EC
330
2
100
AcDbSymbolTableRecord
100
AcDbLayerTableRecord
  2
179
 70
     0
 62
   179
  6
CONTINUOUS
  0
LAYER
  5
ED
330
2
100
AcDbSymbolTableRecord
100
AcDbLayerTableRecord
  2
180
 70
     0
 62
   180
  6
CONTINUOUS
  0
LAYER
  5
EE
330
2
100
AcDbSymbolTableRecord
100
AcDbLayerTableRecord
  2
181
 70
     0
 62
   181
  6
CONTINUOUS
  0
LAYER
  5
EF
330
2
100
AcDbSymbolTableRecord
100
AcDbLayerTableRecord
  2
182
 70
     0
 62
   182
  6
CONTINUOUS
  0
LAYER
  5
F0
330
2
100
AcDbSymbolTableRecord
100
AcDbLayerTableRecord
  2
183
 70
     0
 62
   183
  6
CONTINUOUS
  0
LAYER
  5
F1
330
2
100
AcDbSymbolTableRecord
100
AcDbLayerTableRecord
  2
184
 70
     0
 62
   184
  6
CONTINUOUS
  0
LAYER
  5
F2
330
2
100
AcDbSymbolTableRecord
100
AcDbLayerTableRecord
  2
185
 70
     0
 62
   185
  6
CONTINUOUS
  0
LAYER
  5
F3
330
2
100
AcDbSymbolTableRecord
100
AcDbLayerTableRecord
  2
186
 70
     0
 62
   186
  6
CONTINUOUS
  0
LAYER
  5
F4
330
2
100
AcDbSymbolTableRecord
100
AcDbLayerTableRecord
  2
187
 70
     0
 62
   187
  6
CONTINUOUS
  0
LAYER
  5
F5
330
2
100
AcDbSymbolTableRecord
100
AcDbLayerTableRecord
  2
188
 70
     0
 62
   188
  6
CONTINUOUS
  0
LAYER
  5
F6
330
2
100
AcDbSymbolTableRecord
100
AcDbLayerTableRecord
  2
189
 70
     0
 62
   189
  6
CONTINUOUS
  0
LAYER
  5
F7
330
2
100
AcDbSymbolTableRecord
100
AcDbLayerTableRecord
  2
190
 70
     0
 62
   190
  6
CONTINUOUS
  0
LAYER
  5
F8
330
2
100
AcDbSymbolTableRecord
100
AcDbLayerTableRecord
  2
191
 70
     0
 62
   191
  6
CONTINUOUS
  0
LAYER
  5
F9
330
2
100
AcDbSymbolTableRecord
100
AcDbLayerTableRecord
  2
192
 70
     0
 62
   192
  6
CONTINUOUS
  0
LAYER
  5
FA
330
2
100
AcDbSymbolTableRecord
100
AcDbLayerTableRecord
  2
193
 70
     0
 62
   193
  6
CONTINUOUS
  0
LAYER
  5
FB
330
2
100
AcDbSymbolTableRecord
100
AcDbLayerTableRecord
  2
194
 70
     0
 62
   194
  6
CONTINUOUS
  0
LAYER
  5
FC
330
2
100
AcDbSymbolTableRecord
100
AcDbLayerTableRecord
  2
195
 70
     0
 62
   195
  6
CONTINUOUS
  0
LAYER
  5
FD
330
2
100
AcDbSymbolTableRecord
100
AcDbLayerTableRecord
  2
196
 70
     0
 62
   196
  6
CONTINUOUS
  0
LAYER
  5
FE
330
2
100
AcDbSymbolTableRecord
100
AcDbLayerTableRecord
  2
197
 70
     0
 62
   197
  6
CONTINUOUS
  0
LAYER
  5
FF
330
2
100
AcDbSymbolTableRecord
100
AcDbLayerTableRecord
  2
198
 70
     0
 62
   198
  6
CONTINUOUS
  0
LAYER
  5
100
330
2
100
AcDbSymbolTableRecord
100
AcDbLayerTableRecord
  2
199
 70
     0
 62
   199
  6
CONTINUOUS
  0
LAYER
  5
101
330
2
100
AcDbSymbolTableRecord
100
AcDbLayerTableRecord
  2
200
 70
     0
 62
   200
  6
CONTINUOUS
  0
LAYER
  5
102
330
2
100
AcDbSymbolTableRecord
100
AcDbLayerTableRecord
  2
201
 70
     0
 62
   201
  6
CONTINUOUS
  0
LAYER
  5
103
330
2
100
AcDbSymbolTableRecord
100
AcDbLayerTableRecord
  2
202
 70
     0
 62
   202
  6
CONTINUOUS
  0
LAYER
  5
104
330
2
100
AcDbSymbolTableRecord
100
AcDbLayerTableRecord
  2
203
 70
     0
 62
   203
  6
CONTINUOUS
  0
LAYER
  5
105
330
2
100
AcDbSymbolTableRecord
100
AcDbLayerTableRecord
  2
204
 70
     0
 62
   204
  6
CONTINUOUS
  0
LAYER
  5
106
330
2
100
AcDbSymbolTableRecord
100
AcDbLayerTableRecord
  2
205
 70
     0
 62
   205
  6
CONTINUOUS
  0
LAYER
  5
107
330
2
100
AcDbSymbolTableRecord
100
AcDbLayerTableRecord
  2
206
 70
     0
 62
   206
  6
CONTINUOUS
  0
LAYER
  5
108
330
2
100
AcDbSymbolTableRecord
100
AcDbLayerTableRecord
  2
207
 70
     0
 62
   207
  6
CONTINUOUS
  0
LAYER
  5
109
330
2
100
AcDbSymbolTableRecord
100
AcDbLayerTableRecord
  2
208
 70
     0
 62
   208
  6
CONTINUOUS
  0
LAYER
  5
10A
330
2
100
AcDbSymbolTableRecord
100
AcDbLayerTableRecord
  2
209
 70
     0
 62
   209
  6
CONTINUOUS
  0
LAYER
  5
10B
330
2
100
AcDbSymbolTableRecord
100
AcDbLayerTableRecord
  2
210
 70
     0
 62
   210
  6
CONTINUOUS
  0
LAYER
  5
10C
330
2
100
AcDbSymbolTableRecord
100
AcDbLayerTableRecord
  2
211
 70
     0
 62
   211
  6
CONTINUOUS
  0
LAYER
  5
10D
330
2
100
AcDbSymbolTableRecord
100
AcDbLayerTableRecord
  2
212
 70
     0
 62
   212
  6
CONTINUOUS
  0
LAYER
  5
10E
330
2
100
AcDbSymbolTableRecord
100
AcDbLayerTableRecord
  2
213
 70
     0
 62
   213
  6
CONTINUOUS
  0
LAYER
  5
10F
330
2
100
AcDbSymbolTableRecord
100
AcDbLayerTableRecord
  2
214
 70
     0
 62
   214
  6
CONTINUOUS
  0
LAYER
  5
110
330
2
100
AcDbSymbolTableRecord
100
AcDbLayerTableRecord
  2
215
 70
     0
 62
   215
  6
CONTINUOUS
  0
LAYER
  5
111
330
2
100
AcDbSymbolTableRecord
100
AcDbLayerTableRecord
  2
216
 70
     0
 62
   216
  6
CONTINUOUS
  0
LAYER
  5
112
330
2
100
AcDbSymbolTableRecord
100
AcDbLayerTableRecord
  2
217
 70
     0
 62
   217
  6
CONTINUOUS
  0
LAYER
  5
113
330
2
100
AcDbSymbolTableRecord
100
AcDbLayerTableRecord
  2
218
 70
     0
 62
   218
  6
CONTINUOUS
  0
LAYER
  5
114
330
2
100
AcDbSymbolTableRecord
100
AcDbLayerTableRecord
  2
219
 70
     0
 62
   219
  6
CONTINUOUS
  0
LAYER
  5
115
330
2
100
AcDbSymbolTableRecord
100
AcDbLayerTableRecord
  2
220
 70
     0
 62
   220
  6
CONTINUOUS
  0
LAYER
  5
116
330
2
100
AcDbSymbolTableRecord
100
AcDbLayerTableRecord
  2
221
 70
     0
 62
   221
  6
CONTINUOUS
  0
LAYER
  5
117
330
2
100
AcDbSymbolTableRecord
100
AcDbLayerTableRecord
  2
222
 70
     0
 62
   222
  6
CONTINUOUS
  0
LAYER
  5
118
330
2
100
AcDbSymbolTableRecord
100
AcDbLayerTableRecord
  2
223
 70
     0
 62
   223
  6
CONTINUOUS
  0
LAYER
  5
119
330
2
100
AcDbSymbolTableRecord
100
AcDbLayerTableRecord
  2
224
 70
     0
 62
   224
  6
CONTINUOUS
  0
LAYER
  5
11A
330
2
100
AcDbSymbolTableRecord
100
AcDbLayerTableRecord
  2
225
 70
     0
 62
   225
  6
CONTINUOUS
  0
LAYER
  5
11B
330
2
100
AcDbSymbolTableRecord
100
AcDbLayerTableRecord
  2
226
 70
     0
 62
   226
  6
CONTINUOUS
  0
LAYER
  5
11C
330
2
100
AcDbSymbolTableRecord
100
AcDbLayerTableRecord
  2
227
 70
     0
 62
   227
  6
CONTINUOUS
  0
LAYER
  5
11D
330
2
100
AcDbSymbolTableRecord
100
AcDbLayerTableRecord
  2
228
 70
     0
 62
   228
  6
CONTINUOUS
  0
LAYER
  5
11E
330
2
100
AcDbSymbolTableRecord
100
AcDbLayerTableRecord
  2
229
 70
     0
 62
   229
  6
CONTINUOUS
  0
LAYER
  5
11F
330
2
100
AcDbSymbolTableRecord
100
AcDbLayerTableRecord
  2
230
 70
     0
 62
   230
  6
CONTINUOUS
  0
LAYER
  5
120
330
2
100
AcDbSymbolTableRecord
100
AcDbLayerTableRecord
  2
231
 70
     0
 62
   231
  6
CONTINUOUS
  0
LAYER
  5
121
330
2
100
AcDbSymbolTableRecord
100
AcDbLayerTableRecord
  2
232
 70
     0
 62
   232
  6
CONTINUOUS
  0
LAYER
  5
122
330
2
100
AcDbSymbolTableRecord
100
AcDbLayerTableRecord
  2
233
 70
     0
 62
   233
  6
CONTINUOUS
  0
LAYER
  5
123
330
2
100
AcDbSymbolTableRecord
100
AcDbLayerTableRecord
  2
234
 70
     0
 62
   234
  6
CONTINUOUS
  0
LAYER
  5
124
330
2
100
AcDbSymbolTableRecord
100
AcDbLayerTableRecord
  2
235
 70
     0
 62
   235
  6
CONTINUOUS
  0
LAYER
  5
125
330
2
100
AcDbSymbolTableRecord
100
AcDbLayerTableRecord
  2
236
 70
     0
 62
   236
  6
CONTINUOUS
  0
LAYER
  5
126
330
2
100
AcDbSymbolTableRecord
100
AcDbLayerTableRecord
  2
237
 70
     0
 62
   237
  6
CONTINUOUS
  0
LAYER
  5
127
330
2
100
AcDbSymbolTableRecord
100
AcDbLayerTableRecord
  2
238
 70
     0
 62
   238
  6
CONTINUOUS
  0
LAYER
  5
128
330
2
100
AcDbSymbolTableRecord
100
AcDbLayerTableRecord
  2
239
 70
     0
 62
   239
  6
CONTINUOUS
  0
LAYER
  5
129
330
2
100
AcDbSymbolTableRecord
100
AcDbLayerTableRecord
  2
240
 70
     0
 62
   240
  6
CONTINUOUS
  0
LAYER
  5
12A
330
2
100
AcDbSymbolTableRecord
100
AcDbLayerTableRecord
  2
241
 70
     0
 62
   241
  6
CONTINUOUS
  0
LAYER
  5
12B
330
2
100
AcDbSymbolTableRecord
100
AcDbLayerTableRecord
  2
242
 70
     0
 62
   242
  6
CONTINUOUS
  0
LAYER
  5
12C
330
2
100
AcDbSymbolTableRecord
100
AcDbLayerTableRecord
  2
243
 70
     0
 62
   243
  6
CONTINUOUS
  0
LAYER
  5
12D
330
2
100
AcDbSymbolTableRecord
100
AcDbLayerTableRecord
  2
244
 70
     0
 62
   244
  6
CONTINUOUS
  0
LAYER
  5
12E
330
2
100
AcDbSymbolTableRecord
100
AcDbLayerTableRecord
  2
245
 70
     0
 62
   245
  6
CONTINUOUS
  0
LAYER
  5
12F
330
2
100
AcDbSymbolTableRecord
100
AcDbLayerTableRecord
  2
246
 70
     0
 62
   246
  6
CONTINUOUS
  0
LAYER
  5
130
330
2
100
AcDbSymbolTableRecord
100
AcDbLayerTableRecord
  2
247
 70
     0
 62
   247
  6
CONTINUOUS
  0
LAYER
  5
131
330
2
100
AcDbSymbolTableRecord
100
AcDbLayerTableRecord
  2
248
 70
     0
 62
   248
  6
CONTINUOUS
  0
LAYER
  5
132
330
2
100
AcDbSymbolTableRecord
100
AcDbLayerTableRecord
  2
249
 70
     0
 62
   249
  6
CONTINUOUS
  0
LAYER
  5
133
330
2
100
AcDbSymbolTableRecord
100
AcDbLayerTableRecord
  2
250
 70
     0
 62
   250
  6
CONTINUOUS
  0
LAYER
  5
134
330
2
100
AcDbSymbolTableRecord
100
AcDbLayerTableRecord
  2
251
 70
     0
 62
   251
  6
CONTINUOUS
  0
LAYER
  5
135
330
2
100
AcDbSymbolTableRecord
100
AcDbLayerTableRecord
  2
252
 70
     0
 62
   252
  6
CONTINUOUS
  0
LAYER
  5
136
330
2
100
AcDbSymbolTableRecord
100
AcDbLayerTableRecord
  2
253
 70
     0
 62
   253
  6
CONTINUOUS
  0
LAYER
  5
137
330
2
100
AcDbSymbolTableRecord
100
AcDbLayerTableRecord
  2
254
 70
     0
 62
   254
  6
CONTINUOUS
  0
LAYER
  5
138
330
2
100
AcDbSymbolTableRecord
100
AcDbLayerTableRecord
  2
255
 70
     0
 62
   255
  6
CONTINUOUS
  0
LAYER
  5
1405
330
2
100
AcDbSymbolTableRecord
100
AcDbLayerTableRecord
  2
DEFPOINTS
 70
     0
 62
     7
  6
CONTINUOUS
  0
ENDTAB
  0
TABLE
  2
STYLE
  5
3
330
0
100
AcDbSymbolTable
 70
     1
  0
STYLE
  5
11
330
3
100
AcDbSymbolTableRecord
100
AcDbTextStyleTableRecord
  2
STANDARD
 70
     0
 40
0.0
 41
1.0
 50
0.0
 71
     0
 42
0.2
  3
monotxt
  4

  0
ENDTAB
  0
TABLE
  2
VIEW
  5
6
330
0
100
AcDbSymbolTable
 70
     0
  0
ENDTAB
  0
TABLE
  2
UCS
  5
7
330
0
100
AcDbSymbolTable
 70
     0
  0
ENDTAB
  0
TABLE
  2
APPID
  5
9
330
0
100
AcDbSymbolTable
 70
     1
  0
APPID
  5
12
330
9
100
AcDbSymbolTableRecord
100
AcDbRegAppTableRecord
  2
ACAD
 70
     0
  0
ENDTAB
  0
TABLE
  2
DIMSTYLE
  5
A
330
0
100
AcDbSymbolTable
 70
     1
  0
DIMSTYLE
105
D83
102
{ACAD_REACTORS
330
1404
102
}
330
A
100
AcDbSymbolTableRecord
100
AcDbDimStyleTableRecord
  2
STANDARD
 70
     0
  3

  4

  5

  6

  7

 40
1.0
 41
0.18
 42
0.0625
 43
0.38
 44
0.18
 45
0.0
 46
0.0
 47
0.0
 48
0.0
140
0.18
141
0.09
142
0.0
143
25.4
144
1.0
145
0.0
146
1.0
147
0.09
 71
     0
 72
     0
 73
     1
 74
     1
 75
     0
 76
     0
 77
     0
 78
     0
170
     0
171
     2
172
     0
173
     0
174
     0
175
     0
176
     0
177
     0
178
     0
270
     2
271
     4
272
     4
273
     2
274
     2
340
11
275
     0
280
     0
281
     0
282
     0
283
     1
284
     0
285
     0
286
     0
287
     3
288
     0
  0
ENDTAB
  0
TABLE
  2
BLOCK_RECORD
  5
1
330
0
100
AcDbSymbolTable
 70
     1
  0
BLOCK_RECORD
  5
1E
102
{ACAD_XDICTIONARY
360
D87
102
}
330
1
100
AcDbSymbolTableRecord
100
AcDbBlockTableRecord
  2
*MODEL_SPACE
  0
BLOCK_RECORD
  5
1A
102
{ACAD_XDICTIONARY
360
D89
102
}
330
1
100
AcDbSymbolTableRecord
100
AcDbBlockTableRecord
  2
*PAPER_SPACE
  0
BLOCK_RECORD
  5
1406
330
1
100
AcDbSymbolTableRecord
100
AcDbBlockTableRecord
  2
*D0
  0
ENDTAB
  0
ENDSEC
  0
SECTION
  2
BLOCKS
  0
BLOCK
  5
13B
330
1E
100
AcDbEntity
  8
0
100
AcDbBlockBegin
  2
*MODEL_SPACE
 70
     0
 10
0.0
 20
0.0
 30
0.0
  3
*MODEL_SPACE
  1

  0
ENDBLK
  5
13C
330
1E
100
AcDbEntity
  8
0
100
AcDbBlockEnd
  0
BLOCK
  5
139
330
1A
100
AcDbEntity
 67
     1
  8
0
100
AcDbBlockBegin
  2
*PAPER_SPACE
 70
     0
 10
0.0
 20
0.0
 30
0.0
  3
*PAPER_SPACE
  1

  0
ENDBLK
  5
13A
330
1A
100
AcDbEntity
 67
     1
  8
0
100
AcDbBlockEnd
  0
BLOCK
  5
1411
330
1406
100
AcDbEntity
  8
0
100
AcDbBlockBegin
  2
*D0
 70
     1
 10
0.0
 20
0.0
 30
0.0
  3
*D0
  1

  0
LINE
  5
1413
330
1406
100
AcDbEntity
  8
0
 62
     0
100
AcDbLine
 10
-2.522548268252814
 20
8.232361631859138
 30
0.0
 11
-2.522548268252814
 21
9.458379712118981
 31
0.0
  0
LINE
  5
1414
330
1406
100
AcDbEntity
  8
0
 62
     0
100
AcDbLine
 10
2.434144645133012
 20
8.232361631859138
 30
0.0
 11
2.434144645133012
 21
9.458379712118981
 31
0.0
  0
LINE
  5
1415
330
1406
100
AcDbEntity
  8
0
 62
     0
100
AcDbLine
 10
-2.342548268252814
 20
9.278379712118981
 30
0.0
 11
-0.6442018115599008
 21
9.278379712118981
 31
0.0
  0
LINE
  5
1416
330
1406
100
AcDbEntity
  8
0
 62
     0
100
AcDbLine
 10
2.254144645133012
 20
9.278379712118981
 30
0.0
 11
0.5557981884400993
 21
9.278379712118981
 31
0.0
  0
SOLID
  5
1417
330
1406
100
AcDbEntity
  8
0
 62
     0
100
AcDbTrace
 10
-2.342548268252814
 20
9.308379712118981
 30
0.0
 11
-2.342548268252814
 21
9.248379712118982
 31
0.0
 12
-2.522548268252814
 22
9.278379712118981
 32
0.0
 13
-2.522548268252814
 23
9.278379712118981
 33
0.0
  0
SOLID
  5
1418
330
1406
100
AcDbEntity
  8
0
 62
     0
100
AcDbTrace
 10
2.254144645133012
 20
9.308379712118981
 30
0.0
 11
2.254144645133012
 21
9.248379712118982
 31
0.0
 12
2.434144645133012
 22
9.278379712118981
 32
0.0
 13
2.434144645133012
 23
9.278379712118981
 33
0.0
  0
MTEXT
  5
1419
330
1406
100
AcDbEntity
  8
0
 62
     0
100
AcDbMText
 10
-0.0442018115599008
 20
9.278379712118981
 30
0.0
 40
0.18
 41
0.0
 71
     5
 72
     1
  1
\A1;4.9567
1001
ACAD
1000
MTEXTBEGIN
1070
    73
1070
     1
1070
    44
1040
1.0
1070
    74
1070
     0
1000
MTEXTEND
  0
POINT
  5
141A
330
1406
100
AcDbEntity
  8
DEFPOINTS
 62
     0
100
AcDbPoint
 10
-2.522548268252814
 20
8.169861631859138
 30
0.0
  0
POINT
  5
141B
330
1406
100
AcDbEntity
  8
DEFPOINTS
 62
     0
100
AcDbPoint
 10
2.434144645133012
 20
8.169861631859138
 30
0.0
  0
POINT
  5
141C
330
1406
100
AcDbEntity
  8
DEFPOINTS
 62
     0
100
AcDbPoint
 10
2.434144645133012
 20
9.278379712118981
 30
0.0
  0
ENDBLK
  5
1412
330
1406
100
AcDbEntity
  8
0
100
AcDbBlockEnd
  0
ENDSEC
  0
SECTION
  2
ENTITIES
  0
LINE
  5
455
330
1E
100
AcDbEntity
  8
3
100
AcDbLine
 10
6.991231259306241
 20
7.293877379890632
 30
0.0
 11
7.054223385290493
 21
7.356869505874886
 31
0.0
  0
LINE
  5
456
330
1E
100
AcDbEntity
  8
3
100
AcDbLine
 10
6.991231259306241
 20
7.223011238158349
 30
0.0
 11
7.083750944345611
 21
7.317499427134727
 31
0.0
  0
LINE
  5
457
330
1E
100
AcDbEntity
  8
3
100
AcDbLine
 10
6.991231259306241
 20
7.154113600363075
 30
0.0
 11
7.083750944345611
 21
7.246633285402444
 31
0.0
  0
LINE
  5
458
330
1E
100
AcDbEntity
  8
3
100
AcDbLine
 10
6.991231259306241
 20
7.08324745863079
 30
0.0
 11
7.083750944345611
 21
7.17576714367016
 31
0.0
  0
LINE
  5
459
330
1E
100
AcDbEntity
  8
3
100
AcDbLine
 10
6.991231259306241
 20
7.012381316898506
 30
0.0
 11
7.083750944345611
 21
7.104901001937877
 31
0.0
  0
LINE
  5
45A
330
1E
100
AcDbEntity
  8
3
100
AcDbLine
 10
6.997136771117263
 20
6.947420686977247
 30
0.0
 11
7.083750944345611
 21
7.034034860205593
 31
0.0
  0
LINE
  5
45B
330
1E
100
AcDbEntity
  8
3
100
AcDbLine
 10
7.081782440408602
 20
6.961200214536303
 30
0.0
 11
7.083750944345611
 21
6.96316871847331
 31
0.0
  0
LINE
  5
468
330
1E
100
AcDbEntity
  8
3
100
AcDbLine
 10
7.083750944345611
 20
7.309625411386695
 30
0.0
 11
7.083750944345611
 21
7.016318324772523
 31
0.0
  0
LINE
  5
469
330
1E
100
AcDbEntity
  8
3
100
AcDbLine
 10
6.991231259306241
 20
8.089152970441814
 30
0.0
 11
6.991231259306241
 21
7.016318324772523
 31
0.0
  0
LINE
  5
46B
330
1E
100
AcDbEntity
  8
3
100
AcDbLine
 10
7.083750944345611
 20
7.177735647607169
 30
0.0
 11
7.314065904975532
 21
7.177735647607169
 31
0.0
  0
LINE
  5
46C
330
1E
100
AcDbEntity
  8
3
100
AcDbLine
 10
6.991231259306241
 20
7.177735647607169
 30
0.0
 11
6.591624960093643
 21
7.177735647607169
 31
0.0
  0
LINE
  5
4CD
330
1E
100
AcDbEntity
  8
3
100
AcDbLine
 10
6.831782440408602
 20
7.150176592489058
 30
0.0
 11
6.991231259306241
 21
7.177735647607169
 31
0.0
  0
LINE
  5
800
330
1E
100
AcDbEntity
  8
3
100
AcDbLine
 10
7.158554093951909
 20
4.041908875953625
 30
0.0
 11
7.142806062455846
 21
4.039940372016618
 31
0.0
  0
LINE
  5
801
330
1E
100
AcDbEntity
  8
3
100
AcDbLine
 10
7.125089527022776
 20
4.039940372016618
 30
0.0
 11
7.107372991589706
 21
4.039940372016618
 31
0.0
  0
LINE
  5
802
330
1E
100
AcDbEntity
  8
3
100
AcDbLine
 10
7.158554093951909
 20
4.327341946819768
 30
0.0
 11
7.142806062455846
 21
4.327341946819768
 31
0.0
  0
LINE
  5
803
330
1E
100
AcDbEntity
  8
3
100
AcDbLine
 10
7.125089527022776
 20
4.327341946819768
 30
0.0
 11
7.107372991589706
 21
4.329310450756775
 31
0.0
  0
LINE
  5
804
330
1E
100
AcDbEntity
  8
3
100
AcDbLine
 10
6.9813887396212
 20
4.209231710599295
 30
0.0
 11
6.985325747495217
 21
4.209231710599295
 31
0.0
  0
LINE
  5
805
330
1E
100
AcDbEntity
  8
3
100
AcDbLine
 10
6.987294251432224
 20
4.209231710599295
 30
0.0
 11
6.991231259306241
 21
4.209231710599295
 31
0.0
  0
LINE
  5
806
330
1E
100
AcDbEntity
  8
3
100
AcDbLine
 10
7.158554093951909
 20
4.278129348394569
 30
0.0
 11
7.107372991589706
 21
4.276160844457562
 31
0.0
  0
LINE
  5
807
330
1E
100
AcDbEntity
  8
3
100
AcDbLine
 10
7.0561918892275
 20
4.274192340520555
 30
0.0
 11
7.005010786865295
 21
4.272223836583547
 31
0.0
  0
LINE
  5
808
330
1E
100
AcDbEntity
  8
3
100
AcDbLine
 10
7.081782440408602
 20
4.140334072804019
 30
0.0
 11
7.0561918892275
 21
4.124586041307956
 31
0.0
  0
LINE
  5
809
330
1E
100
AcDbEntity
  8
3
100
AcDbLine
 10
7.030601338046398
 20
4.110806513748901
 30
0.0
 11
7.005010786865295
 21
4.097026986189845
 31
0.0
  0
LINE
  5
80A
330
1E
100
AcDbEntity
  8
3
100
AcDbLine
 10
7.081782440408602
 20
4.228916749969373
 30
0.0
 11
7.0561918892275
 21
4.242696277528429
 31
0.0
  0
LINE
  5
80B
330
1E
100
AcDbEntity
  8
3
100
AcDbLine
 10
7.030601338046398
 20
4.258444309024492
 30
0.0
 11
7.005010786865295
 21
4.272223836583547
 31
0.0
  0
LINE
  5
80C
330
1E
100
AcDbEntity
  8
3
100
AcDbLine
 10
7.158554093951909
 20
4.091121474378823
 30
0.0
 11
7.107372991589706
 21
4.09308997831583
 31
0.0
  0
LINE
  5
80D
330
1E
100
AcDbEntity
  8
3
100
AcDbLine
 10
7.0561918892275
 20
4.095058482252838
 30
0.0
 11
7.005010786865295
 21
4.097026986189845
 31
0.0
  0
LINE
  5
80E
330
1E
100
AcDbEntity
  8
3
100
AcDbLine
 10
7.160522597888917
 20
4.949389190914255
 30
0.0
 11
7.160522597888917
 21
5.00057029327646
 31
0.0
  0
LINE
  5
80F
330
1E
100
AcDbEntity
  8
3
100
AcDbLine
 10
7.160522597888917
 20
5.053719899575673
 30
0.0
 11
7.160522597888917
 21
5.106869505874886
 31
0.0
  0
LINE
  5
810
330
1E
100
AcDbEntity
  8
3
100
AcDbLine
 10
7.081782440408602
 20
5.008444309024492
 30
0.0
 11
7.0561918892275
 21
5.022223836583547
 31
0.0
  0
LINE
  5
811
330
1E
100
AcDbEntity
  8
3
100
AcDbLine
 10
7.032569841983406
 20
5.036003364142601
 30
0.0
 11
7.006979290802304
 21
5.051751395638664
 31
0.0
  0
LINE
  5
812
330
1E
100
AcDbEntity
  8
3
100
AcDbLine
 10
7.160522597888917
 20
5.055688403512681
 30
0.0
 11
7.109341495526713
 21
5.055688403512681
 31
0.0
  0
LINE
  5
813
330
1E
100
AcDbEntity
  8
3
100
AcDbLine
 10
7.058160393164508
 20
5.053719899575673
 30
0.0
 11
7.006979290802304
 21
5.051751395638664
 31
0.0
  0
LINE
  5
814
330
1E
100
AcDbEntity
  8
3
100
AcDbLine
 10
7.160522597888917
 20
4.896239584615043
 30
0.0
 11
7.109341495526713
 21
4.898208088552051
 31
0.0
  0
LINE
  5
815
330
1E
100
AcDbEntity
  8
3
100
AcDbLine
 10
7.058160393164508
 20
4.898208088552051
 30
0.0
 11
7.006979290802304
 21
4.900176592489058
 31
0.0
  0
LINE
  5
816
330
1E
100
AcDbEntity
  8
3
100
AcDbLine
 10
7.160522597888917
 20
5.106869505874886
 30
0.0
 11
7.142806062455846
 21
5.106869505874886
 31
0.0
  0
LINE
  5
817
330
1E
100
AcDbEntity
  8
3
100
AcDbLine
 10
7.127058030959783
 20
5.106869505874886
 30
0.0
 11
7.109341495526713
 21
5.108838009811893
 31
0.0
  0
LINE
  5
818
330
1E
100
AcDbEntity
  8
3
100
AcDbLine
 10
7.160522597888917
 20
4.845058482252838
 30
0.0
 11
7.142806062455846
 21
4.845058482252838
 31
0.0
  0
LINE
  5
819
330
1E
100
AcDbEntity
  8
3
100
AcDbLine
 10
7.127058030959783
 20
4.845058482252838
 30
0.0
 11
7.109341495526713
 21
4.84308997831583
 31
0.0
  0
LINE
  5
81A
330
1E
100
AcDbEntity
  8
3
100
AcDbLine
 10
7.081782440408602
 20
4.943483679103232
 30
0.0
 11
7.0561918892275
 21
4.929704151544177
 31
0.0
  0
LINE
  5
81B
330
1E
100
AcDbEntity
  8
3
100
AcDbLine
 10
7.032569841983406
 20
4.915924623985121
 30
0.0
 11
7.006979290802304
 21
4.900176592489058
 31
0.0
  0
LINE
  5
81C
330
1E
100
AcDbEntity
  8
3
100
AcDbLine
 10
7.158554093951909
 20
5.854901001937877
 30
0.0
 11
7.158554093951909
 21
5.90805060823709
 31
0.0
  0
LINE
  5
81D
330
1E
100
AcDbEntity
  8
3
100
AcDbLine
 10
7.158554093951909
 20
5.959231710599295
 30
0.0
 11
7.158554093951909
 21
6.012381316898506
 31
0.0
  0
LINE
  5
81E
330
1E
100
AcDbEntity
  8
3
100
AcDbLine
 10
7.079813936471595
 20
5.913956120048114
 30
0.0
 11
7.054223385290493
 21
5.927735647607169
 31
0.0
  0
LINE
  5
81F
330
1E
100
AcDbEntity
  8
3
100
AcDbLine
 10
7.030601338046398
 20
5.943483679103232
 30
0.0
 11
7.005010786865295
 21
5.957263206662286
 31
0.0
  0
LINE
  5
820
330
1E
100
AcDbEntity
  8
3
100
AcDbLine
 10
7.158554093951909
 20
5.96316871847331
 30
0.0
 11
7.107372991589706
 21
5.961200214536303
 31
0.0
  0
LINE
  5
821
330
1E
100
AcDbEntity
  8
3
100
AcDbLine
 10
7.0561918892275
 20
5.959231710599295
 30
0.0
 11
7.005010786865295
 21
5.957263206662286
 31
0.0
  0
LINE
  5
822
330
1E
100
AcDbEntity
  8
3
100
AcDbLine
 10
7.158554093951909
 20
5.801751395638664
 30
0.0
 11
7.107372991589706
 21
5.803719899575673
 31
0.0
  0
LINE
  5
823
330
1E
100
AcDbEntity
  8
3
100
AcDbLine
 10
7.0561918892275
 20
5.805688403512681
 30
0.0
 11
7.005010786865295
 21
5.807656907449688
 31
0.0
  0
LINE
  5
824
330
1E
100
AcDbEntity
  8
3
100
AcDbLine
 10
7.158554093951909
 20
6.012381316898506
 30
0.0
 11
7.140837558518839
 21
6.012381316898506
 31
0.0
  0
LINE
  5
825
330
1E
100
AcDbEntity
  8
3
100
AcDbLine
 10
7.125089527022776
 20
6.014349820835516
 30
0.0
 11
7.107372991589706
 21
6.014349820835516
 31
0.0
  0
LINE
  5
826
330
1E
100
AcDbEntity
  8
3
100
AcDbLine
 10
7.158554093951909
 20
5.752538797213468
 30
0.0
 11
7.140837558518839
 21
5.75057029327646
 31
0.0
  0
LINE
  5
827
330
1E
100
AcDbEntity
  8
3
100
AcDbLine
 10
7.125089527022776
 20
5.75057029327646
 30
0.0
 11
7.107372991589706
 21
5.75057029327646
 31
0.0
  0
LINE
  5
828
330
1E
100
AcDbEntity
  8
3
100
AcDbLine
 10
7.079813936471595
 20
5.850963994063862
 30
0.0
 11
7.054223385290493
 21
5.835215962567799
 31
0.0
  0
LINE
  5
829
330
1E
100
AcDbEntity
  8
3
100
AcDbLine
 10
7.030601338046398
 20
5.821436435008743
 30
0.0
 11
7.005010786865295
 21
5.807656907449688
 31
0.0
  0
LINE
  5
82A
330
1E
100
AcDbEntity
  8
3
100
AcDbLine
 10
7.158554093951909
 20
6.760412812961499
 30
0.0
 11
7.158554093951909
 21
6.813562419260712
 31
0.0
  0
LINE
  5
82B
330
1E
100
AcDbEntity
  8
3
100
AcDbLine
 10
7.158554093951909
 20
6.866712025559925
 30
0.0
 11
7.158554093951909
 21
6.917893127922129
 31
0.0
  0
LINE
  5
82C
330
1E
100
AcDbEntity
  8
3
100
AcDbLine
 10
7.083750944345611
 20
6.039940372016618
 30
0.0
 11
7.083750944345611
 21
6.138365568867012
 31
0.0
  0
LINE
  5
82D
330
1E
100
AcDbEntity
  8
3
100
AcDbLine
 10
7.083750944345611
 20
6.236790765717405
 30
0.0
 11
7.083750944345611
 21
6.433641159418192
 31
0.0
  0
LINE
  5
82E
330
1E
100
AcDbEntity
  8
3
100
AcDbLine
 10
7.083750944345611
 20
6.532066356268586
 30
0.0
 11
7.083750944345611
 21
6.632460057055988
 31
0.0
  0
LINE
  5
82F
330
1E
100
AcDbEntity
  8
3
100
AcDbLine
 10
7.079813936471595
 20
6.819467931071736
 30
0.0
 11
7.054223385290493
 21
6.835215962567799
 31
0.0
  0
LINE
  5
830
330
1E
100
AcDbEntity
  8
3
100
AcDbLine
 10
7.030601338046398
 20
6.848995490126855
 30
0.0
 11
7.005010786865295
 21
6.862775017685908
 31
0.0
  0
LINE
  5
831
330
1E
100
AcDbEntity
  8
3
100
AcDbLine
 10
7.158554093951909
 20
6.868680529496932
 30
0.0
 11
7.107372991589706
 21
6.866712025559925
 31
0.0
  0
LINE
  5
832
330
1E
100
AcDbEntity
  8
3
100
AcDbLine
 10
7.0561918892275
 20
6.864743521622918
 30
0.0
 11
7.005010786865295
 21
6.862775017685908
 31
0.0
  0
LINE
  5
833
330
1E
100
AcDbEntity
  8
3
100
AcDbLine
 10
7.158554093951909
 20
6.707263206662286
 30
0.0
 11
7.107372991589706
 21
6.709231710599295
 31
0.0
  0
LINE
  5
834
330
1E
100
AcDbEntity
  8
3
100
AcDbLine
 10
7.0561918892275
 20
6.711200214536303
 30
0.0
 11
7.005010786865295
 21
6.71316871847331
 31
0.0
  0
LINE
  5
835
330
1E
100
AcDbEntity
  8
3
100
AcDbLine
 10
7.158554093951909
 20
6.917893127922129
 30
0.0
 11
7.140837558518839
 21
6.919861631859138
 31
0.0
  0
LINE
  5
836
330
1E
100
AcDbEntity
  8
3
100
AcDbLine
 10
7.125089527022776
 20
6.919861631859138
 30
0.0
 11
7.107372991589706
 21
6.919861631859138
 31
0.0
  0
LINE
  5
837
330
1E
100
AcDbEntity
  8
3
100
AcDbLine
 10
7.158554093951909
 20
6.65805060823709
 30
0.0
 11
7.140837558518839
 21
6.65805060823709
 31
0.0
  0
LINE
  5
838
330
1E
100
AcDbEntity
  8
3
100
AcDbLine
 10
7.125089527022776
 20
6.65805060823709
 30
0.0
 11
7.107372991589706
 21
6.656082104300082
 31
0.0
  0
LINE
  5
839
330
1E
100
AcDbEntity
  8
3
100
AcDbLine
 10
7.079813936471595
 20
6.756475805087484
 30
0.0
 11
7.054223385290493
 21
6.742696277528429
 31
0.0
  0
LINE
  5
83A
330
1E
100
AcDbEntity
  8
3
100
AcDbLine
 10
7.030601338046398
 20
6.726948246032366
 30
0.0
 11
7.005010786865295
 21
6.71316871847331
 31
0.0
  0
LINE
  5
83B
330
1E
100
AcDbEntity
  8
3
100
AcDbLine
 10
7.083750944345611
 20
3.573404938945751
 30
0.0
 11
7.083750944345611
 21
3.721042734221342
 31
0.0
  0
LINE
  5
83C
330
1E
100
AcDbEntity
  8
3
100
AcDbLine
 10
7.083750944345611
 20
3.868680529496932
 30
0.0
 11
7.083750944345611
 21
4.014349820835516
 31
0.0
  0
LINE
  5
83D
330
1E
100
AcDbEntity
  8
3
100
AcDbLine
 10
7.083750944345611
 20
4.821436435008743
 30
0.0
 11
7.083750944345611
 21
4.744664781465436
 31
0.0
  0
LINE
  5
83E
330
1E
100
AcDbEntity
  8
3
100
AcDbLine
 10
7.083750944345611
 20
4.665924623985121
 30
0.0
 11
7.083750944345611
 21
4.510412812961499
 31
0.0
  0
LINE
  5
83F
330
1E
100
AcDbEntity
  8
3
100
AcDbLine
 10
7.083750944345611
 20
4.431672655481184
 30
0.0
 11
7.083750944345611
 21
4.352932498000869
 31
0.0
  0
LINE
  5
840
330
1E
100
AcDbEntity
  8
3
100
AcDbLine
 10
7.083750944345611
 20
5.134428560992995
 30
0.0
 11
7.083750944345611
 21
5.230885253906381
 31
0.0
  0
LINE
  5
841
330
1E
100
AcDbEntity
  8
3
100
AcDbLine
 10
7.083750944345611
 20
5.329310450756775
 30
0.0
 11
7.083750944345611
 21
5.524192340520555
 31
0.0
  0
LINE
  5
842
330
1E
100
AcDbEntity
  8
3
100
AcDbLine
 10
7.083750944345611
 20
5.62064903343394
 30
0.0
 11
7.083750944345611
 21
5.719074230284334
 31
0.0
  0
LINE
  5
843
330
1E
100
AcDbEntity
  8
3
100
AcDbLine
 10
7.083750944345611
 20
8.169861631859138
 30
0.0
 11
7.083750944345611
 21
8.022223836583547
 31
0.0
  0
LINE
  5
844
330
1E
100
AcDbEntity
  8
3
100
AcDbLine
 10
7.083750944345611
 20
7.876554545244964
 30
0.0
 11
7.083750944345611
 21
7.728916749969373
 31
0.0
  0
LINE
  5
845
330
1E
100
AcDbEntity
  8
3
100
AcDbLine
 10
7.083750944345611
 20
7.390334072804019
 30
0.0
 11
7.083750944345611
 21
7.382460057055988
 31
0.0
  0
LINE
  5
846
330
1E
100
AcDbEntity
  8
3
100
AcDbLine
 10
7.083750944345611
 20
7.372617537370949
 30
0.0
 11
7.083750944345611
 21
7.364743521622918
 31
0.0
  0
LINE
  5
847
330
1E
100
AcDbEntity
  8
7
100
AcDbLine
 10
7.083750944345611
 20
7.364743521622918
 30
0.0
 11
7.083750944345611
 21
6.961200214536303
 31
0.0
  0
LINE
  5
848
330
1E
100
AcDbEntity
  8
3
100
AcDbLine
 10
7.083750944345611
 20
6.961200214536303
 30
0.0
 11
7.083750944345611
 21
6.955294702725279
 31
0.0
  0
LINE
  5
849
330
1E
100
AcDbEntity
  8
3
100
AcDbLine
 10
7.083750944345611
 20
6.949389190914255
 30
0.0
 11
7.083750944345611
 21
6.943483679103232
 31
0.0
  0
LINE
  5
84A
330
1E
100
AcDbEntity
  8
3
100
AcDbLine
 10
7.158554093951909
 20
7.415924623985121
 30
0.0
 11
7.142806062455846
 21
7.415924623985121
 31
0.0
  0
LINE
  5
84B
330
1E
100
AcDbEntity
  8
3
100
AcDbLine
 10
7.125089527022776
 20
7.415924623985121
 30
0.0
 11
7.107372991589706
 21
7.413956120048114
 31
0.0
  0
LINE
  5
84C
330
1E
100
AcDbEntity
  8
3
100
AcDbLine
 10
7.158554093951909
 20
7.701357694851264
 30
0.0
 11
7.142806062455846
 21
7.703326198788271
 31
0.0
  0
LINE
  5
84D
330
1E
100
AcDbEntity
  8
3
100
AcDbLine
 10
7.125089527022776
 20
7.703326198788271
 30
0.0
 11
7.107372991589706
 21
7.703326198788271
 31
0.0
  0
LINE
  5
84E
330
1E
100
AcDbEntity
  8
3
100
AcDbLine
 10
6.991231259306241
 20
3.573404938945751
 30
0.0
 11
6.991231259306241
 21
8.169861631859138
 31
0.0
  0
LINE
  5
84F
330
1E
100
AcDbEntity
  8
3
100
AcDbLine
 10
7.253042282928287
 20
3.573404938945751
 30
0.0
 11
7.253042282928287
 21
8.169861631859138
 31
0.0
  0
LINE
  5
850
330
1E
100
AcDbEntity
  8
3
100
AcDbLine
 10
7.253042282928287
 20
3.394271080678034
 30
0.0
 11
7.132963542770808
 21
3.404113600363075
 31
0.0
  0
LINE
  5
851
330
1E
100
AcDbEntity
  8
3
100
AcDbLine
 10
7.253042282928287
 20
8.348995490126855
 30
0.0
 11
7.132963542770808
 21
8.339152970441814
 31
0.0
  0
LINE
  5
852
330
1E
100
AcDbEntity
  8
3
100
AcDbLine
 10
7.253042282928287
 20
3.486790765717405
 30
0.0
 11
7.215640708125137
 21
3.490727773591421
 31
0.0
  0
LINE
  5
853
330
1E
100
AcDbEntity
  8
3
100
AcDbLine
 10
7.178239133321989
 20
3.494664781465436
 30
0.0
 11
7.140837558518839
 21
3.496633285402444
 31
0.0
  0
LINE
  5
854
330
1E
100
AcDbEntity
  8
3
100
AcDbLine
 10
7.253042282928287
 20
8.256475805087484
 30
0.0
 11
7.215640708125137
 21
8.252538797213468
 31
0.0
  0
LINE
  5
855
330
1E
100
AcDbEntity
  8
3
100
AcDbLine
 10
7.178239133321989
 20
8.25057029327646
 30
0.0
 11
7.140837558518839
 21
8.246633285402444
 31
0.0
  0
LINE
  5
856
330
1E
100
AcDbEntity
  8
3
100
AcDbLine
 10
7.081782440408602
 20
7.602932498000869
 30
0.0
 11
7.0561918892275
 21
7.618680529496932
 31
0.0
  0
LINE
  5
857
330
1E
100
AcDbEntity
  8
3
100
AcDbLine
 10
7.030601338046398
 20
7.632460057055988
 30
0.0
 11
7.005010786865295
 21
7.646239584615043
 31
0.0
  0
LINE
  5
858
330
1E
100
AcDbEntity
  8
3
100
AcDbLine
 10
7.158554093951909
 20
7.465137222410318
 30
0.0
 11
7.107372991589706
 21
7.467105726347327
 31
0.0
  0
LINE
  5
859
330
1E
100
AcDbEntity
  8
3
100
AcDbLine
 10
7.0561918892275
 20
7.469074230284334
 30
0.0
 11
7.005010786865295
 21
7.471042734221342
 31
0.0
  0
LINE
  5
85A
330
1E
100
AcDbEntity
  8
3
100
AcDbLine
 10
7.081782440408602
 20
7.514349820835516
 30
0.0
 11
7.0561918892275
 21
7.50057029327646
 31
0.0
  0
LINE
  5
85B
330
1E
100
AcDbEntity
  8
3
100
AcDbLine
 10
7.030601338046398
 20
7.484822261780397
 30
0.0
 11
7.005010786865295
 21
7.471042734221342
 31
0.0
  0
LINE
  5
85C
330
1E
100
AcDbEntity
  8
3
100
AcDbLine
 10
7.158554093951909
 20
7.652145096426066
 30
0.0
 11
7.107372991589706
 21
7.650176592489058
 31
0.0
  0
LINE
  5
85D
330
1E
100
AcDbEntity
  8
3
100
AcDbLine
 10
7.0561918892275
 20
7.648208088552051
 30
0.0
 11
7.005010786865295
 21
7.646239584615043
 31
0.0
  0
LINE
  5
879
330
1E
100
AcDbEntity
  8
3
100
AcDbLine
 10
6.9813887396212
 20
4.209231710599295
 30
0.0
 11
6.9813887396212
 21
4.207263206662286
 31
0.0
  0
LINE
  5
87A
330
1E
100
AcDbEntity
  8
3
100
AcDbLine
 10
6.9813887396212
 20
4.203326198788271
 30
0.0
 11
6.9813887396212
 21
4.201357694851264
 31
0.0
  0
LINE
  5
87B
330
1E
100
AcDbEntity
  8
3
100
AcDbLine
 10
7.107372991589706
 20
4.329310450756775
 30
0.0
 11
7.097530471904665
 21
4.333247458630792
 31
0.0
  0
LINE
  5
87C
330
1E
100
AcDbEntity
  8
3
100
AcDbLine
 10
7.089656456156633
 20
4.34308997831583
 30
0.0
 11
7.083750944345611
 21
4.352932498000869
 31
0.0
  0
LINE
  5
87D
330
1E
100
AcDbEntity
  8
3
100
AcDbLine
 10
7.083750944345611
 20
4.014349820835516
 30
0.0
 11
7.089656456156633
 21
4.026160844457562
 31
0.0
  0
LINE
  5
87E
330
1E
100
AcDbEntity
  8
3
100
AcDbLine
 10
7.097530471904665
 20
4.034034860205593
 30
0.0
 11
7.107372991589706
 21
4.039940372016618
 31
0.0
  0
LINE
  5
87F
330
1E
100
AcDbEntity
  8
3
100
AcDbLine
 10
7.158554093951909
 20
4.160019112174097
 30
0.0
 11
7.158554093951909
 21
4.17576714367016
 31
0.0
  0
LINE
  5
893
330
1E
100
AcDbEntity
  8
3
100
AcDbLine
 10
7.109341495526713
 20
5.108838009811893
 30
0.0
 11
7.097530471904665
 21
5.112775017685908
 31
0.0
  0
LINE
  5
894
330
1E
100
AcDbEntity
  8
3
100
AcDbLine
 10
7.089656456156633
 20
5.12064903343394
 30
0.0
 11
7.085719448282619
 21
5.132460057055988
 31
0.0
  0
LINE
  5
895
330
1E
100
AcDbEntity
  8
3
100
AcDbLine
 10
7.160522597888917
 20
4.906082104300082
 30
0.0
 11
7.160522597888917
 21
4.919861631859138
 31
0.0
  0
LINE
  5
8AB
330
1E
100
AcDbEntity
  8
3
100
AcDbLine
 10
7.085719448282619
 20
4.819467931071736
 30
0.0
 11
7.089656456156633
 21
4.831278954693782
 31
0.0
  0
LINE
  5
8AC
330
1E
100
AcDbEntity
  8
3
100
AcDbLine
 10
7.097530471904665
 20
4.839152970441814
 30
0.0
 11
7.109341495526713
 21
4.84308997831583
 31
0.0
  0
LINE
  5
8AD
330
1E
100
AcDbEntity
  8
3
100
AcDbLine
 10
7.107372991589706
 20
6.014349820835516
 30
0.0
 11
7.095561967967658
 21
6.020255332646538
 31
0.0
  0
LINE
  5
8AE
330
1E
100
AcDbEntity
  8
3
100
AcDbLine
 10
7.087687952219626
 20
6.028129348394569
 30
0.0
 11
7.083750944345611
 21
6.039940372016618
 31
0.0
  0
LINE
  5
8AF
330
1E
100
AcDbEntity
  8
3
100
AcDbLine
 10
7.158554093951909
 20
5.811593915323705
 30
0.0
 11
7.158554093951909
 21
5.82537344288276
 31
0.0
  0
LINE
  5
8BD
330
1E
100
AcDbEntity
  8
3
100
AcDbLine
 10
7.079813936471595
 20
5.860806513748901
 30
0.0
 11
7.079813936471595
 21
5.850963994063862
 31
0.0
  0
LINE
  5
8C5
330
1E
100
AcDbEntity
  8
3
100
AcDbLine
 10
7.083750944345611
 20
5.724979742095358
 30
0.0
 11
7.087687952219626
 21
5.736790765717405
 31
0.0
  0
LINE
  5
8C6
330
1E
100
AcDbEntity
  8
3
100
AcDbLine
 10
7.095561967967658
 20
5.744664781465436
 30
0.0
 11
7.107372991589706
 21
5.75057029327646
 31
0.0
  0
LINE
  5
8C7
330
1E
100
AcDbEntity
  8
3
100
AcDbLine
 10
7.107372991589706
 20
6.919861631859138
 30
0.0
 11
7.095561967967658
 21
6.92576714367016
 31
0.0
  0
LINE
  5
8C8
330
1E
100
AcDbEntity
  8
3
100
AcDbLine
 10
7.087687952219626
 20
6.933641159418192
 30
0.0
 11
7.083750944345611
 21
6.94545218304024
 31
0.0
  0
LINE
  5
8C9
330
1E
100
AcDbEntity
  8
3
100
AcDbLine
 10
7.158554093951909
 20
6.717105726347327
 30
0.0
 11
7.158554093951909
 21
6.73285375784339
 31
0.0
  0
LINE
  5
8DE
330
1E
100
AcDbEntity
  8
3
100
AcDbLine
 10
7.158554093951909
 20
6.693483679103232
 30
0.0
 11
7.158554093951909
 21
6.73285375784339
 31
0.0
  0
LINE
  5
8DF
330
1E
100
AcDbEntity
  8
3
100
AcDbLine
 10
7.083750944345611
 20
6.632460057055988
 30
0.0
 11
7.087687952219626
 21
6.642302576741027
 31
0.0
  0
LINE
  5
8E0
330
1E
100
AcDbEntity
  8
3
100
AcDbLine
 10
7.095561967967658
 20
6.652145096426066
 30
0.0
 11
7.107372991589706
 21
6.656082104300082
 31
0.0
  0
LINE
  5
900
330
1E
100
AcDbEntity
  8
3
100
AcDbLine
 10
7.107372991589706
 20
7.413956120048114
 30
0.0
 11
7.097530471904665
 21
7.410019112174097
 31
0.0
  0
LINE
  5
901
330
1E
100
AcDbEntity
  8
3
100
AcDbLine
 10
7.089656456156633
 20
7.402145096426066
 30
0.0
 11
7.083750944345611
 21
7.390334072804019
 31
0.0
  0
LINE
  5
902
330
1E
100
AcDbEntity
  8
3
100
AcDbLine
 10
7.083750944345611
 20
7.728916749969373
 30
0.0
 11
7.089656456156633
 21
7.717105726347327
 31
0.0
  0
LINE
  5
903
330
1E
100
AcDbEntity
  8
3
100
AcDbLine
 10
7.097530471904665
 20
7.709231710599295
 30
0.0
 11
7.107372991589706
 21
7.703326198788271
 31
0.0
  0
LINE
  5
904
330
1E
100
AcDbEntity
  8
3
100
AcDbLine
 10
7.158554093951909
 20
7.58324745863079
 30
0.0
 11
7.158554093951909
 21
7.569467931071736
 31
0.0
  0
LINE
  5
911
330
1E
100
AcDbEntity
  8
3
100
AcDbLine
 10
6.991231259306241
 20
3.559625411386697
 30
0.0
 11
6.991231259306241
 21
3.563562419260712
 31
0.0
  0
LINE
  5
912
330
1E
100
AcDbEntity
  8
3
100
AcDbLine
 10
6.991231259306241
 20
3.569467931071736
 30
0.0
 11
6.991231259306241
 21
3.573404938945751
 31
0.0
  0
LINE
  5
913
330
1E
100
AcDbEntity
  8
3
100
AcDbLine
 10
6.991231259306241
 20
8.183641159418192
 30
0.0
 11
6.991231259306241
 21
8.179704151544177
 31
0.0
  0
LINE
  5
914
330
1E
100
AcDbEntity
  8
3
100
AcDbLine
 10
6.991231259306241
 20
8.173798639733153
 30
0.0
 11
6.991231259306241
 21
8.169861631859138
 31
0.0
  0
LINE
  5
92C
330
1E
100
AcDbEntity
  8
3
100
AcDbLine
 10
7.083750944345611
 20
3.573404938945751
 30
0.0
 11
7.083750944345611
 21
3.569467931071736
 31
0.0
  0
LINE
  5
932
330
1E
100
AcDbEntity
  8
3
100
AcDbLine
 10
7.113278503400728
 20
3.510412812961499
 30
0.0
 11
7.140837558518839
 21
3.496633285402444
 31
0.0
  0
LINE
  5
933
330
1E
100
AcDbEntity
  8
3
100
AcDbLine
 10
7.083750944345611
 20
8.169861631859138
 30
0.0
 11
7.083750944345611
 21
8.173798639733153
 31
0.0
  0
LINE
  5
934
330
1E
100
AcDbEntity
  8
3
100
AcDbLine
 10
7.083750944345611
 20
8.179704151544177
 30
0.0
 11
7.083750944345611
 21
8.183641159418192
 31
0.0
  0
LINE
  5
935
330
1E
100
AcDbEntity
  8
3
100
AcDbLine
 10
7.083750944345611
 20
8.183641159418192
 30
0.0
 11
7.095561967967658
 21
8.21316871847331
 31
0.0
  0
LINE
  5
936
330
1E
100
AcDbEntity
  8
3
100
AcDbLine
 10
7.113278503400728
 20
8.23285375784339
 30
0.0
 11
7.140837558518839
 21
8.246633285402444
 31
0.0
  0
LINE
  5
A40
330
1E
100
AcDbEntity
  8
3
100
AcDbLine
 10
2.434144645133012
 20
3.573404938945751
 30
0.0
 11
2.434144645133012
 21
8.169861631859138
 31
0.0
  0
LINE
  5
A41
330
1E
100
AcDbEntity
  8
3
100
AcDbLine
 10
-0.9792411816386419
 20
5.94545218304024
 30
0.0
 11
-1.075697874552027
 21
5.94545218304024
 31
0.0
  0
LINE
  5
A42
330
1E
100
AcDbEntity
  8
3
100
AcDbLine
 10
-0.9792411816386419
 20
5.799782891701656
 30
0.0
 11
-0.9792411816386419
 21
5.94545218304024
 31
0.0
  0
LINE
  5
A43
330
1E
100
AcDbEntity
  8
3
100
AcDbLine
 10
-1.075697874552027
 20
5.799782891701656
 30
0.0
 11
-0.9792411816386419
 21
5.799782891701656
 31
0.0
  0
LINE
  5
A44
330
1E
100
AcDbEntity
  8
3
100
AcDbLine
 10
0.9872942514322247
 20
5.799782891701656
 30
0.0
 11
0.8928060624558469
 21
5.799782891701656
 31
0.0
  0
LINE
  5
A45
330
1E
100
AcDbEntity
  8
3
100
AcDbLine
 10
0.8928060624558469
 20
5.94545218304024
 30
0.0
 11
0.9872942514322247
 21
5.94545218304024
 31
0.0
  0
LINE
  5
A46
330
1E
100
AcDbEntity
  8
3
100
AcDbLine
 10
0.8928060624558469
 20
5.799782891701656
 30
0.0
 11
0.8928060624558469
 21
5.94545218304024
 31
0.0
  0
LINE
  5
A47
330
1E
100
AcDbEntity
  8
3
100
AcDbLine
 10
0.6369005506448238
 20
6.03797186807961
 30
0.0
 11
-0.7233356698276179
 21
6.03797186807961
 31
0.0
  0
LINE
  5
A48
330
1E
100
AcDbEntity
  8
3
100
AcDbLine
 10
0.7117037002511229
 20
5.780097852331579
 30
0.0
 11
0.7117037002511229
 21
5.96316871847331
 31
0.0
  0
LINE
  5
A49
330
1E
100
AcDbEntity
  8
3
100
AcDbLine
 10
-0.7233356698276179
 20
5.705294702725279
 30
0.0
 11
0.6369005506448238
 21
5.705294702725279
 31
0.0
  0
LINE
  5
A4A
330
1E
100
AcDbEntity
  8
3
100
AcDbLine
 10
-0.8001073233709252
 20
5.96316871847331
 30
0.0
 11
-0.8001073233709252
 21
5.780097852331579
 31
0.0
  0
LINE
  5
A4B
330
1E
100
AcDbEntity
  8
3
100
AcDbLine
 10
-0.9733356698276178
 20
5.96316871847331
 30
0.0
 11
-0.9733356698276178
 21
5.780097852331579
 31
0.0
  0
LINE
  5
A4C
330
1E
100
AcDbEntity
  8
3
100
AcDbLine
 10
0.6369005506448238
 20
6.21316871847331
 30
0.0
 11
-0.7233356698276179
 21
6.21316871847331
 31
0.0
  0
LINE
  5
A4D
330
1E
100
AcDbEntity
  8
3
100
AcDbLine
 10
0.8869005506448237
 20
5.780097852331579
 30
0.0
 11
0.8869005506448237
 21
5.96316871847331
 31
0.0
  0
LINE
  5
A4E
330
1E
100
AcDbEntity
  8
3
100
AcDbLine
 10
-0.7233356698276179
 20
5.530097852331579
 30
0.0
 11
0.6369005506448238
 21
5.530097852331579
 31
0.0
  0
LINE
  5
A55
330
1E
100
AcDbEntity
  8
3
100
AcDbLine
 10
1.985325747495217
 20
7.951357694851264
 30
0.0
 11
1.99123125930624
 21
7.951357694851264
 31
0.0
  0
LINE
  5
A61
330
1E
100
AcDbEntity
  8
3
100
AcDbLine
 10
1.945955668755059
 20
7.996633285402444
 30
0.0
 11
1.945955668755059
 21
7.947420686977247
 31
0.0
  0
LINE
  5
A62
330
1E
100
AcDbEntity
  8
3
100
AcDbLine
 10
1.932176141196004
 20
7.933641159418192
 30
0.0
 11
1.888869054581831
 21
7.933641159418192
 31
0.0
  0
LINE
  5
A68
330
1E
100
AcDbEntity
  8
3
100
AcDbLine
 10
1.922333621510965
 20
7.990727773591421
 30
0.0
 11
1.922333621510965
 21
7.955294702725279
 31
0.0
  0
LINE
  5
A69
330
1E
100
AcDbEntity
  8
3
100
AcDbLine
 10
1.910522597888918
 20
7.951357694851264
 30
0.0
 11
1.918396613636949
 21
7.951357694851264
 31
0.0
  0
LINE
  5
A6A
330
1E
100
AcDbEntity
  8
3
100
AcDbLine
 10
1.969577715999154
 20
7.933641159418192
 30
0.0
 11
1.997136771117264
 21
7.933641159418192
 31
0.0
  0
LINE
  5
A70
330
1E
100
AcDbEntity
  8
3
100
AcDbLine
 10
2.044380865605453
 20
7.933641159418192
 30
0.0
 11
2.044380865605453
 21
8.010412812961499
 31
0.0
  0
LINE
  5
A71
330
1E
100
AcDbEntity
  8
3
100
AcDbLine
 10
2.044380865605453
 20
7.933641159418192
 30
0.0
 11
2.024695826235374
 21
7.933641159418192
 31
0.0
  0
LINE
  5
A72
330
1E
100
AcDbEntity
  8
3
100
AcDbLine
 10
2.0561918892275
 20
8.010412812961499
 30
0.0
 11
2.0561918892275
 21
7.994664781465436
 31
0.0
  0
LINE
  5
A73
330
1E
100
AcDbEntity
  8
3
100
AcDbLine
 10
2.0561918892275
 20
8.010412812961499
 30
0.0
 11
2.113278503400729
 21
8.010412812961499
 31
0.0
  0
LINE
  5
A74
330
1E
100
AcDbEntity
  8
3
100
AcDbLine
 10
2.113278503400729
 20
7.994664781465436
 30
0.0
 11
2.113278503400729
 21
8.010412812961499
 31
0.0
  0
LINE
  5
A75
330
1E
100
AcDbEntity
  8
3
100
AcDbLine
 10
2.113278503400729
 20
7.994664781465436
 30
0.0
 11
2.095561967967658
 21
7.994664781465436
 31
0.0
  0
LINE
  5
A76
330
1E
100
AcDbEntity
  8
3
100
AcDbLine
 10
2.095561967967658
 20
7.933641159418192
 30
0.0
 11
2.095561967967658
 21
7.994664781465436
 31
0.0
  0
LINE
  5
A7C
330
1E
100
AcDbEntity
  8
3
100
AcDbLine
 10
2.0561918892275
 20
7.994664781465436
 30
0.0
 11
2.071939920723563
 21
7.994664781465436
 31
0.0
  0
LINE
  5
A7D
330
1E
100
AcDbEntity
  8
3
100
AcDbLine
 10
2.144774566392855
 20
7.900176592489058
 30
0.0
 11
1.640837558518839
 21
7.900176592489058
 31
0.0
  0
LINE
  5
A7E
330
1E
100
AcDbEntity
  8
3
100
AcDbLine
 10
1.640837558518839
 20
8.069467931071736
 30
0.0
 11
2.144774566392855
 21
8.069467931071736
 31
0.0
  0
LINE
  5
A7F
330
1E
100
AcDbEntity
  8
3
100
AcDbLine
 10
1.632963542770808
 20
7.90805060823709
 30
0.0
 11
1.632963542770808
 21
8.061593915323705
 31
0.0
  0
LINE
  5
A80
330
1E
100
AcDbEntity
  8
3
100
AcDbLine
 10
2.152648582140886
 20
8.061593915323705
 30
0.0
 11
2.152648582140886
 21
7.90805060823709
 31
0.0
  0
LINE
  5
A81
330
1E
100
AcDbEntity
  8
3
100
AcDbLine
 10
1.719577715999154
 20
7.933641159418192
 30
0.0
 11
1.674302125447972
 21
7.933641159418192
 31
0.0
  0
LINE
  5
A82
330
1E
100
AcDbEntity
  8
3
100
AcDbLine
 10
1.719577715999154
 20
7.965137222410318
 30
0.0
 11
1.719577715999154
 21
7.933641159418192
 31
0.0
  0
LINE
  5
A83
330
1E
100
AcDbEntity
  8
3
100
AcDbLine
 10
1.719577715999154
 20
7.965137222410318
 30
0.0
 11
1.743199763243248
 21
7.965137222410318
 31
0.0
  0
LINE
  5
A84
330
1E
100
AcDbEntity
  8
3
100
AcDbLine
 10
1.719577715999154
 20
8.016318324772523
 30
0.0
 11
1.727451731747185
 21
8.016318324772523
 31
0.0
  0
LINE
  5
A85
330
1E
100
AcDbEntity
  8
3
100
AcDbLine
 10
1.719577715999154
 20
7.980885253906381
 30
0.0
 11
1.719577715999154
 21
8.016318324772523
 31
0.0
  0
LINE
  5
A86
330
1E
100
AcDbEntity
  8
3
100
AcDbLine
 10
1.733357243558208
 20
7.986790765717405
 30
0.0
 11
1.733357243558208
 21
8.012381316898506
 31
0.0
  0
LINE
  5
A87
330
1E
100
AcDbEntity
  8
3
100
AcDbLine
 10
1.776664330172383
 20
8.010412812961499
 30
0.0
 11
1.796349369542461
 21
8.010412812961499
 31
0.0
  0
LINE
  5
A88
330
1E
100
AcDbEntity
  8
3
100
AcDbLine
 10
1.719577715999154
 20
7.980885253906381
 30
0.0
 11
1.727451731747185
 21
7.980885253906381
 31
0.0
  0
LINE
  5
A89
330
1E
100
AcDbEntity
  8
3
100
AcDbLine
 10
1.800286377416477
 20
7.94545218304024
 30
0.0
 11
1.8061918892275
 21
7.933641159418192
 31
0.0
  0
LINE
  5
A8A
330
1E
100
AcDbEntity
  8
3
100
AcDbLine
 10
1.796349369542461
 20
8.010412812961499
 30
0.0
 11
1.818002912849547
 21
7.961200214536303
 31
0.0
  0
LINE
  5
A8B
330
1E
100
AcDbEntity
  8
3
100
AcDbLine
 10
1.770758818361358
 20
7.94545218304024
 30
0.0
 11
1.800286377416477
 21
7.94545218304024
 31
0.0
  0
LINE
  5
A8C
330
1E
100
AcDbEntity
  8
3
100
AcDbLine
 10
1.766821810487343
 20
7.933641159418192
 30
0.0
 11
1.743199763243248
 21
7.933641159418192
 31
0.0
  0
LINE
  5
A8D
330
1E
100
AcDbEntity
  8
3
100
AcDbLine
 10
1.766821810487343
 20
7.933641159418192
 30
0.0
 11
1.770758818361358
 21
7.94545218304024
 31
0.0
  0
LINE
  5
A8E
330
1E
100
AcDbEntity
  8
3
100
AcDbLine
 10
1.84359346403065
 20
8.010412812961499
 30
0.0
 11
1.857372991589705
 21
7.98285375784339
 31
0.0
  0
LINE
  5
A8F
330
1E
100
AcDbEntity
  8
3
100
AcDbLine
 10
1.818002912849547
 20
8.010412812961499
 30
0.0
 11
1.84359346403065
 21
8.010412812961499
 31
0.0
  0
LINE
  5
A90
330
1E
100
AcDbEntity
  8
3
100
AcDbLine
 10
1.818002912849547
 20
7.961200214536303
 30
0.0
 11
1.818002912849547
 21
8.010412812961499
 31
0.0
  0
LINE
  5
A91
330
1E
100
AcDbEntity
  8
3
100
AcDbLine
 10
1.784538345920414
 20
7.98285375784339
 30
0.0
 11
1.794380865605453
 21
7.961200214536303
 31
0.0
  0
LINE
  5
A92
330
1E
100
AcDbEntity
  8
3
100
AcDbLine
 10
1.776664330172383
 20
7.961200214536303
 30
0.0
 11
1.784538345920414
 21
7.98285375784339
 31
0.0
  0
LINE
  5
A93
330
1E
100
AcDbEntity
  8
3
100
AcDbLine
 10
1.776664330172383
 20
7.961200214536303
 30
0.0
 11
1.794380865605453
 21
7.961200214536303
 31
0.0
  0
LINE
  5
A94
330
1E
100
AcDbEntity
  8
3
100
AcDbLine
 10
1.839656456156634
 20
7.933641159418192
 30
0.0
 11
1.8061918892275
 21
7.933641159418192
 31
0.0
  0
LINE
  5
A95
330
1E
100
AcDbEntity
  8
3
100
AcDbLine
 10
1.743199763243248
 20
7.933641159418192
 30
0.0
 11
1.758947794739311
 21
7.969074230284334
 31
0.0
  0
LINE
  5
AA0
330
1E
100
AcDbEntity
  8
3
100
AcDbLine
 10
1.877058030959783
 20
7.933641159418192
 30
0.0
 11
1.853435983715689
 21
7.933641159418192
 31
0.0
  0
LINE
  5
AA1
330
1E
100
AcDbEntity
  8
3
100
AcDbLine
 10
1.877058030959783
 20
8.010412812961499
 30
0.0
 11
1.877058030959783
 21
7.933641159418192
 31
0.0
  0
LINE
  5
AA2
330
1E
100
AcDbEntity
  8
3
100
AcDbLine
 10
1.857372991589705
 20
8.010412812961499
 30
0.0
 11
1.877058030959783
 21
8.010412812961499
 31
0.0
  0
LINE
  5
AA3
330
1E
100
AcDbEntity
  8
3
100
AcDbLine
 10
1.857372991589705
 20
7.98285375784339
 30
0.0
 11
1.857372991589705
 21
8.010412812961499
 31
0.0
  0
LINE
  5
AA4
330
1E
100
AcDbEntity
  8
3
100
AcDbLine
 10
0.9302076372589969
 20
7.33324745863079
 30
0.0
 11
0.1408375585188395
 21
7.33324745863079
 31
0.0
  0
LINE
  5
AA5
330
1E
100
AcDbEntity
  8
3
100
AcDbLine
 10
-2.34144590604809
 20
3.559625411386697
 30
0.0
 11
2.253042282928287
 21
3.559625411386697
 31
0.0
  0
LINE
  5
AA6
330
1E
100
AcDbEntity
  8
3
100
AcDbLine
 10
-2.34144590604809
 20
3.394271080678034
 30
0.0
 11
2.253042282928287
 21
3.394271080678034
 31
0.0
  0
LINE
  5
AA7
330
1E
100
AcDbEntity
  8
3
100
AcDbLine
 10
-2.357193937544153
 20
8.169861631859138
 30
0.0
 11
-2.357193937544153
 21
3.573404938945751
 31
0.0
  0
LINE
  5
AA8
330
1E
100
AcDbEntity
  8
3
100
AcDbLine
 10
-2.522548268252814
 20
8.169861631859138
 30
0.0
 11
-2.522548268252814
 21
3.573404938945751
 31
0.0
  0
LINE
  5
AA9
330
1E
100
AcDbEntity
  8
3
100
AcDbLine
 10
2.253042282928287
 20
8.183641159418192
 30
0.0
 11
-2.34144590604809
 21
8.183641159418192
 31
0.0
  0
LINE
  5
AAA
330
1E
100
AcDbEntity
  8
3
100
AcDbLine
 10
-1.079634882426042
 20
4.473011238158349
 30
0.0
 11
-1.079634882426042
 21
7.270255332646538
 31
0.0
  0
LINE
  5
AAB
330
1E
100
AcDbEntity
  8
3
100
AcDbLine
 10
0.9931997632432487
 20
4.473011238158349
 30
0.0
 11
0.9931997632432487
 21
7.270255332646538
 31
0.0
  0
LINE
  5
AAC
330
1E
100
AcDbEntity
  8
3
100
AcDbLine
 10
-1.016642756441791
 20
7.33324745863079
 30
0.0
 11
-0.2292411816386419
 21
7.33324745863079
 31
0.0
  0
LINE
  5
AAD
330
1E
100
AcDbEntity
  8
3
100
AcDbLine
 10
-1.016642756441791
 20
4.411987616111106
 30
0.0
 11
-0.2292411816386419
 21
4.411987616111106
 31
0.0
  0
LINE
  5
AAE
330
1E
100
AcDbEntity
  8
3
100
AcDbLine
 10
0.9302076372589969
 20
4.411987616111106
 30
0.0
 11
0.1408375585188395
 21
4.411987616111106
 31
0.0
  0
LINE
  5
AAF
330
1E
100
AcDbEntity
  8
3
100
AcDbLine
 10
2.253042282928287
 20
8.348995490126855
 30
0.0
 11
2.253042282928287
 21
8.339152970441814
 31
0.0
  0
LINE
  5
AB0
330
1E
100
AcDbEntity
  8
3
100
AcDbLine
 10
-2.522548268252814
 20
8.169861631859138
 30
0.0
 11
-2.510737244630766
 21
8.169861631859138
 31
0.0
  0
LINE
  5
AB1
330
1E
100
AcDbEntity
  8
3
100
AcDbLine
 10
-2.34144590604809
 20
8.348995490126855
 30
0.0
 11
-2.34144590604809
 21
8.339152970441814
 31
0.0
  0
LINE
  5
AB2
330
1E
100
AcDbEntity
  8
3
100
AcDbLine
 10
-2.522548268252814
 20
3.573404938945751
 30
0.0
 11
-2.510737244630766
 21
3.573404938945751
 31
0.0
  0
LINE
  5
AB3
330
1E
100
AcDbEntity
  8
3
100
AcDbLine
 10
-2.34144590604809
 20
3.394271080678034
 30
0.0
 11
-2.34144590604809
 21
3.404113600363075
 31
0.0
  0
LINE
  5
AB4
330
1E
100
AcDbEntity
  8
3
100
AcDbLine
 10
2.434144645133012
 20
3.573404938945751
 30
0.0
 11
2.424302125447972
 21
3.573404938945751
 31
0.0
  0
LINE
  5
AB5
330
1E
100
AcDbEntity
  8
3
100
AcDbLine
 10
2.253042282928287
 20
3.394271080678034
 30
0.0
 11
2.253042282928287
 21
3.404113600363075
 31
0.0
  0
LINE
  5
AB6
330
1E
100
AcDbEntity
  8
3
100
AcDbLine
 10
2.26879031442435
 20
3.573404938945751
 30
0.0
 11
2.26879031442435
 21
8.169861631859138
 31
0.0
  0
LINE
  5
AB7
330
1E
100
AcDbEntity
  8
3
100
AcDbLine
 10
2.253042282928287
 20
8.348995490126855
 30
0.0
 11
-2.34144590604809
 21
8.348995490126855
 31
0.0
  0
LINE
  5
AB8
330
1E
100
AcDbEntity
  8
3
100
AcDbLine
 10
2.434144645133012
 20
8.169861631859138
 30
0.0
 11
2.424302125447972
 21
8.169861631859138
 31
0.0
  0
LINE
  5
AE6
330
1E
100
AcDbEntity
  8
3
100
AcDbLine
 10
0.7156407081251386
 20
7.512381316898506
 30
0.0
 11
0.7235147238731701
 21
7.465137222410318
 31
0.0
  0
LINE
  5
B6E
330
1E
100
AcDbEntity
  8
3
100
AcDbLine
 10
0.6369005506448238
 20
5.530097852331579
 30
0.0
 11
0.7018611805660831
 21
5.53797186807961
 31
0.0
  0
LINE
  5
BBA
330
1E
100
AcDbEntity
  8
3
100
AcDbLine
 10
1.920365117573957
 20
7.990727773591421
 30
0.0
 11
1.920365117573957
 21
7.992696277528429
 31
0.0
  0
LINE
  5
BBB
330
1E
100
AcDbEntity
  8
3
100
AcDbLine
 10
1.920365117573957
 20
7.992696277528429
 30
0.0
 11
1.918396613636949
 21
7.992696277528429
 31
0.0
  0
LINE
  5
BC6
330
1E
100
AcDbEntity
  8
3
100
AcDbLine
 10
1.957766692377107
 20
7.947420686977247
 30
0.0
 11
1.961703700251122
 21
7.939546671229216
 31
0.0
  0
LINE
  5
BC7
330
1E
100
AcDbEntity
  8
3
100
AcDbLine
 10
1.961703700251122
 20
7.939546671229216
 30
0.0
 11
1.969577715999154
 21
7.935609663355201
 31
0.0
  0
LINE
  5
D12
330
1E
100
AcDbEntity
  8
3
100
AcDbLine
 10
-0.8827844887252558
 20
7.476948246032366
 30
0.0
 11
-0.8749104729772243
 21
7.512381316898506
 31
0.0
  0
LINE
  5
DBD
330
1E
100
AcDbEntity
  8
3
100
AcDbLine
 10
1.729420235684193
 20
4.183641159418192
 30
0.0
 11
1.721546219936161
 21
4.221042734221342
 31
0.0
  0
LINE
  5
DBE
330
1E
100
AcDbEntity
  8
3
100
AcDbLine
 10
1.721546219936161
 20
4.221042734221342
 30
0.0
 11
1.695955668755059
 21
4.25057029327646
 31
0.0
  0
LINE
  5
DBF
330
1E
100
AcDbEntity
  8
3
100
AcDbLine
 10
1.695955668755059
 20
4.25057029327646
 30
0.0
 11
1.662491101825925
 21
4.268286828709531
 31
0.0
  0
LINE
  5
DC0
330
1E
100
AcDbEntity
  8
3
100
AcDbLine
 10
1.662491101825925
 20
4.268286828709531
 30
0.0
 11
1.623121023085768
 21
4.268286828709531
 31
0.0
  0
LINE
  5
DC1
330
1E
100
AcDbEntity
  8
3
100
AcDbLine
 10
1.623121023085768
 20
4.268286828709531
 30
0.0
 11
1.589656456156634
 21
4.25057029327646
 31
0.0
  0
LINE
  5
DC2
330
1E
100
AcDbEntity
  8
3
100
AcDbLine
 10
1.589656456156634
 20
4.25057029327646
 30
0.0
 11
1.564065904975532
 21
4.221042734221342
 31
0.0
  0
LINE
  5
DC3
330
1E
100
AcDbEntity
  8
3
100
AcDbLine
 10
1.564065904975532
 20
4.221042734221342
 30
0.0
 11
1.5561918892275
 21
4.183641159418192
 31
0.0
  0
LINE
  5
DC4
330
1E
100
AcDbEntity
  8
3
100
AcDbLine
 10
1.5561918892275
 20
4.183641159418192
 30
0.0
 11
1.564065904975532
 21
4.146239584615043
 31
0.0
  0
LINE
  5
DC5
330
1E
100
AcDbEntity
  8
3
100
AcDbLine
 10
1.564065904975532
 20
4.146239584615043
 30
0.0
 11
1.589656456156634
 21
4.116712025559925
 31
0.0
  0
LINE
  5
DC6
330
1E
100
AcDbEntity
  8
3
100
AcDbLine
 10
1.589656456156634
 20
4.116712025559925
 30
0.0
 11
1.623121023085768
 21
4.098995490126855
 31
0.0
  0
LINE
  5
DC7
330
1E
100
AcDbEntity
  8
3
100
AcDbLine
 10
1.623121023085768
 20
4.098995490126855
 30
0.0
 11
1.662491101825925
 21
4.098995490126855
 31
0.0
  0
LINE
  5
DC8
330
1E
100
AcDbEntity
  8
3
100
AcDbLine
 10
1.662491101825925
 20
4.098995490126855
 30
0.0
 11
1.695955668755059
 21
4.116712025559925
 31
0.0
  0
LINE
  5
DC9
330
1E
100
AcDbEntity
  8
3
100
AcDbLine
 10
1.695955668755059
 20
4.116712025559925
 30
0.0
 11
1.721546219936161
 21
4.146239584615043
 31
0.0
  0
LINE
  5
DCA
330
1E
100
AcDbEntity
  8
3
100
AcDbLine
 10
1.721546219936161
 20
4.146239584615043
 30
0.0
 11
1.729420235684193
 21
4.183641159418192
 31
0.0
  0
LINE
  5
DCB
330
1E
100
AcDbEntity
  8
3
100
AcDbLine
 10
-0.9064065359693502
 20
4.291908875953625
 30
0.0
 11
-0.9398711028984845
 21
4.305688403512681
 31
0.0
  0
LINE
  5
DCC
330
1E
100
AcDbEntity
  8
3
100
AcDbLine
 10
-0.9398711028984845
 20
4.305688403512681
 30
0.0
 11
-0.9753041737646253
 21
4.301751395638664
 31
0.0
  0
LINE
  5
DCD
330
1E
100
AcDbEntity
  8
3
100
AcDbLine
 10
-0.9753041737646253
 20
4.301751395638664
 30
0.0
 11
-1.004831732819743
 21
4.280097852331579
 31
0.0
  0
LINE
  5
DCE
330
1E
100
AcDbEntity
  8
3
100
AcDbLine
 10
-1.004831732819743
 20
4.280097852331579
 30
0.0
 11
-1.022548268252814
 21
4.248601789339453
 31
0.0
  0
LINE
  5
DCF
330
1E
100
AcDbEntity
  8
3
100
AcDbLine
 10
-1.022548268252814
 20
4.248601789339453
 30
0.0
 11
-1.022548268252814
 21
4.21316871847331
 31
0.0
  0
LINE
  5
DD0
330
1E
100
AcDbEntity
  8
3
100
AcDbLine
 10
-1.022548268252814
 20
4.21316871847331
 30
0.0
 11
-1.004831732819743
 21
4.181672655481184
 31
0.0
  0
LINE
  5
DD1
330
1E
100
AcDbEntity
  8
3
100
AcDbLine
 10
-1.004831732819743
 20
4.181672655481184
 30
0.0
 11
-0.9753041737646253
 21
4.160019112174097
 31
0.0
  0
LINE
  5
DD2
330
1E
100
AcDbEntity
  8
3
100
AcDbLine
 10
-0.9753041737646253
 20
4.160019112174097
 30
0.0
 11
-0.9398711028984845
 21
4.156082104300082
 31
0.0
  0
LINE
  5
DD3
330
1E
100
AcDbEntity
  8
3
100
AcDbLine
 10
-0.9398711028984845
 20
4.156082104300082
 30
0.0
 11
-0.9064065359693502
 21
4.169861631859138
 31
0.0
  0
LINE
  5
DD4
330
1E
100
AcDbEntity
  8
3
100
AcDbLine
 10
-0.9064065359693502
 20
4.169861631859138
 30
0.0
 11
-0.8827844887252558
 21
4.19545218304024
 31
0.0
  0
LINE
  5
DD5
330
1E
100
AcDbEntity
  8
3
100
AcDbLine
 10
-0.8827844887252558
 20
4.19545218304024
 30
0.0
 11
-0.8749104729772243
 21
4.230885253906381
 31
0.0
  0
LINE
  5
DD6
330
1E
100
AcDbEntity
  8
3
100
AcDbLine
 10
-0.8749104729772243
 20
4.230885253906381
 30
0.0
 11
-0.8827844887252558
 21
4.266318324772523
 31
0.0
  0
LINE
  5
DD7
330
1E
100
AcDbEntity
  8
3
100
AcDbLine
 10
-0.8827844887252558
 20
4.266318324772523
 30
0.0
 11
-0.9064065359693502
 21
4.291908875953625
 31
0.0
  0
LINE
  5
DD8
330
1E
100
AcDbEntity
  8
3
100
AcDbLine
 10
0.8888690545818311
 20
4.160019112174097
 30
0.0
 11
0.9183966136369496
 21
4.181672655481184
 31
0.0
  0
LINE
  5
DD9
330
1E
100
AcDbEntity
  8
3
100
AcDbLine
 10
0.9183966136369496
 20
4.181672655481184
 30
0.0
 11
0.93611314907002
 21
4.21316871847331
 31
0.0
  0
LINE
  5
DDA
330
1E
100
AcDbEntity
  8
3
100
AcDbLine
 10
0.93611314907002
 20
4.21316871847331
 30
0.0
 11
0.93611314907002
 21
4.248601789339453
 31
0.0
  0
LINE
  5
DDB
330
1E
100
AcDbEntity
  8
3
100
AcDbLine
 10
0.93611314907002
 20
4.248601789339453
 30
0.0
 11
0.9183966136369496
 21
4.280097852331579
 31
0.0
  0
LINE
  5
DDC
330
1E
100
AcDbEntity
  8
3
100
AcDbLine
 10
0.9183966136369496
 20
4.280097852331579
 30
0.0
 11
0.8888690545818311
 21
4.301751395638664
 31
0.0
  0
LINE
  5
DDD
330
1E
100
AcDbEntity
  8
3
100
AcDbLine
 10
0.8888690545818311
 20
4.301751395638664
 30
0.0
 11
0.8534359837156895
 21
4.305688403512681
 31
0.0
  0
LINE
  5
DDE
330
1E
100
AcDbEntity
  8
3
100
AcDbLine
 10
0.8534359837156895
 20
4.305688403512681
 30
0.0
 11
0.8199714167865561
 21
4.291908875953625
 31
0.0
  0
LINE
  5
DDF
330
1E
100
AcDbEntity
  8
3
100
AcDbLine
 10
0.8199714167865561
 20
4.291908875953625
 30
0.0
 11
0.7963493695424618
 21
4.266318324772523
 31
0.0
  0
LINE
  5
DE0
330
1E
100
AcDbEntity
  8
3
100
AcDbLine
 10
0.7963493695424618
 20
4.266318324772523
 30
0.0
 11
0.7884753537944303
 21
4.230885253906381
 31
0.0
  0
LINE
  5
DE1
330
1E
100
AcDbEntity
  8
3
100
AcDbLine
 10
0.7884753537944303
 20
4.230885253906381
 30
0.0
 11
0.7963493695424618
 21
4.19545218304024
 31
0.0
  0
LINE
  5
DE2
330
1E
100
AcDbEntity
  8
3
100
AcDbLine
 10
0.7963493695424618
 20
4.19545218304024
 30
0.0
 11
0.8199714167865561
 21
4.169861631859138
 31
0.0
  0
LINE
  5
DE3
330
1E
100
AcDbEntity
  8
3
100
AcDbLine
 10
0.8199714167865561
 20
4.169861631859138
 30
0.0
 11
0.8534359837156895
 21
4.156082104300082
 31
0.0
  0
LINE
  5
DE4
330
1E
100
AcDbEntity
  8
3
100
AcDbLine
 10
0.8534359837156895
 20
4.156082104300082
 30
0.0
 11
0.8888690545818311
 21
4.160019112174097
 31
0.0
  0
LINE
  5
DE5
330
1E
100
AcDbEntity
  8
3
100
AcDbLine
 10
-1.611130945418168
 20
4.947420686977247
 30
0.0
 11
-1.611130945418168
 21
4.98285375784339
 31
0.0
  0
LINE
  5
DE6
330
1E
100
AcDbEntity
  8
3
100
AcDbLine
 10
-1.611130945418168
 20
4.98285375784339
 30
0.0
 11
-1.62884748085124
 21
5.014349820835516
 31
0.0
  0
LINE
  5
DE7
330
1E
100
AcDbEntity
  8
3
100
AcDbLine
 10
-1.62884748085124
 20
5.014349820835516
 30
0.0
 11
-1.658375039906358
 21
5.036003364142601
 31
0.0
  0
LINE
  5
DE8
330
1E
100
AcDbEntity
  8
3
100
AcDbLine
 10
-1.658375039906358
 20
5.036003364142601
 30
0.0
 11
-1.693808110772499
 21
5.039940372016618
 31
0.0
  0
LINE
  5
DE9
330
1E
100
AcDbEntity
  8
3
100
AcDbLine
 10
-1.693808110772499
 20
5.039940372016618
 30
0.0
 11
-1.727272677701633
 21
5.026160844457562
 31
0.0
  0
LINE
  5
DEA
330
1E
100
AcDbEntity
  8
3
100
AcDbLine
 10
-1.727272677701633
 20
5.026160844457562
 30
0.0
 11
-1.750894724945728
 21
5.00057029327646
 31
0.0
  0
LINE
  5
DEB
330
1E
100
AcDbEntity
  8
3
100
AcDbLine
 10
-1.750894724945728
 20
5.00057029327646
 30
0.0
 11
-1.758768740693759
 21
4.965137222410318
 31
0.0
  0
LINE
  5
DEC
330
1E
100
AcDbEntity
  8
3
100
AcDbLine
 10
-1.758768740693759
 20
4.965137222410318
 30
0.0
 11
-1.750894724945728
 21
4.929704151544177
 31
0.0
  0
LINE
  5
DED
330
1E
100
AcDbEntity
  8
3
100
AcDbLine
 10
-1.750894724945728
 20
4.929704151544177
 30
0.0
 11
-1.727272677701633
 21
4.904113600363075
 31
0.0
  0
LINE
  5
DEE
330
1E
100
AcDbEntity
  8
3
100
AcDbLine
 10
-1.727272677701633
 20
4.904113600363075
 30
0.0
 11
-1.693808110772499
 21
4.890334072804019
 31
0.0
  0
LINE
  5
DEF
330
1E
100
AcDbEntity
  8
3
100
AcDbLine
 10
-1.693808110772499
 20
4.890334072804019
 30
0.0
 11
-1.658375039906358
 21
4.894271080678034
 31
0.0
  0
LINE
  5
DF0
330
1E
100
AcDbEntity
  8
3
100
AcDbLine
 10
-1.658375039906358
 20
4.894271080678034
 30
0.0
 11
-1.62884748085124
 21
4.915924623985121
 31
0.0
  0
LINE
  5
DF1
330
1E
100
AcDbEntity
  8
3
100
AcDbLine
 10
-1.62884748085124
 20
4.915924623985121
 30
0.0
 11
-1.611130945418168
 21
4.947420686977247
 31
0.0
  0
LINE
  5
DF2
330
1E
100
AcDbEntity
  8
3
100
AcDbLine
 10
-1.62884748085124
 20
5.921830135796145
 30
0.0
 11
-1.658375039906358
 21
5.943483679103232
 31
0.0
  0
LINE
  5
DF3
330
1E
100
AcDbEntity
  8
3
100
AcDbLine
 10
-1.658375039906358
 20
5.943483679103232
 30
0.0
 11
-1.693808110772499
 21
5.947420686977247
 31
0.0
  0
LINE
  5
DF4
330
1E
100
AcDbEntity
  8
3
100
AcDbLine
 10
-1.693808110772499
 20
5.947420686977247
 30
0.0
 11
-1.727272677701633
 21
5.933641159418192
 31
0.0
  0
LINE
  5
DF5
330
1E
100
AcDbEntity
  8
3
100
AcDbLine
 10
-1.727272677701633
 20
5.933641159418192
 30
0.0
 11
-1.750894724945728
 21
5.90805060823709
 31
0.0
  0
LINE
  5
DF6
330
1E
100
AcDbEntity
  8
3
100
AcDbLine
 10
-1.750894724945728
 20
5.90805060823709
 30
0.0
 11
-1.758768740693759
 21
5.872617537370949
 31
0.0
  0
LINE
  5
DF7
330
1E
100
AcDbEntity
  8
3
100
AcDbLine
 10
-1.758768740693759
 20
5.872617537370949
 30
0.0
 11
-1.750894724945728
 21
5.837184466504806
 31
0.0
  0
LINE
  5
DF8
330
1E
100
AcDbEntity
  8
3
100
AcDbLine
 10
-1.750894724945728
 20
5.837184466504806
 30
0.0
 11
-1.727272677701633
 21
5.811593915323705
 31
0.0
  0
LINE
  5
DF9
330
1E
100
AcDbEntity
  8
3
100
AcDbLine
 10
-1.727272677701633
 20
5.811593915323705
 30
0.0
 11
-1.693808110772499
 21
5.797814387764649
 31
0.0
  0
LINE
  5
DFA
330
1E
100
AcDbEntity
  8
3
100
AcDbLine
 10
-1.693808110772499
 20
5.797814387764649
 30
0.0
 11
-1.658375039906358
 21
5.801751395638664
 31
0.0
  0
LINE
  5
DFB
330
1E
100
AcDbEntity
  8
3
100
AcDbLine
 10
-1.658375039906358
 20
5.801751395638664
 30
0.0
 11
-1.62884748085124
 21
5.823404938945751
 31
0.0
  0
LINE
  5
DFC
330
1E
100
AcDbEntity
  8
3
100
AcDbLine
 10
-1.62884748085124
 20
5.823404938945751
 30
0.0
 11
-1.611130945418168
 21
5.854901001937877
 31
0.0
  0
LINE
  5
DFD
330
1E
100
AcDbEntity
  8
3
100
AcDbLine
 10
-1.611130945418168
 20
5.854901001937877
 30
0.0
 11
-1.611130945418168
 21
5.890334072804019
 31
0.0
  0
LINE
  5
DFE
330
1E
100
AcDbEntity
  8
3
100
AcDbLine
 10
-1.611130945418168
 20
5.890334072804019
 30
0.0
 11
-1.62884748085124
 21
5.921830135796145
 31
0.0
  0
LINE
  5
DFF
330
1E
100
AcDbEntity
  8
3
100
AcDbLine
 10
-1.693808110772499
 20
6.852932498000869
 30
0.0
 11
-1.727272677701633
 21
6.839152970441814
 31
0.0
  0
LINE
  5
E00
330
1E
100
AcDbEntity
  8
3
100
AcDbLine
 10
-1.727272677701633
 20
6.839152970441814
 30
0.0
 11
-1.750894724945728
 21
6.813562419260712
 31
0.0
  0
LINE
  5
E01
330
1E
100
AcDbEntity
  8
3
100
AcDbLine
 10
-1.750894724945728
 20
6.813562419260712
 30
0.0
 11
-1.758768740693759
 21
6.778129348394569
 31
0.0
  0
LINE
  5
E02
330
1E
100
AcDbEntity
  8
3
100
AcDbLine
 10
-1.758768740693759
 20
6.778129348394569
 30
0.0
 11
-1.750894724945728
 21
6.742696277528429
 31
0.0
  0
LINE
  5
E03
330
1E
100
AcDbEntity
  8
3
100
AcDbLine
 10
-1.750894724945728
 20
6.742696277528429
 30
0.0
 11
-1.727272677701633
 21
6.717105726347327
 31
0.0
  0
LINE
  5
E04
330
1E
100
AcDbEntity
  8
3
100
AcDbLine
 10
-1.727272677701633
 20
6.717105726347327
 30
0.0
 11
-1.693808110772499
 21
6.703326198788271
 31
0.0
  0
LINE
  5
E05
330
1E
100
AcDbEntity
  8
3
100
AcDbLine
 10
-1.693808110772499
 20
6.703326198788271
 30
0.0
 11
-1.658375039906358
 21
6.707263206662286
 31
0.0
  0
LINE
  5
E06
330
1E
100
AcDbEntity
  8
3
100
AcDbLine
 10
-1.658375039906358
 20
6.707263206662286
 30
0.0
 11
-1.62884748085124
 21
6.728916749969373
 31
0.0
  0
LINE
  5
E07
330
1E
100
AcDbEntity
  8
3
100
AcDbLine
 10
-1.62884748085124
 20
6.728916749969373
 30
0.0
 11
-1.611130945418168
 21
6.760412812961499
 31
0.0
  0
LINE
  5
E08
330
1E
100
AcDbEntity
  8
3
100
AcDbLine
 10
-1.611130945418168
 20
6.760412812961499
 30
0.0
 11
-1.611130945418168
 21
6.795845883827642
 31
0.0
  0
LINE
  5
E09
330
1E
100
AcDbEntity
  8
3
100
AcDbLine
 10
-1.611130945418168
 20
6.795845883827642
 30
0.0
 11
-1.62884748085124
 21
6.827341946819768
 31
0.0
  0
LINE
  5
E0A
330
1E
100
AcDbEntity
  8
3
100
AcDbLine
 10
-1.62884748085124
 20
6.827341946819768
 30
0.0
 11
-1.658375039906358
 21
6.848995490126855
 31
0.0
  0
LINE
  5
E0B
330
1E
100
AcDbEntity
  8
3
100
AcDbLine
 10
-1.658375039906358
 20
6.848995490126855
 30
0.0
 11
-1.693808110772499
 21
6.852932498000869
 31
0.0
  0
LINE
  5
E0C
330
1E
100
AcDbEntity
  8
3
100
AcDbLine
 10
-0.8749104729772243
 20
7.512381316898506
 30
0.0
 11
-0.8827844887252558
 21
7.547814387764649
 31
0.0
  0
LINE
  5
E0D
330
1E
100
AcDbEntity
  8
3
100
AcDbLine
 10
-0.8827844887252558
 20
7.547814387764649
 30
0.0
 11
-0.9064065359693502
 21
7.573404938945751
 31
0.0
  0
LINE
  5
E0E
330
1E
100
AcDbEntity
  8
3
100
AcDbLine
 10
-0.9064065359693502
 20
7.573404938945751
 30
0.0
 11
-0.9398711028984845
 21
7.587184466504806
 31
0.0
  0
LINE
  5
E0F
330
1E
100
AcDbEntity
  8
3
100
AcDbLine
 10
-0.9398711028984845
 20
7.587184466504806
 30
0.0
 11
-0.9753041737646253
 21
7.58324745863079
 31
0.0
  0
LINE
  5
E10
330
1E
100
AcDbEntity
  8
3
100
AcDbLine
 10
-0.9753041737646253
 20
7.58324745863079
 30
0.0
 11
-1.004831732819743
 21
7.561593915323705
 31
0.0
  0
LINE
  5
E11
330
1E
100
AcDbEntity
  8
3
100
AcDbLine
 10
-1.004831732819743
 20
7.561593915323705
 30
0.0
 11
-1.022548268252814
 21
7.530097852331579
 31
0.0
  0
LINE
  5
E12
330
1E
100
AcDbEntity
  8
3
100
AcDbLine
 10
-1.022548268252814
 20
7.530097852331579
 30
0.0
 11
-1.022548268252814
 21
7.494664781465436
 31
0.0
  0
LINE
  5
E13
330
1E
100
AcDbEntity
  8
3
100
AcDbLine
 10
-1.022548268252814
 20
7.494664781465436
 30
0.0
 11
-1.004831732819743
 21
7.46316871847331
 31
0.0
  0
LINE
  5
E14
330
1E
100
AcDbEntity
  8
3
100
AcDbLine
 10
-1.004831732819743
 20
7.46316871847331
 30
0.0
 11
-0.9753041737646253
 21
7.441515175166223
 31
0.0
  0
LINE
  5
E15
330
1E
100
AcDbEntity
  8
3
100
AcDbLine
 10
-0.9753041737646253
 20
7.441515175166223
 30
0.0
 11
-0.9398711028984845
 21
7.437578167292208
 31
0.0
  0
LINE
  5
E16
330
1E
100
AcDbEntity
  8
3
100
AcDbLine
 10
-0.9398711028984845
 20
7.437578167292208
 30
0.0
 11
-0.9064065359693502
 21
7.451357694851264
 31
0.0
  0
LINE
  5
E17
330
1E
100
AcDbEntity
  8
3
100
AcDbLine
 10
-0.9064065359693502
 20
7.451357694851264
 30
0.0
 11
-0.8827844887252558
 21
7.476948246032366
 31
0.0
  0
LINE
  5
E18
330
1E
100
AcDbEntity
  8
3
100
AcDbLine
 10
0.7884753537944303
 20
7.512381316898506
 30
0.0
 11
0.7963493695424618
 21
7.476948246032366
 31
0.0
  0
LINE
  5
E19
330
1E
100
AcDbEntity
  8
3
100
AcDbLine
 10
0.7963493695424618
 20
7.476948246032366
 30
0.0
 11
0.8199714167865561
 21
7.451357694851264
 31
0.0
  0
LINE
  5
E1A
330
1E
100
AcDbEntity
  8
3
100
AcDbLine
 10
0.8199714167865561
 20
7.451357694851264
 30
0.0
 11
0.8534359837156895
 21
7.437578167292208
 31
0.0
  0
LINE
  5
E1B
330
1E
100
AcDbEntity
  8
3
100
AcDbLine
 10
0.8534359837156895
 20
7.437578167292208
 30
0.0
 11
0.8888690545818311
 21
7.441515175166223
 31
0.0
  0
LINE
  5
E1C
330
1E
100
AcDbEntity
  8
3
100
AcDbLine
 10
0.8888690545818311
 20
7.441515175166223
 30
0.0
 11
0.9183966136369496
 21
7.46316871847331
 31
0.0
  0
LINE
  5
E1D
330
1E
100
AcDbEntity
  8
3
100
AcDbLine
 10
0.9183966136369496
 20
7.46316871847331
 30
0.0
 11
0.93611314907002
 21
7.494664781465436
 31
0.0
  0
LINE
  5
E1E
330
1E
100
AcDbEntity
  8
3
100
AcDbLine
 10
0.93611314907002
 20
7.494664781465436
 30
0.0
 11
0.93611314907002
 21
7.530097852331579
 31
0.0
  0
LINE
  5
E1F
330
1E
100
AcDbEntity
  8
3
100
AcDbLine
 10
0.93611314907002
 20
7.530097852331579
 30
0.0
 11
0.9183966136369496
 21
7.561593915323705
 31
0.0
  0
LINE
  5
E20
330
1E
100
AcDbEntity
  8
3
100
AcDbLine
 10
0.9183966136369496
 20
7.561593915323705
 30
0.0
 11
0.8888690545818311
 21
7.58324745863079
 31
0.0
  0
LINE
  5
E21
330
1E
100
AcDbEntity
  8
3
100
AcDbLine
 10
0.8888690545818311
 20
7.58324745863079
 30
0.0
 11
0.8534359837156895
 21
7.587184466504806
 31
0.0
  0
LINE
  5
E22
330
1E
100
AcDbEntity
  8
3
100
AcDbLine
 10
0.8534359837156895
 20
7.587184466504806
 30
0.0
 11
0.8199714167865561
 21
7.573404938945751
 31
0.0
  0
LINE
  5
E23
330
1E
100
AcDbEntity
  8
3
100
AcDbLine
 10
0.8199714167865561
 20
7.573404938945751
 30
0.0
 11
0.7963493695424618
 21
7.547814387764649
 31
0.0
  0
LINE
  5
E24
330
1E
100
AcDbEntity
  8
3
100
AcDbLine
 10
0.7963493695424618
 20
7.547814387764649
 30
0.0
 11
0.7884753537944303
 21
7.512381316898506
 31
0.0
  0
LINE
  5
E25
330
1E
100
AcDbEntity
  8
3
100
AcDbLine
 10
1.672333621510965
 20
5.872617537370949
 30
0.0
 11
1.664459605762933
 21
5.90805060823709
 31
0.0
  0
LINE
  5
E26
330
1E
100
AcDbEntity
  8
3
100
AcDbLine
 10
1.664459605762933
 20
5.90805060823709
 30
0.0
 11
1.640837558518839
 21
5.933641159418192
 31
0.0
  0
LINE
  5
E27
330
1E
100
AcDbEntity
  8
3
100
AcDbLine
 10
1.640837558518839
 20
5.933641159418192
 30
0.0
 11
1.607372991589705
 21
5.947420686977247
 31
0.0
  0
LINE
  5
E28
330
1E
100
AcDbEntity
  8
3
100
AcDbLine
 10
1.607372991589705
 20
5.947420686977247
 30
0.0
 11
1.571939920723563
 21
5.943483679103232
 31
0.0
  0
LINE
  5
E29
330
1E
100
AcDbEntity
  8
3
100
AcDbLine
 10
1.571939920723563
 20
5.943483679103232
 30
0.0
 11
1.542412361668445
 21
5.921830135796145
 31
0.0
  0
LINE
  5
E2A
330
1E
100
AcDbEntity
  8
3
100
AcDbLine
 10
1.542412361668445
 20
5.921830135796145
 30
0.0
 11
1.524695826235374
 21
5.890334072804019
 31
0.0
  0
LINE
  5
E2B
330
1E
100
AcDbEntity
  8
3
100
AcDbLine
 10
1.524695826235374
 20
5.890334072804019
 30
0.0
 11
1.524695826235374
 21
5.854901001937877
 31
0.0
  0
LINE
  5
E2C
330
1E
100
AcDbEntity
  8
3
100
AcDbLine
 10
1.524695826235374
 20
5.854901001937877
 30
0.0
 11
1.542412361668445
 21
5.823404938945751
 31
0.0
  0
LINE
  5
E2D
330
1E
100
AcDbEntity
  8
3
100
AcDbLine
 10
1.542412361668445
 20
5.823404938945751
 30
0.0
 11
1.571939920723563
 21
5.801751395638664
 31
0.0
  0
LINE
  5
E2E
330
1E
100
AcDbEntity
  8
3
100
AcDbLine
 10
1.571939920723563
 20
5.801751395638664
 30
0.0
 11
1.607372991589705
 21
5.797814387764649
 31
0.0
  0
LINE
  5
E2F
330
1E
100
AcDbEntity
  8
3
100
AcDbLine
 10
1.607372991589705
 20
5.797814387764649
 30
0.0
 11
1.640837558518839
 21
5.811593915323705
 31
0.0
  0
LINE
  5
E30
330
1E
100
AcDbEntity
  8
3
100
AcDbLine
 10
1.640837558518839
 20
5.811593915323705
 30
0.0
 11
1.664459605762933
 21
5.837184466504806
 31
0.0
  0
LINE
  5
E31
330
1E
100
AcDbEntity
  8
3
100
AcDbLine
 10
1.664459605762933
 20
5.837184466504806
 30
0.0
 11
1.672333621510965
 21
5.872617537370949
 31
0.0
  0
LINE
  5
E32
330
1E
100
AcDbEntity
  8
3
100
AcDbLine
 10
-1.678060079276436
 20
4.25057029327646
 30
0.0
 11
-1.71152464620557
 21
4.268286828709531
 31
0.0
  0
LINE
  5
E33
330
1E
100
AcDbEntity
  8
3
100
AcDbLine
 10
-1.71152464620557
 20
4.268286828709531
 30
0.0
 11
-1.750894724945728
 21
4.268286828709531
 31
0.0
  0
LINE
  5
E34
330
1E
100
AcDbEntity
  8
3
100
AcDbLine
 10
-1.750894724945728
 20
4.268286828709531
 30
0.0
 11
-1.784359291874862
 21
4.25057029327646
 31
0.0
  0
LINE
  5
E35
330
1E
100
AcDbEntity
  8
3
100
AcDbLine
 10
-1.784359291874862
 20
4.25057029327646
 30
0.0
 11
-1.809949843055964
 21
4.221042734221342
 31
0.0
  0
LINE
  5
E36
330
1E
100
AcDbEntity
  8
3
100
AcDbLine
 10
-1.809949843055964
 20
4.221042734221342
 30
0.0
 11
-1.817823858803995
 21
4.183641159418192
 31
0.0
  0
LINE
  5
E37
330
1E
100
AcDbEntity
  8
3
100
AcDbLine
 10
-1.817823858803995
 20
4.183641159418192
 30
0.0
 11
-1.809949843055964
 21
4.146239584615043
 31
0.0
  0
LINE
  5
E38
330
1E
100
AcDbEntity
  8
3
100
AcDbLine
 10
-1.809949843055964
 20
4.146239584615043
 30
0.0
 11
-1.784359291874862
 21
4.116712025559925
 31
0.0
  0
LINE
  5
E39
330
1E
100
AcDbEntity
  8
3
100
AcDbLine
 10
-1.784359291874862
 20
4.116712025559925
 30
0.0
 11
-1.750894724945728
 21
4.098995490126855
 31
0.0
  0
LINE
  5
E3A
330
1E
100
AcDbEntity
  8
3
100
AcDbLine
 10
-1.750894724945728
 20
4.098995490126855
 30
0.0
 11
-1.71152464620557
 21
4.098995490126855
 31
0.0
  0
LINE
  5
E3B
330
1E
100
AcDbEntity
  8
3
100
AcDbLine
 10
-1.71152464620557
 20
4.098995490126855
 30
0.0
 11
-1.678060079276436
 21
4.116712025559925
 31
0.0
  0
LINE
  5
E3C
330
1E
100
AcDbEntity
  8
3
100
AcDbLine
 10
-1.678060079276436
 20
4.116712025559925
 30
0.0
 11
-1.652469528095334
 21
4.146239584615043
 31
0.0
  0
LINE
  5
E3D
330
1E
100
AcDbEntity
  8
3
100
AcDbLine
 10
-1.652469528095334
 20
4.146239584615043
 30
0.0
 11
-1.644595512347303
 21
4.183641159418192
 31
0.0
  0
LINE
  5
E3E
330
1E
100
AcDbEntity
  8
3
100
AcDbLine
 10
-1.644595512347303
 20
4.183641159418192
 30
0.0
 11
-1.652469528095334
 21
4.221042734221342
 31
0.0
  0
LINE
  5
E3F
330
1E
100
AcDbEntity
  8
3
100
AcDbLine
 10
-1.652469528095334
 20
4.221042734221342
 30
0.0
 11
-1.678060079276436
 21
4.25057029327646
 31
0.0
  0
LINE
  5
E40
330
1E
100
AcDbEntity
  8
3
100
AcDbLine
 10
1.571939920723563
 20
5.036003364142601
 30
0.0
 11
1.542412361668445
 21
5.014349820835516
 31
0.0
  0
LINE
  5
E41
330
1E
100
AcDbEntity
  8
3
100
AcDbLine
 10
1.542412361668445
 20
5.014349820835516
 30
0.0
 11
1.524695826235374
 21
4.98285375784339
 31
0.0
  0
LINE
  5
E42
330
1E
100
AcDbEntity
  8
3
100
AcDbLine
 10
1.524695826235374
 20
4.98285375784339
 30
0.0
 11
1.524695826235374
 21
4.947420686977247
 31
0.0
  0
LINE
  5
E43
330
1E
100
AcDbEntity
  8
3
100
AcDbLine
 10
1.524695826235374
 20
4.947420686977247
 30
0.0
 11
1.542412361668445
 21
4.915924623985121
 31
0.0
  0
LINE
  5
E44
330
1E
100
AcDbEntity
  8
3
100
AcDbLine
 10
1.542412361668445
 20
4.915924623985121
 30
0.0
 11
1.571939920723563
 21
4.894271080678034
 31
0.0
  0
LINE
  5
E45
330
1E
100
AcDbEntity
  8
3
100
AcDbLine
 10
1.571939920723563
 20
4.894271080678034
 30
0.0
 11
1.607372991589705
 21
4.890334072804019
 31
0.0
  0
LINE
  5
E46
330
1E
100
AcDbEntity
  8
3
100
AcDbLine
 10
1.607372991589705
 20
4.890334072804019
 30
0.0
 11
1.640837558518839
 21
4.904113600363075
 31
0.0
  0
LINE
  5
E47
330
1E
100
AcDbEntity
  8
3
100
AcDbLine
 10
1.640837558518839
 20
4.904113600363075
 30
0.0
 11
1.664459605762933
 21
4.929704151544177
 31
0.0
  0
LINE
  5
E48
330
1E
100
AcDbEntity
  8
3
100
AcDbLine
 10
1.664459605762933
 20
4.929704151544177
 30
0.0
 11
1.672333621510965
 21
4.965137222410318
 31
0.0
  0
LINE
  5
E49
330
1E
100
AcDbEntity
  8
3
100
AcDbLine
 10
1.672333621510965
 20
4.965137222410318
 30
0.0
 11
1.664459605762933
 21
5.00057029327646
 31
0.0
  0
LINE
  5
E4A
330
1E
100
AcDbEntity
  8
3
100
AcDbLine
 10
1.664459605762933
 20
5.00057029327646
 30
0.0
 11
1.640837558518839
 21
5.026160844457562
 31
0.0
  0
LINE
  5
E4B
330
1E
100
AcDbEntity
  8
3
100
AcDbLine
 10
1.640837558518839
 20
5.026160844457562
 30
0.0
 11
1.607372991589705
 21
5.039940372016618
 31
0.0
  0
LINE
  5
E4C
330
1E
100
AcDbEntity
  8
3
100
AcDbLine
 10
1.607372991589705
 20
5.039940372016618
 30
0.0
 11
1.571939920723563
 21
5.036003364142601
 31
0.0
  0
LINE
  5
E4D
330
1E
100
AcDbEntity
  8
3
100
AcDbLine
 10
1.524695826235374
 20
6.795845883827642
 30
0.0
 11
1.524695826235374
 21
6.760412812961499
 31
0.0
  0
LINE
  5
E4E
330
1E
100
AcDbEntity
  8
3
100
AcDbLine
 10
1.524695826235374
 20
6.760412812961499
 30
0.0
 11
1.542412361668445
 21
6.728916749969373
 31
0.0
  0
LINE
  5
E4F
330
1E
100
AcDbEntity
  8
3
100
AcDbLine
 10
1.542412361668445
 20
6.728916749969373
 30
0.0
 11
1.571939920723563
 21
6.707263206662286
 31
0.0
  0
LINE
  5
E50
330
1E
100
AcDbEntity
  8
3
100
AcDbLine
 10
1.571939920723563
 20
6.707263206662286
 30
0.0
 11
1.607372991589705
 21
6.703326198788271
 31
0.0
  0
LINE
  5
E51
330
1E
100
AcDbEntity
  8
3
100
AcDbLine
 10
1.607372991589705
 20
6.703326198788271
 30
0.0
 11
1.640837558518839
 21
6.717105726347327
 31
0.0
  0
LINE
  5
E52
330
1E
100
AcDbEntity
  8
3
100
AcDbLine
 10
1.640837558518839
 20
6.717105726347327
 30
0.0
 11
1.664459605762933
 21
6.742696277528429
 31
0.0
  0
LINE
  5
E53
330
1E
100
AcDbEntity
  8
3
100
AcDbLine
 10
1.664459605762933
 20
6.742696277528429
 30
0.0
 11
1.672333621510965
 21
6.778129348394569
 31
0.0
  0
LINE
  5
E54
330
1E
100
AcDbEntity
  8
3
100
AcDbLine
 10
1.672333621510965
 20
6.778129348394569
 30
0.0
 11
1.664459605762933
 21
6.813562419260712
 31
0.0
  0
LINE
  5
E55
330
1E
100
AcDbEntity
  8
3
100
AcDbLine
 10
1.664459605762933
 20
6.813562419260712
 30
0.0
 11
1.640837558518839
 21
6.839152970441814
 31
0.0
  0
LINE
  5
E56
330
1E
100
AcDbEntity
  8
3
100
AcDbLine
 10
1.640837558518839
 20
6.839152970441814
 30
0.0
 11
1.607372991589705
 21
6.852932498000869
 31
0.0
  0
LINE
  5
E57
330
1E
100
AcDbEntity
  8
3
100
AcDbLine
 10
1.607372991589705
 20
6.852932498000869
 30
0.0
 11
1.571939920723563
 21
6.848995490126855
 31
0.0
  0
LINE
  5
E58
330
1E
100
AcDbEntity
  8
3
100
AcDbLine
 10
1.571939920723563
 20
6.848995490126855
 30
0.0
 11
1.542412361668445
 21
6.827341946819768
 31
0.0
  0
LINE
  5
E59
330
1E
100
AcDbEntity
  8
3
100
AcDbLine
 10
1.542412361668445
 20
6.827341946819768
 30
0.0
 11
1.524695826235374
 21
6.795845883827642
 31
0.0
  0
LINE
  5
E5A
330
1E
100
AcDbEntity
  8
3
100
AcDbLine
 10
-1.784359291874862
 20
7.492696277528429
 30
0.0
 11
-1.750894724945728
 21
7.474979742095358
 31
0.0
  0
LINE
  5
E5B
330
1E
100
AcDbEntity
  8
3
100
AcDbLine
 10
-1.750894724945728
 20
7.474979742095358
 30
0.0
 11
-1.71152464620557
 21
7.474979742095358
 31
0.0
  0
LINE
  5
E5C
330
1E
100
AcDbEntity
  8
3
100
AcDbLine
 10
-1.71152464620557
 20
7.474979742095358
 30
0.0
 11
-1.678060079276436
 21
7.492696277528429
 31
0.0
  0
LINE
  5
E5D
330
1E
100
AcDbEntity
  8
3
100
AcDbLine
 10
-1.678060079276436
 20
7.492696277528429
 30
0.0
 11
-1.652469528095334
 21
7.522223836583547
 31
0.0
  0
LINE
  5
E5E
330
1E
100
AcDbEntity
  8
3
100
AcDbLine
 10
-1.652469528095334
 20
7.522223836583547
 30
0.0
 11
-1.644595512347303
 21
7.559625411386695
 31
0.0
  0
LINE
  5
E5F
330
1E
100
AcDbEntity
  8
3
100
AcDbLine
 10
-1.644595512347303
 20
7.559625411386695
 30
0.0
 11
-1.652469528095334
 21
7.597026986189845
 31
0.0
  0
LINE
  5
E60
330
1E
100
AcDbEntity
  8
3
100
AcDbLine
 10
-1.652469528095334
 20
7.597026986189845
 30
0.0
 11
-1.678060079276436
 21
7.626554545244964
 31
0.0
  0
LINE
  5
E61
330
1E
100
AcDbEntity
  8
3
100
AcDbLine
 10
-1.678060079276436
 20
7.626554545244964
 30
0.0
 11
-1.71152464620557
 21
7.644271080678034
 31
0.0
  0
LINE
  5
E62
330
1E
100
AcDbEntity
  8
3
100
AcDbLine
 10
-1.71152464620557
 20
7.644271080678034
 30
0.0
 11
-1.750894724945728
 21
7.644271080678034
 31
0.0
  0
LINE
  5
E63
330
1E
100
AcDbEntity
  8
3
100
AcDbLine
 10
-1.750894724945728
 20
7.644271080678034
 30
0.0
 11
-1.784359291874862
 21
7.626554545244964
 31
0.0
  0
LINE
  5
E64
330
1E
100
AcDbEntity
  8
3
100
AcDbLine
 10
-1.784359291874862
 20
7.626554545244964
 30
0.0
 11
-1.809949843055964
 21
7.597026986189845
 31
0.0
  0
LINE
  5
E65
330
1E
100
AcDbEntity
  8
3
100
AcDbLine
 10
-1.809949843055964
 20
7.597026986189845
 30
0.0
 11
-1.817823858803995
 21
7.559625411386695
 31
0.0
  0
LINE
  5
E66
330
1E
100
AcDbEntity
  8
3
100
AcDbLine
 10
-1.817823858803995
 20
7.559625411386695
 30
0.0
 11
-1.809949843055964
 21
7.522223836583547
 31
0.0
  0
LINE
  5
E67
330
1E
100
AcDbEntity
  8
3
100
AcDbLine
 10
-1.809949843055964
 20
7.522223836583547
 30
0.0
 11
-1.784359291874862
 21
7.492696277528429
 31
0.0
  0
LINE
  5
E68
330
1E
100
AcDbEntity
  8
3
100
AcDbLine
 10
1.695955668755059
 20
7.492696277528429
 30
0.0
 11
1.721546219936161
 21
7.522223836583547
 31
0.0
  0
LINE
  5
E69
330
1E
100
AcDbEntity
  8
3
100
AcDbLine
 10
1.721546219936161
 20
7.522223836583547
 30
0.0
 11
1.729420235684193
 21
7.559625411386695
 31
0.0
  0
LINE
  5
E6A
330
1E
100
AcDbEntity
  8
3
100
AcDbLine
 10
1.729420235684193
 20
7.559625411386695
 30
0.0
 11
1.721546219936161
 21
7.597026986189845
 31
0.0
  0
LINE
  5
E6B
330
1E
100
AcDbEntity
  8
3
100
AcDbLine
 10
1.721546219936161
 20
7.597026986189845
 30
0.0
 11
1.695955668755059
 21
7.626554545244964
 31
0.0
  0
LINE
  5
E6C
330
1E
100
AcDbEntity
  8
3
100
AcDbLine
 10
1.695955668755059
 20
7.626554545244964
 30
0.0
 11
1.662491101825925
 21
7.644271080678034
 31
0.0
  0
LINE
  5
E6D
330
1E
100
AcDbEntity
  8
3
100
AcDbLine
 10
1.662491101825925
 20
7.644271080678034
 30
0.0
 11
1.623121023085768
 21
7.644271080678034
 31
0.0
  0
LINE
  5
E6E
330
1E
100
AcDbEntity
  8
3
100
AcDbLine
 10
1.623121023085768
 20
7.644271080678034
 30
0.0
 11
1.589656456156634
 21
7.626554545244964
 31
0.0
  0
LINE
  5
E6F
330
1E
100
AcDbEntity
  8
3
100
AcDbLine
 10
1.589656456156634
 20
7.626554545244964
 30
0.0
 11
1.564065904975532
 21
7.597026986189845
 31
0.0
  0
LINE
  5
E70
330
1E
100
AcDbEntity
  8
3
100
AcDbLine
 10
1.564065904975532
 20
7.597026986189845
 30
0.0
 11
1.5561918892275
 21
7.559625411386695
 31
0.0
  0
LINE
  5
E71
330
1E
100
AcDbEntity
  8
3
100
AcDbLine
 10
1.5561918892275
 20
7.559625411386695
 30
0.0
 11
1.564065904975532
 21
7.522223836583547
 31
0.0
  0
LINE
  5
E72
330
1E
100
AcDbEntity
  8
3
100
AcDbLine
 10
1.564065904975532
 20
7.522223836583547
 30
0.0
 11
1.589656456156634
 21
7.492696277528429
 31
0.0
  0
LINE
  5
E73
330
1E
100
AcDbEntity
  8
3
100
AcDbLine
 10
1.589656456156634
 20
7.492696277528429
 30
0.0
 11
1.623121023085768
 21
7.474979742095358
 31
0.0
  0
LINE
  5
E74
330
1E
100
AcDbEntity
  8
3
100
AcDbLine
 10
1.623121023085768
 20
7.474979742095358
 30
0.0
 11
1.662491101825925
 21
7.474979742095358
 31
0.0
  0
LINE
  5
E75
330
1E
100
AcDbEntity
  8
3
100
AcDbLine
 10
1.662491101825925
 20
7.474979742095358
 30
0.0
 11
1.695955668755059
 21
7.492696277528429
 31
0.0
  0
LINE
  5
E76
330
1E
100
AcDbEntity
  8
3
100
AcDbLine
 10
-0.1426270084102956
 20
4.372617537370949
 30
0.0
 11
-0.1130994493551762
 21
4.352932498000869
 31
0.0
  0
LINE
  5
E77
330
1E
100
AcDbEntity
  8
3
100
AcDbLine
 10
-0.1130994493551762
 20
4.352932498000869
 30
0.0
 11
-0.0756978745520272
 21
4.352932498000869
 31
0.0
  0
LINE
  5
E78
330
1E
100
AcDbEntity
  8
3
100
AcDbLine
 10
0.1408375585188395
 20
4.410019112174097
 30
0.0
 11
0.0955619679676581
 21
4.400176592489058
 31
0.0
  0
LINE
  5
E79
330
1E
100
AcDbEntity
  8
3
100
AcDbLine
 10
0.0955619679676581
 20
4.400176592489058
 30
0.0
 11
0.0561918892275006
 21
4.372617537370949
 31
0.0
  0
LINE
  5
E7A
330
1E
100
AcDbEntity
  8
3
100
AcDbLine
 10
-0.0127057485677753
 20
4.352932498000869
 30
0.0
 11
0.0246958262353747
 21
4.352932498000869
 31
0.0
  0
LINE
  5
E7B
330
1E
100
AcDbEntity
  8
3
100
AcDbLine
 10
0.0246958262353747
 20
4.352932498000869
 30
0.0
 11
0.0542233852904932
 21
4.372617537370949
 31
0.0
  0
LINE
  5
E7C
330
1E
100
AcDbEntity
  8
3
100
AcDbLine
 10
-0.1445955123473031
 20
4.372617537370949
 30
0.0
 11
-0.1839655910874605
 21
4.400176592489058
 31
0.0
  0
LINE
  5
E7D
330
1E
100
AcDbEntity
  8
3
100
AcDbLine
 10
-0.1839655910874605
 20
4.400176592489058
 30
0.0
 11
-0.2292411816386419
 21
4.410019112174097
 31
0.0
  0
LINE
  5
E7E
330
1E
100
AcDbEntity
  8
3
100
AcDbLine
 10
0.9302076372589969
 20
4.411987616111106
 30
0.0
 11
0.9597351963141145
 21
4.419861631859138
 31
0.0
  0
LINE
  5
E7F
330
1E
100
AcDbEntity
  8
3
100
AcDbLine
 10
0.9597351963141145
 20
4.419861631859138
 30
0.0
 11
0.9833572435582089
 21
4.441515175166223
 31
0.0
  0
LINE
  5
E80
330
1E
100
AcDbEntity
  8
3
100
AcDbLine
 10
0.9833572435582089
 20
4.441515175166223
 30
0.0
 11
0.9912312593062404
 21
4.473011238158349
 31
0.0
  0
LINE
  5
E81
330
1E
100
AcDbEntity
  8
3
100
AcDbLine
 10
-1.077666378489034
 20
4.473011238158349
 30
0.0
 11
-1.069792362741003
 21
4.443483679103232
 31
0.0
  0
LINE
  5
E82
330
1E
100
AcDbEntity
  8
3
100
AcDbLine
 10
-1.069792362741003
 20
4.443483679103232
 30
0.0
 11
-1.048138819433916
 21
4.419861631859138
 31
0.0
  0
LINE
  5
E83
330
1E
100
AcDbEntity
  8
3
100
AcDbLine
 10
-1.048138819433916
 20
4.419861631859138
 30
0.0
 11
-1.016642756441791
 21
4.411987616111106
 31
0.0
  0
LINE
  5
E84
330
1E
100
AcDbEntity
  8
3
100
AcDbLine
 10
-0.2292411816386419
 20
7.33324745863079
 30
0.0
 11
-0.1839655910874605
 21
7.34308997831583
 31
0.0
  0
LINE
  5
E85
330
1E
100
AcDbEntity
  8
3
100
AcDbLine
 10
-0.1839655910874605
 20
7.34308997831583
 30
0.0
 11
-0.1445955123473031
 21
7.37064903343394
 31
0.0
  0
LINE
  5
E86
330
1E
100
AcDbEntity
  8
3
100
AcDbLine
 10
-0.0756978745520272
 20
7.390334072804019
 30
0.0
 11
-0.1130994493551762
 21
7.390334072804019
 31
0.0
  0
LINE
  5
E87
330
1E
100
AcDbEntity
  8
3
100
AcDbLine
 10
-0.1130994493551762
 20
7.390334072804019
 30
0.0
 11
-0.1426270084102956
 21
7.37064903343394
 31
0.0
  0
LINE
  5
E88
330
1E
100
AcDbEntity
  8
3
100
AcDbLine
 10
-0.0756978745520272
 20
7.392302576741027
 30
0.0
 11
-0.0442018115599012
 21
7.388365568867012
 31
0.0
  0
LINE
  5
E89
330
1E
100
AcDbEntity
  8
3
100
AcDbLine
 10
-0.0442018115599012
 20
7.388365568867012
 30
0.0
 11
-0.0127057485677753
 21
7.392302576741027
 31
0.0
  0
LINE
  5
E8A
330
1E
100
AcDbEntity
  8
3
100
AcDbLine
 10
0.0542233852904932
 20
7.37064903343394
 30
0.0
 11
0.0246958262353747
 21
7.390334072804019
 31
0.0
  0
LINE
  5
E8B
330
1E
100
AcDbEntity
  8
3
100
AcDbLine
 10
0.0246958262353747
 20
7.390334072804019
 30
0.0
 11
-0.0127057485677753
 21
7.390334072804019
 31
0.0
  0
LINE
  5
E8C
330
1E
100
AcDbEntity
  8
3
100
AcDbLine
 10
0.0561918892275006
 20
7.37064903343394
 30
0.0
 11
0.0955619679676581
 21
7.34308997831583
 31
0.0
  0
LINE
  5
E8D
330
1E
100
AcDbEntity
  8
3
100
AcDbLine
 10
0.0955619679676581
 20
7.34308997831583
 30
0.0
 11
0.1408375585188395
 21
7.33324745863079
 31
0.0
  0
LINE
  5
E8E
330
1E
100
AcDbEntity
  8
3
100
AcDbLine
 10
-0.0127057485677753
 20
4.350963994063862
 30
0.0
 11
-0.0442018115599012
 21
4.354901001937877
 31
0.0
  0
LINE
  5
E8F
330
1E
100
AcDbEntity
  8
3
100
AcDbLine
 10
-0.0442018115599012
 20
4.354901001937877
 30
0.0
 11
-0.0756978745520272
 21
4.350963994063862
 31
0.0
  0
LINE
  5
E90
330
1E
100
AcDbEntity
  8
3
100
AcDbLine
 10
2.253042282928287
 20
8.183641159418192
 30
0.0
 11
2.253042282928287
 21
8.240727773591421
 31
0.0
  0
LINE
  5
E91
330
1E
100
AcDbEntity
  8
3
100
AcDbLine
 10
2.253042282928287
 20
8.240727773591421
 30
0.0
 11
2.253042282928287
 21
8.289940372016618
 31
0.0
  0
LINE
  5
E92
330
1E
100
AcDbEntity
  8
3
100
AcDbLine
 10
2.253042282928287
 20
8.289940372016618
 30
0.0
 11
2.253042282928287
 21
8.323404938945751
 31
0.0
  0
LINE
  5
E93
330
1E
100
AcDbEntity
  8
3
100
AcDbLine
 10
2.253042282928287
 20
8.323404938945751
 30
0.0
 11
2.253042282928287
 21
8.339152970441814
 31
0.0
  0
LINE
  5
E94
330
1E
100
AcDbEntity
  8
3
100
AcDbLine
 10
2.26879031442435
 20
3.573404938945751
 30
0.0
 11
2.325876928597579
 21
3.573404938945751
 31
0.0
  0
LINE
  5
E95
330
1E
100
AcDbEntity
  8
3
100
AcDbLine
 10
2.325876928597579
 20
3.573404938945751
 30
0.0
 11
2.373121023085768
 21
3.573404938945751
 31
0.0
  0
LINE
  5
E96
330
1E
100
AcDbEntity
  8
3
100
AcDbLine
 10
2.373121023085768
 20
3.573404938945751
 30
0.0
 11
2.408554093951909
 21
3.573404938945751
 31
0.0
  0
LINE
  5
E97
330
1E
100
AcDbEntity
  8
3
100
AcDbLine
 10
2.408554093951909
 20
3.573404938945751
 30
0.0
 11
2.424302125447972
 21
3.573404938945751
 31
0.0
  0
LINE
  5
E98
330
1E
100
AcDbEntity
  8
3
100
AcDbLine
 10
2.253042282928287
 20
3.559625411386697
 30
0.0
 11
2.262884802613327
 21
3.563562419260712
 31
0.0
  0
LINE
  5
E99
330
1E
100
AcDbEntity
  8
3
100
AcDbLine
 10
2.262884802613327
 20
3.563562419260712
 30
0.0
 11
2.266821810487343
 21
3.573404938945751
 31
0.0
  0
LINE
  5
E9A
330
1E
100
AcDbEntity
  8
3
100
AcDbLine
 10
2.253042282928287
 20
3.559625411386697
 30
0.0
 11
2.253042282928287
 21
3.502538797213468
 31
0.0
  0
LINE
  5
E9B
330
1E
100
AcDbEntity
  8
3
100
AcDbLine
 10
2.253042282928287
 20
3.502538797213468
 30
0.0
 11
2.253042282928287
 21
3.453326198788271
 31
0.0
  0
LINE
  5
E9C
330
1E
100
AcDbEntity
  8
3
100
AcDbLine
 10
2.253042282928287
 20
3.453326198788271
 30
0.0
 11
2.253042282928287
 21
3.419861631859138
 31
0.0
  0
LINE
  5
E9D
330
1E
100
AcDbEntity
  8
3
100
AcDbLine
 10
2.253042282928287
 20
3.419861631859138
 30
0.0
 11
2.253042282928287
 21
3.404113600363075
 31
0.0
  0
LINE
  5
E9E
330
1E
100
AcDbEntity
  8
3
100
AcDbLine
 10
-1.016642756441791
 20
7.331278954693782
 30
0.0
 11
-1.046170315496908
 21
7.323404938945751
 31
0.0
  0
LINE
  5
E9F
330
1E
100
AcDbEntity
  8
3
100
AcDbLine
 10
-1.046170315496908
 20
7.323404938945751
 30
0.0
 11
-1.069792362741003
 21
7.301751395638664
 31
0.0
  0
LINE
  5
EA0
330
1E
100
AcDbEntity
  8
3
100
AcDbLine
 10
-1.069792362741003
 20
7.301751395638664
 30
0.0
 11
-1.077666378489034
 21
7.270255332646538
 31
0.0
  0
LINE
  5
EA1
330
1E
100
AcDbEntity
  8
3
100
AcDbLine
 10
-2.355225433607145
 20
3.573404938945751
 30
0.0
 11
-2.351288425733129
 21
3.563562419260712
 31
0.0
  0
LINE
  5
EA2
330
1E
100
AcDbEntity
  8
3
100
AcDbLine
 10
-2.351288425733129
 20
3.563562419260712
 30
0.0
 11
-2.34144590604809
 21
3.559625411386697
 31
0.0
  0
LINE
  5
EA3
330
1E
100
AcDbEntity
  8
3
100
AcDbLine
 10
0.9912312593062404
 20
7.270255332646538
 30
0.0
 11
0.9833572435582089
 21
7.299782891701656
 31
0.0
  0
LINE
  5
EA4
330
1E
100
AcDbEntity
  8
3
100
AcDbLine
 10
0.9833572435582089
 20
7.299782891701656
 30
0.0
 11
0.9617037002511228
 21
7.323404938945751
 31
0.0
  0
LINE
  5
EA5
330
1E
100
AcDbEntity
  8
3
100
AcDbLine
 10
0.9617037002511228
 20
7.323404938945751
 30
0.0
 11
0.9302076372589969
 21
7.331278954693782
 31
0.0
  0
LINE
  5
EA6
330
1E
100
AcDbEntity
  8
3
100
AcDbLine
 10
2.266821810487343
 20
8.169861631859138
 30
0.0
 11
2.262884802613327
 21
8.179704151544177
 31
0.0
  0
LINE
  5
EA7
330
1E
100
AcDbEntity
  8
3
100
AcDbLine
 10
2.262884802613327
 20
8.179704151544177
 30
0.0
 11
2.253042282928287
 21
8.183641159418192
 31
0.0
  0
LINE
  5
EA8
330
1E
100
AcDbEntity
  8
3
100
AcDbLine
 10
-2.34144590604809
 20
8.183641159418192
 30
0.0
 11
-2.34144590604809
 21
8.240727773591421
 31
0.0
  0
LINE
  5
EA9
330
1E
100
AcDbEntity
  8
3
100
AcDbLine
 10
-2.34144590604809
 20
8.240727773591421
 30
0.0
 11
-2.34144590604809
 21
8.289940372016618
 31
0.0
  0
LINE
  5
EAA
330
1E
100
AcDbEntity
  8
3
100
AcDbLine
 10
-2.34144590604809
 20
8.289940372016618
 30
0.0
 11
-2.34144590604809
 21
8.323404938945751
 31
0.0
  0
LINE
  5
EAB
330
1E
100
AcDbEntity
  8
3
100
AcDbLine
 10
-2.34144590604809
 20
8.323404938945751
 30
0.0
 11
-2.34144590604809
 21
8.339152970441814
 31
0.0
  0
LINE
  5
EAC
330
1E
100
AcDbEntity
  8
3
100
AcDbLine
 10
-2.357193937544153
 20
8.169861631859138
 30
0.0
 11
-2.412312047780373
 21
8.169861631859138
 31
0.0
  0
LINE
  5
EAD
330
1E
100
AcDbEntity
  8
3
100
AcDbLine
 10
-2.412312047780373
 20
8.169861631859138
 30
0.0
 11
-2.46152464620557
 21
8.169861631859138
 31
0.0
  0
LINE
  5
EAE
330
1E
100
AcDbEntity
  8
3
100
AcDbLine
 10
-2.46152464620557
 20
8.169861631859138
 30
0.0
 11
-2.494989213134704
 21
8.169861631859138
 31
0.0
  0
LINE
  5
EAF
330
1E
100
AcDbEntity
  8
3
100
AcDbLine
 10
-2.494989213134704
 20
8.169861631859138
 30
0.0
 11
-2.510737244630766
 21
8.169861631859138
 31
0.0
  0
LINE
  5
EB0
330
1E
100
AcDbEntity
  8
3
100
AcDbLine
 10
-2.34144590604809
 20
8.183641159418192
 30
0.0
 11
-2.351288425733129
 21
8.179704151544177
 31
0.0
  0
LINE
  5
EB1
330
1E
100
AcDbEntity
  8
3
100
AcDbLine
 10
-2.351288425733129
 20
8.179704151544177
 30
0.0
 11
-2.355225433607145
 21
8.169861631859138
 31
0.0
  0
LINE
  5
EB2
330
1E
100
AcDbEntity
  8
3
100
AcDbLine
 10
-2.34144590604809
 20
3.559625411386697
 30
0.0
 11
-2.34144590604809
 21
3.502538797213468
 31
0.0
  0
LINE
  5
EB3
330
1E
100
AcDbEntity
  8
3
100
AcDbLine
 10
-2.34144590604809
 20
3.502538797213468
 30
0.0
 11
-2.34144590604809
 21
3.453326198788271
 31
0.0
  0
LINE
  5
EB4
330
1E
100
AcDbEntity
  8
3
100
AcDbLine
 10
-2.34144590604809
 20
3.453326198788271
 30
0.0
 11
-2.34144590604809
 21
3.419861631859138
 31
0.0
  0
LINE
  5
EB5
330
1E
100
AcDbEntity
  8
3
100
AcDbLine
 10
-2.34144590604809
 20
3.419861631859138
 30
0.0
 11
-2.34144590604809
 21
3.404113600363075
 31
0.0
  0
LINE
  5
EB6
330
1E
100
AcDbEntity
  8
3
100
AcDbLine
 10
-2.357193937544153
 20
3.573404938945751
 30
0.0
 11
-2.412312047780373
 21
3.573404938945751
 31
0.0
  0
LINE
  5
EB7
330
1E
100
AcDbEntity
  8
3
100
AcDbLine
 10
-2.412312047780373
 20
3.573404938945751
 30
0.0
 11
-2.46152464620557
 21
3.573404938945751
 31
0.0
  0
LINE
  5
EB8
330
1E
100
AcDbEntity
  8
3
100
AcDbLine
 10
-2.46152464620557
 20
3.573404938945751
 30
0.0
 11
-2.494989213134704
 21
3.573404938945751
 31
0.0
  0
LINE
  5
EB9
330
1E
100
AcDbEntity
  8
3
100
AcDbLine
 10
-2.494989213134704
 20
3.573404938945751
 30
0.0
 11
-2.510737244630766
 21
3.573404938945751
 31
0.0
  0
LINE
  5
EBA
330
1E
100
AcDbEntity
  8
3
100
AcDbLine
 10
2.26879031442435
 20
8.169861631859138
 30
0.0
 11
2.325876928597579
 21
8.169861631859138
 31
0.0
  0
LINE
  5
EBB
330
1E
100
AcDbEntity
  8
3
100
AcDbLine
 10
2.325876928597579
 20
8.169861631859138
 30
0.0
 11
2.373121023085768
 21
8.169861631859138
 31
0.0
  0
LINE
  5
EBC
330
1E
100
AcDbEntity
  8
3
100
AcDbLine
 10
2.373121023085768
 20
8.169861631859138
 30
0.0
 11
2.408554093951909
 21
8.169861631859138
 31
0.0
  0
LINE
  5
EBD
330
1E
100
AcDbEntity
  8
3
100
AcDbLine
 10
2.408554093951909
 20
8.169861631859138
 30
0.0
 11
2.424302125447972
 21
8.169861631859138
 31
0.0
  0
LINE
  5
EBE
330
1E
100
AcDbEntity
  8
3
100
AcDbLine
 10
1.743199763243248
 20
7.967105726347327
 30
0.0
 11
1.75107377899128
 21
7.967105726347327
 31
0.0
  0
LINE
  5
EBF
330
1E
100
AcDbEntity
  8
3
100
AcDbLine
 10
1.75107377899128
 20
7.967105726347327
 30
0.0
 11
1.756979290802303
 21
7.971042734221342
 31
0.0
  0
LINE
  5
EC0
330
1E
100
AcDbEntity
  8
3
100
AcDbLine
 10
1.731388739621201
 20
8.012381316898506
 30
0.0
 11
1.729420235684193
 21
8.014349820835516
 31
0.0
  0
LINE
  5
EC1
330
1E
100
AcDbEntity
  8
3
100
AcDbLine
 10
1.729420235684193
 20
8.014349820835516
 30
0.0
 11
1.727451731747185
 21
8.016318324772523
 31
0.0
  0
LINE
  5
EC2
330
1E
100
AcDbEntity
  8
3
100
AcDbLine
 10
1.727451731747185
 20
7.98285375784339
 30
0.0
 11
1.729420235684193
 21
7.984822261780397
 31
0.0
  0
LINE
  5
EC3
330
1E
100
AcDbEntity
  8
3
100
AcDbLine
 10
1.729420235684193
 20
7.984822261780397
 30
0.0
 11
1.731388739621201
 21
7.986790765717405
 31
0.0
  0
LINE
  5
EC4
330
1E
100
AcDbEntity
  8
3
100
AcDbLine
 10
1.774695826235374
 20
8.010412812961499
 30
0.0
 11
1.762884802613327
 21
8.028129348394569
 31
0.0
  0
LINE
  5
EC5
330
1E
100
AcDbEntity
  8
3
100
AcDbLine
 10
1.762884802613327
 20
8.028129348394569
 30
0.0
 11
1.743199763243248
 21
8.034034860205593
 31
0.0
  0
LINE
  5
EC6
330
1E
100
AcDbEntity
  8
3
100
AcDbLine
 10
1.632963542770808
 20
7.90805060823709
 30
0.0
 11
1.634932046707815
 21
7.902145096426066
 31
0.0
  0
LINE
  5
EC7
330
1E
100
AcDbEntity
  8
3
100
AcDbLine
 10
1.634932046707815
 20
7.902145096426066
 30
0.0
 11
1.640837558518839
 21
7.900176592489058
 31
0.0
  0
LINE
  5
EC8
330
1E
100
AcDbEntity
  8
3
100
AcDbLine
 10
2.144774566392855
 20
7.900176592489058
 30
0.0
 11
2.150680078203878
 21
7.902145096426066
 31
0.0
  0
LINE
  5
EC9
330
1E
100
AcDbEntity
  8
3
100
AcDbLine
 10
2.150680078203878
 20
7.902145096426066
 30
0.0
 11
2.152648582140886
 21
7.90805060823709
 31
0.0
  0
LINE
  5
ECA
330
1E
100
AcDbEntity
  8
3
100
AcDbLine
 10
2.152648582140886
 20
8.061593915323705
 30
0.0
 11
2.150680078203878
 21
8.067499427134727
 31
0.0
  0
LINE
  5
ECB
330
1E
100
AcDbEntity
  8
3
100
AcDbLine
 10
2.150680078203878
 20
8.067499427134727
 30
0.0
 11
2.144774566392855
 21
8.069467931071736
 31
0.0
  0
LINE
  5
ECC
330
1E
100
AcDbEntity
  8
3
100
AcDbLine
 10
1.640837558518839
 20
8.069467931071736
 30
0.0
 11
1.634932046707815
 21
8.067499427134727
 31
0.0
  0
LINE
  5
ECD
330
1E
100
AcDbEntity
  8
3
100
AcDbLine
 10
1.634932046707815
 20
8.067499427134727
 30
0.0
 11
1.632963542770808
 21
8.061593915323705
 31
0.0
  0
LINE
  5
ECE
330
1E
100
AcDbEntity
  8
3
100
AcDbLine
 10
1.918396613636949
 20
7.953326198788271
 30
0.0
 11
1.920365117573957
 21
7.953326198788271
 31
0.0
  0
LINE
  5
ECF
330
1E
100
AcDbEntity
  8
3
100
AcDbLine
 10
1.920365117573957
 20
7.953326198788271
 30
0.0
 11
1.920365117573957
 21
7.955294702725279
 31
0.0
  0
LINE
  5
ED0
330
1E
100
AcDbEntity
  8
3
100
AcDbLine
 10
1.932176141196004
 20
7.935609663355201
 30
0.0
 11
1.940050156944035
 21
7.939546671229216
 31
0.0
  0
LINE
  5
ED1
330
1E
100
AcDbEntity
  8
3
100
AcDbLine
 10
1.940050156944035
 20
7.939546671229216
 30
0.0
 11
1.943987164818051
 21
7.947420686977247
 31
0.0
  0
LINE
  5
ED2
330
1E
100
AcDbEntity
  8
3
100
AcDbLine
 10
1.943987164818051
 20
7.996633285402444
 30
0.0
 11
1.940050156944035
 21
8.004507301150475
 31
0.0
  0
LINE
  5
ED3
330
1E
100
AcDbEntity
  8
3
100
AcDbLine
 10
1.940050156944035
 20
8.004507301150475
 30
0.0
 11
1.932176141196004
 21
8.008444309024492
 31
0.0
  0
LINE
  5
ED4
330
1E
100
AcDbEntity
  8
3
100
AcDbLine
 10
1.997136771117264
 20
7.935609663355201
 30
0.0
 11
2.005010786865295
 21
7.939546671229216
 31
0.0
  0
LINE
  5
ED5
330
1E
100
AcDbEntity
  8
3
100
AcDbLine
 10
2.005010786865295
 20
7.939546671229216
 30
0.0
 11
2.008947794739311
 21
7.947420686977247
 31
0.0
  0
LINE
  5
ED6
330
1E
100
AcDbEntity
  8
3
100
AcDbLine
 10
1.99123125930624
 20
7.953326198788271
 30
0.0
 11
1.993199763243248
 21
7.953326198788271
 31
0.0
  0
LINE
  5
ED7
330
1E
100
AcDbEntity
  8
3
100
AcDbLine
 10
1.993199763243248
 20
7.953326198788271
 30
0.0
 11
1.993199763243248
 21
7.955294702725279
 31
0.0
  0
LINE
  5
ED8
330
1E
100
AcDbEntity
  8
3
100
AcDbLine
 10
1.983357243558208
 20
7.955294702725279
 30
0.0
 11
1.983357243558208
 21
7.953326198788271
 31
0.0
  0
LINE
  5
ED9
330
1E
100
AcDbEntity
  8
3
100
AcDbLine
 10
1.983357243558208
 20
7.953326198788271
 30
0.0
 11
1.985325747495217
 21
7.953326198788271
 31
0.0
  0
LINE
  5
EDA
330
1E
100
AcDbEntity
  8
3
100
AcDbLine
 10
-0.7233356698276179
 20
6.03797186807961
 30
0.0
 11
-0.7607372446307679
 21
6.028129348394569
 31
0.0
  0
LINE
  5
EDB
330
1E
100
AcDbEntity
  8
3
100
AcDbLine
 10
-0.7607372446307679
 20
6.028129348394569
 30
0.0
 11
-0.7882962997488772
 21
6.00057029327646
 31
0.0
  0
LINE
  5
EDC
330
1E
100
AcDbEntity
  8
3
100
AcDbLine
 10
-0.7882962997488772
 20
6.00057029327646
 30
0.0
 11
-0.798138819433917
 21
5.96316871847331
 31
0.0
  0
LINE
  5
EDD
330
1E
100
AcDbEntity
  8
3
100
AcDbLine
 10
-0.9733356698276178
 20
5.780097852331579
 30
0.0
 11
-0.9654616540795863
 21
5.715137222410318
 31
0.0
  0
LINE
  5
EDE
330
1E
100
AcDbEntity
  8
3
100
AcDbLine
 10
-0.9654616540795863
 20
5.715137222410318
 30
0.0
 11
-0.9398711028984845
 21
5.656082104300082
 31
0.0
  0
LINE
  5
EDF
330
1E
100
AcDbEntity
  8
3
100
AcDbLine
 10
-0.9398711028984845
 20
5.656082104300082
 30
0.0
 11
-0.9005010241583271
 21
5.602932498000869
 31
0.0
  0
LINE
  5
EE0
330
1E
100
AcDbEntity
  8
3
100
AcDbLine
 10
-0.9005010241583271
 20
5.602932498000869
 30
0.0
 11
-0.8493199217961215
 21
5.563562419260712
 31
0.0
  0
LINE
  5
EE1
330
1E
100
AcDbEntity
  8
3
100
AcDbLine
 10
-0.8493199217961215
 20
5.563562419260712
 30
0.0
 11
-0.7882962997488772
 21
5.53797186807961
 31
0.0
  0
LINE
  5
EE2
330
1E
100
AcDbEntity
  8
3
100
AcDbLine
 10
-0.7882962997488772
 20
5.53797186807961
 30
0.0
 11
-0.7233356698276179
 21
5.530097852331579
 31
0.0
  0
LINE
  5
EE3
330
1E
100
AcDbEntity
  8
3
100
AcDbLine
 10
-0.798138819433917
 20
5.780097852331579
 30
0.0
 11
-0.7882962997488772
 21
5.742696277528429
 31
0.0
  0
LINE
  5
EE4
330
1E
100
AcDbEntity
  8
3
100
AcDbLine
 10
-0.7882962997488772
 20
5.742696277528429
 30
0.0
 11
-0.7607372446307679
 21
5.715137222410318
 31
0.0
  0
LINE
  5
EE5
330
1E
100
AcDbEntity
  8
3
100
AcDbLine
 10
-0.7607372446307679
 20
5.715137222410318
 30
0.0
 11
-0.7233356698276179
 21
5.705294702725279
 31
0.0
  0
LINE
  5
EE6
330
1E
100
AcDbEntity
  8
3
100
AcDbLine
 10
0.6369005506448238
 20
5.705294702725279
 30
0.0
 11
0.6743021254479729
 21
5.715137222410318
 31
0.0
  0
LINE
  5
EE7
330
1E
100
AcDbEntity
  8
3
100
AcDbLine
 10
0.6743021254479729
 20
5.715137222410318
 30
0.0
 11
0.7018611805660831
 21
5.742696277528429
 31
0.0
  0
LINE
  5
EE8
330
1E
100
AcDbEntity
  8
3
100
AcDbLine
 10
0.7018611805660831
 20
5.742696277528429
 30
0.0
 11
0.7117037002511229
 21
5.780097852331579
 31
0.0
  0
LINE
  5
EE9
330
1E
100
AcDbEntity
  8
3
100
AcDbLine
 10
0.7117037002511229
 20
5.96316871847331
 30
0.0
 11
0.7018611805660831
 21
6.00057029327646
 31
0.0
  0
LINE
  5
EEA
330
1E
100
AcDbEntity
  8
3
100
AcDbLine
 10
0.7018611805660831
 20
6.00057029327646
 30
0.0
 11
0.6743021254479729
 21
6.028129348394569
 31
0.0
  0
LINE
  5
EEB
330
1E
100
AcDbEntity
  8
3
100
AcDbLine
 10
0.6743021254479729
 20
6.028129348394569
 30
0.0
 11
0.6369005506448238
 21
6.03797186807961
 31
0.0
  0
LINE
  5
EEC
330
1E
100
AcDbEntity
  8
3
100
AcDbLine
 10
0.8869005506448237
 20
5.96316871847331
 30
0.0
 11
0.8790265348967922
 21
6.028129348394569
 31
0.0
  0
LINE
  5
EED
330
1E
100
AcDbEntity
  8
3
100
AcDbLine
 10
0.8790265348967922
 20
6.028129348394569
 30
0.0
 11
0.8534359837156895
 21
6.087184466504806
 31
0.0
  0
LINE
  5
EEE
330
1E
100
AcDbEntity
  8
3
100
AcDbLine
 10
0.8534359837156895
 20
6.087184466504806
 30
0.0
 11
0.8140659049755321
 21
6.140334072804019
 31
0.0
  0
LINE
  5
EEF
330
1E
100
AcDbEntity
  8
3
100
AcDbLine
 10
0.8140659049755321
 20
6.140334072804019
 30
0.0
 11
0.7628848026133275
 21
6.179704151544177
 31
0.0
  0
LINE
  5
EF0
330
1E
100
AcDbEntity
  8
3
100
AcDbLine
 10
0.7628848026133275
 20
6.179704151544177
 30
0.0
 11
0.7018611805660831
 21
6.205294702725279
 31
0.0
  0
LINE
  5
EF1
330
1E
100
AcDbEntity
  8
3
100
AcDbLine
 10
0.7018611805660831
 20
6.205294702725279
 30
0.0
 11
0.6369005506448238
 21
6.21316871847331
 31
0.0
  0
LINE
  5
EF2
330
1E
100
AcDbEntity
  8
3
100
AcDbLine
 10
0.7018611805660831
 20
5.53797186807961
 30
0.0
 11
0.7609162986763192
 21
5.563562419260712
 31
0.0
  0
LINE
  5
EF3
330
1E
100
AcDbEntity
  8
3
100
AcDbLine
 10
0.7609162986763192
 20
5.563562419260712
 30
0.0
 11
0.8140659049755321
 21
5.602932498000869
 31
0.0
  0
LINE
  5
EF4
330
1E
100
AcDbEntity
  8
3
100
AcDbLine
 10
0.8140659049755321
 20
5.602932498000869
 30
0.0
 11
0.8534359837156895
 21
5.654113600363075
 31
0.0
  0
LINE
  5
EF5
330
1E
100
AcDbEntity
  8
3
100
AcDbLine
 10
0.8534359837156895
 20
5.654113600363075
 30
0.0
 11
0.8790265348967922
 21
5.715137222410318
 31
0.0
  0
LINE
  5
EF6
330
1E
100
AcDbEntity
  8
3
100
AcDbLine
 10
0.8790265348967922
 20
5.715137222410318
 30
0.0
 11
0.8869005506448237
 21
5.780097852331579
 31
0.0
  0
LINE
  5
EF7
330
1E
100
AcDbEntity
  8
3
100
AcDbLine
 10
-0.7233356698276179
 20
6.21316871847331
 30
0.0
 11
-0.7882962997488772
 21
6.205294702725279
 31
0.0
  0
LINE
  5
EF8
330
1E
100
AcDbEntity
  8
3
100
AcDbLine
 10
-0.7882962997488772
 20
6.205294702725279
 30
0.0
 11
-0.8473514178591141
 21
6.179704151544177
 31
0.0
  0
LINE
  5
EF9
330
1E
100
AcDbEntity
  8
3
100
AcDbLine
 10
-0.8473514178591141
 20
6.179704151544177
 30
0.0
 11
-0.9005010241583271
 21
6.140334072804019
 31
0.0
  0
LINE
  5
EFA
330
1E
100
AcDbEntity
  8
3
100
AcDbLine
 10
-0.9005010241583271
 20
6.140334072804019
 30
0.0
 11
-0.9398711028984845
 21
6.089152970441814
 31
0.0
  0
LINE
  5
EFB
330
1E
100
AcDbEntity
  8
3
100
AcDbLine
 10
-0.9398711028984845
 20
6.089152970441814
 30
0.0
 11
-0.9654616540795863
 21
6.028129348394569
 31
0.0
  0
LINE
  5
EFC
330
1E
100
AcDbEntity
  8
3
100
AcDbLine
 10
-0.9654616540795863
 20
6.028129348394569
 30
0.0
 11
-0.9733356698276178
 21
5.96316871847331
 31
0.0
  0
LINE
  5
EFD
330
1E
100
AcDbEntity
  8
3
100
AcDbLine
 10
-2.520579764315806
 20
3.573404938945751
 30
0.0
 11
-2.512705748567775
 21
3.518286828709531
 31
0.0
  0
LINE
  5
EFE
330
1E
100
AcDbEntity
  8
3
100
AcDbLine
 10
-2.512705748567775
 20
3.518286828709531
 30
0.0
 11
-2.487115197386672
 21
3.469074230284334
 31
0.0
  0
LINE
  5
EFF
330
1E
100
AcDbEntity
  8
3
100
AcDbLine
 10
-2.487115197386672
 20
3.469074230284334
 30
0.0
 11
-2.445776614709506
 21
3.427735647607169
 31
0.0
  0
LINE
  5
F00
330
1E
100
AcDbEntity
  8
3
100
AcDbLine
 10
-2.445776614709506
 20
3.427735647607169
 30
0.0
 11
-2.39656401628431
 21
3.402145096426066
 31
0.0
  0
LINE
  5
F01
330
1E
100
AcDbEntity
  8
3
100
AcDbLine
 10
-2.39656401628431
 20
3.402145096426066
 30
0.0
 11
-2.34144590604809
 21
3.394271080678034
 31
0.0
  0
LINE
  5
F02
330
1E
100
AcDbEntity
  8
3
100
AcDbLine
 10
2.253042282928287
 20
3.394271080678034
 30
0.0
 11
2.308160393164508
 21
3.402145096426066
 31
0.0
  0
LINE
  5
F03
330
1E
100
AcDbEntity
  8
3
100
AcDbLine
 10
2.308160393164508
 20
3.402145096426066
 30
0.0
 11
2.357372991589705
 21
3.427735647607169
 31
0.0
  0
LINE
  5
F04
330
1E
100
AcDbEntity
  8
3
100
AcDbLine
 10
2.357372991589705
 20
3.427735647607169
 30
0.0
 11
2.39871157426687
 21
3.469074230284334
 31
0.0
  0
LINE
  5
F05
330
1E
100
AcDbEntity
  8
3
100
AcDbLine
 10
2.39871157426687
 20
3.469074230284334
 30
0.0
 11
2.424302125447972
 21
3.518286828709531
 31
0.0
  0
LINE
  5
F06
330
1E
100
AcDbEntity
  8
3
100
AcDbLine
 10
2.424302125447972
 20
3.518286828709531
 30
0.0
 11
2.432176141196004
 21
3.573404938945751
 31
0.0
  0
LINE
  5
F07
330
1E
100
AcDbEntity
  8
3
100
AcDbLine
 10
2.432176141196004
 20
8.169861631859138
 30
0.0
 11
2.424302125447972
 21
8.224979742095358
 31
0.0
  0
LINE
  5
F08
330
1E
100
AcDbEntity
  8
3
100
AcDbLine
 10
2.424302125447972
 20
8.224979742095358
 30
0.0
 11
2.39871157426687
 21
8.274192340520555
 31
0.0
  0
LINE
  5
F09
330
1E
100
AcDbEntity
  8
3
100
AcDbLine
 10
2.39871157426687
 20
8.274192340520555
 30
0.0
 11
2.357372991589705
 21
8.315530923197719
 31
0.0
  0
LINE
  5
F0A
330
1E
100
AcDbEntity
  8
3
100
AcDbLine
 10
2.357372991589705
 20
8.315530923197719
 30
0.0
 11
2.308160393164508
 21
8.341121474378821
 31
0.0
  0
LINE
  5
F0B
330
1E
100
AcDbEntity
  8
3
100
AcDbLine
 10
2.308160393164508
 20
8.341121474378821
 30
0.0
 11
2.253042282928287
 21
8.348995490126855
 31
0.0
  0
LINE
  5
F0C
330
1E
100
AcDbEntity
  8
3
100
AcDbLine
 10
-2.487115197386672
 20
8.274192340520555
 30
0.0
 11
-2.512705748567775
 21
8.224979742095358
 31
0.0
  0
LINE
  5
F0D
330
1E
100
AcDbEntity
  8
3
100
AcDbLine
 10
-2.512705748567775
 20
8.224979742095358
 30
0.0
 11
-2.520579764315806
 21
8.169861631859138
 31
0.0
  0
LINE
  5
F0E
330
1E
100
AcDbEntity
  8
3
100
AcDbLine
 10
-2.34144590604809
 20
8.348995490126855
 30
0.0
 11
-2.39656401628431
 21
8.341121474378821
 31
0.0
  0
LINE
  5
F0F
330
1E
100
AcDbEntity
  8
3
100
AcDbLine
 10
-2.39656401628431
 20
8.341121474378821
 30
0.0
 11
-2.445776614709506
 21
8.315530923197719
 31
0.0
  0
LINE
  5
F10
330
1E
100
AcDbEntity
  8
3
100
AcDbLine
 10
-2.445776614709506
 20
8.315530923197719
 30
0.0
 11
-2.487115197386672
 21
8.274192340520555
 31
0.0
  0
LINE
  5
F11
330
1E
100
AcDbEntity
  8
3
100
AcDbLine
 10
-1.050107323370925
 20
4.122617537370949
 30
0.0
 11
-1.008768740693759
 21
4.095058482252838
 31
0.0
  0
LINE
  5
F12
330
1E
100
AcDbEntity
  8
3
100
AcDbLine
 10
-1.008768740693759
 20
4.095058482252838
 30
0.0
 11
-0.9615246462055706
 21
4.083247458630792
 31
0.0
  0
LINE
  5
F13
330
1E
100
AcDbEntity
  8
3
100
AcDbLine
 10
-0.9615246462055706
 20
4.083247458630792
 30
0.0
 11
-0.9142805517173817
 21
4.087184466504806
 31
0.0
  0
LINE
  5
F14
330
1E
100
AcDbEntity
  8
3
100
AcDbLine
 10
-0.9142805517173817
 20
4.087184466504806
 30
0.0
 11
-0.8690049611662002
 21
4.106869505874886
 31
0.0
  0
LINE
  5
F15
330
1E
100
AcDbEntity
  8
3
100
AcDbLine
 10
-0.8690049611662002
 20
4.106869505874886
 30
0.0
 11
-0.8335718903000586
 21
4.140334072804019
 31
0.0
  0
LINE
  5
F16
330
1E
100
AcDbEntity
  8
3
100
AcDbLine
 10
-0.8335718903000586
 20
4.140334072804019
 30
0.0
 11
-0.8099498430559641
 21
4.183641159418192
 31
0.0
  0
LINE
  5
F17
330
1E
100
AcDbEntity
  8
3
100
AcDbLine
 10
-0.8099498430559641
 20
4.183641159418192
 30
0.0
 11
-0.8020758273079326
 21
4.230885253906381
 31
0.0
  0
LINE
  5
F18
330
1E
100
AcDbEntity
  8
3
100
AcDbLine
 10
-0.8020758273079326
 20
4.230885253906381
 30
0.0
 11
-0.8099498430559641
 21
4.278129348394569
 31
0.0
  0
LINE
  5
F19
330
1E
100
AcDbEntity
  8
3
100
AcDbLine
 10
-0.8099498430559641
 20
4.278129348394569
 30
0.0
 11
-0.8335718903000586
 21
4.321436435008743
 31
0.0
  0
LINE
  5
F1A
330
1E
100
AcDbEntity
  8
3
100
AcDbLine
 10
-0.8335718903000586
 20
4.321436435008743
 30
0.0
 11
-0.8690049611662002
 21
4.354901001937877
 31
0.0
  0
LINE
  5
F1B
330
1E
100
AcDbEntity
  8
3
100
AcDbLine
 10
-0.8690049611662002
 20
4.354901001937877
 30
0.0
 11
-0.9142805517173817
 21
4.374586041307956
 31
0.0
  0
LINE
  5
F1C
330
1E
100
AcDbEntity
  8
3
100
AcDbLine
 10
-0.9142805517173817
 20
4.374586041307956
 30
0.0
 11
-0.9615246462055706
 21
4.378523049181971
 31
0.0
  0
LINE
  5
F1D
330
1E
100
AcDbEntity
  8
3
100
AcDbLine
 10
-0.9615246462055706
 20
4.378523049181971
 30
0.0
 11
-1.008768740693759
 21
4.366712025559925
 31
0.0
  0
LINE
  5
F1E
330
1E
100
AcDbEntity
  8
3
100
AcDbLine
 10
-1.008768740693759
 20
4.366712025559925
 30
0.0
 11
-1.050107323370925
 21
4.339152970441814
 31
0.0
  0
LINE
  5
F1F
330
1E
100
AcDbEntity
  8
3
100
AcDbLine
 10
-1.050107323370925
 20
4.339152970441814
 30
0.0
 11
-1.079634882426042
 21
4.301751395638664
 31
0.0
  0
LINE
  5
F20
330
1E
100
AcDbEntity
  8
3
100
AcDbLine
 10
-1.079634882426042
 20
4.301751395638664
 30
0.0
 11
-1.095382913922105
 21
4.254507301150475
 31
0.0
  0
LINE
  5
F21
330
1E
100
AcDbEntity
  8
3
100
AcDbLine
 10
-1.095382913922105
 20
4.254507301150475
 30
0.0
 11
-1.095382913922105
 21
4.207263206662286
 31
0.0
  0
LINE
  5
F22
330
1E
100
AcDbEntity
  8
3
100
AcDbLine
 10
-1.095382913922105
 20
4.207263206662286
 30
0.0
 11
-1.079634882426042
 21
4.160019112174097
 31
0.0
  0
LINE
  5
F23
330
1E
100
AcDbEntity
  8
3
100
AcDbLine
 10
-1.079634882426042
 20
4.160019112174097
 30
0.0
 11
-1.050107323370925
 21
4.122617537370949
 31
0.0
  0
LINE
  5
F24
330
1E
100
AcDbEntity
  8
3
100
AcDbLine
 10
-0.1288474808512401
 20
4.230885253906381
 30
0.0
 11
-0.1209734651032086
 21
4.193483679103232
 31
0.0
  0
LINE
  5
F25
330
1E
100
AcDbEntity
  8
3
100
AcDbLine
 10
-0.1209734651032086
 20
4.193483679103232
 30
0.0
 11
-0.0973514178591133
 21
4.163956120048114
 31
0.0
  0
LINE
  5
F26
330
1E
100
AcDbEntity
  8
3
100
AcDbLine
 10
-0.0973514178591133
 20
4.163956120048114
 30
0.0
 11
-0.0638868509299799
 21
4.148208088552051
 31
0.0
  0
LINE
  5
F27
330
1E
100
AcDbEntity
  8
3
100
AcDbLine
 10
-0.0638868509299799
 20
4.148208088552051
 30
0.0
 11
-0.0245167721898225
 21
4.148208088552051
 31
0.0
  0
LINE
  5
F28
330
1E
100
AcDbEntity
  8
3
100
AcDbLine
 10
-0.0245167721898225
 20
4.148208088552051
 30
0.0
 11
0.0089477947393117
 21
4.163956120048114
 31
0.0
  0
LINE
  5
F29
330
1E
100
AcDbEntity
  8
3
100
AcDbLine
 10
0.0089477947393117
 20
4.163956120048114
 30
0.0
 11
0.0325698419834062
 21
4.193483679103232
 31
0.0
  0
LINE
  5
F2A
330
1E
100
AcDbEntity
  8
3
100
AcDbLine
 10
0.0325698419834062
 20
4.193483679103232
 30
0.0
 11
0.0404438577314377
 21
4.230885253906381
 31
0.0
  0
LINE
  5
F2B
330
1E
100
AcDbEntity
  8
3
100
AcDbLine
 10
0.0404438577314377
 20
4.230885253906381
 30
0.0
 11
0.0325698419834062
 21
4.268286828709531
 31
0.0
  0
LINE
  5
F2C
330
1E
100
AcDbEntity
  8
3
100
AcDbLine
 10
0.0325698419834062
 20
4.268286828709531
 30
0.0
 11
0.0089477947393117
 21
4.297814387764649
 31
0.0
  0
LINE
  5
F2D
330
1E
100
AcDbEntity
  8
3
100
AcDbLine
 10
0.0089477947393117
 20
4.297814387764649
 30
0.0
 11
-0.0245167721898225
 21
4.313562419260712
 31
0.0
  0
LINE
  5
F2E
330
1E
100
AcDbEntity
  8
3
100
AcDbLine
 10
-0.0245167721898225
 20
4.313562419260712
 30
0.0
 11
-0.0638868509299799
 21
4.313562419260712
 31
0.0
  0
LINE
  5
F2F
330
1E
100
AcDbEntity
  8
3
100
AcDbLine
 10
-0.0638868509299799
 20
4.313562419260712
 30
0.0
 11
-0.0973514178591133
 21
4.297814387764649
 31
0.0
  0
LINE
  5
F30
330
1E
100
AcDbEntity
  8
3
100
AcDbLine
 10
-0.0973514178591133
 20
4.297814387764649
 30
0.0
 11
-0.1209734651032086
 21
4.268286828709531
 31
0.0
  0
LINE
  5
F31
330
1E
100
AcDbEntity
  8
3
100
AcDbLine
 10
-0.1209734651032086
 20
4.268286828709531
 30
0.0
 11
-0.1288474808512401
 21
4.230885253906381
 31
0.0
  0
LINE
  5
F32
330
1E
100
AcDbEntity
  8
3
100
AcDbLine
 10
0.9931997632432487
 20
4.160019112174097
 30
0.0
 11
1.008947794739311
 21
4.207263206662286
 31
0.0
  0
LINE
  5
F33
330
1E
100
AcDbEntity
  8
3
100
AcDbLine
 10
1.008947794739311
 20
4.207263206662286
 30
0.0
 11
1.008947794739311
 21
4.254507301150475
 31
0.0
  0
LINE
  5
F34
330
1E
100
AcDbEntity
  8
3
100
AcDbLine
 10
1.008947794739311
 20
4.254507301150475
 30
0.0
 11
0.9931997632432487
 21
4.301751395638664
 31
0.0
  0
LINE
  5
F35
330
1E
100
AcDbEntity
  8
3
100
AcDbLine
 10
0.9931997632432487
 20
4.301751395638664
 30
0.0
 11
0.9636722041881302
 21
4.339152970441814
 31
0.0
  0
LINE
  5
F36
330
1E
100
AcDbEntity
  8
3
100
AcDbLine
 10
0.9636722041881302
 20
4.339152970441814
 30
0.0
 11
0.9223336215109654
 21
4.366712025559925
 31
0.0
  0
LINE
  5
F37
330
1E
100
AcDbEntity
  8
3
100
AcDbLine
 10
0.9223336215109654
 20
4.366712025559925
 30
0.0
 11
0.8750895270227765
 21
4.378523049181971
 31
0.0
  0
LINE
  5
F38
330
1E
100
AcDbEntity
  8
3
100
AcDbLine
 10
0.8750895270227765
 20
4.378523049181971
 30
0.0
 11
0.8278454325345876
 21
4.374586041307956
 31
0.0
  0
LINE
  5
F39
330
1E
100
AcDbEntity
  8
3
100
AcDbLine
 10
0.8278454325345876
 20
4.374586041307956
 30
0.0
 11
0.7825698419834062
 21
4.354901001937877
 31
0.0
  0
LINE
  5
F3A
330
1E
100
AcDbEntity
  8
3
100
AcDbLine
 10
0.7825698419834062
 20
4.354901001937877
 30
0.0
 11
0.7471367711172645
 21
4.321436435008743
 31
0.0
  0
LINE
  5
F3B
330
1E
100
AcDbEntity
  8
3
100
AcDbLine
 10
0.7471367711172645
 20
4.321436435008743
 30
0.0
 11
0.7235147238731701
 21
4.278129348394569
 31
0.0
  0
LINE
  5
F3C
330
1E
100
AcDbEntity
  8
3
100
AcDbLine
 10
0.7235147238731701
 20
4.278129348394569
 30
0.0
 11
0.7156407081251386
 21
4.230885253906381
 31
0.0
  0
LINE
  5
F3D
330
1E
100
AcDbEntity
  8
3
100
AcDbLine
 10
0.7156407081251386
 20
4.230885253906381
 30
0.0
 11
0.7235147238731701
 21
4.183641159418192
 31
0.0
  0
LINE
  5
F3E
330
1E
100
AcDbEntity
  8
3
100
AcDbLine
 10
0.7235147238731701
 20
4.183641159418192
 30
0.0
 11
0.7471367711172645
 21
4.140334072804019
 31
0.0
  0
LINE
  5
F3F
330
1E
100
AcDbEntity
  8
3
100
AcDbLine
 10
0.7471367711172645
 20
4.140334072804019
 30
0.0
 11
0.7825698419834062
 21
4.106869505874886
 31
0.0
  0
LINE
  5
F40
330
1E
100
AcDbEntity
  8
3
100
AcDbLine
 10
0.7825698419834062
 20
4.106869505874886
 30
0.0
 11
0.8278454325345876
 21
4.087184466504806
 31
0.0
  0
LINE
  5
F41
330
1E
100
AcDbEntity
  8
3
100
AcDbLine
 10
0.8278454325345876
 20
4.087184466504806
 30
0.0
 11
0.8750895270227765
 21
4.083247458630792
 31
0.0
  0
LINE
  5
F42
330
1E
100
AcDbEntity
  8
3
100
AcDbLine
 10
0.8750895270227765
 20
4.083247458630792
 30
0.0
 11
0.9223336215109654
 21
4.095058482252838
 31
0.0
  0
LINE
  5
F43
330
1E
100
AcDbEntity
  8
3
100
AcDbLine
 10
0.9223336215109654
 20
4.095058482252838
 30
0.0
 11
0.9636722041881302
 21
4.122617537370949
 31
0.0
  0
LINE
  5
F44
330
1E
100
AcDbEntity
  8
3
100
AcDbLine
 10
0.9636722041881302
 20
4.122617537370949
 30
0.0
 11
0.9931997632432487
 21
4.160019112174097
 31
0.0
  0
LINE
  5
F45
330
1E
100
AcDbEntity
  8
3
100
AcDbLine
 10
0.7825698419834062
 20
7.636397064930003
 30
0.0
 11
0.7471367711172645
 21
7.602932498000869
 31
0.0
  0
LINE
  5
F46
330
1E
100
AcDbEntity
  8
3
100
AcDbLine
 10
0.7471367711172645
 20
7.602932498000869
 30
0.0
 11
0.7235147238731701
 21
7.559625411386695
 31
0.0
  0
LINE
  5
F47
330
1E
100
AcDbEntity
  8
3
100
AcDbLine
 10
0.7235147238731701
 20
7.559625411386695
 30
0.0
 11
0.7156407081251386
 21
7.512381316898506
 31
0.0
  0
LINE
  5
F48
330
1E
100
AcDbEntity
  8
3
100
AcDbLine
 10
0.7235147238731701
 20
7.465137222410318
 30
0.0
 11
0.7471367711172645
 21
7.421830135796145
 31
0.0
  0
LINE
  5
F49
330
1E
100
AcDbEntity
  8
3
100
AcDbLine
 10
0.7471367711172645
 20
7.421830135796145
 30
0.0
 11
0.7825698419834062
 21
7.388365568867012
 31
0.0
  0
LINE
  5
F4A
330
1E
100
AcDbEntity
  8
3
100
AcDbLine
 10
0.7825698419834062
 20
7.388365568867012
 30
0.0
 11
0.8278454325345876
 21
7.368680529496932
 31
0.0
  0
LINE
  5
F4B
330
1E
100
AcDbEntity
  8
3
100
AcDbLine
 10
0.8278454325345876
 20
7.368680529496932
 30
0.0
 11
0.8750895270227765
 21
7.364743521622918
 31
0.0
  0
LINE
  5
F4C
330
1E
100
AcDbEntity
  8
3
100
AcDbLine
 10
0.8750895270227765
 20
7.364743521622918
 30
0.0
 11
0.9223336215109654
 21
7.376554545244964
 31
0.0
  0
LINE
  5
F4D
330
1E
100
AcDbEntity
  8
3
100
AcDbLine
 10
0.9223336215109654
 20
7.376554545244964
 30
0.0
 11
0.9636722041881302
 21
7.404113600363075
 31
0.0
  0
LINE
  5
F4E
330
1E
100
AcDbEntity
  8
3
100
AcDbLine
 10
0.9636722041881302
 20
7.404113600363075
 30
0.0
 11
0.9931997632432487
 21
7.441515175166223
 31
0.0
  0
LINE
  5
F4F
330
1E
100
AcDbEntity
  8
3
100
AcDbLine
 10
0.9931997632432487
 20
7.441515175166223
 30
0.0
 11
1.008947794739311
 21
7.488759269654412
 31
0.0
  0
LINE
  5
F50
330
1E
100
AcDbEntity
  8
3
100
AcDbLine
 10
1.008947794739311
 20
7.488759269654412
 30
0.0
 11
1.008947794739311
 21
7.536003364142601
 31
0.0
  0
LINE
  5
F51
330
1E
100
AcDbEntity
  8
3
100
AcDbLine
 10
1.008947794739311
 20
7.536003364142601
 30
0.0
 11
0.9931997632432487
 21
7.58324745863079
 31
0.0
  0
LINE
  5
F52
330
1E
100
AcDbEntity
  8
3
100
AcDbLine
 10
0.9931997632432487
 20
7.58324745863079
 30
0.0
 11
0.9636722041881302
 21
7.62064903343394
 31
0.0
  0
LINE
  5
F53
330
1E
100
AcDbEntity
  8
3
100
AcDbLine
 10
0.9636722041881302
 20
7.62064903343394
 30
0.0
 11
0.9223336215109654
 21
7.648208088552051
 31
0.0
  0
LINE
  5
F54
330
1E
100
AcDbEntity
  8
3
100
AcDbLine
 10
0.9223336215109654
 20
7.648208088552051
 30
0.0
 11
0.8750895270227765
 21
7.660019112174097
 31
0.0
  0
LINE
  5
F55
330
1E
100
AcDbEntity
  8
3
100
AcDbLine
 10
0.8750895270227765
 20
7.660019112174097
 30
0.0
 11
0.8278454325345876
 21
7.656082104300082
 31
0.0
  0
LINE
  5
F56
330
1E
100
AcDbEntity
  8
3
100
AcDbLine
 10
0.8278454325345876
 20
7.656082104300082
 30
0.0
 11
0.7825698419834062
 21
7.636397064930003
 31
0.0
  0
LINE
  5
F57
330
1E
100
AcDbEntity
  8
3
100
AcDbLine
 10
-0.0638868509299799
 20
7.429704151544177
 30
0.0
 11
-0.0245167721898225
 21
7.429704151544177
 31
0.0
  0
LINE
  5
F58
330
1E
100
AcDbEntity
  8
3
100
AcDbLine
 10
-0.0245167721898225
 20
7.429704151544177
 30
0.0
 11
0.0089477947393117
 21
7.44545218304024
 31
0.0
  0
LINE
  5
F59
330
1E
100
AcDbEntity
  8
3
100
AcDbLine
 10
0.0089477947393117
 20
7.44545218304024
 30
0.0
 11
0.0325698419834062
 21
7.474979742095358
 31
0.0
  0
LINE
  5
F5A
330
1E
100
AcDbEntity
  8
3
100
AcDbLine
 10
0.0325698419834062
 20
7.474979742095358
 30
0.0
 11
0.0404438577314377
 21
7.512381316898506
 31
0.0
  0
LINE
  5
F5B
330
1E
100
AcDbEntity
  8
3
100
AcDbLine
 10
0.0404438577314377
 20
7.512381316898506
 30
0.0
 11
0.0325698419834062
 21
7.549782891701656
 31
0.0
  0
LINE
  5
F5C
330
1E
100
AcDbEntity
  8
3
100
AcDbLine
 10
0.0325698419834062
 20
7.549782891701656
 30
0.0
 11
0.0089477947393117
 21
7.579310450756775
 31
0.0
  0
LINE
  5
F5D
330
1E
100
AcDbEntity
  8
3
100
AcDbLine
 10
0.0089477947393117
 20
7.579310450756775
 30
0.0
 11
-0.0245167721898225
 21
7.595058482252838
 31
0.0
  0
LINE
  5
F5E
330
1E
100
AcDbEntity
  8
3
100
AcDbLine
 10
-0.0245167721898225
 20
7.595058482252838
 30
0.0
 11
-0.0638868509299799
 21
7.595058482252838
 31
0.0
  0
LINE
  5
F5F
330
1E
100
AcDbEntity
  8
3
100
AcDbLine
 10
-0.0638868509299799
 20
7.595058482252838
 30
0.0
 11
-0.0973514178591133
 21
7.579310450756775
 31
0.0
  0
LINE
  5
F60
330
1E
100
AcDbEntity
  8
3
100
AcDbLine
 10
-0.0973514178591133
 20
7.579310450756775
 30
0.0
 11
-0.1209734651032086
 21
7.549782891701656
 31
0.0
  0
LINE
  5
F61
330
1E
100
AcDbEntity
  8
3
100
AcDbLine
 10
-0.1209734651032086
 20
7.549782891701656
 30
0.0
 11
-0.1288474808512401
 21
7.512381316898506
 31
0.0
  0
LINE
  5
F62
330
1E
100
AcDbEntity
  8
3
100
AcDbLine
 10
-0.1288474808512401
 20
7.512381316898506
 30
0.0
 11
-0.1209734651032086
 21
7.474979742095358
 31
0.0
  0
LINE
  5
F63
330
1E
100
AcDbEntity
  8
3
100
AcDbLine
 10
-0.1209734651032086
 20
7.474979742095358
 30
0.0
 11
-0.0973514178591133
 21
7.44545218304024
 31
0.0
  0
LINE
  5
F64
330
1E
100
AcDbEntity
  8
3
100
AcDbLine
 10
-0.0973514178591133
 20
7.44545218304024
 30
0.0
 11
-0.0638868509299799
 21
7.429704151544177
 31
0.0
  0
LINE
  5
F65
330
1E
100
AcDbEntity
  8
3
100
AcDbLine
 10
-1.095382913922105
 20
7.488759269654412
 30
0.0
 11
-1.079634882426042
 21
7.441515175166223
 31
0.0
  0
LINE
  5
F66
330
1E
100
AcDbEntity
  8
3
100
AcDbLine
 10
-1.079634882426042
 20
7.441515175166223
 30
0.0
 11
-1.050107323370925
 21
7.404113600363075
 31
0.0
  0
LINE
  5
F67
330
1E
100
AcDbEntity
  8
3
100
AcDbLine
 10
-1.050107323370925
 20
7.404113600363075
 30
0.0
 11
-1.008768740693759
 21
7.376554545244964
 31
0.0
  0
LINE
  5
F68
330
1E
100
AcDbEntity
  8
3
100
AcDbLine
 10
-1.008768740693759
 20
7.376554545244964
 30
0.0
 11
-0.9615246462055706
 21
7.364743521622918
 31
0.0
  0
LINE
  5
F69
330
1E
100
AcDbEntity
  8
3
100
AcDbLine
 10
-0.9615246462055706
 20
7.364743521622918
 30
0.0
 11
-0.9142805517173817
 21
7.368680529496932
 31
0.0
  0
LINE
  5
F6A
330
1E
100
AcDbEntity
  8
3
100
AcDbLine
 10
-0.9142805517173817
 20
7.368680529496932
 30
0.0
 11
-0.8690049611662002
 21
7.388365568867012
 31
0.0
  0
LINE
  5
F6B
330
1E
100
AcDbEntity
  8
3
100
AcDbLine
 10
-0.8690049611662002
 20
7.388365568867012
 30
0.0
 11
-0.8335718903000586
 21
7.421830135796145
 31
0.0
  0
LINE
  5
F6C
330
1E
100
AcDbEntity
  8
3
100
AcDbLine
 10
-0.8335718903000586
 20
7.421830135796145
 30
0.0
 11
-0.8099498430559641
 21
7.465137222410318
 31
0.0
  0
LINE
  5
F6D
330
1E
100
AcDbEntity
  8
3
100
AcDbLine
 10
-0.8099498430559641
 20
7.465137222410318
 30
0.0
 11
-0.8020758273079326
 21
7.512381316898506
 31
0.0
  0
LINE
  5
F6E
330
1E
100
AcDbEntity
  8
3
100
AcDbLine
 10
-0.8020758273079326
 20
7.512381316898506
 30
0.0
 11
-0.8099498430559641
 21
7.559625411386695
 31
0.0
  0
LINE
  5
F6F
330
1E
100
AcDbEntity
  8
3
100
AcDbLine
 10
-0.8099498430559641
 20
7.559625411386695
 30
0.0
 11
-0.8335718903000586
 21
7.602932498000869
 31
0.0
  0
LINE
  5
F70
330
1E
100
AcDbEntity
  8
3
100
AcDbLine
 10
-0.8335718903000586
 20
7.602932498000869
 30
0.0
 11
-0.8690049611662002
 21
7.636397064930003
 31
0.0
  0
LINE
  5
F71
330
1E
100
AcDbEntity
  8
3
100
AcDbLine
 10
-0.8690049611662002
 20
7.636397064930003
 30
0.0
 11
-0.9142805517173817
 21
7.656082104300082
 31
0.0
  0
LINE
  5
F72
330
1E
100
AcDbEntity
  8
3
100
AcDbLine
 10
-0.9142805517173817
 20
7.656082104300082
 30
0.0
 11
-0.9615246462055706
 21
7.660019112174097
 31
0.0
  0
LINE
  5
F73
330
1E
100
AcDbEntity
  8
3
100
AcDbLine
 10
-0.9615246462055706
 20
7.660019112174097
 30
0.0
 11
-1.008768740693759
 21
7.648208088552051
 31
0.0
  0
LINE
  5
F74
330
1E
100
AcDbEntity
  8
3
100
AcDbLine
 10
-1.008768740693759
 20
7.648208088552051
 30
0.0
 11
-1.050107323370925
 21
7.62064903343394
 31
0.0
  0
LINE
  5
F75
330
1E
100
AcDbEntity
  8
3
100
AcDbLine
 10
-1.050107323370925
 20
7.62064903343394
 30
0.0
 11
-1.079634882426042
 21
7.58324745863079
 31
0.0
  0
LINE
  5
F76
330
1E
100
AcDbEntity
  8
3
100
AcDbLine
 10
-1.079634882426042
 20
7.58324745863079
 30
0.0
 11
-1.095382913922105
 21
7.536003364142601
 31
0.0
  0
LINE
  5
F77
330
1E
100
AcDbEntity
  8
3
100
AcDbLine
 10
-1.095382913922105
 20
7.536003364142601
 30
0.0
 11
-1.095382913922105
 21
7.488759269654412
 31
0.0
  0
LINE
  5
F78
330
1E
100
AcDbEntity
  8
3
100
AcDbLine
 10
1.839656456156634
 20
7.933641159418192
 30
0.0
 11
1.839656456156634
 21
7.967105726347327
 31
0.0
  0
LINE
  5
F79
330
1E
100
AcDbEntity
  8
3
100
AcDbLine
 10
1.839656456156634
 20
7.967105726347327
 30
0.0
 11
1.853435983715689
 21
7.933641159418192
 31
0.0
  0
LINE
  5
F7A
330
1E
100
AcDbEntity
  8
3
100
AcDbLine
 10
1.674302125447972
 20
7.933641159418192
 30
0.0
 11
1.674302125447972
 21
8.034034860205593
 31
0.0
  0
LINE
  5
F7B
330
1E
100
AcDbEntity
  8
3
100
AcDbLine
 10
1.674302125447972
 20
8.034034860205593
 30
0.0
 11
1.743199763243248
 21
8.034034860205593
 31
0.0
  0
LINE
  5
F7C
330
1E
100
AcDbEntity
  8
3
100
AcDbLine
 10
2.095561967967658
 20
7.933641159418192
 30
0.0
 11
2.071939920723563
 21
7.933641159418192
 31
0.0
  0
LINE
  5
F7D
330
1E
100
AcDbEntity
  8
3
100
AcDbLine
 10
2.071939920723563
 20
7.933641159418192
 30
0.0
 11
2.071939920723563
 21
7.994664781465436
 31
0.0
  0
LINE
  5
F7E
330
1E
100
AcDbEntity
  8
3
100
AcDbLine
 10
2.024695826235374
 20
7.933641159418192
 30
0.0
 11
2.024695826235374
 21
8.010412812961499
 31
0.0
  0
LINE
  5
F7F
330
1E
100
AcDbEntity
  8
3
100
AcDbLine
 10
2.024695826235374
 20
8.010412812961499
 30
0.0
 11
2.044380865605453
 21
8.010412812961499
 31
0.0
  0
LINE
  5
F80
330
1E
100
AcDbEntity
  8
3
100
AcDbLine
 10
1.910522597888918
 20
7.951357694851264
 30
0.0
 11
1.910522597888918
 21
7.994664781465436
 31
0.0
  0
LINE
  5
F81
330
1E
100
AcDbEntity
  8
3
100
AcDbLine
 10
1.910522597888918
 20
7.994664781465436
 30
0.0
 11
1.918396613636949
 21
7.994664781465436
 31
0.0
  0
LINE
  5
F82
330
1E
100
AcDbEntity
  8
3
100
AcDbLine
 10
1.888869054581831
 20
7.933641159418192
 30
0.0
 11
1.888869054581831
 21
8.010412812961499
 31
0.0
  0
LINE
  5
F83
330
1E
100
AcDbEntity
  8
3
100
AcDbLine
 10
1.888869054581831
 20
8.010412812961499
 30
0.0
 11
1.932176141196004
 21
8.010412812961499
 31
0.0
  0
LINE
  5
F84
330
1E
100
AcDbEntity
  8
3
100
AcDbLine
 10
1.995168267180256
 20
7.955294702725279
 30
0.0
 11
1.995168267180256
 21
8.010412812961499
 31
0.0
  0
LINE
  5
F85
330
1E
100
AcDbEntity
  8
3
100
AcDbLine
 10
1.995168267180256
 20
8.010412812961499
 30
0.0
 11
2.010916298676319
 21
8.010412812961499
 31
0.0
  0
LINE
  5
F86
330
1E
100
AcDbEntity
  8
3
100
AcDbLine
 10
2.010916298676319
 20
8.010412812961499
 30
0.0
 11
2.010916298676319
 21
7.947420686977247
 31
0.0
  0
LINE
  5
F87
330
1E
100
AcDbEntity
  8
3
100
AcDbLine
 10
1.957766692377107
 20
7.947420686977247
 30
0.0
 11
1.957766692377107
 21
8.010412812961499
 31
0.0
  0
LINE
  5
F88
330
1E
100
AcDbEntity
  8
3
100
AcDbLine
 10
1.957766692377107
 20
8.010412812961499
 30
0.0
 11
1.981388739621201
 21
8.010412812961499
 31
0.0
  0
LINE
  5
F89
330
1E
100
AcDbEntity
  8
3
100
AcDbLine
 10
1.981388739621201
 20
8.010412812961499
 30
0.0
 11
1.981388739621201
 21
7.955294702725279
 31
0.0
  0
LINE
  5
F8A
330
1E
100
AcDbEntity
  8
3
100
AcDbLine
 10
6.9813887396212
 20
7.352932498000869
 30
0.0
 11
7.022727322298367
 21
7.350963994063862
 31
0.0
  0
LINE
  5
F8B
330
1E
100
AcDbEntity
  8
3
100
AcDbLine
 10
7.022727322298367
 20
7.350963994063862
 30
0.0
 11
7.03847535379443
 21
7.350963994063862
 31
0.0
  0
LINE
  5
F8C
330
1E
100
AcDbEntity
  8
3
100
AcDbLine
 10
7.03847535379443
 20
7.350963994063862
 30
0.0
 11
7.054223385290493
 21
7.354901001937877
 31
0.0
  0
LINE
  5
F8D
330
1E
100
AcDbEntity
  8
3
100
AcDbLine
 10
7.054223385290493
 20
7.354901001937877
 30
0.0
 11
7.09359346403065
 21
7.366712025559925
 31
0.0
  0
LINE
  5
F8E
330
1E
100
AcDbEntity
  8
3
100
AcDbLine
 10
7.020758818361358
 20
6.94545218304024
 30
0.0
 11
7.036506849857421
 21
6.949389190914255
 31
0.0
  0
LINE
  5
F8F
330
1E
100
AcDbEntity
  8
3
100
AcDbLine
 10
7.036506849857421
 20
6.949389190914255
 30
0.0
 11
7.042412361668445
 21
6.955294702725279
 31
0.0
  0
LINE
  5
F90
330
1E
100
AcDbEntity
  8
3
100
AcDbLine
 10
7.042412361668445
 20
6.955294702725279
 30
0.0
 11
7.0561918892275
 21
6.967105726347327
 31
0.0
  0
LINE
  5
F91
330
1E
100
AcDbEntity
  8
3
100
AcDbLine
 10
7.0561918892275
 20
6.967105726347327
 30
0.0
 11
7.064065904975532
 21
6.969074230284334
 31
0.0
  0
LINE
  5
F92
330
1E
100
AcDbEntity
  8
3
100
AcDbLine
 10
7.064065904975532
 20
6.969074230284334
 30
0.0
 11
7.101467479778682
 21
6.955294702725279
 31
0.0
  0
LINE
  5
F93
330
1E
100
AcDbEntity
  8
3
100
AcDbLine
 10
6.979420235684193
 20
6.941515175166223
 30
0.0
 11
7.005010786865295
 21
6.949389190914255
 31
0.0
  0
LINE
  5
F94
330
1E
100
AcDbEntity
  8
3
100
AcDbLine
 10
7.005010786865295
 20
6.949389190914255
 30
0.0
 11
7.020758818361358
 21
6.94545218304024
 31
0.0
  0
LINE
  5
F95
330
1E
100
AcDbEntity
  8
3
100
AcDbLine
 10
7.081782440408602
 20
7.602932498000869
 30
0.0
 11
7.081782440408602
 21
7.595058482252838
 31
0.0
  0
LINE
  5
F96
330
1E
100
AcDbEntity
  8
3
100
AcDbLine
 10
7.081782440408602
 20
7.595058482252838
 30
0.0
 11
7.081782440408602
 21
7.573404938945751
 31
0.0
  0
LINE
  5
F97
330
1E
100
AcDbEntity
  8
3
100
AcDbLine
 10
7.081782440408602
 20
7.573404938945751
 30
0.0
 11
7.081782440408602
 21
7.545845883827642
 31
0.0
  0
LINE
  5
F98
330
1E
100
AcDbEntity
  8
3
100
AcDbLine
 10
7.081782440408602
 20
7.545845883827642
 30
0.0
 11
7.081782440408602
 21
7.543877379890632
 31
0.0
  0
LINE
  5
F99
330
1E
100
AcDbEntity
  8
3
100
AcDbLine
 10
7.081782440408602
 20
7.543877379890632
 30
0.0
 11
7.081782440408602
 21
7.545845883827642
 31
0.0
  0
LINE
  5
F9A
330
1E
100
AcDbEntity
  8
3
100
AcDbLine
 10
7.081782440408602
 20
7.545845883827642
 30
0.0
 11
7.081782440408602
 21
7.573404938945751
 31
0.0
  0
LINE
  5
F9B
330
1E
100
AcDbEntity
  8
3
100
AcDbLine
 10
7.081782440408602
 20
7.573404938945751
 30
0.0
 11
7.081782440408602
 21
7.595058482252838
 31
0.0
  0
LINE
  5
F9C
330
1E
100
AcDbEntity
  8
3
100
AcDbLine
 10
7.081782440408602
 20
7.595058482252838
 30
0.0
 11
7.081782440408602
 21
7.602932498000869
 31
0.0
  0
LINE
  5
F9D
330
1E
100
AcDbEntity
  8
3
100
AcDbLine
 10
7.083750944345611
 20
3.563562419260712
 30
0.0
 11
7.083750944345611
 21
3.559625411386697
 31
0.0
  0
LINE
  5
F9E
330
1E
100
AcDbEntity
  8
3
100
AcDbLine
 10
7.083750944345611
 20
3.559625411386697
 30
0.0
 11
7.095561967967658
 21
3.532066356268586
 31
0.0
  0
LINE
  5
F9F
330
1E
100
AcDbEntity
  8
3
100
AcDbLine
 10
7.158554093951909
 20
7.622617537370949
 30
0.0
 11
7.158554093951909
 21
7.644271080678034
 31
0.0
  0
LINE
  5
FA0
330
1E
100
AcDbEntity
  8
3
100
AcDbLine
 10
7.158554093951909
 20
7.644271080678034
 30
0.0
 11
7.158554093951909
 21
7.652145096426066
 31
0.0
  0
LINE
  5
FA1
330
1E
100
AcDbEntity
  8
3
100
AcDbLine
 10
7.158554093951909
 20
7.652145096426066
 30
0.0
 11
7.158554093951909
 21
7.644271080678034
 31
0.0
  0
LINE
  5
FA2
330
1E
100
AcDbEntity
  8
3
100
AcDbLine
 10
7.158554093951909
 20
7.644271080678034
 30
0.0
 11
7.158554093951909
 21
7.622617537370949
 31
0.0
  0
LINE
  5
FA3
330
1E
100
AcDbEntity
  8
3
100
AcDbLine
 10
7.158554093951909
 20
7.622617537370949
 30
0.0
 11
7.158554093951909
 21
7.587184466504806
 31
0.0
  0
LINE
  5
FA4
330
1E
100
AcDbEntity
  8
3
100
AcDbLine
 10
7.158554093951909
 20
7.587184466504806
 30
0.0
 11
7.158554093951909
 21
7.549782891701656
 31
0.0
  0
LINE
  5
FA5
330
1E
100
AcDbEntity
  8
3
100
AcDbLine
 10
7.158554093951909
 20
7.549782891701656
 30
0.0
 11
7.158554093951909
 21
7.530097852331579
 31
0.0
  0
LINE
  5
FA6
330
1E
100
AcDbEntity
  8
3
100
AcDbLine
 10
7.158554093951909
 20
7.530097852331579
 30
0.0
 11
7.158554093951909
 21
7.549782891701656
 31
0.0
  0
LINE
  5
FA7
330
1E
100
AcDbEntity
  8
3
100
AcDbLine
 10
7.158554093951909
 20
7.549782891701656
 30
0.0
 11
7.158554093951909
 21
7.587184466504806
 31
0.0
  0
LINE
  5
FA8
330
1E
100
AcDbEntity
  8
3
100
AcDbLine
 10
7.158554093951909
 20
7.587184466504806
 30
0.0
 11
7.158554093951909
 21
7.622617537370949
 31
0.0
  0
LINE
  5
FA9
330
1E
100
AcDbEntity
  8
3
100
AcDbLine
 10
7.132963542770808
 20
8.337184466504806
 30
0.0
 11
7.079813936471595
 21
8.321436435008743
 31
0.0
  0
LINE
  5
FAA
330
1E
100
AcDbEntity
  8
3
100
AcDbLine
 10
7.079813936471595
 20
8.321436435008743
 30
0.0
 11
7.032569841983406
 21
8.28797186807961
 31
0.0
  0
LINE
  5
FAB
330
1E
100
AcDbEntity
  8
3
100
AcDbLine
 10
7.032569841983406
 20
8.28797186807961
 30
0.0
 11
7.003042282928287
 21
8.238759269654412
 31
0.0
  0
LINE
  5
FAC
330
1E
100
AcDbEntity
  8
3
100
AcDbLine
 10
7.003042282928287
 20
8.238759269654412
 30
0.0
 11
6.993199763243248
 21
8.183641159418192
 31
0.0
  0
LINE
  5
FAD
330
1E
100
AcDbEntity
  8
3
100
AcDbLine
 10
6.993199763243248
 20
3.559625411386697
 30
0.0
 11
7.003042282928287
 21
3.504507301150475
 31
0.0
  0
LINE
  5
FAE
330
1E
100
AcDbEntity
  8
3
100
AcDbLine
 10
7.003042282928287
 20
3.504507301150475
 30
0.0
 11
7.032569841983406
 21
3.455294702725279
 31
0.0
  0
LINE
  5
FAF
330
1E
100
AcDbEntity
  8
3
100
AcDbLine
 10
7.032569841983406
 20
3.455294702725279
 30
0.0
 11
7.079813936471595
 21
3.421830135796145
 31
0.0
  0
LINE
  5
FB0
330
1E
100
AcDbEntity
  8
3
100
AcDbLine
 10
7.079813936471595
 20
3.421830135796145
 30
0.0
 11
7.132963542770808
 21
3.406082104300082
 31
0.0
  0
LINE
  5
FB1
330
1E
100
AcDbEntity
  8
3
100
AcDbLine
 10
7.158554093951909
 20
7.553719899575673
 30
0.0
 11
7.158554093951909
 21
7.551751395638664
 31
0.0
  0
LINE
  5
FB2
330
1E
100
AcDbEntity
  8
3
100
AcDbLine
 10
7.158554093951909
 20
7.551751395638664
 30
0.0
 11
7.158554093951909
 21
7.539940372016618
 31
0.0
  0
LINE
  5
FB3
330
1E
100
AcDbEntity
  8
3
100
AcDbLine
 10
7.158554093951909
 20
7.58324745863079
 30
0.0
 11
7.158554093951909
 21
7.63049155311898
 31
0.0
  0
LINE
  5
FB4
330
1E
100
AcDbEntity
  8
3
100
AcDbLine
 10
7.158554093951909
 20
7.63049155311898
 30
0.0
 11
7.158554093951909
 21
7.661987616111106
 31
0.0
  0
LINE
  5
FB5
330
1E
100
AcDbEntity
  8
3
100
AcDbLine
 10
7.158554093951909
 20
7.661987616111106
 30
0.0
 11
7.158554093951909
 21
7.63049155311898
 31
0.0
  0
LINE
  5
FB6
330
1E
100
AcDbEntity
  8
3
100
AcDbLine
 10
7.158554093951909
 20
7.63049155311898
 30
0.0
 11
7.158554093951909
 21
7.58324745863079
 31
0.0
  0
LINE
  5
FB7
330
1E
100
AcDbEntity
  8
3
100
AcDbLine
 10
7.158554093951909
 20
7.467105726347327
 30
0.0
 11
7.158554093951909
 21
7.435609663355201
 31
0.0
  0
LINE
  5
FB8
330
1E
100
AcDbEntity
  8
3
100
AcDbLine
 10
7.158554093951909
 20
7.435609663355201
 30
0.0
 11
7.158554093951909
 21
7.467105726347327
 31
0.0
  0
LINE
  5
FB9
330
1E
100
AcDbEntity
  8
3
100
AcDbLine
 10
7.253042282928287
 20
3.427735647607169
 30
0.0
 11
7.253042282928287
 21
3.469074230284334
 31
0.0
  0
LINE
  5
FBA
330
1E
100
AcDbEntity
  8
3
100
AcDbLine
 10
7.253042282928287
 20
3.469074230284334
 30
0.0
 11
7.253042282928287
 21
3.518286828709531
 31
0.0
  0
LINE
  5
FBB
330
1E
100
AcDbEntity
  8
3
100
AcDbLine
 10
7.253042282928287
 20
3.518286828709531
 30
0.0
 11
7.253042282928287
 21
3.573404938945751
 31
0.0
  0
LINE
  5
FBC
330
1E
100
AcDbEntity
  8
3
100
AcDbLine
 10
7.253042282928287
 20
3.394271080678034
 30
0.0
 11
7.253042282928287
 21
3.402145096426066
 31
0.0
  0
LINE
  5
FBD
330
1E
100
AcDbEntity
  8
3
100
AcDbLine
 10
7.253042282928287
 20
3.402145096426066
 30
0.0
 11
7.253042282928287
 21
3.427735647607169
 31
0.0
  0
LINE
  5
FBE
330
1E
100
AcDbEntity
  8
3
100
AcDbLine
 10
7.253042282928287
 20
8.348995490126855
 30
0.0
 11
7.253042282928287
 21
8.341121474378821
 31
0.0
  0
LINE
  5
FBF
330
1E
100
AcDbEntity
  8
3
100
AcDbLine
 10
7.253042282928287
 20
8.341121474378821
 30
0.0
 11
7.253042282928287
 21
8.315530923197719
 31
0.0
  0
LINE
  5
FC0
330
1E
100
AcDbEntity
  8
3
100
AcDbLine
 10
7.253042282928287
 20
8.315530923197719
 30
0.0
 11
7.253042282928287
 21
8.276160844457562
 31
0.0
  0
LINE
  5
FC1
330
1E
100
AcDbEntity
  8
3
100
AcDbLine
 10
7.253042282928287
 20
8.276160844457562
 30
0.0
 11
7.253042282928287
 21
8.224979742095358
 31
0.0
  0
LINE
  5
FC2
330
1E
100
AcDbEntity
  8
3
100
AcDbLine
 10
7.253042282928287
 20
8.224979742095358
 30
0.0
 11
7.253042282928287
 21
8.169861631859138
 31
0.0
  0
LINE
  5
FC3
330
1E
100
AcDbEntity
  8
3
100
AcDbLine
 10
7.158554093951909
 20
6.73285375784339
 30
0.0
 11
7.158554093951909
 21
6.693483679103232
 31
0.0
  0
LINE
  5
FC4
330
1E
100
AcDbEntity
  8
3
100
AcDbLine
 10
7.158554093951909
 20
6.693483679103232
 30
0.0
 11
7.158554093951909
 21
6.683641159418192
 31
0.0
  0
LINE
  5
FC5
330
1E
100
AcDbEntity
  8
3
100
AcDbLine
 10
7.158554093951909
 20
6.683641159418192
 30
0.0
 11
7.158554093951909
 21
6.693483679103232
 31
0.0
  0
LINE
  5
FC6
330
1E
100
AcDbEntity
  8
3
100
AcDbLine
 10
7.079813936471595
 20
6.756475805087484
 30
0.0
 11
7.079813936471595
 21
6.766318324772523
 31
0.0
  0
LINE
  5
FC7
330
1E
100
AcDbEntity
  8
3
100
AcDbLine
 10
7.079813936471595
 20
6.766318324772523
 30
0.0
 11
7.079813936471595
 21
6.78797186807961
 31
0.0
  0
LINE
  5
FC8
330
1E
100
AcDbEntity
  8
3
100
AcDbLine
 10
7.079813936471595
 20
6.78797186807961
 30
0.0
 11
7.079813936471595
 21
6.799782891701656
 31
0.0
  0
LINE
  5
FC9
330
1E
100
AcDbEntity
  8
3
100
AcDbLine
 10
7.079813936471595
 20
6.799782891701656
 30
0.0
 11
7.079813936471595
 21
6.78797186807961
 31
0.0
  0
LINE
  5
FCA
330
1E
100
AcDbEntity
  8
3
100
AcDbLine
 10
7.079813936471595
 20
6.78797186807961
 30
0.0
 11
7.079813936471595
 21
6.766318324772523
 31
0.0
  0
LINE
  5
FCB
330
1E
100
AcDbEntity
  8
3
100
AcDbLine
 10
7.079813936471595
 20
6.766318324772523
 30
0.0
 11
7.079813936471595
 21
6.756475805087484
 31
0.0
  0
LINE
  5
FCC
330
1E
100
AcDbEntity
  8
3
100
AcDbLine
 10
7.158554093951909
 20
6.746633285402444
 30
0.0
 11
7.158554093951909
 21
6.748601789339453
 31
0.0
  0
LINE
  5
FCD
330
1E
100
AcDbEntity
  8
3
100
AcDbLine
 10
7.158554093951909
 20
6.748601789339453
 30
0.0
 11
7.158554093951909
 21
6.760412812961499
 31
0.0
  0
LINE
  5
FCE
330
1E
100
AcDbEntity
  8
3
100
AcDbLine
 10
7.158554093951909
 20
5.82537344288276
 30
0.0
 11
7.158554093951909
 21
5.786003364142601
 31
0.0
  0
LINE
  5
FCF
330
1E
100
AcDbEntity
  8
3
100
AcDbLine
 10
7.158554093951909
 20
5.786003364142601
 30
0.0
 11
7.158554093951909
 21
5.776160844457562
 31
0.0
  0
LINE
  5
FD0
330
1E
100
AcDbEntity
  8
3
100
AcDbLine
 10
7.158554093951909
 20
5.776160844457562
 30
0.0
 11
7.158554093951909
 21
5.786003364142601
 31
0.0
  0
LINE
  5
FD1
330
1E
100
AcDbEntity
  8
3
100
AcDbLine
 10
7.158554093951909
 20
5.786003364142601
 30
0.0
 11
7.158554093951909
 21
5.82537344288276
 31
0.0
  0
LINE
  5
FD2
330
1E
100
AcDbEntity
  8
3
100
AcDbLine
 10
7.079813936471595
 20
5.850963994063862
 30
0.0
 11
7.079813936471595
 21
5.860806513748901
 31
0.0
  0
LINE
  5
FD3
330
1E
100
AcDbEntity
  8
3
100
AcDbLine
 10
7.079813936471595
 20
5.860806513748901
 30
0.0
 11
7.079813936471595
 21
5.882460057055988
 31
0.0
  0
LINE
  5
FD4
330
1E
100
AcDbEntity
  8
3
100
AcDbLine
 10
7.079813936471595
 20
5.882460057055988
 30
0.0
 11
7.079813936471595
 21
5.892302576741027
 31
0.0
  0
LINE
  5
FD5
330
1E
100
AcDbEntity
  8
3
100
AcDbLine
 10
7.079813936471595
 20
5.892302576741027
 30
0.0
 11
7.079813936471595
 21
5.882460057055988
 31
0.0
  0
LINE
  5
FD6
330
1E
100
AcDbEntity
  8
3
100
AcDbLine
 10
7.079813936471595
 20
5.882460057055988
 30
0.0
 11
7.079813936471595
 21
5.860806513748901
 31
0.0
  0
LINE
  5
FD7
330
1E
100
AcDbEntity
  8
3
100
AcDbLine
 10
7.158554093951909
 20
5.841121474378823
 30
0.0
 11
7.158554093951909
 21
5.84308997831583
 31
0.0
  0
LINE
  5
FD8
330
1E
100
AcDbEntity
  8
3
100
AcDbLine
 10
7.158554093951909
 20
5.84308997831583
 30
0.0
 11
7.158554093951909
 21
5.854901001937877
 31
0.0
  0
LINE
  5
FD9
330
1E
100
AcDbEntity
  8
3
100
AcDbLine
 10
7.160522597888917
 20
4.919861631859138
 30
0.0
 11
7.160522597888917
 21
4.88049155311898
 31
0.0
  0
LINE
  5
FDA
330
1E
100
AcDbEntity
  8
3
100
AcDbLine
 10
7.160522597888917
 20
4.88049155311898
 30
0.0
 11
7.160522597888917
 21
4.87064903343394
 31
0.0
  0
LINE
  5
FDB
330
1E
100
AcDbEntity
  8
3
100
AcDbLine
 10
7.160522597888917
 20
4.87064903343394
 30
0.0
 11
7.160522597888917
 21
4.88049155311898
 31
0.0
  0
LINE
  5
FDC
330
1E
100
AcDbEntity
  8
3
100
AcDbLine
 10
7.160522597888917
 20
4.88049155311898
 30
0.0
 11
7.160522597888917
 21
4.919861631859138
 31
0.0
  0
LINE
  5
FDD
330
1E
100
AcDbEntity
  8
3
100
AcDbLine
 10
7.081782440408602
 20
4.943483679103232
 30
0.0
 11
7.081782440408602
 21
4.953326198788271
 31
0.0
  0
LINE
  5
FDE
330
1E
100
AcDbEntity
  8
3
100
AcDbLine
 10
7.081782440408602
 20
4.953326198788271
 30
0.0
 11
7.081782440408602
 21
4.976948246032366
 31
0.0
  0
LINE
  5
FDF
330
1E
100
AcDbEntity
  8
3
100
AcDbLine
 10
7.081782440408602
 20
4.976948246032366
 30
0.0
 11
7.081782440408602
 21
4.986790765717405
 31
0.0
  0
LINE
  5
FE0
330
1E
100
AcDbEntity
  8
3
100
AcDbLine
 10
7.081782440408602
 20
4.986790765717405
 30
0.0
 11
7.081782440408602
 21
4.976948246032366
 31
0.0
  0
LINE
  5
FE1
330
1E
100
AcDbEntity
  8
3
100
AcDbLine
 10
7.081782440408602
 20
4.976948246032366
 30
0.0
 11
7.081782440408602
 21
4.953326198788271
 31
0.0
  0
LINE
  5
FE2
330
1E
100
AcDbEntity
  8
3
100
AcDbLine
 10
7.081782440408602
 20
4.953326198788271
 30
0.0
 11
7.081782440408602
 21
4.943483679103232
 31
0.0
  0
LINE
  5
FE3
330
1E
100
AcDbEntity
  8
3
100
AcDbLine
 10
7.160522597888917
 20
4.933641159418192
 30
0.0
 11
7.160522597888917
 21
4.935609663355201
 31
0.0
  0
LINE
  5
FE4
330
1E
100
AcDbEntity
  8
3
100
AcDbLine
 10
7.160522597888917
 20
4.935609663355201
 30
0.0
 11
7.160522597888917
 21
4.949389190914255
 31
0.0
  0
LINE
  5
FE5
330
1E
100
AcDbEntity
  8
3
100
AcDbLine
 10
7.158554093951909
 20
4.160019112174097
 30
0.0
 11
7.158554093951909
 21
4.112775017685908
 31
0.0
  0
LINE
  5
FE6
330
1E
100
AcDbEntity
  8
3
100
AcDbLine
 10
7.158554093951909
 20
4.112775017685908
 30
0.0
 11
7.158554093951909
 21
4.081278954693782
 31
0.0
  0
LINE
  5
FE7
330
1E
100
AcDbEntity
  8
3
100
AcDbLine
 10
7.158554093951909
 20
4.081278954693782
 30
0.0
 11
7.158554093951909
 21
4.112775017685908
 31
0.0
  0
LINE
  5
FE8
330
1E
100
AcDbEntity
  8
3
100
AcDbLine
 10
7.158554093951909
 20
4.112775017685908
 30
0.0
 11
7.158554093951909
 21
4.160019112174097
 31
0.0
  0
LINE
  5
FE9
330
1E
100
AcDbEntity
  8
3
100
AcDbLine
 10
7.158554093951909
 20
4.276160844457562
 30
0.0
 11
7.158554093951909
 21
4.307656907449688
 31
0.0
  0
LINE
  5
FEA
330
1E
100
AcDbEntity
  8
3
100
AcDbLine
 10
7.158554093951909
 20
4.307656907449688
 30
0.0
 11
7.158554093951909
 21
4.309625411386695
 31
0.0
  0
LINE
  5
FEB
330
1E
100
AcDbEntity
  8
3
100
AcDbLine
 10
7.158554093951909
 20
4.309625411386695
 30
0.0
 11
7.158554093951909
 21
4.307656907449688
 31
0.0
  0
LINE
  5
FEC
330
1E
100
AcDbEntity
  8
3
100
AcDbLine
 10
7.158554093951909
 20
4.307656907449688
 30
0.0
 11
7.158554093951909
 21
4.276160844457562
 31
0.0
  0
LINE
  5
FED
330
1E
100
AcDbEntity
  8
3
100
AcDbLine
 10
7.158554093951909
 20
4.189546671229216
 30
0.0
 11
7.158554093951909
 21
4.191515175166223
 31
0.0
  0
LINE
  5
FEE
330
1E
100
AcDbEntity
  8
3
100
AcDbLine
 10
7.158554093951909
 20
4.191515175166223
 30
0.0
 11
7.158554093951909
 21
4.203326198788271
 31
0.0
  0
LINE
  5
FEF
330
1E
100
AcDbEntity
  8
3
100
AcDbLine
 10
7.158554093951909
 20
4.156082104300082
 30
0.0
 11
7.158554093951909
 21
4.193483679103232
 31
0.0
  0
LINE
  5
FF0
330
1E
100
AcDbEntity
  8
3
100
AcDbLine
 10
7.158554093951909
 20
4.193483679103232
 30
0.0
 11
7.158554093951909
 21
4.21316871847331
 31
0.0
  0
LINE
  5
FF1
330
1E
100
AcDbEntity
  8
3
100
AcDbLine
 10
7.158554093951909
 20
4.21316871847331
 30
0.0
 11
7.158554093951909
 21
4.193483679103232
 31
0.0
  0
LINE
  5
FF2
330
1E
100
AcDbEntity
  8
3
100
AcDbLine
 10
7.158554093951909
 20
4.193483679103232
 30
0.0
 11
7.158554093951909
 21
4.156082104300082
 31
0.0
  0
LINE
  5
FF3
330
1E
100
AcDbEntity
  8
3
100
AcDbLine
 10
7.158554093951909
 20
4.156082104300082
 30
0.0
 11
7.158554093951909
 21
4.122617537370949
 31
0.0
  0
LINE
  5
FF4
330
1E
100
AcDbEntity
  8
3
100
AcDbLine
 10
7.158554093951909
 20
4.122617537370949
 30
0.0
 11
7.158554093951909
 21
4.098995490126855
 31
0.0
  0
LINE
  5
FF5
330
1E
100
AcDbEntity
  8
3
100
AcDbLine
 10
7.158554093951909
 20
4.098995490126855
 30
0.0
 11
7.158554093951909
 21
4.091121474378823
 31
0.0
  0
LINE
  5
FF6
330
1E
100
AcDbEntity
  8
3
100
AcDbLine
 10
7.158554093951909
 20
4.091121474378823
 30
0.0
 11
7.158554093951909
 21
4.098995490126855
 31
0.0
  0
LINE
  5
FF7
330
1E
100
AcDbEntity
  8
3
100
AcDbLine
 10
7.158554093951909
 20
4.098995490126855
 30
0.0
 11
7.158554093951909
 21
4.122617537370949
 31
0.0
  0
LINE
  5
FF8
330
1E
100
AcDbEntity
  8
3
100
AcDbLine
 10
7.158554093951909
 20
4.122617537370949
 30
0.0
 11
7.158554093951909
 21
4.156082104300082
 31
0.0
  0
LINE
  5
FF9
330
1E
100
AcDbEntity
  8
3
100
AcDbLine
 10
7.081782440408602
 20
4.140334072804019
 30
0.0
 11
7.081782440408602
 21
4.148208088552051
 31
0.0
  0
LINE
  5
FFA
330
1E
100
AcDbEntity
  8
3
100
AcDbLine
 10
7.081782440408602
 20
4.148208088552051
 30
0.0
 11
7.081782440408602
 21
4.169861631859138
 31
0.0
  0
LINE
  5
FFB
330
1E
100
AcDbEntity
  8
3
100
AcDbLine
 10
7.081782440408602
 20
4.169861631859138
 30
0.0
 11
7.081782440408602
 21
4.197420686977247
 31
0.0
  0
LINE
  5
FFC
330
1E
100
AcDbEntity
  8
3
100
AcDbLine
 10
7.081782440408602
 20
4.197420686977247
 30
0.0
 11
7.081782440408602
 21
4.199389190914255
 31
0.0
  0
LINE
  5
FFD
330
1E
100
AcDbEntity
  8
3
100
AcDbLine
 10
7.081782440408602
 20
4.199389190914255
 30
0.0
 11
7.081782440408602
 21
4.197420686977247
 31
0.0
  0
LINE
  5
FFE
330
1E
100
AcDbEntity
  8
3
100
AcDbLine
 10
7.081782440408602
 20
4.197420686977247
 30
0.0
 11
7.081782440408602
 21
4.169861631859138
 31
0.0
  0
LINE
  5
FFF
330
1E
100
AcDbEntity
  8
3
100
AcDbLine
 10
7.081782440408602
 20
4.169861631859138
 30
0.0
 11
7.081782440408602
 21
4.148208088552051
 31
0.0
  0
LINE
  5
1000
330
1E
100
AcDbEntity
  8
3
100
AcDbLine
 10
7.081782440408602
 20
4.148208088552051
 30
0.0
 11
7.081782440408602
 21
4.140334072804019
 31
0.0
  0
LINE
  5
11D1
330
1E
100
AcDbEntity
  8
3
100
AcDbLine
 10
6.991231259306241
 20
7.177735647607169
 30
0.0
 11
6.831782440408602
 21
7.203326198788271
 31
0.0
  0
LINE
  5
11D2
330
1E
100
AcDbEntity
  8
3
100
AcDbLine
 10
6.831782440408602
 20
7.203326198788271
 30
0.0
 11
6.831782440408602
 21
7.150176592489058
 31
0.0
  0
LINE
  5
11D3
330
1E
100
AcDbEntity
  8
3
100
AcDbLine
 10
7.083750944345611
 20
7.177735647607169
 30
0.0
 11
7.243199763243248
 21
7.150176592489058
 31
0.0
  0
LINE
  5
11D4
330
1E
100
AcDbEntity
  8
3
100
AcDbLine
 10
7.243199763243248
 20
7.150176592489058
 30
0.0
 11
7.243199763243248
 21
7.203326198788271
 31
0.0
  0
LINE
  5
11D5
330
1E
100
AcDbEntity
  8
3
100
AcDbLine
 10
7.243199763243248
 20
7.203326198788271
 30
0.0
 11
7.083750944345611
 21
7.177735647607169
 31
0.0
  0
ENDSEC
  0
SECTION
  2
OBJECTS
  0
DICTIONARY
  5
C
330
0
100
AcDbDictionary
  3
ACAD_GROUP
350
D
  3
ACAD_LAYOUT
350
19
  3
ACAD_MLINESTYLE
350
16
  3
ACAD_PLOTSETTINGS
350
18
1001
ACAD
1000
TREAT_AS_HARD
1070
     0
  0
DICTIONARY
  5
D87
330
1E
100
AcDbDictionary
  3
ACAD_LAYOUTSELFREF
350
1453
1001
ACAD
1000
TREAT_AS_HARD
1070
     1
  0
DICTIONARY
  5
D89
330
1A
100
AcDbDictionary
  3
ACAD_LAYOUTSELFREF
350
1452
1001
ACAD
1000
TREAT_AS_HARD
1070
     1
  0
DICTIONARY
  5
D
102
{ACAD_REACTORS
330
C
102
}
330
C
100
AcDbDictionary
1001
ACAD
1000
TREAT_AS_HARD
1070
     0
  0
DICTIONARY
  5
19
102
{ACAD_REACTORS
330
C
102
}
330
C
100
AcDbDictionary
1001
ACAD
1000
TREAT_AS_HARD
1070
     0
  0
DICTIONARY
  5
16
102
{ACAD_REACTORS
330
C
102
}
330
C
100
AcDbDictionary
  3
STANDARD
350
17
1001
ACAD
1000
TREAT_AS_HARD
1070
     0
  0
DICTIONARY
  5
18
102
{ACAD_REACTORS
330
C
102
}
330
C
100
AcDbDictionary
1001
ACAD
1000
TREAT_AS_HARD
1070
     0
  0
XRECORD
  5
1453
102
{ACAD_REACTORS
330
D87
102
}
330
D87
100
AcDbXrecord
340
1E
  0
XRECORD
  5
1452
102
{ACAD_REACTORS
330
D89
102
}
330
D89
100
AcDbXrecord
340
1A
  0
MLINESTYLE
  5
17
102
{ACAD_REACTORS
330
16
102
}
330
16
100
AcDbMlineStyle
  2
STANDARD
 70
     0
  3

 62
   256
 51
90.0
 52
90.0
 71
     2
 49
0.5
 62
   256
  6
BYLAYER
 49
-0.5
 62
   256
  6
BYLAYER
  0
ENDSEC
  0
EOF
